  0
SECTION
  2
HEADER
  9
$ACADVER
  1
AC1015
  9
$ACADMAINTVER
 70
    20
  9
$DWGCODEPAGE
  3
ANSI_932
  9
$INSBASE
 10
0.0
 20
0.0
 30
0.0
  9
$EXTMIN
 10
1095.254302976685
 20
19.16541613366644
 30
0.0
  9
$EXTMAX
 10
1768.872354730863
 20
300.2875448636664
 30
0.0
  9
$LIMMIN
 10
0.0
 20
0.0
  9
$LIMMAX
 10
12.0
 20
9.0
  9
$ORTHOMODE
 70
     0
  9
$REGENMODE
 70
     1
  9
$FILLMODE
 70
     1
  9
$QTEXTMODE
 70
     0
  9
$MIRRTEXT
 70
     0
  9
$LTSCALE
 40
0.3
  9
$ATTMODE
 70
     1
  9
$TEXTSIZE
 40
3.2
  9
$TRACEWID
 40
0.05
  9
$TEXTSTYLE
  7
高3.2
  9
$CLAYER
  8
0
  9
$CELTYPE
  6
ByLayer
  9
$CECOLOR
 62
   256
  9
$CELTSCALE
 40
1.0
  9
$DISPSILH
 70
     0
  9
$DIMSCALE
 40
1.0
  9
$DIMASZ
 40
2.5
  9
$DIMEXO
 40
0.25
  9
$DIMDLI
 40
0.2
  9
$DIMRND
 40
0.0
  9
$DIMDLE
 40
0.0
  9
$DIMEXE
 40
1.25
  9
$DIMTP
 40
0.0
  9
$DIMTM
 40
0.0
  9
$DIMTXT
 40
3.0
  9
$DIMCEN
 40
0.0
  9
$DIMTSZ
 40
0.0
  9
$DIMTOL
 70
     0
  9
$DIMLIM
 70
     0
  9
$DIMTIH
 70
     0
  9
$DIMTOH
 70
     0
  9
$DIMSE1
 70
     0
  9
$DIMSE2
 70
     0
  9
$DIMTAD
 70
     3
  9
$DIMZIN
 70
     8
  9
$DIMBLK
  1
Open30
  9
$DIMASO
 70
     1
  9
$DIMSHO
 70
     1
  9
$DIMPOST
  1

  9
$DIMAPOST
  1

  9
$DIMALT
 70
     0
  9
$DIMALTD
 70
     3
  9
$DIMALTF
 40
0.03937007874016
  9
$DIMLFAC
 40
1.0
  9
$DIMTOFL
 70
     1
  9
$DIMTVP
 40
0.0
  9
$DIMTIX
 70
     0
  9
$DIMSOXD
 70
     0
  9
$DIMSAH
 70
     0
  9
$DIMBLK1
  1

  9
$DIMBLK2
  1

  9
$DIMSTYLE
  2
1：1
  9
$DIMCLRD
 70
     0
  9
$DIMCLRE
 70
     0
  9
$DIMCLRT
 70
     4
  9
$DIMTFAC
 40
1.0
  9
$DIMGAP
 40
0.625
  9
$DIMJUST
 70
     0
  9
$DIMSD1
 70
     0
  9
$DIMSD2
 70
     0
  9
$DIMTOLJ
 70
     0
  9
$DIMTZIN
 70
     8
  9
$DIMALTZ
 70
     0
  9
$DIMALTTZ
 70
     0
  9
$DIMUPT
 70
     1
  9
$DIMDEC
 70
     2
  9
$DIMTDEC
 70
     2
  9
$DIMALTU
 70
     2
  9
$DIMALTTD
 70
     3
  9
$DIMTXSTY
  7
Standard
  9
$DIMAUNIT
 70
     0
  9
$DIMADEC
 70
     1
  9
$DIMALTRND
 40
0.0
  9
$DIMAZIN
 70
     2
  9
$DIMDSEP
 70
    46
  9
$DIMATFIT
 70
     0
  9
$DIMFRAC
 70
     0
  9
$DIMLDRBLK
  1
Open30
  9
$DIMLUNIT
 70
     2
  9
$DIMLWD
 70
    -2
  9
$DIMLWE
 70
    -2
  9
$DIMTMOVE
 70
     0
  9
$LUNITS
 70
     2
  9
$LUPREC
 70
     4
  9
$SKETCHINC
 40
0.1
  9
$FILLETRAD
 40
1.0
  9
$AUNITS
 70
     0
  9
$AUPREC
 70
     0
  9
$MENU
  1
.
  9
$ELEVATION
 40
0.0
  9
$PELEVATION
 40
0.0
  9
$THICKNESS
 40
0.0
  9
$LIMCHECK
 70
     0
  9
$CHAMFERA
 40
0.5
  9
$CHAMFERB
 40
0.5
  9
$CHAMFERC
 40
0.0
  9
$CHAMFERD
 40
0.0
  9
$SKPOLY
 70
     0
  9
$TDCREATE
 40
2456745.744969190
  9
$TDUCREATE
 40
2456745.369969190
  9
$TDUPDATE
 40
2457423.588525347
  9
$TDUUPDATE
 40
2457423.213525347
  9
$TDINDWG
 40
0.4541797454
  9
$TDUSRTIMER
 40
0.4541797222
  9
$USRTIMER
 70
     1
  9
$ANGBASE
 50
0.0
  9
$ANGDIR
 70
     0
  9
$PDMODE
 70
     0
  9
$PDSIZE
 40
0.0
  9
$PLINEWID
 40
0.0
  9
$SPLFRAME
 70
     0
  9
$SPLINETYPE
 70
     6
  9
$SPLINESEGS
 70
     8
  9
$HANDSEED
  5
21C0
  9
$SURFTAB1
 70
     6
  9
$SURFTAB2
 70
     6
  9
$SURFTYPE
 70
     6
  9
$SURFU
 70
     6
  9
$SURFV
 70
     6
  9
$UCSBASE
  2

  9
$UCSNAME
  2

  9
$UCSORG
 10
0.0
 20
0.0
 30
0.0
  9
$UCSXDIR
 10
1.0
 20
0.0
 30
0.0
  9
$UCSYDIR
 10
0.0
 20
1.0
 30
0.0
  9
$UCSORTHOREF
  2

  9
$UCSORTHOVIEW
 70
     0
  9
$UCSORGTOP
 10
0.0
 20
0.0
 30
0.0
  9
$UCSORGBOTTOM
 10
0.0
 20
0.0
 30
0.0
  9
$UCSORGLEFT
 10
0.0
 20
0.0
 30
0.0
  9
$UCSORGRIGHT
 10
0.0
 20
0.0
 30
0.0
  9
$UCSORGFRONT
 10
0.0
 20
0.0
 30
0.0
  9
$UCSORGBACK
 10
0.0
 20
0.0
 30
0.0
  9
$PUCSBASE
  2

  9
$PUCSNAME
  2

  9
$PUCSORG
 10
0.0
 20
0.0
 30
0.0
  9
$PUCSXDIR
 10
1.0
 20
0.0
 30
0.0
  9
$PUCSYDIR
 10
0.0
 20
1.0
 30
0.0
  9
$PUCSORTHOREF
  2

  9
$PUCSORTHOVIEW
 70
     0
  9
$PUCSORGTOP
 10
0.0
 20
0.0
 30
0.0
  9
$PUCSORGBOTTOM
 10
0.0
 20
0.0
 30
0.0
  9
$PUCSORGLEFT
 10
0.0
 20
0.0
 30
0.0
  9
$PUCSORGRIGHT
 10
0.0
 20
0.0
 30
0.0
  9
$PUCSORGFRONT
 10
0.0
 20
0.0
 30
0.0
  9
$PUCSORGBACK
 10
0.0
 20
0.0
 30
0.0
  9
$USERI1
 70
     0
  9
$USERI2
 70
     0
  9
$USERI3
 70
     0
  9
$USERI4
 70
     0
  9
$USERI5
 70
     0
  9
$USERR1
 40
0.0
  9
$USERR2
 40
0.0
  9
$USERR3
 40
0.0
  9
$USERR4
 40
0.0
  9
$USERR5
 40
0.0
  9
$WORLDVIEW
 70
     1
  9
$SHADEDGE
 70
     3
  9
$SHADEDIF
 70
    70
  9
$TILEMODE
 70
     1
  9
$MAXACTVP
 70
    64
  9
$PINSBASE
 10
0.0
 20
0.0
 30
0.0
  9
$PLIMCHECK
 70
     0
  9
$PEXTMIN
 10
0.0
 20
0.0
 30
0.0
  9
$PEXTMAX
 10
0.0
 20
0.0
 30
0.0
  9
$PLIMMIN
 10
0.0
 20
0.0
  9
$PLIMMAX
 10
12.0
 20
9.0
  9
$UNITMODE
 70
     0
  9
$VISRETAIN
 70
     1
  9
$PLINEGEN
 70
     0
  9
$PSLTSCALE
 70
     1
  9
$TREEDEPTH
 70
  3020
  9
$CMLSTYLE
  2
Standard
  9
$CMLJUST
 70
     0
  9
$CMLSCALE
 40
1.0
  9
$PROXYGRAPHICS
 70
     1
  9
$MEASUREMENT
 70
     1
  9
$CELWEIGHT
370
    -1
  9
$ENDCAPS
280
     0
  9
$JOINSTYLE
280
     0
  9
$LWDISPLAY
290
     0
  9
$INSUNITS
 70
     1
  9
$HYPERLINKBASE
  1

  9
$STYLESHEET
  1
N-PLOT.CTB
  9
$XEDIT
290
     1
  9
$CEPSNTYPE
380
     0
  9
$PSTYLEMODE
290
     1
  9
$FINGERPRINTGUID
  2
{015DB4E6-10C3-41C0-8E03-7CA7014847EE}
  9
$VERSIONGUID
  2
{48A77670-8939-4878-816B-78CC87C38843}
  9
$EXTNAMES
290
     1
  9
$PSVPSCALE
 40
0.0
  9
$OLESTARTUP
290
     0
  0
ENDSEC
  0
SECTION
  2
CLASSES
  0
CLASS
  1
ACDBDICTIONARYWDFLT
  2
AcDbDictionaryWithDefault
  3
ObjectDBX Classes
 90
        0
280
     0
281
     0
  0
CLASS
  1
ACDBPLACEHOLDER
  2
AcDbPlaceHolder
  3
ObjectDBX Classes
 90
        0
280
     0
281
     0
  0
CLASS
  1
LAYOUT
  2
AcDbLayout
  3
ObjectDBX Classes
 90
        0
280
     0
281
     0
  0
CLASS
  1
DICTIONARYVAR
  2
AcDbDictionaryVar
  3
ObjectDBX Classes
 90
        0
280
     0
281
     0
  0
CLASS
  1
TABLESTYLE
  2
AcDbTableStyle
  3
ObjectDBX Classes
 90
     4095
280
     0
281
     0
  0
CLASS
  1
MATERIAL
  2
AcDbMaterial
  3
ObjectDBX Classes
 90
     1153
280
     0
281
     0
  0
CLASS
  1
VISUALSTYLE
  2
AcDbVisualStyle
  3
ObjectDBX Classes
 90
     4095
280
     0
281
     0
  0
CLASS
  1
SORTENTSTABLE
  2
AcDbSortentsTable
  3
ObjectDBX Classes
 90
        0
280
     0
281
     0
  0
CLASS
  1
DIMASSOC
  2
AcDbDimAssoc
  3
"AcDbDimAssoc|Product Desc:     AcDim ARX App For Dimension|Company:          Autodesk, Inc.|WEB Address:      www.autodesk.com"
 90
        0
280
     0
281
     0
  0
CLASS
  1
SCALE
  2
AcDbScale
  3
ObjectDBX Classes
 90
     1153
280
     0
281
     0
  0
CLASS
  1
MLEADERSTYLE
  2
AcDbMLeaderStyle
  3
ACDB_MLEADERSTYLE_CLASS
 90
     4095
280
     0
281
     0
  0
CLASS
  1
CELLSTYLEMAP
  2
AcDbCellStyleMap
  3
ObjectDBX Classes
 90
     1152
280
     0
281
     0
  0
CLASS
  1
AEC_REFEDIT_STATUS_TRACKER
  2
AecDbRefEditStatusTracker
  3
AecArchBase60|Product Desc: Autodesk Architectural Desktop 2007 |Company: Autodesk,Inc. |WEB Address: www.autodesk.com
 90
      129
280
     0
281
     0
  0
CLASS
  1
NPOCOLLECTION
  2
AcDbImpNonPersistentObjectsCollection
  3
ObjectDBX Classes
 90
     1153
280
     0
281
     0
  0
ENDSEC
  0
SECTION
  2
TABLES
  0
TABLE
  2
VPORT
  5
8
102
{ACAD_XDICTIONARY
360
10A9
102
}
330
0
100
AcDbSymbolTable
 70
     1
  0
VPORT
  5
94
330
8
100
AcDbSymbolTableRecord
100
AcDbViewportTableRecord
  2
*Active
 70
     0
 10
0.0
 20
0.0
 11
1.0
 21
1.0
 12
1342.861353616364
 22
142.717287162601
 13
0.0
 23
0.0
 14
0.5
 24
0.5
 15
0.5
 25
0.5
 16
0.0
 26
0.0
 36
1.0
 17
0.0
 27
0.0
 37
0.0
 40
480.2759123237774
 41
1.73216885007278
 42
50.0
 43
0.0
 44
0.0
 50
0.0
 51
0.0
 71
     0
 72
  1000
 73
     1
 74
     2
 75
     0
 76
     0
 77
     0
 78
     0
281
     0
 65
     1
110
0.0
120
0.0
130
0.0
111
1.0
121
0.0
131
0.0
112
0.0
122
1.0
132
0.0
 79
     0
146
0.0
  0
ENDTAB
  0
TABLE
  2
LTYPE
  5
5
330
0
100
AcDbSymbolTable
 70
     5
  0
LTYPE
  5
14
330
5
100
AcDbSymbolTableRecord
100
AcDbLinetypeTableRecord
  2
ByBlock
 70
     0
  3

 72
    65
 73
     0
 40
0.0
  0
LTYPE
  5
15
330
5
100
AcDbSymbolTableRecord
100
AcDbLinetypeTableRecord
  2
ByLayer
 70
     0
  3

 72
    65
 73
     0
 40
0.0
  0
LTYPE
  5
16
330
5
100
AcDbSymbolTableRecord
100
AcDbLinetypeTableRecord
  2
Continuous
 70
     0
  3
Solid line
 72
    65
 73
     0
 40
0.0
  0
LTYPE
  5
EC7
330
5
100
AcDbSymbolTableRecord
100
AcDbLinetypeTableRecord
  2
CENTER
 70
     0
  3
Center ____ _ ____ _ ____ _ ____ _ ____ _ ____
 72
    65
 73
     4
 40
50.8
 49
31.75
 74
     0
 49
-6.349999999999997
 74
     0
 49
6.349999999999997
 74
     0
 49
-6.349999999999997
 74
     0
  0
LTYPE
  5
1496
330
5
100
AcDbSymbolTableRecord
100
AcDbLinetypeTableRecord
  2
HIDDEN
 70
     0
  3
Hidden __ __ __ __ __ __ __ __ __ __ __ __ __ _
 72
    65
 73
     2
 40
9.524999999999996
 49
6.349999999999997
 74
     0
 49
-3.174999999999998
 74
     0
  0
ENDTAB
  0
TABLE
  2
LAYER
  5
2
102
{ACAD_XDICTIONARY
360
DD
102
}
330
0
100
AcDbSymbolTable
 70
     2
  0
LAYER
  5
10
102
{ACAD_XDICTIONARY
360
103B
102
}
330
2
100
AcDbSymbolTableRecord
100
AcDbLayerTableRecord
  2
0
 70
     0
 62
     7
  6
Continuous
370
    -3
390
F
  0
LAYER
  5
D8
330
2
100
AcDbSymbolTableRecord
100
AcDbLayerTableRecord
  2
Defpoints
 70
     0
 62
     7
  6
Continuous
290
     0
370
    -3
390
F
  0
ENDTAB
  0
TABLE
  2
STYLE
  5
3
330
0
100
AcDbSymbolTable
 70
     7
  0
STYLE
  5
11
330
3
100
AcDbSymbolTableRecord
100
AcDbTextStyleTableRecord
  2
Standard
 70
     0
 40
0.0
 41
1.0
 50
0.0
 71
     0
 42
0.2
  3
txt.shx
  4
bigfont.shx
  0
STYLE
  5
11D
330
3
100
AcDbSymbolTableRecord
100
AcDbTextStyleTableRecord
  2
高3.2
 70
     0
 40
3.2
 41
1.0
 50
0.0
 71
     0
 42
3.2
  3
txt.shx
  4
bigfont.shx
  0
STYLE
  5
11E
330
3
100
AcDbSymbolTableRecord
100
AcDbTextStyleTableRecord
  2
高6.3
 70
     0
 40
6.299999999999998
 41
1.0
 50
0.0
 71
     0
 42
6.299999999999998
  3
txt.shx
  4
bigfont.shx
  0
STYLE
  5
11F
330
3
100
AcDbSymbolTableRecord
100
AcDbTextStyleTableRecord
  2
高2.5
 70
     0
 40
2.5
 41
1.0
 50
0.0
 71
     0
 42
0.2
  3
txt.shx
  4
bigfont.shx
  0
STYLE
  5
146
330
3
100
AcDbSymbolTableRecord
100
AcDbTextStyleTableRecord
  2
高4.5
 70
     0
 40
4.5
 41
1.0
 50
0.0
 71
     0
 42
6.299999999999998
  3
txt.shx
  4
bigfont.shx
  0
STYLE
  5
171
330
3
100
AcDbSymbolTableRecord
100
AcDbTextStyleTableRecord
  2
高2
 70
     0
 40
2.0
 41
1.0
 50
0.0
 71
     0
 42
6.299999999999998
  3
txt.shx
  4
bigfont.shx
  0
STYLE
  5
EC6
330
3
100
AcDbSymbolTableRecord
100
AcDbTextStyleTableRecord
  2

 70
     1
 40
0.0
 41
1.0
 50
0.0
 71
     0
 42
6.299999999999998
  3
ltypeshp.shx
  4

  0
ENDTAB
  0
TABLE
  2
VIEW
  5
6
330
0
100
AcDbSymbolTable
 70
     0
  0
ENDTAB
  0
TABLE
  2
UCS
  5
7
330
0
100
AcDbSymbolTable
 70
     0
  0
ENDTAB
  0
TABLE
  2
APPID
  5
9
330
0
100
AcDbSymbolTable
 70
    12
  0
APPID
  5
12
330
9
100
AcDbSymbolTableRecord
100
AcDbRegAppTableRecord
  2
ACAD
 70
     0
  0
APPID
  5
DC
330
9
100
AcDbSymbolTableRecord
100
AcDbRegAppTableRecord
  2
ACAD_DSTYLE_DIMJOGGED_JOGANGLE_SYMBOL
 70
     0
  0
APPID
  5
566
330
9
100
AcDbSymbolTableRecord
100
AcDbRegAppTableRecord
  2
ACAD_EXEMPT_FROM_CAD_STANDARDS
 70
     0
  0
APPID
  5
647
330
9
100
AcDbSymbolTableRecord
100
AcDbRegAppTableRecord
  2
ACAD_DSTYLE_DIMJAG
 70
     0
  0
APPID
  5
648
330
9
100
AcDbSymbolTableRecord
100
AcDbRegAppTableRecord
  2
ACAD_DSTYLE_DIMBREAK
 70
     0
  0
APPID
  5
649
330
9
100
AcDbSymbolTableRecord
100
AcDbRegAppTableRecord
  2
ACAD_DSTYLE_DIMTALN
 70
     0
  0
APPID
  5
10D8
330
9
100
AcDbSymbolTableRecord
100
AcDbRegAppTableRecord
  2
ACAD_DSTYLE_DIMARC_LENGTH_SYMBOL
 70
     0
  0
APPID
  5
10D9
330
9
100
AcDbSymbolTableRecord
100
AcDbRegAppTableRecord
  2
ACAD_DSTYLE_DIMEXT_LENGTH
 70
     0
  0
APPID
  5
10EE
330
9
100
AcDbSymbolTableRecord
100
AcDbRegAppTableRecord
  2
ACAD_MLEADERVER
 70
     0
  0
APPID
  5
164A
330
9
100
AcDbSymbolTableRecord
100
AcDbRegAppTableRecord
  2
GradientColor1ACI
 70
     0
  0
APPID
  5
164B
330
9
100
AcDbSymbolTableRecord
100
AcDbRegAppTableRecord
  2
GradientColor2ACI
 70
     0
  0
APPID
  5
1E7C
330
9
100
AcDbSymbolTableRecord
100
AcDbRegAppTableRecord
  2
ACAD_DSTYLE_DIMRADIAL_EXTENSION
 70
     0
  0
ENDTAB
  0
TABLE
  2
DIMSTYLE
  5
A
330
0
100
AcDbSymbolTable
 70
    12
100
AcDbDimStyleTable
 71
     1
340
D9
  0
DIMSTYLE
105
D9
330
A
100
AcDbSymbolTableRecord
100
AcDbDimStyleTableRecord
  2
1：1
 70
     0
 41
2.5
 42
0.25
 43
0.2
 44
1.25
 73
     0
 74
     0
 77
     3
 78
     8
 79
     2
140
3.0
141
0.0
143
0.03937007874016
147
0.625
171
     3
172
     1
178
     4
179
     1
271
     2
272
     2
274
     3
283
     0
284
     8
288
     1
289
     0
340
11
341
C6
342
C6
1001
ACAD_DSTYLE_DIMARC_LENGTH_SYMBOL
1070
   379
1070
     2
1001
ACAD_DSTYLE_DIMEXT_LENGTH
1070
   378
1040
1.25
1001
ACAD_DSTYLE_DIMJOGGED_JOGANGLE_SYMBOL
1070
   384
1040
1.570796326794896
  0
DIMSTYLE
105
D8E
330
A
100
AcDbSymbolTableRecord
100
AcDbDimStyleTableRecord
  2
2：1
 70
     0
 41
2.5
 42
0.25
 43
0.2
 44
1.25
 73
     0
 74
     0
 77
     3
 78
     8
 79
     2
140
3.0
141
0.0
143
0.03937007874016
144
0.5
147
0.625
171
     3
172
     1
178
     4
179
     1
271
     2
272
     2
274
     3
283
     0
284
     8
288
     1
289
     0
340
11
341
C6
342
C6
1001
ACAD_DSTYLE_DIMARC_LENGTH_SYMBOL
1070
   379
1070
     2
1001
ACAD_DSTYLE_DIMEXT_LENGTH
1070
   378
1040
1.25
1001
ACAD_DSTYLE_DIMJOGGED_JOGANGLE_SYMBOL
1070
   384
1040
1.570796326794896
  0
DIMSTYLE
105
D8F
330
A
100
AcDbSymbolTableRecord
100
AcDbDimStyleTableRecord
  2
5：1
 70
     0
 41
2.5
 42
0.25
 43
0.2
 44
1.25
 73
     0
 74
     0
 77
     3
 78
     8
 79
     2
140
3.0
141
0.0
143
0.03937007874016
144
0.2
147
0.625
171
     3
172
     1
178
     4
179
     1
271
     2
272
     2
274
     3
283
     0
284
     8
288
     1
289
     0
340
11
341
C6
342
C6
1001
ACAD_DSTYLE_DIMARC_LENGTH_SYMBOL
1070
   379
1070
     2
1001
ACAD_DSTYLE_DIMEXT_LENGTH
1070
   378
1040
1.25
1001
ACAD_DSTYLE_DIMJOGGED_JOGANGLE_SYMBOL
1070
   384
1040
1.570796326794896
  0
DIMSTYLE
105
D90
330
A
100
AcDbSymbolTableRecord
100
AcDbDimStyleTableRecord
  2
10：1
 70
     0
 41
2.5
 42
0.25
 43
0.2
 44
1.25
 73
     0
 74
     0
 77
     3
 78
     8
 79
     2
140
3.0
141
0.0
143
0.03937007874016
144
0.1
147
0.625
171
     3
172
     1
178
     4
179
     1
271
     2
272
     2
274
     3
283
     0
284
     8
288
     1
289
     0
340
11
341
C6
342
C6
1001
ACAD_DSTYLE_DIMARC_LENGTH_SYMBOL
1070
   379
1070
     2
1001
ACAD_DSTYLE_DIMEXT_LENGTH
1070
   378
1040
1.25
1001
ACAD_DSTYLE_DIMJOGGED_JOGANGLE_SYMBOL
1070
   384
1040
1.570796326794896
  0
DIMSTYLE
105
D91
330
A
100
AcDbSymbolTableRecord
100
AcDbDimStyleTableRecord
  2
1／2
 70
     0
 41
2.5
 42
0.25
 43
0.2
 44
1.25
 73
     0
 74
     0
 77
     3
 78
     8
 79
     2
140
3.0
141
0.0
143
0.03937007874016
144
2.0
147
0.625
171
     3
172
     1
178
     4
179
     1
271
     2
272
     2
274
     3
283
     0
284
     8
288
     1
289
     0
340
11
341
C6
342
C6
1001
ACAD_DSTYLE_DIMARC_LENGTH_SYMBOL
1070
   379
1070
     2
1001
ACAD_DSTYLE_DIMEXT_LENGTH
1070
   378
1040
1.25
1001
ACAD_DSTYLE_DIMJOGGED_JOGANGLE_SYMBOL
1070
   384
1040
1.570796326794896
  0
DIMSTYLE
105
D92
330
A
100
AcDbSymbolTableRecord
100
AcDbDimStyleTableRecord
  2
1／5
 70
     0
 41
2.5
 42
0.25
 43
0.2
 44
1.25
 73
     0
 74
     0
 77
     3
 78
     8
 79
     2
140
3.0
141
0.0
143
0.03937007874016
144
5.0
147
0.625
171
     3
172
     1
178
     4
179
     1
271
     2
272
     2
274
     3
283
     0
284
     8
288
     1
289
     0
340
11
341
C6
342
C6
1001
ACAD_DSTYLE_DIMARC_LENGTH_SYMBOL
1070
   379
1070
     2
1001
ACAD_DSTYLE_DIMEXT_LENGTH
1070
   378
1040
1.25
1001
ACAD_DSTYLE_DIMJOGGED_JOGANGLE_SYMBOL
1070
   384
1040
1.570796326794896
  0
DIMSTYLE
105
D93
330
A
100
AcDbSymbolTableRecord
100
AcDbDimStyleTableRecord
  2
1／10
 70
     0
 41
2.5
 42
0.25
 43
0.2
 44
1.25
 73
     0
 74
     0
 77
     3
 78
     8
 79
     2
140
3.0
141
0.0
143
0.03937007874016
144
10.0
147
0.625
171
     3
172
     1
178
     4
179
     1
271
     2
272
     2
274
     3
283
     0
284
     8
288
     1
289
     0
340
11
341
C6
342
C6
1001
ACAD_DSTYLE_DIMARC_LENGTH_SYMBOL
1070
   379
1070
     2
1001
ACAD_DSTYLE_DIMEXT_LENGTH
1070
   378
1040
1.25
1001
ACAD_DSTYLE_DIMJOGGED_JOGANGLE_SYMBOL
1070
   384
1040
1.570796326794896
  0
DIMSTYLE
105
D94
330
A
100
AcDbSymbolTableRecord
100
AcDbDimStyleTableRecord
  2
1／4
 70
     0
 41
2.5
 42
0.25
 43
0.2
 44
1.25
 73
     0
 74
     0
 77
     3
 78
     8
 79
     2
140
3.0
141
0.0
143
0.03937007874016
144
4.0
147
0.625
171
     3
172
     1
178
     4
179
     1
271
     2
272
     2
274
     3
283
     0
284
     8
288
     1
289
     0
340
11
341
C6
342
C6
1001
ACAD_DSTYLE_DIMARC_LENGTH_SYMBOL
1070
   379
1070
     2
1001
ACAD_DSTYLE_DIMEXT_LENGTH
1070
   378
1040
1.25
1001
ACAD_DSTYLE_DIMJOGGED_JOGANGLE_SYMBOL
1070
   384
1040
1.570796326794896
  0
DIMSTYLE
105
D95
330
A
100
AcDbSymbolTableRecord
100
AcDbDimStyleTableRecord
  2
1／3
 70
     0
 41
2.5
 42
0.25
 43
0.2
 44
1.25
 73
     0
 74
     0
 77
     3
 78
     8
 79
     2
140
3.0
141
0.0
143
0.03937007874016
144
3.0
147
0.625
171
     3
172
     1
178
     4
179
     1
271
     2
272
     2
274
     3
283
     0
284
     8
288
     1
289
     0
340
11
341
C6
342
C6
1001
ACAD_DSTYLE_DIMARC_LENGTH_SYMBOL
1070
   379
1070
     2
1001
ACAD_DSTYLE_DIMEXT_LENGTH
1070
   378
1040
1.25
1001
ACAD_DSTYLE_DIMJOGGED_JOGANGLE_SYMBOL
1070
   384
1040
1.570796326794896
  0
DIMSTYLE
105
D96
330
A
100
AcDbSymbolTableRecord
100
AcDbDimStyleTableRecord
  2
FREE
 70
     0
 41
2.5
 42
0.25
 43
0.2
 44
1.25
 73
     0
 74
     0
 77
     3
 78
     8
 79
     2
140
3.0
141
0.0
143
0.03937007874016
147
0.625
171
     3
172
     1
178
     4
179
     1
271
     2
272
     2
274
     3
283
     0
284
     8
288
     1
289
     0
340
11
341
C6
342
C6
1001
ACAD_DSTYLE_DIMBREAK
1070
   391
1040
3.75
1001
ACAD_DSTYLE_DIMJAG
1070
   388
1040
1.5
1001
ACAD_DSTYLE_DIMTALN
1070
   392
1070
     0
1001
ACAD_DSTYLE_DIMARC_LENGTH_SYMBOL
1070
   379
1070
     2
1001
ACAD_DSTYLE_DIMEXT_LENGTH
1070
   378
1040
1.25
1001
ACAD_DSTYLE_DIMJOGGED_JOGANGLE_SYMBOL
1070
   384
1040
1.570796326794896
  0
DIMSTYLE
105
11BB
330
A
100
AcDbSymbolTableRecord
100
AcDbDimStyleTableRecord
  2
ISO-25
 70
     0
 41
2.5
 42
0.625
 43
3.75
 44
1.25
 73
     0
 74
     0
 77
     1
 78
     8
140
2.5
141
2.5
143
0.03937007874016
147
0.625
171
     3
172
     1
271
     2
272
     2
274
     3
278
    44
283
     0
284
     8
340
11
  0
ENDTAB
  0
TABLE
  2
BLOCK_RECORD
  5
1
330
0
100
AcDbSymbolTable
 70
    39
  0
BLOCK_RECORD
  5
1F
102
{ACAD_XDICTIONARY
360
31A
102
}
330
1
100
AcDbSymbolTableRecord
100
AcDbBlockTableRecord
  2
*Model_Space
340
22
  0
BLOCK_RECORD
  5
58
330
1
100
AcDbSymbolTableRecord
100
AcDbBlockTableRecord
  2
*Paper_Space
340
59
  0
BLOCK_RECORD
  5
5D
330
1
100
AcDbSymbolTableRecord
100
AcDbBlockTableRecord
  2
*Paper_Space0
340
5E
  0
BLOCK_RECORD
  5
C6
330
1
100
AcDbSymbolTableRecord
100
AcDbBlockTableRecord
  2
_Open30
340
0
102
{BLKREFS
331
18E1
331
18E2
331
19CC
331
19CD
331
19D5
331
19D6
331
19DE
331
19DF
331
19E7
331
19E8
331
1AB8
331
1AB9
331
1AC4
331
1AC5
331
1AF0
331
1AF1
331
1B0C
331
1B0D
331
1B28
331
1B29
331
1C83
331
1C84
331
1C8C
331
1C8D
331
1DB0
331
1DB1
331
1DB9
331
1DBA
331
1DC2
331
1DC3
331
1E0A
331
1E0B
331
1E13
331
1E14
331
1EFB
331
1EFC
331
1F04
331
1F05
331
1F0D
331
1F0E
331
1F16
331
1F17
331
1F1F
331
1F20
331
1F28
331
1F29
331
1F52
331
1F53
331
2003
331
2004
331
200C
331
200D
331
2015
331
2016
331
2024
331
2025
331
202D
331
202E
331
2036
331
2037
331
203D
331
203E
102
}
  0
BLOCK_RECORD
  5
C34
102
{ACAD_XDICTIONARY
360
CFF
102
}
330
1
100
AcDbSymbolTableRecord
100
AcDbBlockTableRecord
  2
A$C369B3533
340
0
1001
ACAD
1000
DesignCenter Data
1002
{
1070
     1
1070
     1
1002
}
  0
BLOCK_RECORD
  5
ECB
330
1
100
AcDbSymbolTableRecord
100
AcDbBlockTableRecord
  2
*D3
340
0
  0
BLOCK_RECORD
  5
EE3
330
1
100
AcDbSymbolTableRecord
100
AcDbBlockTableRecord
  2
*D4
340
0
  0
BLOCK_RECORD
  5
F04
330
1
100
AcDbSymbolTableRecord
100
AcDbBlockTableRecord
  2
*D5
340
0
  0
BLOCK_RECORD
  5
F1C
330
1
100
AcDbSymbolTableRecord
100
AcDbBlockTableRecord
  2
*D6
340
0
  0
BLOCK_RECORD
  5
F58
330
1
100
AcDbSymbolTableRecord
100
AcDbBlockTableRecord
  2
_DotSmall
340
0
  0
BLOCK_RECORD
  5
11A5
330
1
100
AcDbSymbolTableRecord
100
AcDbBlockTableRecord
  2
SW_CENTERMARKSYMBOL_0
340
0
  0
BLOCK_RECORD
  5
11B0
330
1
100
AcDbSymbolTableRecord
100
AcDbBlockTableRecord
  2
SW_CENTERMARKSYMBOL_1
340
0
  0
BLOCK_RECORD
  5
1255
330
1
100
AcDbSymbolTableRecord
100
AcDbBlockTableRecord
  2
*D10
340
0
  0
BLOCK_RECORD
  5
126D
330
1
100
AcDbSymbolTableRecord
100
AcDbBlockTableRecord
  2
*D11
340
0
  0
BLOCK_RECORD
  5
1481
102
{ACAD_XDICTIONARY
360
1486
102
}
330
1
100
AcDbSymbolTableRecord
100
AcDbBlockTableRecord
  2
A$C4C160E45
340
0
1001
ACAD
1000
DesignCenter Data
1002
{
1070
     1
1070
     1
1002
}
  0
BLOCK_RECORD
  5
164E
330
1
100
AcDbSymbolTableRecord
100
AcDbBlockTableRecord
  2
*D13
340
0
  0
BLOCK_RECORD
  5
1666
330
1
100
AcDbSymbolTableRecord
100
AcDbBlockTableRecord
  2
*D14
340
0
  0
BLOCK_RECORD
  5
18DB
330
1
100
AcDbSymbolTableRecord
100
AcDbBlockTableRecord
  2
*D15
340
0
  0
BLOCK_RECORD
  5
1A28
330
1
100
AcDbSymbolTableRecord
100
AcDbBlockTableRecord
  2
*D16
340
0
  0
BLOCK_RECORD
  5
1AB2
330
1
100
AcDbSymbolTableRecord
100
AcDbBlockTableRecord
  2
*D17
340
0
  0
BLOCK_RECORD
  5
1ABE
330
1
100
AcDbSymbolTableRecord
100
AcDbBlockTableRecord
  2
*D18
340
0
  0
BLOCK_RECORD
  5
1AE0
330
1
100
AcDbSymbolTableRecord
100
AcDbBlockTableRecord
  2
*D19
340
0
  0
BLOCK_RECORD
  5
1AF8
330
1
100
AcDbSymbolTableRecord
100
AcDbBlockTableRecord
  2
*D20
340
0
  0
BLOCK_RECORD
  5
1B14
330
1
100
AcDbSymbolTableRecord
100
AcDbBlockTableRecord
  2
*D21
340
0
  0
BLOCK_RECORD
  5
1B38
330
1
100
AcDbSymbolTableRecord
100
AcDbBlockTableRecord
  2
*D22
340
0
  0
BLOCK_RECORD
  5
1B44
330
1
100
AcDbSymbolTableRecord
100
AcDbBlockTableRecord
  2
*D23
340
0
  0
BLOCK_RECORD
  5
1B50
330
1
100
AcDbSymbolTableRecord
100
AcDbBlockTableRecord
  2
*D24
340
0
  0
BLOCK_RECORD
  5
1D89
330
1
100
AcDbSymbolTableRecord
100
AcDbBlockTableRecord
  2
*D26
340
0
  0
BLOCK_RECORD
  5
1D95
330
1
100
AcDbSymbolTableRecord
100
AcDbBlockTableRecord
  2
*D27
340
0
  0
BLOCK_RECORD
  5
1DA1
330
1
100
AcDbSymbolTableRecord
100
AcDbBlockTableRecord
  2
*D28
340
0
  0
BLOCK_RECORD
  5
1DD7
330
1
100
AcDbSymbolTableRecord
100
AcDbBlockTableRecord
  2
*D29
340
0
  0
BLOCK_RECORD
  5
1DE3
330
1
100
AcDbSymbolTableRecord
100
AcDbBlockTableRecord
  2
*D30
340
0
  0
BLOCK_RECORD
  5
1E1A
330
1
100
AcDbSymbolTableRecord
100
AcDbBlockTableRecord
  2
*D31
340
0
  0
BLOCK_RECORD
  5
1E32
330
1
100
AcDbSymbolTableRecord
100
AcDbBlockTableRecord
  2
*D32
340
0
  0
BLOCK_RECORD
  5
1E4A
330
1
100
AcDbSymbolTableRecord
100
AcDbBlockTableRecord
  2
*D33
340
0
  0
BLOCK_RECORD
  5
1E7E
330
1
100
AcDbSymbolTableRecord
100
AcDbBlockTableRecord
  2
*D34
340
0
  0
BLOCK_RECORD
  5
1E90
330
1
100
AcDbSymbolTableRecord
100
AcDbBlockTableRecord
  2
*D35
340
0
  0
BLOCK_RECORD
  5
1F5F
330
1
100
AcDbSymbolTableRecord
100
AcDbBlockTableRecord
  2
*D36
340
0
  0
BLOCK_RECORD
  5
1F89
330
1
100
AcDbSymbolTableRecord
100
AcDbBlockTableRecord
  2
*D37
340
0
  0
BLOCK_RECORD
  5
1FD1
330
1
100
AcDbSymbolTableRecord
100
AcDbBlockTableRecord
  2
*D38
340
0
  0
ENDTAB
  0
ENDSEC
  0
SECTION
  2
BLOCKS
  0
BLOCK
  5
20
330
1F
100
AcDbEntity
  8
0
100
AcDbBlockBegin
  2
*Model_Space
 70
     0
 10
0.0
 20
0.0
 30
0.0
  3
*Model_Space
  1

  0
ENDBLK
  5
21
330
1F
100
AcDbEntity
  8
0
100
AcDbBlockEnd
  0
BLOCK
  5
5A
330
58
100
AcDbEntity
 67
     1
  8
0
100
AcDbBlockBegin
  2
*Paper_Space
 70
     0
 10
0.0
 20
0.0
 30
0.0
  3
*Paper_Space
  1

  0
ENDBLK
  5
5B
330
58
100
AcDbEntity
 67
     1
  8
0
100
AcDbBlockEnd
  0
BLOCK
  5
5F
330
5D
100
AcDbEntity
 67
     1
  8
0
100
AcDbBlockBegin
  2
*Paper_Space0
 70
     0
 10
0.0
 20
0.0
 30
0.0
  3
*Paper_Space0
  1

  0
ENDBLK
  5
60
330
5D
100
AcDbEntity
 67
     1
  8
0
100
AcDbBlockEnd
  0
BLOCK
  5
C7
330
C6
100
AcDbEntity
  8
0
100
AcDbBlockBegin
  2
_Open30
 70
     0
 10
0.0
 20
0.0
 30
0.0
  3
_Open30
  1

  0
LINE
  5
C8
330
C6
100
AcDbEntity
  8
0
  6
ByBlock
 62
     0
370
    -2
100
AcDbLine
 10
-1.0
 20
0.267949
 30
0.0
 11
0.0
 21
0.0
 31
0.0
  0
LINE
  5
C9
330
C6
100
AcDbEntity
  8
0
  6
ByBlock
 62
     0
370
    -2
100
AcDbLine
 10
0.0
 20
0.0
 30
0.0
 11
-1.0
 21
-0.267949
 31
0.0
  0
LINE
  5
CA
330
C6
100
AcDbEntity
  8
0
  6
ByBlock
 62
     0
370
    -2
100
AcDbLine
 10
0.0
 20
0.0
 30
0.0
 11
-1.0
 21
0.0
 31
0.0
  0
ENDBLK
  5
CB
330
C6
100
AcDbEntity
  8
0
100
AcDbBlockEnd
  0
BLOCK
  5
D01
330
C34
100
AcDbEntity
  8
0
100
AcDbBlockBegin
  2
A$C369B3533
 70
     0
 10
0.0
 20
0.0
 30
0.0
  3
A$C369B3533
  1

  0
LINE
  5
C35
330
C34
100
AcDbEntity
  8
0
 62
     3
100
AcDbLine
 10
8.487927449920789
 20
138.4999996444132
 30
0.0
 11
8.000000619920911
 21
138.4999996444132
 31
0.0
  0
LINE
  5
C36
330
C34
100
AcDbEntity
  8
0
 62
     3
100
AcDbLine
 10
20.00000061992091
 20
276.9999996444133
 30
0.0
 11
20.00000061992091
 21
-0.0000003555867352
 31
0.0
  0
LINE
  5
C37
330
C34
100
AcDbEntity
  8
0
 62
   254
100
AcDbLine
 10
0.000000619920911
 20
286.9999996444132
 30
0.0
 11
0.000000619920911
 21
-0.0000003555867352
 31
0.0
  0
LINE
  5
C38
330
C34
100
AcDbEntity
  8
0
 62
     3
100
AcDbLine
 10
200.0000006199209
 20
-0.0000003555867352
 30
0.0
 11
200.0000006199209
 21
276.9999996444133
 31
0.0
  0
LINE
  5
C39
330
C34
100
AcDbEntity
  8
0
 62
     3
100
AcDbLine
 10
20.00000061992091
 20
-0.0000003555867352
 30
0.0
 11
200.0000006199209
 21
-0.0000003555867352
 31
0.0
  0
LINE
  5
C3A
330
C34
100
AcDbEntity
  8
0
 62
     3
100
AcDbLine
 10
57.08435263992078
 20
278.7874437444133
 30
0.0
 11
57.52010054992092
 21
278.5599756044133
 31
0.0
  0
LINE
  5
C3B
330
C34
100
AcDbEntity
  8
0
 62
     3
100
AcDbLine
 10
57.08435263992078
 20
275.0568132644133
 30
0.0
 11
57.52010054992092
 21
275.2842814044133
 31
0.0
  0
LINE
  5
C3C
330
C34
100
AcDbEntity
  8
0
 62
     3
100
AcDbLine
 10
57.52010054992092
 20
278.5599756044133
 30
0.0
 11
57.52010054992092
 21
275.2842814044133
 31
0.0
  0
LINE
  5
C3D
330
C34
100
AcDbEntity
  8
0
 62
     3
100
AcDbLine
 10
58.62361796992082
 20
275.0568132644133
 30
0.0
 11
58.18787005992067
 21
275.2842814044133
 31
0.0
  0
LINE
  5
C3E
330
C34
100
AcDbEntity
  8
0
 62
     3
100
AcDbLine
 10
58.18787005992067
 20
277.2811402144133
 30
0.0
 11
58.18787005992067
 21
275.2842814044133
 31
0.0
  0
LINE
  5
C3F
330
C34
100
AcDbEntity
  8
0
 62
     3
100
AcDbLine
 10
61.16548074992079
 20
278.7874437444133
 30
0.0
 11
60.72973283992086
 21
278.5599756044133
 31
0.0
  0
LINE
  5
C40
330
C34
100
AcDbEntity
  8
0
 62
     3
100
AcDbLine
 10
59.62621541992074
 20
278.7874437444133
 30
0.0
 11
60.06196332992089
 21
278.5599756044133
 31
0.0
  0
LINE
  5
C41
330
C34
100
AcDbEntity
  8
0
 62
     3
100
AcDbLine
 10
60.06196332992089
 20
278.5599756044133
 30
0.0
 11
60.06196332992089
 21
277.1176385444132
 31
0.0
  0
LINE
  5
C42
330
C34
100
AcDbEntity
  8
0
 62
     3
100
AcDbLine
 10
60.72973283992086
 20
278.5599756044133
 30
0.0
 11
60.72973283992086
 21
274.8452521244133
 31
0.0
  0
LINE
  5
C43
330
C34
100
AcDbEntity
  8
0
 62
     3
100
AcDbLine
 10
61.3807779499209
 20
278.7874411144132
 30
0.0
 11
61.81652428992084
 21
278.5599699744133
 31
0.0
  0
LINE
  5
C44
330
C34
100
AcDbEntity
  8
0
 62
     3
100
AcDbLine
 10
61.38069997992078
 20
275.0568632444133
 30
0.0
 11
61.81645582992086
 21
275.2843161644133
 31
0.0
  0
LINE
  5
C45
330
C34
100
AcDbEntity
  8
0
 62
     3
100
AcDbLine
 10
61.81652428992084
 20
278.5599699744133
 30
0.0
 11
61.81652428992084
 21
275.2843161644133
 31
0.0
  0
LINE
  5
C46
330
C34
100
AcDbEntity
  8
0
 62
     3
100
AcDbLine
 10
63.31031434992087
 20
278.7874174444131
 30
0.0
 11
62.87456325992093
 21
278.5599554144133
 31
0.0
  0
LINE
  5
C47
330
C34
100
AcDbEntity
  8
0
 62
     3
100
AcDbLine
 10
62.87456325992093
 20
278.5599554144133
 30
0.0
 11
62.87456325992093
 21
275.2843015944133
 31
0.0
  0
LINE
  5
C48
330
C34
100
AcDbEntity
  8
0
 62
     3
100
AcDbLine
 10
63.31031434992087
 20
275.0568395644133
 30
0.0
 11
62.87456325992093
 21
275.2843015944133
 31
0.0
  0
LINE
  5
C49
330
C34
100
AcDbEntity
  8
0
 62
     3
100
AcDbLine
 10
67.00056778992075
 20
278.7873764444133
 30
0.0
 11
67.43631490992084
 21
278.5599068044132
 31
0.0
  0
LINE
  5
C4A
330
C34
100
AcDbEntity
  8
0
 62
     3
100
AcDbLine
 10
67.43631490992084
 20
278.5599068044132
 30
0.0
 11
67.43625773992085
 21
275.2842529944132
 31
0.0
  0
LINE
  5
C4B
330
C34
100
AcDbEntity
  8
0
 62
     3
100
AcDbLine
 10
67.00050267992081
 20
275.0567985644133
 30
0.0
 11
67.43625773992085
 21
275.2842529944132
 31
0.0
  0
LINE
  5
C4C
330
C34
100
AcDbEntity
  8
0
 62
     3
100
AcDbLine
 10
68.95282874992085
 20
278.7873764444133
 30
0.0
 11
68.51708162992077
 21
278.5599068044132
 31
0.0
  0
LINE
  5
C4D
330
C34
100
AcDbEntity
  8
0
 62
     3
100
AcDbLine
 10
68.95289385992078
 20
275.0567985644133
 30
0.0
 11
68.51713879992074
 21
275.2842529944132
 31
0.0
  0
LINE
  5
C4E
330
C34
100
AcDbEntity
  8
0
 62
     3
100
AcDbLine
 10
69.15655660992093
 20
278.7873764444133
 30
0.0
 11
69.59230373992091
 21
278.5599068044132
 31
0.0
  0
LINE
  5
C4F
330
C34
100
AcDbEntity
  8
0
 62
     3
100
AcDbLine
 10
69.15649149992077
 20
275.0567985644133
 30
0.0
 11
69.5922465599208
 21
275.2842529944132
 31
0.0
  0
LINE
  5
C50
330
C34
100
AcDbEntity
  8
0
 62
     3
100
AcDbLine
 10
71.1088175799207
 20
278.7873764444133
 30
0.0
 11
70.67307045992085
 21
278.5599068044132
 31
0.0
  0
LINE
  5
C51
330
C34
100
AcDbEntity
  8
0
 62
     3
100
AcDbLine
 10
70.67307045992085
 20
278.5599068044132
 30
0.0
 11
70.67312762992083
 21
275.2842529944132
 31
0.0
  0
LINE
  5
C52
330
C34
100
AcDbEntity
  8
0
 62
     3
100
AcDbLine
 10
71.10888268992084
 20
275.0567985644133
 30
0.0
 11
70.67312762992083
 21
275.2842529944132
 31
0.0
  0
LINE
  5
C53
330
C34
100
AcDbEntity
  8
0
 62
     3
100
AcDbLine
 10
69.59227882992081
 20
277.1327736844132
 30
0.0
 11
68.51710653992086
 21
277.1327736844132
 31
0.0
  0
LINE
  5
C54
330
C34
100
AcDbEntity
  8
0
 62
     3
100
AcDbLine
 10
69.59227146992066
 20
276.7114833244133
 30
0.0
 11
68.51711388992065
 21
276.7114833244133
 31
0.0
  0
LINE
  5
C55
330
C34
100
AcDbEntity
  8
0
 62
     3
100
AcDbLine
 10
69.59230373992091
 20
278.5599068044132
 30
0.0
 11
69.59227882992081
 21
277.1327736844132
 31
0.0
  0
LINE
  5
C56
330
C34
100
AcDbEntity
  8
0
 62
     3
100
AcDbLine
 10
69.59227146992066
 20
276.7114833244133
 30
0.0
 11
69.5922465599208
 21
275.2842529944132
 31
0.0
  0
LINE
  5
C57
330
C34
100
AcDbEntity
  8
0
 62
     3
100
AcDbLine
 10
68.51708162992077
 20
278.5599068044132
 30
0.0
 11
68.51710653992086
 21
277.1327736844132
 31
0.0
  0
LINE
  5
C58
330
C34
100
AcDbEntity
  8
0
 62
     3
100
AcDbLine
 10
68.51711388992065
 20
276.7114833244133
 30
0.0
 11
68.51713879992074
 21
275.2842529944132
 31
0.0
  0
LINE
  5
C59
330
C34
100
AcDbEntity
  8
0
 62
     3
100
AcDbLine
 10
71.31577669992089
 20
278.7873764444133
 30
0.0
 11
71.75152381992075
 21
278.5599068044132
 31
0.0
  0
LINE
  5
C5A
330
C34
100
AcDbEntity
  8
0
 62
     3
100
AcDbLine
 10
71.75152381992075
 20
278.5599068044132
 30
0.0
 11
71.75146664992077
 21
275.2842529944132
 31
0.0
  0
LINE
  5
C5B
330
C34
100
AcDbEntity
  8
0
 62
     3
100
AcDbLine
 10
71.31571158992072
 20
275.0567985644133
 30
0.0
 11
71.75146664992077
 21
275.2842529944132
 31
0.0
  0
LINE
  5
C5C
330
C34
100
AcDbEntity
  8
0
 62
     3
100
AcDbLine
 10
73.2452869699207
 20
278.7873764444133
 30
0.0
 11
72.80953984992084
 21
278.5599068044132
 31
0.0
  0
LINE
  5
C5D
330
C34
100
AcDbEntity
  8
0
 62
     3
100
AcDbLine
 10
72.80953984992084
 20
278.5599068044132
 30
0.0
 11
72.80959701992083
 21
275.2842529944132
 31
0.0
  0
LINE
  5
C5E
330
C34
100
AcDbEntity
  8
0
 62
     3
100
AcDbLine
 10
73.24535207992084
 20
275.0567985644133
 30
0.0
 11
72.80959701992083
 21
275.2842529944132
 31
0.0
  0
LINE
  5
C5F
330
C34
100
AcDbEntity
  8
0
 62
     3
100
AcDbLine
 10
73.45964653992087
 20
278.7873764444133
 30
0.0
 11
73.89539365992073
 21
278.5599068044132
 31
0.0
  0
LINE
  5
C60
330
C34
100
AcDbEntity
  8
0
 62
     3
100
AcDbLine
 10
73.89539365992073
 20
278.5599068044132
 30
0.0
 11
73.89533648992074
 21
275.2842529944132
 31
0.0
  0
LINE
  5
C61
330
C34
100
AcDbEntity
  8
0
 62
     3
100
AcDbLine
 10
73.45958142992071
 20
275.0567985644133
 30
0.0
 11
73.89533648992074
 21
275.2842529944132
 31
0.0
  0
ARC
  5
C62
330
C34
100
AcDbEntity
  8
0
 62
     3
100
AcDbCircle
 10
65.60865651992094
 20
276.9315182644133
 30
0.0
 40
2.086285909999999
100
AcDbArc
 50
97.70152350999723
 51
270.0
  0
ARC
  5
C63
330
C34
100
AcDbEntity
  8
0
 62
     3
100
AcDbCircle
 10
78.48925735992065
 20
276.9105616344133
 30
0.0
 40
2.108943379999999
100
AcDbArc
 50
0.314250269999259
 51
69.00558244998928
  0
ARC
  5
C64
330
C34
100
AcDbEntity
  8
0
 62
     3
100
AcDbCircle
 10
78.94993267992072
 20
276.9105616344133
 30
0.0
 40
2.108943379999999
100
AcDbArc
 50
110.9944175499969
 51
148.1166110200049
  0
ARC
  5
C65
330
C34
100
AcDbEntity
  8
0
 62
     3
100
AcDbCircle
 10
78.48925735992065
 20
276.9336953744133
 30
0.0
 40
2.108943379999999
100
AcDbArc
 50
290.9944175499969
 51
359.6857497300005
  0
ARC
  5
C66
330
C34
100
AcDbEntity
  8
0
 62
     3
100
AcDbCircle
 10
78.94993267992072
 20
276.9336953744133
 30
0.0
 40
2.108943379999999
100
AcDbArc
 50
211.8833889799949
 51
249.0055824499894
  0
ARC
  5
C67
330
C34
100
AcDbEntity
  8
0
 62
     3
100
AcDbCircle
 10
78.7195950199209
 20
277.7849338944132
 30
0.0
 40
1.214070989999997
100
AcDbArc
 50
64.36517189999968
 51
115.6348281000003
  0
ARC
  5
C68
330
C34
100
AcDbEntity
  8
0
 62
     3
100
AcDbCircle
 10
78.7195950199209
 20
276.0593231144132
 30
0.0
 40
1.214070989999997
100
AcDbArc
 50
244.3651718999997
 51
295.6348281000003
  0
ARC
  5
C69
330
C34
100
AcDbEntity
  8
0
 62
     3
100
AcDbCircle
 10
78.7195950199209
 20
277.8079955744133
 30
0.0
 40
0.59585563
100
AcDbArc
 50
19.48660554000477
 51
160.5133944599952
  0
ARC
  5
C6A
330
C34
100
AcDbEntity
  8
0
 62
     3
100
AcDbCircle
 10
78.7195950199209
 20
276.0593231144132
 30
0.0
 40
1.214070989999997
100
AcDbArc
 50
244.3651718999997
 51
295.6348281000003
  0
ARC
  5
C6B
330
C34
100
AcDbEntity
  8
0
 62
     3
100
AcDbCircle
 10
78.7195950199209
 20
276.0362614344133
 30
0.0
 40
0.59585563
100
AcDbArc
 50
199.4866055400047
 51
340.513394459995
  0
ARC
  5
C6C
330
C34
100
AcDbEntity
  8
0
 62
     3
100
AcDbCircle
 10
73.97712251992084
 20
254.6940686644133
 30
0.0
 40
26.04
100
AcDbArc
 50
69.50571480000832
 51
81.68998806999736
  0
ARC
  5
C6D
330
C34
100
AcDbEntity
  8
0
 62
     3
100
AcDbCircle
 10
73.97712251992084
 20
299.1501883444133
 30
0.0
 40
26.04
100
AcDbArc
 50
278.3100119300026
 51
290.4942851999917
  0
ARC
  5
C6E
330
C34
100
AcDbEntity
  8
0
 62
     3
100
AcDbCircle
 10
82.28532664992076
 20
276.9221285044133
 30
0.0
 40
2.31
100
AcDbArc
 50
290.4942851999917
 51
69.50571480000832
  0
ARC
  5
C6F
330
C34
100
AcDbEntity
  8
0
 62
     3
100
AcDbCircle
 10
54.9853266499208
 20
276.9221285044133
 30
0.0
 40
2.31
100
AcDbArc
 50
110.4942851999916
 51
249.5057147999945
  0
ARC
  5
C70
330
C34
100
AcDbEntity
  8
0
 62
     3
100
AcDbCircle
 10
63.29353076992084
 20
254.6940686644133
 30
0.0
 40
26.04
100
AcDbArc
 50
98.31001192998948
 51
110.4942851999916
  0
ARC
  5
C71
330
C34
100
AcDbEntity
  8
0
 62
     3
100
AcDbCircle
 10
63.29353076992084
 20
299.1501883444133
 30
0.0
 40
26.04
100
AcDbArc
 50
249.5057147999945
 51
261.6899880699973
  0
ARC
  5
C72
330
C34
100
AcDbEntity
  8
0
 62
     3
100
AcDbCircle
 10
68.63532664992067
 20
218.1221285044133
 30
0.0
 40
62.99999987
100
AcDbArc
 50
81.68998806999736
 51
98.31001192998948
  0
ARC
  5
C73
330
C34
100
AcDbEntity
  8
0
 62
     3
100
AcDbCircle
 10
68.63532664992067
 20
335.7221285044133
 30
0.0
 40
62.99999987
100
AcDbArc
 50
261.6899880699973
 51
278.3100119300026
  0
ARC
  5
C74
330
C34
100
AcDbEntity
  8
0
 62
     3
100
AcDbCircle
 10
68.63532664992067
 20
218.1221285044133
 30
0.0
 40
62.36999987
100
AcDbArc
 50
81.68998806999736
 51
98.31001192998948
  0
ARC
  5
C75
330
C34
100
AcDbEntity
  8
0
 62
     3
100
AcDbCircle
 10
68.63532664992067
 20
335.7221285044133
 30
0.0
 40
62.36999987
100
AcDbArc
 50
261.6899880699973
 51
278.3100119300026
  0
ARC
  5
C76
330
C34
100
AcDbEntity
  8
0
 62
     3
100
AcDbCircle
 10
73.97712251992084
 20
299.1501883444133
 30
0.0
 40
25.41
100
AcDbArc
 50
278.3100119300026
 51
290.4942851999917
  0
ARC
  5
C77
330
C34
100
AcDbEntity
  8
0
 62
     3
100
AcDbCircle
 10
73.97712251992084
 20
254.6940686644133
 30
0.0
 40
25.41
100
AcDbArc
 50
69.50571480000832
 51
81.68998806999736
  0
ARC
  5
C78
330
C34
100
AcDbEntity
  8
0
 62
     3
100
AcDbCircle
 10
82.28532664992076
 20
276.9221285044133
 30
0.0
 40
1.679999999999999
100
AcDbArc
 50
290.4942851999917
 51
69.50571480000832
  0
ARC
  5
C79
330
C34
100
AcDbEntity
  8
0
 62
     3
100
AcDbCircle
 10
54.9853266499208
 20
276.9221285044133
 30
0.0
 40
1.679999999999999
100
AcDbArc
 50
110.4942851999916
 51
249.5057147999945
  0
ARC
  5
C7A
330
C34
100
AcDbEntity
  8
0
 62
     3
100
AcDbCircle
 10
63.29353076992084
 20
254.6940686644133
 30
0.0
 40
25.41
100
AcDbArc
 50
98.31001192998948
 51
110.4942851999916
  0
ARC
  5
C7B
330
C34
100
AcDbEntity
  8
0
 62
     3
100
AcDbCircle
 10
63.29353076992084
 20
299.1501883444133
 30
0.0
 40
25.41
100
AcDbArc
 50
249.5057147999945
 51
261.6899880699973
  0
LINE
  5
C7C
330
C34
100
AcDbEntity
  8
0
 62
     3
100
AcDbLine
 10
73.24528774992086
 20
274.8452521244133
 30
0.0
 11
71.31577591992073
 21
274.8452521244133
 31
0.0
  0
LINE
  5
C7D
330
C34
100
AcDbEntity
  8
0
 62
     3
100
AcDbLine
 10
73.24528774992086
 20
275.0568132644133
 30
0.0
 11
73.24528774992086
 21
274.8452521244133
 31
0.0
  0
LINE
  5
C7E
330
C34
100
AcDbEntity
  8
0
 62
     3
100
AcDbLine
 10
71.10881835992086
 20
278.9989061644133
 30
0.0
 11
69.15655582992076
 21
278.9989061644133
 31
0.0
  0
LINE
  5
C7F
330
C34
100
AcDbEntity
  8
0
 62
     3
100
AcDbLine
 10
71.10881835992086
 20
278.9989061644133
 30
0.0
 11
71.10881835992086
 21
278.7874437444133
 31
0.0
  0
LINE
  5
C80
330
C34
100
AcDbEntity
  8
0
 62
     3
100
AcDbLine
 10
71.10881835992086
 20
275.0568132644133
 30
0.0
 11
71.10881835992086
 21
274.8451534144133
 31
0.0
  0
LINE
  5
C81
330
C34
100
AcDbEntity
  8
0
 62
     3
100
AcDbLine
 10
71.10881835992086
 20
274.8451534144133
 30
0.0
 11
69.15655582992076
 21
274.8451534144133
 31
0.0
  0
LINE
  5
C82
330
C34
100
AcDbEntity
  8
0
 62
     3
100
AcDbLine
 10
73.24528774992086
 20
278.9990048844132
 30
0.0
 11
73.24528774992086
 21
278.7874437444133
 31
0.0
  0
LINE
  5
C83
330
C34
100
AcDbEntity
  8
0
 62
     3
100
AcDbLine
 10
73.24528774992086
 20
278.9990048844132
 30
0.0
 11
71.31577591992073
 21
278.9990048844132
 31
0.0
  0
LINE
  5
C84
330
C34
100
AcDbEntity
  8
0
 62
     3
100
AcDbLine
 10
71.31577591992073
 20
278.9990048844132
 30
0.0
 11
71.31577591992073
 21
278.7874437444133
 31
0.0
  0
LINE
  5
C85
330
C34
100
AcDbEntity
  8
0
 62
     3
100
AcDbLine
 10
73.4596457499208
 20
275.0568132644133
 30
0.0
 11
73.4596457499208
 21
274.8452521244133
 31
0.0
  0
LINE
  5
C86
330
C34
100
AcDbEntity
  8
0
 62
     3
100
AcDbLine
 10
75.44394630992087
 20
274.8452521244133
 30
0.0
 11
73.4596457499208
 21
274.8452521244133
 31
0.0
  0
LINE
  5
C87
330
C34
100
AcDbEntity
  8
0
 62
     3
100
AcDbLine
 10
74.95340967992092
 20
278.3312353644133
 30
0.0
 11
74.95340967992092
 21
275.5130216444133
 31
0.0
  0
LINE
  5
C88
330
C34
100
AcDbEntity
  8
0
 62
     3
100
AcDbLine
 10
74.95340967992092
 20
275.5130216444133
 30
0.0
 11
75.14345864992083
 21
275.5130216444133
 31
0.0
  0
ARC
  5
C89
330
C34
100
AcDbEntity
  8
0
 62
     3
100
AcDbCircle
 10
74.17167290992073
 20
276.9221285044133
 30
0.0
 40
1.71170957
100
AcDbArc
 50
304.5919552700024
 51
55.40804472999759
  0
LINE
  5
C8A
330
C34
100
AcDbEntity
  8
0
 62
     3
100
AcDbLine
 10
75.44394630992087
 20
278.9990048844132
 30
0.0
 11
73.4596457499208
 21
278.9990048844132
 31
0.0
  0
LINE
  5
C8B
330
C34
100
AcDbEntity
  8
0
 62
     3
100
AcDbLine
 10
73.4596457499208
 20
278.9990048844132
 30
0.0
 11
73.4596457499208
 21
278.7874437444133
 31
0.0
  0
LINE
  5
C8C
330
C34
100
AcDbEntity
  8
0
 62
     3
100
AcDbLine
 10
71.31577591992073
 20
275.0568132644133
 30
0.0
 11
71.31577591992073
 21
274.8452521244133
 31
0.0
  0
LINE
  5
C8D
330
C34
100
AcDbEntity
  8
0
 62
     3
100
AcDbLine
 10
74.95340967992092
 20
278.3312353644133
 30
0.0
 11
75.14345864992083
 21
278.3312353644133
 31
0.0
  0
LINE
  5
C8E
330
C34
100
AcDbEntity
  8
0
 62
     3
100
AcDbLine
 10
63.31025001992088
 20
275.0568132644133
 30
0.0
 11
63.31024632992079
 21
274.8452323544133
 31
0.0
  0
LINE
  5
C8F
330
C34
100
AcDbEntity
  8
0
 62
     3
100
AcDbLine
 10
61.38073448992077
 20
274.8452718944133
 30
0.0
 11
63.31024632992079
 21
274.8452382244133
 31
0.0
  0
LINE
  5
C90
330
C34
100
AcDbEntity
  8
0
 62
     3
100
AcDbLine
 10
57.08435263992078
 20
274.8452521244133
 30
0.0
 11
58.62361796992082
 21
274.8452521244133
 31
0.0
  0
ARC
  5
C91
330
C34
100
AcDbEntity
  8
0
 62
     3
100
AcDbCircle
 10
52.1024099599208
 20
276.9710351244133
 30
0.0
 40
14.71356563
100
AcDbArc
 50
353.8660061899987
 51
357.6940342600003
  0
LINE
  5
C92
330
C34
100
AcDbEntity
  8
0
 62
     3
100
AcDbLine
 10
65.81898981992094
 20
276.3826674744133
 30
0.0
 11
66.80406070992082
 21
276.3790225944133
 31
0.0
  0
LWPOLYLINE
  5
C93
330
C34
100
AcDbEntity
  8
0
 62
     3
100
AcDbPolyline
 90
       64
 70
     0
 43
0.0
 10
65.82296823992078
 20
277.4578822144133
 10
65.80434070992078
 20
277.5771499844132
 10
65.78196952992084
 20
277.6913547644133
 10
65.75602759992078
 20
277.7996138244132
 10
65.72671545992078
 20
277.9010903744132
 10
65.69425964992092
 20
277.9950000544133
 10
65.6589110599209
 20
278.0806169944133
 10
65.62094290992082
 20
278.1572794044133
 10
65.58064865992083
 20
278.2243947444133
 10
65.53833978992066
 20
278.2814442344132
 10
65.49434329992073
 20
278.3279869044132
 10
65.44899927992083
 20
278.3636630244132
 10
65.40265820992067
 20
278.3881968144133
 10
65.35567826992085
 20
278.4013986644132
 10
65.30842260992085
 20
278.4031665044133
 10
65.2612564799208
 20
278.3934866944132
 10
65.21454444992082
 20
278.3724340344132
 10
65.16864758992074
 20
278.3401712644133
 10
65.12392064992082
 20
278.2969477544133
 10
65.08070933992076
 20
278.2430975944133
 10
65.03934767992086
 20
278.1790370244133
 10
65.00015535992066
 20
278.1052612044133
 10
64.96343531992079
 20
278.0223403744133
 10
64.92947138992076
 20
277.9309154644133
 10
64.89852608992078
 20
277.8316931644133
 10
64.87083860992084
 20
277.7254403944132
 10
64.84662295992075
 20
277.6129784344133
 10
64.82606631992076
 20
277.4951765544133
 10
64.80932757992082
 20
277.3729453144133
 10
64.7965361199208
 20
277.2472294944133
 10
64.78779080992079
 20
277.1190008144133
 10
64.7831592499208
 20
276.9892504044133
 10
64.78267723992074
 20
276.8589811744133
 10
64.7863484999209
 20
276.7292000544133
 10
64.7941446599209
 20
276.6009101644133
 10
64.8060054599207
 20
276.4751031244133
 10
64.82183921992078
 20
276.3527513544133
 10
64.8415235399209
 20
276.2348005844133
 10
64.8649062999209
 20
276.1221625144133
 10
64.89180672992074
 20
276.0157077544132
 10
64.9220169299208
 20
275.9162591644133
 10
64.9553033799209
 20
275.8245854344133
 10
64.9914087799209
 20
275.7413951344133
 10
65.03005407992077
 20
275.6673313044132
 10
65.0709405599207
 20
275.6029664144132
 10
65.11375217992076
 20
275.5487979644133
 10
65.15815803992087
 20
275.5052446444133
 10
65.20381488992075
 20
275.4726431144133
 10
65.25036984992084
 20
275.4512453544132
 10
65.2974630599208
 20
275.4412167744133
 10
65.34473050992073
 20
275.4426348744133
 10
65.39180684992084
 20
275.4554886944132
 10
65.43832820992088
 20
275.4796788944133
 10
65.48393499992084
 20
275.5150184744133
 10
65.52827469992076
 20
275.5612342944132
 10
65.57100458992067
 20
275.6179691344133
 10
65.61179438992076
 20
275.6847844444132
 10
65.65032881992078
 20
275.7611637944133
 10
65.68631001992094
 20
275.8465168044132
 10
65.71945987992079
 20
275.9401837344133
 10
65.74952215992084
 20
276.0414405944133
 10
65.77626450992079
 20
276.1495047144133
 10
65.79948020992083
 20
276.2635408244133
 10
65.81898981992094
 20
276.3826674744133
  0
LINE
  5
C94
330
C34
100
AcDbEntity
  8
0
 62
     3
100
AcDbLine
 10
65.82296823992078
 20
277.4578822144133
 30
0.0
 11
66.80803911992075
 21
277.4542373444133
 31
0.0
  0
ARC
  5
C95
330
C34
100
AcDbEntity
  8
0
 62
     3
100
AcDbCircle
 10
52.1024099599208
 20
276.9710351244133
 30
0.0
 40
14.71356563
100
AcDbArc
 50
1.881965739999166
 51
5.709993809998728
  0
LINE
  5
C96
330
C34
100
AcDbEntity
  8
0
 62
     3
100
AcDbLine
 10
63.31031881992089
 20
278.9989851144132
 30
0.0
 11
63.31031512992081
 21
278.7874437444133
 31
0.0
  0
LINE
  5
C97
330
C34
100
AcDbEntity
  8
0
 62
     3
100
AcDbLine
 10
61.38080698992076
 20
278.9990246544132
 30
0.0
 11
63.31031881992089
 21
278.9989909744132
 31
0.0
  0
LINE
  5
C98
330
C34
100
AcDbEntity
  8
0
 62
     3
100
AcDbLine
 10
61.38073817992085
 20
275.0568132644133
 30
0.0
 11
61.38073448992077
 21
274.8452718944133
 31
0.0
  0
LINE
  5
C99
330
C34
100
AcDbEntity
  8
0
 62
     3
100
AcDbLine
 10
61.38080698992076
 20
278.9990246544132
 30
0.0
 11
61.38080329992067
 21
278.7874437444133
 31
0.0
  0
LINE
  5
C9A
330
C34
100
AcDbEntity
  8
0
 62
     3
100
AcDbLine
 10
58.62361796992082
 20
275.0568132644133
 30
0.0
 11
58.62361796992082
 21
274.8452521244133
 31
0.0
  0
LINE
  5
C9B
330
C34
100
AcDbEntity
  8
0
 62
     3
100
AcDbLine
 10
58.18787005992067
 20
277.2811402144133
 30
0.0
 11
59.71030011992093
 21
274.8452521244133
 31
0.0
  0
LINE
  5
C9C
330
C34
100
AcDbEntity
  8
0
 62
     3
100
AcDbLine
 10
59.71030011992093
 20
274.8452521244133
 30
0.0
 11
60.72973283992086
 21
274.8452521244133
 31
0.0
  0
LINE
  5
C9D
330
C34
100
AcDbEntity
  8
0
 62
     3
100
AcDbLine
 10
61.16548074992079
 20
278.9990048844132
 30
0.0
 11
61.16548074992079
 21
278.7874437444133
 31
0.0
  0
LINE
  5
C9E
330
C34
100
AcDbEntity
  8
0
 62
     3
100
AcDbLine
 10
59.62621541992074
 20
278.9990048844132
 30
0.0
 11
61.16548074992079
 21
278.9990048844132
 31
0.0
  0
LINE
  5
C9F
330
C34
100
AcDbEntity
  8
0
 62
     3
100
AcDbLine
 10
59.62621541992074
 20
278.9990048844132
 30
0.0
 11
59.62621541992074
 21
278.7874437444133
 31
0.0
  0
LINE
  5
CA0
330
C34
100
AcDbEntity
  8
0
 62
     3
100
AcDbLine
 10
60.06196332992089
 20
277.1176385444132
 30
0.0
 11
58.82731665992082
 21
278.9990048844132
 31
0.0
  0
LINE
  5
CA1
330
C34
100
AcDbEntity
  8
0
 62
     3
100
AcDbLine
 10
57.08435263992078
 20
278.9990048844132
 30
0.0
 11
58.82731665992082
 21
278.9990048844132
 31
0.0
  0
LINE
  5
CA2
330
C34
100
AcDbEntity
  8
0
 62
     3
100
AcDbLine
 10
67.00056699992067
 20
278.9989061644133
 30
0.0
 11
68.95282953992069
 21
278.9989061644133
 31
0.0
  0
LINE
  5
CA3
330
C34
100
AcDbEntity
  8
0
 62
     3
100
AcDbLine
 10
67.00056699992067
 20
278.7874437444133
 30
0.0
 11
67.00056699992067
 21
278.9989061644133
 31
0.0
  0
LINE
  5
CA4
330
C34
100
AcDbEntity
  8
0
 62
     3
100
AcDbLine
 10
67.00056699992067
 20
274.8451534144133
 30
0.0
 11
67.00056699992067
 21
275.0568132644133
 31
0.0
  0
LINE
  5
CA5
330
C34
100
AcDbEntity
  8
0
 62
     3
100
AcDbLine
 10
67.00056699992067
 20
274.8451534144133
 30
0.0
 11
68.95282953992069
 21
274.8451534144133
 31
0.0
  0
LINE
  5
CA6
330
C34
100
AcDbEntity
  8
0
 62
     3
100
AcDbLine
 10
69.15655582992076
 20
275.0568132644133
 30
0.0
 11
69.15655582992076
 21
274.8451534144133
 31
0.0
  0
LINE
  5
CA7
330
C34
100
AcDbEntity
  8
0
 62
     3
100
AcDbLine
 10
68.95282953992069
 20
275.0568132644133
 30
0.0
 11
68.95282953992069
 21
274.8451534144133
 31
0.0
  0
LINE
  5
CA8
330
C34
100
AcDbEntity
  8
0
 62
     3
100
AcDbLine
 10
68.95282953992069
 20
278.7874437444133
 30
0.0
 11
68.95282953992069
 21
278.9989061644133
 31
0.0
  0
LINE
  5
CA9
330
C34
100
AcDbEntity
  8
0
 62
     3
100
AcDbLine
 10
69.15655582992076
 20
278.7874437444133
 30
0.0
 11
69.15655582992076
 21
278.9989061644133
 31
0.0
  0
LINE
  5
CAA
330
C34
100
AcDbEntity
  8
0
 62
     3
100
AcDbLine
 10
57.08435263992078
 20
275.0568132644133
 30
0.0
 11
57.08435263992078
 21
274.8452521244133
 31
0.0
  0
LINE
  5
CAB
330
C34
100
AcDbEntity
  8
0
 62
     3
100
AcDbLine
 10
57.08435263992078
 20
278.9990048844132
 30
0.0
 11
57.08435263992078
 21
278.7874437444133
 31
0.0
  0
ARC
  5
CAC
330
C34
100
AcDbEntity
  8
0
 62
     3
100
AcDbCircle
 10
75.6539463099209
 20
277.3578764144132
 30
0.0
 40
1.641128469999999
100
AcDbArc
 50
17.30874897999683
 51
23.76507095999502
  0
ARC
  5
CAD
330
C34
100
AcDbEntity
  8
0
 62
     3
100
AcDbCircle
 10
74.25567290992082
 20
276.9221285044133
 30
0.0
 40
3.105725599999998
100
AcDbArc
 50
342.6912510200032
 51
17.30856644000026
  0
ARC
  5
CAE
330
C34
100
AcDbEntity
  8
0
 62
     3
100
AcDbCircle
 10
75.6539463099209
 20
276.4863806044133
 30
0.0
 40
1.641128469999999
100
AcDbArc
 50
336.2349290399992
 51
342.6912510200032
  0
ARC
  5
CAF
330
C34
100
AcDbEntity
  8
0
 62
     3
100
AcDbCircle
 10
75.44394630992087
 20
277.3578764144132
 30
0.0
 40
1.641128469999999
100
AcDbArc
 50
17.30874897999683
 51
90.0
  0
ARC
  5
CB0
330
C34
100
AcDbEntity
  8
0
 62
     3
100
AcDbCircle
 10
74.04567290992076
 20
276.9221285044133
 30
0.0
 40
3.105725599999998
100
AcDbArc
 50
342.6912510200032
 51
17.30856644000026
  0
ARC
  5
CB1
330
C34
100
AcDbEntity
  8
0
 62
     3
100
AcDbCircle
 10
75.44394630992087
 20
276.4863806044133
 30
0.0
 40
1.641128469999999
100
AcDbArc
 50
270.0
 51
342.6912510200032
  0
ARC
  5
CB2
330
C34
100
AcDbEntity
  8
0
 62
     3
100
AcDbCircle
 10
65.32000593992075
 20
276.9221285044133
 30
0.0
 40
2.076876379999998
100
AcDbArc
 50
46.75287960999439
 51
89.74999828999569
  0
ARC
  5
CB3
330
C34
100
AcDbEntity
  8
0
 62
     3
100
AcDbCircle
 10
65.32000593992075
 20
276.9221285044133
 30
0.0
 40
2.076876379999998
100
AcDbArc
 50
273.976333149997
 51
312.8231203899985
  0
ARC
  5
CB4
330
C34
100
AcDbEntity
  8
0
 62
     3
100
AcDbCircle
 10
76.76181387992073
 20
276.8900669744132
 30
0.0
 40
2.755888999999998
100
AcDbArc
 50
0.6665840599997753
 51
23.90392827000157
  0
ARC
  5
CB5
330
C34
100
AcDbEntity
  8
0
 62
     3
100
AcDbCircle
 10
80.67737615992086
 20
276.8900669744132
 30
0.0
 40
2.755888999999998
100
AcDbArc
 50
156.0960717299984
 51
179.3334159400002
  0
ARC
  5
CB6
330
C34
100
AcDbEntity
  8
0
 62
     3
100
AcDbCircle
 10
76.76181387992073
 20
276.9541900344133
 30
0.0
 40
2.755888999999998
100
AcDbArc
 50
336.0960717299984
 51
359.3334159400005
  0
ARC
  5
CB7
330
C34
100
AcDbEntity
  8
0
 62
     3
100
AcDbCircle
 10
80.67737615992086
 20
276.9541900344133
 30
0.0
 40
2.755888999999998
100
AcDbArc
 50
180.6665840599995
 51
203.9039282700016
  0
LINE
  5
CB8
330
C34
100
AcDbEntity
  8
0
 62
     3
100
AcDbLine
 10
85.32766324992078
 20
276.9999996444133
 30
0.0
 11
200.0000006199209
 21
276.9999996444133
 31
0.0
  0
LINE
  5
CB9
330
C34
100
AcDbEntity
  8
0
 62
   254
100
AcDbLine
 10
0.000000619920911
 20
286.9999996444132
 30
0.0
 11
200.0000006199209
 21
286.9999996444132
 31
0.0
  0
LINE
  5
CBA
330
C34
100
AcDbEntity
  8
0
 62
     3
100
AcDbLine
 10
51.91491672992082
 20
276.9999996444133
 30
0.0
 11
20.00000061992091
 21
276.9999996444133
 31
0.0
  0
LINE
  5
CBB
330
C34
100
AcDbEntity
  8
0
 62
     3
100
AcDbLine
 10
148.0000006199209
 20
-0.0000003555867352
 30
0.0
 11
148.0000006199209
 21
39.99999964441328
 31
0.0
  0
LINE
  5
CBC
330
C34
100
AcDbEntity
  8
0
 62
     3
100
AcDbLine
 10
161.0000006199209
 20
9.999999644413263
 30
0.0
 11
161.0000006199209
 21
37.99999964441326
 31
0.0
  0
LINE
  5
CBD
330
C34
100
AcDbEntity
  8
0
 62
     3
100
AcDbLine
 10
121.0000006199209
 20
9.999999644413263
 30
0.0
 11
121.0000006199209
 21
23.99999964441326
 31
0.0
  0
LINE
  5
CBE
330
C34
100
AcDbEntity
  8
0
 62
     3
100
AcDbLine
 10
131.0000006199209
 20
23.99999964441326
 30
0.0
 11
131.0000006199209
 21
-0.0000003555867352
 31
0.0
  0
LINE
  5
CBF
330
C34
100
AcDbEntity
  8
0
 62
     3
100
AcDbLine
 10
102.0000006199209
 20
39.99999964441326
 30
0.0
 11
102.0000006199209
 21
16.99999964441327
 31
0.0
  0
LINE
  5
CC0
330
C34
100
AcDbEntity
  8
0
 62
     3
100
AcDbLine
 10
161.0000006199209
 20
37.99999964441326
 30
0.0
 11
161.0000006199209
 21
39.99999964441328
 31
0.0
  0
LINE
  5
CC1
330
C34
100
AcDbEntity
  8
0
 62
     3
100
AcDbLine
 10
174.0000006199209
 20
16.99999964441327
 30
0.0
 11
174.0000006199209
 21
39.99999964441328
 31
0.0
  0
LINE
  5
CC2
330
C34
100
AcDbEntity
  8
0
 62
     3
100
AcDbLine
 10
200.0000006199209
 20
39.99999964441328
 30
0.0
 11
88.75456597992092
 21
39.99999964441328
 31
0.0
  0
LINE
  5
CC3
330
C34
100
AcDbEntity
  8
0
 62
     3
100
AcDbLine
 10
200.0000006199209
 20
30.99999964441327
 30
0.0
 11
88.75456597992092
 21
30.99999964441327
 31
0.0
  0
LINE
  5
CC4
330
C34
100
AcDbEntity
  8
0
 62
     3
100
AcDbLine
 10
200.0000006199209
 20
16.99999964441327
 30
0.0
 11
88.75456597992092
 21
16.99999964441327
 31
0.0
  0
LINE
  5
CC5
330
C34
100
AcDbEntity
  8
0
 62
     3
100
AcDbLine
 10
200.0000006199209
 20
9.999999644413263
 30
0.0
 11
88.75456597992092
 21
9.999999644413259
 31
0.0
  0
LINE
  5
CC6
330
C34
100
AcDbEntity
  8
0
 62
     3
100
AcDbLine
 10
187.0000006199209
 20
16.99999964441327
 30
0.0
 11
187.0000006199209
 21
39.99999964441328
 31
0.0
  0
LINE
  5
CC7
330
C34
100
AcDbEntity
  8
0
 62
     3
100
AcDbLine
 10
88.75456597992092
 20
39.99999964441328
 30
0.0
 11
88.75456597992092
 21
-0.0000003555867352
 31
0.0
  0
LINE
  5
CC8
330
C34
100
AcDbEntity
  8
0
 62
     3
100
AcDbLine
 10
148.0000006199209
 20
23.99999964441326
 30
0.0
 11
88.75456597992092
 21
23.99999964441325
 31
0.0
  0
LINE
  5
CC9
330
C34
100
AcDbEntity
  8
0
 62
     3
100
AcDbLine
 10
131.2783255499207
 20
4.832860904413252
 30
0.0
 11
148.0000006199209
 21
4.832860904413252
 31
0.0
  0
TEXT
  5
CCA
330
C34
100
AcDbEntity
  8
0
 62
     3
100
AcDbText
 10
132.1643260332364
 20
19.07309649777861
 30
0.0
 40
2.5
  1
******
  7
高2.5
100
AcDbText
  0
TEXT
  5
CCB
330
C34
100
AcDbEntity
  8
0
 62
     3
100
AcDbText
 10
103.1963693151731
 20
19.29781404939717
 30
0.0
 40
2.5
  1
*****
  7
高2.5
100
AcDbText
  0
TEXT
  5
CCC
330
C34
100
AcDbEntity
  8
0
 62
     3
100
AcDbText
 10
103.4612770698704
 20
32.31224916817116
 30
0.0
 40
4.5
  1
**********
  7
高4.5
100
AcDbText
1001
ACAD
1000
ACAD_MTEXT_DEFINED_HEIGHT_BEGIN
1070
    46
1040
0.0
1000
ACAD_MTEXT_DEFINED_HEIGHT_END
  0
TEXT
  5
CCD
330
C34
100
AcDbEntity
  8
0
 62
     3
100
AcDbText
 10
190.0655897133949
 20
36.51369174311686
 30
0.0
 40
2.0
  1
DEF
  7
高2
100
AcDbText
  0
TEXT
  5
CCE
330
C34
100
AcDbEntity
  8
0
 62
     3
100
AcDbText
 10
176.1264913596867
 20
36.51369174311677
 30
0.0
 40
2.0
  1
DESN
  7
高2
100
AcDbText
  0
TEXT
  5
CCF
330
C34
100
AcDbEntity
  8
0
 62
     3
100
AcDbText
 10
149.8721244196865
 20
36.51369174311686
 30
0.0
 40
2.0
  1
APPD
  7
高2
100
AcDbText
  0
TEXT
  5
CD0
330
C34
100
AcDbEntity
  8
0
 62
     3
100
AcDbText
 10
162.9848605199206
 20
36.51369174311689
 30
0.0
 40
2.0
  1
CHCK
  7
高2
100
AcDbText
  0
TEXT
  5
CD1
330
C34
100
AcDbEntity
  8
0
 62
     3
100
AcDbText
 10
121.9271662590734
 20
14.16839846764398
 30
0.0
 40
2.0
  1
SCALE
 41
0.8
  7
高2
100
AcDbText
  0
TEXT
  5
CD2
330
C34
100
AcDbEntity
  8
0
 62
     3
100
AcDbText
 10
90.43914468296705
 20
14.16839846764399
 30
0.0
 40
2.0
  1
3AD　ANGLE
 41
1.5
  7
高2
100
AcDbText
  0
TEXT
  5
CD3
330
C34
100
AcDbEntity
  8
0
 62
     3
100
AcDbText
 10
121.1965719499223
 20
20.91993653660109
 30
0.0
 40
2.0
  1
REMARKS
 41
0.7
  7
高2
100
AcDbText
  0
TEXT
  5
CD4
330
C34
100
AcDbEntity
  8
0
 62
     3
100
AcDbText
 10
90.22223632992085
 20
20.99999964441327
 30
0.0
 40
2.0
  1
MATERIAL
 41
0.7
  7
高2
100
AcDbText
  0
TEXT
  5
CD5
330
C34
100
AcDbEntity
  8
0
 62
     3
100
AcDbText
 10
90.79872353267479
 20
27.99999964441325
 30
0.0
 40
2.0
  1
MODEL
  7
高2
100
AcDbText
  0
TEXT
  5
CD6
330
C34
100
AcDbEntity
  8
0
 62
     3
100
AcDbText
 10
90.43564441400601
 20
36.70702099501229
 30
0.0
 40
2.0
  1
CONPONENTS
 41
0.5
  7
高2
100
AcDbText
  0
TEXT
  5
CD7
330
C34
100
AcDbEntity
  8
0
 62
     3
100
AcDbText
 10
103.142759885173
 20
25.08748077222521
 30
0.0
 40
4.5
  1
********
  7
高4.5
100
AcDbText
  0
TEXT
  5
CD8
330
C34
100
AcDbEntity
  8
0
 62
     3
100
AcDbText
 10
151.0650463505392
 20
2.038461039778852
 30
0.0
 40
6.299999999999998
  1
*-********
 41
0.6
  7
高6.3
100
AcDbText
1001
ACAD
1000
ACAD_MTEXT_DEFINED_HEIGHT_BEGIN
1070
    46
1040
0.0
1000
ACAD_MTEXT_DEFINED_HEIGHT_END
  0
TEXT
  5
CD9
330
C34
100
AcDbEntity
  8
0
 62
     3
100
AcDbText
 10
164.5635103702504
 20
11.10088880264627
 30
0.0
 40
3.2
  1
******
  7
高3.2
100
AcDbText
1001
ACAD
1000
ACAD_MTEXT_DEFINED_HEIGHT_BEGIN
1070
    46
1040
0.0
1000
ACAD_MTEXT_DEFINED_HEIGHT_END
  0
TEXT
  5
CDA
330
C34
100
AcDbEntity
  8
0
 62
     3
100
AcDbText
 10
134.7875985145672
 20
11.10091664698114
 30
0.0
 40
3.2
  1
1/1
  7
高3.2
100
AcDbText
  0
TEXT
  5
CDB
330
C34
100
AcDbEntity
  8
0
 62
     3
100
AcDbText
 10
131.8649274899208
 20
0.8168778175492262
 30
0.0
 40
3.2
  1
ZK-A4Y
 41
0.8
  7
高3.2
100
AcDbText
  0
TEXT
  5
CDC
330
C34
100
AcDbEntity
  8
0
 62
     3
100
AcDbText
 10
89.58526701992083
 20
6.52462006660109
 30
0.0
 40
2.0
  1
NICHIDO IND.CO.LTD
 41
1.3
  7
高2
100
AcDbText
  0
TEXT
  5
CDD
330
C34
100
AcDbEntity
  8
0
 62
     3
100
AcDbText
 10
90.76679028487793
 20
32.1405278522982
 30
0.0
 40
3.2
  1
品 名
  7
高3.2
100
AcDbText
1001
ACAD
1000
ACAD_MTEXT_DEFINED_HEIGHT_BEGIN
1070
    46
1040
0.0
1000
ACAD_MTEXT_DEFINED_HEIGHT_END
  0
TEXT
  5
CDE
330
C34
100
AcDbEntity
  8
0
 62
     3
100
AcDbText
 10
90.76679028487793
 20
24.49999964441325
 30
0.0
 40
3.2
  1
型 式
  7
高3.2
100
AcDbText
1001
ACAD
1000
ACAD_MTEXT_DEFINED_HEIGHT_BEGIN
1070
    46
1040
3.064735913775952
1000
ACAD_MTEXT_DEFINED_HEIGHT_END
  0
TEXT
  5
CDF
330
C34
100
AcDbEntity
  8
0
 62
     3
100
AcDbText
 10
90.76679028487793
 20
17.49999964441327
 30
0.0
 40
3.2
  1
材 質
  7
高3.2
100
AcDbText
1001
ACAD
1000
ACAD_MTEXT_DEFINED_HEIGHT_BEGIN
1070
    46
1040
0.0
1000
ACAD_MTEXT_DEFINED_HEIGHT_END
  0
TEXT
  5
CE0
330
C34
100
AcDbEntity
  8
0
 62
     3
100
AcDbText
 10
90.4617553348778
 20
10.4674396366595
 30
0.0
 40
3.2
  1
第 三 角 法
  7
高3.2
100
AcDbText
1001
ACAD
1000
ACAD_MTEXT_DEFINED_HEIGHT_BEGIN
1070
    46
1040
0.0
1000
ACAD_MTEXT_DEFINED_HEIGHT_END
  0
TEXT
  5
CE1
330
C34
100
AcDbEntity
  8
0
 62
     3
100
AcDbText
 10
88.86828794240683
 20
1.140527852298198
 30
0.0
 40
3.2
  1
日動工業株式会社
 41
1.199999999999999
  7
高3.2
100
AcDbText
1001
ACAD
1000
ACAD_MTEXT_DEFINED_HEIGHT_BEGIN
1070
    46
1040
0.0
1000
ACAD_MTEXT_DEFINED_HEIGHT_END
  0
TEXT
  5
CE2
330
C34
100
AcDbEntity
  8
0
 62
     3
100
AcDbText
 10
122.5039121418851
 20
17.38457817758082
 30
0.0
 40
3.2
  1
備考
  7
高3.2
100
AcDbText
1001
ACAD
1000
ACAD_MTEXT_DEFINED_HEIGHT_BEGIN
1070
    46
1040
0.0
1000
ACAD_MTEXT_DEFINED_HEIGHT_END
  0
TEXT
  5
CE3
330
C34
100
AcDbEntity
  8
0
 62
     3
100
AcDbText
 10
132.1529695889207
 20
6.146229669983557
 30
0.0
 40
2.5
  1
出図コード
  7
高2.5
100
AcDbText
1001
ACAD
1000
ACAD_MTEXT_DEFINED_HEIGHT_BEGIN
1070
    46
1040
0.0
1000
ACAD_MTEXT_DEFINED_HEIGHT_END
  0
TEXT
  5
CE4
330
C34
100
AcDbEntity
  8
0
 62
     3
100
AcDbText
 10
122.3451460237977
 20
10.45323455482618
 30
0.0
 40
3.2
  1
尺度
  7
高3.2
100
AcDbText
1001
ACAD
1000
ACAD_MTEXT_DEFINED_HEIGHT_BEGIN
1070
    46
1040
0.0
1000
ACAD_MTEXT_DEFINED_HEIGHT_END
  0
TEXT
  5
CE5
330
C34
100
AcDbEntity
  8
0
 62
     3
100
AcDbText
 10
149.4914075055765
 20
11.58471300294367
 30
0.0
 40
3.2
  1
作成日
  7
高3.2
100
AcDbText
1001
ACAD
1000
ACAD_MTEXT_DEFINED_HEIGHT_BEGIN
1070
    46
1040
0.0
1000
ACAD_MTEXT_DEFINED_HEIGHT_END
  0
TEXT
  5
CE6
330
C34
100
AcDbEntity
  8
0
 62
     3
100
AcDbText
 10
149.3858815124406
 20
32.1405278522982
 30
0.0
 40
3.2
  1
承 認
  7
高3.2
100
AcDbText
1001
ACAD
1000
ACAD_MTEXT_DEFINED_HEIGHT_BEGIN
1070
    46
1040
0.0
1000
ACAD_MTEXT_DEFINED_HEIGHT_END
  0
TEXT
  5
CE7
330
C34
100
AcDbEntity
  8
0
 62
     3
100
AcDbText
 10
162.3858815124406
 20
32.1405278522982
 30
0.0
 40
3.2
  1
検 図
  7
高3.2
100
AcDbText
1001
ACAD
1000
ACAD_MTEXT_DEFINED_HEIGHT_BEGIN
1070
    46
1040
0.0
1000
ACAD_MTEXT_DEFINED_HEIGHT_END
  0
TEXT
  5
CE8
330
C34
100
AcDbEntity
  8
0
 62
     3
100
AcDbText
 10
175.3858815124406
 20
32.1405278522982
 30
0.0
 40
3.2
  1
設 計
  7
高3.2
100
AcDbText
1001
ACAD
1000
ACAD_MTEXT_DEFINED_HEIGHT_BEGIN
1070
    46
1040
0.0
1000
ACAD_MTEXT_DEFINED_HEIGHT_END
  0
TEXT
  5
CE9
330
C34
100
AcDbEntity
  8
0
 62
     3
100
AcDbText
 10
188.6865180324405
 20
32.1405278522982
 30
0.0
 40
3.2
  1
製 図
  7
高3.2
100
AcDbText
1001
ACAD
1000
ACAD_MTEXT_DEFINED_HEIGHT_BEGIN
1070
    46
1040
0.0
1000
ACAD_MTEXT_DEFINED_HEIGHT_END
  0
TEXT
  5
CEA
330
C34
100
AcDbEntity
  8
0
 62
     3
100
AcDbText
 10
187.5000006199209
 20
267.4999996444133
 30
0.0
 40
3.2
  1
担　当
  7
高3.2
100
AcDbText
  0
TEXT
  5
CEB
330
C34
100
AcDbEntity
  8
0
 62
     3
100
AcDbText
 10
143.5000006199209
 20
267.4999996444133
 30
0.0
 40
3.2
  1
変更・追記内容
  7
高3.2
100
AcDbText
  0
TEXT
  5
CEC
330
C34
100
AcDbEntity
  8
0
 62
     3
100
AcDbText
 10
118.6135156202601
 20
262.829461134505
 30
0.0
 40
2.0
  1
1
  7
高2
100
AcDbText
  0
TEXT
  5
CED
330
C34
100
AcDbEntity
  8
0
 62
     3
100
AcDbText
 10
118.3050041435028
 20
257.6596444222321
 30
0.0
 40
2.0
  1
2
  7
高2
100
AcDbText
  0
TEXT
  5
CEE
330
C34
100
AcDbEntity
  8
0
 62
     3
100
AcDbText
 10
125.5000006199209
 20
267.4999996444133
 30
0.0
 40
3.2
  1
日　付
  7
高3.2
100
AcDbText
  0
TEXT
  5
CEF
330
C34
100
AcDbEntity
  8
0
 62
     3
100
AcDbText
 10
125.5000006199209
 20
272.4999996444132
 30
0.0
 40
3.2
  1
図　　　　面　　　　略　　　　歴
  7
高3.2
100
AcDbText
  0
TEXT
  5
CF0
330
C34
100
AcDbEntity
  8
0
 62
     3
100
AcDbText
 10
115.5000006199209
 20
267.4999996444133
 30
0.0
 40
3.2
  1
記号
  7
高3.2
100
AcDbText
  0
LINE
  5
CF1
330
C34
100
AcDbEntity
  8
0
 62
     7
100
AcDbLine
 10
119.0000006199209
 20
260.7908956444134
 30
0.0
 11
117.1000006199208
 21
257.4999996444133
 31
0.0
  0
LINE
  5
CF2
330
C34
100
AcDbEntity
  8
0
 62
     7
100
AcDbLine
 10
119.0000006199209
 20
260.7908956444134
 30
0.0
 11
120.9000006199207
 21
257.4999996444133
 31
0.0
  0
LINE
  5
CF3
330
C34
100
AcDbEntity
  8
0
 62
     7
100
AcDbLine
 10
117.1000006199208
 20
257.4999996444133
 30
0.0
 11
120.9000006199207
 21
257.4999996444133
 31
0.0
  0
LINE
  5
CF4
330
C34
100
AcDbEntity
  8
0
 62
     7
100
AcDbLine
 10
119.0000006199209
 20
265.7908966444133
 30
0.0
 11
117.1000006199208
 21
262.4999996444133
 31
0.0
  0
LINE
  5
CF5
330
C34
100
AcDbEntity
  8
0
 62
     7
100
AcDbLine
 10
119.0000006199209
 20
265.7908966444133
 30
0.0
 11
120.9000006199207
 21
262.4999996444133
 31
0.0
  0
LINE
  5
CF6
330
C34
100
AcDbEntity
  8
0
 62
     7
100
AcDbLine
 10
117.1000006199208
 20
262.4999996444133
 30
0.0
 11
120.9000006199207
 21
262.4999996444133
 31
0.0
  0
LINE
  5
CF7
330
C34
100
AcDbEntity
  8
0
 62
     3
100
AcDbLine
 10
114.0000006199209
 20
271.9999996444133
 30
0.0
 11
200.0000006199209
 21
271.9999996444133
 31
0.0
  0
LINE
  5
CF8
330
C34
100
AcDbEntity
  8
0
 62
     3
100
AcDbLine
 10
114.0000006199209
 20
266.9999996444133
 30
0.0
 11
200.0000006199209
 21
266.9999996444133
 31
0.0
  0
LINE
  5
CF9
330
C34
100
AcDbEntity
  8
0
 62
     7
100
AcDbLine
 10
114.0000006199209
 20
261.9999996444132
 30
0.0
 11
200.0000006199209
 21
261.9999996444132
 31
0.0
  0
LINE
  5
CFA
330
C34
100
AcDbEntity
  8
0
 62
     3
100
AcDbLine
 10
114.0000006199209
 20
256.9999996444133
 30
0.0
 11
200.0000006199209
 21
256.9999996444133
 31
0.0
  0
LINE
  5
CFB
330
C34
100
AcDbEntity
  8
0
 62
     7
100
AcDbLine
 10
186.0000006199209
 20
256.9999996444133
 30
0.0
 11
186.0000006199209
 21
271.9999996444133
 31
0.0
  0
LINE
  5
CFC
330
C34
100
AcDbEntity
  8
0
 62
     7
100
AcDbLine
 10
142.0000006199209
 20
256.9999996444133
 30
0.0
 11
142.0000006199209
 21
271.9999996444133
 31
0.0
  0
LINE
  5
CFD
330
C34
100
AcDbEntity
  8
0
 62
     7
100
AcDbLine
 10
124.0000006199209
 20
256.9999996444133
 30
0.0
 11
124.0000006199209
 21
271.9999996444133
 31
0.0
  0
LINE
  5
CFE
330
C34
100
AcDbEntity
  8
0
 62
     3
100
AcDbLine
 10
114.0000006199209
 20
256.9999996444133
 30
0.0
 11
114.0000006199209
 21
276.9999996444133
 31
0.0
  0
ENDBLK
  5
D02
330
C34
100
AcDbEntity
  8
0
100
AcDbBlockEnd
  0
BLOCK
  5
ECC
330
ECB
100
AcDbEntity
  8
0
100
AcDbBlockBegin
  2
*D3
 70
     1
 10
0.0
 20
0.0
 30
0.0
  3
*D3
  1

  0
LINE
  5
1C80
330
ECB
100
AcDbEntity
  8
0
 62
     0
370
    -2
100
AcDbLine
 10
1362.694390366681
 20
165.6897453822567
 30
0.0
 11
1347.173764859436
 21
165.6897453822567
 31
0.0
  0
LINE
  5
1C81
330
ECB
100
AcDbEntity
  8
0
 62
     0
370
    -2
100
AcDbLine
 10
1362.694390366681
 20
173.6897453822568
 30
0.0
 11
1347.173764859436
 21
173.6897453822568
 31
0.0
  0
LINE
  5
1C82
330
ECB
100
AcDbEntity
  8
0
 62
     0
370
    -2
100
AcDbLine
 10
1348.423764859436
 20
168.1897453822567
 30
0.0
 11
1348.423764859436
 21
171.1897453822568
 31
0.0
  0
INSERT
  5
1C83
330
ECB
100
AcDbEntity
  8
0
 62
     0
370
    -2
100
AcDbBlockReference
  2
_Open30
 10
1348.423764859436
 20
165.6897453822567
 30
0.0
 41
2.5
 42
2.5
 43
2.5
 50
270.0
  0
INSERT
  5
1C84
330
ECB
100
AcDbEntity
  8
0
 62
     0
370
    -2
100
AcDbBlockReference
  2
_Open30
 10
1348.423764859436
 20
173.6897453822568
 30
0.0
 41
2.5
 42
2.5
 43
2.5
 50
90.0
  0
MTEXT
  5
1C85
330
ECB
100
AcDbEntity
  8
0
 62
     4
100
AcDbMText
 10
1346.298764859436
 20
169.5591689295639
 30
0.0
 40
3.0
 41
0.0
 71
     5
 72
     1
  1
8
 11
0.0000000000000001
 21
1.0
 31
0.0
 73
     1
 44
1.0
1001
ACAD
1000
MTEXTBEGIN
1070
    73
1070
     1
1070
    44
1040
1.0
1070
    74
1070
     0
1000
MTEXTEND
  0
POINT
  5
1C86
330
ECB
100
AcDbEntity
  8
Defpoints
 62
     0
100
AcDbPoint
 10
1362.944390366681
 20
165.6897453822567
 30
0.0
  0
POINT
  5
1C87
330
ECB
100
AcDbEntity
  8
Defpoints
 62
     0
100
AcDbPoint
 10
1362.944390366681
 20
173.6897453822568
 30
0.0
  0
POINT
  5
1C88
330
ECB
100
AcDbEntity
  8
Defpoints
 62
     0
100
AcDbPoint
 10
1348.423764859436
 20
173.6897453822568
 30
0.0
  0
ENDBLK
  5
ECD
330
ECB
100
AcDbEntity
  8
0
100
AcDbBlockEnd
  0
BLOCK
  5
EE4
330
EE3
100
AcDbEntity
  8
0
100
AcDbBlockBegin
  2
*D4
 70
     1
 10
0.0
 20
0.0
 30
0.0
  3
*D4
  1

  0
LINE
  5
1C89
330
EE3
100
AcDbEntity
  8
0
 62
     0
370
    -2
100
AcDbLine
 10
1362.694390366681
 20
173.6897453822568
 30
0.0
 11
1347.173764859436
 21
173.6897453822568
 31
0.0
  0
LINE
  5
1C8A
330
EE3
100
AcDbEntity
  8
0
 62
     0
370
    -2
100
AcDbLine
 10
1376.19439036668
 20
216.6897453822568
 30
0.0
 11
1347.173764859436
 21
216.6897453822568
 31
0.0
  0
LINE
  5
1C8B
330
EE3
100
AcDbEntity
  8
0
 62
     0
370
    -2
100
AcDbLine
 10
1348.423764859436
 20
176.1897453822568
 30
0.0
 11
1348.423764859436
 21
214.1897453822568
 31
0.0
  0
INSERT
  5
1C8C
330
EE3
100
AcDbEntity
  8
0
 62
     0
370
    -2
100
AcDbBlockReference
  2
_Open30
 10
1348.423764859436
 20
173.6897453822568
 30
0.0
 41
2.5
 42
2.5
 43
2.5
 50
270.0
  0
INSERT
  5
1C8D
330
EE3
100
AcDbEntity
  8
0
 62
     0
370
    -2
100
AcDbBlockReference
  2
_Open30
 10
1348.423764859436
 20
216.6897453822568
 30
0.0
 41
2.5
 42
2.5
 43
2.5
 50
90.0
  0
MTEXT
  5
1C8E
330
EE3
100
AcDbEntity
  8
0
 62
     4
100
AcDbMText
 10
1346.298764859436
 20
195.1897453822567
 30
0.0
 40
3.0
 41
0.0
 71
     5
 72
     1
  1
43
 11
0.0000000000000001
 21
1.0
 31
0.0
 73
     1
 44
1.0
1001
ACAD
1000
MTEXTBEGIN
1070
    73
1070
     1
1070
    44
1040
1.0
1070
    74
1070
     0
1000
MTEXTEND
  0
POINT
  5
1C8F
330
EE3
100
AcDbEntity
  8
Defpoints
 62
     0
100
AcDbPoint
 10
1362.944390366681
 20
173.6897453822568
 30
0.0
  0
POINT
  5
1C90
330
EE3
100
AcDbEntity
  8
Defpoints
 62
     0
100
AcDbPoint
 10
1376.44439036668
 20
216.6897453822568
 30
0.0
  0
POINT
  5
1C91
330
EE3
100
AcDbEntity
  8
Defpoints
 62
     0
100
AcDbPoint
 10
1348.423764859436
 20
216.6897453822568
 30
0.0
  0
ENDBLK
  5
EE5
330
EE3
100
AcDbEntity
  8
0
100
AcDbBlockEnd
  0
BLOCK
  5
F05
330
F04
100
AcDbEntity
  8
0
100
AcDbBlockBegin
  2
*D5
 70
     1
 10
0.0
 20
0.0
 30
0.0
  3
*D5
  1

  0
LINE
  5
1EF8
330
F04
100
AcDbEntity
  8
0
 62
     0
370
    -2
100
AcDbLine
 10
1136.474353435986
 20
128.6467892405162
 30
0.0
 11
1104.953727928742
 21
128.6467892405162
 31
0.0
  0
LINE
  5
1EF9
330
F04
100
AcDbEntity
  8
0
 62
     0
370
    -2
100
AcDbLine
 10
1136.474353435986
 20
103.6467892405162
 30
0.0
 11
1104.953727928742
 21
103.6467892405162
 31
0.0
  0
LINE
  5
1EFA
330
F04
100
AcDbEntity
  8
0
 62
     0
370
    -2
100
AcDbLine
 10
1106.203727928741
 20
126.1467892405162
 30
0.0
 11
1106.203727928741
 21
106.1467892405162
 31
0.0
  0
INSERT
  5
1EFB
330
F04
100
AcDbEntity
  8
0
 62
     0
370
    -2
100
AcDbBlockReference
  2
_Open30
 10
1106.203727928741
 20
128.6467892405162
 30
0.0
 41
2.5
 42
2.5
 43
2.5
 50
90.0
  0
INSERT
  5
1EFC
330
F04
100
AcDbEntity
  8
0
 62
     0
370
    -2
100
AcDbBlockReference
  2
_Open30
 10
1106.203727928741
 20
103.6467892405162
 30
0.0
 41
2.5
 42
2.5
 43
2.5
 50
270.0
  0
MTEXT
  5
1EFD
330
F04
100
AcDbEntity
  8
0
 62
     4
100
AcDbMText
 10
1104.078727928742
 20
115.8217583538072
 30
0.0
 40
3.0
 41
0.0
 71
     5
 72
     1
  1
%%C25
 11
0.0000000000000001
 21
1.0
 31
0.0
 73
     1
 44
1.0
1001
ACAD
1000
MTEXTBEGIN
1070
    73
1070
     1
1070
    44
1040
1.0
1070
    74
1070
     0
1000
MTEXTEND
  0
POINT
  5
1EFE
330
F04
100
AcDbEntity
  8
Defpoints
 62
     0
100
AcDbPoint
 10
1136.724353435986
 20
128.6467892405162
 30
0.0
  0
POINT
  5
1EFF
330
F04
100
AcDbEntity
  8
Defpoints
 62
     0
100
AcDbPoint
 10
1136.724353435986
 20
103.6467892405162
 30
0.0
  0
POINT
  5
1F00
330
F04
100
AcDbEntity
  8
Defpoints
 62
     0
100
AcDbPoint
 10
1106.203727928741
 20
103.6467892405162
 30
0.0
  0
ENDBLK
  5
F06
330
F04
100
AcDbEntity
  8
0
100
AcDbBlockEnd
  0
BLOCK
  5
F1D
330
F1C
100
AcDbEntity
  8
0
100
AcDbBlockBegin
  2
*D6
 70
     1
 10
0.0
 20
0.0
 30
0.0
  3
*D6
  1

  0
LINE
  5
1F01
330
F1C
100
AcDbEntity
  8
0
 62
     0
370
    -2
100
AcDbLine
 10
1136.474353435986
 20
132.1467892405162
 30
0.0
 11
1097.629302976685
 21
132.1467892405162
 31
0.0
  0
LINE
  5
1F02
330
F1C
100
AcDbEntity
  8
0
 62
     0
370
    -2
100
AcDbLine
 10
1136.474353435986
 20
100.1467892405162
 30
0.0
 11
1097.629302976685
 21
100.1467892405162
 31
0.0
  0
LINE
  5
1F03
330
F1C
100
AcDbEntity
  8
0
 62
     0
370
    -2
100
AcDbLine
 10
1098.879302976685
 20
129.6467892405162
 30
0.0
 11
1098.879302976685
 21
102.6467892405162
 31
0.0
  0
INSERT
  5
1F04
330
F1C
100
AcDbEntity
  8
0
 62
     0
370
    -2
100
AcDbBlockReference
  2
_Open30
 10
1098.879302976685
 20
132.1467892405162
 30
0.0
 41
2.5
 42
2.5
 43
2.5
 50
90.0
  0
INSERT
  5
1F05
330
F1C
100
AcDbEntity
  8
0
 62
     0
370
    -2
100
AcDbBlockReference
  2
_Open30
 10
1098.879302976685
 20
100.1467892405162
 30
0.0
 41
2.5
 42
2.5
 43
2.5
 50
270.0
  0
MTEXT
  5
1F06
330
F1C
100
AcDbEntity
  8
0
 62
     4
100
AcDbMText
 10
1096.754302976685
 20
115.4731725875485
 30
0.0
 40
3.0
 41
0.0
 71
     5
 72
     1
  1
%%C32
 11
0.0000000000000001
 21
1.0
 31
0.0
 73
     1
 44
1.0
1001
ACAD
1000
MTEXTBEGIN
1070
    73
1070
     1
1070
    44
1040
1.0
1070
    74
1070
     0
1000
MTEXTEND
  0
POINT
  5
1F07
330
F1C
100
AcDbEntity
  8
Defpoints
 62
     0
100
AcDbPoint
 10
1136.724353435986
 20
132.1467892405162
 30
0.0
  0
POINT
  5
1F08
330
F1C
100
AcDbEntity
  8
Defpoints
 62
     0
100
AcDbPoint
 10
1136.724353435986
 20
100.1467892405162
 30
0.0
  0
POINT
  5
1F09
330
F1C
100
AcDbEntity
  8
Defpoints
 62
     0
100
AcDbPoint
 10
1098.879302976685
 20
100.1467892405162
 30
0.0
  0
ENDBLK
  5
F1E
330
F1C
100
AcDbEntity
  8
0
100
AcDbBlockEnd
  0
BLOCK
  5
F5A
330
F58
100
AcDbEntity
  8
0
100
AcDbBlockBegin
  2
_DotSmall
 70
     0
 10
0.0
 20
0.0
 30
0.0
  3
_DotSmall
  1

  0
LWPOLYLINE
  5
F59
330
F58
100
AcDbEntity
  8
0
  6
ByBlock
 62
     0
100
AcDbPolyline
 90
        2
 70
     1
 43
0.5
 10
-0.0625
 20
0.0
 42
1.0
 10
0.0625
 20
0.0
 42
1.0
  0
ENDBLK
  5
F5B
330
F58
100
AcDbEntity
  8
0
100
AcDbBlockEnd
  0
BLOCK
  5
11A6
330
11A5
100
AcDbEntity
  8
0
100
AcDbBlockBegin
  2
SW_CENTERMARKSYMBOL_0
 70
     0
 10
0.0
 20
0.0
 30
0.0
  3
SW_CENTERMARKSYMBOL_0
  1

  0
LINE
  5
11A7
330
11A5
100
AcDbEntity
  8
0
  6
Continuous
 62
     0
370
     0
100
AcDbLine
 10
0.0
 20
0.0
 30
0.0
 11
0.0
 21
2.500000000000002
 31
0.0
  0
LINE
  5
11A8
330
11A5
100
AcDbEntity
  8
0
  6
Continuous
 62
     0
370
     0
100
AcDbLine
 10
0.0
 20
0.0
 30
0.0
 11
-2.500000000000002
 21
0.0
 31
0.0
  0
LINE
  5
11A9
330
11A5
100
AcDbEntity
  8
0
  6
Continuous
 62
     0
370
     0
100
AcDbLine
 10
0.0
 20
0.0
 30
0.0
 11
0.0
 21
-2.500000000000002
 31
0.0
  0
LINE
  5
11AA
330
11A5
100
AcDbEntity
  8
0
  6
Continuous
 62
     0
370
     0
100
AcDbLine
 10
0.0
 20
0.0
 30
0.0
 11
2.500000000000002
 21
0.0
 31
0.0
  0
LINE
  5
11AB
330
11A5
100
AcDbEntity
  8
0
  6
Continuous
 62
     0
370
     0
100
AcDbLine
 10
0.0
 20
5.000000000000004
 30
0.0
 11
0.0
 21
14.49999999999998
 31
0.0
  0
LINE
  5
11AC
330
11A5
100
AcDbEntity
  8
0
  6
Continuous
 62
     0
370
     0
100
AcDbLine
 10
-5.000000000000004
 20
0.0
 30
0.0
 11
-14.50000000000001
 21
0.0
 31
0.0
  0
LINE
  5
11AD
330
11A5
100
AcDbEntity
  8
0
  6
Continuous
 62
     0
370
     0
100
AcDbLine
 10
0.0
 20
-5.000000000000004
 30
0.0
 11
0.0
 21
-14.50000000000001
 31
0.0
  0
LINE
  5
11AE
330
11A5
100
AcDbEntity
  8
0
  6
Continuous
 62
     0
370
     0
100
AcDbLine
 10
5.000000000000004
 20
0.0
 30
0.0
 11
14.50000000000001
 21
0.0
 31
0.0
  0
ENDBLK
  5
11AF
330
11A5
100
AcDbEntity
  8
0
100
AcDbBlockEnd
  0
BLOCK
  5
11B1
330
11B0
100
AcDbEntity
  8
0
100
AcDbBlockBegin
  2
SW_CENTERMARKSYMBOL_1
 70
     0
 10
0.0
 20
0.0
 30
0.0
  3
SW_CENTERMARKSYMBOL_1
  1

  0
LINE
  5
11B2
330
11B0
100
AcDbEntity
  8
0
  6
Continuous
 62
     0
370
     0
100
AcDbLine
 10
0.0
 20
0.0
 30
0.0
 11
0.0
 21
2.500000000000002
 31
0.0
  0
LINE
  5
11B3
330
11B0
100
AcDbEntity
  8
0
  6
Continuous
 62
     0
370
     0
100
AcDbLine
 10
0.0
 20
0.0
 30
0.0
 11
-2.500000000000002
 21
0.0
 31
0.0
  0
LINE
  5
11B4
330
11B0
100
AcDbEntity
  8
0
  6
Continuous
 62
     0
370
     0
100
AcDbLine
 10
0.0
 20
0.0
 30
0.0
 11
0.0
 21
-2.499999999999988
 31
0.0
  0
LINE
  5
11B5
330
11B0
100
AcDbEntity
  8
0
  6
Continuous
 62
     0
370
     0
100
AcDbLine
 10
0.0
 20
0.0
 30
0.0
 11
2.500000000000002
 21
0.0
 31
0.0
  0
LINE
  5
11B6
330
11B0
100
AcDbEntity
  8
0
  6
Continuous
 62
     0
370
     0
100
AcDbLine
 10
0.0
 20
5.000000000000004
 30
0.0
 11
0.0
 21
10.50000000000001
 31
0.0
  0
LINE
  5
11B7
330
11B0
100
AcDbEntity
  8
0
  6
Continuous
 62
     0
370
     0
100
AcDbLine
 10
-5.000000000000004
 20
0.0
 30
0.0
 11
-10.50000000000001
 21
0.0
 31
0.0
  0
LINE
  5
11B8
330
11B0
100
AcDbEntity
  8
0
  6
Continuous
 62
     0
370
     0
100
AcDbLine
 10
0.0
 20
-4.99999999999999
 30
0.0
 11
0.0
 21
-10.49999999999999
 31
0.0
  0
LINE
  5
11B9
330
11B0
100
AcDbEntity
  8
0
  6
Continuous
 62
     0
370
     0
100
AcDbLine
 10
5.000000000000004
 20
0.0
 30
0.0
 11
10.50000000000001
 21
0.0
 31
0.0
  0
ENDBLK
  5
11BA
330
11B0
100
AcDbEntity
  8
0
100
AcDbBlockEnd
  0
BLOCK
  5
1256
330
1255
100
AcDbEntity
  8
0
100
AcDbBlockBegin
  2
*D10
 70
     1
 10
0.0
 20
0.0
 30
0.0
  3
*D10
  1

  0
LINE
  5
19C9
330
1255
100
AcDbEntity
  8
0
 62
     0
370
    -2
100
AcDbLine
 10
1459.118786298205
 20
203.8802922223923
 30
0.0
 11
1491.580396102955
 21
203.8802922223923
 31
0.0
  0
LINE
  5
19CA
330
1255
100
AcDbEntity
  8
0
 62
     0
370
    -2
100
AcDbLine
 10
1459.118786298205
 20
169.8802922223922
 30
0.0
 11
1491.580396102955
 21
169.8802922223921
 31
0.0
  0
LINE
  5
19CB
330
1255
100
AcDbEntity
  8
0
 62
     0
370
    -2
100
AcDbLine
 10
1490.330396102955
 20
201.3802922223923
 30
0.0
 11
1490.330396102955
 21
172.3802922223921
 31
0.0
  0
INSERT
  5
19CC
330
1255
100
AcDbEntity
  8
0
 62
     0
370
    -2
100
AcDbBlockReference
  2
_Open30
 10
1490.330396102955
 20
203.8802922223923
 30
0.0
 41
2.5
 42
2.5
 43
2.5
 50
90.0
  0
INSERT
  5
19CD
330
1255
100
AcDbEntity
  8
0
 62
     0
370
    -2
100
AcDbBlockReference
  2
_Open30
 10
1490.330396102955
 20
169.8802922223921
 30
0.0
 41
2.5
 42
2.5
 43
2.5
 50
270.0
  0
MTEXT
  5
19CE
330
1255
100
AcDbEntity
  8
0
 62
     4
100
AcDbMText
 10
1488.205396102955
 20
186.5197867297299
 30
0.0
 40
3.0
 41
0.0
 71
     5
 72
     1
  1
(%%C34)
 11
0.0000000000000001
 21
1.0
 31
0.0
 73
     1
 44
1.0
1001
ACAD
1000
MTEXTBEGIN
1070
    73
1070
     1
1070
    44
1040
1.0
1070
    74
1070
     0
1000
MTEXTEND
  0
POINT
  5
19CF
330
1255
100
AcDbEntity
  8
Defpoints
 62
     0
100
AcDbPoint
 10
1458.868786298205
 20
203.8802922223923
 30
0.0
  0
POINT
  5
19D0
330
1255
100
AcDbEntity
  8
Defpoints
 62
     0
100
AcDbPoint
 10
1458.868786298205
 20
169.8802922223922
 30
0.0
  0
POINT
  5
19D1
330
1255
100
AcDbEntity
  8
Defpoints
 62
     0
100
AcDbPoint
 10
1490.330396102955
 20
169.8802922223921
 30
0.0
  0
ENDBLK
  5
1257
330
1255
100
AcDbEntity
  8
0
100
AcDbBlockEnd
  0
BLOCK
  5
126E
330
126D
100
AcDbEntity
  8
0
100
AcDbBlockBegin
  2
*D11
 70
     1
 10
0.0
 20
0.0
 30
0.0
  3
*D11
  1

  0
LINE
  5
19D2
330
126D
100
AcDbEntity
  8
0
 62
     0
370
    -2
100
AcDbLine
 10
1467.118786298205
 20
121.4110873417426
 30
0.0
 11
1488.731316908861
 21
121.4110873417426
 31
0.0
  0
LINE
  5
19D3
330
126D
100
AcDbEntity
  8
0
 62
     0
370
    -2
100
AcDbLine
 10
1474.44410384551
 20
139.4110873417425
 30
0.0
 11
1488.731316908861
 21
139.4110873417425
 31
0.0
  0
LINE
  5
19D4
330
126D
100
AcDbEntity
  8
0
 62
     0
370
    -2
100
AcDbLine
 10
1487.481316908861
 20
123.9110873417426
 30
0.0
 11
1487.481316908861
 21
136.9110873417425
 31
0.0
  0
INSERT
  5
19D5
330
126D
100
AcDbEntity
  8
0
 62
     0
370
    -2
100
AcDbBlockReference
  2
_Open30
 10
1487.481316908861
 20
121.4110873417426
 30
0.0
 41
2.5
 42
2.5
 43
2.5
 50
270.0
  0
INSERT
  5
19D6
330
126D
100
AcDbEntity
  8
0
 62
     0
370
    -2
100
AcDbBlockReference
  2
_Open30
 10
1487.481316908861
 20
139.4110873417425
 30
0.0
 41
2.5
 42
2.5
 43
2.5
 50
90.0
  0
MTEXT
  5
19D7
330
126D
100
AcDbEntity
  8
0
 62
     4
100
AcDbMText
 10
1485.356316908861
 20
131.2850767840038
 30
0.0
 40
3.0
 41
0.0
 71
     5
 72
     1
  1
18
 11
0.0000000000000001
 21
1.0
 31
0.0
 73
     1
 44
1.0
1001
ACAD
1000
MTEXTBEGIN
1070
    73
1070
     1
1070
    44
1040
1.0
1070
    74
1070
     0
1000
MTEXTEND
  0
POINT
  5
19D8
330
126D
100
AcDbEntity
  8
Defpoints
 62
     0
100
AcDbPoint
 10
1466.868786298205
 20
121.4110873417426
 30
0.0
  0
POINT
  5
19D9
330
126D
100
AcDbEntity
  8
Defpoints
 62
     0
100
AcDbPoint
 10
1474.19410384551
 20
139.4110873417425
 30
0.0
  0
POINT
  5
19DA
330
126D
100
AcDbEntity
  8
Defpoints
 62
     0
100
AcDbPoint
 10
1487.481316908861
 20
139.4110873417425
 30
0.0
  0
ENDBLK
  5
126F
330
126D
100
AcDbEntity
  8
0
100
AcDbBlockEnd
  0
BLOCK
  5
1488
330
1481
100
AcDbEntity
  8
0
100
AcDbBlockBegin
  2
A$C4C160E45
 70
     0
 10
0.0
 20
0.0
 30
0.0
  3
A$C4C160E45
  1

  0
TEXT
  5
1482
330
1481
100
AcDbEntity
  8
0
 62
     3
100
AcDbText
 10
1.513515315529954
 20
0.3294615638903906
 30
0.0
 40
2.0
  1
1
  7
高2
100
AcDbText
  0
LINE
  5
1483
330
1481
100
AcDbEntity
  8
0
 62
     7
100
AcDbLine
 10
1.900000315190709
 20
3.290897073798758
 30
0.0
 11
0.0000003151906185
 21
0.0000000737986738
 31
0.0
  0
LINE
  5
1484
330
1481
100
AcDbEntity
  8
0
 62
     7
100
AcDbLine
 10
1.900000315190709
 20
3.290897073798758
 30
0.0
 11
3.800000315190573
 21
0.0000000737986738
 31
0.0
  0
LINE
  5
1485
330
1481
100
AcDbEntity
  8
0
 62
     7
100
AcDbLine
 10
0.0000003151906185
 20
0.0000000737986738
 30
0.0
 11
3.800000315190573
 21
0.0000000737986738
 31
0.0
  0
ENDBLK
  5
1489
330
1481
100
AcDbEntity
  8
0
100
AcDbBlockEnd
  0
BLOCK
  5
164F
330
164E
100
AcDbEntity
  8
0
100
AcDbBlockBegin
  2
*D13
 70
     1
 10
0.0
 20
0.0
 30
0.0
  3
*D13
  1

  0
LINE
  5
19DB
330
164E
100
AcDbEntity
  8
0
 62
     0
370
    -2
100
AcDbLine
 10
1474.44410384551
 20
129.9110873417426
 30
0.0
 11
1482.612770239038
 21
129.9110873417426
 31
0.0
  0
LINE
  5
19DC
330
164E
100
AcDbEntity
  8
0
 62
     0
370
    -2
100
AcDbLine
 10
1474.44410384551
 20
139.4110873417426
 30
0.0
 11
1482.612770239038
 21
139.4110873417426
 31
0.0
  0
LINE
  5
19DD
330
164E
100
AcDbEntity
  8
0
 62
     0
370
    -2
100
AcDbLine
 10
1481.362770239038
 20
132.4110873417426
 30
0.0
 11
1481.362770239038
 21
136.9110873417426
 31
0.0
  0
INSERT
  5
19DE
330
164E
100
AcDbEntity
  8
0
 62
     0
370
    -2
100
AcDbBlockReference
  2
_Open30
 10
1481.362770239038
 20
129.9110873417426
 30
0.0
 41
2.5
 42
2.5
 43
2.5
 50
270.0
  0
INSERT
  5
19DF
330
164E
100
AcDbEntity
  8
0
 62
     0
370
    -2
100
AcDbBlockReference
  2
_Open30
 10
1481.362770239038
 20
139.4110873417426
 30
0.0
 41
2.5
 42
2.5
 43
2.5
 50
90.0
  0
MTEXT
  5
19E0
330
164E
100
AcDbEntity
  8
0
 62
     4
100
AcDbMText
 10
1479.237770239038
 20
134.8173862606518
 30
0.0
 40
3.0
 41
0.0
 71
     5
 72
     1
  1
9.5
 11
0.0000000000000001
 21
1.0
 31
0.0
 73
     1
 44
1.0
1001
ACAD
1000
MTEXTBEGIN
1070
    73
1070
     1
1070
    44
1040
1.0
1070
    74
1070
     0
1000
MTEXTEND
  0
POINT
  5
19E1
330
164E
100
AcDbEntity
  8
Defpoints
 62
     0
100
AcDbPoint
 10
1474.19410384551
 20
129.9110873417426
 30
0.0
  0
POINT
  5
19E2
330
164E
100
AcDbEntity
  8
Defpoints
 62
     0
100
AcDbPoint
 10
1474.19410384551
 20
139.4110873417426
 30
0.0
  0
POINT
  5
19E3
330
164E
100
AcDbEntity
  8
Defpoints
 62
     0
100
AcDbPoint
 10
1481.362770239038
 20
139.4110873417426
 30
0.0
  0
ENDBLK
  5
1650
330
164E
100
AcDbEntity
  8
0
100
AcDbBlockEnd
  0
BLOCK
  5
1667
330
1666
100
AcDbEntity
  8
0
100
AcDbBlockBegin
  2
*D14
 70
     1
 10
0.0
 20
0.0
 30
0.0
  3
*D14
  1

  0
LINE
  5
19E4
330
1666
100
AcDbEntity
  8
0
 62
     0
370
    -2
100
AcDbLine
 10
1450.868786298205
 20
121.1610873417426
 30
0.0
 11
1450.868786298205
 21
108.2145412412519
 31
0.0
  0
LINE
  5
19E5
330
1666
100
AcDbEntity
  8
0
 62
     0
370
    -2
100
AcDbLine
 10
1466.868786298205
 20
121.1610873417426
 30
0.0
 11
1466.868786298205
 21
108.2145412412519
 31
0.0
  0
LINE
  5
19E6
330
1666
100
AcDbEntity
  8
0
 62
     0
370
    -2
100
AcDbLine
 10
1453.368786298205
 20
109.4645412412519
 30
0.0
 11
1464.368786298205
 21
109.4645412412519
 31
0.0
  0
INSERT
  5
19E7
330
1666
100
AcDbEntity
  8
0
 62
     0
370
    -2
100
AcDbBlockReference
  2
_Open30
 10
1450.868786298205
 20
109.4645412412519
 30
0.0
 41
2.5
 42
2.5
 43
2.5
 50
180.0
  0
INSERT
  5
19E8
330
1666
100
AcDbEntity
  8
0
 62
     0
370
    -2
100
AcDbBlockReference
  2
_Open30
 10
1466.868786298205
 20
109.4645412412519
 30
0.0
 41
2.5
 42
2.5
 43
2.5
  0
MTEXT
  5
19E9
330
1666
100
AcDbEntity
  8
0
 62
     4
100
AcDbMText
 10
1458.56627896555
 20
111.5895412412519
 30
0.0
 40
3.0
 41
0.0
 71
     5
 72
     1
  1
%%C16
 73
     1
 44
1.0
1001
ACAD
1000
MTEXTBEGIN
1070
    73
1070
     1
1070
    44
1040
1.0
1070
    74
1070
     0
1000
MTEXTEND
  0
POINT
  5
19EA
330
1666
100
AcDbEntity
  8
Defpoints
 62
     0
100
AcDbPoint
 10
1450.868786298205
 20
121.4110873417426
 30
0.0
  0
POINT
  5
19EB
330
1666
100
AcDbEntity
  8
Defpoints
 62
     0
100
AcDbPoint
 10
1466.868786298205
 20
121.4110873417426
 30
0.0
  0
POINT
  5
19EC
330
1666
100
AcDbEntity
  8
Defpoints
 62
     0
100
AcDbPoint
 10
1466.868786298205
 20
109.4645412412519
 30
0.0
  0
ENDBLK
  5
1668
330
1666
100
AcDbEntity
  8
0
100
AcDbBlockEnd
  0
BLOCK
  5
18DC
330
18DB
100
AcDbEntity
  8
0
100
AcDbBlockBegin
  2
*D15
 70
     1
 10
0.0
 20
0.0
 30
0.0
  3
*D15
  1

  0
LINE
  5
18DE
330
18DB
100
AcDbEntity
  8
0
 62
     0
370
    -2
100
AcDbLine
 10
1481.837710377185
 20
139.4110873417425
 30
0.0
 11
1496.352296701557
 21
139.4110873417425
 31
0.0
  0
LINE
  5
18DF
330
18DB
100
AcDbEntity
  8
0
 62
     0
370
    -2
100
AcDbLine
 10
1481.837710377185
 20
124.4110873417426
 30
0.0
 11
1496.352296701557
 21
124.4110873417426
 31
0.0
  0
LINE
  5
18E0
330
18DB
100
AcDbEntity
  8
0
 62
     0
370
    -2
100
AcDbLine
 10
1495.102296701557
 20
136.9110873417425
 30
0.0
 11
1495.102296701557
 21
126.9110873417426
 31
0.0
  0
INSERT
  5
18E1
330
18DB
100
AcDbEntity
  8
0
 62
     0
370
    -2
100
AcDbBlockReference
  2
_Open30
 10
1495.102296701557
 20
139.4110873417425
 30
0.0
 41
2.5
 42
2.5
 43
2.5
 50
90.0
  0
INSERT
  5
18E2
330
18DB
100
AcDbEntity
  8
0
 62
     0
370
    -2
100
AcDbBlockReference
  2
_Open30
 10
1495.102296701557
 20
124.4110873417426
 30
0.0
 41
2.5
 42
2.5
 43
2.5
 50
270.0
  0
MTEXT
  5
18E3
330
18DB
100
AcDbEntity
  8
0
 62
     4
100
AcDbMText
 10
1492.977296701558
 20
131.1479191924486
 30
0.0
 40
3.0
 41
0.0
 71
     5
 72
     1
  1
15
 11
0.0000000000000001
 21
1.0
 31
0.0
 73
     1
 44
1.0
1001
ACAD
1000
MTEXTBEGIN
1070
    73
1070
     1
1070
    44
1040
1.0
1070
    74
1070
     0
1000
MTEXTEND
  0
POINT
  5
18E4
330
18DB
100
AcDbEntity
  8
Defpoints
 62
     0
100
AcDbPoint
 10
1481.587710377185
 20
139.4110873417425
 30
0.0
  0
POINT
  5
18E5
330
18DB
100
AcDbEntity
  8
Defpoints
 62
     0
100
AcDbPoint
 10
1481.587710377185
 20
124.4110873417426
 30
0.0
  0
POINT
  5
18E6
330
18DB
100
AcDbEntity
  8
Defpoints
 62
     0
100
AcDbPoint
 10
1495.102296701557
 20
124.4110873417426
 30
0.0
  0
ENDBLK
  5
18DD
330
18DB
100
AcDbEntity
  8
0
100
AcDbBlockEnd
  0
BLOCK
  5
1A29
330
1A28
100
AcDbEntity
  8
0
100
AcDbBlockBegin
  2
*D16
 70
     1
 10
0.0
 20
0.0
 30
0.0
  3
*D16
  1

  0
LINE
  5
1F0A
330
1A28
100
AcDbEntity
  8
0
 62
     0
370
    -2
100
AcDbLine
 10
1216.89874936751
 20
205.8802922223922
 30
0.0
 11
1249.360359172261
 21
205.8802922223922
 31
0.0
  0
LINE
  5
1F0B
330
1A28
100
AcDbEntity
  8
0
 62
     0
370
    -2
100
AcDbLine
 10
1216.89874936751
 20
167.8802922223922
 30
0.0
 11
1249.360359172261
 21
167.8802922223922
 31
0.0
  0
LINE
  5
1F0C
330
1A28
100
AcDbEntity
  8
0
 62
     0
370
    -2
100
AcDbLine
 10
1248.110359172261
 20
203.3802922223922
 30
0.0
 11
1248.110359172261
 21
170.3802922223922
 31
0.0
  0
INSERT
  5
1F0D
330
1A28
100
AcDbEntity
  8
0
 62
     0
370
    -2
100
AcDbBlockReference
  2
_Open30
 10
1248.110359172261
 20
205.8802922223922
 30
0.0
 41
2.5
 42
2.5
 43
2.5
 50
90.0
  0
INSERT
  5
1F0E
330
1A28
100
AcDbEntity
  8
0
 62
     0
370
    -2
100
AcDbBlockReference
  2
_Open30
 10
1248.110359172261
 20
167.8802922223922
 30
0.0
 41
2.5
 42
2.5
 43
2.5
 50
270.0
  0
MTEXT
  5
1F0F
330
1A28
100
AcDbEntity
  8
0
 62
     4
100
AcDbMText
 10
1245.985359172261
 20
186.5197867297299
 30
0.0
 40
3.0
 41
0.0
 71
     5
 72
     1
  1
(%%C38)
 11
0.0000000000000001
 21
1.0
 31
0.0
 73
     1
 44
1.0
1001
ACAD
1000
MTEXTBEGIN
1070
    73
1070
     1
1070
    44
1040
1.0
1070
    74
1070
     0
1000
MTEXTEND
  0
POINT
  5
1F10
330
1A28
100
AcDbEntity
  8
Defpoints
 62
     0
100
AcDbPoint
 10
1216.64874936751
 20
205.8802922223922
 30
0.0
  0
POINT
  5
1F11
330
1A28
100
AcDbEntity
  8
Defpoints
 62
     0
100
AcDbPoint
 10
1216.64874936751
 20
167.8802922223922
 30
0.0
  0
POINT
  5
1F12
330
1A28
100
AcDbEntity
  8
Defpoints
 62
     0
100
AcDbPoint
 10
1248.110359172261
 20
167.8802922223922
 30
0.0
  0
ENDBLK
  5
1A2A
330
1A28
100
AcDbEntity
  8
0
100
AcDbBlockEnd
  0
BLOCK
  5
1AB3
330
1AB2
100
AcDbEntity
  8
0
100
AcDbBlockBegin
  2
*D17
 70
     1
 10
0.0
 20
0.0
 30
0.0
  3
*D17
  1

  0
LINE
  5
1AB5
330
1AB2
100
AcDbEntity
  8
0
 62
     0
370
    -2
100
AcDbLine
 10
1640.662319845549
 20
165.6897453822567
 30
0.0
 11
1625.141694338304
 21
165.6897453822567
 31
0.0
  0
LINE
  5
1AB6
330
1AB2
100
AcDbEntity
  8
0
 62
     0
370
    -2
100
AcDbLine
 10
1640.662319845549
 20
173.6897453822568
 30
0.0
 11
1625.141694338304
 21
173.6897453822568
 31
0.0
  0
LINE
  5
1AB7
330
1AB2
100
AcDbEntity
  8
0
 62
     0
370
    -2
100
AcDbLine
 10
1626.391694338304
 20
168.1897453822567
 30
0.0
 11
1626.391694338304
 21
171.1897453822568
 31
0.0
  0
INSERT
  5
1AB8
330
1AB2
100
AcDbEntity
  8
0
 62
     0
370
    -2
100
AcDbBlockReference
  2
_Open30
 10
1626.391694338304
 20
165.6897453822567
 30
0.0
 41
2.5
 42
2.5
 43
2.5
 50
270.0
  0
INSERT
  5
1AB9
330
1AB2
100
AcDbEntity
  8
0
 62
     0
370
    -2
100
AcDbBlockReference
  2
_Open30
 10
1626.391694338304
 20
173.6897453822568
 30
0.0
 41
2.5
 42
2.5
 43
2.5
 50
90.0
  0
MTEXT
  5
1ABA
330
1AB2
100
AcDbEntity
  8
0
 62
     4
100
AcDbMText
 10
1624.266694338304
 20
169.5591689295639
 30
0.0
 40
3.0
 41
0.0
 71
     5
 72
     1
  1
8
 11
0.0000000000000001
 21
1.0
 31
0.0
 73
     1
 44
1.0
1001
ACAD
1000
MTEXTBEGIN
1070
    73
1070
     1
1070
    44
1040
1.0
1070
    74
1070
     0
1000
MTEXTEND
  0
POINT
  5
1ABB
330
1AB2
100
AcDbEntity
  8
Defpoints
 62
     0
100
AcDbPoint
 10
1640.912319845549
 20
165.6897453822567
 30
0.0
  0
POINT
  5
1ABC
330
1AB2
100
AcDbEntity
  8
Defpoints
 62
     0
100
AcDbPoint
 10
1640.912319845549
 20
173.6897453822568
 30
0.0
  0
POINT
  5
1ABD
330
1AB2
100
AcDbEntity
  8
Defpoints
 62
     0
100
AcDbPoint
 10
1626.391694338304
 20
173.6897453822568
 30
0.0
  0
ENDBLK
  5
1AB4
330
1AB2
100
AcDbEntity
  8
0
100
AcDbBlockEnd
  0
BLOCK
  5
1ABF
330
1ABE
100
AcDbEntity
  8
0
100
AcDbBlockBegin
  2
*D18
 70
     1
 10
0.0
 20
0.0
 30
0.0
  3
*D18
  1

  0
LINE
  5
1AC1
330
1ABE
100
AcDbEntity
  8
0
 62
     0
370
    -2
100
AcDbLine
 10
1640.662319845549
 20
173.6897453822568
 30
0.0
 11
1625.141694338304
 21
173.6897453822568
 31
0.0
  0
LINE
  5
1AC2
330
1ABE
100
AcDbEntity
  8
0
 62
     0
370
    -2
100
AcDbLine
 10
1654.162319845547
 20
216.6897453822568
 30
0.0
 11
1625.141694338304
 21
216.6897453822568
 31
0.0
  0
LINE
  5
1AC3
330
1ABE
100
AcDbEntity
  8
0
 62
     0
370
    -2
100
AcDbLine
 10
1626.391694338304
 20
176.1897453822568
 30
0.0
 11
1626.391694338304
 21
214.1897453822568
 31
0.0
  0
INSERT
  5
1AC4
330
1ABE
100
AcDbEntity
  8
0
 62
     0
370
    -2
100
AcDbBlockReference
  2
_Open30
 10
1626.391694338304
 20
173.6897453822568
 30
0.0
 41
2.5
 42
2.5
 43
2.5
 50
270.0
  0
INSERT
  5
1AC5
330
1ABE
100
AcDbEntity
  8
0
 62
     0
370
    -2
100
AcDbBlockReference
  2
_Open30
 10
1626.391694338304
 20
216.6897453822568
 30
0.0
 41
2.5
 42
2.5
 43
2.5
 50
90.0
  0
MTEXT
  5
1AC6
330
1ABE
100
AcDbEntity
  8
0
 62
     4
100
AcDbMText
 10
1624.266694338304
 20
195.1897453822567
 30
0.0
 40
3.0
 41
0.0
 71
     5
 72
     1
  1
43
 11
0.0000000000000001
 21
1.0
 31
0.0
 73
     1
 44
1.0
1001
ACAD
1000
MTEXTBEGIN
1070
    73
1070
     1
1070
    44
1040
1.0
1070
    74
1070
     0
1000
MTEXTEND
  0
POINT
  5
1AC7
330
1ABE
100
AcDbEntity
  8
Defpoints
 62
     0
100
AcDbPoint
 10
1640.912319845549
 20
173.6897453822568
 30
0.0
  0
POINT
  5
1AC8
330
1ABE
100
AcDbEntity
  8
Defpoints
 62
     0
100
AcDbPoint
 10
1654.412319845548
 20
216.6897453822568
 30
0.0
  0
POINT
  5
1AC9
330
1ABE
100
AcDbEntity
  8
Defpoints
 62
     0
100
AcDbPoint
 10
1626.391694338304
 20
216.6897453822568
 30
0.0
  0
ENDBLK
  5
1AC0
330
1ABE
100
AcDbEntity
  8
0
100
AcDbBlockEnd
  0
BLOCK
  5
1AE1
330
1AE0
100
AcDbEntity
  8
0
100
AcDbBlockBegin
  2
*D19
 70
     1
 10
0.0
 20
0.0
 30
0.0
  3
*D19
  1

  0
LINE
  5
1AED
330
1AE0
100
AcDbEntity
  8
0
 62
     0
370
    -2
100
AcDbLine
 10
1649.262319845548
 20
196.4206303634681
 30
0.0
 11
1646.524153341493
 21
196.4206303634681
 31
0.0
  0
LINE
  5
1AEE
330
1AE0
100
AcDbEntity
  8
0
 62
     0
370
    -2
100
AcDbLine
 10
1649.262319845548
 20
203.6897453822568
 30
0.0
 11
1646.524153341493
 21
203.6897453822568
 31
0.0
  0
LINE
  5
1AEF
330
1AE0
100
AcDbEntity
  8
0
 62
     0
370
    -2
100
AcDbLine
 10
1647.774153341493
 20
198.9206303634681
 30
0.0
 11
1647.774153341493
 21
201.1897453822568
 31
0.0
  0
INSERT
  5
1AF0
330
1AE0
100
AcDbEntity
  8
0
 62
     0
370
    -2
100
AcDbBlockReference
  2
_Open30
 10
1647.774153341493
 20
196.4206303634681
 30
0.0
 41
2.5
 42
2.5
 43
2.5
 50
270.0
  0
INSERT
  5
1AF1
330
1AE0
100
AcDbEntity
  8
0
 62
     0
370
    -2
100
AcDbBlockReference
  2
_Open30
 10
1647.774153341493
 20
203.6897453822568
 30
0.0
 41
2.5
 42
2.5
 43
2.5
 50
90.0
  0
MTEXT
  5
1AF2
330
1AE0
100
AcDbEntity
  8
0
 62
     4
100
AcDbMText
 10
1645.649153341494
 20
200.0551878728627
 30
0.0
 40
3.0
 41
0.0
 71
     5
 72
     1
  1
7.27
 11
0.0000000000000001
 21
1.0
 31
0.0
 73
     1
 44
1.0
1001
ACAD
1000
MTEXTBEGIN
1070
    73
1070
     1
1070
    44
1040
1.0
1070
    74
1070
     0
1000
MTEXTEND
  0
POINT
  5
1AF3
330
1AE0
100
AcDbEntity
  8
Defpoints
 62
     0
100
AcDbPoint
 10
1649.512319845548
 20
196.4206303634681
 30
0.0
  0
POINT
  5
1AF4
330
1AE0
100
AcDbEntity
  8
Defpoints
 62
     0
100
AcDbPoint
 10
1649.512319845548
 20
203.6897453822568
 30
0.0
  0
POINT
  5
1AF5
330
1AE0
100
AcDbEntity
  8
Defpoints
 62
     0
100
AcDbPoint
 10
1647.774153341493
 20
203.6897453822568
 30
0.0
  0
ENDBLK
  5
1AE2
330
1AE0
100
AcDbEntity
  8
0
100
AcDbBlockEnd
  0
BLOCK
  5
1AF9
330
1AF8
100
AcDbEntity
  8
0
100
AcDbBlockBegin
  2
*D20
 70
     1
 10
0.0
 20
0.0
 30
0.0
  3
*D20
  1

  0
LINE
  5
1B07
330
1AF8
100
AcDbEntity
  8
0
 62
     0
370
    -2
100
AcDbLine
 10
1649.262319845548
 20
195.4206303634681
 30
0.0
 11
1645.464028069406
 21
195.4206303634681
 31
0.0
  0
LINE
  5
1B08
330
1AF8
100
AcDbEntity
  8
0
 62
     0
370
    -2
100
AcDbLine
 10
1649.262319845548
 20
190.1080957843048
 30
0.0
 11
1645.464028069406
 21
190.1080957843048
 31
0.0
  0
LINE
  5
1B09
330
1AF8
100
AcDbEntity
  8
0
 62
     0
370
    -2
100
AcDbLine
 10
1646.714028069406
 20
197.9206303634681
 30
0.0
 11
1646.714028069406
 21
200.4206303634681
 31
0.0
  0
LINE
  5
1B0A
330
1AF8
100
AcDbEntity
  8
0
 62
     0
370
    -2
100
AcDbLine
 10
1646.714028069406
 20
187.6080957843048
 30
0.0
 11
1646.714028069406
 21
185.1080957843048
 31
0.0
  0
LINE
  5
1B0B
330
1AF8
100
AcDbEntity
  8
0
 62
     0
370
    -2
100
AcDbLine
 10
1646.714028069406
 20
195.4206303634681
 30
0.0
 11
1646.714028069406
 21
190.1080957843048
 31
0.0
  0
INSERT
  5
1B0C
330
1AF8
100
AcDbEntity
  8
0
 62
     0
370
    -2
100
AcDbBlockReference
  2
_Open30
 10
1646.714028069406
 20
195.4206303634681
 30
0.0
 41
2.5
 42
2.5
 43
2.5
 50
270.0
  0
INSERT
  5
1B0D
330
1AF8
100
AcDbEntity
  8
0
 62
     0
370
    -2
100
AcDbBlockReference
  2
_Open30
 10
1646.714028069406
 20
190.1080957843048
 30
0.0
 41
2.5
 42
2.5
 43
2.5
 50
90.0
  0
MTEXT
  5
1B0E
330
1AF8
100
AcDbEntity
  8
0
 62
     4
100
AcDbMText
 10
1644.589028069406
 20
192.7643630738866
 30
0.0
 40
3.0
 41
0.0
 71
     5
 72
     1
  1
5.31
 11
0.0000000000000001
 21
1.0
 31
0.0
 73
     1
 44
1.0
1001
ACAD
1000
MTEXTBEGIN
1070
    73
1070
     1
1070
    44
1040
1.0
1070
    74
1070
     0
1000
MTEXTEND
  0
POINT
  5
1B0F
330
1AF8
100
AcDbEntity
  8
Defpoints
 62
     0
100
AcDbPoint
 10
1649.512319845548
 20
195.4206303634681
 30
0.0
  0
POINT
  5
1B10
330
1AF8
100
AcDbEntity
  8
Defpoints
 62
     0
100
AcDbPoint
 10
1649.512319845548
 20
190.1080957843048
 30
0.0
  0
POINT
  5
1B11
330
1AF8
100
AcDbEntity
  8
Defpoints
 62
     0
100
AcDbPoint
 10
1646.714028069406
 20
190.1080957843048
 30
0.0
  0
ENDBLK
  5
1AFA
330
1AF8
100
AcDbEntity
  8
0
100
AcDbBlockEnd
  0
BLOCK
  5
1B15
330
1B14
100
AcDbEntity
  8
0
100
AcDbBlockBegin
  2
*D21
 70
     1
 10
0.0
 20
0.0
 30
0.0
  3
*D21
  1

  0
LINE
  5
1B23
330
1B14
100
AcDbEntity
  8
0
 62
     0
370
    -2
100
AcDbLine
 10
1649.262319845548
 20
189.1080957843048
 30
0.0
 11
1639.103271983413
 21
189.1080957843048
 31
0.0
  0
LINE
  5
1B24
330
1B14
100
AcDbEntity
  8
0
 62
     0
370
    -2
100
AcDbLine
 10
1653.662319845549
 20
185.0897453822567
 30
0.0
 11
1639.103271983413
 21
185.0897453822567
 31
0.0
  0
LINE
  5
1B25
330
1B14
100
AcDbEntity
  8
0
 62
     0
370
    -2
100
AcDbLine
 10
1640.353271983413
 20
191.6080957843048
 30
0.0
 11
1640.353271983413
 21
194.1080957843048
 31
0.0
  0
LINE
  5
1B26
330
1B14
100
AcDbEntity
  8
0
 62
     0
370
    -2
100
AcDbLine
 10
1640.353271983413
 20
182.5897453822567
 30
0.0
 11
1640.353271983413
 21
170.3397453822566
 31
0.0
  0
LINE
  5
1B27
330
1B14
100
AcDbEntity
  8
0
 62
     0
370
    -2
100
AcDbLine
 10
1640.353271983413
 20
189.1080957843048
 30
0.0
 11
1640.353271983413
 21
185.0897453822567
 31
0.0
  0
INSERT
  5
1B28
330
1B14
100
AcDbEntity
  8
0
 62
     0
370
    -2
100
AcDbBlockReference
  2
_Open30
 10
1640.353271983413
 20
189.1080957843048
 30
0.0
 41
2.5
 42
2.5
 43
2.5
 50
270.0
  0
INSERT
  5
1B29
330
1B14
100
AcDbEntity
  8
0
 62
     0
370
    -2
100
AcDbBlockReference
  2
_Open30
 10
1640.353271983413
 20
185.0897453822567
 30
0.0
 41
2.5
 42
2.5
 43
2.5
 50
90.0
  0
MTEXT
  5
1B2A
330
1B14
100
AcDbEntity
  8
0
 62
     4
100
AcDbMText
 10
1638.228271983413
 20
175.2147453822569
 30
0.0
 40
3.0
 41
0.0
 71
     5
 72
     1
  1
4.02
 11
0.0000000000000001
 21
1.0
 31
0.0
 73
     1
 44
1.0
1001
ACAD
1000
MTEXTBEGIN
1070
    73
1070
     1
1070
    44
1040
1.0
1070
    74
1070
     0
1000
MTEXTEND
  0
POINT
  5
1B2B
330
1B14
100
AcDbEntity
  8
Defpoints
 62
     0
100
AcDbPoint
 10
1649.512319845548
 20
189.1080957843048
 30
0.0
  0
POINT
  5
1B2C
330
1B14
100
AcDbEntity
  8
Defpoints
 62
     0
100
AcDbPoint
 10
1653.912319845548
 20
185.0897453822567
 30
0.0
  0
POINT
  5
1B2D
330
1B14
100
AcDbEntity
  8
Defpoints
 62
     0
100
AcDbPoint
 10
1640.353271983413
 20
185.0897453822567
 30
0.0
  0
ENDBLK
  5
1B16
330
1B14
100
AcDbEntity
  8
0
100
AcDbBlockEnd
  0
BLOCK
  5
1B39
330
1B38
100
AcDbEntity
  8
0
100
AcDbBlockBegin
  2
*D22
 70
     1
 10
0.0
 20
0.0
 30
0.0
  3
*D22
  1

  0
LINE
  5
1F13
330
1B38
100
AcDbEntity
  8
0
 62
     0
370
    -2
100
AcDbLine
 10
1226.398749367511
 20
121.4110873417426
 30
0.0
 11
1246.511279978167
 21
121.4110873417426
 31
0.0
  0
LINE
  5
1F14
330
1B38
100
AcDbEntity
  8
0
 62
     0
370
    -2
100
AcDbLine
 10
1234.023105020493
 20
139.4110873417425
 30
0.0
 11
1246.511279978167
 21
139.4110873417425
 31
0.0
  0
LINE
  5
1F15
330
1B38
100
AcDbEntity
  8
0
 62
     0
370
    -2
100
AcDbLine
 10
1245.261279978167
 20
123.9110873417426
 30
0.0
 11
1245.261279978167
 21
136.9110873417425
 31
0.0
  0
INSERT
  5
1F16
330
1B38
100
AcDbEntity
  8
0
 62
     0
370
    -2
100
AcDbBlockReference
  2
_Open30
 10
1245.261279978167
 20
121.4110873417426
 30
0.0
 41
2.5
 42
2.5
 43
2.5
 50
270.0
  0
INSERT
  5
1F17
330
1B38
100
AcDbEntity
  8
0
 62
     0
370
    -2
100
AcDbBlockReference
  2
_Open30
 10
1245.261279978167
 20
139.4110873417425
 30
0.0
 41
2.5
 42
2.5
 43
2.5
 50
90.0
  0
MTEXT
  5
1F18
330
1B38
100
AcDbEntity
  8
0
 62
     4
100
AcDbMText
 10
1243.136279978167
 20
131.2850767840038
 30
0.0
 40
3.0
 41
0.0
 71
     5
 72
     1
  1
18
 11
0.0000000000000001
 21
1.0
 31
0.0
 73
     1
 44
1.0
1001
ACAD
1000
MTEXTBEGIN
1070
    73
1070
     1
1070
    44
1040
1.0
1070
    74
1070
     0
1000
MTEXTEND
  0
POINT
  5
1F19
330
1B38
100
AcDbEntity
  8
Defpoints
 62
     0
100
AcDbPoint
 10
1226.14874936751
 20
121.4110873417426
 30
0.0
  0
POINT
  5
1F1A
330
1B38
100
AcDbEntity
  8
Defpoints
 62
     0
100
AcDbPoint
 10
1233.773105020493
 20
139.4110873417425
 30
0.0
  0
POINT
  5
1F1B
330
1B38
100
AcDbEntity
  8
Defpoints
 62
     0
100
AcDbPoint
 10
1245.261279978167
 20
139.4110873417425
 30
0.0
  0
ENDBLK
  5
1B3A
330
1B38
100
AcDbEntity
  8
0
100
AcDbBlockEnd
  0
BLOCK
  5
1B45
330
1B44
100
AcDbEntity
  8
0
100
AcDbBlockBegin
  2
*D23
 70
     1
 10
0.0
 20
0.0
 30
0.0
  3
*D23
  1

  0
LINE
  5
1F25
330
1B44
100
AcDbEntity
  8
0
 62
     0
370
    -2
100
AcDbLine
 10
1207.148749367511
 20
121.1610873417426
 30
0.0
 11
1207.148749367511
 21
108.2145412412519
 31
0.0
  0
LINE
  5
1F26
330
1B44
100
AcDbEntity
  8
0
 62
     0
370
    -2
100
AcDbLine
 10
1226.14874936751
 20
121.1610873417426
 30
0.0
 11
1226.14874936751
 21
108.2145412412519
 31
0.0
  0
LINE
  5
1F27
330
1B44
100
AcDbEntity
  8
0
 62
     0
370
    -2
100
AcDbLine
 10
1209.64874936751
 20
109.4645412412519
 30
0.0
 11
1223.648749367511
 21
109.4645412412519
 31
0.0
  0
INSERT
  5
1F28
330
1B44
100
AcDbEntity
  8
0
 62
     0
370
    -2
100
AcDbBlockReference
  2
_Open30
 10
1207.148749367511
 20
109.4645412412519
 30
0.0
 41
2.5
 42
2.5
 43
2.5
 50
180.0
  0
INSERT
  5
1F29
330
1B44
100
AcDbEntity
  8
0
 62
     0
370
    -2
100
AcDbBlockReference
  2
_Open30
 10
1226.14874936751
 20
109.4645412412519
 30
0.0
 41
2.5
 42
2.5
 43
2.5
  0
MTEXT
  5
1F2A
330
1B44
100
AcDbEntity
  8
0
 62
     4
100
AcDbMText
 10
1216.346242034855
 20
111.5895412412519
 30
0.0
 40
3.0
 41
0.0
 71
     5
 72
     1
  1
%%C19
 73
     1
 44
1.0
1001
ACAD
1000
MTEXTBEGIN
1070
    73
1070
     1
1070
    44
1040
1.0
1070
    74
1070
     0
1000
MTEXTEND
  0
POINT
  5
1F2B
330
1B44
100
AcDbEntity
  8
Defpoints
 62
     0
100
AcDbPoint
 10
1207.148749367511
 20
121.4110873417426
 30
0.0
  0
POINT
  5
1F2C
330
1B44
100
AcDbEntity
  8
Defpoints
 62
     0
100
AcDbPoint
 10
1226.14874936751
 20
121.4110873417426
 30
0.0
  0
POINT
  5
1F2D
330
1B44
100
AcDbEntity
  8
Defpoints
 62
     0
100
AcDbPoint
 10
1226.14874936751
 20
109.4645412412519
 30
0.0
  0
ENDBLK
  5
1B46
330
1B44
100
AcDbEntity
  8
0
100
AcDbBlockEnd
  0
BLOCK
  5
1B51
330
1B50
100
AcDbEntity
  8
0
100
AcDbBlockBegin
  2
*D24
 70
     1
 10
0.0
 20
0.0
 30
0.0
  3
*D24
  1

  0
LINE
  5
1F1C
330
1B50
100
AcDbEntity
  8
0
 62
     0
370
    -2
100
AcDbLine
 10
1234.023105020493
 20
129.4110873417426
 30
0.0
 11
1240.392733308344
 21
129.4110873417426
 31
0.0
  0
LINE
  5
1F1D
330
1B50
100
AcDbEntity
  8
0
 62
     0
370
    -2
100
AcDbLine
 10
1234.023105020493
 20
139.4110873417426
 30
0.0
 11
1240.392733308344
 21
139.4110873417426
 31
0.0
  0
LINE
  5
1F1E
330
1B50
100
AcDbEntity
  8
0
 62
     0
370
    -2
100
AcDbLine
 10
1239.142733308344
 20
131.9110873417426
 30
0.0
 11
1239.142733308344
 21
136.9110873417426
 31
0.0
  0
INSERT
  5
1F1F
330
1B50
100
AcDbEntity
  8
0
 62
     0
370
    -2
100
AcDbBlockReference
  2
_Open30
 10
1239.142733308344
 20
129.4110873417426
 30
0.0
 41
2.5
 42
2.5
 43
2.5
 50
270.0
  0
INSERT
  5
1F20
330
1B50
100
AcDbEntity
  8
0
 62
     0
370
    -2
100
AcDbBlockReference
  2
_Open30
 10
1239.142733308344
 20
139.4110873417426
 30
0.0
 41
2.5
 42
2.5
 43
2.5
 50
90.0
  0
MTEXT
  5
1F21
330
1B50
100
AcDbEntity
  8
0
 62
     4
100
AcDbMText
 10
1237.017733308344
 20
134.8173862606518
 30
0.0
 40
3.0
 41
0.0
 71
     5
 72
     1
  1
10
 11
0.0000000000000001
 21
1.0
 31
0.0
 73
     1
 44
1.0
1001
ACAD
1000
MTEXTBEGIN
1070
    73
1070
     1
1070
    44
1040
1.0
1070
    74
1070
     0
1000
MTEXTEND
  0
POINT
  5
1F22
330
1B50
100
AcDbEntity
  8
Defpoints
 62
     0
100
AcDbPoint
 10
1233.773105020493
 20
129.4110873417426
 30
0.0
  0
POINT
  5
1F23
330
1B50
100
AcDbEntity
  8
Defpoints
 62
     0
100
AcDbPoint
 10
1233.773105020493
 20
139.4110873417426
 30
0.0
  0
POINT
  5
1F24
330
1B50
100
AcDbEntity
  8
Defpoints
 62
     0
100
AcDbPoint
 10
1239.142733308344
 20
139.4110873417426
 30
0.0
  0
ENDBLK
  5
1B52
330
1B50
100
AcDbEntity
  8
0
100
AcDbBlockEnd
  0
BLOCK
  5
1D8A
330
1D89
100
AcDbEntity
  8
0
100
AcDbBlockBegin
  2
*D26
 70
     1
 10
0.0
 20
0.0
 30
0.0
  3
*D26
  1

  0
LINE
  5
1DAD
330
1D89
100
AcDbEntity
  8
0
 62
     0
370
    -2
100
AcDbLine
 10
1568.080306788824
 20
228.0992414353999
 30
0.0
 11
1588.192837399481
 21
228.0992414353999
 31
0.0
  0
LINE
  5
1DAE
330
1D89
100
AcDbEntity
  8
0
 62
     0
370
    -2
100
AcDbLine
 10
1575.704662441807
 20
246.0992414353998
 30
0.0
 11
1588.192837399481
 21
246.0992414353998
 31
0.0
  0
LINE
  5
1DAF
330
1D89
100
AcDbEntity
  8
0
 62
     0
370
    -2
100
AcDbLine
 10
1586.942837399481
 20
230.5992414353999
 30
0.0
 11
1586.942837399481
 21
243.5992414353998
 31
0.0
  0
INSERT
  5
1DB0
330
1D89
100
AcDbEntity
  8
0
 62
     0
370
    -2
100
AcDbBlockReference
  2
_Open30
 10
1586.942837399481
 20
228.0992414353999
 30
0.0
 41
2.5
 42
2.5
 43
2.5
 50
270.0
  0
INSERT
  5
1DB1
330
1D89
100
AcDbEntity
  8
0
 62
     0
370
    -2
100
AcDbBlockReference
  2
_Open30
 10
1586.942837399481
 20
246.0992414353998
 30
0.0
 41
2.5
 42
2.5
 43
2.5
 50
90.0
  0
MTEXT
  5
1DB2
330
1D89
100
AcDbEntity
  8
0
 62
     4
100
AcDbMText
 10
1584.817837399481
 20
237.9732308776611
 30
0.0
 40
3.0
 41
0.0
 71
     5
 72
     1
  1
18
 11
0.0000000000000001
 21
1.0
 31
0.0
 73
     1
 44
1.0
1001
ACAD
1000
MTEXTBEGIN
1070
    73
1070
     1
1070
    44
1040
1.0
1070
    74
1070
     0
1000
MTEXTEND
  0
POINT
  5
1DB3
330
1D89
100
AcDbEntity
  8
Defpoints
 62
     0
100
AcDbPoint
 10
1567.830306788824
 20
228.0992414353999
 30
0.0
  0
POINT
  5
1DB4
330
1D89
100
AcDbEntity
  8
Defpoints
 62
     0
100
AcDbPoint
 10
1575.454662441807
 20
246.0992414353998
 30
0.0
  0
POINT
  5
1DB5
330
1D89
100
AcDbEntity
  8
Defpoints
 62
     0
100
AcDbPoint
 10
1586.942837399481
 20
246.0992414353998
 30
0.0
  0
ENDBLK
  5
1D8B
330
1D89
100
AcDbEntity
  8
0
100
AcDbBlockEnd
  0
BLOCK
  5
1D96
330
1D95
100
AcDbEntity
  8
0
100
AcDbBlockBegin
  2
*D27
 70
     1
 10
0.0
 20
0.0
 30
0.0
  3
*D27
  1

  0
LINE
  5
1DB6
330
1D95
100
AcDbEntity
  8
0
 62
     0
370
    -2
100
AcDbLine
 10
1575.704662441807
 20
236.0992414353999
 30
0.0
 11
1582.074290729658
 21
236.0992414353999
 31
0.0
  0
LINE
  5
1DB7
330
1D95
100
AcDbEntity
  8
0
 62
     0
370
    -2
100
AcDbLine
 10
1575.704662441807
 20
246.0992414353999
 30
0.0
 11
1582.074290729658
 21
246.0992414353999
 31
0.0
  0
LINE
  5
1DB8
330
1D95
100
AcDbEntity
  8
0
 62
     0
370
    -2
100
AcDbLine
 10
1580.824290729658
 20
238.5992414353999
 30
0.0
 11
1580.824290729658
 21
243.5992414353999
 31
0.0
  0
INSERT
  5
1DB9
330
1D95
100
AcDbEntity
  8
0
 62
     0
370
    -2
100
AcDbBlockReference
  2
_Open30
 10
1580.824290729658
 20
236.0992414353999
 30
0.0
 41
2.5
 42
2.5
 43
2.5
 50
270.0
  0
INSERT
  5
1DBA
330
1D95
100
AcDbEntity
  8
0
 62
     0
370
    -2
100
AcDbBlockReference
  2
_Open30
 10
1580.824290729658
 20
246.0992414353999
 30
0.0
 41
2.5
 42
2.5
 43
2.5
 50
90.0
  0
MTEXT
  5
1DBB
330
1D95
100
AcDbEntity
  8
0
 62
     4
100
AcDbMText
 10
1578.699290729658
 20
241.5055403543091
 30
0.0
 40
3.0
 41
0.0
 71
     5
 72
     1
  1
10
 11
0.0000000000000001
 21
1.0
 31
0.0
 73
     1
 44
1.0
1001
ACAD
1000
MTEXTBEGIN
1070
    73
1070
     1
1070
    44
1040
1.0
1070
    74
1070
     0
1000
MTEXTEND
  0
POINT
  5
1DBC
330
1D95
100
AcDbEntity
  8
Defpoints
 62
     0
100
AcDbPoint
 10
1575.454662441807
 20
236.0992414353999
 30
0.0
  0
POINT
  5
1DBD
330
1D95
100
AcDbEntity
  8
Defpoints
 62
     0
100
AcDbPoint
 10
1575.454662441807
 20
246.0992414353999
 30
0.0
  0
POINT
  5
1DBE
330
1D95
100
AcDbEntity
  8
Defpoints
 62
     0
100
AcDbPoint
 10
1580.824290729658
 20
246.0992414353999
 30
0.0
  0
ENDBLK
  5
1D97
330
1D95
100
AcDbEntity
  8
0
100
AcDbBlockEnd
  0
BLOCK
  5
1DA2
330
1DA1
100
AcDbEntity
  8
0
100
AcDbBlockBegin
  2
*D28
 70
     1
 10
0.0
 20
0.0
 30
0.0
  3
*D28
  1

  0
LINE
  5
1DBF
330
1DA1
100
AcDbEntity
  8
0
 62
     0
370
    -2
100
AcDbLine
 10
1548.830306788824
 20
227.8492414353999
 30
0.0
 11
1548.830306788824
 21
214.9026953349092
 31
0.0
  0
LINE
  5
1DC0
330
1DA1
100
AcDbEntity
  8
0
 62
     0
370
    -2
100
AcDbLine
 10
1567.830306788824
 20
227.8492414353999
 30
0.0
 11
1567.830306788824
 21
214.9026953349092
 31
0.0
  0
LINE
  5
1DC1
330
1DA1
100
AcDbEntity
  8
0
 62
     0
370
    -2
100
AcDbLine
 10
1551.330306788824
 20
216.1526953349092
 30
0.0
 11
1565.330306788825
 21
216.1526953349092
 31
0.0
  0
INSERT
  5
1DC2
330
1DA1
100
AcDbEntity
  8
0
 62
     0
370
    -2
100
AcDbBlockReference
  2
_Open30
 10
1548.830306788824
 20
216.1526953349092
 30
0.0
 41
2.5
 42
2.5
 43
2.5
 50
180.0
  0
INSERT
  5
1DC3
330
1DA1
100
AcDbEntity
  8
0
 62
     0
370
    -2
100
AcDbBlockReference
  2
_Open30
 10
1567.830306788824
 20
216.1526953349092
 30
0.0
 41
2.5
 42
2.5
 43
2.5
  0
MTEXT
  5
1DC4
330
1DA1
100
AcDbEntity
  8
0
 62
     4
100
AcDbMText
 10
1558.027799456169
 20
218.2776953349092
 30
0.0
 40
3.0
 41
0.0
 71
     5
 72
     1
  1
%%C19
 73
     1
 44
1.0
1001
ACAD
1000
MTEXTBEGIN
1070
    73
1070
     1
1070
    44
1040
1.0
1070
    74
1070
     0
1000
MTEXTEND
  0
POINT
  5
1DC5
330
1DA1
100
AcDbEntity
  8
Defpoints
 62
     0
100
AcDbPoint
 10
1548.830306788824
 20
228.0992414353999
 30
0.0
  0
POINT
  5
1DC6
330
1DA1
100
AcDbEntity
  8
Defpoints
 62
     0
100
AcDbPoint
 10
1567.830306788824
 20
228.0992414353999
 30
0.0
  0
POINT
  5
1DC7
330
1DA1
100
AcDbEntity
  8
Defpoints
 62
     0
100
AcDbPoint
 10
1567.830306788824
 20
216.1526953349092
 30
0.0
  0
ENDBLK
  5
1DA3
330
1DA1
100
AcDbEntity
  8
0
100
AcDbBlockEnd
  0
BLOCK
  5
1DD8
330
1DD7
100
AcDbEntity
  8
0
100
AcDbBlockBegin
  2
*D29
 70
     1
 10
0.0
 20
0.0
 30
0.0
  3
*D29
  1

  0
LINE
  5
1E07
330
1DD7
100
AcDbEntity
  8
0
 62
     0
370
    -2
100
AcDbLine
 10
1690.046069520251
 20
178.1897453822566
 30
0.0
 11
1661.093061235369
 21
178.1897453822566
 31
0.0
  0
LINE
  5
1E08
330
1DD7
100
AcDbEntity
  8
0
 62
     0
370
    -2
100
AcDbLine
 10
1690.046069520251
 20
153.1897453822566
 30
0.0
 11
1661.093061235369
 21
153.1897453822566
 31
0.0
  0
LINE
  5
1E09
330
1DD7
100
AcDbEntity
  8
0
 62
     0
370
    -2
100
AcDbLine
 10
1662.34306123537
 20
175.6897453822566
 30
0.0
 11
1662.34306123537
 21
155.6897453822566
 31
0.0
  0
INSERT
  5
1E0A
330
1DD7
100
AcDbEntity
  8
0
 62
     0
370
    -2
100
AcDbBlockReference
  2
_Open30
 10
1662.34306123537
 20
178.1897453822566
 30
0.0
 41
2.5
 42
2.5
 43
2.5
 50
90.0
  0
INSERT
  5
1E0B
330
1DD7
100
AcDbEntity
  8
0
 62
     0
370
    -2
100
AcDbBlockReference
  2
_Open30
 10
1662.34306123537
 20
153.1897453822566
 30
0.0
 41
2.5
 42
2.5
 43
2.5
 50
270.0
  0
MTEXT
  5
1E0C
330
1DD7
100
AcDbEntity
  8
0
 62
     4
100
AcDbMText
 10
1660.21806123537
 20
165.3647144955477
 30
0.0
 40
3.0
 41
0.0
 71
     5
 72
     1
  1
%%C25
 11
0.0000000000000001
 21
1.0
 31
0.0
 73
     1
 44
1.0
1001
ACAD
1000
MTEXTBEGIN
1070
    73
1070
     1
1070
    44
1040
1.0
1070
    74
1070
     0
1000
MTEXTEND
  0
POINT
  5
1E0D
330
1DD7
100
AcDbEntity
  8
Defpoints
 62
     0
100
AcDbPoint
 10
1690.296069520251
 20
178.1897453822566
 30
0.0
  0
POINT
  5
1E0E
330
1DD7
100
AcDbEntity
  8
Defpoints
 62
     0
100
AcDbPoint
 10
1690.296069520251
 20
153.1897453822566
 30
0.0
  0
POINT
  5
1E0F
330
1DD7
100
AcDbEntity
  8
Defpoints
 62
     0
100
AcDbPoint
 10
1662.34306123537
 20
153.1897453822566
 30
0.0
  0
ENDBLK
  5
1DD9
330
1DD7
100
AcDbEntity
  8
0
100
AcDbBlockEnd
  0
BLOCK
  5
1DE4
330
1DE3
100
AcDbEntity
  8
0
100
AcDbBlockBegin
  2
*D30
 70
     1
 10
0.0
 20
0.0
 30
0.0
  3
*D30
  1

  0
LINE
  5
1E10
330
1DE3
100
AcDbEntity
  8
0
 62
     0
370
    -2
100
AcDbLine
 10
1690.046069520251
 20
181.6897453822566
 30
0.0
 11
1654.413587897863
 21
181.6897453822566
 31
0.0
  0
LINE
  5
1E11
330
1DE3
100
AcDbEntity
  8
0
 62
     0
370
    -2
100
AcDbLine
 10
1690.046069520251
 20
149.6897453822566
 30
0.0
 11
1654.413587897863
 21
149.6897453822566
 31
0.0
  0
LINE
  5
1E12
330
1DE3
100
AcDbEntity
  8
0
 62
     0
370
    -2
100
AcDbLine
 10
1655.663587897863
 20
179.1897453822566
 30
0.0
 11
1655.663587897863
 21
152.1897453822566
 31
0.0
  0
INSERT
  5
1E13
330
1DE3
100
AcDbEntity
  8
0
 62
     0
370
    -2
100
AcDbBlockReference
  2
_Open30
 10
1655.663587897863
 20
181.6897453822566
 30
0.0
 41
2.5
 42
2.5
 43
2.5
 50
90.0
  0
INSERT
  5
1E14
330
1DE3
100
AcDbEntity
  8
0
 62
     0
370
    -2
100
AcDbBlockReference
  2
_Open30
 10
1655.663587897863
 20
149.6897453822566
 30
0.0
 41
2.5
 42
2.5
 43
2.5
 50
270.0
  0
MTEXT
  5
1E15
330
1DE3
100
AcDbEntity
  8
0
 62
     4
100
AcDbMText
 10
1653.538587897863
 20
165.0161287292889
 30
0.0
 40
3.0
 41
0.0
 71
     5
 72
     1
  1
%%C32
 11
0.0000000000000001
 21
1.0
 31
0.0
 73
     1
 44
1.0
1001
ACAD
1000
MTEXTBEGIN
1070
    73
1070
     1
1070
    44
1040
1.0
1070
    74
1070
     0
1000
MTEXTEND
  0
POINT
  5
1E16
330
1DE3
100
AcDbEntity
  8
Defpoints
 62
     0
100
AcDbPoint
 10
1690.296069520251
 20
181.6897453822566
 30
0.0
  0
POINT
  5
1E17
330
1DE3
100
AcDbEntity
  8
Defpoints
 62
     0
100
AcDbPoint
 10
1690.296069520251
 20
149.6897453822566
 30
0.0
  0
POINT
  5
1E18
330
1DE3
100
AcDbEntity
  8
Defpoints
 62
     0
100
AcDbPoint
 10
1655.663587897863
 20
149.6897453822566
 30
0.0
  0
ENDBLK
  5
1DE5
330
1DE3
100
AcDbEntity
  8
0
100
AcDbBlockEnd
  0
BLOCK
  5
1E1B
330
1E1A
100
AcDbEntity
  8
0
100
AcDbBlockBegin
  2
*D31
 70
     1
 10
0.0
 20
0.0
 30
0.0
  3
*D31
  1

  0
LINE
  5
2000
330
1E1A
100
AcDbEntity
  8
0
 62
     0
370
    -2
100
AcDbLine
 10
1472.369314020994
 20
203.7227304409033
 30
0.0
 11
1472.369314020994
 21
231.362626651027
 31
0.0
  0
LINE
  5
2001
330
1E1A
100
AcDbEntity
  8
0
 62
     0
370
    -2
100
AcDbLine
 10
1447.369314020994
 20
203.7227304409033
 30
0.0
 11
1447.369314020994
 21
231.362626651027
 31
0.0
  0
LINE
  5
2002
330
1E1A
100
AcDbEntity
  8
0
 62
     0
370
    -2
100
AcDbLine
 10
1469.869314020994
 20
230.112626651027
 30
0.0
 11
1449.869314020994
 21
230.112626651027
 31
0.0
  0
INSERT
  5
2003
330
1E1A
100
AcDbEntity
  8
0
 62
     0
370
    -2
100
AcDbBlockReference
  2
_Open30
 10
1472.369314020994
 20
230.112626651027
 30
0.0
 41
2.5
 42
2.5
 43
2.5
  0
INSERT
  5
2004
330
1E1A
100
AcDbEntity
  8
0
 62
     0
370
    -2
100
AcDbBlockReference
  2
_Open30
 10
1447.369314020994
 20
230.112626651027
 30
0.0
 41
2.5
 42
2.5
 43
2.5
 50
180.0
  0
MTEXT
  5
2005
330
1E1A
100
AcDbEntity
  8
0
 62
     4
100
AcDbMText
 10
1460.168512167397
 20
232.237626651027
 30
0.0
 40
3.0
 41
0.0
 71
     5
 72
     1
  1
%%C25
 73
     1
 44
1.0
1001
ACAD
1000
MTEXTBEGIN
1070
    73
1070
     1
1070
    44
1040
1.0
1070
    74
1070
     0
1000
MTEXTEND
  0
POINT
  5
2006
330
1E1A
100
AcDbEntity
  8
Defpoints
 62
     0
100
AcDbPoint
 10
1472.369314020994
 20
203.4727304409033
 30
0.0
  0
POINT
  5
2007
330
1E1A
100
AcDbEntity
  8
Defpoints
 62
     0
100
AcDbPoint
 10
1447.369314020994
 20
203.4727304409033
 30
0.0
  0
POINT
  5
2008
330
1E1A
100
AcDbEntity
  8
Defpoints
 62
     0
100
AcDbPoint
 10
1447.369314020994
 20
230.112626651027
 30
0.0
  0
ENDBLK
  5
1E1C
330
1E1A
100
AcDbEntity
  8
0
100
AcDbBlockEnd
  0
BLOCK
  5
1E33
330
1E32
100
AcDbEntity
  8
0
100
AcDbBlockBegin
  2
*D32
 70
     1
 10
0.0
 20
0.0
 30
0.0
  3
*D32
  1

  0
LINE
  5
2009
330
1E32
100
AcDbEntity
  8
0
 62
     0
370
    -2
100
AcDbLine
 10
1475.869314020994
 20
203.7227304409033
 30
0.0
 11
1475.869314020994
 21
238.035429547395
 31
0.0
  0
LINE
  5
200A
330
1E32
100
AcDbEntity
  8
0
 62
     0
370
    -2
100
AcDbLine
 10
1443.869314020994
 20
203.7227304409033
 30
0.0
 11
1443.869314020994
 21
238.035429547395
 31
0.0
  0
LINE
  5
200B
330
1E32
100
AcDbEntity
  8
0
 62
     0
370
    -2
100
AcDbLine
 10
1473.369314020994
 20
236.785429547395
 30
0.0
 11
1446.369314020994
 21
236.785429547395
 31
0.0
  0
INSERT
  5
200C
330
1E32
100
AcDbEntity
  8
0
 62
     0
370
    -2
100
AcDbBlockReference
  2
_Open30
 10
1475.869314020994
 20
236.785429547395
 30
0.0
 41
2.5
 42
2.5
 43
2.5
  0
INSERT
  5
200D
330
1E32
100
AcDbEntity
  8
0
 62
     0
370
    -2
100
AcDbBlockReference
  2
_Open30
 10
1443.869314020994
 20
236.785429547395
 30
0.0
 41
2.5
 42
2.5
 43
2.5
 50
180.0
  0
MTEXT
  5
200E
330
1E32
100
AcDbEntity
  8
0
 62
     4
100
AcDbMText
 10
1459.684574512902
 20
238.910429547395
 30
0.0
 40
3.0
 41
0.0
 71
     5
 72
     1
  1
%%C32
 73
     1
 44
1.0
1001
ACAD
1000
MTEXTBEGIN
1070
    73
1070
     1
1070
    44
1040
1.0
1070
    74
1070
     0
1000
MTEXTEND
  0
POINT
  5
200F
330
1E32
100
AcDbEntity
  8
Defpoints
 62
     0
100
AcDbPoint
 10
1475.869314020994
 20
203.4727304409033
 30
0.0
  0
POINT
  5
2010
330
1E32
100
AcDbEntity
  8
Defpoints
 62
     0
100
AcDbPoint
 10
1443.869314020994
 20
203.4727304409033
 30
0.0
  0
POINT
  5
2011
330
1E32
100
AcDbEntity
  8
Defpoints
 62
     0
100
AcDbPoint
 10
1443.869314020994
 20
236.785429547395
 30
0.0
  0
ENDBLK
  5
1E34
330
1E32
100
AcDbEntity
  8
0
100
AcDbBlockEnd
  0
BLOCK
  5
1E4B
330
1E4A
100
AcDbEntity
  8
0
100
AcDbBlockBegin
  2
*D33
 70
     1
 10
0.0
 20
0.0
 30
0.0
  3
*D33
  1

  0
LINE
  5
2012
330
1E4A
100
AcDbEntity
  8
0
 62
     0
370
    -2
100
AcDbLine
 10
1447.369314020994
 20
121.0448050823972
 30
0.0
 11
1447.369314020994
 21
106.8869592342963
 31
0.0
  0
LINE
  5
2013
330
1E4A
100
AcDbEntity
  8
0
 62
     0
370
    -2
100
AcDbLine
 10
1472.369314020994
 20
121.0448050823972
 30
0.0
 11
1472.369314020994
 21
106.8869592342963
 31
0.0
  0
LINE
  5
2014
330
1E4A
100
AcDbEntity
  8
0
 62
     0
370
    -2
100
AcDbLine
 10
1449.869314020994
 20
108.1369592342963
 30
0.0
 11
1469.869314020994
 21
108.1369592342963
 31
0.0
  0
INSERT
  5
2015
330
1E4A
100
AcDbEntity
  8
0
 62
     0
370
    -2
100
AcDbBlockReference
  2
_Open30
 10
1447.369314020994
 20
108.1369592342963
 30
0.0
 41
2.5
 42
2.5
 43
2.5
 50
180.0
  0
INSERT
  5
2016
330
1E4A
100
AcDbEntity
  8
0
 62
     0
370
    -2
100
AcDbBlockReference
  2
_Open30
 10
1472.369314020994
 20
108.1369592342963
 30
0.0
 41
2.5
 42
2.5
 43
2.5
  0
MTEXT
  5
2017
330
1E4A
100
AcDbEntity
  8
0
 62
     4
100
AcDbMText
 10
1460.177573258487
 20
110.2619592342963
 30
0.0
 40
3.0
 41
0.0
 71
     5
 72
     1
  1
25
 73
     1
 44
1.0
1001
ACAD
1000
MTEXTBEGIN
1070
    73
1070
     1
1070
    44
1040
1.0
1070
    74
1070
     0
1000
MTEXTEND
  0
POINT
  5
2018
330
1E4A
100
AcDbEntity
  8
Defpoints
 62
     0
100
AcDbPoint
 10
1447.369314020994
 20
121.2948050823972
 30
0.0
  0
POINT
  5
2019
330
1E4A
100
AcDbEntity
  8
Defpoints
 62
     0
100
AcDbPoint
 10
1472.369314020994
 20
121.2948050823972
 30
0.0
  0
POINT
  5
201A
330
1E4A
100
AcDbEntity
  8
Defpoints
 62
     0
100
AcDbPoint
 10
1472.369314020994
 20
108.1369592342963
 30
0.0
  0
ENDBLK
  5
1E4C
330
1E4A
100
AcDbEntity
  8
0
100
AcDbBlockEnd
  0
BLOCK
  5
1E7F
330
1E7E
100
AcDbEntity
  8
0
100
AcDbBlockBegin
  2
*D34
 70
     1
 10
0.0
 20
0.0
 30
0.0
  3
*D34
  1

  0
LINE
  5
203C
330
1E7E
100
AcDbEntity
  8
0
 62
     0
370
    -2
100
AcDbLine
 10
1367.398310926487
 20
135.3019426499847
 30
0.0
 11
1404.352713941123
 21
157.2876675148097
 31
0.0
  0
INSERT
  5
203D
330
1E7E
100
AcDbEntity
  8
0
 62
     0
370
    -2
100
AcDbBlockReference
  2
_Open30
 10
1365.24979912331
 20
134.0237028322622
 30
0.0
 41
2.5
 42
2.5
 43
2.5
 50
210.7501894076537
  0
INSERT
  5
203E
330
1E7E
100
AcDbEntity
  8
0
 62
     0
370
    -2
100
AcDbBlockReference
  2
_Open30
 10
1406.501225744299
 20
158.565907332532
 30
0.0
 41
2.5
 42
2.5
 43
2.5
 50
30.75018940765376
  0
MTEXT
  5
203F
102
{ACAD_XDICTIONARY
360
21BE
102
}
330
1E7E
100
AcDbEntity
  8
0
 62
     4
100
AcDbMText
 10
1395.025381142473
 20
154.2110876390977
 30
0.0
 40
3.0
 41
0.0
 71
     5
 72
     1
  1
\U+220548
 11
0.8594047212706243
 21
0.5112959270889616
 31
0.0
 73
     1
 44
1.0
1001
ACAD
1000
MTEXTBEGIN
1070
    73
1070
     1
1070
    44
1040
1.0
1070
    74
1070
     0
1000
MTEXTEND
  0
POINT
  5
2040
330
1E7E
100
AcDbEntity
  8
Defpoints
 62
     0
100
AcDbPoint
 10
1406.501225744299
 20
158.565907332532
 30
0.0
  0
POINT
  5
2041
330
1E7E
100
AcDbEntity
  8
Defpoints
 62
     0
100
AcDbPoint
 10
1365.24979912331
 20
134.0237028322622
 30
0.0
  0
ENDBLK
  5
1E80
330
1E7E
100
AcDbEntity
  8
0
100
AcDbBlockEnd
  0
BLOCK
  5
1E91
330
1E90
100
AcDbEntity
  8
0
100
AcDbBlockBegin
  2
*D35
 70
     1
 10
0.0
 20
0.0
 30
0.0
  3
*D35
  1

  0
LINE
  5
1F4F
330
1E90
100
AcDbEntity
  8
0
 62
     0
370
    -2
100
AcDbLine
 10
1403.18525687689
 20
204.3770113531738
 30
0.0
 11
1418.097218682825
 21
204.3770113531738
 31
0.0
  0
LINE
  5
1F50
330
1E90
100
AcDbEntity
  8
0
 62
     0
370
    -2
100
AcDbLine
 10
1413.330910928668
 20
147.1990859946676
 30
0.0
 11
1418.097218682825
 21
147.1990859946676
 31
0.0
  0
LINE
  5
1F51
330
1E90
100
AcDbEntity
  8
0
 62
     0
370
    -2
100
AcDbLine
 10
1416.847218682825
 20
201.8770113531738
 30
0.0
 11
1416.847218682825
 21
149.6990859946676
 31
0.0
  0
INSERT
  5
1F52
330
1E90
100
AcDbEntity
  8
0
 62
     0
370
    -2
100
AcDbBlockReference
  2
_Open30
 10
1416.847218682825
 20
204.3770113531738
 30
0.0
 41
2.5
 42
2.5
 43
2.5
 50
90.0
  0
INSERT
  5
1F53
330
1E90
100
AcDbEntity
  8
0
 62
     0
370
    -2
100
AcDbBlockReference
  2
_Open30
 10
1416.847218682825
 20
147.1990859946676
 30
0.0
 41
2.5
 42
2.5
 43
2.5
 50
270.0
  0
MTEXT
  5
1F54
330
1E90
100
AcDbEntity
  8
0
 62
     4
100
AcDbMText
 10
1414.722218682825
 20
171.7033579575247
 30
0.0
 40
3.0
 41
0.0
 71
     5
 72
     1
  1
57.2
 11
0.0000000000000001
 21
1.0
 31
0.0
 73
     1
 44
1.0
1001
ACAD
1000
MTEXTBEGIN
1070
    73
1070
     1
1070
    44
1040
1.0
1070
    74
1070
     0
1000
MTEXTEND
  0
POINT
  5
1F55
330
1E90
100
AcDbEntity
  8
Defpoints
 62
     0
100
AcDbPoint
 10
1402.935256876889
 20
204.3770113531738
 30
0.0
  0
POINT
  5
1F56
330
1E90
100
AcDbEntity
  8
Defpoints
 62
     0
100
AcDbPoint
 10
1413.080910928668
 20
147.1990859946676
 30
0.0
  0
POINT
  5
1F57
330
1E90
100
AcDbEntity
  8
Defpoints
 62
     0
100
AcDbPoint
 10
1416.847218682825
 20
147.1990859946676
 30
0.0
  0
ENDBLK
  5
1E92
330
1E90
100
AcDbEntity
  8
0
100
AcDbBlockEnd
  0
BLOCK
  5
1F60
330
1F5F
100
AcDbEntity
  8
0
100
AcDbBlockBegin
  2
*D36
 70
     1
 10
0.0
 20
0.0
 30
0.0
  3
*D36
  1

  0
LINE
  5
2021
330
1F5F
100
AcDbEntity
  8
0
 62
     0
370
    -2
100
AcDbLine
 10
1346.375512433805
 20
146.2948050823972
 30
0.0
 11
1350.255076643119
 21
146.2948050823972
 31
0.0
  0
LINE
  5
2022
330
1F5F
100
AcDbEntity
  8
0
 62
     0
370
    -2
100
AcDbLine
 10
1355.482955379853
 20
203.4727304409033
 30
0.0
 11
1347.755076643119
 21
203.4727304409033
 31
0.0
  0
LINE
  5
2023
330
1F5F
100
AcDbEntity
  8
0
 62
     0
370
    -2
100
AcDbLine
 10
1349.005076643119
 20
148.7948050823972
 30
0.0
 11
1349.005076643119
 21
200.9727304409033
 31
0.0
  0
INSERT
  5
2024
330
1F5F
100
AcDbEntity
  8
0
 62
     0
370
    -2
100
AcDbBlockReference
  2
_Open30
 10
1349.005076643119
 20
146.2948050823972
 30
0.0
 41
2.5
 42
2.5
 43
2.5
 50
270.0
  0
INSERT
  5
2025
330
1F5F
100
AcDbEntity
  8
0
 62
     0
370
    -2
100
AcDbBlockReference
  2
_Open30
 10
1349.005076643119
 20
203.4727304409033
 30
0.0
 41
2.5
 42
2.5
 43
2.5
 50
90.0
  0
MTEXT
  5
2026
330
1F5F
100
AcDbEntity
  8
0
 62
     4
100
AcDbMText
 10
1346.880076643119
 20
174.1277518933106
 30
0.0
 40
3.0
 41
0.0
 71
     5
 72
     1
  1
(57.2)
 11
0.0000000000000001
 21
1.0
 31
0.0
 73
     1
 44
1.0
1001
ACAD
1000
MTEXTBEGIN
1070
    73
1070
     1
1070
    44
1040
1.0
1070
    74
1070
     0
1000
MTEXTEND
  0
POINT
  5
2027
330
1F5F
100
AcDbEntity
  8
Defpoints
 62
     0
100
AcDbPoint
 10
1346.125512433805
 20
146.2948050823972
 30
0.0
  0
POINT
  5
2028
330
1F5F
100
AcDbEntity
  8
Defpoints
 62
     0
100
AcDbPoint
 10
1355.732955379854
 20
203.4727304409033
 30
0.0
  0
POINT
  5
2029
330
1F5F
100
AcDbEntity
  8
Defpoints
 62
     0
100
AcDbPoint
 10
1349.005076643119
 20
203.4727304409033
 30
0.0
  0
ENDBLK
  5
1F61
330
1F5F
100
AcDbEntity
  8
0
100
AcDbBlockEnd
  0
BLOCK
  5
1F8A
330
1F89
100
AcDbEntity
  8
0
100
AcDbBlockBegin
  2
*D37
 70
     1
 10
0.0
 20
0.0
 30
0.0
  3
*D37
  1

  0
LINE
  5
202A
330
1F89
100
AcDbEntity
  8
0
 62
     0
370
    -2
100
AcDbLine
 10
1364.625512433805
 20
220.5970860938856
 30
0.0
 11
1338.601339421046
 21
220.5970860938857
 31
0.0
  0
LINE
  5
202B
330
1F89
100
AcDbEntity
  8
0
 62
     0
370
    -2
100
AcDbLine
 10
1385.625512433805
 20
119.7948050823972
 30
0.0
 11
1338.601339421046
 21
119.7948050823972
 31
0.0
  0
LINE
  5
202C
330
1F89
100
AcDbEntity
  8
0
 62
     0
370
    -2
100
AcDbLine
 10
1339.851339421046
 20
218.0970860938857
 30
0.0
 11
1339.851339421046
 21
122.2948050823972
 31
0.0
  0
INSERT
  5
202D
330
1F89
100
AcDbEntity
  8
0
 62
     0
370
    -2
100
AcDbBlockReference
  2
_Open30
 10
1339.851339421046
 20
220.5970860938857
 30
0.0
 41
2.5
 42
2.5
 43
2.5
 50
90.0
  0
INSERT
  5
202E
330
1F89
100
AcDbEntity
  8
0
 62
     0
370
    -2
100
AcDbBlockReference
  2
_Open30
 10
1339.851339421046
 20
119.7948050823972
 30
0.0
 41
2.5
 42
2.5
 43
2.5
 50
270.0
  0
MTEXT
  5
202F
330
1F89
100
AcDbEntity
  8
0
 62
     4
100
AcDbMText
 10
1337.726339421046
 20
169.7191381353832
 30
0.0
 40
3.0
 41
0.0
 71
     5
 72
     1
  1
(100.8)
 11
0.0000000000000001
 21
1.0
 31
0.0
 73
     1
 44
1.0
1001
ACAD
1000
MTEXTBEGIN
1070
    73
1070
     1
1070
    44
1040
1.0
1070
    74
1070
     0
1000
MTEXTEND
  0
POINT
  5
2030
330
1F89
100
AcDbEntity
  8
Defpoints
 62
     0
100
AcDbPoint
 10
1364.875512433805
 20
220.5970860938856
 30
0.0
  0
POINT
  5
2031
330
1F89
100
AcDbEntity
  8
Defpoints
 62
     0
100
AcDbPoint
 10
1385.875512433805
 20
119.7948050823972
 30
0.0
  0
POINT
  5
2032
330
1F89
100
AcDbEntity
  8
Defpoints
 62
     0
100
AcDbPoint
 10
1339.851339421046
 20
119.7948050823972
 30
0.0
  0
ENDBLK
  5
1F8B
330
1F89
100
AcDbEntity
  8
0
100
AcDbBlockEnd
  0
BLOCK
  5
1FD2
330
1FD1
100
AcDbEntity
  8
0
100
AcDbBlockBegin
  2
*D38
 70
     1
 10
0.0
 20
0.0
 30
0.0
  3
*D38
  1

  0
LINE
  5
2033
330
1FD1
100
AcDbEntity
  8
0
 62
     0
370
    -2
100
AcDbLine
 10
1359.375512433805
 20
146.0448050823972
 30
0.0
 11
1359.375512433805
 21
106.0971992524849
 31
0.0
  0
LINE
  5
2034
330
1FD1
100
AcDbEntity
  8
0
 62
     0
370
    -2
100
AcDbLine
 10
1412.375512433805
 20
146.0448050823972
 30
0.0
 11
1412.375512433805
 21
106.0971992524849
 31
0.0
  0
LINE
  5
2035
330
1FD1
100
AcDbEntity
  8
0
 62
     0
370
    -2
100
AcDbLine
 10
1361.875512433805
 20
107.347199252485
 30
0.0
 11
1409.875512433805
 21
107.347199252485
 31
0.0
  0
INSERT
  5
2036
330
1FD1
100
AcDbEntity
  8
0
 62
     0
370
    -2
100
AcDbBlockReference
  2
_Open30
 10
1359.375512433805
 20
107.347199252485
 30
0.0
 41
2.5
 42
2.5
 43
2.5
 50
180.0
  0
INSERT
  5
2037
330
1FD1
100
AcDbEntity
  8
0
 62
     0
370
    -2
100
AcDbBlockReference
  2
_Open30
 10
1412.375512433805
 20
107.347199252485
 30
0.0
 41
2.5
 42
2.5
 43
2.5
  0
MTEXT
  5
2038
330
1FD1
100
AcDbEntity
  8
0
 62
     4
100
AcDbMText
 10
1385.875512433805
 20
109.472199252485
 30
0.0
 40
3.0
 41
0.0
 71
     5
 72
     1
  1
(53)
 73
     1
 44
1.0
1001
ACAD
1000
MTEXTBEGIN
1070
    73
1070
     1
1070
    44
1040
1.0
1070
    74
1070
     0
1000
MTEXTEND
  0
POINT
  5
2039
330
1FD1
100
AcDbEntity
  8
Defpoints
 62
     0
100
AcDbPoint
 10
1359.375512433805
 20
146.2948050823972
 30
0.0
  0
POINT
  5
203A
330
1FD1
100
AcDbEntity
  8
Defpoints
 62
     0
100
AcDbPoint
 10
1412.375512433805
 20
146.2948050823972
 30
0.0
  0
POINT
  5
203B
330
1FD1
100
AcDbEntity
  8
Defpoints
 62
     0
100
AcDbPoint
 10
1412.375512433805
 20
107.347199252485
 30
0.0
  0
ENDBLK
  5
1FD3
330
1FD1
100
AcDbEntity
  8
0
100
AcDbBlockEnd
  0
ENDSEC
  0
SECTION
  2
ENTITIES
  0
LINE
  5
F5C
330
1F
100
AcDbEntity
  8
0
 62
     3
100
AcDbLine
 10
1310.690115004692
 20
157.6654161336664
 30
0.0
 11
1310.202188174692
 21
157.6654161336664
 31
0.0
  0
LINE
  5
F5D
330
1F
100
AcDbEntity
  8
0
 62
     3
100
AcDbLine
 10
1322.202188174692
 20
296.1654161336664
 30
0.0
 11
1322.202188174692
 21
19.16541613366644
 31
0.0
  0
LINE
  5
F5F
330
1F
100
AcDbEntity
  8
0
 62
     3
100
AcDbLine
 10
1502.202188174692
 20
19.16541613366644
 30
0.0
 11
1502.202188174692
 21
296.1654161336664
 31
0.0
  0
LINE
  5
F60
330
1F
100
AcDbEntity
  8
0
 62
     3
100
AcDbLine
 10
1322.202188174692
 20
19.16541613366644
 30
0.0
 11
1502.202188174692
 21
19.16541613366644
 31
0.0
  0
LINE
  5
F61
330
1F
100
AcDbEntity
  8
0
 62
     3
100
AcDbLine
 10
1359.286540194692
 20
297.9528602336665
 30
0.0
 11
1359.722288104692
 21
297.7253920936663
 31
0.0
  0
LINE
  5
F62
330
1F
100
AcDbEntity
  8
0
 62
     3
100
AcDbLine
 10
1359.286540194692
 20
294.2222297536665
 30
0.0
 11
1359.722288104692
 21
294.4496978936665
 31
0.0
  0
LINE
  5
F63
330
1F
100
AcDbEntity
  8
0
 62
     3
100
AcDbLine
 10
1359.722288104692
 20
297.7253920936663
 30
0.0
 11
1359.722288104692
 21
294.4496978936665
 31
0.0
  0
LINE
  5
F64
330
1F
100
AcDbEntity
  8
0
 62
     3
100
AcDbLine
 10
1360.825805524692
 20
294.2222297536665
 30
0.0
 11
1360.390057614691
 21
294.4496978936665
 31
0.0
  0
LINE
  5
F65
330
1F
100
AcDbEntity
  8
0
 62
     3
100
AcDbLine
 10
1360.390057614691
 20
296.4465567036664
 30
0.0
 11
1360.390057614691
 21
294.4496978936665
 31
0.0
  0
LINE
  5
F66
330
1F
100
AcDbEntity
  8
0
 62
     3
100
AcDbLine
 10
1363.367668304692
 20
297.9528602336665
 30
0.0
 11
1362.931920394692
 21
297.7253920936663
 31
0.0
  0
LINE
  5
F67
330
1F
100
AcDbEntity
  8
0
 62
     3
100
AcDbLine
 10
1361.828402974692
 20
297.9528602336665
 30
0.0
 11
1362.264150884692
 21
297.7253920936663
 31
0.0
  0
LINE
  5
F68
330
1F
100
AcDbEntity
  8
0
 62
     3
100
AcDbLine
 10
1362.264150884692
 20
297.7253920936663
 30
0.0
 11
1362.264150884692
 21
296.2830550336664
 31
0.0
  0
LINE
  5
F69
330
1F
100
AcDbEntity
  8
0
 62
     3
100
AcDbLine
 10
1362.931920394692
 20
297.7253920936663
 30
0.0
 11
1362.931920394692
 21
294.0106686136664
 31
0.0
  0
LINE
  5
F6A
330
1F
100
AcDbEntity
  8
0
 62
     3
100
AcDbLine
 10
1363.582965504692
 20
297.9528576036663
 30
0.0
 11
1364.018711844692
 21
297.7253864636665
 31
0.0
  0
LINE
  5
F6B
330
1F
100
AcDbEntity
  8
0
 62
     3
100
AcDbLine
 10
1363.582887534692
 20
294.2222797336665
 30
0.0
 11
1364.018643384692
 21
294.4497326536664
 31
0.0
  0
LINE
  5
F6C
330
1F
100
AcDbEntity
  8
0
 62
     3
100
AcDbLine
 10
1364.018711844692
 20
297.7253864636665
 30
0.0
 11
1364.018711844692
 21
294.4497326536664
 31
0.0
  0
LINE
  5
F6D
330
1F
100
AcDbEntity
  8
0
 62
     3
100
AcDbLine
 10
1365.512501904692
 20
297.9528339336664
 30
0.0
 11
1365.076750814692
 21
297.7253719036664
 31
0.0
  0
LINE
  5
F6E
330
1F
100
AcDbEntity
  8
0
 62
     3
100
AcDbLine
 10
1365.076750814692
 20
297.7253719036664
 30
0.0
 11
1365.076750814692
 21
294.4497180836664
 31
0.0
  0
LINE
  5
F6F
330
1F
100
AcDbEntity
  8
0
 62
     3
100
AcDbLine
 10
1365.512501904692
 20
294.2222560536665
 30
0.0
 11
1365.076750814692
 21
294.4497180836664
 31
0.0
  0
LINE
  5
F70
330
1F
100
AcDbEntity
  8
0
 62
     3
100
AcDbLine
 10
1369.202755344692
 20
297.9527929336665
 30
0.0
 11
1369.638502464692
 21
297.7253232936664
 31
0.0
  0
LINE
  5
F71
330
1F
100
AcDbEntity
  8
0
 62
     3
100
AcDbLine
 10
1369.638502464692
 20
297.7253232936664
 30
0.0
 11
1369.638445294692
 21
294.4496694836664
 31
0.0
  0
LINE
  5
F72
330
1F
100
AcDbEntity
  8
0
 62
     3
100
AcDbLine
 10
1369.202690234692
 20
294.2222150536665
 30
0.0
 11
1369.638445294692
 21
294.4496694836664
 31
0.0
  0
LINE
  5
F73
330
1F
100
AcDbEntity
  8
0
 62
     3
100
AcDbLine
 10
1371.155016304692
 20
297.9527929336665
 30
0.0
 11
1370.719269184691
 21
297.7253232936664
 31
0.0
  0
LINE
  5
F74
330
1F
100
AcDbEntity
  8
0
 62
     3
100
AcDbLine
 10
1371.155081414692
 20
294.2222150536665
 30
0.0
 11
1370.719326354692
 21
294.4496694836664
 31
0.0
  0
LINE
  5
F75
330
1F
100
AcDbEntity
  8
0
 62
     3
100
AcDbLine
 10
1371.358744164692
 20
297.9527929336665
 30
0.0
 11
1371.794491294692
 21
297.7253232936664
 31
0.0
  0
LINE
  5
F76
330
1F
100
AcDbEntity
  8
0
 62
     3
100
AcDbLine
 10
1371.358679054692
 20
294.2222150536665
 30
0.0
 11
1371.794434114692
 21
294.4496694836664
 31
0.0
  0
LINE
  5
F77
330
1F
100
AcDbEntity
  8
0
 62
     3
100
AcDbLine
 10
1373.311005134691
 20
297.9527929336665
 30
0.0
 11
1372.875258014692
 21
297.7253232936664
 31
0.0
  0
LINE
  5
F78
330
1F
100
AcDbEntity
  8
0
 62
     3
100
AcDbLine
 10
1372.875258014692
 20
297.7253232936664
 30
0.0
 11
1372.875315184692
 21
294.4496694836664
 31
0.0
  0
LINE
  5
F79
330
1F
100
AcDbEntity
  8
0
 62
     3
100
AcDbLine
 10
1373.311070244692
 20
294.2222150536665
 30
0.0
 11
1372.875315184692
 21
294.4496694836664
 31
0.0
  0
LINE
  5
F7A
330
1F
100
AcDbEntity
  8
0
 62
     3
100
AcDbLine
 10
1371.794466384692
 20
296.2981901736664
 30
0.0
 11
1370.719294094692
 21
296.2981901736664
 31
0.0
  0
LINE
  5
F7B
330
1F
100
AcDbEntity
  8
0
 62
     3
100
AcDbLine
 10
1371.794459024691
 20
295.8768998136664
 30
0.0
 11
1370.719301444691
 21
295.8768998136664
 31
0.0
  0
LINE
  5
F7C
330
1F
100
AcDbEntity
  8
0
 62
     3
100
AcDbLine
 10
1371.794491294692
 20
297.7253232936664
 30
0.0
 11
1371.794466384692
 21
296.2981901736664
 31
0.0
  0
LINE
  5
F7D
330
1F
100
AcDbEntity
  8
0
 62
     3
100
AcDbLine
 10
1371.794459024691
 20
295.8768998136664
 30
0.0
 11
1371.794434114692
 21
294.4496694836664
 31
0.0
  0
LINE
  5
F7E
330
1F
100
AcDbEntity
  8
0
 62
     3
100
AcDbLine
 10
1370.719269184691
 20
297.7253232936664
 30
0.0
 11
1370.719294094692
 21
296.2981901736664
 31
0.0
  0
LINE
  5
F7F
330
1F
100
AcDbEntity
  8
0
 62
     3
100
AcDbLine
 10
1370.719301444691
 20
295.8768998136664
 30
0.0
 11
1370.719326354692
 21
294.4496694836664
 31
0.0
  0
LINE
  5
F80
330
1F
100
AcDbEntity
  8
0
 62
     3
100
AcDbLine
 10
1373.517964254692
 20
297.9527929336665
 30
0.0
 11
1373.953711374692
 21
297.7253232936664
 31
0.0
  0
LINE
  5
F81
330
1F
100
AcDbEntity
  8
0
 62
     3
100
AcDbLine
 10
1373.953711374692
 20
297.7253232936664
 30
0.0
 11
1373.953654204691
 21
294.4496694836664
 31
0.0
  0
LINE
  5
F82
330
1F
100
AcDbEntity
  8
0
 62
     3
100
AcDbLine
 10
1373.517899144691
 20
294.2222150536665
 30
0.0
 11
1373.953654204691
 21
294.4496694836664
 31
0.0
  0
LINE
  5
F83
330
1F
100
AcDbEntity
  8
0
 62
     3
100
AcDbLine
 10
1375.447474524692
 20
297.9527929336665
 30
0.0
 11
1375.011727404692
 21
297.7253232936664
 31
0.0
  0
LINE
  5
F84
330
1F
100
AcDbEntity
  8
0
 62
     3
100
AcDbLine
 10
1375.011727404692
 20
297.7253232936664
 30
0.0
 11
1375.011784574692
 21
294.4496694836664
 31
0.0
  0
LINE
  5
F85
330
1F
100
AcDbEntity
  8
0
 62
     3
100
AcDbLine
 10
1375.447539634692
 20
294.2222150536665
 30
0.0
 11
1375.011784574692
 21
294.4496694836664
 31
0.0
  0
LINE
  5
F86
330
1F
100
AcDbEntity
  8
0
 62
     3
100
AcDbLine
 10
1375.661834094692
 20
297.9527929336665
 30
0.0
 11
1376.097581214692
 21
297.7253232936664
 31
0.0
  0
LINE
  5
F87
330
1F
100
AcDbEntity
  8
0
 62
     3
100
AcDbLine
 10
1376.097581214692
 20
297.7253232936664
 30
0.0
 11
1376.097524044691
 21
294.4496694836664
 31
0.0
  0
LINE
  5
F88
330
1F
100
AcDbEntity
  8
0
 62
     3
100
AcDbLine
 10
1375.661768984692
 20
294.2222150536665
 30
0.0
 11
1376.097524044691
 21
294.4496694836664
 31
0.0
  0
ARC
  5
F89
330
1F
100
AcDbEntity
  8
0
 62
     3
100
AcDbCircle
 10
1367.810844074692
 20
296.0969347536665
 30
0.0
 40
2.086285909999999
100
AcDbArc
 50
97.70152350999723
 51
270.0
  0
ARC
  5
F8A
330
1F
100
AcDbEntity
  8
0
 62
     3
100
AcDbCircle
 10
1380.691444914691
 20
296.0759781236665
 30
0.0
 40
2.108943379999999
100
AcDbArc
 50
0.314250269999259
 51
69.00558244998919
  0
ARC
  5
F8B
330
1F
100
AcDbEntity
  8
0
 62
     3
100
AcDbCircle
 10
1381.152120234691
 20
296.0759781236665
 30
0.0
 40
2.108943379999999
100
AcDbArc
 50
110.9944175499969
 51
148.1166110200051
  0
ARC
  5
F8C
330
1F
100
AcDbEntity
  8
0
 62
     3
100
AcDbCircle
 10
1380.691444914691
 20
296.0991118636664
 30
0.0
 40
2.108943379999999
100
AcDbArc
 50
290.9944175499969
 51
359.6857497300005
  0
ARC
  5
F8D
330
1F
100
AcDbEntity
  8
0
 62
     3
100
AcDbCircle
 10
1381.152120234691
 20
296.0991118636664
 30
0.0
 40
2.108943379999999
100
AcDbArc
 50
211.8833889799947
 51
249.0055824499892
  0
ARC
  5
F8E
330
1F
100
AcDbEntity
  8
0
 62
     3
100
AcDbCircle
 10
1380.921782574692
 20
296.9503503836664
 30
0.0
 40
1.214070989999997
100
AcDbArc
 50
64.36517189999968
 51
115.6348281000003
  0
ARC
  5
F8F
330
1F
100
AcDbEntity
  8
0
 62
     3
100
AcDbCircle
 10
1380.921782574692
 20
295.2247396036664
 30
0.0
 40
1.214070989999997
100
AcDbArc
 50
244.3651718999997
 51
295.6348281000003
  0
ARC
  5
F90
330
1F
100
AcDbEntity
  8
0
 62
     3
100
AcDbCircle
 10
1380.921782574692
 20
296.9734120636664
 30
0.0
 40
0.59585563
100
AcDbArc
 50
19.48660554000535
 51
160.5133944599946
  0
ARC
  5
F91
330
1F
100
AcDbEntity
  8
0
 62
     3
100
AcDbCircle
 10
1380.921782574692
 20
295.2247396036664
 30
0.0
 40
1.214070989999997
100
AcDbArc
 50
244.3651718999997
 51
295.6348281000003
  0
ARC
  5
F92
330
1F
100
AcDbEntity
  8
0
 62
     3
100
AcDbCircle
 10
1380.921782574692
 20
295.2016779236664
 30
0.0
 40
0.59585563
100
AcDbArc
 50
199.4866055400053
 51
340.5133944599945
  0
ARC
  5
F93
330
1F
100
AcDbEntity
  8
0
 62
     3
100
AcDbCircle
 10
1376.179310074691
 20
273.8594851536665
 30
0.0
 40
26.04
100
AcDbArc
 50
69.5057148000084
 51
81.68998806999736
  0
ARC
  5
F94
330
1F
100
AcDbEntity
  8
0
 62
     3
100
AcDbCircle
 10
1376.179310074691
 20
318.3156048336664
 30
0.0
 40
26.04
100
AcDbArc
 50
278.3100119300026
 51
290.4942851999916
  0
ARC
  5
F95
330
1F
100
AcDbEntity
  8
0
 62
     3
100
AcDbCircle
 10
1384.487514204691
 20
296.0875449936665
 30
0.0
 40
2.31
100
AcDbArc
 50
290.4942851999916
 51
69.5057148000084
  0
ARC
  5
F96
330
1F
100
AcDbEntity
  8
0
 62
     3
100
AcDbCircle
 10
1357.187514204692
 20
296.0875449936665
 30
0.0
 40
2.31
100
AcDbArc
 50
110.4942851999916
 51
249.5057147999945
  0
ARC
  5
F97
330
1F
100
AcDbEntity
  8
0
 62
     3
100
AcDbCircle
 10
1365.495718324692
 20
273.8594851536665
 30
0.0
 40
26.04
100
AcDbArc
 50
98.31001192998948
 51
110.4942851999916
  0
ARC
  5
F98
330
1F
100
AcDbEntity
  8
0
 62
     3
100
AcDbCircle
 10
1365.495718324692
 20
318.3156048336664
 30
0.0
 40
26.04
100
AcDbArc
 50
249.5057147999945
 51
261.6899880699973
  0
ARC
  5
F99
330
1F
100
AcDbEntity
  8
0
 62
     3
100
AcDbCircle
 10
1370.837514204692
 20
237.2875449936664
 30
0.0
 40
62.99999987
100
AcDbArc
 50
81.68998806999736
 51
98.31001192998948
  0
ARC
  5
F9A
330
1F
100
AcDbEntity
  8
0
 62
     3
100
AcDbCircle
 10
1370.837514204692
 20
354.8875449936665
 30
0.0
 40
62.99999987
100
AcDbArc
 50
261.6899880699973
 51
278.3100119300026
  0
ARC
  5
F9B
330
1F
100
AcDbEntity
  8
0
 62
     3
100
AcDbCircle
 10
1370.837514204692
 20
237.2875449936664
 30
0.0
 40
62.36999987
100
AcDbArc
 50
81.68998806999736
 51
98.31001192998948
  0
ARC
  5
F9C
330
1F
100
AcDbEntity
  8
0
 62
     3
100
AcDbCircle
 10
1370.837514204692
 20
354.8875449936665
 30
0.0
 40
62.36999987
100
AcDbArc
 50
261.6899880699973
 51
278.3100119300026
  0
ARC
  5
F9D
330
1F
100
AcDbEntity
  8
0
 62
     3
100
AcDbCircle
 10
1376.179310074691
 20
318.3156048336664
 30
0.0
 40
25.41
100
AcDbArc
 50
278.3100119300026
 51
290.4942851999916
  0
ARC
  5
F9E
330
1F
100
AcDbEntity
  8
0
 62
     3
100
AcDbCircle
 10
1376.179310074691
 20
273.8594851536665
 30
0.0
 40
25.41
100
AcDbArc
 50
69.5057148000084
 51
81.68998806999736
  0
ARC
  5
F9F
330
1F
100
AcDbEntity
  8
0
 62
     3
100
AcDbCircle
 10
1384.487514204691
 20
296.0875449936665
 30
0.0
 40
1.679999999999999
100
AcDbArc
 50
290.4942851999916
 51
69.5057148000084
  0
ARC
  5
FA0
330
1F
100
AcDbEntity
  8
0
 62
     3
100
AcDbCircle
 10
1357.187514204692
 20
296.0875449936665
 30
0.0
 40
1.679999999999999
100
AcDbArc
 50
110.4942851999916
 51
249.5057147999945
  0
ARC
  5
FA1
330
1F
100
AcDbEntity
  8
0
 62
     3
100
AcDbCircle
 10
1365.495718324692
 20
273.8594851536665
 30
0.0
 40
25.41
100
AcDbArc
 50
98.31001192998948
 51
110.4942851999916
  0
ARC
  5
FA2
330
1F
100
AcDbEntity
  8
0
 62
     3
100
AcDbCircle
 10
1365.495718324692
 20
318.3156048336664
 30
0.0
 40
25.41
100
AcDbArc
 50
249.5057147999945
 51
261.6899880699973
  0
LINE
  5
FA3
330
1F
100
AcDbEntity
  8
0
 62
     3
100
AcDbLine
 10
1375.447475304692
 20
294.0106686136664
 30
0.0
 11
1373.517963474691
 21
294.0106686136664
 31
0.0
  0
LINE
  5
FA4
330
1F
100
AcDbEntity
  8
0
 62
     3
100
AcDbLine
 10
1375.447475304692
 20
294.2222297536665
 30
0.0
 11
1375.447475304692
 21
294.0106686136664
 31
0.0
  0
LINE
  5
FA5
330
1F
100
AcDbEntity
  8
0
 62
     3
100
AcDbLine
 10
1373.311005914692
 20
298.1643226536665
 30
0.0
 11
1371.358743384692
 21
298.1643226536665
 31
0.0
  0
LINE
  5
FA6
330
1F
100
AcDbEntity
  8
0
 62
     3
100
AcDbLine
 10
1373.311005914692
 20
298.1643226536665
 30
0.0
 11
1373.311005914692
 21
297.9528602336665
 31
0.0
  0
LINE
  5
FA7
330
1F
100
AcDbEntity
  8
0
 62
     3
100
AcDbLine
 10
1373.311005914692
 20
294.2222297536665
 30
0.0
 11
1373.311005914692
 21
294.0105699036664
 31
0.0
  0
LINE
  5
FA8
330
1F
100
AcDbEntity
  8
0
 62
     3
100
AcDbLine
 10
1373.311005914692
 20
294.0105699036664
 30
0.0
 11
1371.358743384692
 21
294.0105699036664
 31
0.0
  0
LINE
  5
FA9
330
1F
100
AcDbEntity
  8
0
 62
     3
100
AcDbLine
 10
1375.447475304692
 20
298.1644213736664
 30
0.0
 11
1375.447475304692
 21
297.9528602336665
 31
0.0
  0
LINE
  5
FAA
330
1F
100
AcDbEntity
  8
0
 62
     3
100
AcDbLine
 10
1375.447475304692
 20
298.1644213736664
 30
0.0
 11
1373.517963474691
 21
298.1644213736664
 31
0.0
  0
LINE
  5
FAB
330
1F
100
AcDbEntity
  8
0
 62
     3
100
AcDbLine
 10
1373.517963474691
 20
298.1644213736664
 30
0.0
 11
1373.517963474691
 21
297.9528602336665
 31
0.0
  0
LINE
  5
FAC
330
1F
100
AcDbEntity
  8
0
 62
     3
100
AcDbLine
 10
1375.661833304692
 20
294.2222297536665
 30
0.0
 11
1375.661833304692
 21
294.0106686136664
 31
0.0
  0
LINE
  5
FAD
330
1F
100
AcDbEntity
  8
0
 62
     3
100
AcDbLine
 10
1377.646133864692
 20
294.0106686136664
 30
0.0
 11
1375.661833304692
 21
294.0106686136664
 31
0.0
  0
LINE
  5
FAE
330
1F
100
AcDbEntity
  8
0
 62
     3
100
AcDbLine
 10
1377.155597234692
 20
297.4966518536664
 30
0.0
 11
1377.155597234692
 21
294.6784381336664
 31
0.0
  0
LINE
  5
FAF
330
1F
100
AcDbEntity
  8
0
 62
     3
100
AcDbLine
 10
1377.155597234692
 20
294.6784381336664
 30
0.0
 11
1377.345646204692
 21
294.6784381336664
 31
0.0
  0
ARC
  5
FB0
330
1F
100
AcDbEntity
  8
0
 62
     3
100
AcDbCircle
 10
1376.373860464692
 20
296.0875449936665
 30
0.0
 40
1.71170957
100
AcDbArc
 50
304.5919552700024
 51
55.40804472999759
  0
LINE
  5
FB1
330
1F
100
AcDbEntity
  8
0
 62
     3
100
AcDbLine
 10
1377.646133864692
 20
298.1644213736664
 30
0.0
 11
1375.661833304692
 21
298.1644213736664
 31
0.0
  0
LINE
  5
FB2
330
1F
100
AcDbEntity
  8
0
 62
     3
100
AcDbLine
 10
1375.661833304692
 20
298.1644213736664
 30
0.0
 11
1375.661833304692
 21
297.9528602336665
 31
0.0
  0
LINE
  5
FB3
330
1F
100
AcDbEntity
  8
0
 62
     3
100
AcDbLine
 10
1373.517963474691
 20
294.2222297536665
 30
0.0
 11
1373.517963474691
 21
294.0106686136664
 31
0.0
  0
LINE
  5
FB4
330
1F
100
AcDbEntity
  8
0
 62
     3
100
AcDbLine
 10
1377.155597234692
 20
297.4966518536664
 30
0.0
 11
1377.345646204692
 21
297.4966518536664
 31
0.0
  0
LINE
  5
FB5
330
1F
100
AcDbEntity
  8
0
 62
     3
100
AcDbLine
 10
1365.512437574692
 20
294.2222297536665
 30
0.0
 11
1365.512433884692
 21
294.0106488436665
 31
0.0
  0
LINE
  5
FB6
330
1F
100
AcDbEntity
  8
0
 62
     3
100
AcDbLine
 10
1363.582922044692
 20
294.0106883836664
 30
0.0
 11
1365.512433884692
 21
294.0106547136664
 31
0.0
  0
LINE
  5
FB7
330
1F
100
AcDbEntity
  8
0
 62
     3
100
AcDbLine
 10
1359.286540194692
 20
294.0106686136664
 30
0.0
 11
1360.825805524692
 21
294.0106686136664
 31
0.0
  0
ARC
  5
FB8
330
1F
100
AcDbEntity
  8
0
 62
     3
100
AcDbCircle
 10
1354.304597514692
 20
296.1364516136665
 30
0.0
 40
14.71356563
100
AcDbArc
 50
353.8660061899985
 51
357.6940342600003
  0
LINE
  5
FB9
330
1F
100
AcDbEntity
  8
0
 62
     3
100
AcDbLine
 10
1368.021177374692
 20
295.5480839636664
 30
0.0
 11
1369.006248264692
 21
295.5444390836665
 31
0.0
  0
LINE
  5
FBB
330
1F
100
AcDbEntity
  8
0
 62
     3
100
AcDbLine
 10
1368.025155794692
 20
296.6232987036665
 30
0.0
 11
1369.010226674691
 21
296.6196538336665
 31
0.0
  0
ARC
  5
FBC
330
1F
100
AcDbEntity
  8
0
 62
     3
100
AcDbCircle
 10
1354.304597514692
 20
296.1364516136665
 30
0.0
 40
14.71356563
100
AcDbArc
 50
1.881965739999166
 51
5.709993809998117
  0
LINE
  5
FBD
330
1F
100
AcDbEntity
  8
0
 62
     3
100
AcDbLine
 10
1365.512506374692
 20
298.1644016036664
 30
0.0
 11
1365.512502684692
 21
297.9528602336665
 31
0.0
  0
LINE
  5
FBE
330
1F
100
AcDbEntity
  8
0
 62
     3
100
AcDbLine
 10
1363.582994544692
 20
298.1644411436664
 30
0.0
 11
1365.512506374692
 21
298.1644074636664
 31
0.0
  0
LINE
  5
FBF
330
1F
100
AcDbEntity
  8
0
 62
     3
100
AcDbLine
 10
1363.582925734692
 20
294.2222297536665
 30
0.0
 11
1363.582922044692
 21
294.0106883836664
 31
0.0
  0
LINE
  5
FC0
330
1F
100
AcDbEntity
  8
0
 62
     3
100
AcDbLine
 10
1363.582994544692
 20
298.1644411436664
 30
0.0
 11
1363.582990854691
 21
297.9528602336665
 31
0.0
  0
LINE
  5
FC1
330
1F
100
AcDbEntity
  8
0
 62
     3
100
AcDbLine
 10
1360.825805524692
 20
294.2222297536665
 30
0.0
 11
1360.825805524692
 21
294.0106686136664
 31
0.0
  0
LINE
  5
FC2
330
1F
100
AcDbEntity
  8
0
 62
     3
100
AcDbLine
 10
1360.390057614691
 20
296.4465567036664
 30
0.0
 11
1361.912487674692
 21
294.0106686136664
 31
0.0
  0
LINE
  5
FC3
330
1F
100
AcDbEntity
  8
0
 62
     3
100
AcDbLine
 10
1361.912487674692
 20
294.0106686136664
 30
0.0
 11
1362.931920394692
 21
294.0106686136664
 31
0.0
  0
LINE
  5
FC4
330
1F
100
AcDbEntity
  8
0
 62
     3
100
AcDbLine
 10
1363.367668304692
 20
298.1644213736664
 30
0.0
 11
1363.367668304692
 21
297.9528602336665
 31
0.0
  0
LINE
  5
FC5
330
1F
100
AcDbEntity
  8
0
 62
     3
100
AcDbLine
 10
1361.828402974692
 20
298.1644213736664
 30
0.0
 11
1363.367668304692
 21
298.1644213736664
 31
0.0
  0
LINE
  5
FC6
330
1F
100
AcDbEntity
  8
0
 62
     3
100
AcDbLine
 10
1361.828402974692
 20
298.1644213736664
 30
0.0
 11
1361.828402974692
 21
297.9528602336665
 31
0.0
  0
LINE
  5
FC7
330
1F
100
AcDbEntity
  8
0
 62
     3
100
AcDbLine
 10
1362.264150884692
 20
296.2830550336664
 30
0.0
 11
1361.029504214692
 21
298.1644213736664
 31
0.0
  0
LINE
  5
FC8
330
1F
100
AcDbEntity
  8
0
 62
     3
100
AcDbLine
 10
1359.286540194692
 20
298.1644213736664
 30
0.0
 11
1361.029504214692
 21
298.1644213736664
 31
0.0
  0
LINE
  5
FC9
330
1F
100
AcDbEntity
  8
0
 62
     3
100
AcDbLine
 10
1369.202754554692
 20
298.1643226536665
 30
0.0
 11
1371.155017094692
 21
298.1643226536665
 31
0.0
  0
LINE
  5
FCA
330
1F
100
AcDbEntity
  8
0
 62
     3
100
AcDbLine
 10
1369.202754554692
 20
297.9528602336665
 30
0.0
 11
1369.202754554692
 21
298.1643226536665
 31
0.0
  0
LINE
  5
FCB
330
1F
100
AcDbEntity
  8
0
 62
     3
100
AcDbLine
 10
1369.202754554692
 20
294.0105699036664
 30
0.0
 11
1369.202754554692
 21
294.2222297536665
 31
0.0
  0
LINE
  5
FCC
330
1F
100
AcDbEntity
  8
0
 62
     3
100
AcDbLine
 10
1369.202754554692
 20
294.0105699036664
 30
0.0
 11
1371.155017094692
 21
294.0105699036664
 31
0.0
  0
LINE
  5
FCD
330
1F
100
AcDbEntity
  8
0
 62
     3
100
AcDbLine
 10
1371.358743384692
 20
294.2222297536665
 30
0.0
 11
1371.358743384692
 21
294.0105699036664
 31
0.0
  0
LINE
  5
FCE
330
1F
100
AcDbEntity
  8
0
 62
     3
100
AcDbLine
 10
1371.155017094692
 20
294.2222297536665
 30
0.0
 11
1371.155017094692
 21
294.0105699036664
 31
0.0
  0
LINE
  5
FCF
330
1F
100
AcDbEntity
  8
0
 62
     3
100
AcDbLine
 10
1371.155017094692
 20
297.9528602336665
 30
0.0
 11
1371.155017094692
 21
298.1643226536665
 31
0.0
  0
LINE
  5
FD0
330
1F
100
AcDbEntity
  8
0
 62
     3
100
AcDbLine
 10
1371.358743384692
 20
297.9528602336665
 30
0.0
 11
1371.358743384692
 21
298.1643226536665
 31
0.0
  0
LINE
  5
FD1
330
1F
100
AcDbEntity
  8
0
 62
     3
100
AcDbLine
 10
1359.286540194692
 20
294.2222297536665
 30
0.0
 11
1359.286540194692
 21
294.0106686136664
 31
0.0
  0
LINE
  5
FD2
330
1F
100
AcDbEntity
  8
0
 62
     3
100
AcDbLine
 10
1359.286540194692
 20
298.1644213736664
 30
0.0
 11
1359.286540194692
 21
297.9528602336665
 31
0.0
  0
ARC
  5
FD3
330
1F
100
AcDbEntity
  8
0
 62
     3
100
AcDbCircle
 10
1377.856133864692
 20
296.5232929036664
 30
0.0
 40
1.641128469999999
100
AcDbArc
 50
17.30874897999528
 51
23.76507095999465
  0
ARC
  5
FD4
330
1F
100
AcDbEntity
  8
0
 62
     3
100
AcDbCircle
 10
1376.457860464691
 20
296.0875449936665
 30
0.0
 40
3.105725599999998
100
AcDbArc
 50
342.6912510200047
 51
17.30856643999909
  0
ARC
  5
FD5
330
1F
100
AcDbEntity
  8
0
 62
     3
100
AcDbCircle
 10
1377.856133864692
 20
295.6517970936665
 30
0.0
 40
1.641128469999999
100
AcDbArc
 50
336.2349290400005
 51
342.6912510200047
  0
ARC
  5
FD6
330
1F
100
AcDbEntity
  8
0
 62
     3
100
AcDbCircle
 10
1377.646133864692
 20
296.5232929036664
 30
0.0
 40
1.641128469999999
100
AcDbArc
 50
17.30874897999528
 51
90.0
  0
ARC
  5
FD7
330
1F
100
AcDbEntity
  8
0
 62
     3
100
AcDbCircle
 10
1376.247860464691
 20
296.0875449936665
 30
0.0
 40
3.105725599999998
100
AcDbArc
 50
342.6912510200047
 51
17.30856643999909
  0
ARC
  5
FD8
330
1F
100
AcDbEntity
  8
0
 62
     3
100
AcDbCircle
 10
1377.646133864692
 20
295.6517970936665
 30
0.0
 40
1.641128469999999
100
AcDbArc
 50
270.0
 51
342.6912510200047
  0
ARC
  5
FD9
330
1F
100
AcDbEntity
  8
0
 62
     3
100
AcDbCircle
 10
1367.522193494691
 20
296.0875449936665
 30
0.0
 40
2.076876379999998
100
AcDbArc
 50
46.75287960999344
 51
89.74999828999569
  0
ARC
  5
FDA
330
1F
100
AcDbEntity
  8
0
 62
     3
100
AcDbCircle
 10
1367.522193494691
 20
296.0875449936665
 30
0.0
 40
2.076876379999998
100
AcDbArc
 50
273.976333149997
 51
312.8231203899985
  0
ARC
  5
FDB
330
1F
100
AcDbEntity
  8
0
 62
     3
100
AcDbCircle
 10
1378.964001434691
 20
296.0554834636664
 30
0.0
 40
2.755888999999998
100
AcDbArc
 50
0.6665840599997753
 51
23.90392827000157
  0
ARC
  5
FDC
330
1F
100
AcDbEntity
  8
0
 62
     3
100
AcDbCircle
 10
1382.879563714691
 20
296.0554834636664
 30
0.0
 40
2.755888999999998
100
AcDbArc
 50
156.0960717299984
 51
179.3334159400002
  0
ARC
  5
FDD
330
1F
100
AcDbEntity
  8
0
 62
     3
100
AcDbCircle
 10
1378.964001434691
 20
296.1196065236665
 30
0.0
 40
2.755888999999998
100
AcDbArc
 50
336.0960717299984
 51
359.3334159400005
  0
ARC
  5
FDE
330
1F
100
AcDbEntity
  8
0
 62
     3
100
AcDbCircle
 10
1382.879563714691
 20
296.1196065236665
 30
0.0
 40
2.755888999999998
100
AcDbArc
 50
180.6665840599995
 51
203.9039282700016
  0
LINE
  5
FDF
330
1F
100
AcDbEntity
  8
0
 62
     3
100
AcDbLine
 10
1387.529850804692
 20
296.1654161336664
 30
0.0
 11
1502.202188174692
 21
296.1654161336664
 31
0.0
  0
LINE
  5
FE1
330
1F
100
AcDbEntity
  8
0
 62
     3
100
AcDbLine
 10
1354.117104284692
 20
296.1654161336664
 30
0.0
 11
1322.202188174692
 21
296.1654161336664
 31
0.0
  0
LINE
  5
FE2
330
1F
100
AcDbEntity
  8
0
 62
     3
100
AcDbLine
 10
1450.202188174691
 20
19.16541613366644
 30
0.0
 11
1450.202188174691
 21
59.16541613366645
 31
0.0
  0
LINE
  5
FE3
330
1F
100
AcDbEntity
  8
0
 62
     3
100
AcDbLine
 10
1463.202188174692
 20
29.16541613366644
 30
0.0
 11
1463.202188174692
 21
57.16541613366644
 31
0.0
  0
LINE
  5
FE4
330
1F
100
AcDbEntity
  8
0
 62
     3
100
AcDbLine
 10
1423.202188174692
 20
29.16541613366644
 30
0.0
 11
1423.202188174692
 21
43.16541613366643
 31
0.0
  0
LINE
  5
FE5
330
1F
100
AcDbEntity
  8
0
 62
     3
100
AcDbLine
 10
1433.202188174692
 20
43.16541613366643
 30
0.0
 11
1433.202188174692
 21
19.16541613366644
 31
0.0
  0
LINE
  5
FE6
330
1F
100
AcDbEntity
  8
0
 62
     3
100
AcDbLine
 10
1404.202188174692
 20
59.16541613366643
 30
0.0
 11
1404.202188174692
 21
36.16541613366646
 31
0.0
  0
LINE
  5
FE7
330
1F
100
AcDbEntity
  8
0
 62
     3
100
AcDbLine
 10
1463.202188174692
 20
57.16541613366644
 30
0.0
 11
1463.202188174692
 21
59.16541613366645
 31
0.0
  0
LINE
  5
FE8
330
1F
100
AcDbEntity
  8
0
 62
     3
100
AcDbLine
 10
1476.202188174692
 20
36.16541613366646
 30
0.0
 11
1476.202188174692
 21
59.16541613366645
 31
0.0
  0
LINE
  5
FE9
330
1F
100
AcDbEntity
  8
0
 62
     3
100
AcDbLine
 10
1502.202188174692
 20
59.16541613366645
 30
0.0
 11
1390.956753534692
 21
59.16541613366645
 31
0.0
  0
LINE
  5
FEA
330
1F
100
AcDbEntity
  8
0
 62
     3
100
AcDbLine
 10
1502.202188174692
 20
50.16541613366644
 30
0.0
 11
1390.956753534692
 21
50.16541613366644
 31
0.0
  0
LINE
  5
FEB
330
1F
100
AcDbEntity
  8
0
 62
     3
100
AcDbLine
 10
1502.202188174692
 20
36.16541613366646
 30
0.0
 11
1390.956753534692
 21
36.16541613366646
 31
0.0
  0
LINE
  5
FEC
330
1F
100
AcDbEntity
  8
0
 62
     3
100
AcDbLine
 10
1502.202188174692
 20
29.16541613366644
 30
0.0
 11
1390.956753534692
 21
29.16541613366644
 31
0.0
  0
LINE
  5
FED
330
1F
100
AcDbEntity
  8
0
 62
     3
100
AcDbLine
 10
1489.202188174692
 20
36.16541613366646
 30
0.0
 11
1489.202188174692
 21
59.16541613366645
 31
0.0
  0
LINE
  5
FEE
330
1F
100
AcDbEntity
  8
0
 62
     3
100
AcDbLine
 10
1390.956753534692
 20
59.16541613366645
 30
0.0
 11
1390.956753534692
 21
19.16541613366644
 31
0.0
  0
LINE
  5
FEF
330
1F
100
AcDbEntity
  8
0
 62
     3
100
AcDbLine
 10
1450.202188174691
 20
43.16541613366643
 30
0.0
 11
1390.956753534692
 21
43.1654161336664
 31
0.0
  0
LINE
  5
FF0
330
1F
100
AcDbEntity
  8
0
 62
     3
100
AcDbLine
 10
1433.480513104691
 20
23.99827739366643
 30
0.0
 11
1450.202188174691
 21
23.99827739366643
 31
0.0
  0
TEXT
  5
FF1
330
1F
100
AcDbEntity
  8
0
 62
     3
100
AcDbText
 10
1434.366513588007
 20
38.23851298703179
 30
0.0
 40
2.5
  1
質量:120g
  7
高2.5
100
AcDbText
  0
TEXT
  5
FF2
330
1F
100
AcDbEntity
  8
0
 62
     3
100
AcDbText
 10
1405.398556869944
 20
38.11106874841539
 30
0.0
 40
2.5
  1
別記
 41
0.8
  7
高2.5
100
AcDbText
  0
TEXT
  5
FF3
330
1F
100
AcDbEntity
  8
0
 62
     3
100
AcDbText
 10
1405.718277887598
 20
51.27055149802652
 30
0.0
 40
4.5
  1
パイプライト用マグネットホルダー
 41
0.5
  7
高4.5
100
AcDbText
1001
ACAD
1000
ACAD_MTEXT_DEFINED_HEIGHT_BEGIN
1070
    46
1040
0.0
1000
ACAD_MTEXT_DEFINED_HEIGHT_END
  0
TEXT
  5
FF4
330
1F
100
AcDbEntity
  8
0
 62
     3
100
AcDbText
 10
1492.267777268166
 20
55.67910823237003
 30
0.0
 40
2.0
  1
DEF
  7
高2
100
AcDbText
  0
TEXT
  5
FF5
330
1F
100
AcDbEntity
  8
0
 62
     3
100
AcDbText
 10
1478.328678914458
 20
55.67910823236996
 30
0.0
 40
2.0
  1
DESN
  7
高2
100
AcDbText
  0
TEXT
  5
FF6
330
1F
100
AcDbEntity
  8
0
 62
     3
100
AcDbText
 10
1452.074311974457
 20
55.67910823237003
 30
0.0
 40
2.0
  1
APPD
  7
高2
100
AcDbText
  0
TEXT
  5
FF7
330
1F
100
AcDbEntity
  8
0
 62
     3
100
AcDbText
 10
1465.187048074692
 20
55.67910823237004
 30
0.0
 40
2.0
  1
CHCK
  7
高2
100
AcDbText
  0
TEXT
  5
FF8
330
1F
100
AcDbEntity
  8
0
 62
     3
100
AcDbText
 10
1424.129353813844
 20
33.33381495689716
 30
0.0
 40
2.0
  1
SCALE
 41
0.8
  7
高2
100
AcDbText
  0
TEXT
  5
FF9
330
1F
100
AcDbEntity
  8
0
 62
     3
100
AcDbText
 10
1392.641332237738
 20
33.33381495689717
 30
0.0
 40
2.0
  1
3AD　ANGLE
 41
1.5
  7
高2
100
AcDbText
  0
TEXT
  5
FFA
330
1F
100
AcDbEntity
  8
0
 62
     3
100
AcDbText
 10
1423.573836574246
 20
40.08535302585428
 30
0.0
 40
2.0
  1
REMARKS
 41
0.7
  7
高2
100
AcDbText
  0
TEXT
  5
FFB
330
1F
100
AcDbEntity
  8
0
 62
     3
100
AcDbText
 10
1392.424423884692
 20
40.16541613366643
 30
0.0
 40
2.0
  1
MATERIAL
 41
0.7
  7
高2
100
AcDbText
  0
TEXT
  5
FFC
330
1F
100
AcDbEntity
  8
0
 62
     3
100
AcDbText
 10
1393.000911087446
 20
47.16541613366643
 30
0.0
 40
2.0
  1
MODEL
  7
高2
100
AcDbText
  0
TEXT
  5
FFD
330
1F
100
AcDbEntity
  8
0
 62
     3
100
AcDbText
 10
1392.637831968777
 20
55.87243748426545
 30
0.0
 40
2.0
  1
CONPONENTS
 41
0.5
  7
高2
100
AcDbText
  0
TEXT
  5
FFE
330
1F
100
AcDbEntity
  8
0
 62
     3
100
AcDbText
 10
1412.916831477131
 20
44.25289726147838
 30
0.0
 40
4.5
  1
LPL-MG
  7
高4.5
100
AcDbText
  0
TEXT
  5
FFF
330
1F
100
AcDbEntity
  8
0
 62
     3
100
AcDbText
 10
1453.26723390531
 20
21.20387752903203
 30
0.0
 40
6.299999999999998
  1
LPL-MG
  7
高6.3
100
AcDbText
1001
ACAD
1000
ACAD_MTEXT_DEFINED_HEIGHT_BEGIN
1070
    46
1040
0.0
1000
ACAD_MTEXT_DEFINED_HEIGHT_END
  0
TEXT
  5
1000
330
1F
100
AcDbEntity
  8
0
 62
     3
100
AcDbText
 10
1466.765697925021
 20
30.26630529189945
 30
0.0
 40
3.2
  1
2016.02.04
  7
高3.2
100
AcDbText
1001
ACAD
1000
ACAD_MTEXT_DEFINED_HEIGHT_BEGIN
1070
    46
1040
0.0
1000
ACAD_MTEXT_DEFINED_HEIGHT_END
  0
TEXT
  5
1001
330
1F
100
AcDbEntity
  8
0
 62
     3
100
AcDbText
 10
1436.989786069338
 20
30.26633313623432
 30
0.0
 40
3.2
  1
1/1
  7
高3.2
100
AcDbText
  0
TEXT
  5
1002
330
1F
100
AcDbEntity
  8
0
 62
     3
100
AcDbText
 10
1434.067115044691
 20
19.9822943068024
 30
0.0
 40
3.2
  1
ZK-A4Y
 41
0.8
  7
高3.2
100
AcDbText
  0
TEXT
  5
1003
330
1F
100
AcDbEntity
  8
0
 62
     3
100
AcDbText
 10
1391.787454574691
 20
25.69003655585427
 30
0.0
 40
2.0
  1
NICHIDO IND.CO.LTD
 41
1.3
  7
高2
100
AcDbText
  0
TEXT
  5
1004
330
1F
100
AcDbEntity
  8
0
 62
     3
100
AcDbText
 10
1392.968977839649
 20
51.30594434155137
 30
0.0
 40
3.2
  1
品 名
  7
高3.2
100
AcDbText
1001
ACAD
1000
ACAD_MTEXT_DEFINED_HEIGHT_BEGIN
1070
    46
1040
0.0
1000
ACAD_MTEXT_DEFINED_HEIGHT_END
  0
TEXT
  5
1005
330
1F
100
AcDbEntity
  8
0
 62
     3
100
AcDbText
 10
1392.968977839649
 20
43.66541613366641
 30
0.0
 40
3.2
  1
型 式
  7
高3.2
100
AcDbText
1001
ACAD
1000
ACAD_MTEXT_DEFINED_HEIGHT_BEGIN
1070
    46
1040
3.064735913775952
1000
ACAD_MTEXT_DEFINED_HEIGHT_END
  0
TEXT
  5
1006
330
1F
100
AcDbEntity
  8
0
 62
     3
100
AcDbText
 10
1392.968977839649
 20
36.66541613366645
 30
0.0
 40
3.2
  1
材 質
  7
高3.2
100
AcDbText
1001
ACAD
1000
ACAD_MTEXT_DEFINED_HEIGHT_BEGIN
1070
    46
1040
0.0
1000
ACAD_MTEXT_DEFINED_HEIGHT_END
  0
TEXT
  5
1007
330
1F
100
AcDbEntity
  8
0
 62
     3
100
AcDbText
 10
1392.663942889649
 20
29.63285612591268
 30
0.0
 40
3.2
  1
第 三 角 法
  7
高3.2
100
AcDbText
1001
ACAD
1000
ACAD_MTEXT_DEFINED_HEIGHT_BEGIN
1070
    46
1040
0.0
1000
ACAD_MTEXT_DEFINED_HEIGHT_END
  0
TEXT
  5
1008
330
1F
100
AcDbEntity
  8
0
 62
     3
100
AcDbText
 10
1391.070475497178
 20
20.30594434155137
 30
0.0
 40
3.2
  1
日動工業株式会社
 41
1.199999999999999
  7
高3.2
100
AcDbText
1001
ACAD
1000
ACAD_MTEXT_DEFINED_HEIGHT_BEGIN
1070
    46
1040
0.0
1000
ACAD_MTEXT_DEFINED_HEIGHT_END
  0
TEXT
  5
1009
330
1F
100
AcDbEntity
  8
0
 62
     3
100
AcDbText
 10
1424.706099696656
 20
36.549994666834
 30
0.0
 40
3.2
  1
備考
  7
高3.2
100
AcDbText
1001
ACAD
1000
ACAD_MTEXT_DEFINED_HEIGHT_BEGIN
1070
    46
1040
0.0
1000
ACAD_MTEXT_DEFINED_HEIGHT_END
  0
TEXT
  5
100A
330
1F
100
AcDbEntity
  8
0
 62
     3
100
AcDbText
 10
1434.355157143692
 20
25.31164615923673
 30
0.0
 40
2.5
  1
出図コード
  7
高2.5
100
AcDbText
1001
ACAD
1000
ACAD_MTEXT_DEFINED_HEIGHT_BEGIN
1070
    46
1040
0.0
1000
ACAD_MTEXT_DEFINED_HEIGHT_END
  0
TEXT
  5
100B
330
1F
100
AcDbEntity
  8
0
 62
     3
100
AcDbText
 10
1424.547333578568
 20
29.61865104407936
 30
0.0
 40
3.2
  1
尺度
  7
高3.2
100
AcDbText
1001
ACAD
1000
ACAD_MTEXT_DEFINED_HEIGHT_BEGIN
1070
    46
1040
0.0
1000
ACAD_MTEXT_DEFINED_HEIGHT_END
  0
TEXT
  5
100C
330
1F
100
AcDbEntity
  8
0
 62
     3
100
AcDbText
 10
1451.693595060347
 20
30.75012949219685
 30
0.0
 40
3.2
  1
作成日
  7
高3.2
100
AcDbText
1001
ACAD
1000
ACAD_MTEXT_DEFINED_HEIGHT_BEGIN
1070
    46
1040
0.0
1000
ACAD_MTEXT_DEFINED_HEIGHT_END
  0
TEXT
  5
100D
330
1F
100
AcDbEntity
  8
0
 62
     3
100
AcDbText
 10
1451.588069067211
 20
51.30594434155137
 30
0.0
 40
3.2
  1
承 認
  7
高3.2
100
AcDbText
1001
ACAD
1000
ACAD_MTEXT_DEFINED_HEIGHT_BEGIN
1070
    46
1040
0.0
1000
ACAD_MTEXT_DEFINED_HEIGHT_END
  0
TEXT
  5
100E
330
1F
100
AcDbEntity
  8
0
 62
     3
100
AcDbText
 10
1464.588069067211
 20
51.30594434155137
 30
0.0
 40
3.2
  1
検 図
  7
高3.2
100
AcDbText
1001
ACAD
1000
ACAD_MTEXT_DEFINED_HEIGHT_BEGIN
1070
    46
1040
0.0
1000
ACAD_MTEXT_DEFINED_HEIGHT_END
  0
TEXT
  5
100F
330
1F
100
AcDbEntity
  8
0
 62
     3
100
AcDbText
 10
1477.588069067211
 20
51.30594434155137
 30
0.0
 40
3.2
  1
設 計
  7
高3.2
100
AcDbText
1001
ACAD
1000
ACAD_MTEXT_DEFINED_HEIGHT_BEGIN
1070
    46
1040
0.0
1000
ACAD_MTEXT_DEFINED_HEIGHT_END
  0
TEXT
  5
1010
330
1F
100
AcDbEntity
  8
0
 62
     3
100
AcDbText
 10
1490.888705587211
 20
51.30594434155137
 30
0.0
 40
3.2
  1
製 図
  7
高3.2
100
AcDbText
1001
ACAD
1000
ACAD_MTEXT_DEFINED_HEIGHT_BEGIN
1070
    46
1040
0.0
1000
ACAD_MTEXT_DEFINED_HEIGHT_END
  0
TEXT
  5
1011
330
1F
100
AcDbEntity
  8
0
 62
     3
100
AcDbText
 10
1489.702188174692
 20
286.6654161336665
 30
0.0
 40
3.2
  1
担　当
  7
高3.2
100
AcDbText
  0
TEXT
  5
1012
330
1F
100
AcDbEntity
  8
0
 62
     3
100
AcDbText
 10
1445.702188174692
 20
286.6654161336665
 30
0.0
 40
3.2
  1
変更・追記内容
  7
高3.2
100
AcDbText
  0
TEXT
  5
1013
330
1F
100
AcDbEntity
  8
0
 62
     3
100
AcDbText
 10
1420.815703175031
 20
281.9948776237581
 30
0.0
 40
2.0
  1
1
  7
高2
100
AcDbText
  0
TEXT
  5
1014
330
1F
100
AcDbEntity
  8
0
 62
     3
100
AcDbText
 10
1420.507191698274
 20
276.8250609114852
 30
0.0
 40
2.0
  1
2
  7
高2
100
AcDbText
  0
TEXT
  5
1015
330
1F
100
AcDbEntity
  8
0
 62
     3
100
AcDbText
 10
1427.702188174692
 20
286.6654161336665
 30
0.0
 40
3.2
  1
日　付
  7
高3.2
100
AcDbText
  0
TEXT
  5
1016
330
1F
100
AcDbEntity
  8
0
 62
     3
100
AcDbText
 10
1427.702188174692
 20
291.6654161336664
 30
0.0
 40
3.2
  1
図　　　　面　　　　略　　　　歴
  7
高3.2
100
AcDbText
  0
TEXT
  5
1017
330
1F
100
AcDbEntity
  8
0
 62
     3
100
AcDbText
 10
1417.702188174692
 20
286.6654161336665
 30
0.0
 40
3.2
  1
記号
  7
高3.2
100
AcDbText
  0
LINE
  5
1018
330
1F
100
AcDbEntity
  8
0
 62
     7
100
AcDbLine
 10
1421.202188174692
 20
279.9563121336665
 30
0.0
 11
1419.302188174692
 21
276.6654161336664
 31
0.0
  0
LINE
  5
1019
330
1F
100
AcDbEntity
  8
0
 62
     7
100
AcDbLine
 10
1421.202188174692
 20
279.9563121336665
 30
0.0
 11
1423.102188174692
 21
276.6654161336664
 31
0.0
  0
LINE
  5
101A
330
1F
100
AcDbEntity
  8
0
 62
     7
100
AcDbLine
 10
1419.302188174692
 20
276.6654161336664
 30
0.0
 11
1423.102188174692
 21
276.6654161336664
 31
0.0
  0
LINE
  5
101B
330
1F
100
AcDbEntity
  8
0
 62
     7
100
AcDbLine
 10
1421.202188174692
 20
284.9563131336665
 30
0.0
 11
1419.302188174692
 21
281.6654161336664
 31
0.0
  0
LINE
  5
101C
330
1F
100
AcDbEntity
  8
0
 62
     7
100
AcDbLine
 10
1421.202188174692
 20
284.9563131336665
 30
0.0
 11
1423.102188174692
 21
281.6654161336664
 31
0.0
  0
LINE
  5
101D
330
1F
100
AcDbEntity
  8
0
 62
     7
100
AcDbLine
 10
1419.302188174692
 20
281.6654161336664
 30
0.0
 11
1423.102188174692
 21
281.6654161336664
 31
0.0
  0
LINE
  5
101E
330
1F
100
AcDbEntity
  8
0
 62
     3
100
AcDbLine
 10
1416.202188174692
 20
291.1654161336664
 30
0.0
 11
1502.202188174692
 21
291.1654161336664
 31
0.0
  0
LINE
  5
101F
330
1F
100
AcDbEntity
  8
0
 62
     3
100
AcDbLine
 10
1416.202188174692
 20
286.1654161336664
 30
0.0
 11
1502.202188174692
 21
286.1654161336664
 31
0.0
  0
LINE
  5
1020
330
1F
100
AcDbEntity
  8
0
 62
     7
100
AcDbLine
 10
1416.202188174692
 20
281.1654161336664
 30
0.0
 11
1502.202188174692
 21
281.1654161336664
 31
0.0
  0
LINE
  5
1021
330
1F
100
AcDbEntity
  8
0
 62
     3
100
AcDbLine
 10
1416.202188174692
 20
276.1654161336664
 30
0.0
 11
1502.202188174692
 21
276.1654161336664
 31
0.0
  0
LINE
  5
1022
330
1F
100
AcDbEntity
  8
0
 62
     7
100
AcDbLine
 10
1488.202188174692
 20
276.1654161336664
 30
0.0
 11
1488.202188174692
 21
291.1654161336664
 31
0.0
  0
LINE
  5
1023
330
1F
100
AcDbEntity
  8
0
 62
     7
100
AcDbLine
 10
1444.202188174692
 20
276.1654161336664
 30
0.0
 11
1444.202188174692
 21
291.1654161336664
 31
0.0
  0
LINE
  5
1024
330
1F
100
AcDbEntity
  8
0
 62
     7
100
AcDbLine
 10
1426.202188174691
 20
276.1654161336664
 30
0.0
 11
1426.202188174691
 21
291.1654161336664
 31
0.0
  0
LINE
  5
1025
330
1F
100
AcDbEntity
  8
0
 62
     3
100
AcDbLine
 10
1416.202188174692
 20
276.1654161336664
 30
0.0
 11
1416.202188174692
 21
296.1654161336664
 31
0.0
  0
TEXT
  5
1027
330
1F
100
AcDbEntity
  8
0
100
AcDbText
 10
1494.900160440475
 20
41.15842934237559
 30
0.0
 40
3.2
  1
I
  7
高3.2
100
AcDbText
  0
LINE
  5
16D5
330
1F
100
AcDbEntity
  8
0
 62
     3
100
AcDbLine
 10
1502.202188174692
 20
65.16541613366644
 30
0.0
 11
1450.202188174692
 21
65.16541613366644
 31
0.0
  0
LINE
  5
16D6
330
1F
100
AcDbEntity
  8
0
 62
     3
100
AcDbLine
 10
1476.202188174692
 20
59.16541613366645
 30
0.0
 11
1476.202188174691
 21
65.16541613366644
 31
0.0
  0
LINE
  5
16D7
330
1F
100
AcDbEntity
  8
0
 62
     3
100
AcDbLine
 10
1450.202188174691
 20
59.16541613366645
 30
0.0
 11
1450.202188174691
 21
65.16541613366644
 31
0.0
  0
TEXT
  5
16D8
330
1F
100
AcDbEntity
  8
0
 62
     3
100
AcDbText
 10
1455.501846452609
 20
59.80233040912457
 30
0.0
 40
4.5
  1
コード
  7
高4.5
100
AcDbText
  0
TEXT
  5
16D9
330
1F
100
AcDbEntity
  8
0
 62
     3
100
AcDbText
 10
1478.985624864537
 20
59.80233040912457
 30
0.0
 40
4.5
  1
56231
  7
高4.5
100
AcDbText
  0
LINE
  5
1D0F
330
1F
100
AcDbEntity
  8
0
 62
     3
100
AcDbLine
 10
1411.275512433805
 20
187.4727304409035
 30
0.0
 11
1411.275512433805
 21
219.4727304409024
 31
0.0
  0
LINE
  5
1D10
330
1F
100
AcDbEntity
  8
0
 62
     3
100
AcDbLine
 10
1403.275512433805
 20
187.4727304409035
 30
0.0
 11
1403.275512433805
 21
219.4727304409024
 31
0.0
  0
LINE
  5
1D11
102
{ACAD_REACTORS
330
EF9
102
}
330
1F
100
AcDbEntity
  8
0
 62
     3
100
AcDbLine
 10
1401.875512433805
 20
198.4727304409035
 30
0.0
 11
1401.875512433805
 21
208.4727304409033
 31
0.0
  0
LINE
  5
1D12
102
{ACAD_REACTORS
330
EF9
102
}
330
1F
100
AcDbEntity
  8
0
 62
     3
100
AcDbLine
 10
1396.875512433805
 20
196.0727304409025
 30
0.0
 11
1396.875512433805
 21
210.8727304409034
 31
0.0
  0
LINE
  5
1D13
102
{ACAD_REACTORS
330
EF9
102
}
330
1F
100
AcDbEntity
  8
0
 62
     3
100
AcDbLine
 10
1389.875512433805
 20
199.1426034219804
 30
0.0
 11
1389.875512433805
 21
207.8028574598255
 31
0.0
  0
LINE
  5
1D14
330
1F
100
AcDbEntity
  8
0
 62
     3
100
AcDbLine
 10
1360.275512433805
 20
200.9727304409024
 30
0.0
 11
1360.275512433805
 21
205.9727304409024
 31
0.0
  0
LINE
  5
1D15
330
1F
100
AcDbEntity
  8
0
 62
     3
100
AcDbLine
 10
1360.775512433805
 20
200.4727304409033
 30
0.0
 11
1363.875512433805
 21
200.4727304409032
 31
0.0
  0
LINE
  5
1D18
330
1F
100
AcDbEntity
  8
0
100
AcDbLine
 10
1360.275512433805
 20
200.9727304409024
 30
0.0
 11
1363.875512433805
 21
200.9727304409026
 31
0.0
  0
LINE
  5
1D1B
330
1F
100
AcDbEntity
  8
0
 62
     3
100
AcDbLine
 10
1360.775512433805
 20
206.4727304409033
 30
0.0
 11
1363.875512433805
 21
206.4727304409033
 31
0.0
  0
LINE
  5
1D1E
330
1F
100
AcDbEntity
  8
0
100
AcDbLine
 10
1360.275512433805
 20
205.9727304409024
 30
0.0
 11
1363.875512433805
 21
205.9727304409024
 31
0.0
  0
LINE
  5
1D21
330
1F
100
AcDbEntity
  8
0
 62
     3
100
AcDbLine
 10
1403.275512433805
 20
187.4727304409035
 30
0.0
 11
1411.275512433805
 21
187.4727304409035
 31
0.0
  0
LINE
  5
1D22
330
1F
100
AcDbEntity
  8
0
 62
     3
100
AcDbLine
 10
1411.275512433805
 20
219.4727304409024
 30
0.0
 11
1403.275512433805
 21
219.4727304409024
 31
0.0
  0
LINE
  5
1D23
330
1F
100
AcDbEntity
  8
0
 62
     3
100
AcDbLine
 10
1360.275512433805
 20
200.9727304409024
 30
0.0
 11
1360.775512433805
 21
200.4727304409033
 31
0.0
  0
LINE
  5
1D24
330
1F
100
AcDbEntity
  8
0
 62
     3
100
AcDbLine
 10
1360.275512433805
 20
205.9727304409024
 30
0.0
 11
1360.775512433805
 21
206.4727304409033
 31
0.0
  0
LINE
  5
1D25
330
1F
100
AcDbEntity
  8
0
 62
     3
100
AcDbLine
 10
1360.775512433805
 20
200.4727304409033
 30
0.0
 11
1360.775512433805
 21
206.4727304409033
 31
0.0
  0
LINE
  5
1D26
330
1F
100
AcDbEntity
  8
0
  6
CENTER
100
AcDbLine
 10
1415.479858382027
 20
203.4727304409033
 30
0.0
 11
1355.732955379854
 21
203.4727304409033
 31
0.0
  0
LINE
  5
1D27
330
1F
100
AcDbEntity
  8
0
 62
     3
100
AcDbLine
 10
1396.875512433805
 20
196.0727304409025
 30
0.0
 11
1394.875512433805
 21
196.0727304409025
 31
0.0
  0
LINE
  5
1D28
330
1F
100
AcDbEntity
  8
0
 62
     3
100
AcDbLine
 10
1396.875512433805
 20
210.8727304409034
 30
0.0
 11
1394.875512433805
 21
210.8727304409034
 31
0.0
  0
LINE
  5
1D29
330
1F
100
AcDbEntity
  8
0
 62
     3
100
AcDbLine
 10
1403.275512433805
 20
198.4727304409035
 30
0.0
 11
1401.875512433805
 21
198.4727304409035
 31
0.0
  0
LINE
  5
1D2A
330
1F
100
AcDbEntity
  8
0
 62
     3
100
AcDbLine
 10
1403.275512433805
 20
208.4727304409033
 30
0.0
 11
1401.875512433805
 21
208.4727304409033
 31
0.0
  0
LINE
  5
1D2B
330
1F
100
AcDbEntity
  8
0
 62
     3
100
AcDbLine
 10
1403.275512433805
 20
202.0727304409025
 30
0.0
 11
1401.875512433805
 21
203.4727304409033
 31
0.0
  0
LINE
  5
1D2C
330
1F
100
AcDbEntity
  8
0
 62
     3
100
AcDbLine
 10
1403.275512433805
 20
203.4727304409033
 30
0.0
 11
1401.875512433805
 21
204.8727304409034
 31
0.0
  0
LINE
  5
1D2D
330
1F
100
AcDbEntity
  8
0
 62
     3
100
AcDbLine
 10
1401.375512433805
 20
209.2462331327994
 30
0.0
 11
1397.375512433805
 21
209.2462331327994
 31
0.0
  0
LINE
  5
1D2E
330
1F
100
AcDbEntity
  8
0
 62
     3
100
AcDbLine
 10
1394.375512433805
 20
209.2462331327994
 30
0.0
 11
1390.375512433805
 21
209.2462331327994
 31
0.0
  0
LINE
  5
1D2F
330
1F
100
AcDbEntity
  8
0
 62
     3
100
AcDbLine
 10
1401.375512433805
 20
197.6992277490063
 30
0.0
 11
1397.375512433805
 21
197.6992277490063
 31
0.0
  0
LINE
  5
1D30
330
1F
100
AcDbEntity
  8
0
 62
     3
100
AcDbLine
 10
1394.375512433805
 20
197.6992277490063
 30
0.0
 11
1390.375512433805
 21
197.6992277490063
 31
0.0
  0
LINE
  5
1D31
330
1F
100
AcDbEntity
  8
0
 62
     3
100
AcDbLine
 10
1401.375512433805
 20
206.3594817868515
 30
0.0
 11
1397.375512433805
 21
206.3594817868515
 31
0.0
  0
LINE
  5
1D32
330
1F
100
AcDbEntity
  8
0
 62
     3
100
AcDbLine
 10
1394.375512433805
 20
206.3594817868515
 30
0.0
 11
1390.375512433805
 21
206.3594817868515
 31
0.0
  0
LINE
  5
1D33
330
1F
100
AcDbEntity
  8
0
 62
     3
100
AcDbLine
 10
1401.375512433805
 20
200.5859790949545
 30
0.0
 11
1397.375512433805
 21
200.5859790949545
 31
0.0
  0
LINE
  5
1D34
330
1F
100
AcDbEntity
  8
0
 62
     3
100
AcDbLine
 10
1394.375512433805
 20
200.5859790949545
 30
0.0
 11
1390.375512433805
 21
200.5859790949545
 31
0.0
  0
ARC
  5
1D35
330
1F
100
AcDbEntity
  8
0
 62
     3
100
AcDbCircle
 10
1393.292179100473
 20
203.4727304409033
 30
0.0
 40
8.583333333332596
100
AcDbArc
 50
340.3471403683375
 51
19.65285963166254
  0
ARC
  5
1D36
330
1F
100
AcDbEntity
  8
0
 62
     3
100
AcDbCircle
 10
1405.458845767138
 20
203.4727304409033
 30
0.0
 40
8.583333333333591
100
AcDbArc
 50
160.3471403683374
 51
199.6528596316625
  0
ARC
  5
1D37
330
1F
100
AcDbEntity
  8
0
 62
     3
100
AcDbCircle
 10
1386.292179100471
 20
203.4727304409033
 30
0.0
 40
8.583333333333614
100
AcDbArc
 50
340.3471403683375
 51
19.65285963166254
  0
ARC
  5
1D38
330
1F
100
AcDbEntity
  8
0
 62
     3
100
AcDbCircle
 10
1398.458845767138
 20
203.4727304409033
 30
0.0
 40
8.583333333333508
100
AcDbArc
 50
160.3471403683374
 51
199.6528596316625
  0
ARC
  5
1D39
330
1F
100
AcDbEntity
  8
0
 62
     3
100
AcDbCircle
 10
1392.208845767139
 20
207.8028574598255
 30
0.0
 40
2.3333333333335
100
AcDbArc
 50
141.7867892982636
 51
218.2132107017363
  0
ARC
  5
1D3A
330
1F
100
AcDbEntity
  8
0
 62
     3
100
AcDbCircle
 10
1392.208845767139
 20
199.1426034219804
 30
0.0
 40
2.333333333334173
100
AcDbArc
 50
141.7867892982717
 51
218.2132107017282
  0
ARC
  5
1D3B
330
1F
100
AcDbEntity
  8
0
 62
     3
100
AcDbCircle
 10
1392.542179100472
 20
207.8028574598246
 30
0.0
 40
2.333333333332645
100
AcDbArc
 50
321.7867892982535
 51
38.21321070176509
  0
ARC
  5
1D3C
330
1F
100
AcDbEntity
  8
0
 62
     3
100
AcDbCircle
 10
1399.208845767139
 20
207.8028574598255
 30
0.0
 40
2.333333333333724
100
AcDbArc
 50
141.7867892982717
 51
218.2132107017282
  0
ARC
  5
1D3D
330
1F
100
AcDbEntity
  8
0
 62
     3
100
AcDbCircle
 10
1392.542179100472
 20
199.1426034219804
 30
0.0
 40
2.333333333333284
100
AcDbArc
 50
321.7867892982535
 51
38.21321070174652
  0
ARC
  5
1D3E
330
1F
100
AcDbEntity
  8
0
 62
     3
100
AcDbCircle
 10
1399.208845767138
 20
199.1426034219804
 30
0.0
 40
2.333333333333595
100
AcDbArc
 50
141.7867892982534
 51
218.2132107017282
  0
ARC
  5
1D3F
330
1F
100
AcDbEntity
  8
0
 62
     3
100
AcDbCircle
 10
1399.542179100471
 20
207.8028574598255
 30
0.0
 40
2.333333333333344
100
AcDbArc
 50
321.7867892982637
 51
38.21321070173632
  0
ARC
  5
1D40
330
1F
100
AcDbEntity
  8
0
 62
     3
100
AcDbCircle
 10
1399.542179100471
 20
199.1426034219815
 30
0.0
 40
2.333333333333774
100
AcDbArc
 50
321.7867892982637
 51
38.21321070172825
  0
LINE
  5
1D4D
330
1F
100
AcDbEntity
  8
0
 62
     3
100
AcDbLine
 10
1395.875512433805
 20
210.8727304409034
 30
0.0
 11
1395.875512433805
 21
196.0727304409025
 31
0.0
  0
LINE
  5
1D4E
102
{ACAD_REACTORS
330
EF9
102
}
330
1F
100
AcDbEntity
  8
0
 62
     3
100
AcDbLine
 10
1394.875512433805
 20
196.0727304409025
 30
0.0
 11
1394.875512433805
 21
210.8727304409034
 31
0.0
  0
LINE
  5
1D50
330
1F
100
AcDbEntity
  8
0
 62
     3
100
AcDbLine
 10
1389.875512433805
 20
215.9727304409033
 30
0.0
 11
1388.875512433805
 21
215.9727304409033
 31
0.0
  0
LINE
  5
1D52
330
1F
100
AcDbEntity
  8
0
 62
     3
100
AcDbLine
 10
1472.369314020994
 20
170.9727304409033
 30
0.0
 11
1464.269314020994
 21
170.9727304409033
 31
0.0
  0
LINE
  5
1D59
330
1F
100
AcDbEntity
  8
0
 62
     3
100
AcDbLine
 10
1389.875512433805
 20
170.9727304409033
 30
0.0
 11
1389.875512433805
 21
215.9727304409033
 31
0.0
  0
LINE
  5
1D5A
330
1F
100
AcDbEntity
  8
0
 62
     3
100
AcDbLine
 10
1388.875512433805
 20
170.9727304409033
 30
0.0
 11
1388.875512433805
 21
215.9727304409033
 31
0.0
  0
LINE
  5
1D5B
330
1F
100
AcDbEntity
  8
0
 62
     3
100
AcDbLine
 10
1382.875512433805
 20
170.9727304409033
 30
0.0
 11
1382.875512433805
 21
215.9727304409033
 31
0.0
  0
LINE
  5
1D5C
330
1F
100
AcDbEntity
  8
0
 62
     3
100
AcDbLine
 10
1381.875512433805
 20
170.9727304409033
 30
0.0
 11
1381.875512433805
 21
215.9727304409033
 31
0.0
  0
LINE
  5
1D66
330
1F
100
AcDbEntity
  8
0
 62
     3
100
AcDbLine
 10
1382.875512433805
 20
215.9727304409033
 30
0.0
 11
1381.875512433805
 21
215.9727304409033
 31
0.0
  0
LINE
  5
1D67
330
1F
100
AcDbEntity
  8
0
 62
     3
100
AcDbLine
 10
1382.875512433805
 20
200.4727304409023
 30
0.0
 11
1388.875512433805
 21
200.472730440902
 31
0.0
  0
LINE
  5
1D68
330
1F
100
AcDbEntity
  8
0
100
AcDbLine
 10
1382.875512433805
 20
200.9727304409034
 30
0.0
 11
1388.875512433805
 21
200.9727304409037
 31
0.0
  0
LINE
  5
1D69
330
1F
100
AcDbEntity
  8
0
100
AcDbLine
 10
1382.875512433805
 20
205.9727304409024
 30
0.0
 11
1388.875512433805
 21
205.9727304409024
 31
0.0
  0
LINE
  5
1D6A
330
1F
100
AcDbEntity
  8
0
 62
     3
100
AcDbLine
 10
1382.875512433805
 20
206.4727304409033
 30
0.0
 11
1388.875512433805
 21
206.4727304409033
 31
0.0
  0
LINE
  5
1D6D
330
1F
100
AcDbEntity
  8
0
 62
     3
100
AcDbLine
 10
1363.875512433805
 20
187.3483747879214
 30
0.0
 11
1363.875512433805
 21
219.5970860938857
 31
0.0
  0
LINE
  5
1D71
330
1F
100
AcDbEntity
  8
0
 62
     3
100
AcDbLine
 10
1373.875512433805
 20
187.3483747879214
 30
0.0
 11
1373.875512433805
 21
219.5970860938857
 31
0.0
  0
ARC
  5
1D72
330
1F
100
AcDbEntity
  8
0
 62
     3
100
AcDbCircle
 10
1372.875512433805
 20
187.3483747879214
 30
0.0
 40
1.0
100
AcDbArc
 50
270.0
 51
0.0
  0
ARC
  5
1D74
330
1F
100
AcDbEntity
  8
0
 62
     3
100
AcDbCircle
 10
1372.875512433805
 20
219.5970860938857
 30
0.0
 40
1.0
100
AcDbArc
 50
0.0
 51
90.0
  0
LINE
  5
1D77
330
1F
100
AcDbEntity
  8
0
 62
     3
100
AcDbLine
 10
1373.875512433805
 20
193.9727304409033
 30
0.0
 11
1381.875512433805
 21
193.9727304409033
 31
0.0
  0
LINE
  5
1D78
330
1F
100
AcDbEntity
  8
0
 62
     3
100
AcDbLine
 10
1373.875512433805
 20
212.9727304409033
 30
0.0
 11
1381.875512433805
 21
212.9727304409033
 31
0.0
  0
LINE
  5
1D79
330
1F
100
AcDbEntity
  8
0
 62
     3
100
AcDbLine
 10
1381.875512433805
 20
193.9727304409033
 30
0.0
 11
1381.875512433805
 21
212.9727304409033
 31
0.0
  0
LINE
  5
1D7B
330
1F
100
AcDbEntity
  8
0
 62
     3
100
AcDbLine
 10
1364.875512433805
 20
220.5970860938856
 30
0.0
 11
1372.875512433805
 21
220.5970860938856
 31
0.0
  0
ARC
  5
1D7C
330
1F
100
AcDbEntity
  8
0
 62
     3
100
AcDbCircle
 10
1364.875512433805
 20
219.5970860938857
 30
0.0
 40
1.0
100
AcDbArc
 50
90.0
 51
180.0
  0
LINE
  5
1D7D
330
1F
100
AcDbEntity
  8
0
 62
     3
100
AcDbLine
 10
1364.875512433805
 20
186.3483747879214
 30
0.0
 11
1372.875512433805
 21
186.3483747879214
 31
0.0
  0
ARC
  5
1D7E
330
1F
100
AcDbEntity
  8
0
 62
     3
100
AcDbCircle
 10
1364.875512433805
 20
187.3483747879214
 30
0.0
 40
1.0
100
AcDbArc
 50
180.0
 51
270.0
  0
LINE
  5
1DC9
330
1F
100
AcDbEntity
  8
0
  6
CENTER
100
AcDbLine
 10
1400.543132631483
 20
183.4727304409033
 30
0.0
 11
1370.669681130397
 21
183.4727304409033
 31
0.0
  0
LINE
  5
1DCA
330
1F
100
AcDbEntity
  8
0
 62
     3
100
AcDbLine
 10
1472.369314020994
 20
193.4852382631842
 30
0.0
 11
1472.369314020994
 21
121.2948050823972
 31
0.0
  0
LINE
  5
1DCB
330
1F
100
AcDbEntity
  8
0
 62
     3
100
AcDbLine
 10
1447.369314020994
 20
193.4852382631843
 30
0.0
 11
1447.369314020994
 21
121.2948050823972
 31
0.0
  0
CIRCLE
  5
1DCD
330
1F
100
AcDbEntity
  8
0
 62
     3
100
AcDbCircle
 10
1459.869314020994
 20
203.4727304409033
 30
0.0
 40
16.0
  0
CIRCLE
  5
1DCE
330
1F
100
AcDbEntity
  8
0
 62
     3
100
AcDbCircle
 10
1459.869314020994
 20
203.4727304409033
 30
0.0
 40
12.5
  0
LINE
  5
1DEF
330
1F
100
AcDbEntity
  8
0
 62
     3
100
AcDbLine
 10
1447.369314020994
 20
121.2948050823972
 30
0.0
 11
1455.469314020994
 21
121.2948050823972
 31
0.0
  0
LINE
  5
1DF2
330
1F
100
AcDbEntity
  8
0
 62
     3
100
AcDbLine
 10
1464.269314020994
 20
121.2948050823972
 30
0.0
 11
1464.269314020994
 21
170.9727304409033
 31
0.0
  0
LINE
  5
1DF3
330
1F
100
AcDbEntity
  8
0
 62
     3
100
AcDbLine
 10
1455.469314020994
 20
121.2948050823972
 30
0.0
 11
1455.469314020994
 21
170.9727304409033
 31
0.0
  0
ARC
  5
1DF4
330
1F
100
AcDbEntity
  8
0
 62
     3
100
AcDbCircle
 10
1459.869314020994
 20
126.9981384157322
 30
0.0
 40
7.203333333334855
100
AcDbArc
 50
232.3505799635263
 51
307.6494200364735
  0
ARC
  5
1DF5
330
1F
100
AcDbEntity
  8
0
 62
     3
100
AcDbCircle
 10
1459.869314020994
 20
165.3570262991493
 30
0.0
 40
7.134152578107188
100
AcDbArc
 50
51.92069497176429
 51
128.0793050282371
  0
CIRCLE
  5
1DF7
330
1F
100
AcDbEntity
  8
0
100
AcDbCircle
 10
1459.869314020994
 20
183.4727304409033
 30
0.0
 40
3.5
  0
ARC
  5
1DFA
330
1F
100
AcDbEntity
  8
0
 62
     3
100
AcDbCircle
 10
1385.875512433805
 20
146.2948050823972
 30
0.0
 40
24.0
100
AcDbArc
 50
99.20689622134569
 51
80.7931037786543
  0
ARC
  5
1DFB
330
1F
100
AcDbEntity
  8
0
 62
     3
100
AcDbCircle
 10
1385.875512433805
 20
146.2948050823972
 30
0.0
 40
25.0
100
AcDbArc
 50
99.20689622134569
 51
80.7931037786543
  0
ARC
  5
1DFC
330
1F
100
AcDbEntity
  8
0
 62
     3
100
AcDbCircle
 10
1385.875512433805
 20
146.2948050823972
 30
0.0
 40
26.5
100
AcDbArc
 50
98.68160169683692
 51
81.31839830316307
  0
ARC
  5
1DFF
330
1F
100
AcDbEntity
  8
0
 62
     3
100
AcDbCircle
 10
1389.875512433805
 20
170.9727304409033
 30
0.0
 40
1.0
100
AcDbArc
 50
180.0
 51
260.7931037786494
  0
ARC
  5
1E00
330
1F
100
AcDbEntity
  8
0
 62
     3
100
AcDbCircle
 10
1381.875512433805
 20
170.9727304409033
 30
0.0
 40
1.0
100
AcDbArc
 50
279.2068962213506
 51
0.0
  0
LINE
  5
1E01
330
1F
100
AcDbEntity
  8
0
 62
     3
100
AcDbLine
 10
1455.469314020994
 20
170.9727304409033
 30
0.0
 11
1447.369314020994
 21
170.9727304409033
 31
0.0
  0
LINE
  5
1E02
330
1F
100
AcDbEntity
  8
0
 62
     3
100
AcDbLine
 10
1464.269314020994
 20
121.2948050823972
 30
0.0
 11
1472.369314020994
 21
121.2948050823972
 31
0.0
  0
LINE
  5
1E03
330
1F
100
AcDbEntity
  8
0
  6
CENTER
 62
     7
100
AcDbLine
 10
1459.869314020994
 20
114.9492018564395
 30
0.0
 11
1459.869314020994
 21
227.4727304409033
 31
0.0
  0
LINE
  5
1E04
330
1F
100
AcDbEntity
  8
0
  6
CENTER
 62
     7
100
AcDbLine
 10
1435.869314020994
 20
203.4727304409033
 30
0.0
 11
1483.869314020994
 21
203.4727304409033
 31
0.0
  0
LINE
  5
1E05
330
1F
100
AcDbEntity
  8
0
  6
CENTER
 62
     7
100
AcDbLine
 10
1385.875512433805
 20
113.4401914420826
 30
0.0
 11
1385.875512433805
 21
224.1265653574005
 31
0.0
  0
LINE
  5
1E06
330
1F
100
AcDbEntity
  8
0
  6
CENTER
 62
     7
100
AcDbLine
 10
1346.125512433805
 20
146.2948050823972
 30
0.0
 11
1425.625512433805
 21
146.2948050823972
 31
0.0
  0
LINE
  5
1EB0
330
1F
100
AcDbEntity
  8
0
  6
CENTER
100
AcDbLine
 10
1430.123158530168
 20
146.2948050823972
 30
0.0
 11
1489.61546951182
 21
146.2948050823972
 31
0.0
  0
LINE
  5
1EE2
330
1F
100
AcDbEntity
  8
0
100
AcDbLine
 10
1322.202188174692
 20
23.16541613366644
 30
0.0
 11
1377.428908002116
 21
23.16541613366644
 31
0.0
  0
LINE
  5
1EE3
330
1F
100
AcDbEntity
  8
0
100
AcDbLine
 10
1322.202188174692
 20
27.16541613366644
 30
0.0
 11
1377.428908002116
 21
27.16541613366644
 31
0.0
  0
LINE
  5
1EE4
330
1F
100
AcDbEntity
  8
0
 62
     3
100
AcDbLine
 10
1322.202188174692
 20
31.16541613366644
 30
0.0
 11
1377.428908002116
 21
31.16541613366644
 31
0.0
  0
TEXT
  5
1EE8
330
1F
100
AcDbEntity
  8
0
 62
     3
100
AcDbText
 10
1323.202188174692
 20
19.66541613366644
 30
0.0
 40
2.5
  1
No.
 41
0.8
  7
高2.5
100
AcDbText
  0
TEXT
  5
1EE9
330
1F
100
AcDbEntity
  8
0
 62
     3
100
AcDbText
 10
1323.202188174692
 20
23.66541613366644
 30
0.0
 40
2.5
  1
1
 41
0.8
  7
高2.5
100
AcDbText
  0
TEXT
  5
1EEA
330
1F
100
AcDbEntity
  8
0
 62
     3
100
AcDbText
 10
1323.202188174692
 20
27.66541613366644
 30
0.0
 40
2.5
  1
2
 41
0.8
  7
高2.5
100
AcDbText
  0
LINE
  5
1EEB
330
1F
100
AcDbEntity
  8
0
100
AcDbLine
 10
1328.297746176538
 20
19.16541613366644
 30
0.0
 11
1328.297746176538
 21
31.16541613366644
 31
0.0
  0
TEXT
  5
1EEC
330
1F
100
AcDbEntity
  8
0
 62
     3
100
AcDbText
 10
1329.297746176538
 20
19.66541613366644
 30
0.0
 40
2.5
  1
部品名
 41
0.8
  7
高2.5
100
AcDbText
  0
TEXT
  5
1EED
330
1F
100
AcDbEntity
  8
0
 62
     3
100
AcDbText
 10
1329.297746176538
 20
23.66541613366644
 30
0.0
 40
2.5
  1
VPバンド
 41
0.8
  7
高2.5
100
AcDbText
  0
TEXT
  5
1EEE
330
1F
100
AcDbEntity
  8
0
 62
     3
100
AcDbText
 10
1329.297746176538
 20
27.66541613366644
 30
0.0
 40
2.5
  1
マグピタ
 41
0.8
  7
高2.5
100
AcDbText
  0
LINE
  5
1EEF
330
1F
100
AcDbEntity
  8
0
100
AcDbLine
 10
1341.608455726883
 20
19.16541613366644
 30
0.0
 11
1341.608455726883
 21
31.16541613366644
 31
0.0
  0
TEXT
  5
1EF0
330
1F
100
AcDbEntity
  8
0
 62
     3
100
AcDbText
 10
1342.608455726883
 20
19.66541613366644
 30
0.0
 40
2.5
  1
材質/備考
 41
0.8
  7
高2.5
100
AcDbText
  0
TEXT
  5
1EF1
330
1F
100
AcDbEntity
  8
0
 62
     3
100
AcDbText
 10
1342.608455726883
 20
23.66541613366644
 30
0.0
 40
2.5
  1
SPHC　電気亜鉛メッキ
 41
0.8
  7
高2.5
100
AcDbText
  0
TEXT
  5
1EF2
330
1F
100
AcDbEntity
  8
0
 62
     3
100
AcDbText
 10
1342.608455726883
 20
27.66541613366644
 30
0.0
 40
2.5
  1
ネオジム磁石 MG-01
 41
0.8
  7
高2.5
100
AcDbText
  0
LINE
  5
1EF3
330
1F
100
AcDbEntity
  8
0
100
AcDbLine
 10
1370.38995436684
 20
19.16541613366644
 30
0.0
 11
1370.38995436684
 21
31.16541613366644
 31
0.0
  0
TEXT
  5
1EF4
330
1F
100
AcDbEntity
  8
0
 62
     3
100
AcDbText
 10
1371.38995436684
 20
19.66541613366644
 30
0.0
 40
2.5
  1
個数
 41
0.8
  7
高2.5
100
AcDbText
  0
TEXT
  5
1EF5
330
1F
100
AcDbEntity
  8
0
 62
     3
100
AcDbText
 10
1371.38995436684
 20
23.66541613366644
 30
0.0
 40
2.5
  1
1
 41
0.8
  7
高2.5
100
AcDbText
  0
TEXT
  5
1EF6
330
1F
100
AcDbEntity
  8
0
 62
     3
100
AcDbText
 10
1371.38995436684
 20
27.66541613366644
 30
0.0
 40
2.5
  1
1
 41
0.8
  7
高2.5
100
AcDbText
  0
LINE
  5
1EF7
330
1F
100
AcDbEntity
  8
0
 62
     3
100
AcDbLine
 10
1377.428908002116
 20
19.16541613366644
 30
0.0
 11
1377.428908002116
 21
31.16541613366644
 31
0.0
  0
CIRCLE
  5
1FFA
330
1F
100
AcDbEntity
  8
0
100
AcDbCircle
 10
1424.03280987796
 20
225.1324794829654
 30
0.0
 40
5.0
  0
TEXT
  5
1FFB
330
1F
100
AcDbEntity
  8
0
 62
     4
100
AcDbText
 10
1421.992223972386
 20
221.9419549682148
 30
0.0
 40
6.299999999999998
  1
2
  7
高6.3
100
AcDbText
  0
CIRCLE
  5
1FFC
330
1F
100
AcDbEntity
  8
0
100
AcDbCircle
 10
1424.03280987796
 20
172.2006901121688
 30
0.0
 40
5.0
  0
TEXT
  5
1FFD
330
1F
100
AcDbEntity
  8
0
 62
     4
100
AcDbText
 10
1422.956484981452
 20
169.0101655974181
 30
0.0
 40
6.299999999999998
  1
1
  7
高6.3
100
AcDbText
  0
LINE
  5
20D2
330
1F
100
AcDbEntity
  8
0
100
AcDbLine
 10
1359.375512433805
 20
146.0448050823972
 30
0.0
 11
1359.375512433805
 21
106.0971992524849
 31
0.0
  0
LINE
  5
20D3
330
1F
100
AcDbEntity
  8
0
100
AcDbLine
 10
1412.375512433805
 20
146.0448050823972
 30
0.0
 11
1412.375512433805
 21
106.0971992524849
 31
0.0
  0
LINE
  5
20D4
330
1F
100
AcDbEntity
  8
0
100
AcDbLine
 10
1361.875512433805
 20
107.347199252485
 30
0.0
 11
1409.875512433805
 21
107.347199252485
 31
0.0
  0
LINE
  5
20D8
330
1F
100
AcDbEntity
  8
0
100
AcDbLine
 10
1364.625512433805
 20
220.5970860938856
 30
0.0
 11
1338.601339421046
 21
220.5970860938857
 31
0.0
  0
LINE
  5
20D9
330
1F
100
AcDbEntity
  8
0
100
AcDbLine
 10
1385.625512433805
 20
119.7948050823972
 30
0.0
 11
1338.601339421046
 21
119.7948050823972
 31
0.0
  0
LINE
  5
20DA
330
1F
100
AcDbEntity
  8
0
100
AcDbLine
 10
1339.851339421046
 20
218.0970860938857
 30
0.0
 11
1339.851339421046
 21
122.2948050823972
 31
0.0
  0
LINE
  5
20DE
330
1F
100
AcDbEntity
  8
0
100
AcDbLine
 10
1346.375512433805
 20
146.2948050823972
 30
0.0
 11
1350.255076643119
 21
146.2948050823972
 31
0.0
  0
LINE
  5
20DF
330
1F
100
AcDbEntity
  8
0
100
AcDbLine
 10
1355.482955379853
 20
203.4727304409033
 30
0.0
 11
1347.755076643119
 21
203.4727304409033
 31
0.0
  0
LINE
  5
20E0
330
1F
100
AcDbEntity
  8
0
100
AcDbLine
 10
1349.005076643119
 20
148.7948050823972
 30
0.0
 11
1349.005076643119
 21
200.9727304409033
 31
0.0
  0
LINE
  5
20E4
330
1F
100
AcDbEntity
  8
0
100
AcDbLine
 10
1367.398310926487
 20
135.3019426499847
 30
0.0
 11
1404.352713941123
 21
157.2876675148097
 31
0.0
  0
LINE
  5
20E8
330
1F
100
AcDbEntity
  8
0
100
AcDbLine
 10
1447.369314020994
 20
121.0448050823972
 30
0.0
 11
1447.369314020994
 21
106.8869592342963
 31
0.0
  0
LINE
  5
20E9
330
1F
100
AcDbEntity
  8
0
100
AcDbLine
 10
1472.369314020994
 20
121.0448050823972
 30
0.0
 11
1472.369314020994
 21
106.8869592342963
 31
0.0
  0
LINE
  5
20EA
330
1F
100
AcDbEntity
  8
0
100
AcDbLine
 10
1449.869314020994
 20
108.1369592342963
 30
0.0
 11
1469.869314020994
 21
108.1369592342963
 31
0.0
  0
LINE
  5
20EE
330
1F
100
AcDbEntity
  8
0
100
AcDbLine
 10
1475.869314020994
 20
203.7227304409033
 30
0.0
 11
1475.869314020994
 21
238.035429547395
 31
0.0
  0
LINE
  5
20EF
330
1F
100
AcDbEntity
  8
0
100
AcDbLine
 10
1443.869314020994
 20
203.7227304409033
 30
0.0
 11
1443.869314020994
 21
238.035429547395
 31
0.0
  0
LINE
  5
20F0
330
1F
100
AcDbEntity
  8
0
100
AcDbLine
 10
1473.369314020994
 20
236.785429547395
 30
0.0
 11
1446.369314020994
 21
236.785429547395
 31
0.0
  0
LINE
  5
20F4
330
1F
100
AcDbEntity
  8
0
100
AcDbLine
 10
1472.369314020994
 20
203.7227304409033
 30
0.0
 11
1472.369314020994
 21
231.362626651027
 31
0.0
  0
LINE
  5
20F5
330
1F
100
AcDbEntity
  8
0
100
AcDbLine
 10
1447.369314020994
 20
203.7227304409033
 30
0.0
 11
1447.369314020994
 21
231.362626651027
 31
0.0
  0
LINE
  5
20F6
330
1F
100
AcDbEntity
  8
0
100
AcDbLine
 10
1469.869314020994
 20
230.112626651027
 30
0.0
 11
1449.869314020994
 21
230.112626651027
 31
0.0
  0
TEXT
  5
20FA
330
1F
100
AcDbEntity
  8
0
 62
     4
100
AcDbText
 10
1483.161704518459
 20
215.8992127106177
 30
0.0
 40
3.0
  1
磁石
100
AcDbText
1001
ACAD
1000
MTEXTBEGIN
1070
    73
1070
     1
1070
    44
1040
1.0
1070
    74
1070
     0
1000
MTEXTEND
  0
LINE
  5
20FD
330
1F
100
AcDbEntity
  8
0
 62
     3
100
AcDbLine
 10
1368.025155794692
 20
296.6232987036665
 30
0.0
 11
1368.006528264692
 21
296.7425664736664
 31
0.0
  0
LINE
  5
20FE
330
1F
100
AcDbEntity
  8
0
 62
     3
100
AcDbLine
 10
1368.006528264692
 20
296.7425664736664
 30
0.0
 11
1367.984157084692
 21
296.8567712536664
 31
0.0
  0
LINE
  5
20FF
330
1F
100
AcDbEntity
  8
0
 62
     3
100
AcDbLine
 10
1367.984157084692
 20
296.8567712536664
 30
0.0
 11
1367.958215154692
 21
296.9650303136664
 31
0.0
  0
LINE
  5
2100
330
1F
100
AcDbEntity
  8
0
 62
     3
100
AcDbLine
 10
1367.958215154692
 20
296.9650303136664
 30
0.0
 11
1367.928903014692
 21
297.0665068636664
 31
0.0
  0
LINE
  5
2101
330
1F
100
AcDbEntity
  8
0
 62
     3
100
AcDbLine
 10
1367.928903014692
 20
297.0665068636664
 30
0.0
 11
1367.896447204692
 21
297.1604165436664
 31
0.0
  0
LINE
  5
2102
330
1F
100
AcDbEntity
  8
0
 62
     3
100
AcDbLine
 10
1367.896447204692
 20
297.1604165436664
 30
0.0
 11
1367.861098614692
 21
297.2460334836664
 31
0.0
  0
LINE
  5
2103
330
1F
100
AcDbEntity
  8
0
 62
     3
100
AcDbLine
 10
1367.861098614692
 20
297.2460334836664
 30
0.0
 11
1367.823130464692
 21
297.3226958936664
 31
0.0
  0
LINE
  5
2104
330
1F
100
AcDbEntity
  8
0
 62
     3
100
AcDbLine
 10
1367.823130464692
 20
297.3226958936664
 30
0.0
 11
1367.782836214692
 21
297.3898112336665
 31
0.0
  0
LINE
  5
2105
330
1F
100
AcDbEntity
  8
0
 62
     3
100
AcDbLine
 10
1367.782836214692
 20
297.3898112336665
 30
0.0
 11
1367.740527344692
 21
297.4468607236664
 31
0.0
  0
LINE
  5
2106
330
1F
100
AcDbEntity
  8
0
 62
     3
100
AcDbLine
 10
1367.740527344692
 20
297.4468607236664
 30
0.0
 11
1367.696530854692
 21
297.4934033936664
 31
0.0
  0
LINE
  5
2107
330
1F
100
AcDbEntity
  8
0
 62
     3
100
AcDbLine
 10
1367.696530854692
 20
297.4934033936664
 30
0.0
 11
1367.651186834692
 21
297.5290795136664
 31
0.0
  0
LINE
  5
2108
330
1F
100
AcDbEntity
  8
0
 62
     3
100
AcDbLine
 10
1367.651186834692
 20
297.5290795136664
 30
0.0
 11
1367.604845764691
 21
297.5536133036665
 31
0.0
  0
LINE
  5
2109
330
1F
100
AcDbEntity
  8
0
 62
     3
100
AcDbLine
 10
1367.604845764691
 20
297.5536133036665
 30
0.0
 11
1367.557865824692
 21
297.5668151536664
 31
0.0
  0
LINE
  5
210A
330
1F
100
AcDbEntity
  8
0
 62
     3
100
AcDbLine
 10
1367.557865824692
 20
297.5668151536664
 30
0.0
 11
1367.510610164692
 21
297.5685829936665
 31
0.0
  0
LINE
  5
210B
330
1F
100
AcDbEntity
  8
0
 62
     3
100
AcDbLine
 10
1367.510610164692
 20
297.5685829936665
 30
0.0
 11
1367.463444034691
 21
297.5589031836664
 31
0.0
  0
LINE
  5
210C
330
1F
100
AcDbEntity
  8
0
 62
     3
100
AcDbLine
 10
1367.463444034691
 20
297.5589031836664
 30
0.0
 11
1367.416732004692
 21
297.5378505236664
 31
0.0
  0
LINE
  5
210D
330
1F
100
AcDbEntity
  8
0
 62
     3
100
AcDbLine
 10
1367.416732004692
 20
297.5378505236664
 30
0.0
 11
1367.370835144692
 21
297.5055877536664
 31
0.0
  0
LINE
  5
210E
330
1F
100
AcDbEntity
  8
0
 62
     3
100
AcDbLine
 10
1367.370835144692
 20
297.5055877536664
 30
0.0
 11
1367.326108204692
 21
297.4623642436664
 31
0.0
  0
LINE
  5
210F
330
1F
100
AcDbEntity
  8
0
 62
     3
100
AcDbLine
 10
1367.326108204692
 20
297.4623642436664
 30
0.0
 11
1367.282896894691
 21
297.4085140836664
 31
0.0
  0
LINE
  5
2110
330
1F
100
AcDbEntity
  8
0
 62
     3
100
AcDbLine
 10
1367.282896894691
 20
297.4085140836664
 30
0.0
 11
1367.241535234692
 21
297.3444535136664
 31
0.0
  0
LINE
  5
2111
330
1F
100
AcDbEntity
  8
0
 62
     3
100
AcDbLine
 10
1367.241535234692
 20
297.3444535136664
 30
0.0
 11
1367.202342914692
 21
297.2706776936665
 31
0.0
  0
LINE
  5
2112
330
1F
100
AcDbEntity
  8
0
 62
     3
100
AcDbLine
 10
1367.202342914692
 20
297.2706776936665
 30
0.0
 11
1367.165622874692
 21
297.1877568636664
 31
0.0
  0
LINE
  5
2113
330
1F
100
AcDbEntity
  8
0
 62
     3
100
AcDbLine
 10
1367.165622874692
 20
297.1877568636664
 30
0.0
 11
1367.131658944692
 21
297.0963319536664
 31
0.0
  0
LINE
  5
2114
330
1F
100
AcDbEntity
  8
0
 62
     3
100
AcDbLine
 10
1367.131658944692
 20
297.0963319536664
 30
0.0
 11
1367.100713644691
 21
296.9971096536664
 31
0.0
  0
LINE
  5
2115
330
1F
100
AcDbEntity
  8
0
 62
     3
100
AcDbLine
 10
1367.100713644691
 20
296.9971096536664
 30
0.0
 11
1367.073026164692
 21
296.8908568836664
 31
0.0
  0
LINE
  5
2116
330
1F
100
AcDbEntity
  8
0
 62
     3
100
AcDbLine
 10
1367.073026164692
 20
296.8908568836664
 30
0.0
 11
1367.048810514692
 21
296.7783949236665
 31
0.0
  0
LINE
  5
2117
330
1F
100
AcDbEntity
  8
0
 62
     3
100
AcDbLine
 10
1367.048810514692
 20
296.7783949236665
 30
0.0
 11
1367.028253874692
 21
296.6605930436664
 31
0.0
  0
LINE
  5
2118
330
1F
100
AcDbEntity
  8
0
 62
     3
100
AcDbLine
 10
1367.028253874692
 20
296.6605930436664
 30
0.0
 11
1367.011515134692
 21
296.5383618036664
 31
0.0
  0
LINE
  5
2119
330
1F
100
AcDbEntity
  8
0
 62
     3
100
AcDbLine
 10
1367.011515134692
 20
296.5383618036664
 30
0.0
 11
1366.998723674692
 21
296.4126459836665
 31
0.0
  0
LINE
  5
211A
330
1F
100
AcDbEntity
  8
0
 62
     3
100
AcDbLine
 10
1366.998723674692
 20
296.4126459836665
 30
0.0
 11
1366.989978364691
 21
296.2844173036664
 31
0.0
  0
LINE
  5
211B
330
1F
100
AcDbEntity
  8
0
 62
     3
100
AcDbLine
 10
1366.989978364691
 20
296.2844173036664
 30
0.0
 11
1366.985346804692
 21
296.1546668936664
 31
0.0
  0
LINE
  5
211C
330
1F
100
AcDbEntity
  8
0
 62
     3
100
AcDbLine
 10
1366.985346804692
 20
296.1546668936664
 30
0.0
 11
1366.984864794692
 21
296.0243976636665
 31
0.0
  0
LINE
  5
211D
330
1F
100
AcDbEntity
  8
0
 62
     3
100
AcDbLine
 10
1366.984864794692
 20
296.0243976636665
 30
0.0
 11
1366.988536054692
 21
295.8946165436664
 31
0.0
  0
LINE
  5
211E
330
1F
100
AcDbEntity
  8
0
 62
     3
100
AcDbLine
 10
1366.988536054692
 20
295.8946165436664
 30
0.0
 11
1366.996332214692
 21
295.7663266536664
 31
0.0
  0
LINE
  5
211F
330
1F
100
AcDbEntity
  8
0
 62
     3
100
AcDbLine
 10
1366.996332214692
 20
295.7663266536664
 30
0.0
 11
1367.008193014692
 21
295.6405196136665
 31
0.0
  0
LINE
  5
2120
330
1F
100
AcDbEntity
  8
0
 62
     3
100
AcDbLine
 10
1367.008193014692
 20
295.6405196136665
 30
0.0
 11
1367.024026774692
 21
295.5181678436665
 31
0.0
  0
LINE
  5
2121
330
1F
100
AcDbEntity
  8
0
 62
     3
100
AcDbLine
 10
1367.024026774692
 20
295.5181678436665
 30
0.0
 11
1367.043711094692
 21
295.4002170736664
 31
0.0
  0
LINE
  5
2122
330
1F
100
AcDbEntity
  8
0
 62
     3
100
AcDbLine
 10
1367.043711094692
 20
295.4002170736664
 30
0.0
 11
1367.067093854692
 21
295.2875790036665
 31
0.0
  0
LINE
  5
2123
330
1F
100
AcDbEntity
  8
0
 62
     3
100
AcDbLine
 10
1367.067093854692
 20
295.2875790036665
 30
0.0
 11
1367.093994284692
 21
295.1811242436664
 31
0.0
  0
LINE
  5
2124
330
1F
100
AcDbEntity
  8
0
 62
     3
100
AcDbLine
 10
1367.093994284692
 20
295.1811242436664
 30
0.0
 11
1367.124204484692
 21
295.0816756536665
 31
0.0
  0
LINE
  5
2125
330
1F
100
AcDbEntity
  8
0
 62
     3
100
AcDbLine
 10
1367.124204484692
 20
295.0816756536665
 30
0.0
 11
1367.157490934692
 21
294.9900019236665
 31
0.0
  0
LINE
  5
2126
330
1F
100
AcDbEntity
  8
0
 62
     3
100
AcDbLine
 10
1367.157490934692
 20
294.9900019236665
 30
0.0
 11
1367.193596334692
 21
294.9068116236664
 31
0.0
  0
LINE
  5
2127
330
1F
100
AcDbEntity
  8
0
 62
     3
100
AcDbLine
 10
1367.193596334692
 20
294.9068116236664
 30
0.0
 11
1367.232241634692
 21
294.8327477936664
 31
0.0
  0
LINE
  5
2128
330
1F
100
AcDbEntity
  8
0
 62
     3
100
AcDbLine
 10
1367.232241634692
 20
294.8327477936664
 30
0.0
 11
1367.273128114691
 21
294.7683829036664
 31
0.0
  0
LINE
  5
2129
330
1F
100
AcDbEntity
  8
0
 62
     3
100
AcDbLine
 10
1367.273128114691
 20
294.7683829036664
 30
0.0
 11
1367.315939734692
 21
294.7142144536664
 31
0.0
  0
LINE
  5
212A
330
1F
100
AcDbEntity
  8
0
 62
     3
100
AcDbLine
 10
1367.315939734692
 20
294.7142144536664
 30
0.0
 11
1367.360345594692
 21
294.6706611336665
 31
0.0
  0
LINE
  5
212B
330
1F
100
AcDbEntity
  8
0
 62
     3
100
AcDbLine
 10
1367.360345594692
 20
294.6706611336665
 30
0.0
 11
1367.406002444691
 21
294.6380596036664
 31
0.0
  0
LINE
  5
212C
330
1F
100
AcDbEntity
  8
0
 62
     3
100
AcDbLine
 10
1367.406002444691
 20
294.6380596036664
 30
0.0
 11
1367.452557404692
 21
294.6166618436664
 31
0.0
  0
LINE
  5
212D
330
1F
100
AcDbEntity
  8
0
 62
     3
100
AcDbLine
 10
1367.452557404692
 20
294.6166618436664
 30
0.0
 11
1367.499650614692
 21
294.6066332636665
 31
0.0
  0
LINE
  5
212E
330
1F
100
AcDbEntity
  8
0
 62
     3
100
AcDbLine
 10
1367.499650614692
 20
294.6066332636665
 30
0.0
 11
1367.546918064691
 21
294.6080513636665
 31
0.0
  0
LINE
  5
212F
330
1F
100
AcDbEntity
  8
0
 62
     3
100
AcDbLine
 10
1367.546918064691
 20
294.6080513636665
 30
0.0
 11
1367.593994404692
 21
294.6209051836664
 31
0.0
  0
LINE
  5
2130
330
1F
100
AcDbEntity
  8
0
 62
     3
100
AcDbLine
 10
1367.593994404692
 20
294.6209051836664
 30
0.0
 11
1367.640515764692
 21
294.6450953836664
 31
0.0
  0
LINE
  5
2131
330
1F
100
AcDbEntity
  8
0
 62
     3
100
AcDbLine
 10
1367.640515764692
 20
294.6450953836664
 30
0.0
 11
1367.686122554692
 21
294.6804349636665
 31
0.0
  0
LINE
  5
2132
330
1F
100
AcDbEntity
  8
0
 62
     3
100
AcDbLine
 10
1367.686122554692
 20
294.6804349636665
 30
0.0
 11
1367.730462254691
 21
294.7266507836664
 31
0.0
  0
LINE
  5
2133
330
1F
100
AcDbEntity
  8
0
 62
     3
100
AcDbLine
 10
1367.730462254691
 20
294.7266507836664
 30
0.0
 11
1367.773192144692
 21
294.7833856236664
 31
0.0
  0
LINE
  5
2134
330
1F
100
AcDbEntity
  8
0
 62
     3
100
AcDbLine
 10
1367.773192144692
 20
294.7833856236664
 30
0.0
 11
1367.813981944691
 21
294.8502009336664
 31
0.0
  0
LINE
  5
2135
330
1F
100
AcDbEntity
  8
0
 62
     3
100
AcDbLine
 10
1367.813981944691
 20
294.8502009336664
 30
0.0
 11
1367.852516374691
 21
294.9265802836665
 31
0.0
  0
LINE
  5
2136
330
1F
100
AcDbEntity
  8
0
 62
     3
100
AcDbLine
 10
1367.852516374691
 20
294.9265802836665
 30
0.0
 11
1367.888497574692
 21
295.0119332936664
 31
0.0
  0
LINE
  5
2137
330
1F
100
AcDbEntity
  8
0
 62
     3
100
AcDbLine
 10
1367.888497574692
 20
295.0119332936664
 30
0.0
 11
1367.921647434692
 21
295.1056002236665
 31
0.0
  0
LINE
  5
2138
330
1F
100
AcDbEntity
  8
0
 62
     3
100
AcDbLine
 10
1367.921647434692
 20
295.1056002236665
 30
0.0
 11
1367.951709714692
 21
295.2068570836665
 31
0.0
  0
LINE
  5
2139
330
1F
100
AcDbEntity
  8
0
 62
     3
100
AcDbLine
 10
1367.951709714692
 20
295.2068570836665
 30
0.0
 11
1367.978452064692
 21
295.3149212036665
 31
0.0
  0
LINE
  5
213A
330
1F
100
AcDbEntity
  8
0
 62
     3
100
AcDbLine
 10
1367.978452064692
 20
295.3149212036665
 30
0.0
 11
1368.001667764692
 21
295.4289573136664
 31
0.0
  0
LINE
  5
213B
330
1F
100
AcDbEntity
  8
0
 62
     3
100
AcDbLine
 10
1368.001667764692
 20
295.4289573136664
 30
0.0
 11
1368.021177374692
 21
295.5480839636664
 31
0.0
  0
LINE
  5
213C
330
1F
100
AcDbEntity
  8
0
100
AcDbLine
 10
1407.5145046197
 20
165.3783081810959
 30
0.0
 11
1419.411463622507
 21
170.2919840616696
 31
0.0
1001
ACAD
1000
DSTYLE
1002
{
1070
   147
1040
0.625
1070
    77
1070
     0
1002
}
  0
LINE
  5
213D
330
1F
100
AcDbEntity
  8
0
  6
ByBlock
 62
     0
370
    -2
100
AcDbLine
 10
1407.770222558462
 20
164.7591656271947
 30
0.0
 11
1405.203831491974
 21
164.4239551558463
 31
0.0
  0
LINE
  5
213E
330
1F
100
AcDbEntity
  8
0
  6
ByBlock
 62
     0
370
    -2
100
AcDbLine
 10
1405.203831491974
 20
164.4239551558463
 30
0.0
 11
1407.258786680937
 21
165.997450734997
 31
0.0
  0
LINE
  5
213F
330
1F
100
AcDbEntity
  8
0
  6
ByBlock
 62
     0
370
    -2
100
AcDbLine
 10
1405.203831491974
 20
164.4239551558463
 30
0.0
 11
1407.5145046197
 21
165.3783081810959
 31
0.0
  0
LINE
  5
2140
330
1F
100
AcDbEntity
  8
0
100
AcDbLine
 10
1413.243410674576
 20
216.6788422223257
 30
0.0
 11
1420.097013396417
 21
222.0487307811624
 31
0.0
1001
ACAD
1000
DSTYLE
1002
{
1070
   147
1040
0.625
1070
    77
1070
     0
1002
}
  0
LINE
  5
2141
330
1F
100
AcDbEntity
  8
0
  6
ByBlock
 62
     0
370
    -2
100
AcDbLine
 10
1413.656554365026
 20
216.1515458566092
 30
0.0
 11
1411.275512433805
 21
215.1369678714242
 31
0.0
  0
LINE
  5
2142
330
1F
100
AcDbEntity
  8
0
  6
ByBlock
 62
     0
370
    -2
100
AcDbLine
 10
1411.275512433805
 20
215.1369678714242
 30
0.0
 11
1412.830266984127
 21
217.2061385880422
 31
0.0
  0
LINE
  5
2143
330
1F
100
AcDbEntity
  8
0
  6
ByBlock
 62
     0
370
    -2
100
AcDbLine
 10
1411.275512433805
 20
215.1369678714242
 30
0.0
 11
1413.243410674576
 21
216.6788422223257
 31
0.0
  0
TEXT
  5
2144
330
1F
100
AcDbEntity
  8
0
 62
     4
100
AcDbText
 10
1381.375512433805
 20
107.972199252485
 30
0.0
 40
3.0
  1
(53)
100
AcDbText
  0
LINE
  5
2145
330
1F
100
AcDbEntity
  8
0
  6
ByBlock
 62
     0
370
    -2
100
AcDbLine
 10
1409.875512433805
 20
108.017071752485
 30
0.0
 11
1412.375512433805
 21
107.347199252485
 31
0.0
  0
LINE
  5
2146
330
1F
100
AcDbEntity
  8
0
  6
ByBlock
 62
     0
370
    -2
100
AcDbLine
 10
1412.375512433805
 20
107.347199252485
 30
0.0
 11
1409.875512433805
 21
106.677326752485
 31
0.0
  0
LINE
  5
2147
330
1F
100
AcDbEntity
  8
0
  6
ByBlock
 62
     0
370
    -2
100
AcDbLine
 10
1412.375512433805
 20
107.347199252485
 30
0.0
 11
1409.875512433805
 21
107.347199252485
 31
0.0
  0
LINE
  5
2148
330
1F
100
AcDbEntity
  8
0
  6
ByBlock
 62
     0
370
    -2
100
AcDbLine
 10
1361.875512433805
 20
106.677326752485
 30
0.0
 11
1359.375512433805
 21
107.347199252485
 31
0.0
  0
LINE
  5
2149
330
1F
100
AcDbEntity
  8
0
  6
ByBlock
 62
     0
370
    -2
100
AcDbLine
 10
1359.375512433805
 20
107.347199252485
 30
0.0
 11
1361.875512433805
 21
108.017071752485
 31
0.0
  0
LINE
  5
214A
330
1F
100
AcDbEntity
  8
0
  6
ByBlock
 62
     0
370
    -2
100
AcDbLine
 10
1359.375512433805
 20
107.347199252485
 30
0.0
 11
1361.875512433805
 21
107.347199252485
 31
0.0
  0
TEXT
  5
214B
330
1F
100
AcDbEntity
  8
0
 62
     4
100
AcDbText
 10
1339.226339421046
 20
162.7191381353832
 30
0.0
 40
3.0
  1
(100.8)
 50
90.0
100
AcDbText
  0
LINE
  5
214C
330
1F
100
AcDbEntity
  8
0
  6
ByBlock
 62
     0
370
    -2
100
AcDbLine
 10
1340.521211921046
 20
122.2948050823972
 30
0.0
 11
1339.851339421046
 21
119.7948050823972
 31
0.0
  0
LINE
  5
214D
330
1F
100
AcDbEntity
  8
0
  6
ByBlock
 62
     0
370
    -2
100
AcDbLine
 10
1339.851339421046
 20
119.7948050823972
 30
0.0
 11
1339.181466921046
 21
122.2948050823972
 31
0.0
  0
LINE
  5
214E
330
1F
100
AcDbEntity
  8
0
  6
ByBlock
 62
     0
370
    -2
100
AcDbLine
 10
1339.851339421046
 20
119.7948050823972
 30
0.0
 11
1339.851339421046
 21
122.2948050823972
 31
0.0
  0
LINE
  5
214F
330
1F
100
AcDbEntity
  8
0
  6
ByBlock
 62
     0
370
    -2
100
AcDbLine
 10
1339.181466921046
 20
218.0970860938857
 30
0.0
 11
1339.851339421046
 21
220.5970860938857
 31
0.0
  0
LINE
  5
2150
330
1F
100
AcDbEntity
  8
0
  6
ByBlock
 62
     0
370
    -2
100
AcDbLine
 10
1339.851339421046
 20
220.5970860938857
 30
0.0
 11
1340.521211921046
 21
218.0970860938857
 31
0.0
  0
LINE
  5
2151
330
1F
100
AcDbEntity
  8
0
  6
ByBlock
 62
     0
370
    -2
100
AcDbLine
 10
1339.851339421046
 20
220.5970860938857
 30
0.0
 11
1339.851339421046
 21
218.0970860938857
 31
0.0
  0
TEXT
  5
2152
330
1F
100
AcDbEntity
  8
0
 62
     4
100
AcDbText
 10
1348.380076643119
 20
167.6277518933106
 30
0.0
 40
3.0
  1
(57.2)
 50
90.0
100
AcDbText
  0
LINE
  5
2153
330
1F
100
AcDbEntity
  8
0
  6
ByBlock
 62
     0
370
    -2
100
AcDbLine
 10
1348.335204143119
 20
200.9727304409033
 30
0.0
 11
1349.005076643119
 21
203.4727304409033
 31
0.0
  0
LINE
  5
2154
330
1F
100
AcDbEntity
  8
0
  6
ByBlock
 62
     0
370
    -2
100
AcDbLine
 10
1349.005076643119
 20
203.4727304409033
 30
0.0
 11
1349.67494914312
 21
200.9727304409033
 31
0.0
  0
LINE
  5
2155
330
1F
100
AcDbEntity
  8
0
  6
ByBlock
 62
     0
370
    -2
100
AcDbLine
 10
1349.005076643119
 20
203.4727304409033
 30
0.0
 11
1349.005076643119
 21
200.9727304409033
 31
0.0
  0
LINE
  5
2156
330
1F
100
AcDbEntity
  8
0
  6
ByBlock
 62
     0
370
    -2
100
AcDbLine
 10
1349.67494914312
 20
148.7948050823972
 30
0.0
 11
1349.005076643119
 21
146.2948050823972
 31
0.0
  0
LINE
  5
2157
330
1F
100
AcDbEntity
  8
0
  6
ByBlock
 62
     0
370
    -2
100
AcDbLine
 10
1349.005076643119
 20
146.2948050823972
 30
0.0
 11
1348.335204143119
 21
148.7948050823972
 31
0.0
  0
LINE
  5
2158
330
1F
100
AcDbEntity
  8
0
  6
ByBlock
 62
     0
370
    -2
100
AcDbLine
 10
1349.005076643119
 20
146.2948050823972
 30
0.0
 11
1349.005076643119
 21
148.7948050823972
 31
0.0
  0
TEXT
  5
2159
330
1F
100
AcDbEntity
  8
0
 62
     4
100
AcDbText
 10
1392.354706148024
 20
150.8767968488359
 30
0.0
 40
3.0
  1
\U+220548
 50
30.75018940765376
100
AcDbText
  0
LINE
  5
215A
330
1F
100
AcDbEntity
  8
0
  6
ByBlock
 62
     0
370
    -2
100
AcDbLine
 10
1404.010210860204
 20
157.863359103959
 30
0.0
 11
1406.501225744299
 21
158.565907332532
 31
0.0
  0
LINE
  5
215B
330
1F
100
AcDbEntity
  8
0
  6
ByBlock
 62
     0
370
    -2
100
AcDbLine
 10
1406.501225744299
 20
158.565907332532
 30
0.0
 11
1404.695217022042
 21
156.7119759256603
 31
0.0
  0
LINE
  5
215C
330
1F
100
AcDbEntity
  8
0
  6
ByBlock
 62
     0
370
    -2
100
AcDbLine
 10
1406.501225744299
 20
158.565907332532
 30
0.0
 11
1404.352713941123
 21
157.2876675148096
 31
0.0
  0
LINE
  5
215D
330
1F
100
AcDbEntity
  8
0
  6
ByBlock
 62
     0
370
    -2
100
AcDbLine
 10
1367.740814007405
 20
134.7262510608353
 30
0.0
 11
1365.24979912331
 21
134.0237028322622
 31
0.0
  0
LINE
  5
215E
330
1F
100
AcDbEntity
  8
0
  6
ByBlock
 62
     0
370
    -2
100
AcDbLine
 10
1365.24979912331
 20
134.0237028322622
 30
0.0
 11
1367.055807845568
 21
135.877634239134
 31
0.0
  0
LINE
  5
215F
330
1F
100
AcDbEntity
  8
0
  6
ByBlock
 62
     0
370
    -2
100
AcDbLine
 10
1365.24979912331
 20
134.0237028322622
 30
0.0
 11
1367.398310926486
 21
135.3019426499846
 31
0.0
  0
TEXT
  5
2160
330
1F
100
AcDbEntity
  8
0
 62
     4
100
AcDbText
 10
1457.677573258487
 20
108.7619592342963
 30
0.0
 40
3.0
  1
25
100
AcDbText
  0
LINE
  5
2161
330
1F
100
AcDbEntity
  8
0
  6
ByBlock
 62
     0
370
    -2
100
AcDbLine
 10
1469.869314020994
 20
108.8068317342963
 30
0.0
 11
1472.369314020994
 21
108.1369592342963
 31
0.0
  0
LINE
  5
2162
330
1F
100
AcDbEntity
  8
0
  6
ByBlock
 62
     0
370
    -2
100
AcDbLine
 10
1472.369314020994
 20
108.1369592342963
 30
0.0
 11
1469.869314020994
 21
107.4670867342963
 31
0.0
  0
LINE
  5
2163
330
1F
100
AcDbEntity
  8
0
  6
ByBlock
 62
     0
370
    -2
100
AcDbLine
 10
1472.369314020994
 20
108.1369592342963
 30
0.0
 11
1469.869314020994
 21
108.1369592342963
 31
0.0
  0
LINE
  5
2164
330
1F
100
AcDbEntity
  8
0
  6
ByBlock
 62
     0
370
    -2
100
AcDbLine
 10
1449.869314020994
 20
107.4670867342963
 30
0.0
 11
1447.369314020994
 21
108.1369592342963
 31
0.0
  0
LINE
  5
2165
330
1F
100
AcDbEntity
  8
0
  6
ByBlock
 62
     0
370
    -2
100
AcDbLine
 10
1447.369314020994
 20
108.1369592342963
 30
0.0
 11
1449.869314020994
 21
108.8068317342963
 31
0.0
  0
LINE
  5
2166
330
1F
100
AcDbEntity
  8
0
  6
ByBlock
 62
     0
370
    -2
100
AcDbLine
 10
1447.369314020994
 20
108.1369592342963
 30
0.0
 11
1449.869314020994
 21
108.1369592342963
 31
0.0
  0
TEXT
  5
2167
330
1F
100
AcDbEntity
  8
0
 62
     4
100
AcDbText
 10
1455.684574512902
 20
237.410429547395
 30
0.0
 40
3.0
  1
\U+220532
100
AcDbText
  0
LINE
  5
2168
330
1F
100
AcDbEntity
  8
0
  6
ByBlock
 62
     0
370
    -2
100
AcDbLine
 10
1446.369314020994
 20
236.115557047395
 30
0.0
 11
1443.869314020994
 21
236.785429547395
 31
0.0
  0
LINE
  5
2169
330
1F
100
AcDbEntity
  8
0
  6
ByBlock
 62
     0
370
    -2
100
AcDbLine
 10
1443.869314020994
 20
236.785429547395
 30
0.0
 11
1446.369314020994
 21
237.455302047395
 31
0.0
  0
LINE
  5
216A
330
1F
100
AcDbEntity
  8
0
  6
ByBlock
 62
     0
370
    -2
100
AcDbLine
 10
1443.869314020994
 20
236.785429547395
 30
0.0
 11
1446.369314020994
 21
236.785429547395
 31
0.0
  0
LINE
  5
216B
330
1F
100
AcDbEntity
  8
0
  6
ByBlock
 62
     0
370
    -2
100
AcDbLine
 10
1473.369314020994
 20
237.455302047395
 30
0.0
 11
1475.869314020994
 21
236.785429547395
 31
0.0
  0
LINE
  5
216C
330
1F
100
AcDbEntity
  8
0
  6
ByBlock
 62
     0
370
    -2
100
AcDbLine
 10
1475.869314020994
 20
236.785429547395
 30
0.0
 11
1473.369314020994
 21
236.115557047395
 31
0.0
  0
LINE
  5
216D
330
1F
100
AcDbEntity
  8
0
  6
ByBlock
 62
     0
370
    -2
100
AcDbLine
 10
1475.869314020994
 20
236.785429547395
 30
0.0
 11
1473.369314020994
 21
236.785429547395
 31
0.0
  0
TEXT
  5
216E
330
1F
100
AcDbEntity
  8
0
 62
     4
100
AcDbText
 10
1456.168512167397
 20
230.737626651027
 30
0.0
 40
3.0
  1
\U+220525
100
AcDbText
  0
LINE
  5
216F
330
1F
100
AcDbEntity
  8
0
  6
ByBlock
 62
     0
370
    -2
100
AcDbLine
 10
1449.869314020994
 20
229.442754151027
 30
0.0
 11
1447.369314020994
 21
230.112626651027
 31
0.0
  0
LINE
  5
2170
330
1F
100
AcDbEntity
  8
0
  6
ByBlock
 62
     0
370
    -2
100
AcDbLine
 10
1447.369314020994
 20
230.112626651027
 30
0.0
 11
1449.869314020994
 21
230.7824991510269
 31
0.0
  0
LINE
  5
2171
330
1F
100
AcDbEntity
  8
0
  6
ByBlock
 62
     0
370
    -2
100
AcDbLine
 10
1447.369314020994
 20
230.112626651027
 30
0.0
 11
1449.869314020994
 21
230.112626651027
 31
0.0
  0
LINE
  5
2172
330
1F
100
AcDbEntity
  8
0
  6
ByBlock
 62
     0
370
    -2
100
AcDbLine
 10
1469.869314020994
 20
230.7824991510269
 30
0.0
 11
1472.369314020994
 21
230.112626651027
 31
0.0
  0
LINE
  5
2173
330
1F
100
AcDbEntity
  8
0
  6
ByBlock
 62
     0
370
    -2
100
AcDbLine
 10
1472.369314020994
 20
230.112626651027
 30
0.0
 11
1469.869314020994
 21
229.442754151027
 31
0.0
  0
LINE
  5
2174
330
1F
100
AcDbEntity
  8
0
  6
ByBlock
 62
     0
370
    -2
100
AcDbLine
 10
1472.369314020994
 20
230.112626651027
 30
0.0
 11
1469.869314020994
 21
230.112626651027
 31
0.0
  0
LINE
  5
2175
330
1F
100
AcDbEntity
  8
0
100
AcDbLine
 10
1465.676529783696
 20
207.9890907930011
 30
0.0
 11
1480.036704518459
 21
217.3992127106177
 31
0.0
1001
ACAD
1000
DSTYLE
1002
{
1070
   341
1005
F58
1070
   147
1040
0.625
1070
    77
1070
     0
1002
}
  0
LINE
  5
2176
330
1F
100
AcDbEntity
  8
0
100
AcDbLine
 10
1480.036704518459
 20
217.3992127106177
 30
0.0
 11
1482.536704518459
 21
217.3992127106177
 31
0.0
1001
ACAD
1000
DSTYLE
1002
{
1070
   341
1005
F58
1070
   147
1040
0.625
1070
    77
1070
     0
1002
}
  0
ARC
  5
2178
330
1F
100
AcDbEntity
  8
0
  6
ByBlock
 62
     0
100
AcDbCircle
 10
1465.676529783696
 20
207.9890907930011
 30
0.0
 40
0.1562499999999998
100
AcDbArc
 50
33.23654467706373
 51
213.2365446770637
  0
ARC
  5
2179
330
1F
100
AcDbEntity
  8
0
  6
ByBlock
 62
     0
100
AcDbCircle
 10
1465.676529783696
 20
207.9890907930011
 30
0.0
 40
0.1562499999999998
100
AcDbArc
 50
213.2365446770637
 51
33.23654467706373
  0
ENDSEC
  0
SECTION
  2
OBJECTS
  0
DICTIONARY
  5
C
330
0
100
AcDbDictionary
281
     1
  3
ACAD_2007HEADERVARS_RT
350
217E
  3
ACAD_COLOR
350
73
  3
ACAD_GROUP
350
D
  3
ACAD_LAYOUT
350
1A
  3
ACAD_MATERIAL
350
72
  3
ACAD_MLEADERSTYLE
350
168
  3
ACAD_MLINESTYLE
350
17
  3
ACAD_PLOTSETTINGS
350
19
  3
ACAD_PLOTSTYLENAME
350
E
  3
ACAD_SCALELIST
350
156
  3
ACAD_TABLESTYLE
350
86
  3
ACAD_VISUALSTYLE
350
99
  3
ACDB_RECOMPOSE_DATA
350
217C
  3
AcDbVariableDictionary
350
66
  3
DWGPROPS
350
217D
  0
DICTIONARY
  5
10A9
330
8
100
AcDbDictionary
280
     1
281
     1
  0
DICTIONARY
  5
DD
330
2
100
AcDbDictionary
280
     1
281
     1
  3
ACAD_LAYERSTATES
360
DE
  0
DICTIONARY
  5
103B
330
10
100
AcDbDictionary
280
     1
281
     1
  3
ADSK_XREC_LAYER_RECONCILED
360
103C
  0
DICTIONARY
  5
31A
330
1F
100
AcDbDictionary
280
     1
281
     1
  3
ACAD_SORTENTS
360
31B
  0
DICTIONARY
  5
CFF
330
C34
100
AcDbDictionary
280
     1
281
     1
  3
ACAD_SORTENTS
360
D00
  0
DICTIONARY
  5
1486
330
1481
100
AcDbDictionary
280
     1
281
     1
  3
ACAD_SORTENTS
360
1487
  0
DICTIONARY
  5
21BE
330
203F
100
AcDbDictionary
280
     1
281
     1
  3
ACAD_MTEXT_RT
360
21BF
  0
DICTIONARY
  5
217E
102
{ACAD_REACTORS
330
C
102
}
330
C
100
AcDbDictionary
281
     1
  3
DIMARCSYM
350
2180
  3
DIMFXL
350
217F
  3
DIMJOGANG
350
2181
  0
DICTIONARY
  5
73
102
{ACAD_REACTORS
330
C
102
}
330
C
100
AcDbDictionary
281
     1
  0
DICTIONARY
  5
D
102
{ACAD_REACTORS
330
C
102
}
330
C
100
AcDbDictionary
281
     1
  0
DICTIONARY
  5
1A
102
{ACAD_REACTORS
330
C
102
}
330
C
100
AcDbDictionary
281
     1
  3
Model
350
22
  3
レイアウト1
350
59
  3
レイアウト2
350
5E
  0
DICTIONARY
  5
72
102
{ACAD_REACTORS
330
C
102
}
330
C
100
AcDbDictionary
281
     1
  3
ByBlock
350
97
  3
ByLayer
350
96
  3
Global
350
98
  0
DICTIONARY
  5
168
102
{ACAD_REACTORS
330
C
102
}
330
C
100
AcDbDictionary
281
     1
  3
Standard
350
169
  0
DICTIONARY
  5
17
102
{ACAD_REACTORS
330
C
102
}
330
C
100
AcDbDictionary
281
     1
  3
Standard
350
18
  0
DICTIONARY
  5
19
102
{ACAD_REACTORS
330
C
102
}
330
C
100
AcDbDictionary
281
     1
  0
ACDBDICTIONARYWDFLT
  5
E
102
{ACAD_REACTORS
330
C
102
}
330
C
100
AcDbDictionary
281
     1
  3
Normal
350
F
100
AcDbDictionaryWithDefault
340
F
  0
DICTIONARY
  5
156
102
{ACAD_REACTORS
330
C
102
}
330
C
100
AcDbDictionary
281
     1
  3
A0
350
157
  3
A1
350
158
  3
A2
350
159
  3
A3
350
15A
  3
A4
350
15B
  3
A5
350
15C
  3
A6
350
15D
  3
A7
350
15E
  3
A8
350
15F
  3
A9
350
160
  3
B0
350
161
  3
B1
350
162
  3
B2
350
163
  3
B3
350
164
  3
B4
350
165
  3
B5
350
166
  3
B6
350
167
  0
DICTIONARY
  5
86
102
{ACAD_REACTORS
330
C
102
}
330
C
100
AcDbDictionary
281
     1
  3
Standard
350
87
  3
部品表
350
D97
  0
DICTIONARY
  5
99
102
{ACAD_REACTORS
330
C
102
}
330
C
100
AcDbDictionary
281
     1
  3
2dWireframe
350
9F
  3
3D Hidden
350
A1
  3
3dWireframe
350
A0
  3
Basic
350
9E
  3
Brighten
350
A5
  3
ColorChange
350
A9
  3
Conceptual
350
A2
  3
Dim
350
A4
  3
EdgeColorOff
350
155
  3
Facepattern
350
A8
  3
Flat
350
9A
  3
FlatWithEdges
350
9B
  3
Gouraud
350
9C
  3
GouraudWithEdges
350
9D
  3
Hidden
350
14D
  3
JitterOff
350
153
  3
Linepattern
350
A7
  3
OverhangOff
350
154
  3
Realistic
350
A3
  3
Shaded
350
152
  3
Shaded with edges
350
151
  3
Shades of Gray
350
14E
  3
Sketchy
350
14F
  3
Thicken
350
A6
  3
Wireframe
350
14C
  3
X-Ray
350
150
  0
XRECORD
  5
217C
102
{ACAD_REACTORS
330
C
102
}
330
C
100
AcDbXrecord
280
     1
 90
        1
330
87
330
D97
  0
DICTIONARY
  5
66
102
{ACAD_REACTORS
330
C
102
}
330
C
100
AcDbDictionary
281
     1
  3
CANNOSCALE
350
245
  3
CMLEADERSTYLE
350
243
  3
CTABLESTYLE
350
89
  3
DIMASSOC
350
67
  3
HIDETEXT
350
6B
  3
INDEXCTL
350
10F1
  3
LAYEREVAL
350
247
  3
LAYERNOTIFY
350
248
  3
LIGHTINGUNITS
350
246
  3
MSLTSCALE
350
244
  3
SORTENTS
350
10F0
  3
XCLIPFRAME
350
1CCA
  0
XRECORD
  5
217D
102
{ACAD_REACTORS
330
C
102
}
330
C
100
AcDbXrecord
280
     1
  1
DWGPROPS COOKIE
  2

  3

  4

  6

  7

  8
imamura
  9

300
=
301
=
302
=
303
=
304
=
305
=
306
=
307
=
308
=
309
=
 40
0.4541795138888889
 41
2456745.74496919
 42
2457423.588525347
  1

 90
        0
  0
DICTIONARY
  5
DE
102
{ACAD_REACTORS
330
DD
102
}
330
DD
100
AcDbDictionary
281
     1
  0
XRECORD
  5
103C
102
{ACAD_REACTORS
330
103B
102
}
330
103B
100
AcDbXrecord
280
     1
290
     1
  0
SORTENTSTABLE
  5
31B
102
{ACAD_REACTORS
330
31A
102
}
330
31A
100
AcDbSortentsTable
330
1F
331
16D6
  5
1D77
331
FDE
  5
1003
331
FDA
  5
FFF
331
2134
  5
FD8
331
F6C
  5
EC9
331
1015
  5
1D4D
331
216F
  5
210F
331
FD6
  5
FFB
331
2130
  5
FD4
331
1D74
  5
20DD
331
F68
  5
EBC
331
FA7
  5
F8C
331
1011
  5
1D3D
331
216B
  5
2116
331
FD2
  5
FF7
331
212C
  5
FD0
331
FA3
  5
F88
331
F64
  5
EB8
331
2128
  5
FCC
331
F60
  5
EB4
331
1D68
  5
1DD2
331
1D35
  5
1EF2
331
1D31
  5
1EEE
331
20F5
  5
2104
331
100D
  5
1D39
331
2167
  5
211C
331
FCE
  5
FF3
331
F9F
  5
F84
331
1009
  5
1D35
331
2163
  5
2128
331
FCA
  5
FEF
331
2124
  5
FC8
331
F9B
  5
F80
331
1005
  5
1D31
331
215F
  5
2130
331
FC6
  5
FEB
331
2120
  5
FC3
331
F97
  5
F7C
331
1001
  5
1D2D
331
215B
  5
2135
331
FC2
  5
FE7
331
211C
  5
FBF
331
F93
  5
F78
331
1D5C
  5
20D5
331
2118
  5
FBB
331
1D2D
  5
1EEA
331
1D29
  5
1EE3
331
1D25
  5
1DFF
331
20E9
  5
211E
331
1D21
  5
1DF7
331
1FFB
  5
216F
331
FFD
  5
1D28
331
2157
  5
2154
331
FBE
  5
FE3
331
F8F
  5
F74
331
2153
  5
2156
331
FF9
  5
1D24
331
2114
  5
FB7
331
F8B
  5
F70
331
FF5
  5
1D1E
331
214F
  5
215D
331
FB6
  5
F9B
331
1DCE
  5
20E6
331
2110
  5
FB3
331
F87
  5
F6C
331
FF1
  5
1D14
331
214B
  5
2163
331
FB2
  5
F97
331
1DCA
  5
20D9
331
1D50
  5
1E03
331
210C
  5
FAF
331
F83
  5
F68
331
1E05
  5
20FE
331
2108
  5
FAB
331
1E01
  5
1E06
331
1D15
  5
1DCB
331
20D9
  5
215B
331
1D11
  5
1D7E
331
1EF4
  5
214C
331
1EF0
  5
2148
331
1027
  5
1D74
331
1023
  5
1D66
331
101F
  5
1D5B
331
FED
  5
1D10
331
2147
  5
216C
331
F7F
  5
F64
331
FAE
  5
F93
331
101B
  5
1D55
331
FE9
  5
16D6
331
2143
  5
2174
331
2104
  5
FA7
331
F7B
  5
F60
331
FAA
  5
F8F
331
213F
  5
2178
331
FE5
  5
1009
331
2100
  5
FA3
331
F77
  5
F5C
331
FE1
  5
1005
331
213B
  5
FDF
331
2176
  5
20ED
331
1D40
  5
20CF
331
F73
  5
F47
331
2172
  5
2106
331
1D7B
  5
20E1
331
1DF5
  5
20F2
331
1D3C
  5
1FFB
331
1D38
  5
1EF5
331
F5D
  5
EAF
331
1EEC
  5
2144
331
1EE8
  5
2140
331
1EE4
  5
213F
331
16D5
  5
16D7
331
FDD
  5
1002
331
F6F
  5
F03
331
2137
  5
FDB
331
FD9
  5
FFE
331
2133
  5
FD7
331
1D77
  5
20DE
331
F6B
  5
EC8
331
1014
  5
1D40
331
216E
  5
2112
331
FD5
  5
FFA
331
212F
  5
FD3
331
F67
  5
EBB
331
FA6
  5
F8B
331
1010
  5
1D3C
331
216A
  5
211B
331
FD1
  5
FF6
331
212B
  5
FCF
331
FA2
  5
F87
331
F63
  5
EB7
331
1D34
  5
1EF1
331
1D30
  5
1EED
331
20F4
  5
2100
331
20F0
  5
2115
331
100C
  5
1D38
331
2166
  5
2122
331
FCD
  5
FF2
331
2127
  5
FCB
331
F9E
  5
F83
331
1008
  5
1D34
331
2162
  5
2124
331
FC9
  5
FEE
331
1D67
  5
1DCC
331
2123
  5
FC7
331
F9A
  5
F7F
331
1004
  5
1D30
331
215E
  5
212F
331
FC5
  5
FEA
331
211F
  5
FC2
331
F96
  5
F7B
331
1000
  5
1D2C
331
215A
  5
2134
331
FC1
  5
FE6
331
211B
  5
FBE
331
F92
  5
F77
331
1D5B
  5
20D4
331
1D2C
  5
1EE9
331
1D28
  5
1EE2
331
1D24
  5
1DFD
331
20E8
  5
211D
331
20E4
  5
212A
331
1FFA
  5
216E
331
20E0
  5
2152
331
FFC
  5
1D27
331
2156
  5
2153
331
FBD
  5
FE2
331
2117
  5
FBA
331
F8E
  5
F73
331
FF8
  5
1D23
331
2152
  5
2159
331
2113
  5
FB6
331
F8A
  5
F6F
331
FB9
  5
F9E
331
FF4
  5
1D1B
331
214E
  5
2162
331
FB5
  5
F9A
331
1DCD
  5
20E5
331
210F
  5
FB2
331
F86
  5
F6B
331
FF0
  5
1D13
331
214A
  5
2169
331
FB1
  5
F96
331
1DC9
  5
1E02
331
210B
  5
FAE
331
F82
  5
F67
331
1E04
  5
20FA
331
1E00
  5
20F5
331
1D18
  5
1DCD
331
1D14
  5
1DCA
331
20D8
  5
215A
331
1D10
  5
1D7D
331
20D4
  5
2166
331
1EF7
  5
214F
331
1EF3
  5
214B
331
1EB0
  5
213C
331
1022
  5
1D5E
331
101E
  5
1D5A
331
FEC
  5
1D0F
331
2146
  5
216B
331
2107
  5
FAA
331
F7E
  5
F63
331
FAD
  5
F92
331
101A
  5
1D53
331
FE8
  5
121E
331
2142
  5
2173
331
2103
  5
FA6
331
F7A
  5
F5F
331
FA9
  5
F8E
331
213E
  5
2177
331
FE4
  5
1008
331
1DFC
  5
20F8
331
2179
  5
20EB
331
20FF
  5
FA2
331
F76
  5
F4C
331
213A
  5
FDE
331
2175
  5
20EC
331
1D7E
  5
20E4
331
1D3F
  5
20CE
331
F72
  5
F46
331
2171
  5
2111
331
1DF4
  5
20F1
331
1D3B
  5
1FFA
331
F5C
  5
EAE
331
1EEF
  5
2147
331
1EEB
  5
2143
331
1EE3
  5
213E
331
FDC
  5
1001
331
2136
  5
FDA
331
F6E
  5
EE2
331
1017
  5
1D4F
331
FD8
  5
FFD
331
2132
  5
FD6
331
F6A
  5
EBE
331
1013
  5
1D3F
331
216D
  5
2118
331
FD4
  5
FF9
331
212E
  5
FD2
331
1D72
  5
20DC
331
F66
  5
EBA
331
FA5
  5
F8A
331
2169
  5
211A
331
16D9
  5
1D7B
331
FD0
  5
FF5
331
212A
  5
FCE
331
FA1
  5
F86
331
F62
  5
EB6
331
1D6A
  5
1DF4
331
1D37
  5
1EF4
331
1D33
  5
1EF0
331
100F
  5
1D3B
331
100B
  5
1D37
331
2165
  5
2121
331
FCC
  5
FF1
331
2126
  5
FCA
331
F9D
  5
F82
331
1007
  5
1D33
331
2161
  5
2123
331
FC8
  5
FED
331
1D66
  5
1E04
331
2122
  5
FC6
331
F99
  5
F7E
331
1003
  5
1D2F
331
215D
  5
212E
331
FC4
  5
FE9
331
211E
  5
FC1
331
F95
  5
F7A
331
2159
  5
2137
331
FC0
  5
FE5
331
211A
  5
FBD
331
F91
  5
F76
331
1D5A
  5
20D3
331
1D2F
  5
1EEC
331
1D2B
  5
1EE8
331
20EF
  5
2114
331
1D27
  5
1EB0
331
1D23
  5
1DFC
331
1FFD
  5
2171
331
FFF
  5
1D2A
331
FFB
  5
1D26
331
2155
  5
2158
331
FBC
  5
FE1
331
2116
  5
FB9
331
F8D
  5
F72
331
FF7
  5
1D22
331
2151
  5
215F
331
2112
  5
FB5
331
F89
  5
F6E
331
FB8
  5
F9D
331
FF3
  5
1D18
331
214D
  5
2161
331
FB4
  5
F99
331
1D52
  5
1E05
331
210E
  5
FB1
331
F85
  5
F6A
331
2149
  5
2168
331
FB0
  5
F95
331
1D4E
  5
20D1
331
210A
  5
FAD
331
F81
  5
F66
331
1E03
  5
20F9
331
1D1B
  5
1DD5
331
20DF
  5
2151
331
1D13
  5
1DC9
331
20D3
  5
2165
331
1EF6
  5
214E
331
1EF2
  5
214A
331
1025
  5
1D72
331
1021
  5
1D5D
331
FEF
  5
1D12
331
101D
  5
1D58
331
FEB
  5
16D9
331
2145
  5
216A
331
2106
  5
FA9
331
F7D
  5
F62
331
FAC
  5
F91
331
1019
  5
1D51
331
FE7
  5
100B
331
2141
  5
2172
331
1DFF
  5
20F6
331
2102
  5
FA5
331
F79
  5
F5E
331
FA8
  5
F8D
331
213D
  5
2176
331
FE3
  5
1007
331
1DFB
  5
20F7
331
2178
  5
20EA
331
20FE
  5
FA1
331
F75
  5
F4B
331
2139
  5
FDD
331
2174
  5
210E
331
20FA
  5
20EE
331
1D7D
  5
20E3
331
F71
  5
F45
331
1DF7
  5
20F3
331
1D3E
  5
1FFD
331
2170
  5
2110
331
1D79
  5
20E0
331
1DF3
  5
20D6
331
1D3A
  5
1EF7
331
F5F
  5
EB3
331
1D0F
  5
1D7C
331
1EEE
  5
2146
331
1EEA
  5
2142
331
1EE2
  5
213D
331
16D7
  5
1D78
331
FDF
  5
1004
331
FDB
  5
1000
331
2135
  5
FD9
331
F6D
  5
ECA
331
1016
  5
1D4E
331
FD7
  5
FFC
331
2131
  5
FD5
331
1DEF
  5
20EF
331
F69
  5
EBD
331
1012
  5
1D3E
331
216C
  5
2117
331
FD3
  5
FF8
331
212D
  5
FD1
331
FA4
  5
F89
331
1D71
  5
20DB
331
F65
  5
EB9
331
2168
  5
2119
331
16D8
  5
1D79
331
2129
  5
FCD
331
FA0
  5
F85
331
1D6D
  5
20DA
331
F61
  5
EB5
331
1D69
  5
1DF6
331
1D36
  5
1EF3
331
1D32
  5
1EEF
331
20F6
  5
2105
331
100E
  5
1D3A
331
FCF
  5
FF4
331
100A
  5
1D36
331
2164
  5
2120
331
FCB
  5
FF0
331
2125
  5
FC9
331
F9C
  5
F81
331
1006
  5
1D32
331
2160
  5
2129
331
FC7
  5
FEC
331
2121
  5
FC4
331
F98
  5
F7D
331
1002
  5
1D2E
331
215C
  5
2136
331
FC3
  5
FE8
331
211D
  5
FC0
331
F94
  5
F79
331
2158
  5
2155
331
2119
  5
FBC
331
F90
  5
F75
331
1D59
  5
20D2
331
1D2E
  5
1EEB
331
1D2A
  5
1EE4
331
20EE
  5
2113
331
1D26
  5
1E01
331
20EA
  5
211F
331
1D22
  5
1DFB
331
1FFC
  5
2170
331
FFE
  5
1D29
331
FBF
  5
FE4
331
FFA
  5
1D25
331
2154
  5
2157
331
FBB
  5
FE0
331
2115
  5
FB8
331
F8C
  5
F71
331
FF6
  5
1D21
331
2150
  5
215E
331
2111
  5
FB4
331
F88
  5
F6D
331
FB7
  5
F9C
331
FF2
  5
1D15
331
214C
  5
2160
331
FB3
  5
F98
331
1DCB
  5
20D8
331
210D
  5
FB0
331
F84
  5
F69
331
2148
  5
2167
331
1E06
  5
20FF
331
1D4D
  5
20D0
331
2109
  5
FAC
331
F80
  5
F65
331
1E02
  5
20F0
331
1D1E
  5
1DF5
331
20DE
  5
2150
331
20DA
  5
215C
331
1D12
  5
1DC8
331
20D2
  5
2164
331
1EF5
  5
214D
331
1EF1
  5
2149
331
1024
  5
1D6D
331
1020
  5
1D5C
331
FEE
  5
1D11
331
FAF
  5
F94
331
101C
  5
1D56
331
FEA
  5
16D8
331
2144
  5
216D
331
2105
  5
FA8
331
F7C
  5
F61
331
FAB
  5
F90
331
1018
  5
1D50
331
2140
  5
2175
331
FE6
  5
100A
331
2101
  5
FA4
331
F78
  5
F5D
331
213C
  5
2179
331
FE2
  5
1006
331
1DFA
  5
20F4
331
20FD
  5
FA0
331
F74
  5
F48
331
2138
  5
FDC
331
2173
  5
210A
331
1D7C
  5
20E2
331
F70
  5
F1B
331
1D3D
  5
1FFC
331
1D78
  5
20DF
331
1DF2
  5
20D7
331
1D39
  5
1EF6
331
1EED
  5
2145
331
1EE9
  5
2141
  0
SORTENTSTABLE
  5
D00
102
{ACAD_REACTORS
330
CFF
102
}
330
CFF
100
AcDbSortentsTable
330
C34
  0
SORTENTSTABLE
  5
1487
102
{ACAD_REACTORS
330
1486
102
}
330
1486
100
AcDbSortentsTable
330
1481
  0
XRECORD
  5
21BF
102
{ACAD_REACTORS
330
21BE
102
}
330
21BE
100
AcDbXrecord
280
     1
 40
2420.0
  1
\U+220548
  0
XRECORD
  5
2180
102
{ACAD_REACTORS
330
217E
102
}
330
217E
100
AcDbXrecord
280
     1
 70
     2
  0
XRECORD
  5
217F
102
{ACAD_REACTORS
330
217E
102
}
330
217E
100
AcDbXrecord
280
     1
 40
1.25
  0
XRECORD
  5
2181
102
{ACAD_REACTORS
330
217E
102
}
330
217E
100
AcDbXrecord
280
     1
 40
1.570796326794896
  0
LAYOUT
  5
22
102
{ACAD_XDICTIONARY
360
2182
102
}
102
{ACAD_REACTORS
330
1A
102
}
330
1A
100
AcDbPlotSettings
  1

  2
none_device
  4
ANSI_A_(8.50_x_11.00_Inches)
  6

 40
6.349999904632567
 41
19.04999923706055
 42
6.350006103515625
 43
19.04998779296875
 44
215.8999938964844
 45
279.3999938964844
 46
0.0
 47
0.0
 48
0.0
 49
0.0
140
0.0
141
0.0
142
1.0
143
2.584895464708373
 70
 11952
 72
     0
 73
     1
 74
     0
  7

 75
     0
147
0.3868628397755418
148
0.0
149
0.0
100
AcDbLayout
  1
Model
 70
     1
 71
     0
 10
0.0
 20
0.0
 11
12.0
 21
9.0
 12
0.0
 22
0.0
 32
0.0
 14
0.0
 24
0.0
 34
0.0
 15
0.0
 25
0.0
 35
0.0
146
0.0
 13
0.0
 23
0.0
 33
0.0
 16
1.0
 26
0.0
 36
0.0
 17
0.0
 27
1.0
 37
0.0
 76
     0
330
1F
331
94
  0
LAYOUT
  5
59
102
{ACAD_XDICTIONARY
360
2184
102
}
102
{ACAD_REACTORS
330
1A
102
}
330
1A
100
AcDbPlotSettings
  1

  2
None
  4

  6

 40
0.0
 41
0.0
 42
0.0
 43
0.0
 44
0.0
 45
0.0
 46
0.0
 47
0.0
 48
0.0
 49
0.0
140
0.0
141
0.0
142
1.0
143
1.0
 70
   688
 72
     0
 73
     0
 74
     5
  7

 75
    16
147
1.0
148
0.0
149
0.0
100
AcDbLayout
  1
レイアウト1
 70
     1
 71
     1
 10
0.0
 20
0.0
 11
12.0
 21
9.0
 12
0.0
 22
0.0
 32
0.0
 14
0.0
 24
0.0
 34
0.0
 15
0.0
 25
0.0
 35
0.0
146
0.0
 13
0.0
 23
0.0
 33
0.0
 16
1.0
 26
0.0
 36
0.0
 17
0.0
 27
1.0
 37
0.0
 76
     0
330
58
  0
LAYOUT
  5
5E
102
{ACAD_XDICTIONARY
360
2186
102
}
102
{ACAD_REACTORS
330
1A
102
}
330
1A
100
AcDbPlotSettings
  1

  2
None
  4

  6

 40
0.0
 41
0.0
 42
0.0
 43
0.0
 44
0.0
 45
0.0
 46
0.0
 47
0.0
 48
0.0
 49
0.0
140
0.0
141
0.0
142
1.0
143
1.0
 70
   688
 72
     0
 73
     0
 74
     5
  7

 75
    16
147
1.0
148
0.0
149
0.0
100
AcDbLayout
  1
レイアウト2
 70
     1
 71
     2
 10
0.0
 20
0.0
 11
12.0
 21
9.0
 12
0.0
 22
0.0
 32
0.0
 14
0.0
 24
0.0
 34
0.0
 15
0.0
 25
0.0
 35
0.0
146
0.0
 13
0.0
 23
0.0
 33
0.0
 16
1.0
 26
0.0
 36
0.0
 17
0.0
 27
1.0
 37
0.0
 76
     0
330
5D
  0
MATERIAL
  5
97
102
{ACAD_XDICTIONARY
360
16EB
102
}
102
{ACAD_REACTORS
330
72
102
}
330
72
100
AcDbMaterial
  1
ByBlock
 73
     1
 78
     1
172
     1
176
     1
270
     1
274
     1
  0
MATERIAL
  5
96
102
{ACAD_XDICTIONARY
360
16E9
102
}
102
{ACAD_REACTORS
330
72
102
}
330
72
100
AcDbMaterial
  1
ByLayer
 73
     1
 78
     1
172
     1
176
     1
270
     1
274
     1
  0
MATERIAL
  5
98
102
{ACAD_XDICTIONARY
360
16ED
102
}
102
{ACAD_REACTORS
330
72
102
}
330
72
100
AcDbMaterial
  1
Global
 73
     1
 78
     1
172
     1
176
     1
270
     1
274
     1
  0
MLEADERSTYLE
  5
169
102
{ACAD_REACTORS
330
168
102
}
330
168
100
AcDbMLeaderStyle
170
     2
171
     1
172
     0
 90
        2
 40
0.0
 41
0.0
173
     1
 91
-1056964608
340
14
 92
       -2
290
     1
 42
2.0
291
     1
 43
0.36
  3
Standard
 44
4.0
300

342
11
174
     1
178
     6
175
     1
176
     0
 93
-1056964608
 45
4.0
292
     0
297
     0
 46
4.0
 94
-1056964608
 47
1.0
 49
1.0
140
1.0
293
     1
141
0.0
294
     1
177
     0
142
1.0
295
     0
296
     0
143
0.125
1001
ACAD_MLEADERVER
1070
     2
  0
MLINESTYLE
  5
18
102
{ACAD_REACTORS
330
17
102
}
330
17
100
AcDbMlineStyle
  2
STANDARD
 70
     0
  3

 62
   256
 51
90.0
 52
90.0
 71
     2
 49
0.5
 62
   256
  6
BYLAYER
 49
-0.5
 62
   256
  6
BYLAYER
  0
ACDBPLACEHOLDER
  5
F
102
{ACAD_REACTORS
330
E
102
}
330
E
  0
SCALE
  5
157
102
{ACAD_REACTORS
330
156
102
}
330
156
100
AcDbScale
 70
     0
300
1:1
140
1.0
141
1.0
290
     1
  0
SCALE
  5
158
102
{ACAD_REACTORS
330
156
102
}
330
156
100
AcDbScale
 70
     0
300
1:2
140
1.0
141
2.0
290
     0
  0
SCALE
  5
159
102
{ACAD_REACTORS
330
156
102
}
330
156
100
AcDbScale
 70
     0
300
1:4
140
1.0
141
4.0
290
     0
  0
SCALE
  5
15A
102
{ACAD_REACTORS
330
156
102
}
330
156
100
AcDbScale
 70
     0
300
1:5
140
1.0
141
5.0
290
     0
  0
SCALE
  5
15B
102
{ACAD_REACTORS
330
156
102
}
330
156
100
AcDbScale
 70
     0
300
1:8
140
1.0
141
8.0
290
     0
  0
SCALE
  5
15C
102
{ACAD_REACTORS
330
156
102
}
330
156
100
AcDbScale
 70
     0
300
1:10
140
1.0
141
10.0
290
     0
  0
SCALE
  5
15D
102
{ACAD_REACTORS
330
156
102
}
330
156
100
AcDbScale
 70
     0
300
1:16
140
1.0
141
16.0
290
     0
  0
SCALE
  5
15E
102
{ACAD_REACTORS
330
156
102
}
330
156
100
AcDbScale
 70
     0
300
1:20
140
1.0
141
20.0
290
     0
  0
SCALE
  5
15F
102
{ACAD_REACTORS
330
156
102
}
330
156
100
AcDbScale
 70
     0
300
1:30
140
1.0
141
30.0
290
     0
  0
SCALE
  5
160
102
{ACAD_REACTORS
330
156
102
}
330
156
100
AcDbScale
 70
     0
300
1:40
140
1.0
141
40.0
290
     0
  0
SCALE
  5
161
102
{ACAD_REACTORS
330
156
102
}
330
156
100
AcDbScale
 70
     0
300
1:50
140
1.0
141
50.0
290
     0
  0
SCALE
  5
162
102
{ACAD_REACTORS
330
156
102
}
330
156
100
AcDbScale
 70
     0
300
1:100
140
1.0
141
100.0
290
     0
  0
SCALE
  5
163
102
{ACAD_REACTORS
330
156
102
}
330
156
100
AcDbScale
 70
     0
300
2:1
140
2.0
141
1.0
290
     0
  0
SCALE
  5
164
102
{ACAD_REACTORS
330
156
102
}
330
156
100
AcDbScale
 70
     0
300
4:1
140
4.0
141
1.0
290
     0
  0
SCALE
  5
165
102
{ACAD_REACTORS
330
156
102
}
330
156
100
AcDbScale
 70
     0
300
8:1
140
8.0
141
1.0
290
     0
  0
SCALE
  5
166
102
{ACAD_REACTORS
330
156
102
}
330
156
100
AcDbScale
 70
     0
300
10:1
140
10.0
141
1.0
290
     0
  0
SCALE
  5
167
102
{ACAD_REACTORS
330
156
102
}
330
156
100
AcDbScale
 70
     0
300
100:1
140
100.0
141
1.0
290
     0
  0
TABLESTYLE
  5
87
102
{ACAD_XDICTIONARY
360
10A0
102
}
102
{ACAD_REACTORS
330
86
102
}
330
86
100
AcDbTableStyle
  3
Standard
 70
     0
 71
     0
 40
0.06
 41
0.06
280
     0
281
     0
  7
Standard
140
0.18
170
     2
 62
     0
 63
     7
283
     0
274
    -2
284
     1
 64
     0
275
    -2
285
     1
 65
     0
276
    -2
286
     1
 66
     0
277
    -2
287
     1
 67
     0
278
    -2
288
     1
 68
     0
279
    -2
289
     1
 69
     0
  7
Standard
140
0.25
170
     5
 62
     0
 63
     7
283
     0
274
    -2
284
     1
 64
     0
275
    -2
285
     1
 65
     0
276
    -2
286
     1
 66
     0
277
    -2
287
     1
 67
     0
278
    -2
288
     1
 68
     0
279
    -2
289
     1
 69
     0
  7
Standard
140
0.18
170
     5
 62
     0
 63
     7
283
     0
274
    -2
284
     1
 64
     0
275
    -2
285
     1
 65
     0
276
    -2
286
     1
 66
     0
277
    -2
287
     1
 67
     0
278
    -2
288
     1
 68
     0
279
    -2
289
     1
 69
     0
  0
TABLESTYLE
  5
D97
102
{ACAD_XDICTIONARY
360
D98
102
}
102
{ACAD_REACTORS
330
86
102
}
330
86
100
AcDbTableStyle
  3
Standard
 70
     1
 71
     0
 40
1.5
 41
0.5
280
     0
281
     0
  7
高3.2
140
0.18
170
     7
 62
     3
 63
     7
283
     0
274
    -2
284
     1
 64
     3
275
    -2
285
     1
 65
     7
276
    -2
286
     1
 66
     3
277
    -2
287
     1
 67
     3
278
    -2
288
     1
 68
     7
279
    -2
289
     1
 69
     3
  7
高3.2
140
0.25
170
     8
 62
     3
 63
     7
283
     0
274
    -2
284
     1
 64
     0
275
    -2
285
     1
 65
     0
276
    -2
286
     1
 66
     0
277
    -2
287
     1
 67
     0
278
    -2
288
     1
 68
     0
279
    -2
289
     1
 69
     0
  7
高3.2
140
0.18
170
     7
 62
     3
 63
     7
283
     0
274
    -2
284
     1
 64
     3
275
    -2
285
     1
 65
     7
276
    -2
286
     1
 66
     3
277
    -2
287
     1
 67
     3
278
    -2
288
     1
 68
     7
279
    -2
289
     1
 69
     3
  0
VISUALSTYLE
  5
9F
102
{ACAD_XDICTIONARY
360
2193
102
}
102
{ACAD_REACTORS
330
99
102
}
330
99
100
AcDbVisualStyle
  2

 70
     4
 71
     0
 72
     2
 73
     1
 90
        0
 40
-0.6
 41
-30.0
 62
     5
 63
     7
 74
     1
 91
        4
 64
     7
 65
   257
 75
     1
175
     1
 42
1.0
 92
        0
 66
   257
 43
1.0
 76
     1
 77
     6
 78
     2
 67
     7
 79
     5
170
     0
171
     0
290
     0
174
     0
 93
        1
 44
0.0
173
     0
291
     0
 45
0.0
1001
ACAD
1000
AcDbSavedByObjectVersion
1070
     0
  0
VISUALSTYLE
  5
A1
102
{ACAD_XDICTIONARY
360
2197
102
}
102
{ACAD_REACTORS
330
99
102
}
330
99
100
AcDbVisualStyle
  2

 70
     6
 71
     1
 72
     2
 73
     2
 90
        0
 40
-0.6
 41
-30.0
 62
     5
 63
     7
 74
     2
 91
        2
 64
     7
 65
   257
 75
     2
175
     1
 42
40.0
 92
        0
 66
   257
 43
1.0
 76
     1
 77
     6
 78
     2
 67
     7
 79
     3
170
     0
171
     0
290
     0
174
     0
 93
        1
 44
0.0
173
     0
291
     0
 45
0.0
1001
ACAD
1000
AcDbSavedByObjectVersion
1070
     0
  0
VISUALSTYLE
  5
A0
102
{ACAD_XDICTIONARY
360
2195
102
}
102
{ACAD_REACTORS
330
99
102
}
330
99
100
AcDbVisualStyle
  2

 70
     5
 71
     0
 72
     2
 73
     1
 90
        0
 40
-0.6
 41
-30.0
 62
     5
 63
     7
 74
     1
 91
        4
 64
     7
 65
   257
 75
     1
175
     1
 42
1.0
 92
        0
 66
   257
 43
1.0
 76
     1
 77
     6
 78
     2
 67
     7
 79
     5
170
     0
171
     0
290
     0
174
     0
 93
        1
 44
0.0
173
     0
291
     0
 45
0.0
1001
ACAD
1000
AcDbSavedByObjectVersion
1070
     0
  0
VISUALSTYLE
  5
9E
102
{ACAD_XDICTIONARY
360
2191
102
}
102
{ACAD_REACTORS
330
99
102
}
330
99
100
AcDbVisualStyle
  2

 70
     7
 71
     1
 72
     0
 73
     1
 90
        0
 40
-0.6
 41
-30.0
 62
     5
 63
     7
 74
     0
 91
        4
 64
     7
 65
   257
 75
     1
175
     1
 42
1.0
 92
        8
 66
     7
 43
1.0
 76
     1
 77
     6
 78
     2
 67
     7
 79
     5
170
     0
171
     0
290
     0
174
     0
 93
        1
 44
0.0
173
     0
291
     1
 45
0.0
1001
ACAD
1000
AcDbSavedByObjectVersion
1070
     0
  0
VISUALSTYLE
  5
A5
102
{ACAD_XDICTIONARY
360
219F
102
}
102
{ACAD_REACTORS
330
99
102
}
330
99
100
AcDbVisualStyle
  2

 70
    12
 71
     2
 72
     2
 73
     1
 90
        0
 40
-0.6
 41
-30.0
 62
     5
 63
     7
 74
     1
 91
        4
 64
     7
 65
   257
 75
     1
175
     1
 42
1.0
 92
        8
 66
     7
 43
1.0
 76
     1
 77
     6
 78
     2
 67
     7
 79
     5
170
     0
171
     0
290
     0
174
     0
 93
        1
 44
50.0
173
     0
291
     1
 45
0.0
1001
ACAD
1000
AcDbSavedByObjectVersion
1070
     0
  0
VISUALSTYLE
  5
A9
102
{ACAD_XDICTIONARY
360
21A7
102
}
102
{ACAD_REACTORS
330
99
102
}
330
99
100
AcDbVisualStyle
  2

 70
    16
 71
     2
 72
     2
 73
     3
 90
        0
 40
-0.6
 41
-30.0
 62
     5
 63
     8
 74
     1
 91
        4
 64
     7
 65
   257
 75
     1
175
     1
 42
1.0
 92
        8
 66
     8
 43
1.0
 76
     1
 77
     6
 78
     2
 67
     7
 79
     5
170
     0
171
     0
290
     0
174
     0
 93
        1
 44
0.0
173
     0
291
     1
 45
0.0
1001
ACAD
1000
AcDbSavedByObjectVersion
1070
     0
  0
VISUALSTYLE
  5
A2
102
{ACAD_XDICTIONARY
360
2199
102
}
102
{ACAD_REACTORS
330
99
102
}
330
99
100
AcDbVisualStyle
  2

 70
     9
 71
     3
 72
     2
 73
     1
 90
        0
 40
-0.6
 41
-30.0
 62
     5
 63
     7
 74
     2
 91
        2
 64
     7
 65
   257
 75
     1
175
     1
 42
40.0
 92
        8
 66
     7
 43
1.0
 76
     1
 77
     6
 78
     2
 67
     7
 79
     3
170
     0
171
     0
290
     0
174
     0
 93
        1
 44
0.0
173
     0
291
     0
 45
0.0
1001
ACAD
1000
AcDbSavedByObjectVersion
1070
     0
  0
VISUALSTYLE
  5
A4
102
{ACAD_XDICTIONARY
360
219D
102
}
102
{ACAD_REACTORS
330
99
102
}
330
99
100
AcDbVisualStyle
  2

 70
    11
 71
     2
 72
     2
 73
     1
 90
        0
 40
-0.6
 41
-30.0
 62
     5
 63
     7
 74
     1
 91
        4
 64
     7
 65
   257
 75
     1
175
     1
 42
1.0
 92
        8
 66
     7
 43
1.0
 76
     1
 77
     6
 78
     2
 67
     7
 79
     5
170
     0
171
     0
290
     0
174
     0
 93
        1
 44
-50.0
173
     0
291
     1
 45
0.0
1001
ACAD
1000
AcDbSavedByObjectVersion
1070
     0
  0
VISUALSTYLE
  5
155
102
{ACAD_XDICTIONARY
360
21BB
102
}
102
{ACAD_REACTORS
330
99
102
}
330
99
100
AcDbVisualStyle
  2

 70
    22
 71
     2
 72
     2
 73
     0
 90
        0
 40
-0.6
 41
-30.0
 62
     5
 63
     7
 74
     1
 91
        4
 64
     7
 65
   257
 75
     1
175
     1
 42
1.0
 92
        8
 66
     7
 43
1.0
 76
     1
 77
     6
 78
     2
 67
     7
 79
     5
170
     0
171
     0
290
     0
174
     0
 93
        1
 44
0.0
173
     0
291
     1
 45
0.0
1001
ACAD
1000
AcDbSavedByObjectVersion
1070
     0
  0
VISUALSTYLE
  5
A8
102
{ACAD_XDICTIONARY
360
21A5
102
}
102
{ACAD_REACTORS
330
99
102
}
330
99
100
AcDbVisualStyle
  2

 70
    15
 71
     2
 72
     2
 73
     1
 90
        0
 40
-0.6
 41
-30.0
 62
     5
 63
     7
 74
     1
 91
        4
 64
     7
 65
   257
 75
     1
175
     1
 42
1.0
 92
        8
 66
     7
 43
1.0
 76
     1
 77
     6
 78
     2
 67
     7
 79
     5
170
     0
171
     0
290
     0
174
     0
 93
        1
 44
0.0
173
     0
291
     1
 45
0.0
1001
ACAD
1000
AcDbSavedByObjectVersion
1070
     0
  0
VISUALSTYLE
  5
9A
102
{ACAD_XDICTIONARY
360
2189
102
}
102
{ACAD_REACTORS
330
99
102
}
330
99
100
AcDbVisualStyle
  2

 70
     0
 71
     2
 72
     1
 73
     1
 90
        2
 40
-0.6
 41
30.0
 62
     5
 63
     7
 74
     0
 91
        4
 64
     7
 65
   257
 75
     1
175
     1
 42
1.0
 92
        8
 66
     7
 43
1.0
 76
     1
 77
     6
 78
     2
 67
     7
 79
     5
170
     0
171
     0
290
     0
174
     0
 93
        1
 44
0.0
173
     0
291
     1
 45
0.0
1001
ACAD
1000
AcDbSavedByObjectVersion
1070
     0
  0
VISUALSTYLE
  5
9B
102
{ACAD_XDICTIONARY
360
218B
102
}
102
{ACAD_REACTORS
330
99
102
}
330
99
100
AcDbVisualStyle
  2

 70
     1
 71
     2
 72
     1
 73
     1
 90
        2
 40
-0.6
 41
30.0
 62
     5
 63
     7
 74
     1
 91
        4
 64
     7
 65
   257
 75
     1
175
     1
 42
1.0
 92
        0
 66
   257
 43
1.0
 76
     1
 77
     6
 78
     2
 67
     7
 79
     5
170
     0
171
     0
290
     0
174
     0
 93
        1
 44
0.0
173
     0
291
     1
 45
0.0
1001
ACAD
1000
AcDbSavedByObjectVersion
1070
     0
  0
VISUALSTYLE
  5
9C
102
{ACAD_XDICTIONARY
360
218D
102
}
102
{ACAD_REACTORS
330
99
102
}
330
99
100
AcDbVisualStyle
  2

 70
     2
 71
     2
 72
     2
 73
     1
 90
        2
 40
-0.6
 41
30.0
 62
     5
 63
     7
 74
     0
 91
        4
 64
     7
 65
   257
 75
     1
175
     1
 42
1.0
 92
        0
 66
     7
 43
1.0
 76
     1
 77
     6
 78
     2
 67
     7
 79
     5
170
     0
171
     0
290
     0
174
     0
 93
        1
 44
0.0
173
     0
291
     1
 45
0.0
1001
ACAD
1000
AcDbSavedByObjectVersion
1070
     0
  0
VISUALSTYLE
  5
9D
102
{ACAD_XDICTIONARY
360
218F
102
}
102
{ACAD_REACTORS
330
99
102
}
330
99
100
AcDbVisualStyle
  2

 70
     3
 71
     2
 72
     2
 73
     1
 90
        2
 40
-0.6
 41
30.0
 62
     5
 63
     7
 74
     1
 91
        4
 64
     7
 65
   257
 75
     1
175
     1
 42
1.0
 92
        0
 66
   257
 43
1.0
 76
     1
 77
     6
 78
     2
 67
     7
 79
     5
170
     0
171
     0
290
     0
174
     0
 93
        1
 44
0.0
173
     0
291
     1
 45
0.0
1001
ACAD
1000
AcDbSavedByObjectVersion
1070
     0
  0
VISUALSTYLE
  5
14D
102
{ACAD_XDICTIONARY
360
21AB
102
}
102
{ACAD_REACTORS
330
99
102
}
330
99
100
AcDbVisualStyle
  2

 70
     6
 71
     1
 72
     2
 73
     2
 90
        0
 40
-0.6
 41
-30.0
 62
     5
 63
     7
 74
     2
 91
        2
 64
     7
 65
   257
 75
     2
175
     1
 42
40.0
 92
        0
 66
   257
 43
1.0
 76
     1
 77
     6
 78
     2
 67
     7
 79
     3
170
     0
171
     0
290
     0
174
     0
 93
        1
 44
0.0
173
     0
291
     0
 45
0.0
1001
ACAD
1000
AcDbSavedByObjectVersion
1070
     0
  0
VISUALSTYLE
  5
153
102
{ACAD_XDICTIONARY
360
21B7
102
}
102
{ACAD_REACTORS
330
99
102
}
330
99
100
AcDbVisualStyle
  2

 70
    20
 71
     2
 72
     2
 73
     0
 90
        0
 40
-0.6
 41
-30.0
 62
     5
 63
     7
 74
     1
 91
        4
 64
     7
 65
   257
 75
     1
175
     1
 42
1.0
 92
       10
 66
     7
 43
1.0
 76
     1
 77
     6
 78
     2
 67
     7
 79
     5
170
     0
171
     0
290
     0
174
     0
 93
        1
 44
0.0
173
     0
291
     1
 45
0.0
1001
ACAD
1000
AcDbSavedByObjectVersion
1070
     0
  0
VISUALSTYLE
  5
A7
102
{ACAD_XDICTIONARY
360
21A3
102
}
102
{ACAD_REACTORS
330
99
102
}
330
99
100
AcDbVisualStyle
  2

 70
    14
 71
     2
 72
     2
 73
     1
 90
        0
 40
-0.6
 41
-30.0
 62
     5
 63
     7
 74
     1
 91
        4
 64
     7
 65
   257
 75
     7
175
     7
 42
1.0
 92
        8
 66
     7
 43
1.0
 76
     1
 77
     6
 78
     2
 67
     7
 79
     5
170
     0
171
     0
290
     0
174
     0
 93
        1
 44
0.0
173
     0
291
     1
 45
0.0
1001
ACAD
1000
AcDbSavedByObjectVersion
1070
     0
  0
VISUALSTYLE
  5
154
102
{ACAD_XDICTIONARY
360
21B9
102
}
102
{ACAD_REACTORS
330
99
102
}
330
99
100
AcDbVisualStyle
  2

 70
    21
 71
     2
 72
     2
 73
     0
 90
        0
 40
-0.6
 41
-30.0
 62
     5
 63
     7
 74
     1
 91
        4
 64
     7
 65
   257
 75
     1
175
     1
 42
1.0
 92
        9
 66
     7
 43
1.0
 76
     1
 77
     6
 78
     2
 67
     7
 79
     5
170
     0
171
     0
290
     0
174
     0
 93
        1
 44
0.0
173
     0
291
     1
 45
0.0
1001
ACAD
1000
AcDbSavedByObjectVersion
1070
     0
  0
VISUALSTYLE
  5
A3
102
{ACAD_XDICTIONARY
360
219B
102
}
102
{ACAD_REACTORS
330
99
102
}
330
99
100
AcDbVisualStyle
  2

 70
     8
 71
     2
 72
     2
 73
     1
 90
        0
 40
-0.6
 41
-30.0
 62
     5
 63
     7
 74
     1
 91
        0
 64
     7
 65
   257
 75
     1
175
     1
 42
1.0
 92
        8
 66
     8
 43
1.0
 76
     1
 77
     6
 78
     2
 67
     7
 79
     5
170
     0
171
     0
290
     0
174
     0
 93
       13
 44
0.0
173
     0
291
     0
 45
0.0
1001
ACAD
1000
AcDbSavedByObjectVersion
1070
     0
  0
VISUALSTYLE
  5
152
102
{ACAD_XDICTIONARY
360
21B5
102
}
102
{ACAD_REACTORS
330
99
102
}
330
99
100
AcDbVisualStyle
  2

 70
    27
 71
     2
 72
     2
 73
     1
 90
        2
 40
-0.6
 41
30.0
 62
     5
 63
     7
 74
     0
 91
        4
 64
     7
 65
   257
 75
     1
175
     1
 42
1.0
 92
        8
 66
   257
 43
1.0
 76
     1
 77
     6
 78
     2
 67
     8
 79
     3
170
     0
171
     0
290
     0
174
     0
 93
        5
 44
0.0
173
     0
291
     0
 45
0.0
1001
ACAD
1000
AcDbSavedByObjectVersion
1070
     0
  0
VISUALSTYLE
  5
151
102
{ACAD_XDICTIONARY
360
21B3
102
}
102
{ACAD_REACTORS
330
99
102
}
330
99
100
AcDbVisualStyle
  2

 70
    26
 71
     2
 72
     2
 73
     1
 90
        2
 40
-0.6
 41
30.0
 62
     5
 63
     7
 74
     1
 91
       10
 64
     7
 65
   257
 75
     2
175
     1
 42
1.0
 92
        8
 66
   257
 43
1.0
 76
     1
 77
     6
 78
     2
 67
     7
 79
     3
170
     0
171
     0
290
     0
174
     0
 93
        5
 44
0.0
173
     0
291
     0
 45
0.0
1001
ACAD
1000
AcDbSavedByObjectVersion
1070
     0
  0
VISUALSTYLE
  5
14E
102
{ACAD_XDICTIONARY
360
21AD
102
}
102
{ACAD_REACTORS
330
99
102
}
330
99
100
AcDbVisualStyle
  2

 70
    23
 71
     2
 72
     2
 73
     3
 90
        0
 40
-0.6
 41
-30.0
 62
     5
 63
     7
 74
     2
 91
        2
 64
     7
 65
     7
 75
     1
175
     1
 42
40.0
 92
        8
 66
     7
 43
1.0
 76
     1
 77
     6
 78
     2
 67
     7
 79
     3
170
     0
171
     0
290
     0
174
     0
 93
        1
 44
0.0
173
     0
291
     0
 45
0.0
1001
ACAD
1000
AcDbSavedByObjectVersion
1070
     0
  0
VISUALSTYLE
  5
14F
102
{ACAD_XDICTIONARY
360
21AF
102
}
102
{ACAD_REACTORS
330
99
102
}
330
99
100
AcDbVisualStyle
  2

 70
    24
 71
     1
 72
     2
 73
     2
 90
        0
 40
-0.6
 41
-30.0
 62
     5
 63
     7
 74
     2
 91
        2
 64
     7
 65
     7
 75
     1
175
     1
 42
40.0
 92
       11
 66
     7
 43
1.0
 76
     1
 77
     6
 78
     2
 67
     7
 79
     6
170
     0
171
     0
290
     0
174
     0
 93
        1
 44
0.0
173
     0
291
     0
 45
0.0
1001
ACAD
1000
AcDbSavedByObjectVersion
1070
     0
  0
VISUALSTYLE
  5
A6
102
{ACAD_XDICTIONARY
360
21A1
102
}
102
{ACAD_REACTORS
330
99
102
}
330
99
100
AcDbVisualStyle
  2

 70
    13
 71
     2
 72
     2
 73
     1
 90
        0
 40
-0.6
 41
-30.0
 62
     5
 63
     7
 74
     1
 91
        4
 64
     7
 65
   257
 75
     1
175
     1
 42
1.0
 92
       12
 66
     7
 43
1.0
 76
     1
 77
     6
 78
     2
 67
     7
 79
     5
170
     0
171
     0
290
     0
174
     0
 93
        1
 44
0.0
173
     0
291
     1
 45
0.0
1001
ACAD
1000
AcDbSavedByObjectVersion
1070
     0
  0
VISUALSTYLE
  5
14C
102
{ACAD_XDICTIONARY
360
21A9
102
}
102
{ACAD_REACTORS
330
99
102
}
330
99
100
AcDbVisualStyle
  2

 70
     5
 71
     0
 72
     2
 73
     0
 90
        0
 40
-0.6
 41
-30.0
 62
     5
 63
     7
 74
     1
 91
        4
 64
     7
 65
   257
 75
     1
175
     1
 42
1.0
 92
        0
 66
   257
 43
1.0
 76
     1
 77
     6
 78
     2
 67
     7
 79
     3
170
     0
171
     0
290
     0
174
     0
 93
        1
 44
0.0
173
     0
291
     0
 45
0.0
1001
ACAD
1000
AcDbSavedByObjectVersion
1070
     0
  0
VISUALSTYLE
  5
150
102
{ACAD_XDICTIONARY
360
21B1
102
}
102
{ACAD_REACTORS
330
99
102
}
330
99
100
AcDbVisualStyle
  2

 70
    25
 71
     2
 72
     2
 73
     1
 90
        1
 40
0.5
 41
-30.0
 62
     5
 63
     7
 74
     1
 91
        0
 64
     7
 65
   257
 75
     1
175
     1
 42
1.0
 92
        8
 66
     7
 43
1.0
 76
     1
 77
     6
 78
     2
 67
     7
 79
     3
170
     0
171
     0
290
     0
174
     0
 93
       13
 44
0.0
173
     0
291
     0
 45
0.0
1001
ACAD
1000
AcDbSavedByObjectVersion
1070
     0
  0
DICTIONARYVAR
  5
245
102
{ACAD_REACTORS
330
66
102
}
330
66
100
DictionaryVariables
280
     0
  1
1:1
  0
DICTIONARYVAR
  5
243
102
{ACAD_REACTORS
330
66
102
}
330
66
100
DictionaryVariables
280
     0
  1
STANDARD
  0
DICTIONARYVAR
  5
89
102
{ACAD_REACTORS
330
66
102
}
330
66
100
DictionaryVariables
280
     0
  1
STANDARD
  0
DICTIONARYVAR
  5
67
102
{ACAD_REACTORS
330
66
102
}
330
66
100
DictionaryVariables
280
     0
  1
2
  0
DICTIONARYVAR
  5
6B
102
{ACAD_REACTORS
330
66
102
}
330
66
100
DictionaryVariables
280
     0
  1
1
  0
DICTIONARYVAR
  5
10F1
102
{ACAD_REACTORS
330
66
102
}
330
66
100
DictionaryVariables
280
     0
  1
0
  0
DICTIONARYVAR
  5
247
102
{ACAD_REACTORS
330
66
102
}
330
66
100
DictionaryVariables
280
     0
  1
1
  0
DICTIONARYVAR
  5
248
102
{ACAD_REACTORS
330
66
102
}
330
66
100
DictionaryVariables
280
     0
  1
15
  0
DICTIONARYVAR
  5
246
102
{ACAD_REACTORS
330
66
102
}
330
66
100
DictionaryVariables
280
     0
  1
0
  0
DICTIONARYVAR
  5
244
102
{ACAD_REACTORS
330
66
102
}
330
66
100
DictionaryVariables
280
     0
  1
0
  0
DICTIONARYVAR
  5
10F0
102
{ACAD_REACTORS
330
66
102
}
330
66
100
DictionaryVariables
280
     0
  1
127
  0
DICTIONARYVAR
  5
1CCA
102
{ACAD_REACTORS
330
66
102
}
330
66
100
DictionaryVariables
280
     0
  1
2
  0
DICTIONARY
  5
2182
330
22
100
AcDbDictionary
280
     1
281
     1
  3
ACAD_XREC_ROUNDTRIP
360
2183
  0
DICTIONARY
  5
2184
330
59
100
AcDbDictionary
280
     1
281
     1
  3
ACAD_XREC_ROUNDTRIP
360
2185
  0
DICTIONARY
  5
2186
330
5E
100
AcDbDictionary
280
     1
281
     1
  3
ACAD_XREC_ROUNDTRIP
360
2187
  0
DICTIONARY
  5
16EB
330
97
100
AcDbDictionary
280
     1
281
     1
  3
ACAD_XREC_ROUNDTRIP
360
16EC
  0
DICTIONARY
  5
16E9
330
96
100
AcDbDictionary
280
     1
281
     1
  3
ACAD_XREC_ROUNDTRIP
360
16EA
  0
DICTIONARY
  5
16ED
330
98
100
AcDbDictionary
280
     1
281
     1
  3
ACAD_XREC_ROUNDTRIP
360
16EE
  0
DICTIONARY
  5
10A0
330
87
100
AcDbDictionary
280
     1
281
     1
  3
ACAD_ROUNDTRIP_2008_TABLESTYLE_CELLSTYLEMAP
360
217A
  3
ACAD_XREC_ROUNDTRIP
360
2188
  0
DICTIONARY
  5
D98
330
D97
100
AcDbDictionary
280
     1
281
     1
  3
ACAD_ROUNDTRIP_2008_TABLESTYLE_CELLSTYLEMAP
360
217B
  3
ACAD_XREC_ROUNDTRIP
360
21BD
  0
DICTIONARY
  5
2193
330
9F
100
AcDbDictionary
280
     1
281
     1
  3
ACAD_XREC_ROUNDTRIP
360
2194
  0
DICTIONARY
  5
2197
330
A1
100
AcDbDictionary
280
     1
281
     1
  3
ACAD_XREC_ROUNDTRIP
360
2198
  0
DICTIONARY
  5
2195
330
A0
100
AcDbDictionary
280
     1
281
     1
  3
ACAD_XREC_ROUNDTRIP
360
2196
  0
DICTIONARY
  5
2191
330
9E
100
AcDbDictionary
280
     1
281
     1
  3
ACAD_XREC_ROUNDTRIP
360
2192
  0
DICTIONARY
  5
219F
330
A5
100
AcDbDictionary
280
     1
281
     1
  3
ACAD_XREC_ROUNDTRIP
360
21A0
  0
DICTIONARY
  5
21A7
330
A9
100
AcDbDictionary
280
     1
281
     1
  3
ACAD_XREC_ROUNDTRIP
360
21A8
  0
DICTIONARY
  5
2199
330
A2
100
AcDbDictionary
280
     1
281
     1
  3
ACAD_XREC_ROUNDTRIP
360
219A
  0
DICTIONARY
  5
219D
330
A4
100
AcDbDictionary
280
     1
281
     1
  3
ACAD_XREC_ROUNDTRIP
360
219E
  0
DICTIONARY
  5
21BB
330
155
100
AcDbDictionary
280
     1
281
     1
  3
ACAD_XREC_ROUNDTRIP
360
21BC
  0
DICTIONARY
  5
21A5
330
A8
100
AcDbDictionary
280
     1
281
     1
  3
ACAD_XREC_ROUNDTRIP
360
21A6
  0
DICTIONARY
  5
2189
330
9A
100
AcDbDictionary
280
     1
281
     1
  3
ACAD_XREC_ROUNDTRIP
360
218A
  0
DICTIONARY
  5
218B
330
9B
100
AcDbDictionary
280
     1
281
     1
  3
ACAD_XREC_ROUNDTRIP
360
218C
  0
DICTIONARY
  5
218D
330
9C
100
AcDbDictionary
280
     1
281
     1
  3
ACAD_XREC_ROUNDTRIP
360
218E
  0
DICTIONARY
  5
218F
330
9D
100
AcDbDictionary
280
     1
281
     1
  3
ACAD_XREC_ROUNDTRIP
360
2190
  0
DICTIONARY
  5
21AB
330
14D
100
AcDbDictionary
280
     1
281
     1
  3
ACAD_XREC_ROUNDTRIP
360
21AC
  0
DICTIONARY
  5
21B7
330
153
100
AcDbDictionary
280
     1
281
     1
  3
ACAD_XREC_ROUNDTRIP
360
21B8
  0
DICTIONARY
  5
21A3
330
A7
100
AcDbDictionary
280
     1
281
     1
  3
ACAD_XREC_ROUNDTRIP
360
21A4
  0
DICTIONARY
  5
21B9
330
154
100
AcDbDictionary
280
     1
281
     1
  3
ACAD_XREC_ROUNDTRIP
360
21BA
  0
DICTIONARY
  5
219B
330
A3
100
AcDbDictionary
280
     1
281
     1
  3
ACAD_XREC_ROUNDTRIP
360
219C
  0
DICTIONARY
  5
21B5
330
152
100
AcDbDictionary
280
     1
281
     1
  3
ACAD_XREC_ROUNDTRIP
360
21B6
  0
DICTIONARY
  5
21B3
330
151
100
AcDbDictionary
280
     1
281
     1
  3
ACAD_XREC_ROUNDTRIP
360
21B4
  0
DICTIONARY
  5
21AD
330
14E
100
AcDbDictionary
280
     1
281
     1
  3
ACAD_XREC_ROUNDTRIP
360
21AE
  0
DICTIONARY
  5
21AF
330
14F
100
AcDbDictionary
280
     1
281
     1
  3
ACAD_XREC_ROUNDTRIP
360
21B0
  0
DICTIONARY
  5
21A1
330
A6
100
AcDbDictionary
280
     1
281
     1
  3
ACAD_XREC_ROUNDTRIP
360
21A2
  0
DICTIONARY
  5
21A9
330
14C
100
AcDbDictionary
280
     1
281
     1
  3
ACAD_XREC_ROUNDTRIP
360
21AA
  0
DICTIONARY
  5
21B1
330
150
100
AcDbDictionary
280
     1
281
     1
  3
ACAD_XREC_ROUNDTRIP
360
21B2
  0
XRECORD
  5
2183
102
{ACAD_REACTORS
330
2182
102
}
330
2182
100
AcDbXrecord
280
     1
102
SHADEPLOT
 70
     0
102
SHADEPLOTRESLEVEL
 70
     2
102
SHADEPLOTCUSTOMDPI
 70
   300
  0
XRECORD
  5
2185
102
{ACAD_REACTORS
330
2184
102
}
330
2184
100
AcDbXrecord
280
     1
102
SHADEPLOT
 70
     0
102
SHADEPLOTRESLEVEL
 70
     2
102
SHADEPLOTCUSTOMDPI
 70
   300
  0
XRECORD
  5
2187
102
{ACAD_REACTORS
330
2186
102
}
330
2186
100
AcDbXrecord
280
     1
102
SHADEPLOT
 70
     0
102
SHADEPLOTRESLEVEL
 70
     2
102
SHADEPLOTCUSTOMDPI
 70
   300
  0
XRECORD
  5
16EC
102
{ACAD_REACTORS
330
16EB
102
}
330
16EB
100
AcDbXrecord
280
     1
102
MATERIAL
148
0.0
149
0.0
149
0.0
 93
        0
 94
      127
282
     0
 72
     1
 77
     1
171
     1
175
     1
179
     1
273
     0
  0
XRECORD
  5
16EA
102
{ACAD_REACTORS
330
16E9
102
}
330
16E9
100
AcDbXrecord
280
     1
102
MATERIAL
148
0.0
149
0.0
149
0.0
 93
        0
 94
      127
282
     0
 72
     1
 77
     1
171
     1
175
     1
179
     1
273
     0
  0
XRECORD
  5
16EE
102
{ACAD_REACTORS
330
16ED
102
}
330
16ED
100
AcDbXrecord
280
     1
102
MATERIAL
148
0.0
149
0.0
149
0.0
 93
        0
 94
      127
282
     0
 72
     1
 77
     1
171
     1
175
     1
179
     1
273
     0
  0
CELLSTYLEMAP
  5
217A
102
{ACAD_REACTORS
330
10A0
102
}
330
10A0
100
AcDbCellStyleMap
 90
        3
300
CELLSTYLE
  1
TABLEFORMAT_BEGIN
 90
        5
170
     1
 91
        0
 92
    32768
 62
   257
 93
        1
300
CONTENTFORMAT
  1
CONTENTFORMAT_BEGIN
 90
        0
 91
        0
 92
      512
 93
        0
300

 40
0.0
140
1.0
 94
        5
 62
     0
340
11
144
0.25
309
CONTENTFORMAT_END
171
     1
301
MARGIN
  1
CELLMARGIN_BEGIN
 40
0.06
 40
0.06
 40
0.06
 40
0.06
 40
0.18
 40
0.18
309
CELLMARGIN_END
 94
        6
 95
        1
302
GRIDFORMAT
  1
GRIDFORMAT_BEGIN
 90
        0
 91
        1
 62
     0
 92
       -2
340
0
 93
        0
 40
0.045
309
GRIDFORMAT_END
 95
        2
302
GRIDFORMAT
  1
GRIDFORMAT_BEGIN
 90
        0
 91
        1
 62
     0
 92
       -2
340
0
 93
        0
 40
0.045
309
GRIDFORMAT_END
 95
        4
302
GRIDFORMAT
  1
GRIDFORMAT_BEGIN
 90
        0
 91
        1
 62
     0
 92
       -2
340
0
 93
        0
 40
0.045
309
GRIDFORMAT_END
 95
        8
302
GRIDFORMAT
  1
GRIDFORMAT_BEGIN
 90
        0
 91
        1
 62
     0
 92
       -2
340
0
 93
        0
 40
0.045
309
GRIDFORMAT_END
 95
       16
302
GRIDFORMAT
  1
GRIDFORMAT_BEGIN
 90
        0
 91
        1
 62
     0
 92
       -2
340
0
 93
        0
 40
0.045
309
GRIDFORMAT_END
 95
       32
302
GRIDFORMAT
  1
GRIDFORMAT_BEGIN
 90
        0
 91
        1
 62
     0
 92
       -2
340
0
 93
        0
 40
0.045
309
GRIDFORMAT_END
309
TABLEFORMAT_END
  1
CELLSTYLE_BEGIN
 90
        1
 91
        1
300
_TITLE
309
CELLSTYLE_END
300
CELLSTYLE
  1
TABLEFORMAT_BEGIN
 90
        5
170
     1
 91
        0
 92
        0
 62
   257
 93
        1
300
CONTENTFORMAT
  1
CONTENTFORMAT_BEGIN
 90
        0
 91
        0
 92
      512
 93
        0
300

 40
0.0
140
1.0
 94
        5
 62
     0
340
11
144
0.18
309
CONTENTFORMAT_END
171
     1
301
MARGIN
  1
CELLMARGIN_BEGIN
 40
0.06
 40
0.06
 40
0.06
 40
0.06
 40
0.18
 40
0.18
309
CELLMARGIN_END
 94
        6
 95
        1
302
GRIDFORMAT
  1
GRIDFORMAT_BEGIN
 90
        0
 91
        1
 62
     0
 92
       -2
340
0
 93
        0
 40
0.045
309
GRIDFORMAT_END
 95
        2
302
GRIDFORMAT
  1
GRIDFORMAT_BEGIN
 90
        0
 91
        1
 62
     0
 92
       -2
340
0
 93
        0
 40
0.045
309
GRIDFORMAT_END
 95
        4
302
GRIDFORMAT
  1
GRIDFORMAT_BEGIN
 90
        0
 91
        1
 62
     0
 92
       -2
340
0
 93
        0
 40
0.045
309
GRIDFORMAT_END
 95
        8
302
GRIDFORMAT
  1
GRIDFORMAT_BEGIN
 90
        0
 91
        1
 62
     0
 92
       -2
340
0
 93
        0
 40
0.045
309
GRIDFORMAT_END
 95
       16
302
GRIDFORMAT
  1
GRIDFORMAT_BEGIN
 90
        0
 91
        1
 62
     0
 92
       -2
340
0
 93
        0
 40
0.045
309
GRIDFORMAT_END
 95
       32
302
GRIDFORMAT
  1
GRIDFORMAT_BEGIN
 90
        0
 91
        1
 62
     0
 92
       -2
340
0
 93
        0
 40
0.045
309
GRIDFORMAT_END
309
TABLEFORMAT_END
  1
CELLSTYLE_BEGIN
 90
        2
 91
        1
300
_HEADER
309
CELLSTYLE_END
300
CELLSTYLE
  1
TABLEFORMAT_BEGIN
 90
        5
170
     1
 91
        0
 92
        0
 62
   257
 93
        1
300
CONTENTFORMAT
  1
CONTENTFORMAT_BEGIN
 90
        0
 91
        0
 92
      512
 93
        0
300

 40
0.0
140
1.0
 94
        2
 62
     0
340
11
144
0.18
309
CONTENTFORMAT_END
171
     1
301
MARGIN
  1
CELLMARGIN_BEGIN
 40
0.06
 40
0.06
 40
0.06
 40
0.06
 40
0.18
 40
0.18
309
CELLMARGIN_END
 94
        6
 95
        1
302
GRIDFORMAT
  1
GRIDFORMAT_BEGIN
 90
        0
 91
        1
 62
     0
 92
       -2
340
0
 93
        0
 40
0.045
309
GRIDFORMAT_END
 95
        2
302
GRIDFORMAT
  1
GRIDFORMAT_BEGIN
 90
        0
 91
        1
 62
     0
 92
       -2
340
0
 93
        0
 40
0.045
309
GRIDFORMAT_END
 95
        4
302
GRIDFORMAT
  1
GRIDFORMAT_BEGIN
 90
        0
 91
        1
 62
     0
 92
       -2
340
0
 93
        0
 40
0.045
309
GRIDFORMAT_END
 95
        8
302
GRIDFORMAT
  1
GRIDFORMAT_BEGIN
 90
        0
 91
        1
 62
     0
 92
       -2
340
0
 93
        0
 40
0.045
309
GRIDFORMAT_END
 95
       16
302
GRIDFORMAT
  1
GRIDFORMAT_BEGIN
 90
        0
 91
        1
 62
     0
 92
       -2
340
0
 93
        0
 40
0.045
309
GRIDFORMAT_END
 95
       32
302
GRIDFORMAT
  1
GRIDFORMAT_BEGIN
 90
        0
 91
        1
 62
     0
 92
       -2
340
0
 93
        0
 40
0.045
309
GRIDFORMAT_END
309
TABLEFORMAT_END
  1
CELLSTYLE_BEGIN
 90
        3
 91
        2
300
_DATA
309
CELLSTYLE_END
  0
XRECORD
  5
2188
102
{ACAD_REACTORS
330
10A0
102
}
330
10A0
100
AcDbXrecord
280
     1
102
ACAD_ROUNDTRIP_PRE2007_TABLESTYLE
 90
      512
 91
        0
  1

 92
      512
 93
        0
  2

 94
      512
 95
        0
  3

  0
CELLSTYLEMAP
  5
217B
102
{ACAD_REACTORS
330
D98
102
}
330
D98
100
AcDbCellStyleMap
 90
        3
300
CELLSTYLE
  1
TABLEFORMAT_BEGIN
 90
        5
170
     1
 91
        0
 92
    32768
 62
   257
 93
        1
300
CONTENTFORMAT
  1
CONTENTFORMAT_BEGIN
 90
        0
 91
        0
 92
      512
 93
        0
300

 40
0.0
140
1.0
 94
        8
 62
     3
340
11D
144
0.25
309
CONTENTFORMAT_END
171
     1
301
MARGIN
  1
CELLMARGIN_BEGIN
 40
0.5
 40
10.0
 40
0.06
 40
0.06
 40
0.18
 40
0.18
309
CELLMARGIN_END
 94
        6
 95
        1
302
GRIDFORMAT
  1
GRIDFORMAT_BEGIN
 90
        0
 91
        1
 62
     0
 92
       -2
340
0
 93
        0
 40
0.045
309
GRIDFORMAT_END
 95
        2
302
GRIDFORMAT
  1
GRIDFORMAT_BEGIN
 90
        0
 91
        1
 62
     0
 92
       -2
340
0
 93
        0
 40
0.045
309
GRIDFORMAT_END
 95
        4
302
GRIDFORMAT
  1
GRIDFORMAT_BEGIN
 90
        0
 91
        1
 62
     0
 92
       -2
340
0
 93
        0
 40
0.045
309
GRIDFORMAT_END
 95
        8
302
GRIDFORMAT
  1
GRIDFORMAT_BEGIN
 90
        0
 91
        1
 62
     0
 92
       -2
340
0
 93
        0
 40
0.045
309
GRIDFORMAT_END
 95
       16
302
GRIDFORMAT
  1
GRIDFORMAT_BEGIN
 90
        0
 91
        1
 62
     0
 92
       -2
340
0
 93
        0
 40
0.045
309
GRIDFORMAT_END
 95
       32
302
GRIDFORMAT
  1
GRIDFORMAT_BEGIN
 90
        0
 91
        1
 62
     0
 92
       -2
340
0
 93
        0
 40
0.045
309
GRIDFORMAT_END
309
TABLEFORMAT_END
  1
CELLSTYLE_BEGIN
 90
        1
 91
        1
300
_TITLE
309
CELLSTYLE_END
300
CELLSTYLE
  1
TABLEFORMAT_BEGIN
 90
        5
170
     1
 91
        0
 92
        0
 62
   257
 93
        1
300
CONTENTFORMAT
  1
CONTENTFORMAT_BEGIN
 90
        0
 91
        0
 92
      512
 93
        0
300

 40
0.0
140
1.0
 94
        7
 62
     3
340
11D
144
0.18
309
CONTENTFORMAT_END
171
     1
301
MARGIN
  1
CELLMARGIN_BEGIN
 40
0.5
 40
1.5
 40
0.06
 40
0.06
 40
0.18
 40
0.18
309
CELLMARGIN_END
 94
        6
 95
        1
302
GRIDFORMAT
  1
GRIDFORMAT_BEGIN
 90
        0
 91
        1
 62
     3
 92
       -2
340
14
 93
        0
 40
0.045
309
GRIDFORMAT_END
 95
        2
302
GRIDFORMAT
  1
GRIDFORMAT_BEGIN
 90
        0
 91
        1
 62
     7
 92
       -2
340
14
 93
        0
 40
0.045
309
GRIDFORMAT_END
 95
        4
302
GRIDFORMAT
  1
GRIDFORMAT_BEGIN
 90
        0
 91
        1
 62
     3
 92
       -2
340
14
 93
        0
 40
0.045
309
GRIDFORMAT_END
 95
        8
302
GRIDFORMAT
  1
GRIDFORMAT_BEGIN
 90
        0
 91
        1
 62
     3
 92
       -2
340
14
 93
        0
 40
0.045
309
GRIDFORMAT_END
 95
       16
302
GRIDFORMAT
  1
GRIDFORMAT_BEGIN
 90
        0
 91
        1
 62
     7
 92
       -2
340
14
 93
        0
 40
0.045
309
GRIDFORMAT_END
 95
       32
302
GRIDFORMAT
  1
GRIDFORMAT_BEGIN
 90
        0
 91
        1
 62
     3
 92
       -2
340
14
 93
        0
 40
0.045
309
GRIDFORMAT_END
309
TABLEFORMAT_END
  1
CELLSTYLE_BEGIN
 90
        2
 91
        1
300
_HEADER
309
CELLSTYLE_END
300
CELLSTYLE
  1
TABLEFORMAT_BEGIN
 90
        5
170
     1
 91
        0
 92
        0
 62
   257
 93
        1
300
CONTENTFORMAT
  1
CONTENTFORMAT_BEGIN
 90
        0
 91
        0
 92
      512
 93
        0
300

 40
0.0
140
1.0
 94
        7
 62
     3
340
11D
144
0.18
309
CONTENTFORMAT_END
171
     1
301
MARGIN
  1
CELLMARGIN_BEGIN
 40
0.5
 40
1.5
 40
0.06
 40
0.06
 40
0.18
 40
0.18
309
CELLMARGIN_END
 94
        6
 95
        1
302
GRIDFORMAT
  1
GRIDFORMAT_BEGIN
 90
        0
 91
        1
 62
     3
 92
       -2
340
14
 93
        0
 40
0.045
309
GRIDFORMAT_END
 95
        2
302
GRIDFORMAT
  1
GRIDFORMAT_BEGIN
 90
        0
 91
        1
 62
     7
 92
       -2
340
14
 93
        0
 40
0.045
309
GRIDFORMAT_END
 95
        4
302
GRIDFORMAT
  1
GRIDFORMAT_BEGIN
 90
        0
 91
        1
 62
     3
 92
       -2
340
14
 93
        0
 40
0.045
309
GRIDFORMAT_END
 95
        8
302
GRIDFORMAT
  1
GRIDFORMAT_BEGIN
 90
        0
 91
        1
 62
     3
 92
       -2
340
14
 93
        0
 40
0.045
309
GRIDFORMAT_END
 95
       16
302
GRIDFORMAT
  1
GRIDFORMAT_BEGIN
 90
        0
 91
        1
 62
     7
 92
       -2
340
14
 93
        0
 40
0.045
309
GRIDFORMAT_END
 95
       32
302
GRIDFORMAT
  1
GRIDFORMAT_BEGIN
 90
        0
 91
        1
 62
     3
 92
       -2
340
14
 93
        0
 40
0.045
309
GRIDFORMAT_END
309
TABLEFORMAT_END
  1
CELLSTYLE_BEGIN
 90
        3
 91
        2
300
_DATA
309
CELLSTYLE_END
  0
XRECORD
  5
21BD
102
{ACAD_REACTORS
330
D98
102
}
330
D98
100
AcDbXrecord
280
     1
102
ACAD_ROUNDTRIP_PRE2007_TABLESTYLE
 90
      512
 91
        0
  1

 92
      512
 93
        0
  2

 94
      512
 95
        0
  3

  0
XRECORD
  5
2194
102
{ACAD_REACTORS
330
2193
102
}
330
2193
100
AcDbXrecord
280
     1
102
RTVSPropertyOp0
 70
     1
102
RTVSPropertyOp1
 70
     1
102
RTVSPropertyOp2
 70
     1
102
RTVSPropertyOp3
 70
     1
102
RTVSPropertyOp4
 70
     1
102
RTVSPropertyOp5
 70
     1
102
RTVSPropertyOp6
 70
     1
102
RTVSPropertyOp7
 70
     1
102
RTVSPropertyOp8
 70
     1
102
RTVSPropertyOp9
 70
     1
102
RTVSPropertyOp10
 70
     1
102
RTVSPropertyOp11
 70
     1
102
RTVSPropertyOp12
 70
     1
102
RTVSPropertyOp13
 70
     1
102
RTVSPropertyOp14
 70
     1
102
RTVSPropertyOp15
 70
     1
102
RTVSPropertyOp16
 70
     1
102
RTVSPropertyOp17
 70
     1
102
RTVSPropertyOp18
 70
     1
102
RTVSPropertyOp19
 70
     1
102
RTVSPropertyOp20
 70
     1
102
RTVSPropertyOp21
 70
     1
102
RTVSPropertyOp22
 70
     1
102
RTVSPropertyOp23
 70
     1
102
RTVSPropertyOp24
 70
     1
102
RTVSPropertyOp25
 70
     1
102
RTVSPropertyOp26
 70
     1
102
RTVSPropertyOp27
 70
     1
102
RTVSPropertyOp28
 70
     1
102
RTVSPropertyOp29
 70
     1
102
RTVSPropertyOp30
 70
     1
102
RTVSPropertyOp31
 70
     1
102
RTVSPropertyOp32
 70
     1
  0
XRECORD
  5
2198
102
{ACAD_REACTORS
330
2197
102
}
330
2197
100
AcDbXrecord
280
     1
102
RTVSPropertyOp0
 70
     1
102
RTVSPropertyOp1
 70
     1
102
RTVSPropertyOp2
 70
     1
102
RTVSPropertyOp3
 70
     1
102
RTVSPropertyOp4
 70
     1
102
RTVSPropertyOp5
 70
     1
102
RTVSPropertyOp6
 70
     1
102
RTVSPropertyOp7
 70
     1
102
RTVSPropertyOp8
 70
     1
102
RTVSPropertyOp9
 70
     1
102
RTVSPropertyOp10
 70
     1
102
RTVSPropertyOp11
 70
     1
102
RTVSPropertyOp12
 70
     1
102
RTVSPropertyOp13
 70
     1
102
RTVSPropertyOp14
 70
     1
102
RTVSPropertyOp15
 70
     1
102
RTVSPropertyOp16
 70
     1
102
RTVSPropertyOp17
 70
     1
102
RTVSPropertyOp18
 70
     1
102
RTVSPropertyOp19
 70
     1
102
RTVSPropertyOp20
 70
     1
102
RTVSPropertyOp21
 70
     1
102
RTVSPropertyOp22
 70
     1
102
RTVSPropertyOp23
 70
     1
102
RTVSPropertyOp24
 70
     1
102
RTVSPropertyOp25
 70
     1
102
RTVSPropertyOp26
 70
     1
102
RTVSPropertyOp27
 70
     1
102
RTVSPropertyOp28
 70
     1
102
RTVSPropertyOp29
 70
     1
102
RTVSPropertyOp30
 70
     1
102
RTVSPropertyOp31
 70
     1
102
RTVSPropertyOp32
 70
     1
  0
XRECORD
  5
2196
102
{ACAD_REACTORS
330
2195
102
}
330
2195
100
AcDbXrecord
280
     1
102
RTVSPropertyOp0
 70
     1
102
RTVSPropertyOp1
 70
     1
102
RTVSPropertyOp2
 70
     1
102
RTVSPropertyOp3
 70
     1
102
RTVSPropertyOp4
 70
     1
102
RTVSPropertyOp5
 70
     1
102
RTVSPropertyOp6
 70
     1
102
RTVSPropertyOp7
 70
     1
102
RTVSPropertyOp8
 70
     1
102
RTVSPropertyOp9
 70
     1
102
RTVSPropertyOp10
 70
     1
102
RTVSPropertyOp11
 70
     1
102
RTVSPropertyOp12
 70
     1
102
RTVSPropertyOp13
 70
     1
102
RTVSPropertyOp14
 70
     1
102
RTVSPropertyOp15
 70
     1
102
RTVSPropertyOp16
 70
     1
102
RTVSPropertyOp17
 70
     1
102
RTVSPropertyOp18
 70
     1
102
RTVSPropertyOp19
 70
     1
102
RTVSPropertyOp20
 70
     1
102
RTVSPropertyOp21
 70
     1
102
RTVSPropertyOp22
 70
     1
102
RTVSPropertyOp23
 70
     1
102
RTVSPropertyOp24
 70
     1
102
RTVSPropertyOp25
 70
     1
102
RTVSPropertyOp26
 70
     1
102
RTVSPropertyOp27
 70
     1
102
RTVSPropertyOp28
 70
     1
102
RTVSPropertyOp29
 70
     1
102
RTVSPropertyOp30
 70
     1
102
RTVSPropertyOp31
 70
     1
102
RTVSPropertyOp32
 70
     1
  0
XRECORD
  5
2192
102
{ACAD_REACTORS
330
2191
102
}
330
2191
100
AcDbXrecord
280
     1
102
RTVSPropertyOp0
 70
     1
102
RTVSPropertyOp1
 70
     1
102
RTVSPropertyOp2
 70
     1
102
RTVSPropertyOp3
 70
     1
102
RTVSPropertyOp4
 70
     1
102
RTVSPropertyOp5
 70
     1
102
RTVSPropertyOp6
 70
     1
102
RTVSPropertyOp7
 70
     1
102
RTVSPropertyOp8
 70
     1
102
RTVSPropertyOp9
 70
     1
102
RTVSPropertyOp10
 70
     1
102
RTVSPropertyOp11
 70
     1
102
RTVSPropertyOp12
 70
     1
102
RTVSPropertyOp13
 70
     1
102
RTVSPropertyOp14
 70
     1
102
RTVSPropertyOp15
 70
     1
102
RTVSPropertyOp16
 70
     1
102
RTVSPropertyOp17
 70
     1
102
RTVSPropertyOp18
 70
     1
102
RTVSPropertyOp19
 70
     1
102
RTVSPropertyOp20
 70
     1
102
RTVSPropertyOp21
 70
     1
102
RTVSPropertyOp22
 70
     1
102
RTVSPropertyOp23
 70
     1
102
RTVSPropertyOp24
 70
     1
102
RTVSPropertyOp25
 70
     1
102
RTVSPropertyOp26
 70
     1
102
RTVSPropertyOp27
 70
     1
102
RTVSPropertyOp28
 70
     1
102
RTVSPropertyOp29
 70
     1
102
RTVSPropertyOp30
 70
     1
102
RTVSPropertyOp31
 70
     1
102
RTVSPropertyOp32
 70
     1
  0
XRECORD
  5
21A0
102
{ACAD_REACTORS
330
219F
102
}
330
219F
100
AcDbXrecord
280
     1
102
RTVSPropertyOp0
 70
     1
102
RTVSPropertyOp1
 70
     1
102
RTVSPropertyOp2
 70
     1
102
RTVSPropertyOp3
 70
     1
102
RTVSPropertyOp4
 70
     1
102
RTVSPropertyOp5
 70
     1
102
RTVSPropertyOp6
 70
     1
102
RTVSPropertyOp7
 70
     1
102
RTVSPropertyOp8
 70
     1
102
RTVSPropertyOp9
 70
     1
102
RTVSPropertyOp10
 70
     1
102
RTVSPropertyOp11
 70
     1
102
RTVSPropertyOp12
 70
     1
102
RTVSPropertyOp13
 70
     1
102
RTVSPropertyOp14
 70
     1
102
RTVSPropertyOp15
 70
     1
102
RTVSPropertyOp16
 70
     1
102
RTVSPropertyOp17
 70
     1
102
RTVSPropertyOp18
 70
     1
102
RTVSPropertyOp19
 70
     1
102
RTVSPropertyOp20
 70
     1
102
RTVSPropertyOp21
 70
     1
102
RTVSPropertyOp22
 70
     1
102
RTVSPropertyOp23
 70
     1
102
RTVSPropertyOp24
 70
     1
102
RTVSPropertyOp25
 70
     1
102
RTVSPropertyOp26
 70
     1
102
RTVSPropertyOp27
 70
     1
102
RTVSPropertyOp28
 70
     1
102
RTVSPropertyOp29
 70
     1
102
RTVSPropertyOp30
 70
     1
102
RTVSPropertyOp31
 70
     1
102
RTVSPropertyOp32
 70
     1
  0
XRECORD
  5
21A8
102
{ACAD_REACTORS
330
21A7
102
}
330
21A7
100
AcDbXrecord
280
     1
102
RTVSPropertyOp0
 70
     1
102
RTVSPropertyOp1
 70
     1
102
RTVSPropertyOp2
 70
     1
102
RTVSPropertyOp3
 70
     1
102
RTVSPropertyOp4
 70
     1
102
RTVSPropertyOp5
 70
     1
102
RTVSPropertyOp6
 70
     1
102
RTVSPropertyOp7
 70
     1
102
RTVSPropertyOp8
 70
     1
102
RTVSPropertyOp9
 70
     1
102
RTVSPropertyOp10
 70
     1
102
RTVSPropertyOp11
 70
     1
102
RTVSPropertyOp12
 70
     1
102
RTVSPropertyOp13
 70
     1
102
RTVSPropertyOp14
 70
     1
102
RTVSPropertyOp15
 70
     1
102
RTVSPropertyOp16
 70
     1
102
RTVSPropertyOp17
 70
     1
102
RTVSPropertyOp18
 70
     1
102
RTVSPropertyOp19
 70
     1
102
RTVSPropertyOp20
 70
     1
102
RTVSPropertyOp21
 70
     1
102
RTVSPropertyOp22
 70
     1
102
RTVSPropertyOp23
 70
     1
102
RTVSPropertyOp24
 70
     1
102
RTVSPropertyOp25
 70
     1
102
RTVSPropertyOp26
 70
     1
102
RTVSPropertyOp27
 70
     1
102
RTVSPropertyOp28
 70
     1
102
RTVSPropertyOp29
 70
     1
102
RTVSPropertyOp30
 70
     1
102
RTVSPropertyOp31
 70
     1
102
RTVSPropertyOp32
 70
     1
  0
XRECORD
  5
219A
102
{ACAD_REACTORS
330
2199
102
}
330
2199
100
AcDbXrecord
280
     1
102
RTVSPropertyOp0
 70
     1
102
RTVSPropertyOp1
 70
     1
102
RTVSPropertyOp2
 70
     1
102
RTVSPropertyOp3
 70
     1
102
RTVSPropertyOp4
 70
     1
102
RTVSPropertyOp5
 70
     1
102
RTVSPropertyOp6
 70
     1
102
RTVSPropertyOp7
 70
     1
102
RTVSPropertyOp8
 70
     1
102
RTVSPropertyOp9
 70
     1
102
RTVSPropertyOp10
 70
     1
102
RTVSPropertyOp11
 70
     1
102
RTVSPropertyOp12
 70
     1
102
RTVSPropertyOp13
 70
     1
102
RTVSPropertyOp14
 70
     1
102
RTVSPropertyOp15
 70
     1
102
RTVSPropertyOp16
 70
     1
102
RTVSPropertyOp17
 70
     1
102
RTVSPropertyOp18
 70
     1
102
RTVSPropertyOp19
 70
     1
102
RTVSPropertyOp20
 70
     1
102
RTVSPropertyOp21
 70
     1
102
RTVSPropertyOp22
 70
     1
102
RTVSPropertyOp23
 70
     1
102
RTVSPropertyOp24
 70
     1
102
RTVSPropertyOp25
 70
     1
102
RTVSPropertyOp26
 70
     1
102
RTVSPropertyOp27
 70
     1
102
RTVSPropertyOp28
 70
     1
102
RTVSPropertyOp29
 70
     1
102
RTVSPropertyOp30
 70
     1
102
RTVSPropertyOp31
 70
     1
102
RTVSPropertyOp32
 70
     1
  0
XRECORD
  5
219E
102
{ACAD_REACTORS
330
219D
102
}
330
219D
100
AcDbXrecord
280
     1
102
RTVSPropertyOp0
 70
     1
102
RTVSPropertyOp1
 70
     1
102
RTVSPropertyOp2
 70
     1
102
RTVSPropertyOp3
 70
     1
102
RTVSPropertyOp4
 70
     1
102
RTVSPropertyOp5
 70
     1
102
RTVSPropertyOp6
 70
     1
102
RTVSPropertyOp7
 70
     1
102
RTVSPropertyOp8
 70
     1
102
RTVSPropertyOp9
 70
     1
102
RTVSPropertyOp10
 70
     1
102
RTVSPropertyOp11
 70
     1
102
RTVSPropertyOp12
 70
     1
102
RTVSPropertyOp13
 70
     1
102
RTVSPropertyOp14
 70
     1
102
RTVSPropertyOp15
 70
     1
102
RTVSPropertyOp16
 70
     1
102
RTVSPropertyOp17
 70
     1
102
RTVSPropertyOp18
 70
     1
102
RTVSPropertyOp19
 70
     1
102
RTVSPropertyOp20
 70
     1
102
RTVSPropertyOp21
 70
     1
102
RTVSPropertyOp22
 70
     1
102
RTVSPropertyOp23
 70
     1
102
RTVSPropertyOp24
 70
     1
102
RTVSPropertyOp25
 70
     1
102
RTVSPropertyOp26
 70
     1
102
RTVSPropertyOp27
 70
     1
102
RTVSPropertyOp28
 70
     1
102
RTVSPropertyOp29
 70
     1
102
RTVSPropertyOp30
 70
     1
102
RTVSPropertyOp31
 70
     1
102
RTVSPropertyOp32
 70
     1
  0
XRECORD
  5
21BC
102
{ACAD_REACTORS
330
21BB
102
}
330
21BB
100
AcDbXrecord
280
     1
102
RTVSPropertyOp0
 70
     0
102
RTVSPropertyOp1
 70
     0
102
RTVSPropertyOp2
 70
     0
102
RTVSPropertyOp3
 70
     0
102
RTVSPropertyOp4
 70
     0
102
RTVSPropertyOp5
 70
     0
102
RTVSPropertyOp6
 70
     0
102
RTVSPropertyOp7
 70
     0
102
RTVSPropertyOp8
 70
     0
102
RTVSPropertyOp9
 70
     0
102
RTVSPropertyOp10
 70
     0
102
RTVSPropertyOp11
 70
     0
102
RTVSPropertyOp12
 70
     0
102
RTVSPropertyOp13
 70
     0
102
RTVSPropertyOp14
 70
     2
102
RTVSPropertyOp15
 70
     0
102
RTVSPropertyOp16
 70
     0
102
RTVSPropertyOp17
 70
     0
102
RTVSPropertyOp18
 70
     0
102
RTVSPropertyOp19
 70
     0
102
RTVSPropertyOp20
 70
     0
102
RTVSPropertyOp21
 70
     0
102
RTVSPropertyOp22
 70
     0
102
RTVSPropertyOp23
 70
     0
102
RTVSPropertyOp24
 70
     0
102
RTVSPropertyOp25
 70
     0
102
RTVSPropertyOp26
 70
     0
102
RTVSPropertyOp27
 70
     0
102
RTVSPropertyOp28
 70
     1
102
RTVSPropertyOp29
 70
     1
102
RTVSPropertyOp30
 70
     1
102
RTVSPropertyOp31
 70
     1
102
RTVSPropertyOp32
 70
     1
  0
XRECORD
  5
21A6
102
{ACAD_REACTORS
330
21A5
102
}
330
21A5
100
AcDbXrecord
280
     1
102
RTVSPropertyOp0
 70
     1
102
RTVSPropertyOp1
 70
     1
102
RTVSPropertyOp2
 70
     1
102
RTVSPropertyOp3
 70
     1
102
RTVSPropertyOp4
 70
     1
102
RTVSPropertyOp5
 70
     1
102
RTVSPropertyOp6
 70
     1
102
RTVSPropertyOp7
 70
     1
102
RTVSPropertyOp8
 70
     1
102
RTVSPropertyOp9
 70
     1
102
RTVSPropertyOp10
 70
     1
102
RTVSPropertyOp11
 70
     1
102
RTVSPropertyOp12
 70
     1
102
RTVSPropertyOp13
 70
     1
102
RTVSPropertyOp14
 70
     1
102
RTVSPropertyOp15
 70
     1
102
RTVSPropertyOp16
 70
     1
102
RTVSPropertyOp17
 70
     1
102
RTVSPropertyOp18
 70
     1
102
RTVSPropertyOp19
 70
     1
102
RTVSPropertyOp20
 70
     1
102
RTVSPropertyOp21
 70
     1
102
RTVSPropertyOp22
 70
     1
102
RTVSPropertyOp23
 70
     1
102
RTVSPropertyOp24
 70
     1
102
RTVSPropertyOp25
 70
     1
102
RTVSPropertyOp26
 70
     1
102
RTVSPropertyOp27
 70
     1
102
RTVSPropertyOp28
 70
     1
102
RTVSPropertyOp29
 70
     1
102
RTVSPropertyOp30
 70
     1
102
RTVSPropertyOp31
 70
     1
102
RTVSPropertyOp32
 70
     1
  0
XRECORD
  5
218A
102
{ACAD_REACTORS
330
2189
102
}
330
2189
100
AcDbXrecord
280
     1
102
RTVSPropertyOp0
 70
     1
102
RTVSPropertyOp1
 70
     1
102
RTVSPropertyOp2
 70
     1
102
RTVSPropertyOp3
 70
     1
102
RTVSPropertyOp4
 70
     1
102
RTVSPropertyOp5
 70
     1
102
RTVSPropertyOp6
 70
     1
102
RTVSPropertyOp7
 70
     1
102
RTVSPropertyOp8
 70
     1
102
RTVSPropertyOp9
 70
     1
102
RTVSPropertyOp10
 70
     1
102
RTVSPropertyOp11
 70
     1
102
RTVSPropertyOp12
 70
     1
102
RTVSPropertyOp13
 70
     1
102
RTVSPropertyOp14
 70
     1
102
RTVSPropertyOp15
 70
     1
102
RTVSPropertyOp16
 70
     1
102
RTVSPropertyOp17
 70
     1
102
RTVSPropertyOp18
 70
     1
102
RTVSPropertyOp19
 70
     1
102
RTVSPropertyOp20
 70
     1
102
RTVSPropertyOp21
 70
     1
102
RTVSPropertyOp22
 70
     1
102
RTVSPropertyOp23
 70
     1
102
RTVSPropertyOp24
 70
     1
102
RTVSPropertyOp25
 70
     1
102
RTVSPropertyOp26
 70
     1
102
RTVSPropertyOp27
 70
     1
102
RTVSPropertyOp28
 70
     1
102
RTVSPropertyOp29
 70
     1
102
RTVSPropertyOp30
 70
     1
102
RTVSPropertyOp31
 70
     1
102
RTVSPropertyOp32
 70
     1
  0
XRECORD
  5
218C
102
{ACAD_REACTORS
330
218B
102
}
330
218B
100
AcDbXrecord
280
     1
102
RTVSPropertyOp0
 70
     1
102
RTVSPropertyOp1
 70
     1
102
RTVSPropertyOp2
 70
     1
102
RTVSPropertyOp3
 70
     1
102
RTVSPropertyOp4
 70
     1
102
RTVSPropertyOp5
 70
     1
102
RTVSPropertyOp6
 70
     1
102
RTVSPropertyOp7
 70
     1
102
RTVSPropertyOp8
 70
     1
102
RTVSPropertyOp9
 70
     1
102
RTVSPropertyOp10
 70
     1
102
RTVSPropertyOp11
 70
     1
102
RTVSPropertyOp12
 70
     1
102
RTVSPropertyOp13
 70
     1
102
RTVSPropertyOp14
 70
     1
102
RTVSPropertyOp15
 70
     1
102
RTVSPropertyOp16
 70
     1
102
RTVSPropertyOp17
 70
     1
102
RTVSPropertyOp18
 70
     1
102
RTVSPropertyOp19
 70
     1
102
RTVSPropertyOp20
 70
     1
102
RTVSPropertyOp21
 70
     1
102
RTVSPropertyOp22
 70
     1
102
RTVSPropertyOp23
 70
     1
102
RTVSPropertyOp24
 70
     1
102
RTVSPropertyOp25
 70
     1
102
RTVSPropertyOp26
 70
     1
102
RTVSPropertyOp27
 70
     1
102
RTVSPropertyOp28
 70
     1
102
RTVSPropertyOp29
 70
     1
102
RTVSPropertyOp30
 70
     1
102
RTVSPropertyOp31
 70
     1
102
RTVSPropertyOp32
 70
     1
  0
XRECORD
  5
218E
102
{ACAD_REACTORS
330
218D
102
}
330
218D
100
AcDbXrecord
280
     1
102
RTVSPropertyOp0
 70
     1
102
RTVSPropertyOp1
 70
     1
102
RTVSPropertyOp2
 70
     1
102
RTVSPropertyOp3
 70
     1
102
RTVSPropertyOp4
 70
     1
102
RTVSPropertyOp5
 70
     1
102
RTVSPropertyOp6
 70
     1
102
RTVSPropertyOp7
 70
     1
102
RTVSPropertyOp8
 70
     1
102
RTVSPropertyOp9
 70
     1
102
RTVSPropertyOp10
 70
     1
102
RTVSPropertyOp11
 70
     1
102
RTVSPropertyOp12
 70
     1
102
RTVSPropertyOp13
 70
     1
102
RTVSPropertyOp14
 70
     1
102
RTVSPropertyOp15
 70
     1
102
RTVSPropertyOp16
 70
     1
102
RTVSPropertyOp17
 70
     1
102
RTVSPropertyOp18
 70
     1
102
RTVSPropertyOp19
 70
     1
102
RTVSPropertyOp20
 70
     1
102
RTVSPropertyOp21
 70
     1
102
RTVSPropertyOp22
 70
     1
102
RTVSPropertyOp23
 70
     1
102
RTVSPropertyOp24
 70
     1
102
RTVSPropertyOp25
 70
     1
102
RTVSPropertyOp26
 70
     1
102
RTVSPropertyOp27
 70
     1
102
RTVSPropertyOp28
 70
     1
102
RTVSPropertyOp29
 70
     1
102
RTVSPropertyOp30
 70
     1
102
RTVSPropertyOp31
 70
     1
102
RTVSPropertyOp32
 70
     1
  0
XRECORD
  5
2190
102
{ACAD_REACTORS
330
218F
102
}
330
218F
100
AcDbXrecord
280
     1
102
RTVSPropertyOp0
 70
     1
102
RTVSPropertyOp1
 70
     1
102
RTVSPropertyOp2
 70
     1
102
RTVSPropertyOp3
 70
     1
102
RTVSPropertyOp4
 70
     1
102
RTVSPropertyOp5
 70
     1
102
RTVSPropertyOp6
 70
     1
102
RTVSPropertyOp7
 70
     1
102
RTVSPropertyOp8
 70
     1
102
RTVSPropertyOp9
 70
     1
102
RTVSPropertyOp10
 70
     1
102
RTVSPropertyOp11
 70
     1
102
RTVSPropertyOp12
 70
     1
102
RTVSPropertyOp13
 70
     1
102
RTVSPropertyOp14
 70
     1
102
RTVSPropertyOp15
 70
     1
102
RTVSPropertyOp16
 70
     1
102
RTVSPropertyOp17
 70
     1
102
RTVSPropertyOp18
 70
     1
102
RTVSPropertyOp19
 70
     1
102
RTVSPropertyOp20
 70
     1
102
RTVSPropertyOp21
 70
     1
102
RTVSPropertyOp22
 70
     1
102
RTVSPropertyOp23
 70
     1
102
RTVSPropertyOp24
 70
     1
102
RTVSPropertyOp25
 70
     1
102
RTVSPropertyOp26
 70
     1
102
RTVSPropertyOp27
 70
     1
102
RTVSPropertyOp28
 70
     1
102
RTVSPropertyOp29
 70
     1
102
RTVSPropertyOp30
 70
     1
102
RTVSPropertyOp31
 70
     1
102
RTVSPropertyOp32
 70
     1
  0
XRECORD
  5
21AC
102
{ACAD_REACTORS
330
21AB
102
}
330
21AB
100
AcDbXrecord
280
     1
102
RTVSPropertyOp0
 70
     1
102
RTVSPropertyOp1
 70
     1
102
RTVSPropertyOp2
 70
     1
102
RTVSPropertyOp3
 70
     1
102
RTVSPropertyOp4
 70
     1
102
RTVSPropertyOp5
 70
     1
102
RTVSPropertyOp6
 70
     1
102
RTVSPropertyOp7
 70
     1
102
RTVSPropertyOp8
 70
     1
102
RTVSPropertyOp9
 70
     1
102
RTVSPropertyOp10
 70
     1
102
RTVSPropertyOp11
 70
     1
102
RTVSPropertyOp12
 70
     1
102
RTVSPropertyOp13
 70
     1
102
RTVSPropertyOp14
 70
     1
102
RTVSPropertyOp15
 70
     1
102
RTVSPropertyOp16
 70
     1
102
RTVSPropertyOp17
 70
     1
102
RTVSPropertyOp18
 70
     1
102
RTVSPropertyOp19
 70
     1
102
RTVSPropertyOp20
 70
     1
102
RTVSPropertyOp21
 70
     1
102
RTVSPropertyOp22
 70
     1
102
RTVSPropertyOp23
 70
     1
102
RTVSPropertyOp24
 70
     1
102
RTVSPropertyOp25
 70
     1
102
RTVSPropertyOp26
 70
     1
102
RTVSPropertyOp27
 70
     1
102
RTVSPropertyOp28
 70
     1
102
RTVSPropertyOp29
 70
     1
102
RTVSPropertyOp30
 70
     1
102
RTVSPropertyOp31
 70
     1
102
RTVSPropertyOp32
 70
     1
  0
XRECORD
  5
21B8
102
{ACAD_REACTORS
330
21B7
102
}
330
21B7
100
AcDbXrecord
280
     1
102
RTVSPropertyOp0
 70
     0
102
RTVSPropertyOp1
 70
     0
102
RTVSPropertyOp2
 70
     0
102
RTVSPropertyOp3
 70
     0
102
RTVSPropertyOp4
 70
     0
102
RTVSPropertyOp5
 70
     0
102
RTVSPropertyOp6
 70
     0
102
RTVSPropertyOp7
 70
     0
102
RTVSPropertyOp8
 70
     0
102
RTVSPropertyOp9
 70
     0
102
RTVSPropertyOp10
 70
     0
102
RTVSPropertyOp11
 70
     0
102
RTVSPropertyOp12
 70
     0
102
RTVSPropertyOp13
 70
     0
102
RTVSPropertyOp14
 70
     2
102
RTVSPropertyOp15
 70
     0
102
RTVSPropertyOp16
 70
     0
102
RTVSPropertyOp17
 70
     0
102
RTVSPropertyOp18
 70
     0
102
RTVSPropertyOp19
 70
     0
102
RTVSPropertyOp20
 70
     0
102
RTVSPropertyOp21
 70
     0
102
RTVSPropertyOp22
 70
     0
102
RTVSPropertyOp23
 70
     0
102
RTVSPropertyOp24
 70
     0
102
RTVSPropertyOp25
 70
     0
102
RTVSPropertyOp26
 70
     0
102
RTVSPropertyOp27
 70
     0
102
RTVSPropertyOp28
 70
     1
102
RTVSPropertyOp29
 70
     1
102
RTVSPropertyOp30
 70
     1
102
RTVSPropertyOp31
 70
     1
102
RTVSPropertyOp32
 70
     1
  0
XRECORD
  5
21A4
102
{ACAD_REACTORS
330
21A3
102
}
330
21A3
100
AcDbXrecord
280
     1
102
RTVSPropertyOp0
 70
     1
102
RTVSPropertyOp1
 70
     1
102
RTVSPropertyOp2
 70
     1
102
RTVSPropertyOp3
 70
     1
102
RTVSPropertyOp4
 70
     1
102
RTVSPropertyOp5
 70
     1
102
RTVSPropertyOp6
 70
     1
102
RTVSPropertyOp7
 70
     1
102
RTVSPropertyOp8
 70
     1
102
RTVSPropertyOp9
 70
     1
102
RTVSPropertyOp10
 70
     1
102
RTVSPropertyOp11
 70
     1
102
RTVSPropertyOp12
 70
     1
102
RTVSPropertyOp13
 70
     1
102
RTVSPropertyOp14
 70
     1
102
RTVSPropertyOp15
 70
     1
102
RTVSPropertyOp16
 70
     1
102
RTVSPropertyOp17
 70
     1
102
RTVSPropertyOp18
 70
     1
102
RTVSPropertyOp19
 70
     1
102
RTVSPropertyOp20
 70
     1
102
RTVSPropertyOp21
 70
     1
102
RTVSPropertyOp22
 70
     1
102
RTVSPropertyOp23
 70
     1
102
RTVSPropertyOp24
 70
     1
102
RTVSPropertyOp25
 70
     1
102
RTVSPropertyOp26
 70
     1
102
RTVSPropertyOp27
 70
     1
102
RTVSPropertyOp28
 70
     1
102
RTVSPropertyOp29
 70
     1
102
RTVSPropertyOp30
 70
     1
102
RTVSPropertyOp31
 70
     1
102
RTVSPropertyOp32
 70
     1
  0
XRECORD
  5
21BA
102
{ACAD_REACTORS
330
21B9
102
}
330
21B9
100
AcDbXrecord
280
     1
102
RTVSPropertyOp0
 70
     0
102
RTVSPropertyOp1
 70
     0
102
RTVSPropertyOp2
 70
     0
102
RTVSPropertyOp3
 70
     0
102
RTVSPropertyOp4
 70
     0
102
RTVSPropertyOp5
 70
     0
102
RTVSPropertyOp6
 70
     0
102
RTVSPropertyOp7
 70
     0
102
RTVSPropertyOp8
 70
     0
102
RTVSPropertyOp9
 70
     0
102
RTVSPropertyOp10
 70
     0
102
RTVSPropertyOp11
 70
     0
102
RTVSPropertyOp12
 70
     0
102
RTVSPropertyOp13
 70
     0
102
RTVSPropertyOp14
 70
     2
102
RTVSPropertyOp15
 70
     0
102
RTVSPropertyOp16
 70
     0
102
RTVSPropertyOp17
 70
     0
102
RTVSPropertyOp18
 70
     0
102
RTVSPropertyOp19
 70
     0
102
RTVSPropertyOp20
 70
     0
102
RTVSPropertyOp21
 70
     0
102
RTVSPropertyOp22
 70
     0
102
RTVSPropertyOp23
 70
     0
102
RTVSPropertyOp24
 70
     0
102
RTVSPropertyOp25
 70
     0
102
RTVSPropertyOp26
 70
     0
102
RTVSPropertyOp27
 70
     0
102
RTVSPropertyOp28
 70
     1
102
RTVSPropertyOp29
 70
     1
102
RTVSPropertyOp30
 70
     1
102
RTVSPropertyOp31
 70
     1
102
RTVSPropertyOp32
 70
     1
  0
XRECORD
  5
219C
102
{ACAD_REACTORS
330
219B
102
}
330
219B
100
AcDbXrecord
280
     1
102
RTVSPropertyOp0
 70
     1
102
RTVSPropertyOp1
 70
     1
102
RTVSPropertyOp2
 70
     1
102
RTVSPropertyOp3
 70
     1
102
RTVSPropertyOp4
 70
     1
102
RTVSPropertyOp5
 70
     1
102
RTVSPropertyOp6
 70
     1
102
RTVSPropertyOp7
 70
     1
102
RTVSPropertyOp8
 70
     1
102
RTVSPropertyOp9
 70
     1
102
RTVSPropertyOp10
 70
     1
102
RTVSPropertyOp11
 70
     1
102
RTVSPropertyOp12
 70
     1
102
RTVSPropertyOp13
 70
     1
102
RTVSPropertyOp14
 70
     1
102
RTVSPropertyOp15
 70
     1
102
RTVSPropertyOp16
 70
     1
102
RTVSPropertyOp17
 70
     1
102
RTVSPropertyOp18
 70
     1
102
RTVSPropertyOp19
 70
     1
102
RTVSPropertyOp20
 70
     1
102
RTVSPropertyOp21
 70
     1
102
RTVSPropertyOp22
 70
     1
102
RTVSPropertyOp23
 70
     1
102
RTVSPropertyOp24
 70
     1
102
RTVSPropertyOp25
 70
     1
102
RTVSPropertyOp26
 70
     1
102
RTVSPropertyOp27
 70
     1
102
RTVSPropertyOp28
 70
     1
102
RTVSPropertyOp29
 70
     1
102
RTVSPropertyOp30
 70
     1
102
RTVSPropertyOp31
 70
     1
102
RTVSPropertyOp32
 70
     1
  0
XRECORD
  5
21B6
102
{ACAD_REACTORS
330
21B5
102
}
330
21B5
100
AcDbXrecord
280
     1
102
RTVSPropertyOp0
 70
     1
102
RTVSPropertyOp1
 70
     1
102
RTVSPropertyOp2
 70
     1
102
RTVSPropertyOp3
 70
     1
102
RTVSPropertyOp4
 70
     1
102
RTVSPropertyOp5
 70
     1
102
RTVSPropertyOp6
 70
     1
102
RTVSPropertyOp7
 70
     1
102
RTVSPropertyOp8
 70
     1
102
RTVSPropertyOp9
 70
     1
102
RTVSPropertyOp10
 70
     1
102
RTVSPropertyOp11
 70
     1
102
RTVSPropertyOp12
 70
     1
102
RTVSPropertyOp13
 70
     1
102
RTVSPropertyOp14
 70
     1
102
RTVSPropertyOp15
 70
     1
102
RTVSPropertyOp16
 70
     1
102
RTVSPropertyOp17
 70
     1
102
RTVSPropertyOp18
 70
     1
102
RTVSPropertyOp19
 70
     1
102
RTVSPropertyOp20
 70
     1
102
RTVSPropertyOp21
 70
     1
102
RTVSPropertyOp22
 70
     1
102
RTVSPropertyOp23
 70
     1
102
RTVSPropertyOp24
 70
     1
102
RTVSPropertyOp25
 70
     1
102
RTVSPropertyOp26
 70
     1
102
RTVSPropertyOp27
 70
     1
102
RTVSPropertyOp28
 70
     1
102
RTVSPropertyOp29
 70
     1
102
RTVSPropertyOp30
 70
     1
102
RTVSPropertyOp31
 70
     1
102
RTVSPropertyOp32
 70
     1
  0
XRECORD
  5
21B4
102
{ACAD_REACTORS
330
21B3
102
}
330
21B3
100
AcDbXrecord
280
     1
102
RTVSPropertyOp0
 70
     1
102
RTVSPropertyOp1
 70
     1
102
RTVSPropertyOp2
 70
     1
102
RTVSPropertyOp3
 70
     1
102
RTVSPropertyOp4
 70
     1
102
RTVSPropertyOp5
 70
     1
102
RTVSPropertyOp6
 70
     1
102
RTVSPropertyOp7
 70
     1
102
RTVSPropertyOp8
 70
     1
102
RTVSPropertyOp9
 70
     1
102
RTVSPropertyOp10
 70
     1
102
RTVSPropertyOp11
 70
     1
102
RTVSPropertyOp12
 70
     1
102
RTVSPropertyOp13
 70
     1
102
RTVSPropertyOp14
 70
     1
102
RTVSPropertyOp15
 70
     1
102
RTVSPropertyOp16
 70
     1
102
RTVSPropertyOp17
 70
     1
102
RTVSPropertyOp18
 70
     1
102
RTVSPropertyOp19
 70
     1
102
RTVSPropertyOp20
 70
     1
102
RTVSPropertyOp21
 70
     1
102
RTVSPropertyOp22
 70
     1
102
RTVSPropertyOp23
 70
     1
102
RTVSPropertyOp24
 70
     1
102
RTVSPropertyOp25
 70
     1
102
RTVSPropertyOp26
 70
     1
102
RTVSPropertyOp27
 70
     1
102
RTVSPropertyOp28
 70
     1
102
RTVSPropertyOp29
 70
     1
102
RTVSPropertyOp30
 70
     1
102
RTVSPropertyOp31
 70
     1
102
RTVSPropertyOp32
 70
     1
  0
XRECORD
  5
21AE
102
{ACAD_REACTORS
330
21AD
102
}
330
21AD
100
AcDbXrecord
280
     1
102
RTVSPropertyOp0
 70
     1
102
RTVSPropertyOp1
 70
     1
102
RTVSPropertyOp2
 70
     1
102
RTVSPropertyOp3
 70
     1
102
RTVSPropertyOp4
 70
     1
102
RTVSPropertyOp5
 70
     1
102
RTVSPropertyOp6
 70
     1
102
RTVSPropertyOp7
 70
     1
102
RTVSPropertyOp8
 70
     1
102
RTVSPropertyOp9
 70
     1
102
RTVSPropertyOp10
 70
     1
102
RTVSPropertyOp11
 70
     1
102
RTVSPropertyOp12
 70
     1
102
RTVSPropertyOp13
 70
     1
102
RTVSPropertyOp14
 70
     1
102
RTVSPropertyOp15
 70
     1
102
RTVSPropertyOp16
 70
     1
102
RTVSPropertyOp17
 70
     1
102
RTVSPropertyOp18
 70
     1
102
RTVSPropertyOp19
 70
     1
102
RTVSPropertyOp20
 70
     1
102
RTVSPropertyOp21
 70
     1
102
RTVSPropertyOp22
 70
     1
102
RTVSPropertyOp23
 70
     1
102
RTVSPropertyOp24
 70
     1
102
RTVSPropertyOp25
 70
     1
102
RTVSPropertyOp26
 70
     1
102
RTVSPropertyOp27
 70
     1
102
RTVSPropertyOp28
 70
     1
102
RTVSPropertyOp29
 70
     1
102
RTVSPropertyOp30
 70
     1
102
RTVSPropertyOp31
 70
     1
102
RTVSPropertyOp32
 70
     1
  0
XRECORD
  5
21B0
102
{ACAD_REACTORS
330
21AF
102
}
330
21AF
100
AcDbXrecord
280
     1
102
RTVSPropertyOp0
 70
     1
102
RTVSPropertyOp1
 70
     1
102
RTVSPropertyOp2
 70
     1
102
RTVSPropertyOp3
 70
     1
102
RTVSPropertyOp4
 70
     1
102
RTVSPropertyOp5
 70
     1
102
RTVSPropertyOp6
 70
     1
102
RTVSPropertyOp7
 70
     1
102
RTVSPropertyOp8
 70
     1
102
RTVSPropertyOp9
 70
     1
102
RTVSPropertyOp10
 70
     1
102
RTVSPropertyOp11
 70
     1
102
RTVSPropertyOp12
 70
     1
102
RTVSPropertyOp13
 70
     1
102
RTVSPropertyOp14
 70
     1
102
RTVSPropertyOp15
 70
     1
102
RTVSPropertyOp16
 70
     1
102
RTVSPropertyOp17
 70
     1
102
RTVSPropertyOp18
 70
     1
102
RTVSPropertyOp19
 70
     1
102
RTVSPropertyOp20
 70
     1
102
RTVSPropertyOp21
 70
     1
102
RTVSPropertyOp22
 70
     1
102
RTVSPropertyOp23
 70
     1
102
RTVSPropertyOp24
 70
     1
102
RTVSPropertyOp25
 70
     1
102
RTVSPropertyOp26
 70
     1
102
RTVSPropertyOp27
 70
     1
102
RTVSPropertyOp28
 70
     1
102
RTVSPropertyOp29
 70
     1
102
RTVSPropertyOp30
 70
     1
102
RTVSPropertyOp31
 70
     1
102
RTVSPropertyOp32
 70
     1
  0
XRECORD
  5
21A2
102
{ACAD_REACTORS
330
21A1
102
}
330
21A1
100
AcDbXrecord
280
     1
102
RTVSPropertyOp0
 70
     1
102
RTVSPropertyOp1
 70
     1
102
RTVSPropertyOp2
 70
     1
102
RTVSPropertyOp3
 70
     1
102
RTVSPropertyOp4
 70
     1
102
RTVSPropertyOp5
 70
     1
102
RTVSPropertyOp6
 70
     1
102
RTVSPropertyOp7
 70
     1
102
RTVSPropertyOp8
 70
     1
102
RTVSPropertyOp9
 70
     1
102
RTVSPropertyOp10
 70
     1
102
RTVSPropertyOp11
 70
     1
102
RTVSPropertyOp12
 70
     1
102
RTVSPropertyOp13
 70
     1
102
RTVSPropertyOp14
 70
     1
102
RTVSPropertyOp15
 70
     1
102
RTVSPropertyOp16
 70
     1
102
RTVSPropertyOp17
 70
     1
102
RTVSPropertyOp18
 70
     1
102
RTVSPropertyOp19
 70
     1
102
RTVSPropertyOp20
 70
     1
102
RTVSPropertyOp21
 70
     1
102
RTVSPropertyOp22
 70
     1
102
RTVSPropertyOp23
 70
     1
102
RTVSPropertyOp24
 70
     1
102
RTVSPropertyOp25
 70
     1
102
RTVSPropertyOp26
 70
     1
102
RTVSPropertyOp27
 70
     1
102
RTVSPropertyOp28
 70
     1
102
RTVSPropertyOp29
 70
     1
102
RTVSPropertyOp30
 70
     1
102
RTVSPropertyOp31
 70
     1
102
RTVSPropertyOp32
 70
     1
  0
XRECORD
  5
21AA
102
{ACAD_REACTORS
330
21A9
102
}
330
21A9
100
AcDbXrecord
280
     1
102
RTVSPropertyOp0
 70
     1
102
RTVSPropertyOp1
 70
     1
102
RTVSPropertyOp2
 70
     1
102
RTVSPropertyOp3
 70
     1
102
RTVSPropertyOp4
 70
     1
102
RTVSPropertyOp5
 70
     1
102
RTVSPropertyOp6
 70
     1
102
RTVSPropertyOp7
 70
     1
102
RTVSPropertyOp8
 70
     1
102
RTVSPropertyOp9
 70
     1
102
RTVSPropertyOp10
 70
     1
102
RTVSPropertyOp11
 70
     1
102
RTVSPropertyOp12
 70
     1
102
RTVSPropertyOp13
 70
     1
102
RTVSPropertyOp14
 70
     1
102
RTVSPropertyOp15
 70
     1
102
RTVSPropertyOp16
 70
     1
102
RTVSPropertyOp17
 70
     1
102
RTVSPropertyOp18
 70
     1
102
RTVSPropertyOp19
 70
     1
102
RTVSPropertyOp20
 70
     1
102
RTVSPropertyOp21
 70
     1
102
RTVSPropertyOp22
 70
     1
102
RTVSPropertyOp23
 70
     1
102
RTVSPropertyOp24
 70
     1
102
RTVSPropertyOp25
 70
     1
102
RTVSPropertyOp26
 70
     1
102
RTVSPropertyOp27
 70
     1
102
RTVSPropertyOp28
 70
     1
102
RTVSPropertyOp29
 70
     1
102
RTVSPropertyOp30
 70
     1
102
RTVSPropertyOp31
 70
     1
102
RTVSPropertyOp32
 70
     1
  0
XRECORD
  5
21B2
102
{ACAD_REACTORS
330
21B1
102
}
330
21B1
100
AcDbXrecord
280
     1
102
RTVSPropertyOp0
 70
     1
102
RTVSPropertyOp1
 70
     1
102
RTVSPropertyOp2
 70
     1
102
RTVSPropertyOp3
 70
     1
102
RTVSPropertyOp4
 70
     1
102
RTVSPropertyOp5
 70
     1
102
RTVSPropertyOp6
 70
     1
102
RTVSPropertyOp7
 70
     1
102
RTVSPropertyOp8
 70
     1
102
RTVSPropertyOp9
 70
     1
102
RTVSPropertyOp10
 70
     1
102
RTVSPropertyOp11
 70
     1
102
RTVSPropertyOp12
 70
     1
102
RTVSPropertyOp13
 70
     1
102
RTVSPropertyOp14
 70
     1
102
RTVSPropertyOp15
 70
     1
102
RTVSPropertyOp16
 70
     1
102
RTVSPropertyOp17
 70
     1
102
RTVSPropertyOp18
 70
     1
102
RTVSPropertyOp19
 70
     1
102
RTVSPropertyOp20
 70
     1
102
RTVSPropertyOp21
 70
     1
102
RTVSPropertyOp22
 70
     1
102
RTVSPropertyOp23
 70
     1
102
RTVSPropertyOp24
 70
     1
102
RTVSPropertyOp25
 70
     1
102
RTVSPropertyOp26
 70
     1
102
RTVSPropertyOp27
 70
     1
102
RTVSPropertyOp28
 70
     1
102
RTVSPropertyOp29
 70
     1
102
RTVSPropertyOp30
 70
     1
102
RTVSPropertyOp31
 70
     1
102
RTVSPropertyOp32
 70
     1
  0
ENDSEC
  0
EOF
