  0
SECTION
  2
HEADER
  9
$ACADVER
  1
AC1015
  9
$ACADMAINTVER
 70
    20
  9
$DWGCODEPAGE
  3
ANSI_932
  9
$INSBASE
 10
0.0
 20
0.0
 30
0.0
  9
$EXTMIN
 10
1503.325211780021
 20
75.75361520059587
 30
0.0
  9
$EXTMAX
 10
1908.325211780021
 20
354.9366793207531
 30
0.0
  9
$LIMMIN
 10
0.0
 20
0.0
  9
$LIMMAX
 10
12.0
 20
9.0
  9
$ORTHOMODE
 70
     0
  9
$REGENMODE
 70
     1
  9
$FILLMODE
 70
     1
  9
$QTEXTMODE
 70
     0
  9
$MIRRTEXT
 70
     0
  9
$LTSCALE
 40
1.0
  9
$ATTMODE
 70
     1
  9
$TEXTSIZE
 40
3.2
  9
$TRACEWID
 40
0.05
  9
$TEXTSTYLE
  7
高3.2
  9
$CLAYER
  8
0
  9
$CELTYPE
  6
ByLayer
  9
$CECOLOR
 62
   256
  9
$CELTSCALE
 40
1.0
  9
$DISPSILH
 70
     0
  9
$DIMSCALE
 40
1.0
  9
$DIMASZ
 40
2.5
  9
$DIMEXO
 40
0.25
  9
$DIMDLI
 40
0.2
  9
$DIMRND
 40
0.0
  9
$DIMDLE
 40
0.0
  9
$DIMEXE
 40
1.25
  9
$DIMTP
 40
0.0
  9
$DIMTM
 40
0.0
  9
$DIMTXT
 40
3.0
  9
$DIMCEN
 40
0.0
  9
$DIMTSZ
 40
0.0
  9
$DIMTOL
 70
     0
  9
$DIMLIM
 70
     0
  9
$DIMTIH
 70
     0
  9
$DIMTOH
 70
     0
  9
$DIMSE1
 70
     0
  9
$DIMSE2
 70
     0
  9
$DIMTAD
 70
     3
  9
$DIMZIN
 70
     8
  9
$DIMBLK
  1
Open30
  9
$DIMASO
 70
     1
  9
$DIMSHO
 70
     1
  9
$DIMPOST
  1

  9
$DIMAPOST
  1

  9
$DIMALT
 70
     0
  9
$DIMALTD
 70
     3
  9
$DIMALTF
 40
0.03937007874016
  9
$DIMLFAC
 40
5.0
  9
$DIMTOFL
 70
     1
  9
$DIMTVP
 40
0.0
  9
$DIMTIX
 70
     0
  9
$DIMSOXD
 70
     0
  9
$DIMSAH
 70
     0
  9
$DIMBLK1
  1

  9
$DIMBLK2
  1

  9
$DIMSTYLE
  2
1／5
  9
$DIMCLRD
 70
     0
  9
$DIMCLRE
 70
     0
  9
$DIMCLRT
 70
     4
  9
$DIMTFAC
 40
1.0
  9
$DIMGAP
 40
0.625
  9
$DIMJUST
 70
     0
  9
$DIMSD1
 70
     0
  9
$DIMSD2
 70
     0
  9
$DIMTOLJ
 70
     0
  9
$DIMTZIN
 70
     8
  9
$DIMALTZ
 70
     0
  9
$DIMALTTZ
 70
     0
  9
$DIMUPT
 70
     1
  9
$DIMDEC
 70
     2
  9
$DIMTDEC
 70
     2
  9
$DIMALTU
 70
     2
  9
$DIMALTTD
 70
     3
  9
$DIMTXSTY
  7
Standard
  9
$DIMAUNIT
 70
     0
  9
$DIMADEC
 70
     1
  9
$DIMALTRND
 40
0.0
  9
$DIMAZIN
 70
     2
  9
$DIMDSEP
 70
    46
  9
$DIMATFIT
 70
     0
  9
$DIMFRAC
 70
     0
  9
$DIMLDRBLK
  1
Open30
  9
$DIMLUNIT
 70
     2
  9
$DIMLWD
 70
    -2
  9
$DIMLWE
 70
    -2
  9
$DIMTMOVE
 70
     0
  9
$LUNITS
 70
     2
  9
$LUPREC
 70
     4
  9
$SKETCHINC
 40
0.1
  9
$FILLETRAD
 40
0.0
  9
$AUNITS
 70
     0
  9
$AUPREC
 70
     0
  9
$MENU
  1
.
  9
$ELEVATION
 40
0.0
  9
$PELEVATION
 40
0.0
  9
$THICKNESS
 40
0.0
  9
$LIMCHECK
 70
     0
  9
$CHAMFERA
 40
0.0
  9
$CHAMFERB
 40
0.0
  9
$CHAMFERC
 40
0.0
  9
$CHAMFERD
 40
0.0
  9
$SKPOLY
 70
     0
  9
$TDCREATE
 40
2458807.553720614
  9
$TDUCREATE
 40
2458807.178720614
  9
$TDUPDATE
 40
2459556.378972384
  9
$TDUUPDATE
 40
2459556.003972384
  9
$TDINDWG
 40
0.3904094907
  9
$TDUSRTIMER
 40
0.3904085764
  9
$USRTIMER
 70
     1
  9
$ANGBASE
 50
0.0
  9
$ANGDIR
 70
     0
  9
$PDMODE
 70
     0
  9
$PDSIZE
 40
0.0
  9
$PLINEWID
 40
0.0
  9
$SPLFRAME
 70
     0
  9
$SPLINETYPE
 70
     6
  9
$SPLINESEGS
 70
     8
  9
$HANDSEED
  5
20E8
  9
$SURFTAB1
 70
     6
  9
$SURFTAB2
 70
     6
  9
$SURFTYPE
 70
     6
  9
$SURFU
 70
     6
  9
$SURFV
 70
     6
  9
$UCSBASE
  2

  9
$UCSNAME
  2

  9
$UCSORG
 10
0.0
 20
0.0
 30
0.0
  9
$UCSXDIR
 10
1.0
 20
0.0
 30
0.0
  9
$UCSYDIR
 10
0.0
 20
1.0
 30
0.0
  9
$UCSORTHOREF
  2

  9
$UCSORTHOVIEW
 70
     0
  9
$UCSORGTOP
 10
0.0
 20
0.0
 30
0.0
  9
$UCSORGBOTTOM
 10
0.0
 20
0.0
 30
0.0
  9
$UCSORGLEFT
 10
0.0
 20
0.0
 30
0.0
  9
$UCSORGRIGHT
 10
0.0
 20
0.0
 30
0.0
  9
$UCSORGFRONT
 10
0.0
 20
0.0
 30
0.0
  9
$UCSORGBACK
 10
0.0
 20
0.0
 30
0.0
  9
$PUCSBASE
  2

  9
$PUCSNAME
  2

  9
$PUCSORG
 10
0.0
 20
0.0
 30
0.0
  9
$PUCSXDIR
 10
1.0
 20
0.0
 30
0.0
  9
$PUCSYDIR
 10
0.0
 20
1.0
 30
0.0
  9
$PUCSORTHOREF
  2

  9
$PUCSORTHOVIEW
 70
     0
  9
$PUCSORGTOP
 10
0.0
 20
0.0
 30
0.0
  9
$PUCSORGBOTTOM
 10
0.0
 20
0.0
 30
0.0
  9
$PUCSORGLEFT
 10
0.0
 20
0.0
 30
0.0
  9
$PUCSORGRIGHT
 10
0.0
 20
0.0
 30
0.0
  9
$PUCSORGFRONT
 10
0.0
 20
0.0
 30
0.0
  9
$PUCSORGBACK
 10
0.0
 20
0.0
 30
0.0
  9
$USERI1
 70
     0
  9
$USERI2
 70
     0
  9
$USERI3
 70
     0
  9
$USERI4
 70
     0
  9
$USERI5
 70
     0
  9
$USERR1
 40
0.0
  9
$USERR2
 40
0.0
  9
$USERR3
 40
0.0
  9
$USERR4
 40
0.0
  9
$USERR5
 40
0.0
  9
$WORLDVIEW
 70
     1
  9
$SHADEDGE
 70
     3
  9
$SHADEDIF
 70
    70
  9
$TILEMODE
 70
     1
  9
$MAXACTVP
 70
    64
  9
$PINSBASE
 10
0.0
 20
0.0
 30
0.0
  9
$PLIMCHECK
 70
     0
  9
$PEXTMIN
 10
0.0
 20
0.0
 30
0.0
  9
$PEXTMAX
 10
0.0
 20
0.0
 30
0.0
  9
$PLIMMIN
 10
0.0
 20
0.0
  9
$PLIMMAX
 10
12.0
 20
9.0
  9
$UNITMODE
 70
     0
  9
$VISRETAIN
 70
     1
  9
$PLINEGEN
 70
     0
  9
$PSLTSCALE
 70
     1
  9
$TREEDEPTH
 70
  3020
  9
$CMLSTYLE
  2
Standard
  9
$CMLJUST
 70
     0
  9
$CMLSCALE
 40
1.0
  9
$PROXYGRAPHICS
 70
     1
  9
$MEASUREMENT
 70
     1
  9
$CELWEIGHT
370
    -1
  9
$ENDCAPS
280
     0
  9
$JOINSTYLE
280
     0
  9
$LWDISPLAY
290
     0
  9
$INSUNITS
 70
     1
  9
$HYPERLINKBASE
  1

  9
$STYLESHEET
  1

  9
$XEDIT
290
     1
  9
$CEPSNTYPE
380
     0
  9
$PSTYLEMODE
290
     1
  9
$FINGERPRINTGUID
  2
{45633027-C016-4E70-BF40-BB2D012833B7}
  9
$VERSIONGUID
  2
{6DD5C002-F964-46FF-B310-DFB4E8F53051}
  9
$EXTNAMES
290
     1
  9
$PSVPSCALE
 40
0.0
  9
$OLESTARTUP
290
     0
  0
ENDSEC
  0
SECTION
  2
CLASSES
  0
CLASS
  1
ACDBDICTIONARYWDFLT
  2
AcDbDictionaryWithDefault
  3
ObjectDBX Classes
 90
        0
280
     0
281
     0
  0
CLASS
  1
ACDBPLACEHOLDER
  2
AcDbPlaceHolder
  3
ObjectDBX Classes
 90
        0
280
     0
281
     0
  0
CLASS
  1
LAYOUT
  2
AcDbLayout
  3
ObjectDBX Classes
 90
        0
280
     0
281
     0
  0
CLASS
  1
DICTIONARYVAR
  2
AcDbDictionaryVar
  3
ObjectDBX Classes
 90
        0
280
     0
281
     0
  0
CLASS
  1
TABLESTYLE
  2
AcDbTableStyle
  3
ObjectDBX Classes
 90
     4095
280
     0
281
     0
  0
CLASS
  1
MATERIAL
  2
AcDbMaterial
  3
ObjectDBX Classes
 90
     1153
280
     0
281
     0
  0
CLASS
  1
VISUALSTYLE
  2
AcDbVisualStyle
  3
ObjectDBX Classes
 90
     4095
280
     0
281
     0
  0
CLASS
  1
SORTENTSTABLE
  2
AcDbSortentsTable
  3
ObjectDBX Classes
 90
        0
280
     0
281
     0
  0
CLASS
  1
DIMASSOC
  2
AcDbDimAssoc
  3
"AcDbDimAssoc|Product Desc:     AcDim ARX App For Dimension|Company:          Autodesk, Inc.|WEB Address:      www.autodesk.com"
 90
        0
280
     0
281
     0
  0
CLASS
  1
SCALE
  2
AcDbScale
  3
ObjectDBX Classes
 90
     1153
280
     0
281
     0
  0
CLASS
  1
MLEADERSTYLE
  2
AcDbMLeaderStyle
  3
ACDB_MLEADERSTYLE_CLASS
 90
     4095
280
     0
281
     0
  0
CLASS
  1
CELLSTYLEMAP
  2
AcDbCellStyleMap
  3
ObjectDBX Classes
 90
     1152
280
     0
281
     0
  0
CLASS
  1
AEC_REFEDIT_STATUS_TRACKER
  2
AecDbRefEditStatusTracker
  3
AecArchBase60|Product Desc: Autodesk Architectural Desktop 2007 |Company: Autodesk,Inc. |WEB Address: www.autodesk.com
 90
    32897
280
     0
281
     0
  0
CLASS
  1
NPOCOLLECTION
  2
AcDbImpNonPersistentObjectsCollection
  3
ObjectDBX Classes
 90
    33921
280
     0
281
     0
  0
ENDSEC
  0
SECTION
  2
TABLES
  0
TABLE
  2
VPORT
  5
8
102
{ACAD_XDICTIONARY
360
AE9
102
}
330
0
100
AcDbSymbolTable
 70
     1
  0
VPORT
  5
94
330
8
100
AcDbSymbolTableRecord
100
AcDbViewportTableRecord
  2
*Active
 70
     0
 10
0.0
 20
0.0
 11
1.0
 21
1.0
 12
1949.07075562888
 22
270.2228324495175
 13
0.0
 23
0.0
 14
0.5
 24
0.5
 15
0.5
 25
0.5
 16
0.0
 26
0.0
 36
1.0
 17
0.0
 27
0.0
 37
0.0
 40
570.0825806027601
 41
2.024643320363164
 42
50.0
 43
0.0
 44
0.0
 50
0.0
 51
0.0
 71
     0
 72
  1000
 73
     1
 74
     2
 75
     0
 76
     0
 77
     0
 78
     0
281
     0
 65
     1
110
0.0
120
0.0
130
0.0
111
1.0
121
0.0
131
0.0
112
0.0
122
1.0
132
0.0
 79
     0
146
0.0
  0
ENDTAB
  0
TABLE
  2
LTYPE
  5
5
330
0
100
AcDbSymbolTable
 70
     4
  0
LTYPE
  5
14
330
5
100
AcDbSymbolTableRecord
100
AcDbLinetypeTableRecord
  2
ByBlock
 70
     0
  3

 72
    65
 73
     0
 40
0.0
  0
LTYPE
  5
15
330
5
100
AcDbSymbolTableRecord
100
AcDbLinetypeTableRecord
  2
ByLayer
 70
     0
  3

 72
    65
 73
     0
 40
0.0
  0
LTYPE
  5
16
330
5
100
AcDbSymbolTableRecord
100
AcDbLinetypeTableRecord
  2
Continuous
 70
     0
  3
Solid line
 72
    65
 73
     0
 40
0.0
  0
LTYPE
  5
148
330
5
100
AcDbSymbolTableRecord
100
AcDbLinetypeTableRecord
  2
CENTER
 70
     0
  3
Center ____ _ ____ _ ____ _ ____ _ ____ _ ____
 72
    65
 73
     4
 40
50.8
 49
31.75
 74
     0
 49
-6.349999999999997
 74
     0
 49
6.349999999999997
 74
     0
 49
-6.349999999999997
 74
     0
  0
LTYPE
  5
149
330
5
100
AcDbSymbolTableRecord
100
AcDbLinetypeTableRecord
  2
HIDDEN
 70
     0
  3
Hidden __ __ __ __ __ __ __ __ __ __ __ __ __ __
 72
    65
 73
     2
 40
9.524999999999996
 49
6.349999999999997
 74
     0
 49
-3.174999999999998
 74
     0
  0
LTYPE
  5
14A
330
5
100
AcDbSymbolTableRecord
100
AcDbLinetypeTableRecord
  2
PHANTOM
 70
     0
  3
Phantom ______  __  __  ______  __  __  ______
 72
    65
 73
     6
 40
63.5
 49
31.75
 74
     0
 49
-6.349999999999997
 74
     0
 49
6.349999999999997
 74
     0
 49
-6.349999999999997
 74
     0
 49
6.349999999999997
 74
     0
 49
-6.349999999999997
 74
     0
  0
ENDTAB
  0
TABLE
  2
LAYER
  5
2
102
{ACAD_XDICTIONARY
360
DD
102
}
330
0
100
AcDbSymbolTable
 70
     2
  0
LAYER
  5
10
102
{ACAD_XDICTIONARY
360
8E9
102
}
330
2
100
AcDbSymbolTableRecord
100
AcDbLayerTableRecord
  2
0
 70
     0
 62
     7
  6
Continuous
370
    -3
390
F
  0
LAYER
  5
D8
330
2
100
AcDbSymbolTableRecord
100
AcDbLayerTableRecord
  2
Defpoints
 70
     0
 62
     7
  6
Continuous
290
     0
370
    -3
390
F
  0
ENDTAB
  0
TABLE
  2
STYLE
  5
3
330
0
100
AcDbSymbolTable
 70
     6
  0
STYLE
  5
11
330
3
100
AcDbSymbolTableRecord
100
AcDbTextStyleTableRecord
  2
Standard
 70
     0
 40
0.0
 41
1.0
 50
0.0
 71
     0
 42
0.2
  3
txt.shx
  4
bigfont.shx
  0
STYLE
  5
11D
330
3
100
AcDbSymbolTableRecord
100
AcDbTextStyleTableRecord
  2
高3.2
 70
     0
 40
3.2
 41
1.0
 50
0.0
 71
     0
 42
3.2
  3
txt.shx
  4
bigfont.shx
  0
STYLE
  5
11E
330
3
100
AcDbSymbolTableRecord
100
AcDbTextStyleTableRecord
  2
高6.3
 70
     0
 40
6.299999999999998
 41
1.0
 50
0.0
 71
     0
 42
6.299999999999998
  3
txt.shx
  4
bigfont.shx
  0
STYLE
  5
11F
330
3
100
AcDbSymbolTableRecord
100
AcDbTextStyleTableRecord
  2
高2.5
 70
     0
 40
2.5
 41
1.0
 50
0.0
 71
     0
 42
0.2
  3
txt.shx
  4
bigfont.shx
  0
STYLE
  5
146
330
3
100
AcDbSymbolTableRecord
100
AcDbTextStyleTableRecord
  2
高4.5
 70
     0
 40
4.5
 41
1.0
 50
0.0
 71
     0
 42
6.299999999999998
  3
txt.shx
  4
bigfont.shx
  0
STYLE
  5
171
330
3
100
AcDbSymbolTableRecord
100
AcDbTextStyleTableRecord
  2
高2
 70
     0
 40
2.0
 41
1.0
 50
0.0
 71
     0
 42
6.299999999999998
  3
txt.shx
  4
bigfont.shx
  0
ENDTAB
  0
TABLE
  2
VIEW
  5
6
330
0
100
AcDbSymbolTable
 70
     0
  0
ENDTAB
  0
TABLE
  2
UCS
  5
7
330
0
100
AcDbSymbolTable
 70
     0
  0
ENDTAB
  0
TABLE
  2
APPID
  5
9
330
0
100
AcDbSymbolTable
 70
     9
  0
APPID
  5
12
330
9
100
AcDbSymbolTableRecord
100
AcDbRegAppTableRecord
  2
ACAD
 70
     0
  0
APPID
  5
DC
330
9
100
AcDbSymbolTableRecord
100
AcDbRegAppTableRecord
  2
ACAD_DSTYLE_DIMJOGGED_JOGANGLE_SYMBOL
 70
     0
  0
APPID
  5
3A5
330
9
100
AcDbSymbolTableRecord
100
AcDbRegAppTableRecord
  2
ACAD_EXEMPT_FROM_CAD_STANDARDS
 70
     0
  0
APPID
  5
70D
330
9
100
AcDbSymbolTableRecord
100
AcDbRegAppTableRecord
  2
ACAD_DSTYLE_DIMJAG
 70
     0
  0
APPID
  5
70E
330
9
100
AcDbSymbolTableRecord
100
AcDbRegAppTableRecord
  2
ACAD_DSTYLE_DIMBREAK
 70
     0
  0
APPID
  5
70F
330
9
100
AcDbSymbolTableRecord
100
AcDbRegAppTableRecord
  2
ACAD_DSTYLE_DIMTALN
 70
     0
  0
APPID
  5
B18
330
9
100
AcDbSymbolTableRecord
100
AcDbRegAppTableRecord
  2
ACAD_DSTYLE_DIMARC_LENGTH_SYMBOL
 70
     0
  0
APPID
  5
B19
330
9
100
AcDbSymbolTableRecord
100
AcDbRegAppTableRecord
  2
ACAD_DSTYLE_DIMEXT_LENGTH
 70
     0
  0
APPID
  5
B2E
330
9
100
AcDbSymbolTableRecord
100
AcDbRegAppTableRecord
  2
ACAD_MLEADERVER
 70
     0
  0
ENDTAB
  0
TABLE
  2
DIMSTYLE
  5
A
330
0
100
AcDbSymbolTable
 70
    10
100
AcDbDimStyleTable
 71
     5
340
129
340
12A
340
D9
340
DB
340
DA
  0
DIMSTYLE
105
D9
330
A
100
AcDbSymbolTableRecord
100
AcDbDimStyleTableRecord
  2
1：1
 70
     0
 41
2.5
 42
0.25
 43
0.2
 44
1.25
 73
     0
 74
     0
 77
     3
 78
     8
 79
     2
140
3.0
141
0.0
143
0.03937007874016
147
0.625
171
     3
172
     1
178
     4
179
     1
271
     2
272
     2
274
     3
283
     0
284
     8
288
     1
289
     0
340
11
341
C6
342
C6
1001
ACAD_DSTYLE_DIMARC_LENGTH_SYMBOL
1070
   379
1070
     2
1001
ACAD_DSTYLE_DIMEXT_LENGTH
1070
   378
1040
1.25
1001
ACAD_DSTYLE_DIMJOGGED_JOGANGLE_SYMBOL
1070
   384
1040
1.570796326794896
  0
DIMSTYLE
105
DA
330
A
100
AcDbSymbolTableRecord
100
AcDbDimStyleTableRecord
  2
2：1
 70
     0
 41
2.5
 42
0.25
 43
0.2
 44
1.25
 73
     0
 74
     0
 77
     3
 78
     8
 79
     2
140
3.0
141
0.0
143
0.03937007874016
144
0.5
147
0.625
171
     3
172
     1
178
     4
179
     1
271
     2
272
     2
274
     3
283
     0
284
     8
288
     1
289
     0
340
11
341
C6
342
C6
1001
ACAD_DSTYLE_DIMARC_LENGTH_SYMBOL
1070
   379
1070
     2
1001
ACAD_DSTYLE_DIMEXT_LENGTH
1070
   378
1040
1.25
1001
ACAD_DSTYLE_DIMJOGGED_JOGANGLE_SYMBOL
1070
   384
1040
1.570796326794896
  0
DIMSTYLE
105
DB
330
A
100
AcDbSymbolTableRecord
100
AcDbDimStyleTableRecord
  2
5：1
 70
     0
 41
2.5
 42
0.25
 43
0.2
 44
1.25
 73
     0
 74
     0
 77
     3
 78
     8
 79
     2
140
3.0
141
0.0
143
0.03937007874016
144
0.2
147
0.625
171
     3
172
     1
178
     4
179
     1
271
     2
272
     2
274
     3
283
     0
284
     8
288
     1
289
     0
340
11
341
C6
342
C6
1001
ACAD_DSTYLE_DIMARC_LENGTH_SYMBOL
1070
   379
1070
     2
1001
ACAD_DSTYLE_DIMEXT_LENGTH
1070
   378
1040
1.25
1001
ACAD_DSTYLE_DIMJOGGED_JOGANGLE_SYMBOL
1070
   384
1040
1.570796326794896
  0
DIMSTYLE
105
127
330
A
100
AcDbSymbolTableRecord
100
AcDbDimStyleTableRecord
  2
10：1
 70
     0
 41
2.5
 42
0.25
 43
0.2
 44
1.25
 73
     0
 74
     0
 77
     3
 78
     8
 79
     2
140
3.0
141
0.0
143
0.03937007874016
144
0.1
147
0.625
171
     3
172
     1
178
     4
179
     1
271
     2
272
     2
274
     3
283
     0
284
     8
288
     1
289
     0
340
11
341
C6
342
C6
1001
ACAD_DSTYLE_DIMARC_LENGTH_SYMBOL
1070
   379
1070
     2
1001
ACAD_DSTYLE_DIMEXT_LENGTH
1070
   378
1040
1.25
1001
ACAD_DSTYLE_DIMJOGGED_JOGANGLE_SYMBOL
1070
   384
1040
1.570796326794896
  0
DIMSTYLE
105
128
330
A
100
AcDbSymbolTableRecord
100
AcDbDimStyleTableRecord
  2
1／2
 70
     0
 41
2.5
 42
0.25
 43
0.2
 44
1.25
 73
     0
 74
     0
 77
     3
 78
     8
 79
     2
140
3.0
141
0.0
143
0.03937007874016
144
2.0
147
0.625
171
     3
172
     1
178
     4
179
     1
271
     2
272
     2
274
     3
283
     0
284
     8
288
     1
289
     0
340
11
341
C6
342
C6
1001
ACAD_DSTYLE_DIMARC_LENGTH_SYMBOL
1070
   379
1070
     2
1001
ACAD_DSTYLE_DIMEXT_LENGTH
1070
   378
1040
1.25
1001
ACAD_DSTYLE_DIMJOGGED_JOGANGLE_SYMBOL
1070
   384
1040
1.570796326794896
  0
DIMSTYLE
105
129
330
A
100
AcDbSymbolTableRecord
100
AcDbDimStyleTableRecord
  2
1／5
 70
     0
 41
2.5
 42
0.25
 43
0.2
 44
1.25
 73
     0
 74
     0
 77
     3
 78
     8
 79
     2
140
3.0
141
0.0
143
0.03937007874016
144
5.0
147
0.625
171
     3
172
     1
178
     4
179
     1
271
     2
272
     2
274
     3
283
     0
284
     8
288
     1
289
     0
340
11
341
C6
342
C6
1001
ACAD_DSTYLE_DIMARC_LENGTH_SYMBOL
1070
   379
1070
     2
1001
ACAD_DSTYLE_DIMEXT_LENGTH
1070
   378
1040
1.25
1001
ACAD_DSTYLE_DIMJOGGED_JOGANGLE_SYMBOL
1070
   384
1040
1.570796326794896
  0
DIMSTYLE
105
12A
330
A
100
AcDbSymbolTableRecord
100
AcDbDimStyleTableRecord
  2
1／10
 70
     0
 41
2.5
 42
0.25
 43
0.2
 44
1.25
 73
     0
 74
     0
 77
     3
 78
     8
 79
     2
140
3.0
141
0.0
143
0.03937007874016
144
10.0
147
0.625
171
     3
172
     1
178
     4
179
     1
271
     2
272
     2
274
     3
283
     0
284
     8
288
     1
289
     0
340
11
341
C6
342
C6
1001
ACAD_DSTYLE_DIMARC_LENGTH_SYMBOL
1070
   379
1070
     2
1001
ACAD_DSTYLE_DIMEXT_LENGTH
1070
   378
1040
1.25
1001
ACAD_DSTYLE_DIMJOGGED_JOGANGLE_SYMBOL
1070
   384
1040
1.570796326794896
  0
DIMSTYLE
105
70A
330
A
100
AcDbSymbolTableRecord
100
AcDbDimStyleTableRecord
  2
1／4
 70
     0
 41
2.5
 42
0.25
 43
0.2
 44
1.25
 73
     0
 74
     0
 77
     3
 78
     8
 79
     2
140
3.0
141
0.0
143
0.03937007874016
144
4.0
147
0.625
171
     3
172
     1
178
     4
179
     1
271
     2
272
     2
274
     3
283
     0
284
     8
288
     1
289
     0
340
11
341
C6
342
C6
1001
ACAD_DSTYLE_DIMARC_LENGTH_SYMBOL
1070
   379
1070
     2
1001
ACAD_DSTYLE_DIMEXT_LENGTH
1070
   378
1040
1.25
1001
ACAD_DSTYLE_DIMJOGGED_JOGANGLE_SYMBOL
1070
   384
1040
1.570796326794896
  0
DIMSTYLE
105
70B
330
A
100
AcDbSymbolTableRecord
100
AcDbDimStyleTableRecord
  2
1／3
 70
     0
 41
2.5
 42
0.25
 43
0.2
 44
1.25
 73
     0
 74
     0
 77
     3
 78
     8
 79
     2
140
3.0
141
0.0
143
0.03937007874016
144
3.0
147
0.625
171
     3
172
     1
178
     4
179
     1
271
     2
272
     2
274
     3
283
     0
284
     8
288
     1
289
     0
340
11
341
C6
342
C6
1001
ACAD_DSTYLE_DIMARC_LENGTH_SYMBOL
1070
   379
1070
     2
1001
ACAD_DSTYLE_DIMEXT_LENGTH
1070
   378
1040
1.25
1001
ACAD_DSTYLE_DIMJOGGED_JOGANGLE_SYMBOL
1070
   384
1040
1.570796326794896
  0
DIMSTYLE
105
70C
330
A
100
AcDbSymbolTableRecord
100
AcDbDimStyleTableRecord
  2
FREE
 70
     0
 41
2.5
 42
0.25
 43
0.2
 44
1.25
 73
     0
 74
     0
 77
     3
 78
     8
 79
     2
140
3.0
141
0.0
143
0.03937007874016
147
0.625
171
     3
172
     1
178
     4
179
     1
271
     2
272
     2
274
     3
283
     0
284
     8
288
     1
289
     0
340
11
341
C6
342
C6
1001
ACAD_DSTYLE_DIMBREAK
1070
   391
1040
3.75
1001
ACAD_DSTYLE_DIMJAG
1070
   388
1040
1.5
1001
ACAD_DSTYLE_DIMTALN
1070
   392
1070
     0
1001
ACAD_DSTYLE_DIMARC_LENGTH_SYMBOL
1070
   379
1070
     2
1001
ACAD_DSTYLE_DIMEXT_LENGTH
1070
   378
1040
1.25
1001
ACAD_DSTYLE_DIMJOGGED_JOGANGLE_SYMBOL
1070
   384
1040
1.570796326794896
  0
ENDTAB
  0
TABLE
  2
BLOCK_RECORD
  5
1
330
0
100
AcDbSymbolTable
 70
    24
  0
BLOCK_RECORD
  5
1F
102
{ACAD_XDICTIONARY
360
324
102
}
330
1
100
AcDbSymbolTableRecord
100
AcDbBlockTableRecord
  2
*Model_Space
340
22
  0
BLOCK_RECORD
  5
58
330
1
100
AcDbSymbolTableRecord
100
AcDbBlockTableRecord
  2
*Paper_Space
340
59
  0
BLOCK_RECORD
  5
5D
330
1
100
AcDbSymbolTableRecord
100
AcDbBlockTableRecord
  2
*Paper_Space0
340
5E
  0
BLOCK_RECORD
  5
C6
330
1
100
AcDbSymbolTableRecord
100
AcDbBlockTableRecord
  2
_Open30
340
0
102
{BLKREFS
331
101A
331
101B
331
1448
331
1449
331
1620
331
1621
331
17F2
331
17F3
331
17FB
331
17FC
331
1806
331
1807
331
180F
331
1810
331
1818
331
1819
331
18F3
331
18F4
331
1920
331
1921
331
1B4D
331
1B4E
331
1BB3
331
1BB4
331
1BBC
331
1BBD
331
1BFE
331
1BFF
331
1C07
331
1C08
331
1C10
331
1C11
331
1FE1
331
1FE2
331
1FEA
331
1FEB
331
1FF3
331
1FF4
331
1FFC
331
1FFD
331
200F
331
2010
102
}
  0
BLOCK_RECORD
  5
E22
102
{ACAD_XDICTIONARY
360
F2C
102
}
330
1
100
AcDbSymbolTableRecord
100
AcDbBlockTableRecord
  2
A$C769D123E
340
0
1001
ACAD
1000
DesignCenter Data
1002
{
1070
     1
1070
     1
1002
}
  0
BLOCK_RECORD
  5
FB2
330
1
100
AcDbSymbolTableRecord
100
AcDbBlockTableRecord
  2
*D3
340
0
  0
BLOCK_RECORD
  5
105F
330
1
100
AcDbSymbolTableRecord
100
AcDbBlockTableRecord
  2
*D4
340
0
  0
BLOCK_RECORD
  5
1077
330
1
100
AcDbSymbolTableRecord
100
AcDbBlockTableRecord
  2
*D5
340
0
  0
BLOCK_RECORD
  5
108F
330
1
100
AcDbSymbolTableRecord
100
AcDbBlockTableRecord
  2
*D6
340
0
  0
BLOCK_RECORD
  5
10E2
330
1
100
AcDbSymbolTableRecord
100
AcDbBlockTableRecord
  2
*D7
340
0
  0
BLOCK_RECORD
  5
10FA
330
1
100
AcDbSymbolTableRecord
100
AcDbBlockTableRecord
  2
*D8
340
0
  0
BLOCK_RECORD
  5
1432
330
1
100
AcDbSymbolTableRecord
100
AcDbBlockTableRecord
  2
*D9
340
0
  0
BLOCK_RECORD
  5
1605
330
1
100
AcDbSymbolTableRecord
100
AcDbBlockTableRecord
  2
*D10
340
0
  0
BLOCK_RECORD
  5
162B
330
1
100
AcDbSymbolTableRecord
100
AcDbBlockTableRecord
  2
*D11
340
0
  0
BLOCK_RECORD
  5
1643
330
1
100
AcDbSymbolTableRecord
100
AcDbBlockTableRecord
  2
*D12
340
0
  0
BLOCK_RECORD
  5
165B
330
1
100
AcDbSymbolTableRecord
100
AcDbBlockTableRecord
  2
*D13
340
0
  0
BLOCK_RECORD
  5
1673
330
1
100
AcDbSymbolTableRecord
100
AcDbBlockTableRecord
  2
*D14
340
0
  0
BLOCK_RECORD
  5
1694
330
1
100
AcDbSymbolTableRecord
100
AcDbBlockTableRecord
  2
*D15
340
0
  0
BLOCK_RECORD
  5
18CF
330
1
100
AcDbSymbolTableRecord
100
AcDbBlockTableRecord
  2
*D16
340
0
  0
BLOCK_RECORD
  5
18FC
330
1
100
AcDbSymbolTableRecord
100
AcDbBlockTableRecord
  2
*D17
340
0
  0
BLOCK_RECORD
  5
1B3D
330
1
100
AcDbSymbolTableRecord
100
AcDbBlockTableRecord
  2
*D18
340
0
  0
BLOCK_RECORD
  5
1BC3
330
1
100
AcDbSymbolTableRecord
100
AcDbBlockTableRecord
  2
*D19
340
0
  0
BLOCK_RECORD
  5
1BDB
330
1
100
AcDbSymbolTableRecord
100
AcDbBlockTableRecord
  2
*D20
340
0
  0
BLOCK_RECORD
  5
1C17
330
1
100
AcDbSymbolTableRecord
100
AcDbBlockTableRecord
  2
*D21
340
0
  0
BLOCK_RECORD
  5
1C2F
330
1
100
AcDbSymbolTableRecord
100
AcDbBlockTableRecord
  2
*D22
340
0
  0
BLOCK_RECORD
  5
1C47
330
1
100
AcDbSymbolTableRecord
100
AcDbBlockTableRecord
  2
*D23
340
0
  0
ENDTAB
  0
ENDSEC
  0
SECTION
  2
BLOCKS
  0
BLOCK
  5
20
330
1F
100
AcDbEntity
  8
0
100
AcDbBlockBegin
  2
*Model_Space
 70
     0
 10
0.0
 20
0.0
 30
0.0
  3
*Model_Space
  1

  0
ENDBLK
  5
21
330
1F
100
AcDbEntity
  8
0
100
AcDbBlockEnd
  0
BLOCK
  5
5A
330
58
100
AcDbEntity
 67
     1
  8
0
100
AcDbBlockBegin
  2
*Paper_Space
 70
     0
 10
0.0
 20
0.0
 30
0.0
  3
*Paper_Space
  1

  0
ENDBLK
  5
5B
330
58
100
AcDbEntity
 67
     1
  8
0
100
AcDbBlockEnd
  0
BLOCK
  5
5F
330
5D
100
AcDbEntity
 67
     1
  8
0
100
AcDbBlockBegin
  2
*Paper_Space0
 70
     0
 10
0.0
 20
0.0
 30
0.0
  3
*Paper_Space0
  1

  0
ENDBLK
  5
60
330
5D
100
AcDbEntity
 67
     1
  8
0
100
AcDbBlockEnd
  0
BLOCK
  5
C7
330
C6
100
AcDbEntity
  8
0
100
AcDbBlockBegin
  2
_Open30
 70
     0
 10
0.0
 20
0.0
 30
0.0
  3
_Open30
  1

  0
LINE
  5
C8
330
C6
100
AcDbEntity
  8
0
  6
ByBlock
 62
     0
370
    -2
100
AcDbLine
 10
-1.0
 20
0.267949
 30
0.0
 11
0.0
 21
0.0
 31
0.0
  0
LINE
  5
C9
330
C6
100
AcDbEntity
  8
0
  6
ByBlock
 62
     0
370
    -2
100
AcDbLine
 10
0.0
 20
0.0
 30
0.0
 11
-1.0
 21
-0.267949
 31
0.0
  0
LINE
  5
CA
330
C6
100
AcDbEntity
  8
0
  6
ByBlock
 62
     0
370
    -2
100
AcDbLine
 10
0.0
 20
0.0
 30
0.0
 11
-1.0
 21
0.0
 31
0.0
  0
ENDBLK
  5
CB
330
C6
100
AcDbEntity
  8
0
100
AcDbBlockEnd
  0
BLOCK
  5
F2E
330
E22
100
AcDbEntity
  8
0
100
AcDbBlockBegin
  2
A$C769D123E
 70
     0
 10
0.0
 20
0.0
 30
0.0
  3
A$C769D123E
  1

  0
LINE
  5
E23
330
E22
100
AcDbEntity
  8
0
 62
     3
100
AcDbLine
 10
19.99999818659637
 20
283.9999999941307
 30
0.0
 11
19.99999818659637
 21
9.999999994130716
 31
0.0
  0
LINE
  5
E24
330
E22
100
AcDbEntity
  8
0
 62
     3
100
AcDbLine
 10
409.9999981865964
 20
9.999999994130716
 30
0.0
 11
409.9999981865964
 21
283.9999999941307
 31
0.0
  0
LINE
  5
E25
330
E22
100
AcDbEntity
  8
0
 62
     3
100
AcDbLine
 10
19.99999818659637
 20
9.999999994130716
 30
0.0
 11
409.9999981865964
 21
9.999999994130716
 31
0.0
  0
LINE
  5
E26
330
E22
100
AcDbEntity
  8
0
 62
     3
100
AcDbLine
 10
238.6567233665965
 20
283.9999999941307
 30
0.0
 11
409.9999981865962
 21
283.9999999941307
 31
0.0
  0
LINE
  5
E27
330
E22
100
AcDbEntity
  8
0
 62
     3
100
AcDbLine
 10
190.1026886965965
 20
283.9999999941307
 30
0.0
 11
19.99999818659637
 21
283.9999999941307
 31
0.0
  0
LINE
  5
E28
330
E22
100
AcDbEntity
  8
0
 62
     3
100
AcDbLine
 10
7.598074396596302
 20
150.4446389441306
 30
0.0
 11
4.99999818659637
 21
148.9446389441306
 31
0.0
  0
LINE
  5
E29
330
E22
100
AcDbEntity
  8
0
 62
     3
100
AcDbLine
 10
7.598074396596302
 20
150.4446389441306
 30
0.0
 11
4.99999818659637
 21
151.9446389441307
 31
0.0
  0
LINE
  5
E2A
330
E22
100
AcDbEntity
  8
0
 62
     3
100
AcDbLine
 10
4.99999818659637
 20
148.9446389441306
 30
0.0
 11
4.99999818659637
 21
151.9446389441307
 31
0.0
  0
LINE
  5
E2B
330
E22
100
AcDbEntity
  8
0
 62
   254
370
     0
100
AcDbLine
 10
-0.0000018134035145
 20
-0.0000000058692819
 30
0.0
 11
-0.0000018134035145
 21
291.9999999941307
 31
0.0
  0
LINE
  5
E2C
330
E22
100
AcDbEntity
  8
0
 62
   254
370
     0
100
AcDbLine
 10
-0.0000018134035145
 20
291.9999999941307
 30
0.0
 11
419.9999981865961
 21
291.9999999941307
 31
0.0
  0
LINE
  5
E2D
330
E22
100
AcDbEntity
  8
0
 62
     3
100
AcDbLine
 10
357.9999981865965
 20
9.999999994130716
 30
0.0
 11
357.9999981865965
 21
49.99999999413072
 31
0.0
  0
LINE
  5
E2E
330
E22
100
AcDbEntity
  8
0
 62
     3
100
AcDbLine
 10
370.9999981865966
 20
19.99999999413072
 30
0.0
 11
370.9999981865966
 21
47.9999999941307
 31
0.0
  0
LINE
  5
E2F
330
E22
100
AcDbEntity
  8
0
 62
     3
100
AcDbLine
 10
330.9999981865965
 20
19.99999999413072
 30
0.0
 11
330.9999981865965
 21
33.99999999413072
 31
0.0
  0
LINE
  5
E30
330
E22
100
AcDbEntity
  8
0
 62
     3
100
AcDbLine
 10
340.9999981865965
 20
33.99999999413072
 30
0.0
 11
340.9999981865965
 21
9.999999994130716
 31
0.0
  0
LINE
  5
E31
330
E22
100
AcDbEntity
  8
0
 62
     3
100
AcDbLine
 10
311.9999981865965
 20
49.99999999413072
 30
0.0
 11
311.9999981865965
 21
26.99999999413072
 31
0.0
  0
LINE
  5
E32
330
E22
100
AcDbEntity
  8
0
 62
     3
100
AcDbLine
 10
370.9999981865966
 20
47.9999999941307
 30
0.0
 11
370.9999981865966
 21
49.99999999413072
 31
0.0
  0
LINE
  5
E33
330
E22
100
AcDbEntity
  8
0
 62
     3
100
AcDbLine
 10
383.9999981865966
 20
26.99999999413072
 30
0.0
 11
383.9999981865966
 21
49.99999999413072
 31
0.0
  0
LINE
  5
E34
330
E22
100
AcDbEntity
  8
0
 62
     3
100
AcDbLine
 10
409.9999981865964
 20
49.99999999413072
 30
0.0
 11
298.7545635465965
 21
49.99999999413073
 31
0.0
  0
LINE
  5
E35
330
E22
100
AcDbEntity
  8
0
 62
     3
100
AcDbLine
 10
409.9999981865964
 20
40.9999999941307
 30
0.0
 11
298.7545635465965
 21
40.9999999941307
 31
0.0
  0
LINE
  5
E36
330
E22
100
AcDbEntity
  8
0
 62
     3
100
AcDbLine
 10
409.9999981865964
 20
26.99999999413072
 30
0.0
 11
298.7545635465965
 21
26.99999999413072
 31
0.0
  0
LINE
  5
E37
330
E22
100
AcDbEntity
  8
0
 62
     3
100
AcDbLine
 10
409.9999981865964
 20
19.99999999413072
 30
0.0
 11
298.6965556865964
 21
19.99999999413072
 31
0.0
  0
LINE
  5
E38
330
E22
100
AcDbEntity
  8
0
 62
     3
100
AcDbLine
 10
396.9999981865965
 20
26.99999999413072
 30
0.0
 11
396.9999981865965
 21
49.99999999413072
 31
0.0
  0
LINE
  5
E39
330
E22
100
AcDbEntity
  8
0
 62
     3
100
AcDbLine
 10
298.7545635465965
 20
49.99999999413073
 30
0.0
 11
298.7545635465965
 21
9.999999994130716
 31
0.0
  0
LINE
  5
E3A
330
E22
100
AcDbEntity
  8
0
 62
     3
100
AcDbLine
 10
357.9999981865965
 20
33.99999999413072
 30
0.0
 11
298.7545635465965
 21
33.99999999413071
 31
0.0
  0
LINE
  5
E3B
330
E22
100
AcDbEntity
  8
0
 62
     3
100
AcDbLine
 10
341.2783231165963
 20
14.8328612541307
 30
0.0
 11
357.9999981865965
 21
14.8328612541307
 31
0.0
  0
TEXT
  5
E3C
330
E22
100
AcDbEntity
  8
0
 62
     3
100
AcDbText
 10
342.1643235999122
 20
29.07309684749606
 30
0.0
 40
2.5
  1
******
  7
高2.5
100
AcDbText
  0
TEXT
  5
E3D
330
E22
100
AcDbEntity
  8
0
 62
     3
100
AcDbText
 10
313.1963668818487
 20
29.29781439911463
 30
0.0
 40
2.5
  1
*****
  7
高2.5
100
AcDbText
  0
TEXT
  5
E3E
330
E22
100
AcDbEntity
  8
0
 62
     3
100
AcDbText
 10
313.461274636546
 20
42.3122495178886
 30
0.0
 40
4.5
  1
**********
  7
高4.5
100
AcDbText
1001
ACAD
1000
ACAD_MTEXT_DEFINED_HEIGHT_BEGIN
1070
    46
1040
0.0
1000
ACAD_MTEXT_DEFINED_HEIGHT_END
  0
TEXT
  5
E3F
330
E22
100
AcDbEntity
  8
0
 62
     3
100
AcDbText
 10
400.0655872800703
 20
46.5136920928343
 30
0.0
 40
2.0
  1
DEF
  7
高2
100
AcDbText
  0
TEXT
  5
E40
330
E22
100
AcDbEntity
  8
0
 62
     3
100
AcDbText
 10
386.1264889263623
 20
46.51369209283421
 30
0.0
 40
2.0
  1
DESN
  7
高2
100
AcDbText
  0
TEXT
  5
E41
330
E22
100
AcDbEntity
  8
0
 62
     3
100
AcDbText
 10
359.8721219863622
 20
46.5136920928343
 30
0.0
 40
2.0
  1
APPD
  7
高2
100
AcDbText
  0
TEXT
  5
E42
330
E22
100
AcDbEntity
  8
0
 62
     3
100
AcDbText
 10
372.9848580865964
 20
46.51369209283433
 30
0.0
 40
2.0
  1
CHCK
  7
高2
100
AcDbText
  0
TEXT
  5
E43
330
E22
100
AcDbEntity
  8
0
 62
     3
100
AcDbText
 10
331.9271638257492
 20
24.16839881736144
 30
0.0
 40
2.0
  1
SCALE
 41
0.8
  7
高2
100
AcDbText
  0
TEXT
  5
E44
330
E22
100
AcDbEntity
  8
0
 62
     3
100
AcDbText
 10
300.4391422496427
 20
24.16839881736145
 30
0.0
 40
2.0
  1
3AD　ANGLE
 41
1.5
  7
高2
100
AcDbText
  0
TEXT
  5
E45
330
E22
100
AcDbEntity
  8
0
 62
     3
100
AcDbText
 10
331.196569516598
 20
30.91993688631854
 30
0.0
 40
2.0
  1
REMARKS
 41
0.7
  7
高2
100
AcDbText
  0
TEXT
  5
E46
330
E22
100
AcDbEntity
  8
0
 62
     3
100
AcDbText
 10
300.2222338965964
 20
30.99999999413072
 30
0.0
 40
2.0
  1
MATERIAL
 41
0.7
  7
高2
100
AcDbText
  0
TEXT
  5
E47
330
E22
100
AcDbEntity
  8
0
 62
     3
100
AcDbText
 10
300.7987210993507
 20
37.99999999413071
 30
0.0
 40
2.0
  1
MODEL
  7
高2
100
AcDbText
  0
TEXT
  5
E48
330
E22
100
AcDbEntity
  8
0
 62
     3
100
AcDbText
 10
300.4356419806818
 20
46.7070213447297
 30
0.0
 40
2.0
  1
CONPONENTS
 41
0.5
  7
高2
100
AcDbText
  0
TEXT
  5
E49
330
E22
100
AcDbEntity
  8
0
 62
     3
100
AcDbText
 10
313.1427574518486
 20
35.08748112194266
 30
0.0
 40
4.5
  1
********
  7
高4.5
100
AcDbText
  0
TEXT
  5
E4A
330
E22
100
AcDbEntity
  8
0
 62
     3
100
AcDbText
 10
361.0953416256493
 20
11.14419095096582
 30
0.0
 40
6.299999999999998
  1
*-********
 41
0.6
  7
高6.3
100
AcDbText
1001
ACAD
1000
ACAD_MTEXT_DEFINED_HEIGHT_BEGIN
1070
    46
1040
0.0
1000
ACAD_MTEXT_DEFINED_HEIGHT_END
  0
TEXT
  5
E4B
330
E22
100
AcDbEntity
  8
0
 62
     3
100
AcDbText
 10
374.563507936926
 20
21.10088915236372
 30
0.0
 40
3.2
  1
******
  7
高3.2
100
AcDbText
1001
ACAD
1000
ACAD_MTEXT_DEFINED_HEIGHT_BEGIN
1070
    46
1040
0.0
1000
ACAD_MTEXT_DEFINED_HEIGHT_END
  0
TEXT
  5
E4C
330
E22
100
AcDbEntity
  8
0
 62
     3
100
AcDbText
 10
344.7875960812428
 20
21.10091699669859
 30
0.0
 40
3.2
  1
1/1
  7
高3.2
100
AcDbText
  0
TEXT
  5
E4D
330
E22
100
AcDbEntity
  8
0
 62
     3
100
AcDbText
 10
341.8649250565963
 20
10.81687816726668
 30
0.0
 40
3.2
  1
ZK-A3X
 41
0.8
  7
高3.2
100
AcDbText
  0
TEXT
  5
E4E
330
E22
100
AcDbEntity
  8
0
 62
     3
100
AcDbText
 10
299.5852645865964
 20
16.52462041631854
 30
0.0
 40
2.0
  1
NICHIDO IND.CO.LTD
 41
1.3
  7
高2
100
AcDbText
  0
TEXT
  5
E4F
330
E22
100
AcDbEntity
  8
0
 62
     3
100
AcDbText
 10
300.7667878515535
 20
42.14052820201565
 30
0.0
 40
3.2
  1
品 名
  7
高3.2
100
AcDbText
1001
ACAD
1000
ACAD_MTEXT_DEFINED_HEIGHT_BEGIN
1070
    46
1040
0.0
1000
ACAD_MTEXT_DEFINED_HEIGHT_END
  0
TEXT
  5
E50
330
E22
100
AcDbEntity
  8
0
 62
     3
100
AcDbText
 10
300.7667878515535
 20
34.49999999413071
 30
0.0
 40
3.2
  1
型 式
  7
高3.2
100
AcDbText
1001
ACAD
1000
ACAD_MTEXT_DEFINED_HEIGHT_BEGIN
1070
    46
1040
3.064735913775952
1000
ACAD_MTEXT_DEFINED_HEIGHT_END
  0
TEXT
  5
E51
330
E22
100
AcDbEntity
  8
0
 62
     3
100
AcDbText
 10
300.7667878515535
 20
27.49999999413072
 30
0.0
 40
3.2
  1
材 質
  7
高3.2
100
AcDbText
1001
ACAD
1000
ACAD_MTEXT_DEFINED_HEIGHT_BEGIN
1070
    46
1040
0.0
1000
ACAD_MTEXT_DEFINED_HEIGHT_END
  0
TEXT
  5
E52
330
E22
100
AcDbEntity
  8
0
 62
     3
100
AcDbText
 10
300.4617529015536
 20
20.46743998637696
 30
0.0
 40
3.2
  1
第 三 角 法
  7
高3.2
100
AcDbText
1001
ACAD
1000
ACAD_MTEXT_DEFINED_HEIGHT_BEGIN
1070
    46
1040
0.0
1000
ACAD_MTEXT_DEFINED_HEIGHT_END
  0
TEXT
  5
E53
330
E22
100
AcDbEntity
  8
0
 62
     3
100
AcDbText
 10
298.8682855090824
 20
11.14052820201564
 30
0.0
 40
3.2
  1
日動工業株式会社
 41
1.199999999999999
  7
高3.2
100
AcDbText
1001
ACAD
1000
ACAD_MTEXT_DEFINED_HEIGHT_BEGIN
1070
    46
1040
0.0
1000
ACAD_MTEXT_DEFINED_HEIGHT_END
  0
TEXT
  5
E54
330
E22
100
AcDbEntity
  8
0
 62
     3
100
AcDbText
 10
332.503909708561
 20
27.38457852729828
 30
0.0
 40
3.2
  1
備考
  7
高3.2
100
AcDbText
1001
ACAD
1000
ACAD_MTEXT_DEFINED_HEIGHT_BEGIN
1070
    46
1040
0.0
1000
ACAD_MTEXT_DEFINED_HEIGHT_END
  0
TEXT
  5
E55
330
E22
100
AcDbEntity
  8
0
 62
     3
100
AcDbText
 10
342.1529671555963
 20
16.14623001970101
 30
0.0
 40
2.5
  1
出図コード
  7
高2.5
100
AcDbText
1001
ACAD
1000
ACAD_MTEXT_DEFINED_HEIGHT_BEGIN
1070
    46
1040
0.0
1000
ACAD_MTEXT_DEFINED_HEIGHT_END
  0
TEXT
  5
E56
330
E22
100
AcDbEntity
  8
0
 62
     3
100
AcDbText
 10
332.3451435904735
 20
20.45323490454364
 30
0.0
 40
3.2
  1
尺度
  7
高3.2
100
AcDbText
1001
ACAD
1000
ACAD_MTEXT_DEFINED_HEIGHT_BEGIN
1070
    46
1040
0.0
1000
ACAD_MTEXT_DEFINED_HEIGHT_END
  0
TEXT
  5
E57
330
E22
100
AcDbEntity
  8
0
 62
     3
100
AcDbText
 10
359.4914050722524
 20
21.58471335266113
 30
0.0
 40
3.2
  1
作成日
  7
高3.2
100
AcDbText
1001
ACAD
1000
ACAD_MTEXT_DEFINED_HEIGHT_BEGIN
1070
    46
1040
0.0
1000
ACAD_MTEXT_DEFINED_HEIGHT_END
  0
TEXT
  5
E58
330
E22
100
AcDbEntity
  8
0
 62
     3
100
AcDbText
 10
359.3858790791162
 20
42.14052820201565
 30
0.0
 40
3.2
  1
承 認
  7
高3.2
100
AcDbText
1001
ACAD
1000
ACAD_MTEXT_DEFINED_HEIGHT_BEGIN
1070
    46
1040
0.0
1000
ACAD_MTEXT_DEFINED_HEIGHT_END
  0
TEXT
  5
E59
330
E22
100
AcDbEntity
  8
0
 62
     3
100
AcDbText
 10
372.3858790791162
 20
42.14052820201565
 30
0.0
 40
3.2
  1
検 図
  7
高3.2
100
AcDbText
1001
ACAD
1000
ACAD_MTEXT_DEFINED_HEIGHT_BEGIN
1070
    46
1040
0.0
1000
ACAD_MTEXT_DEFINED_HEIGHT_END
  0
TEXT
  5
E5A
330
E22
100
AcDbEntity
  8
0
 62
     3
100
AcDbText
 10
385.3858790791162
 20
42.14052820201565
 30
0.0
 40
3.2
  1
設 計
  7
高3.2
100
AcDbText
1001
ACAD
1000
ACAD_MTEXT_DEFINED_HEIGHT_BEGIN
1070
    46
1040
0.0
1000
ACAD_MTEXT_DEFINED_HEIGHT_END
  0
TEXT
  5
E5B
330
E22
100
AcDbEntity
  8
0
 62
     3
100
AcDbText
 10
398.6865155991162
 20
42.14052820201565
 30
0.0
 40
3.2
  1
製 図
  7
高3.2
100
AcDbText
1001
ACAD
1000
ACAD_MTEXT_DEFINED_HEIGHT_BEGIN
1070
    46
1040
0.0
1000
ACAD_MTEXT_DEFINED_HEIGHT_END
  0
LINE
  5
E5C
330
E22
100
AcDbEntity
  8
0
 62
     3
100
AcDbLine
 10
198.9789907271299
 20
286.3329566777442
 30
0.0
 11
198.9789907271299
 21
281.5981987292973
 31
0.0
  0
LINE
  5
E5D
330
E22
100
AcDbEntity
  8
0
 62
     3
100
AcDbLine
 10
199.9441995486006
 20
284.4845004919676
 30
0.0
 11
199.9441995486006
 21
281.5981987292973
 31
0.0
  0
LINE
  5
E5E
330
E22
100
AcDbEntity
  8
0
 62
     3
100
AcDbLine
 10
202.6530537345975
 20
286.3329566777442
 30
0.0
 11
202.6530537345975
 21
284.2481715114516
 31
0.0
  0
LINE
  5
E5F
330
E22
100
AcDbEntity
  8
0
 62
     3
100
AcDbLine
 10
203.6182615442728
 20
286.3329566777442
 30
0.0
 11
203.6182615442728
 21
280.9636161488519
 31
0.0
  0
LINE
  5
E60
330
E22
100
AcDbEntity
  8
0
 62
     3
100
AcDbLine
 10
205.1557182373362
 20
286.3004355000498
 30
0.0
 11
205.1557182373362
 21
281.5657352239116
 31
0.0
  0
LINE
  5
E61
330
E22
100
AcDbEntity
  8
0
 62
     3
100
AcDbLine
 10
206.6850300305421
 20
286.3004142523569
 30
0.0
 11
206.6850300305421
 21
281.5657139762189
 31
0.0
  0
LINE
  5
E62
330
E22
100
AcDbEntity
  8
0
 62
     3
100
AcDbLine
 10
212.3469265326846
 20
286.3003434267143
 30
0.0
 11
212.3468435655034
 21
281.5656441623712
 31
0.0
  0
LINE
  5
E63
330
E22
100
AcDbEntity
  8
0
 62
     3
100
AcDbLine
 10
217.0254013665763
 20
286.3003434267143
 30
0.0
 11
217.0254843337575
 21
281.5656441623712
 31
0.0
  0
LINE
  5
E64
330
E22
100
AcDbEntity
  8
0
 62
     3
100
AcDbLine
 10
215.4632021921434
 20
284.2375354573091
 30
0.0
 11
213.9091257071175
 21
284.2375354573091
 31
0.0
  0
LINE
  5
E65
330
E22
100
AcDbEntity
  8
0
 62
     3
100
AcDbLine
 10
215.4631920741945
 20
283.6285927712666
 30
0.0
 11
213.9091368368613
 21
283.6285927712666
 31
0.0
  0
LINE
  5
E66
330
E22
100
AcDbEntity
  8
0
 62
     3
100
AcDbLine
 10
215.4632386167596
 20
286.3003434267143
 30
0.0
 11
215.4632021921434
 21
284.2375354573091
 31
0.0
  0
LINE
  5
E67
330
E22
100
AcDbEntity
  8
0
 62
     3
100
AcDbLine
 10
215.4631920741945
 20
283.6285927712666
 30
0.0
 11
215.4631556495781
 21
281.5656441623712
 31
0.0
  0
LINE
  5
E68
330
E22
100
AcDbEntity
  8
0
 62
     3
100
AcDbLine
 10
213.9090892825013
 20
286.3003434267143
 30
0.0
 11
213.9091257071175
 21
284.2375354573091
 31
0.0
  0
LINE
  5
E69
330
E22
100
AcDbEntity
  8
0
 62
     3
100
AcDbLine
 10
213.9091368368613
 20
283.6285927712666
 30
0.0
 11
213.9091722496825
 21
281.5656441623712
 31
0.0
  0
LINE
  5
E6A
330
E22
100
AcDbEntity
  8
0
 62
     3
100
AcDbLine
 10
218.566574246064
 20
286.3003434267143
 30
0.0
 11
218.5664912788827
 21
281.5656441623712
 31
0.0
  0
LINE
  5
E6B
330
E22
100
AcDbEntity
  8
0
 62
     3
100
AcDbLine
 10
220.0958536618334
 20
286.3003434267143
 30
0.0
 11
220.0959356172195
 21
281.5656441623712
 31
0.0
  0
LINE
  5
E6C
330
E22
100
AcDbEntity
  8
0
 62
     3
100
AcDbLine
 10
221.6547809851429
 20
286.3003434267143
 30
0.0
 11
221.6546990297565
 21
281.5656441623712
 31
0.0
  0
ARC
  5
E6D
330
E22
100
AcDbEntity
  8
0
 62
     3
100
AcDbCircle
 10
210.0510690009655
 20
283.9466363309928
 30
0.0
 40
3.015561595733376
100
AcDbArc
 50
97.70152400000624
 51
266.0248408089489
  0
ARC
  5
E6E
330
E22
100
AcDbEntity
  8
0
 62
     3
100
AcDbCircle
 10
228.2489679580369
 20
283.9163452154633
 30
0.0
 40
3.048311372854727
100
AcDbArc
 50
0.3142499999975672
 51
69.00558200000452
  0
ARC
  5
E6F
330
E22
100
AcDbEntity
  8
0
 62
     3
100
AcDbCircle
 10
228.9148372601874
 20
283.9163452154633
 30
0.0
 40
3.048311372854727
100
AcDbArc
 50
110.9944179999954
 51
148.1166110000009
  0
ARC
  5
E70
330
E22
100
AcDbEntity
  8
0
 62
     3
100
AcDbCircle
 10
228.2489679580369
 20
283.9497830131125
 30
0.0
 40
3.048311372854727
100
AcDbArc
 50
290.9944179999955
 51
359.6857499999992
  0
ARC
  5
E71
330
E22
100
AcDbEntity
  8
0
 62
     3
100
AcDbCircle
 10
228.9148372601874
 20
283.9497830131125
 30
0.0
 40
3.048311372854727
100
AcDbArc
 50
211.8833889999971
 51
249.0055820000045
  0
ARC
  5
E72
330
E22
100
AcDbEntity
  8
0
 62
     3
100
AcDbCircle
 10
228.5819031150095
 20
285.1801812526487
 30
0.0
 40
1.754843910410663
100
AcDbArc
 50
64.36517200000682
 51
115.6348279999931
  0
ARC
  5
E73
330
E22
100
AcDbEntity
  8
0
 62
     3
100
AcDbCircle
 10
228.5819031150095
 20
282.6859469759272
 30
0.0
 40
1.754843910410663
100
AcDbArc
 50
244.3651720000068
 51
295.6348279999931
  0
ARC
  5
E74
330
E22
100
AcDbEntity
  8
0
 62
     3
100
AcDbCircle
 10
228.5819031150095
 20
285.2135158472186
 30
0.0
 40
0.8612620730595795
100
AcDbArc
 50
19.48660600000012
 51
160.5133939999998
  0
ARC
  5
E75
330
E22
100
AcDbEntity
  8
0
 62
     3
100
AcDbCircle
 10
228.5819031150095
 20
282.6526133931521
 30
0.0
 40
0.8612620730595795
100
AcDbArc
 50
199.4866060000001
 51
340.5133939999999
  0
LINE
  5
E76
330
E22
100
AcDbEntity
  8
0
 62
     3
100
AcDbLine
 10
220.6021646478169
 20
280.9311030655166
 30
0.0
 11
218.0602632600805
 21
280.9311030655166
 31
0.0
  0
LINE
  5
E77
330
E22
100
AcDbEntity
  8
0
 62
     3
100
AcDbLine
 10
220.6021646478169
 20
281.2368978362588
 30
0.0
 11
220.6021646478169
 21
280.9311030655166
 31
0.0
  0
LINE
  5
E78
330
E22
100
AcDbEntity
  8
0
 62
     3
100
AcDbLine
 10
217.5317133643546
 20
286.9348824999793
 30
0.0
 11
214.9569276307762
 21
286.9348824999793
 31
0.0
  0
LINE
  5
E79
330
E22
100
AcDbEntity
  8
0
 62
     3
100
AcDbLine
 10
217.5317133643546
 20
286.9348824999793
 30
0.0
 11
217.5317133643546
 21
286.629230392317
 31
0.0
  0
LINE
  5
E7A
330
E22
100
AcDbEntity
  8
0
 62
     3
100
AcDbLine
 10
217.5317133643546
 20
281.2368978362588
 30
0.0
 11
217.5317133643546
 21
280.9309604024365
 31
0.0
  0
LINE
  5
E7B
330
E22
100
AcDbEntity
  8
0
 62
     3
100
AcDbLine
 10
217.5317133643546
 20
280.9309604024365
 30
0.0
 11
214.9569276307762
 21
280.9309604024365
 31
0.0
  0
LINE
  5
E7C
330
E22
100
AcDbEntity
  8
0
 62
     3
100
AcDbLine
 10
220.6021646478169
 20
286.9350251630593
 30
0.0
 11
220.6021646478169
 21
286.629230392317
 31
0.0
  0
LINE
  5
E7D
330
E22
100
AcDbEntity
  8
0
 62
     3
100
AcDbLine
 10
220.6021646478169
 20
286.9350251630593
 30
0.0
 11
218.0602632600805
 21
286.9350251630593
 31
0.0
  0
LINE
  5
E7E
330
E22
100
AcDbEntity
  8
0
 62
     3
100
AcDbLine
 10
218.0602632600805
 20
286.9350251630593
 30
0.0
 11
218.0602632600805
 21
286.629230392317
 31
0.0
  0
LINE
  5
E7F
330
E22
100
AcDbEntity
  8
0
 62
     3
100
AcDbLine
 10
221.1484699991597
 20
281.2368978362588
 30
0.0
 11
221.1484699991597
 21
280.9311030655166
 31
0.0
  0
LINE
  5
E80
330
E22
100
AcDbEntity
  8
0
 62
     3
100
AcDbLine
 10
223.8930918614358
 20
280.9311030655166
 30
0.0
 11
221.1484699991597
 21
280.9311030655166
 31
0.0
  0
LINE
  5
E81
330
E22
100
AcDbEntity
  8
0
 62
     3
100
AcDbLine
 10
223.1840604009124
 20
285.9698173533837
 30
0.0
 11
223.1840604009124
 21
281.896310875192
 31
0.0
  0
LINE
  5
E82
330
E22
100
AcDbEntity
  8
0
 62
     3
100
AcDbLine
 10
223.1840604009124
 20
281.896310875192
 30
0.0
 11
223.4587606909795
 21
281.896310875192
 31
0.0
  0
ARC
  5
E83
330
E22
100
AcDbEntity
  8
0
 62
     3
100
AcDbCircle
 10
222.0541212527883
 20
283.9330641142879
 30
0.0
 40
2.474141041926213
100
AcDbArc
 50
304.591955000008
 51
55.408044999992
  0
LINE
  5
E84
330
E22
100
AcDbEntity
  8
0
 62
     3
100
AcDbLine
 10
223.8930918614358
 20
286.9350251630593
 30
0.0
 11
221.1484699991597
 21
286.9350251630593
 31
0.0
  0
LINE
  5
E85
330
E22
100
AcDbEntity
  8
0
 62
     3
100
AcDbLine
 10
221.1484699991597
 20
286.9350251630593
 30
0.0
 11
221.1484699991597
 21
286.629230392317
 31
0.0
  0
LINE
  5
E86
330
E22
100
AcDbEntity
  8
0
 62
     3
100
AcDbLine
 10
218.0602632600805
 20
281.2368978362588
 30
0.0
 11
218.0602632600805
 21
280.9311030655166
 31
0.0
  0
LINE
  5
E87
330
E22
100
AcDbEntity
  8
0
 62
     3
100
AcDbLine
 10
223.1840604009124
 20
285.9698173533837
 30
0.0
 11
223.4587606909795
 21
285.9698173533837
 31
0.0
  0
LINE
  5
E88
330
E22
100
AcDbEntity
  8
0
 62
     3
100
AcDbLine
 10
207.1912529901553
 20
281.2368882650634
 30
0.0
 11
207.1912469193862
 21
280.9310651640641
 31
0.0
  0
LINE
  5
E89
330
E22
100
AcDbEntity
  8
0
 62
     3
100
AcDbLine
 10
198.4726797411465
 20
280.9636161488519
 30
0.0
 11
200.4505105345838
 21
280.9636161488519
 31
0.0
  0
ARC
  5
E8A
330
E22
100
AcDbEntity
  8
0
 62
     3
100
AcDbCircle
 10
190.5288527955408
 20
284.0037551881305
 30
0.0
 40
21.26730034229026
100
AcDbArc
 50
353.8660059999985
 51
357.6940340000007
  0
LINE
  5
E8B
330
E22
100
AcDbEntity
  8
0
 62
     3
100
AcDbLine
 10
210.3550900952591
 20
283.1533162850495
 30
0.0
 11
211.7789323887391
 21
283.1480478690377
 31
0.0
  0
LINE
  5
E8C
330
E22
100
AcDbEntity
  8
0
 62
     3
100
AcDbLine
 10
210.3608401256404
 20
284.7074544895639
 30
0.0
 11
210.3339152517226
 21
284.8798461271531
 31
0.0
  0
LINE
  5
E8D
330
E22
100
AcDbEntity
  8
0
 62
     3
100
AcDbLine
 10
210.3339152517226
 20
284.8798461271531
 30
0.0
 11
210.3015792987126
 21
285.0449204640707
 31
0.0
  0
LINE
  5
E8E
330
E22
100
AcDbEntity
  8
0
 62
     3
100
AcDbLine
 10
210.3015792987126
 20
285.0449204640707
 30
0.0
 11
210.2640831917445
 21
285.2014006151606
 31
0.0
  0
LINE
  5
E8F
330
E22
100
AcDbEntity
  8
0
 62
     3
100
AcDbLine
 10
210.2640831917445
 20
285.2014006151606
 30
0.0
 11
210.2217142805682
 21
285.34807647373
 31
0.0
  0
LINE
  5
E90
330
E22
100
AcDbEntity
  8
0
 62
     3
100
AcDbLine
 10
210.2217142805682
 20
285.34807647373
 30
0.0
 11
210.174802410319
 21
285.4838158412927
 31
0.0
  0
LINE
  5
E91
330
E22
100
AcDbEntity
  8
0
 62
     3
100
AcDbLine
 10
210.174802410319
 20
285.4838158412927
 30
0.0
 11
210.1237087917736
 21
285.607568474749
 31
0.0
  0
LINE
  5
E92
330
E22
100
AcDbEntity
  8
0
 62
     3
100
AcDbLine
 10
210.1237087917736
 20
285.607568474749
 30
0.0
 11
210.068828024941
 21
285.7183772161294
 31
0.0
  0
LINE
  5
E93
330
E22
100
AcDbEntity
  8
0
 62
     3
100
AcDbLine
 10
210.068828024941
 20
285.7183772161294
 30
0.0
 11
210.0105860754711
 21
285.8153870987485
 31
0.0
  0
LINE
  5
E94
330
E22
100
AcDbEntity
  8
0
 62
     3
100
AcDbLine
 10
210.0105860754711
 20
285.8153870987485
 30
0.0
 11
209.9494321802972
 21
285.8978483825904
 31
0.0
  0
LINE
  5
E95
330
E22
100
AcDbEntity
  8
0
 62
     3
100
AcDbLine
 10
209.9494321802972
 20
285.8978483825904
 30
0.0
 11
209.8858388476344
 21
285.9651216132818
 31
0.0
  0
LINE
  5
E96
330
E22
100
AcDbEntity
  8
0
 62
     3
100
AcDbLine
 10
209.8858388476344
 20
285.9651216132818
 30
0.0
 11
209.8202978098011
 21
286.0166887518374
 31
0.0
  0
LINE
  5
E97
330
E22
100
AcDbEntity
  8
0
 62
     3
100
AcDbLine
 10
209.8202978098011
 20
286.0166887518374
 30
0.0
 11
209.753314964244
 21
286.052150139274
 31
0.0
  0
LINE
  5
E98
330
E22
100
AcDbEntity
  8
0
 62
     3
100
AcDbLine
 10
209.753314964244
 20
286.052150139274
 30
0.0
 11
209.685409361744
 21
286.0712325909704
 31
0.0
  0
LINE
  5
E99
330
E22
100
AcDbEntity
  8
0
 62
     3
100
AcDbLine
 10
209.685409361744
 20
286.0712325909704
 30
0.0
 11
209.6171051120557
 21
286.0737883848722
 31
0.0
  0
LINE
  5
E9A
330
E22
100
AcDbEntity
  8
0
 62
     3
100
AcDbLine
 10
209.6171051120557
 20
286.0737883848722
 30
0.0
 11
209.548930372114
 21
286.0597962732862
 31
0.0
  0
LINE
  5
E9B
330
E22
100
AcDbEntity
  8
0
 62
     3
100
AcDbLine
 10
209.548930372114
 20
286.0597962732862
 30
0.0
 11
209.4814112752633
 21
286.0293665418562
 31
0.0
  0
LINE
  5
E9C
330
E22
100
AcDbEntity
  8
0
 62
     3
100
AcDbLine
 10
209.4814112752633
 20
286.0293665418562
 30
0.0
 11
209.4150709194639
 21
285.9827339269975
 31
0.0
  0
LINE
  5
E9D
330
E22
100
AcDbEntity
  8
0
 62
     3
100
AcDbLine
 10
209.4150709194639
 20
285.9827339269975
 30
0.0
 11
209.3504222847266
 21
285.9202576158974
 31
0.0
  0
LINE
  5
E9E
330
E22
100
AcDbEntity
  8
0
 62
     3
100
AcDbLine
 10
209.3504222847266
 20
285.9202576158974
 30
0.0
 11
209.2879631741398
 21
285.842421246515
 31
0.0
  0
LINE
  5
E9F
330
E22
100
AcDbEntity
  8
0
 62
     3
100
AcDbLine
 10
209.2879631741398
 20
285.842421246515
 30
0.0
 11
209.2281782374571
 21
285.7498268368122
 31
0.0
  0
LINE
  5
EA0
330
E22
100
AcDbEntity
  8
0
 62
     3
100
AcDbLine
 10
209.2281782374571
 20
285.7498268368122
 30
0.0
 11
209.1715288531502
 21
285.6431897257789
 31
0.0
  0
LINE
  5
EA1
330
E22
100
AcDbEntity
  8
0
 62
     3
100
AcDbLine
 10
209.1715288531502
 20
285.6431897257789
 30
0.0
 11
209.1184531284079
 21
285.5233335144585
 31
0.0
  0
LINE
  5
EA2
330
E22
100
AcDbEntity
  8
0
 62
     3
100
AcDbLine
 10
209.1184531284079
 20
285.5233335144585
 30
0.0
 11
209.0693608401625
 21
285.3911860187687
 31
0.0
  0
LINE
  5
EA3
330
E22
100
AcDbEntity
  8
0
 62
     3
100
AcDbLine
 10
209.0693608401625
 20
285.3911860187687
 30
0.0
 11
209.024631411499
 21
285.2477681397571
 31
0.0
  0
LINE
  5
EA4
330
E22
100
AcDbEntity
  8
0
 62
     3
100
AcDbLine
 10
209.024631411499
 20
285.2477681397571
 30
0.0
 11
208.984611888066
 21
285.0941888046277
 31
0.0
  0
LINE
  5
EA5
330
E22
100
AcDbEntity
  8
0
 62
     3
100
AcDbLine
 10
208.984611888066
 20
285.0941888046277
 30
0.0
 11
208.9496098555112
 21
284.9316338369956
 31
0.0
  0
LINE
  5
EA6
330
E22
100
AcDbEntity
  8
0
 62
     3
100
AcDbLine
 10
208.9496098555112
 20
284.9316338369956
 30
0.0
 11
208.9198964748659
 21
284.7613598861189
 31
0.0
  0
LINE
  5
EA7
330
E22
100
AcDbEntity
  8
0
 62
     3
100
AcDbLine
 10
208.9198964748659
 20
284.7613598861189
 30
0.0
 11
208.8957024353663
 21
284.5846843089494
 31
0.0
  0
LINE
  5
EA8
330
E22
100
AcDbEntity
  8
0
 62
     3
100
AcDbLine
 10
208.8957024353663
 20
284.5846843089494
 30
0.0
 11
208.8772128954777
 21
284.4029720167987
 31
0.0
  0
LINE
  5
EA9
330
E22
100
AcDbEntity
  8
0
 62
     3
100
AcDbLine
 10
208.8772128954777
 20
284.4029720167987
 30
0.0
 11
208.8645725418698
 21
284.2176273809794
 31
0.0
  0
LINE
  5
EAA
330
E22
100
AcDbEntity
  8
0
 62
     3
100
AcDbLine
 10
208.8645725418698
 20
284.2176273809794
 30
0.0
 11
208.8578785068528
 21
284.0300841148561
 31
0.0
  0
LINE
  5
EAB
330
E22
100
AcDbEntity
  8
0
 62
     3
100
AcDbLine
 10
208.8578785068528
 20
284.0300841148561
 30
0.0
 11
208.8571813801709
 21
283.8417900969215
 31
0.0
  0
LINE
  5
EAC
330
E22
100
AcDbEntity
  8
0
 62
     3
100
AcDbLine
 10
208.8571813801709
 20
283.8417900969215
 30
0.0
 11
208.8624882443887
 21
283.6542013000278
 31
0.0
  0
LINE
  5
EAD
330
E22
100
AcDbEntity
  8
0
 62
     3
100
AcDbLine
 10
208.8624882443887
 20
283.6542013000278
 30
0.0
 11
208.8737566041207
 21
283.4687686380529
 31
0.0
  0
LINE
  5
EAE
330
E22
100
AcDbEntity
  8
0
 62
     3
100
AcDbLine
 10
208.8737566041207
 20
283.4687686380529
 30
0.0
 11
208.8909004568006
 21
283.286923800771
 31
0.0
  0
LINE
  5
EAF
330
E22
100
AcDbEntity
  8
0
 62
     3
100
AcDbLine
 10
208.8909004568006
 20
283.286923800771
 30
0.0
 11
208.9137872572974
 21
283.1100741948798
 31
0.0
  0
LINE
  5
EB0
330
E22
100
AcDbEntity
  8
0
 62
     3
100
AcDbLine
 10
208.9137872572974
 20
283.1100741948798
 30
0.0
 11
208.9422389297101
 21
282.9395857434857
 31
0.0
  0
LINE
  5
EB1
330
E22
100
AcDbEntity
  8
0
 62
     3
100
AcDbLine
 10
208.9422389297101
 20
282.9395857434857
 30
0.0
 11
208.9760369263413
 21
282.7767768153353
 31
0.0
  0
LINE
  5
EB2
330
E22
100
AcDbEntity
  8
0
 62
     3
100
AcDbLine
 10
208.9760369263413
 20
282.7767768153353
 30
0.0
 11
209.0149191923138
 21
282.6229040596865
 31
0.0
  0
LINE
  5
EB3
330
E22
100
AcDbEntity
  8
0
 62
     3
100
AcDbLine
 10
209.0149191923138
 20
282.6229040596865
 30
0.0
 11
209.0585862363389
 21
282.4791593709244
 31
0.0
  0
LINE
  5
EB4
330
E22
100
AcDbEntity
  8
0
 62
     3
100
AcDbLine
 10
209.0585862363389
 20
282.4791593709244
 30
0.0
 11
209.106699107127
 21
282.3466516762524
 31
0.0
  0
LINE
  5
EB5
330
E22
100
AcDbEntity
  8
0
 62
     3
100
AcDbLine
 10
209.106699107127
 20
282.3466516762524
 30
0.0
 11
209.1588864759526
 21
282.2264069356927
 31
0.0
  0
LINE
  5
EB6
330
E22
100
AcDbEntity
  8
0
 62
     3
100
AcDbLine
 10
209.1588864759526
 20
282.2264069356927
 30
0.0
 11
209.2147456484474
 21
282.1193539769581
 31
0.0
  0
LINE
  5
EB7
330
E22
100
AcDbEntity
  8
0
 62
     3
100
AcDbLine
 10
209.2147456484474
 20
282.1193539769581
 30
0.0
 11
209.2738435763974
 21
282.0263194364764
 31
0.0
  0
LINE
  5
EB8
330
E22
100
AcDbEntity
  8
0
 62
     3
100
AcDbLine
 10
209.2738435763974
 20
282.0263194364764
 30
0.0
 11
209.3357239403051
 21
281.9480227004174
 31
0.0
  0
LINE
  5
EB9
330
E22
100
AcDbEntity
  8
0
 62
     3
100
AcDbLine
 10
209.3357239403051
 20
281.9480227004174
 30
0.0
 11
209.3999091729809
 21
281.8850698339223
 31
0.0
  0
LINE
  5
EBA
330
E22
100
AcDbEntity
  8
0
 62
     3
100
AcDbLine
 10
209.3999091729809
 20
281.8850698339223
 30
0.0
 11
209.4659024831317
 21
281.837947510335
 31
0.0
  0
LINE
  5
EBB
330
E22
100
AcDbEntity
  8
0
 62
     3
100
AcDbLine
 10
209.4659024831317
 20
281.837947510335
 30
0.0
 11
209.5331939261312
 21
281.8070189640224
 31
0.0
  0
LINE
  5
EBC
330
E22
100
AcDbEntity
  8
0
 62
     3
100
AcDbLine
 10
209.5331939261312
 20
281.8070189640224
 30
0.0
 11
209.6012634394042
 21
281.7925229785795
 31
0.0
  0
LINE
  5
EBD
330
E22
100
AcDbEntity
  8
0
 62
     3
100
AcDbLine
 10
209.6012634394042
 20
281.7925229785795
 30
0.0
 11
209.6695848896054
 21
281.7945728750343
 31
0.0
  0
LINE
  5
EBE
330
E22
100
AcDbEntity
  8
0
 62
     3
100
AcDbLine
 10
209.6695848896054
 20
281.7945728750343
 30
0.0
 11
209.737630119801
 21
281.8131514528736
 31
0.0
  0
LINE
  5
EBF
330
E22
100
AcDbEntity
  8
0
 62
     3
100
AcDbLine
 10
209.737630119801
 20
281.8131514528736
 30
0.0
 11
209.8048729966456
 21
281.8481170608123
 31
0.0
  0
LINE
  5
EC0
330
E22
100
AcDbEntity
  8
0
 62
     3
100
AcDbLine
 10
209.8048729966456
 20
281.8481170608123
 30
0.0
 11
209.870794469359
 21
281.8991975260238
 31
0.0
  0
LINE
  5
EC1
330
E22
100
AcDbEntity
  8
0
 62
     3
100
AcDbLine
 10
209.870794469359
 20
281.8991975260238
 30
0.0
 11
209.9348835815197
 21
281.965999260295
 31
0.0
  0
LINE
  5
EC2
330
E22
100
AcDbEntity
  8
0
 62
     3
100
AcDbLine
 10
209.9348835815197
 20
281.965999260295
 30
0.0
 11
209.9966465772197
 21
282.0480042246396
 31
0.0
  0
LINE
  5
EC3
330
E22
100
AcDbEntity
  8
0
 62
     3
100
AcDbLine
 10
209.9966465772197
 20
282.0480042246396
 30
0.0
 11
210.0556048774745
 21
282.1445810590443
 31
0.0
  0
LINE
  5
EC4
330
E22
100
AcDbEntity
  8
0
 62
     3
100
AcDbLine
 10
210.0556048774745
 20
282.1445810590443
 30
0.0
 11
210.1113031745811
 21
282.2549810352876
 31
0.0
  0
LINE
  5
EC5
330
E22
100
AcDbEntity
  8
0
 62
     3
100
AcDbLine
 10
210.1113031745811
 20
282.2549810352876
 30
0.0
 11
210.1633114557105
 21
282.3783522220688
 31
0.0
  0
LINE
  5
EC6
330
E22
100
AcDbEntity
  8
0
 62
     3
100
AcDbLine
 10
210.1633114557105
 20
282.3783522220688
 30
0.0
 11
210.2112270264945
 21
282.5137404968034
 31
0.0
  0
LINE
  5
EC7
330
E22
100
AcDbEntity
  8
0
 62
     3
100
AcDbLine
 10
210.2112270264945
 20
282.5137404968034
 30
0.0
 11
210.2546795700021
 21
282.6600996635711
 31
0.0
  0
LINE
  5
EC8
330
E22
100
AcDbEntity
  8
0
 62
     3
100
AcDbLine
 10
210.2546795700021
 20
282.6600996635711
 30
0.0
 11
210.2933331703284
 21
282.8162975238857
 31
0.0
  0
LINE
  5
EC9
330
E22
100
AcDbEntity
  8
0
 62
     3
100
AcDbLine
 10
210.2933331703284
 20
282.8162975238857
 30
0.0
 11
210.326890359775
 21
282.9811280182338
 31
0.0
  0
LINE
  5
ECA
330
E22
100
AcDbEntity
  8
0
 62
     3
100
AcDbLine
 10
210.326890359775
 20
282.9811280182338
 30
0.0
 11
210.3550900952591
 21
283.1533162850495
 31
0.0
  0
LINE
  5
ECB
330
E22
100
AcDbEntity
  8
0
 62
     3
100
AcDbLine
 10
210.3608401256404
 20
284.7074544895639
 30
0.0
 11
211.7846824191204
 21
284.7021860735519
 31
0.0
  0
ARC
  5
ECC
330
E22
100
AcDbEntity
  8
0
 62
     3
100
AcDbCircle
 10
190.5288527955408
 20
284.0037551881305
 30
0.0
 40
21.26730034229026
100
AcDbArc
 50
1.881965999998799
 51
5.709994000000508
  0
LINE
  5
ECD
330
E22
100
AcDbEntity
  8
0
 62
     3
100
AcDbLine
 10
207.1913521462863
 20
286.9349988766058
 30
0.0
 11
207.1913470873119
 21
286.6292324361205
 31
0.0
  0
LINE
  5
ECE
330
E22
100
AcDbEntity
  8
0
 62
     3
100
AcDbLine
 10
204.6493516026169
 20
281.2368957924554
 30
0.0
 11
204.6493465436422
 21
280.93112935197
 31
0.0
  0
LINE
  5
ECF
330
E22
100
AcDbEntity
  8
0
 62
     3
100
AcDbLine
 10
204.6494507585164
 20
286.9350524616931
 30
0.0
 11
204.6494456995417
 21
286.629228348899
 31
0.0
  0
LINE
  5
ED0
330
E22
100
AcDbEntity
  8
0
 62
     3
100
AcDbLine
 10
200.4505105345838
 20
281.2694109195942
 30
0.0
 11
200.4505105345838
 21
280.9636161488519
 31
0.0
  0
LINE
  5
ED1
330
E22
100
AcDbEntity
  8
0
 62
     3
100
AcDbLine
 10
199.9441995486006
 20
284.4845004919676
 30
0.0
 11
202.1447522630479
 21
280.9636161488519
 31
0.0
  0
LINE
  5
ED2
330
E22
100
AcDbEntity
  8
0
 62
     3
100
AcDbLine
 10
202.1447522630479
 20
280.9636161488519
 30
0.0
 11
203.6182615442728
 21
280.9636161488519
 31
0.0
  0
LINE
  5
ED3
330
E22
100
AcDbEntity
  8
0
 62
     3
100
AcDbLine
 10
204.1245725302563
 20
286.9675382463947
 30
0.0
 11
204.1245725302563
 21
286.6617434756524
 31
0.0
  0
LINE
  5
ED4
330
E22
100
AcDbEntity
  8
0
 62
     3
100
AcDbLine
 10
202.1467427486141
 20
286.9675382463947
 30
0.0
 11
204.1245725302563
 21
286.9675382463947
 31
0.0
  0
LINE
  5
ED5
330
E22
100
AcDbEntity
  8
0
 62
     3
100
AcDbLine
 10
202.1467427486141
 20
286.9675382463947
 30
0.0
 11
202.1467427486141
 21
286.6617434756524
 31
0.0
  0
LINE
  5
ED6
330
E22
100
AcDbEntity
  8
0
 62
     3
100
AcDbLine
 10
202.6530537345975
 20
284.2481715114516
 30
0.0
 11
200.8684691250794
 21
286.9675382463947
 31
0.0
  0
LINE
  5
ED7
330
E22
100
AcDbEntity
  8
0
 62
     3
100
AcDbLine
 10
198.4726797411465
 20
286.9675382463947
 30
0.0
 11
200.8684691250794
 21
286.9675382463947
 31
0.0
  0
LINE
  5
ED8
330
E22
100
AcDbEntity
  8
0
 62
     3
100
AcDbLine
 10
211.8406155467012
 20
286.9348824999793
 30
0.0
 11
214.4154002684847
 21
286.9348824999791
 31
0.0
  0
LINE
  5
ED9
330
E22
100
AcDbEntity
  8
0
 62
     3
100
AcDbLine
 10
211.8406155467012
 20
286.629230392317
 30
0.0
 11
211.8406155467012
 21
286.9348824999793
 31
0.0
  0
LINE
  5
EDA
330
E22
100
AcDbEntity
  8
0
 62
     3
100
AcDbLine
 10
211.8406155467012
 20
280.9309604024365
 30
0.0
 11
211.8406155467012
 21
281.2368978362588
 31
0.0
  0
LINE
  5
EDB
330
E22
100
AcDbEntity
  8
0
 62
     3
100
AcDbLine
 10
211.8406155467012
 20
280.9309604024364
 30
0.0
 11
214.4154002684847
 21
280.9309604024365
 31
0.0
  0
LINE
  5
EDC
330
E22
100
AcDbEntity
  8
0
 62
     3
100
AcDbLine
 10
214.9569276307762
 20
281.2368978362588
 30
0.0
 11
214.9569276307762
 21
280.9309604024365
 31
0.0
  0
LINE
  5
EDD
330
E22
100
AcDbEntity
  8
0
 62
     3
100
AcDbLine
 10
214.4154002684847
 20
281.2368978362588
 30
0.0
 11
214.4154002684847
 21
280.9309604024365
 31
0.0
  0
LINE
  5
EDE
330
E22
100
AcDbEntity
  8
0
 62
     3
100
AcDbLine
 10
214.4154002684847
 20
286.629230392317
 30
0.0
 11
214.4154002684847
 21
286.9348824999793
 31
0.0
  0
LINE
  5
EDF
330
E22
100
AcDbEntity
  8
0
 62
     3
100
AcDbLine
 10
214.9569276307762
 20
286.629230392317
 30
0.0
 11
214.9569276307762
 21
286.9348824999793
 31
0.0
  0
LINE
  5
EE0
330
E22
100
AcDbEntity
  8
0
 62
     3
100
AcDbLine
 10
198.4726797411465
 20
281.2694109195941
 30
0.0
 11
198.4726797411465
 21
280.9636161488519
 31
0.0
  0
LINE
  5
EE1
330
E22
100
AcDbEntity
  8
0
 62
     3
100
AcDbLine
 10
198.4726797411465
 20
286.9675382463947
 30
0.0
 11
198.4726797411465
 21
286.6617434756524
 31
0.0
  0
ARC
  5
EE2
330
E22
100
AcDbEntity
  8
0
 62
     3
100
AcDbCircle
 10
224.150748389565
 20
284.5629034002713
 30
0.0
 40
2.37212176278799
100
AcDbArc
 50
17.30874900000206
 51
23.76507100000091
  0
ARC
  5
EE3
330
E22
100
AcDbEntity
  8
0
 62
     3
100
AcDbCircle
 10
222.12965470004
 20
283.9330641142879
 30
0.0
 40
4.489082006702322
100
AcDbArc
 50
342.691250999998
 51
17.3085660000007
  0
ARC
  5
EE4
330
E22
100
AcDbEntity
  8
0
 62
     3
100
AcDbCircle
 10
224.150748389565
 20
283.3032248283045
 30
0.0
 40
2.37212176278799
100
AcDbArc
 50
336.2349289999991
 51
342.691250999998
  0
ARC
  5
EE5
330
E22
100
AcDbEntity
  8
0
 62
     3
100
AcDbCircle
 10
223.8930918614358
 20
284.5629034002713
 30
0.0
 40
2.37212176278799
100
AcDbArc
 50
17.30874900000206
 51
90.0
  0
ARC
  5
EE6
330
E22
100
AcDbEntity
  8
0
 62
     3
100
AcDbCircle
 10
221.8719930928312
 20
283.9330776767834
 30
0.0
 40
4.489082006702322
100
AcDbArc
 50
342.691250999998
 51
17.3085660000007
  0
ARC
  5
EE7
330
E22
100
AcDbEntity
  8
0
 62
     3
100
AcDbCircle
 10
223.8930918614358
 20
283.3032248283045
 30
0.0
 40
2.37212176278799
100
AcDbArc
 50
270.0
 51
342.691250999998
  0
ARC
  5
EE8
330
E22
100
AcDbEntity
  8
0
 62
     3
100
AcDbCircle
 10
209.6338472821628
 20
283.9330641142879
 30
0.0
 40
3.001961048771398
100
AcDbArc
 50
46.75287999999464
 51
89.74999799999961
  0
ARC
  5
EE9
330
E22
100
AcDbEntity
  8
0
 62
     3
100
AcDbCircle
 10
209.6338472821628
 20
283.9330641142879
 30
0.0
 40
3.001961048771398
100
AcDbArc
 50
273.9763330000016
 51
312.8231199999997
  0
ARC
  5
EEA
330
E22
100
AcDbEntity
  8
0
 62
     3
100
AcDbCircle
 10
225.7520837904888
 20
283.8867218845638
 30
0.0
 40
3.983420308030568
100
AcDbArc
 50
0.6665839999989652
 51
23.90392800000231
  0
ARC
  5
EEB
330
E22
100
AcDbEntity
  8
0
 62
     3
100
AcDbCircle
 10
231.4117214277355
 20
283.8867218845638
 30
0.0
 40
3.983420308030568
100
AcDbArc
 50
156.0960719999977
 51
179.333416000001
  0
ARC
  5
EEC
330
E22
100
AcDbEntity
  8
0
 62
     3
100
AcDbCircle
 10
225.7520837904888
 20
283.979406344012
 30
0.0
 40
3.983420308030568
100
AcDbArc
 50
336.096071999998
 51
359.3334159999978
  0
ARC
  5
EED
330
E22
100
AcDbEntity
  8
0
 62
     3
100
AcDbCircle
 10
231.4117214277355
 20
283.979406344012
 30
0.0
 40
3.983420308030568
100
AcDbArc
 50
180.666583999999
 51
203.9039280000023
  0
LINE
  5
EEE
330
E22
100
AcDbEntity
  8
0
  6
Continuous
 62
     3
100
AcDbLine
 10
198.4726797411465
 20
286.6617434756524
 30
0.0
 11
198.9789907271299
 21
286.3329566777442
 31
0.0
  0
LINE
  5
EEF
330
E22
100
AcDbEntity
  8
0
  6
Continuous
 62
     3
100
AcDbLine
 10
202.1467427486141
 20
286.6617434756524
 30
0.0
 11
202.6530537345975
 21
286.3329566777442
 31
0.0
  0
LINE
  5
EF0
330
E22
100
AcDbEntity
  8
0
  6
Continuous
 62
     3
100
AcDbLine
 10
204.1245725302563
 20
286.6617434756524
 30
0.0
 11
203.6182615442728
 21
286.3329566777442
 31
0.0
  0
LINE
  5
EF1
330
E22
100
AcDbEntity
  8
0
  6
Continuous
 62
     3
100
AcDbLine
 10
204.6494456995417
 20
286.629228348899
 30
0.0
 11
205.1557182373362
 21
286.3004355000498
 31
0.0
  0
LINE
  5
EF2
330
E22
100
AcDbEntity
  8
0
  6
Continuous
 62
     3
100
AcDbLine
 10
207.1913470873119
 20
286.6292324361205
 30
0.0
 11
206.6850300305421
 21
286.3004142523569
 31
0.0
  0
LINE
  5
EF3
330
E22
100
AcDbEntity
  8
0
  6
Continuous
 62
     3
100
AcDbLine
 10
211.8406155467012
 20
286.629230392317
 30
0.0
 11
212.3469265326846
 21
286.3003434267143
 31
0.0
  0
LINE
  5
EF4
330
E22
100
AcDbEntity
  8
0
  6
Continuous
 62
     3
100
AcDbLine
 10
214.4154002684847
 20
286.629230392317
 30
0.0
 11
213.9090892825013
 21
286.3003434267143
 31
0.0
  0
LINE
  5
EF5
330
E22
100
AcDbEntity
  8
0
  6
Continuous
 62
     3
100
AcDbLine
 10
214.9569276307762
 20
286.629230392317
 30
0.0
 11
215.4632386167596
 21
286.3003434267143
 31
0.0
  0
LINE
  5
EF6
330
E22
100
AcDbEntity
  8
0
  6
Continuous
 62
     3
100
AcDbLine
 10
217.5317133643546
 20
286.629230392317
 30
0.0
 11
217.0254013665763
 21
286.3003434267143
 31
0.0
  0
LINE
  5
EF7
330
E22
100
AcDbEntity
  8
0
  6
Continuous
 62
     3
100
AcDbLine
 10
218.0602632600805
 20
286.629230392317
 30
0.0
 11
218.566574246064
 21
286.3003434267143
 31
0.0
  0
LINE
  5
EF8
330
E22
100
AcDbEntity
  8
0
  6
Continuous
 62
     3
100
AcDbLine
 10
220.6021646478169
 20
286.629230392317
 30
0.0
 11
220.0958536618334
 21
286.3003434267143
 31
0.0
  0
LINE
  5
EF9
330
E22
100
AcDbEntity
  8
0
  6
Continuous
 62
     3
100
AcDbLine
 10
221.1484699991597
 20
286.629230392317
 30
0.0
 11
221.6547809851429
 21
286.3003434267143
 31
0.0
  0
LINE
  5
EFA
330
E22
100
AcDbEntity
  8
0
  6
Continuous
 62
     3
100
AcDbLine
 10
221.6546990297565
 20
281.5656441623712
 30
0.0
 11
221.1484699991597
 21
281.2368978362588
 31
0.0
  0
LINE
  5
EFB
330
E22
100
AcDbEntity
  8
0
  6
Continuous
 62
     3
100
AcDbLine
 10
220.0959356172195
 20
281.5656441623712
 30
0.0
 11
220.6021646478169
 21
281.2368978362588
 31
0.0
  0
LINE
  5
EFC
330
E22
100
AcDbEntity
  8
0
  6
Continuous
 62
     3
100
AcDbLine
 10
218.5664912788827
 20
281.5656441623712
 30
0.0
 11
218.0602632600805
 21
281.2368978362588
 31
0.0
  0
LINE
  5
EFD
330
E22
100
AcDbEntity
  8
0
  6
Continuous
 62
     3
100
AcDbLine
 10
217.5317133643546
 20
281.2368978362588
 30
0.0
 11
217.0254843337575
 21
281.5656441623712
 31
0.0
  0
LINE
  5
EFE
330
E22
100
AcDbEntity
  8
0
  6
Continuous
 62
     3
100
AcDbLine
 10
214.9569276307762
 20
281.2368978362588
 30
0.0
 11
215.4631556495781
 21
281.5656441623712
 31
0.0
  0
LINE
  5
EFF
330
E22
100
AcDbEntity
  8
0
  6
Continuous
 62
     3
100
AcDbLine
 10
214.4154002684847
 20
281.2368978362588
 30
0.0
 11
213.9091722496825
 21
281.5656441623712
 31
0.0
  0
LINE
  5
F00
330
E22
100
AcDbEntity
  8
0
  6
Continuous
 62
     3
100
AcDbLine
 10
212.3468435655034
 20
281.5656441623712
 30
0.0
 11
211.8406155467012
 21
281.2368978362588
 31
0.0
  0
LINE
  5
F01
330
E22
100
AcDbEntity
  8
0
  6
Continuous
 62
     3
100
AcDbLine
 10
207.1912529903941
 20
281.2369002883685
 30
0.0
 11
206.6850300305421
 21
281.5657139762189
 31
0.0
  0
LINE
  5
F02
330
E22
100
AcDbEntity
  8
0
  6
Continuous
 62
     3
100
AcDbLine
 10
204.6493516026169
 20
281.2368957924554
 30
0.0
 11
205.1556190814365
 21
281.5657352239116
 31
0.0
  0
LINE
  5
F03
330
E22
100
AcDbEntity
  8
0
  6
Continuous
 62
     3
100
AcDbLine
 10
200.4505105345838
 20
281.2694109195942
 30
0.0
 11
199.9441995486006
 21
281.5981987292973
 31
0.0
  0
LINE
  5
F04
330
E22
100
AcDbEntity
  8
0
  6
Continuous
 62
     3
100
AcDbLine
 10
198.4726797411465
 20
281.2694109195942
 30
0.0
 11
198.9789907271299
 21
281.5981987292973
 31
0.0
  0
LINE
  5
F05
330
E22
100
AcDbEntity
  8
0
  6
Continuous
 62
     3
100
AcDbLine
 10
207.1912469196246
 20
280.9310771873693
 30
0.0
 11
204.6493465436422
 21
280.93112935197
 31
0.0
  0
LINE
  5
F06
330
E22
100
AcDbEntity
  8
0
  6
Continuous
 62
     3
100
AcDbLine
 10
204.6494507585164
 20
286.9350524616931
 30
0.0
 11
207.1913521462863
 21
286.9349988766058
 31
0.0
  0
ARC
  5
F07
330
E22
100
AcDbEntity
  8
0
  6
Continuous
 62
     3
100
AcDbCircle
 10
233.4996944478569
 20
283.9148263707226
 30
0.0
 40
1.5
100
AcDbArc
 50
293.7485430905253
 51
66.2514569094748
  0
ARC
  5
F08
330
E22
100
AcDbEntity
  8
0
  6
Continuous
 62
     3
100
AcDbCircle
 10
233.4996944478569
 20
283.9148263707226
 30
0.0
 40
2.25
100
AcDbArc
 50
293.7485430905253
 51
66.2514569094748
  0
ARC
  5
F09
330
E22
100
AcDbEntity
  8
0
  6
Continuous
 62
     3
100
AcDbCircle
 10
222.0220771115314
 20
257.8281573560539
 30
0.0
 40
30.0
100
AcDbArc
 50
66.2514569094748
 51
81.41597019517911
  0
ARC
  5
F0A
330
E22
100
AcDbEntity
  8
0
  6
Continuous
 62
     3
100
AcDbCircle
 10
222.0220771115314
 20
257.8281573560539
 30
0.0
 40
30.75
100
AcDbArc
 50
66.2514569094748
 51
81.41597019517911
  0
ARC
  5
F0B
330
E22
100
AcDbEntity
  8
0
  6
Continuous
 62
     3
100
AcDbCircle
 10
194.4244079510804
 20
283.9148263707226
 30
0.0
 40
1.5
100
AcDbArc
 50
113.7485430905252
 51
246.2514569094748
  0
ARC
  5
F0C
330
E22
100
AcDbEntity
  8
0
  6
Continuous
 62
     3
100
AcDbCircle
 10
194.4244079510804
 20
283.9148263707226
 30
0.0
 40
2.25
100
AcDbArc
 50
113.7485430905252
 51
246.2514569094748
  0
ARC
  5
F0D
330
E22
100
AcDbEntity
  8
0
  6
Continuous
 62
     3
100
AcDbCircle
 10
205.9020252874061
 20
257.8281573560539
 30
0.0
 40
30.0
100
AcDbArc
 50
98.5840298048209
 51
113.7485430905252
  0
ARC
  5
F0E
330
E22
100
AcDbEntity
  8
0
  6
Continuous
 62
     3
100
AcDbCircle
 10
205.9020252874061
 20
257.8281573560539
 30
0.0
 40
30.75
100
AcDbArc
 50
98.5840298048209
 51
113.7485430905252
  0
ARC
  5
F0F
330
E22
100
AcDbEntity
  8
0
  6
Continuous
 62
     3
100
AcDbCircle
 10
222.0220771115314
 20
310.0014953853913
 30
0.0
 40
30.0
100
AcDbArc
 50
278.5840298048209
 51
293.7485430905253
  0
ARC
  5
F10
330
E22
100
AcDbEntity
  8
0
  6
Continuous
 62
     3
100
AcDbCircle
 10
222.0220771115314
 20
310.0014953853913
 30
0.0
 40
30.75
100
AcDbArc
 50
278.5840298048209
 51
293.7485430905253
  0
ARC
  5
F11
330
E22
100
AcDbEntity
  8
0
  6
Continuous
 62
     3
100
AcDbCircle
 10
205.9020252874061
 20
310.0014953853913
 30
0.0
 40
30.0
100
AcDbArc
 50
246.2514569094748
 51
261.4159701951791
  0
ARC
  5
F12
330
E22
100
AcDbEntity
  8
0
  6
Continuous
 62
     3
100
AcDbCircle
 10
205.9020252874061
 20
310.0014953853913
 30
0.0
 40
30.75
100
AcDbArc
 50
246.2514569094748
 51
261.4159701951791
  0
ARC
  5
F13
330
E22
100
AcDbEntity
  8
0
  6
Continuous
 62
     3
100
AcDbCircle
 10
213.9620511994688
 20
204.4330641142894
 30
0.0
 40
84.74999999999857
100
AcDbArc
 50
81.41597019517911
 51
98.5840298048209
  0
ARC
  5
F14
330
E22
100
AcDbEntity
  8
0
  6
Continuous
 62
     3
100
AcDbCircle
 10
213.9620511994688
 20
204.4330641142906
 30
0.0
 40
83.99999999999733
100
AcDbArc
 50
81.41597019517911
 51
98.5840298048209
  0
ARC
  5
F15
330
E22
100
AcDbEntity
  8
0
  6
Continuous
 62
     3
100
AcDbCircle
 10
213.9620511994688
 20
363.3965886271558
 30
0.0
 40
84.74999999999857
100
AcDbArc
 50
261.4159701951791
 51
278.5840298048209
  0
ARC
  5
F16
330
E22
100
AcDbEntity
  8
0
  6
Continuous
 62
     3
100
AcDbCircle
 10
213.9620511994688
 20
363.3965886271545
 30
0.0
 40
83.99999999999733
100
AcDbArc
 50
261.4159701951791
 51
278.5840298048209
  0
TEXT
  5
F17
330
E22
100
AcDbEntity
  8
0
 62
     3
100
AcDbText
 10
397.4999981865963
 20
274.4999999941307
 30
0.0
 40
3.2
  1
担　当
  7
高3.2
100
AcDbText
  0
TEXT
  5
F18
330
E22
100
AcDbEntity
  8
0
 62
     3
100
AcDbText
 10
353.4999981865963
 20
274.4999999941307
 30
0.0
 40
3.2
  1
変更・追記内容
  7
高3.2
100
AcDbText
  0
TEXT
  5
F19
330
E22
100
AcDbEntity
  8
0
 62
     3
100
AcDbText
 10
328.6135131869355
 20
269.8294614842224
 30
0.0
 40
2.0
  1
1
  7
高2
100
AcDbText
  0
TEXT
  5
F1A
330
E22
100
AcDbEntity
  8
0
 62
     3
100
AcDbText
 10
328.3050017101782
 20
264.6596447719495
 30
0.0
 40
2.0
  1
2
  7
高2
100
AcDbText
  0
TEXT
  5
F1B
330
E22
100
AcDbEntity
  8
0
 62
     3
100
AcDbText
 10
335.4999981865963
 20
274.4999999941307
 30
0.0
 40
3.2
  1
日　付
  7
高3.2
100
AcDbText
  0
TEXT
  5
F1C
330
E22
100
AcDbEntity
  8
0
 62
     3
100
AcDbText
 10
335.4999981865963
 20
279.4999999941307
 30
0.0
 40
3.2
  1
図　　　　面　　　　略　　　　歴
  7
高3.2
100
AcDbText
  0
TEXT
  5
F1D
330
E22
100
AcDbEntity
  8
0
 62
     3
100
AcDbText
 10
325.4999981865962
 20
274.4999999941307
 30
0.0
 40
3.2
  1
記号
  7
高3.2
100
AcDbText
  0
LINE
  5
F1E
330
E22
100
AcDbEntity
  8
0
100
AcDbLine
 10
328.9999981865963
 20
267.7908959941309
 30
0.0
 11
327.0999981865964
 21
264.4999999941307
 31
0.0
  0
LINE
  5
F1F
330
E22
100
AcDbEntity
  8
0
100
AcDbLine
 10
328.9999981865963
 20
267.7908959941309
 30
0.0
 11
330.8999981865961
 21
264.4999999941307
 31
0.0
  0
LINE
  5
F20
330
E22
100
AcDbEntity
  8
0
100
AcDbLine
 10
327.0999981865964
 20
264.4999999941307
 30
0.0
 11
330.8999981865961
 21
264.4999999941307
 31
0.0
  0
LINE
  5
F21
330
E22
100
AcDbEntity
  8
0
100
AcDbLine
 10
328.9999981865963
 20
272.7908969941308
 30
0.0
 11
327.0999981865964
 21
269.4999999941307
 31
0.0
  0
LINE
  5
F22
330
E22
100
AcDbEntity
  8
0
100
AcDbLine
 10
328.9999981865963
 20
272.7908969941308
 30
0.0
 11
330.8999981865961
 21
269.4999999941307
 31
0.0
  0
LINE
  5
F23
330
E22
100
AcDbEntity
  8
0
100
AcDbLine
 10
327.0999981865964
 20
269.4999999941307
 30
0.0
 11
330.8999981865961
 21
269.4999999941307
 31
0.0
  0
LINE
  5
F24
330
E22
100
AcDbEntity
  8
0
 62
     3
100
AcDbLine
 10
323.9999981865963
 20
278.9999999941307
 30
0.0
 11
409.9999981865962
 21
278.9999999941307
 31
0.0
  0
LINE
  5
F25
330
E22
100
AcDbEntity
  8
0
 62
     3
100
AcDbLine
 10
323.9999981865963
 20
273.9999999941307
 30
0.0
 11
409.9999981865962
 21
273.9999999941307
 31
0.0
  0
LINE
  5
F26
330
E22
100
AcDbEntity
  8
0
 62
     7
100
AcDbLine
 10
323.9999981865963
 20
268.9999999941307
 30
0.0
 11
409.9999981865962
 21
268.9999999941307
 31
0.0
  0
LINE
  5
F27
330
E22
100
AcDbEntity
  8
0
 62
     3
100
AcDbLine
 10
323.9999981865963
 20
263.9999999941307
 30
0.0
 11
409.9999981865962
 21
263.9999999941307
 31
0.0
  0
LINE
  5
F28
330
E22
100
AcDbEntity
  8
0
 62
     7
100
AcDbLine
 10
395.9999981865962
 20
263.9999999941307
 30
0.0
 11
395.9999981865962
 21
278.9999999941307
 31
0.0
  0
LINE
  5
F29
330
E22
100
AcDbEntity
  8
0
 62
     7
100
AcDbLine
 10
351.9999981865963
 20
263.9999999941307
 30
0.0
 11
351.9999981865963
 21
278.9999999941307
 31
0.0
  0
LINE
  5
F2A
330
E22
100
AcDbEntity
  8
0
 62
     7
100
AcDbLine
 10
333.9999981865962
 20
263.9999999941307
 30
0.0
 11
333.9999981865962
 21
278.9999999941307
 31
0.0
  0
LINE
  5
F2B
330
E22
100
AcDbEntity
  8
0
 62
     3
100
AcDbLine
 10
323.9999981865963
 20
263.9999999941307
 30
0.0
 11
323.9999981865963
 21
283.9999999941307
 31
0.0
  0
ENDBLK
  5
F2F
330
E22
100
AcDbEntity
  8
0
100
AcDbBlockEnd
  0
BLOCK
  5
FB3
330
FB2
100
AcDbEntity
  8
0
100
AcDbBlockBegin
  2
*D3
 70
     1
 10
0.0
 20
0.0
 30
0.0
  3
*D3
  1

  0
LINE
  5
1017
330
FB2
100
AcDbEntity
  8
0
 62
     0
370
    -2
100
AcDbLine
 10
4068.615213816165
 20
-624.3230788735045
 30
0.0
 11
4068.615213816165
 21
-542.7809687147264
 31
0.0
  0
LINE
  5
1018
330
FB2
100
AcDbEntity
  8
0
 62
     0
370
    -2
100
AcDbLine
 10
6268.615213816165
 20
-624.3230788735045
 30
0.0
 11
6268.615213816165
 21
-542.7809687147264
 31
0.0
  0
LINE
  5
1019
330
FB2
100
AcDbEntity
  8
0
 62
     0
370
    -2
100
AcDbLine
 10
4071.115213816165
 20
-544.0309687147264
 30
0.0
 11
6266.115213816164
 21
-544.0309687147264
 31
0.0
  0
INSERT
  5
101A
330
FB2
100
AcDbEntity
  8
0
 62
     0
370
    -2
100
AcDbBlockReference
  2
_Open30
 10
4068.615213816165
 20
-544.0309687147264
 30
0.0
 41
2.5
 42
2.5
 43
2.5
 50
180.0
  0
INSERT
  5
101B
330
FB2
100
AcDbEntity
  8
0
 62
     0
370
    -2
100
AcDbBlockReference
  2
_Open30
 10
6268.615213816165
 20
-544.0309687147264
 30
0.0
 41
2.5
 42
2.5
 43
2.5
  0
MTEXT
  5
101C
330
FB2
100
AcDbEntity
  8
0
 62
     4
100
AcDbMText
 10
6140.997680268167
 20
-541.9059687147264
 30
0.0
 40
3.0
 41
0.0
 71
     5
 72
     1
  1
2200
 73
     1
 44
1.0
1001
ACAD
1000
MTEXTBEGIN
1070
    73
1070
     1
1070
    44
1040
1.0
1070
    74
1070
     0
1000
MTEXTEND
  0
POINT
  5
101D
330
FB2
100
AcDbEntity
  8
Defpoints
 62
     0
100
AcDbPoint
 10
4068.615213816165
 20
-624.5730788735045
 30
0.0
  0
POINT
  5
101E
330
FB2
100
AcDbEntity
  8
Defpoints
 62
     0
100
AcDbPoint
 10
6268.615213816165
 20
-624.5730788735045
 30
0.0
  0
POINT
  5
101F
330
FB2
100
AcDbEntity
  8
Defpoints
 62
     0
100
AcDbPoint
 10
6268.615213816165
 20
-544.0309687147264
 30
0.0
  0
ENDBLK
  5
FB4
330
FB2
100
AcDbEntity
  8
0
100
AcDbBlockEnd
  0
BLOCK
  5
1060
330
105F
100
AcDbEntity
  8
0
100
AcDbBlockBegin
  2
*D4
 70
     1
 10
0.0
 20
0.0
 30
0.0
  3
*D4
  1

  0
LINE
  5
17EF
330
105F
100
AcDbEntity
  8
0
 62
     0
370
    -2
100
AcDbLine
 10
1276.662356629463
 20
226.2258561406889
 30
0.0
 11
1276.662356629463
 21
215.9704299723227
 31
0.0
  0
LINE
  5
17F0
330
105F
100
AcDbEntity
  8
0
 62
     0
370
    -2
100
AcDbLine
 10
1358.662356629463
 20
226.2258561406889
 30
0.0
 11
1358.662356629463
 21
215.9704299723227
 31
0.0
  0
LINE
  5
17F1
330
105F
100
AcDbEntity
  8
0
 62
     0
370
    -2
100
AcDbLine
 10
1279.162356629463
 20
217.2204299723227
 30
0.0
 11
1356.162356629463
 21
217.2204299723227
 31
0.0
  0
INSERT
  5
17F2
330
105F
100
AcDbEntity
  8
0
 62
     0
370
    -2
100
AcDbBlockReference
  2
_Open30
 10
1276.662356629463
 20
217.2204299723227
 30
0.0
 41
2.5
 42
2.5
 43
2.5
 50
180.0
  0
INSERT
  5
17F3
330
105F
100
AcDbEntity
  8
0
 62
     0
370
    -2
100
AcDbBlockReference
  2
_Open30
 10
1358.662356629463
 20
217.2204299723227
 30
0.0
 41
2.5
 42
2.5
 43
2.5
  0
MTEXT
  5
17F4
330
105F
100
AcDbEntity
  8
0
 62
     4
100
AcDbMText
 10
1316.301483429915
 20
219.3454299723227
 30
0.0
 40
3.0
 41
0.0
 71
     5
 72
     1
  1
410
 73
     1
 44
1.0
1001
ACAD
1000
MTEXTBEGIN
1070
    73
1070
     1
1070
    44
1040
1.0
1070
    74
1070
     0
1000
MTEXTEND
  0
POINT
  5
17F5
330
105F
100
AcDbEntity
  8
Defpoints
 62
     0
100
AcDbPoint
 10
1276.662356629463
 20
226.4758561406889
 30
0.0
  0
POINT
  5
17F6
330
105F
100
AcDbEntity
  8
Defpoints
 62
     0
100
AcDbPoint
 10
1358.662356629463
 20
226.4758561406889
 30
0.0
  0
POINT
  5
17F7
330
105F
100
AcDbEntity
  8
Defpoints
 62
     0
100
AcDbPoint
 10
1358.662356629463
 20
217.2204299723227
 30
0.0
  0
ENDBLK
  5
1061
330
105F
100
AcDbEntity
  8
0
100
AcDbBlockEnd
  0
BLOCK
  5
1078
330
1077
100
AcDbEntity
  8
0
100
AcDbBlockBegin
  2
*D5
 70
     1
 10
0.0
 20
0.0
 30
0.0
  3
*D5
  1

  0
LINE
  5
17F8
330
1077
100
AcDbEntity
  8
0
 62
     0
370
    -2
100
AcDbLine
 10
1358.912356629463
 20
296.4758561406888
 30
0.0
 11
1373.800477140577
 21
296.4758561406888
 31
0.0
  0
LINE
  5
17F9
330
1077
100
AcDbEntity
  8
0
 62
     0
370
    -2
100
AcDbLine
 10
1358.912356629463
 20
226.4758561406889
 30
0.0
 11
1373.800477140577
 21
226.4758561406889
 31
0.0
  0
LINE
  5
17FA
330
1077
100
AcDbEntity
  8
0
 62
     0
370
    -2
100
AcDbLine
 10
1372.550477140577
 20
293.9758561406888
 30
0.0
 11
1372.550477140577
 21
228.9758561406889
 31
0.0
  0
INSERT
  5
17FB
330
1077
100
AcDbEntity
  8
0
 62
     0
370
    -2
100
AcDbBlockReference
  2
_Open30
 10
1372.550477140577
 20
296.4758561406888
 30
0.0
 41
2.5
 42
2.5
 43
2.5
 50
90.0
  0
INSERT
  5
17FC
330
1077
100
AcDbEntity
  8
0
 62
     0
370
    -2
100
AcDbBlockReference
  2
_Open30
 10
1372.550477140577
 20
226.4758561406889
 30
0.0
 41
2.5
 42
2.5
 43
2.5
 50
270.0
  0
MTEXT
  5
17FD
330
1077
100
AcDbEntity
  8
0
 62
     4
100
AcDbMText
 10
1370.425477140577
 20
261.7879981674088
 30
0.0
 40
3.0
 41
0.0
 71
     5
 72
     1
  1
350
 11
0.0000000000000001
 21
1.0
 31
0.0
 73
     1
 44
1.0
1001
ACAD
1000
MTEXTBEGIN
1070
    73
1070
     1
1070
    44
1040
1.0
1070
    74
1070
     0
1000
MTEXTEND
  0
POINT
  5
17FE
330
1077
100
AcDbEntity
  8
Defpoints
 62
     0
100
AcDbPoint
 10
1358.662356629463
 20
296.4758561406888
 30
0.0
  0
POINT
  5
17FF
330
1077
100
AcDbEntity
  8
Defpoints
 62
     0
100
AcDbPoint
 10
1358.662356629463
 20
226.4758561406889
 30
0.0
  0
POINT
  5
1800
330
1077
100
AcDbEntity
  8
Defpoints
 62
     0
100
AcDbPoint
 10
1372.550477140577
 20
226.4758561406889
 30
0.0
  0
ENDBLK
  5
1079
330
1077
100
AcDbEntity
  8
0
100
AcDbBlockEnd
  0
BLOCK
  5
1090
330
108F
100
AcDbEntity
  8
0
100
AcDbBlockBegin
  2
*D6
 70
     1
 10
0.0
 20
0.0
 30
0.0
  3
*D6
  1

  0
LINE
  5
1801
330
108F
100
AcDbEntity
  8
0
 62
     0
370
    -2
100
AcDbLine
 10
1406.326849235451
 20
236.2258561406889
 30
0.0
 11
1406.326849235451
 21
215.936526994905
 31
0.0
  0
LINE
  5
1802
330
108F
100
AcDbEntity
  8
0
 62
     0
370
    -2
100
AcDbLine
 10
1415.326849235451
 20
226.025856140689
 30
0.0
 11
1415.326849235451
 21
215.936526994905
 31
0.0
  0
LINE
  5
1803
330
108F
100
AcDbEntity
  8
0
 62
     0
370
    -2
100
AcDbLine
 10
1403.826849235451
 20
217.186526994905
 30
0.0
 11
1401.326849235451
 21
217.186526994905
 31
0.0
  0
LINE
  5
1804
330
108F
100
AcDbEntity
  8
0
 62
     0
370
    -2
100
AcDbLine
 10
1417.826849235451
 20
217.186526994905
 30
0.0
 11
1426.576849235451
 21
217.186526994905
 31
0.0
  0
LINE
  5
1805
330
108F
100
AcDbEntity
  8
0
 62
     0
370
    -2
100
AcDbLine
 10
1406.326849235451
 20
217.186526994905
 30
0.0
 11
1415.326849235451
 21
217.186526994905
 31
0.0
  0
INSERT
  5
1806
330
108F
100
AcDbEntity
  8
0
 62
     0
370
    -2
100
AcDbBlockReference
  2
_Open30
 10
1406.326849235451
 20
217.186526994905
 30
0.0
 41
2.5
 42
2.5
 43
2.5
  0
INSERT
  5
1807
330
108F
100
AcDbEntity
  8
0
 62
     0
370
    -2
100
AcDbBlockReference
  2
_Open30
 10
1415.326849235451
 20
217.186526994905
 30
0.0
 41
2.5
 42
2.5
 43
2.5
 50
180.0
  0
MTEXT
  5
1808
330
108F
100
AcDbEntity
  8
0
 62
     4
100
AcDbMText
 10
1423.451849235451
 20
219.311526994905
 30
0.0
 40
3.0
 41
0.0
 71
     5
 72
     1
  1
45
 73
     1
 44
1.0
1001
ACAD
1000
MTEXTBEGIN
1070
    73
1070
     1
1070
    44
1040
1.0
1070
    74
1070
     0
1000
MTEXTEND
  0
POINT
  5
1809
330
108F
100
AcDbEntity
  8
Defpoints
 62
     0
100
AcDbPoint
 10
1406.326849235451
 20
236.4758561406889
 30
0.0
  0
POINT
  5
180A
330
108F
100
AcDbEntity
  8
Defpoints
 62
     0
100
AcDbPoint
 10
1415.326849235451
 20
226.275856140689
 30
0.0
  0
POINT
  5
180B
330
108F
100
AcDbEntity
  8
Defpoints
 62
     0
100
AcDbPoint
 10
1415.326849235451
 20
217.186526994905
 30
0.0
  0
ENDBLK
  5
1091
330
108F
100
AcDbEntity
  8
0
100
AcDbBlockEnd
  0
BLOCK
  5
10E3
330
10E2
100
AcDbEntity
  8
0
100
AcDbBlockBegin
  2
*D7
 70
     1
 10
0.0
 20
0.0
 30
0.0
  3
*D7
  1

  0
LINE
  5
180C
330
10E2
100
AcDbEntity
  8
0
 62
     0
370
    -2
100
AcDbLine
 10
1240.993192907914
 20
136.291931767753
 30
0.0
 11
1228.456039231032
 21
136.291931767753
 31
0.0
  0
LINE
  5
180D
330
10E2
100
AcDbEntity
  8
0
 62
     0
370
    -2
100
AcDbLine
 10
1240.993192907914
 20
177.291931767753
 30
0.0
 11
1228.456039231032
 21
177.291931767753
 31
0.0
  0
LINE
  5
180E
330
10E2
100
AcDbEntity
  8
0
 62
     0
370
    -2
100
AcDbLine
 10
1229.706039231032
 20
138.791931767753
 30
0.0
 11
1229.706039231032
 21
174.791931767753
 31
0.0
  0
INSERT
  5
180F
330
10E2
100
AcDbEntity
  8
0
 62
     0
370
    -2
100
AcDbBlockReference
  2
_Open30
 10
1229.706039231032
 20
136.291931767753
 30
0.0
 41
2.5
 42
2.5
 43
2.5
 50
270.0
  0
INSERT
  5
1810
330
10E2
100
AcDbEntity
  8
0
 62
     0
370
    -2
100
AcDbBlockReference
  2
_Open30
 10
1229.706039231032
 20
177.291931767753
 30
0.0
 41
2.5
 42
2.5
 43
2.5
 50
90.0
  0
MTEXT
  5
1811
330
10E2
100
AcDbEntity
  8
0
 62
     4
100
AcDbMText
 10
1227.581039231032
 20
157.6252519322152
 30
0.0
 40
3.0
 41
0.0
 71
     5
 72
     1
  1
410
 11
0.0000000000000001
 21
1.0
 31
0.0
 73
     1
 44
1.0
1001
ACAD
1000
MTEXTBEGIN
1070
    73
1070
     1
1070
    44
1040
1.0
1070
    74
1070
     0
1000
MTEXTEND
  0
POINT
  5
1812
330
10E2
100
AcDbEntity
  8
Defpoints
 62
     0
100
AcDbPoint
 10
1241.243192907914
 20
136.291931767753
 30
0.0
  0
POINT
  5
1813
330
10E2
100
AcDbEntity
  8
Defpoints
 62
     0
100
AcDbPoint
 10
1241.243192907914
 20
177.291931767753
 30
0.0
  0
POINT
  5
1814
330
10E2
100
AcDbEntity
  8
Defpoints
 62
     0
100
AcDbPoint
 10
1229.706039231032
 20
177.291931767753
 30
0.0
  0
ENDBLK
  5
10E4
330
10E2
100
AcDbEntity
  8
0
100
AcDbBlockEnd
  0
BLOCK
  5
10FB
330
10FA
100
AcDbEntity
  8
0
100
AcDbBlockBegin
  2
*D8
 70
     1
 10
0.0
 20
0.0
 30
0.0
  3
*D8
  1

  0
LINE
  5
1815
330
10FA
100
AcDbEntity
  8
0
 62
     0
370
    -2
100
AcDbLine
 10
1241.243192907914
 20
177.541931767753
 30
0.0
 11
1241.243192907914
 21
189.3163773137713
 31
0.0
  0
LINE
  5
1816
330
10FA
100
AcDbEntity
  8
0
 62
     0
370
    -2
100
AcDbLine
 10
1461.243192907914
 20
177.541931767753
 30
0.0
 11
1461.243192907914
 21
189.3163773137713
 31
0.0
  0
LINE
  5
1817
330
10FA
100
AcDbEntity
  8
0
 62
     0
370
    -2
100
AcDbLine
 10
1243.743192907914
 20
188.0663773137713
 30
0.0
 11
1458.743192907914
 21
188.0663773137713
 31
0.0
  0
INSERT
  5
1818
330
10FA
100
AcDbEntity
  8
0
 62
     0
370
    -2
100
AcDbBlockReference
  2
_Open30
 10
1241.243192907914
 20
188.0663773137713
 30
0.0
 41
2.5
 42
2.5
 43
2.5
 50
180.0
  0
INSERT
  5
1819
330
10FA
100
AcDbEntity
  8
0
 62
     0
370
    -2
100
AcDbBlockReference
  2
_Open30
 10
1461.243192907914
 20
188.0663773137713
 30
0.0
 41
2.5
 42
2.5
 43
2.5
  0
MTEXT
  5
181A
330
10FA
100
AcDbEntity
  8
0
 62
     4
100
AcDbMText
 10
1351.177330677021
 20
190.1913773137713
 30
0.0
 40
3.0
 41
0.0
 71
     5
 72
     1
  1
2200(展開寸法)
 73
     1
 44
1.0
1001
ACAD
1000
MTEXTBEGIN
1070
    73
1070
     1
1070
    44
1040
1.0
1070
    74
1070
     0
1000
MTEXTEND
  0
POINT
  5
181B
330
10FA
100
AcDbEntity
  8
Defpoints
 62
     0
100
AcDbPoint
 10
1241.243192907914
 20
177.291931767753
 30
0.0
  0
POINT
  5
181C
330
10FA
100
AcDbEntity
  8
Defpoints
 62
     0
100
AcDbPoint
 10
1461.243192907914
 20
177.291931767753
 30
0.0
  0
POINT
  5
181D
330
10FA
100
AcDbEntity
  8
Defpoints
 62
     0
100
AcDbPoint
 10
1461.243192907914
 20
188.0663773137713
 30
0.0
  0
ENDBLK
  5
10FC
330
10FA
100
AcDbEntity
  8
0
100
AcDbBlockEnd
  0
BLOCK
  5
1433
330
1432
100
AcDbEntity
  8
0
100
AcDbBlockBegin
  2
*D9
 70
     1
 10
0.0
 20
0.0
 30
0.0
  3
*D9
  1

  0
LINE
  5
1443
330
1432
100
AcDbEntity
  8
0
 62
     0
370
    -2
100
AcDbLine
 10
3077.914731285159
 20
638.0112106814123
 30
0.0
 11
3078.469124092354
 21
649.0466504482797
 31
0.0
  0
LINE
  5
1444
330
1432
100
AcDbEntity
  8
0
 62
     0
370
    -2
100
AcDbLine
 10
3072.502187731152
 20
638.1470813120138
 30
0.0
 11
3072.502187731152
 21
649.1964379554042
 31
0.0
  0
ARC
  5
1445
330
1432
100
AcDbEntity
  8
0
 62
     0
370
    -2
100
AcDbCircle
 10
3072.502187731152
 20
530.2720813120131
 30
0.0
 40
117.6743566433913
100
AcDbArc
 50
84.68947009592664
 51
85.90674586288491
  0
ARC
  5
1446
330
1432
100
AcDbEntity
  8
0
 62
     0
370
    -2
100
AcDbCircle
 10
3072.502187731152
 20
530.2720813120131
 30
0.0
 40
117.6743566433913
100
AcDbArc
 50
91.21727576695835
 51
92.43455153391662
  0
ARC
  5
1447
330
1432
100
AcDbEntity
  8
0
 62
     0
370
    -2
100
AcDbCircle
 10
3072.502187731152
 20
530.2720813120131
 30
0.0
 40
117.6743566433913
100
AcDbArc
 50
87.12402162984316
 51
90.0000000000001
  0
INSERT
  5
1448
330
1432
100
AcDbEntity
  8
0
 62
     0
370
    -2
100
AcDbBlockReference
  2
_Open30
 10
3078.406406322319
 20
647.7982248472442
 30
0.0
 41
2.5
 42
2.5
 43
2.5
 50
176.515383746364
  0
INSERT
  5
1449
330
1432
100
AcDbEntity
  8
0
 62
     0
370
    -2
100
AcDbBlockReference
  2
_Open30
 10
3072.502187731152
 20
647.9464379554042
 30
0.0
 41
2.5
 42
2.5
 43
2.5
 50
0.6086378834792307
  0
MTEXT
  5
144A
330
1432
100
AcDbEntity
  8
0
 62
     4
100
AcDbMText
 10
3076.696143540504
 20
649.9980040975137
 30
0.0
 40
3.0
 41
0.0
 71
     5
 72
     1
  1
2.9\U+00B0
 11
0.9993870262750306
 21
-0.0350081663780253
 31
0.0
 73
     1
 44
1.0
1001
ACAD
1000
MTEXTBEGIN
1070
    73
1070
     1
1070
    44
1040
1.0
1070
    74
1070
     0
1000
MTEXTEND
  0
POINT
  5
144B
330
1432
100
AcDbEntity
  8
Defpoints
 62
     0
100
AcDbPoint
 10
3074.470995421633
 20
647.929966758395
 30
0.0
  0
POINT
  5
144C
330
1432
100
AcDbEntity
  8
Defpoints
 62
     0
100
AcDbPoint
 10
3077.902187731152
 20
637.7615255612049
 30
0.0
  0
POINT
  5
144D
330
1432
100
AcDbEntity
  8
Defpoints
 62
     0
100
AcDbPoint
 10
3072.502187731152
 20
530.2720813120131
 30
0.0
  0
POINT
  5
144E
330
1432
100
AcDbEntity
  8
Defpoints
 62
     0
100
AcDbPoint
 10
3072.502187731152
 20
637.8970813120138
 30
0.0
  0
POINT
  5
144F
330
1432
100
AcDbEntity
  8
Defpoints
 62
     0
100
AcDbPoint
 10
3072.502187731152
 20
530.2720813120131
 30
0.0
  0
ENDBLK
  5
1434
330
1432
100
AcDbEntity
  8
0
100
AcDbBlockEnd
  0
BLOCK
  5
1606
330
1605
100
AcDbEntity
  8
0
100
AcDbBlockBegin
  2
*D10
 70
     1
 10
0.0
 20
0.0
 30
0.0
  3
*D10
  1

  0
LINE
  5
161D
330
1605
100
AcDbEntity
  8
0
 62
     0
370
    -2
100
AcDbLine
 10
3869.221612166117
 20
-85.7561649662348
 30
0.0
 11
3869.221612166117
 21
-17.83452736848085
 31
0.0
  0
LINE
  5
161E
330
1605
100
AcDbEntity
  8
0
 62
     0
370
    -2
100
AcDbLine
 10
2169.221612166117
 20
-187.7561649662348
 30
0.0
 11
2169.221612166117
 21
-17.83452736848085
 31
0.0
  0
LINE
  5
161F
330
1605
100
AcDbEntity
  8
0
 62
     0
370
    -2
100
AcDbLine
 10
3866.721612166117
 20
-19.08452736848085
 30
0.0
 11
2171.721612166117
 21
-19.08452736848085
 31
0.0
  0
INSERT
  5
1620
330
1605
100
AcDbEntity
  8
0
 62
     0
370
    -2
100
AcDbBlockReference
  2
_Open30
 10
3869.221612166117
 20
-19.08452736848085
 30
0.0
 41
2.5
 42
2.5
 43
2.5
  0
INSERT
  5
1621
330
1605
100
AcDbEntity
  8
0
 62
     0
370
    -2
100
AcDbBlockReference
  2
_Open30
 10
2169.221612166117
 20
-19.08452736848085
 30
0.0
 41
2.5
 42
2.5
 43
2.5
 50
180.0
  0
MTEXT
  5
1622
330
1605
100
AcDbEntity
  8
0
 62
     4
100
AcDbMText
 10
3122.859572125711
 20
-16.95952736848085
 30
0.0
 40
3.0
 41
0.0
 71
     5
 72
     1
  1
1700
 73
     1
 44
1.0
1001
ACAD
1000
MTEXTBEGIN
1070
    73
1070
     1
1070
    44
1040
1.0
1070
    74
1070
     0
1000
MTEXTEND
  0
POINT
  5
1623
330
1605
100
AcDbEntity
  8
Defpoints
 62
     0
100
AcDbPoint
 10
3869.221612166117
 20
-86.00616496623478
 30
0.0
  0
POINT
  5
1624
330
1605
100
AcDbEntity
  8
Defpoints
 62
     0
100
AcDbPoint
 10
2169.221612166117
 20
-188.0061649662348
 30
0.0
  0
POINT
  5
1625
330
1605
100
AcDbEntity
  8
Defpoints
 62
     0
100
AcDbPoint
 10
2169.221612166117
 20
-19.08452736848085
 30
0.0
  0
ENDBLK
  5
1607
330
1605
100
AcDbEntity
  8
0
100
AcDbBlockEnd
  0
BLOCK
  5
162C
330
162B
100
AcDbEntity
  8
0
100
AcDbBlockBegin
  2
*D11
 70
     1
 10
0.0
 20
0.0
 30
0.0
  3
*D11
  1

  0
LINE
  5
1BFB
330
162B
100
AcDbEntity
  8
0
 62
     0
370
    -2
100
AcDbLine
 10
1608.004290023347
 20
-142.8178989878566
 30
0.0
 11
1620.724505705784
 21
-142.8178989878566
 31
0.0
  0
LINE
  5
1BFC
330
162B
100
AcDbEntity
  8
0
 62
     0
370
    -2
100
AcDbLine
 10
1608.004290023347
 20
-214.2178989878567
 30
0.0
 11
1620.724505705784
 21
-214.2178989878567
 31
0.0
  0
LINE
  5
1BFD
330
162B
100
AcDbEntity
  8
0
 62
     0
370
    -2
100
AcDbLine
 10
1619.474505705784
 20
-145.3178989878566
 30
0.0
 11
1619.474505705784
 21
-211.7178989878567
 31
0.0
  0
INSERT
  5
1BFE
330
162B
100
AcDbEntity
  8
0
 62
     0
370
    -2
100
AcDbBlockReference
  2
_Open30
 10
1619.474505705784
 20
-142.8178989878566
 30
0.0
 41
2.5
 42
2.5
 43
2.5
 50
90.0
  0
INSERT
  5
1BFF
330
162B
100
AcDbEntity
  8
0
 62
     0
370
    -2
100
AcDbBlockReference
  2
_Open30
 10
1619.474505705784
 20
-214.2178989878567
 30
0.0
 41
2.5
 42
2.5
 43
2.5
 50
270.0
  0
MTEXT
  5
1C00
330
162B
100
AcDbEntity
  8
0
 62
     4
100
AcDbMText
 10
1617.349505705784
 20
-178.8589338822938
 30
0.0
 40
3.0
 41
0.0
 71
     5
 72
     1
  1
357
 11
0.0000000000000001
 21
1.0
 31
0.0
 73
     1
 44
1.0
1001
ACAD
1000
MTEXTBEGIN
1070
    73
1070
     1
1070
    44
1040
1.0
1070
    74
1070
     0
1000
MTEXTEND
  0
POINT
  5
1C01
330
162B
100
AcDbEntity
  8
Defpoints
 62
     0
100
AcDbPoint
 10
1607.754290023347
 20
-142.8178989878566
 30
0.0
  0
POINT
  5
1C02
330
162B
100
AcDbEntity
  8
Defpoints
 62
     0
100
AcDbPoint
 10
1607.754290023347
 20
-214.2178989878567
 30
0.0
  0
POINT
  5
1C03
330
162B
100
AcDbEntity
  8
Defpoints
 62
     0
100
AcDbPoint
 10
1619.474505705784
 20
-214.2178989878567
 30
0.0
  0
ENDBLK
  5
162D
330
162B
100
AcDbEntity
  8
0
100
AcDbBlockEnd
  0
BLOCK
  5
1644
330
1643
100
AcDbEntity
  8
0
100
AcDbBlockBegin
  2
*D12
 70
     1
 10
0.0
 20
0.0
 30
0.0
  3
*D12
  1

  0
LINE
  5
1C04
330
1643
100
AcDbEntity
  8
0
 62
     0
370
    -2
100
AcDbLine
 10
1607.754290023347
 20
-214.4678989878566
 30
0.0
 11
1607.754290023347
 21
-224.8461337645903
 31
0.0
  0
LINE
  5
1C05
330
1643
100
AcDbEntity
  8
0
 62
     0
370
    -2
100
AcDbLine
 10
1519.754290023347
 20
-214.4678989878566
 30
0.0
 11
1519.754290023347
 21
-224.8461337645903
 31
0.0
  0
LINE
  5
1C06
330
1643
100
AcDbEntity
  8
0
 62
     0
370
    -2
100
AcDbLine
 10
1605.254290023347
 20
-223.5961337645902
 30
0.0
 11
1522.254290023347
 21
-223.5961337645902
 31
0.0
  0
INSERT
  5
1C07
330
1643
100
AcDbEntity
  8
0
 62
     0
370
    -2
100
AcDbBlockReference
  2
_Open30
 10
1607.754290023347
 20
-223.5961337645902
 30
0.0
 41
2.5
 42
2.5
 43
2.5
  0
INSERT
  5
1C08
330
1643
100
AcDbEntity
  8
0
 62
     0
370
    -2
100
AcDbBlockReference
  2
_Open30
 10
1519.754290023347
 20
-223.5961337645902
 30
0.0
 41
2.5
 42
2.5
 43
2.5
 50
180.0
  0
MTEXT
  5
1C09
330
1643
100
AcDbEntity
  8
0
 62
     4
100
AcDbMText
 10
1561.879108396235
 20
-221.4711337645902
 30
0.0
 40
3.0
 41
0.0
 71
     5
 72
     1
  1
440
 73
     1
 44
1.0
1001
ACAD
1000
MTEXTBEGIN
1070
    73
1070
     1
1070
    44
1040
1.0
1070
    74
1070
     0
1000
MTEXTEND
  0
POINT
  5
1C0A
330
1643
100
AcDbEntity
  8
Defpoints
 62
     0
100
AcDbPoint
 10
1607.754290023347
 20
-214.2178989878567
 30
0.0
  0
POINT
  5
1C0B
330
1643
100
AcDbEntity
  8
Defpoints
 62
     0
100
AcDbPoint
 10
1519.754290023347
 20
-214.2178989878567
 30
0.0
  0
POINT
  5
1C0C
330
1643
100
AcDbEntity
  8
Defpoints
 62
     0
100
AcDbPoint
 10
1519.754290023347
 20
-223.5961337645902
 30
0.0
  0
ENDBLK
  5
1645
330
1643
100
AcDbEntity
  8
0
100
AcDbBlockEnd
  0
BLOCK
  5
165C
330
165B
100
AcDbEntity
  8
0
100
AcDbBlockBegin
  2
*D13
 70
     1
 10
0.0
 20
0.0
 30
0.0
  3
*D13
  1

  0
LINE
  5
1C0D
330
165B
100
AcDbEntity
  8
0
 62
     0
370
    -2
100
AcDbLine
 10
1656.563278016922
 20
-187.0678989878566
 30
0.0
 11
1656.563278016922
 21
-225.280157158756
 31
0.0
  0
LINE
  5
1C0E
330
165B
100
AcDbEntity
  8
0
 62
     0
370
    -2
100
AcDbLine
 10
1645.763278016922
 20
-186.2678989878566
 30
0.0
 11
1645.763278016922
 21
-225.280157158756
 31
0.0
  0
LINE
  5
1C0F
330
165B
100
AcDbEntity
  8
0
 62
     0
370
    -2
100
AcDbLine
 10
1654.063278016922
 20
-224.030157158756
 30
0.0
 11
1648.263278016922
 21
-224.030157158756
 31
0.0
  0
INSERT
  5
1C10
330
165B
100
AcDbEntity
  8
0
 62
     0
370
    -2
100
AcDbBlockReference
  2
_Open30
 10
1656.563278016922
 20
-224.030157158756
 30
0.0
 41
2.5
 42
2.5
 43
2.5
  0
INSERT
  5
1C11
330
165B
100
AcDbEntity
  8
0
 62
     0
370
    -2
100
AcDbBlockReference
  2
_Open30
 10
1645.763278016922
 20
-224.030157158756
 30
0.0
 41
2.5
 42
2.5
 43
2.5
 50
180.0
  0
MTEXT
  5
1C12
330
165B
100
AcDbEntity
  8
0
 62
     4
100
AcDbMText
 10
1651.040066993557
 20
-221.905157158756
 30
0.0
 40
3.0
 41
0.0
 71
     5
 72
     1
  1
54
 73
     1
 44
1.0
1001
ACAD
1000
MTEXTBEGIN
1070
    73
1070
     1
1070
    44
1040
1.0
1070
    74
1070
     0
1000
MTEXTEND
  0
POINT
  5
1C13
330
165B
100
AcDbEntity
  8
Defpoints
 62
     0
100
AcDbPoint
 10
1656.563278016922
 20
-186.8178989878566
 30
0.0
  0
POINT
  5
1C14
330
165B
100
AcDbEntity
  8
Defpoints
 62
     0
100
AcDbPoint
 10
1645.763278016922
 20
-186.0178989878566
 30
0.0
  0
POINT
  5
1C15
330
165B
100
AcDbEntity
  8
Defpoints
 62
     0
100
AcDbPoint
 10
1645.763278016922
 20
-224.030157158756
 30
0.0
  0
ENDBLK
  5
165D
330
165B
100
AcDbEntity
  8
0
100
AcDbBlockEnd
  0
BLOCK
  5
1674
330
1673
100
AcDbEntity
  8
0
100
AcDbBlockBegin
  2
*D14
 70
     1
 10
0.0
 20
0.0
 30
0.0
  3
*D14
  1

  0
LINE
  5
1BB0
330
1673
100
AcDbEntity
  8
0
 62
     0
370
    -2
100
AcDbLine
 10
1584.393641335677
 20
-29.95541505095241
 30
0.0
 11
1584.393641335677
 21
-5.000589227265631
 31
0.0
  0
LINE
  5
1BB1
330
1673
100
AcDbEntity
  8
0
 62
     0
370
    -2
100
AcDbLine
 10
1754.393641335677
 20
-19.75541505095242
 30
0.0
 11
1754.393641335677
 21
-5.000589227265631
 31
0.0
  0
LINE
  5
1BB2
330
1673
100
AcDbEntity
  8
0
 62
     0
370
    -2
100
AcDbLine
 10
1586.893641335677
 20
-6.250589227265633
 30
0.0
 11
1751.893641335677
 21
-6.250589227265633
 31
0.0
  0
INSERT
  5
1BB3
330
1673
100
AcDbEntity
  8
0
 62
     0
370
    -2
100
AcDbBlockReference
  2
_Open30
 10
1584.393641335677
 20
-6.250589227265633
 30
0.0
 41
2.5
 42
2.5
 43
2.5
 50
180.0
  0
INSERT
  5
1BB4
330
1673
100
AcDbEntity
  8
0
 62
     0
370
    -2
100
AcDbBlockReference
  2
_Open30
 10
1754.393641335677
 20
-6.250589227265633
 30
0.0
 41
2.5
 42
2.5
 43
2.5
  0
MTEXT
  5
1BB5
330
1673
100
AcDbEntity
  8
0
 62
     4
100
AcDbMText
 10
1670.999317293704
 20
-4.125589227265633
 30
0.0
 40
3.0
 41
0.0
 71
     5
 72
     1
  1
1700(展開寸法)
 73
     1
 44
1.0
1001
ACAD
1000
MTEXTBEGIN
1070
    73
1070
     1
1070
    44
1040
1.0
1070
    74
1070
     0
1000
MTEXTEND
  0
POINT
  5
1BB6
330
1673
100
AcDbEntity
  8
Defpoints
 62
     0
100
AcDbPoint
 10
1584.393641335677
 20
-30.20541505095241
 30
0.0
  0
POINT
  5
1BB7
330
1673
100
AcDbEntity
  8
Defpoints
 62
     0
100
AcDbPoint
 10
1754.393641335677
 20
-20.00541505095242
 30
0.0
  0
POINT
  5
1BB8
330
1673
100
AcDbEntity
  8
Defpoints
 62
     0
100
AcDbPoint
 10
1754.393641335677
 20
-6.250589227265633
 30
0.0
  0
ENDBLK
  5
1675
330
1673
100
AcDbEntity
  8
0
100
AcDbBlockEnd
  0
BLOCK
  5
1695
330
1694
100
AcDbEntity
  8
0
100
AcDbBlockBegin
  2
*D15
 70
     1
 10
0.0
 20
0.0
 30
0.0
  3
*D15
  1

  0
LINE
  5
1BB9
330
1694
100
AcDbEntity
  8
0
 62
     0
370
    -2
100
AcDbLine
 10
1590.543641335678
 20
-20.00541505095242
 30
0.0
 11
1570.495645358987
 21
-20.00541505095242
 31
0.0
  0
LINE
  5
1BBA
330
1694
100
AcDbEntity
  8
0
 62
     0
370
    -2
100
AcDbLine
 10
1590.543641335678
 20
-64.00541505095244
 30
0.0
 11
1570.495645358987
 21
-64.00541505095244
 31
0.0
  0
LINE
  5
1BBB
330
1694
100
AcDbEntity
  8
0
 62
     0
370
    -2
100
AcDbLine
 10
1571.745645358987
 20
-22.50541505095242
 30
0.0
 11
1571.745645358987
 21
-61.50541505095242
 31
0.0
  0
INSERT
  5
1BBC
330
1694
100
AcDbEntity
  8
0
 62
     0
370
    -2
100
AcDbBlockReference
  2
_Open30
 10
1571.745645358987
 20
-20.00541505095242
 30
0.0
 41
2.5
 42
2.5
 43
2.5
 50
90.0
  0
INSERT
  5
1BBD
330
1694
100
AcDbEntity
  8
0
 62
     0
370
    -2
100
AcDbBlockReference
  2
_Open30
 10
1571.745645358987
 20
-64.00541505095244
 30
0.0
 41
2.5
 42
2.5
 43
2.5
 50
270.0
  0
MTEXT
  5
1BBE
330
1694
100
AcDbEntity
  8
0
 62
     4
100
AcDbMText
 10
1569.620645358987
 20
-41.79212313831331
 30
0.0
 40
3.0
 41
0.0
 71
     5
 72
     1
  1
440
 11
0.0000000000000001
 21
1.0
 31
0.0
 73
     1
 44
1.0
1001
ACAD
1000
MTEXTBEGIN
1070
    73
1070
     1
1070
    44
1040
1.0
1070
    74
1070
     0
1000
MTEXTEND
  0
POINT
  5
1BBF
330
1694
100
AcDbEntity
  8
Defpoints
 62
     0
100
AcDbPoint
 10
1590.793641335678
 20
-20.00541505095242
 30
0.0
  0
POINT
  5
1BC0
330
1694
100
AcDbEntity
  8
Defpoints
 62
     0
100
AcDbPoint
 10
1590.793641335678
 20
-64.00541505095244
 30
0.0
  0
POINT
  5
1BC1
330
1694
100
AcDbEntity
  8
Defpoints
 62
     0
100
AcDbPoint
 10
1571.745645358987
 20
-64.00541505095244
 30
0.0
  0
ENDBLK
  5
1696
330
1694
100
AcDbEntity
  8
0
100
AcDbBlockEnd
  0
BLOCK
  5
18D0
330
18CF
100
AcDbEntity
  8
0
100
AcDbBlockBegin
  2
*D16
 70
     1
 10
0.0
 20
0.0
 30
0.0
  3
*D16
  1

  0
LINE
  5
18EE
330
18CF
100
AcDbEntity
  8
0
 62
     0
370
    -2
100
AcDbLine
 10
1575.157586138696
 20
631.5195308130815
 30
0.0
 11
1575.354583758314
 21
637.0798938909127
 31
0.0
  0
LINE
  5
18EF
330
18CF
100
AcDbEntity
  8
0
 62
     0
370
    -2
100
AcDbLine
 10
1565.145624416208
 20
631.6345412148868
 30
0.0
 11
1565.076409036343
 21
637.1979623611455
 31
0.0
  0
ARC
  5
18F0
330
18CF
100
AcDbEntity
  8
0
 62
     0
370
    -2
100
AcDbCircle
 10
1567.748734464055
 20
422.4007334349808
 30
0.0
 40
213.5638516892027
100
AcDbArc
 50
86.62949348796766
 51
87.30020749465287
  0
ARC
  5
18F1
330
18CF
100
AcDbEntity
  8
0
 62
     0
370
    -2
100
AcDbCircle
 10
1567.748734464055
 20
422.4007334349808
 30
0.0
 40
213.5638516892027
100
AcDbArc
 50
91.38350285533936
 51
92.05421686202456
  0
ARC
  5
18F2
330
18CF
100
AcDbEntity
  8
0
 62
     0
370
    -2
100
AcDbCircle
 10
1567.748734464055
 20
422.4007334349808
 30
0.0
 40
213.5638516892027
100
AcDbArc
 50
87.97092150133805
 51
90.71278884865414
  0
INSERT
  5
18F3
330
18CF
100
AcDbEntity
  8
0
 62
     0
370
    -2
100
AcDbBlockReference
  2
_Open30
 10
1575.310325385108
 20
635.8306776580688
 30
0.0
 41
2.5
 42
2.5
 43
2.5
 50
177.6355644979954
  0
INSERT
  5
18F4
330
18CF
100
AcDbEntity
  8
0
 62
     0
370
    -2
100
AcDbBlockReference
  2
_Open30
 10
1565.091959275577
 20
635.9480590888641
 30
0.0
 41
2.5
 42
2.5
 43
2.5
 50
1.048145851996751
  0
MTEXT
  5
18F5
330
18CF
100
AcDbEntity
  8
0
 62
     4
100
AcDbMText
 10
1572.490024953118
 20
638.0374671041431
 30
0.0
 40
3.0
 41
0.0
 71
     5
 72
     1
  1
2.741867\U+00B0
 11
0.9997583647943214
 21
-0.0219820841547016
 31
0.0
 73
     1
 44
1.0
1001
ACAD
1000
MTEXTBEGIN
1070
    73
1070
     1
1070
    44
1040
1.0
1070
    74
1070
     0
1000
MTEXTEND
  0
POINT
  5
18F6
330
18CF
100
AcDbEntity
  8
Defpoints
 62
     0
100
AcDbPoint
 10
1568.498561018631
 20
635.9632687928142
 30
0.0
  0
POINT
  5
18F7
330
18CF
100
AcDbEntity
  8
Defpoints
 62
     0
100
AcDbPoint
 10
1575.148734464055
 20
631.2696875665126
 30
0.0
  0
POINT
  5
18F8
330
18CF
100
AcDbEntity
  8
Defpoints
 62
     0
100
AcDbPoint
 10
1567.748734464055
 20
422.4007334349808
 30
0.0
  0
POINT
  5
18F9
330
18CF
100
AcDbEntity
  8
Defpoints
 62
     0
100
AcDbPoint
 10
1565.148734464055
 20
631.3845605604305
 30
0.0
  0
POINT
  5
18FA
330
18CF
100
AcDbEntity
  8
Defpoints
 62
     0
100
AcDbPoint
 10
1567.748734464055
 20
422.4007334349808
 30
0.0
  0
ENDBLK
  5
18D1
330
18CF
100
AcDbEntity
  8
0
100
AcDbBlockEnd
  0
BLOCK
  5
18FD
330
18FC
100
AcDbEntity
  8
0
100
AcDbBlockBegin
  2
*D17
 70
     1
 10
0.0
 20
0.0
 30
0.0
  3
*D17
  1

  0
LINE
  5
191B
330
18FC
100
AcDbEntity
  8
0
 62
     0
370
    -2
100
AcDbLine
 10
1570.351844511901
 20
631.6345412148871
 30
0.0
 11
1570.504718331936
 21
643.9222935141148
 31
0.0
  0
LINE
  5
191C
330
18FC
100
AcDbEntity
  8
0
 62
     0
370
    -2
100
AcDbLine
 10
1565.145624416208
 20
631.6345412148868
 30
0.0
 11
1564.992750596174
 21
643.9222935141148
 31
0.0
  0
ARC
  5
191D
330
18FC
100
AcDbEntity
  8
0
 62
     0
370
    -2
100
AcDbCircle
 10
1567.748734464055
 20
422.4007334349808
 30
0.0
 40
220.2887032258097
100
AcDbArc
 50
87.98673395593146
 51
88.63697255363867
  0
ARC
  5
191E
330
18FC
100
AcDbEntity
  8
0
 62
     0
370
    -2
100
AcDbCircle
 10
1567.748734464055
 20
422.4007334349808
 30
0.0
 40
220.2887032258097
100
AcDbArc
 50
91.36302744636131
 51
92.01326604406849
  0
ARC
  5
191F
330
18FC
100
AcDbEntity
  8
0
 62
     0
370
    -2
100
AcDbCircle
 10
1567.748734464055
 20
422.4007334349808
 30
0.0
 40
220.2887032258097
100
AcDbArc
 50
89.28721115134589
 51
90.71278884865412
  0
INSERT
  5
1920
330
18FC
100
AcDbEntity
  8
0
 62
     0
370
    -2
100
AcDbBlockReference
  2
_Open30
 10
1570.489168092701
 20
642.6723902418332
 30
0.0
 41
2.5
 42
2.5
 43
2.5
 50
178.9620918524922
  0
INSERT
  5
1921
330
18FC
100
AcDbEntity
  8
0
 62
     0
370
    -2
100
AcDbBlockReference
  2
_Open30
 10
1565.008300835409
 20
642.6723902418332
 30
0.0
 41
2.5
 42
2.5
 43
2.5
 50
1.03790814750771
  0
MTEXT
  5
1922
330
18FC
100
AcDbEntity
  8
0
 62
     4
100
AcDbMText
 10
1566.781533181566
 20
644.8123336367188
 30
0.0
 40
3.0
 41
0.0
 71
     5
 72
     1
  1
1.425578\U+00B0
 11
0.9999905445391121
 21
0.0043486586863167
 31
0.0
 73
     1
 44
1.0
1001
ACAD
1000
MTEXTBEGIN
1070
    73
1070
     1
1070
    44
1040
1.0
1070
    74
1070
     0
1000
MTEXTEND
  0
POINT
  5
1923
330
18FC
100
AcDbEntity
  8
Defpoints
 62
     0
100
AcDbPoint
 10
1568.662233285169
 20
642.6875425925259
 30
0.0
  0
POINT
  5
1924
330
18FC
100
AcDbEntity
  8
Defpoints
 62
     0
100
AcDbPoint
 10
1570.348734464055
 20
631.3845605604305
 30
0.0
  0
POINT
  5
1925
330
18FC
100
AcDbEntity
  8
Defpoints
 62
     0
100
AcDbPoint
 10
1567.748734464055
 20
422.4007334349808
 30
0.0
  0
POINT
  5
1926
330
18FC
100
AcDbEntity
  8
Defpoints
 62
     0
100
AcDbPoint
 10
1565.148734464055
 20
631.3845605604305
 30
0.0
  0
POINT
  5
1927
330
18FC
100
AcDbEntity
  8
Defpoints
 62
     0
100
AcDbPoint
 10
1567.748734464055
 20
422.4007334349808
 30
0.0
  0
ENDBLK
  5
18FE
330
18FC
100
AcDbEntity
  8
0
100
AcDbBlockEnd
  0
BLOCK
  5
1B3E
330
1B3D
100
AcDbEntity
  8
0
100
AcDbBlockBegin
  2
*D18
 70
     1
 10
0.0
 20
0.0
 30
0.0
  3
*D18
  1

  0
LINE
  5
1B4A
330
1B3D
100
AcDbEntity
  8
0
 62
     0
370
    -2
100
AcDbLine
 10
4567.272725865836
 20
-44.67497173406622
 30
0.0
 11
4567.272725865836
 21
39.85752601239529
 31
0.0
  0
LINE
  5
1B4B
330
1B3D
100
AcDbEntity
  8
0
 62
     0
370
    -2
100
AcDbLine
 10
2267.272725865836
 20
-44.67497173406622
 30
0.0
 11
2267.272725865836
 21
39.85752601239529
 31
0.0
  0
LINE
  5
1B4C
330
1B3D
100
AcDbEntity
  8
0
 62
     0
370
    -2
100
AcDbLine
 10
4564.772725865836
 20
38.60752601239529
 30
0.0
 11
2269.772725865836
 21
38.60752601239529
 31
0.0
  0
INSERT
  5
1B4D
330
1B3D
100
AcDbEntity
  8
0
 62
     0
370
    -2
100
AcDbBlockReference
  2
_Open30
 10
4567.272725865836
 20
38.60752601239529
 30
0.0
 41
2.5
 42
2.5
 43
2.5
  0
INSERT
  5
1B4E
330
1B3D
100
AcDbEntity
  8
0
 62
     0
370
    -2
100
AcDbBlockReference
  2
_Open30
 10
2267.272725865836
 20
38.60752601239529
 30
0.0
 41
2.5
 42
2.5
 43
2.5
 50
180.0
  0
MTEXT
  5
1B4F
330
1B3D
100
AcDbEntity
  8
0
 62
     4
100
AcDbMText
 10
2641.343850164818
 20
40.73252601239528
 30
0.0
 40
3.0
 41
0.0
 71
     5
 72
     1
  1
2300
 73
     1
 44
1.0
1001
ACAD
1000
MTEXTBEGIN
1070
    73
1070
     1
1070
    44
1040
1.0
1070
    74
1070
     0
1000
MTEXTEND
  0
POINT
  5
1B50
330
1B3D
100
AcDbEntity
  8
Defpoints
 62
     0
100
AcDbPoint
 10
4567.272725865836
 20
-44.92497173406621
 30
0.0
  0
POINT
  5
1B51
330
1B3D
100
AcDbEntity
  8
Defpoints
 62
     0
100
AcDbPoint
 10
2267.272725865836
 20
-44.92497173406621
 30
0.0
  0
POINT
  5
1B52
330
1B3D
100
AcDbEntity
  8
Defpoints
 62
     0
100
AcDbPoint
 10
2267.272725865836
 20
38.60752601239529
 30
0.0
  0
ENDBLK
  5
1B3F
330
1B3D
100
AcDbEntity
  8
0
100
AcDbBlockEnd
  0
BLOCK
  5
1BC4
330
1BC3
100
AcDbEntity
  8
0
100
AcDbBlockBegin
  2
*D19
 70
     1
 10
0.0
 20
0.0
 30
0.0
  3
*D19
  1

  0
LINE
  5
1FDE
330
1BC3
100
AcDbEntity
  8
0
 62
     0
370
    -2
100
AcDbLine
 10
1781.967252852879
 20
169.2299136900828
 30
0.0
 11
1781.967252852879
 21
176.771261482584
 31
0.0
  0
LINE
  5
1FDF
330
1BC3
100
AcDbEntity
  8
0
 62
     0
370
    -2
100
AcDbLine
 10
1551.967252852879
 20
169.2299136900828
 30
0.0
 11
1551.967252852879
 21
176.771261482584
 31
0.0
  0
LINE
  5
1FE0
330
1BC3
100
AcDbEntity
  8
0
 62
     0
370
    -2
100
AcDbLine
 10
1779.467252852879
 20
175.521261482584
 30
0.0
 11
1554.467252852879
 21
175.521261482584
 31
0.0
  0
INSERT
  5
1FE1
330
1BC3
100
AcDbEntity
  8
0
 62
     0
370
    -2
100
AcDbBlockReference
  2
_Open30
 10
1781.967252852879
 20
175.521261482584
 30
0.0
 41
2.5
 42
2.5
 43
2.5
  0
INSERT
  5
1FE2
330
1BC3
100
AcDbEntity
  8
0
 62
     0
370
    -2
100
AcDbBlockReference
  2
_Open30
 10
1551.967252852879
 20
175.521261482584
 30
0.0
 41
2.5
 42
2.5
 43
2.5
 50
180.0
  0
MTEXT
  5
1FE3
330
1BC3
100
AcDbEntity
  8
0
 62
     4
100
AcDbMText
 10
1657.145933068981
 20
177.646261482584
 30
0.0
 40
3.0
 41
0.0
 71
     5
 72
     1
  1
2300(展開寸法)
 73
     1
 44
1.0
1001
ACAD
1000
MTEXTBEGIN
1070
    73
1070
     1
1070
    44
1040
1.0
1070
    74
1070
     0
1000
MTEXTEND
  0
POINT
  5
1FE4
330
1BC3
100
AcDbEntity
  8
Defpoints
 62
     0
100
AcDbPoint
 10
1781.967252852879
 20
168.9799136900828
 30
0.0
  0
POINT
  5
1FE5
330
1BC3
100
AcDbEntity
  8
Defpoints
 62
     0
100
AcDbPoint
 10
1551.967252852879
 20
168.9799136900828
 30
0.0
  0
POINT
  5
1FE6
330
1BC3
100
AcDbEntity
  8
Defpoints
 62
     0
100
AcDbPoint
 10
1551.967252852879
 20
175.521261482584
 30
0.0
  0
ENDBLK
  5
1BC5
330
1BC3
100
AcDbEntity
  8
0
100
AcDbBlockEnd
  0
BLOCK
  5
1BDC
330
1BDB
100
AcDbEntity
  8
0
100
AcDbBlockBegin
  2
*D20
 70
     1
 10
0.0
 20
0.0
 30
0.0
  3
*D20
  1

  0
LINE
  5
1FE7
330
1BDB
100
AcDbEntity
  8
0
 62
     0
370
    -2
100
AcDbLine
 10
1551.717252852879
 20
168.9799136900828
 30
0.0
 11
1541.370088658869
 21
168.9799136900828
 31
0.0
  0
LINE
  5
1FE8
330
1BDB
100
AcDbEntity
  8
0
 62
     0
370
    -2
100
AcDbLine
 10
1551.717252852879
 20
115.9799136900828
 30
0.0
 11
1541.370088658869
 21
115.9799136900828
 31
0.0
  0
LINE
  5
1FE9
330
1BDB
100
AcDbEntity
  8
0
 62
     0
370
    -2
100
AcDbLine
 10
1542.620088658869
 20
166.4799136900828
 30
0.0
 11
1542.620088658869
 21
118.4799136900828
 31
0.0
  0
INSERT
  5
1FEA
330
1BDB
100
AcDbEntity
  8
0
 62
     0
370
    -2
100
AcDbBlockReference
  2
_Open30
 10
1542.620088658869
 20
168.9799136900828
 30
0.0
 41
2.5
 42
2.5
 43
2.5
 50
90.0
  0
INSERT
  5
1FEB
330
1BDB
100
AcDbEntity
  8
0
 62
     0
370
    -2
100
AcDbBlockReference
  2
_Open30
 10
1542.620088658869
 20
115.9799136900828
 30
0.0
 41
2.5
 42
2.5
 43
2.5
 50
270.0
  0
MTEXT
  5
1FEC
330
1BDB
100
AcDbEntity
  8
0
 62
     4
100
AcDbMText
 10
1540.495088658869
 20
141.8075092964782
 30
0.0
 40
3.0
 41
0.0
 71
     5
 72
     1
  1
530
 11
0.0000000000000001
 21
1.0
 31
0.0
 73
     1
 44
1.0
1001
ACAD
1000
MTEXTBEGIN
1070
    73
1070
     1
1070
    44
1040
1.0
1070
    74
1070
     0
1000
MTEXTEND
  0
POINT
  5
1FED
330
1BDB
100
AcDbEntity
  8
Defpoints
 62
     0
100
AcDbPoint
 10
1551.967252852879
 20
168.9799136900828
 30
0.0
  0
POINT
  5
1FEE
330
1BDB
100
AcDbEntity
  8
Defpoints
 62
     0
100
AcDbPoint
 10
1551.967252852879
 20
115.9799136900828
 30
0.0
  0
POINT
  5
1FEF
330
1BDB
100
AcDbEntity
  8
Defpoints
 62
     0
100
AcDbPoint
 10
1542.620088658869
 20
115.9799136900828
 30
0.0
  0
ENDBLK
  5
1BDD
330
1BDB
100
AcDbEntity
  8
0
100
AcDbBlockEnd
  0
BLOCK
  5
1C18
330
1C17
100
AcDbEntity
  8
0
100
AcDbBlockBegin
  2
*D21
 70
     1
 10
0.0
 20
0.0
 30
0.0
  3
*D21
  1

  0
LINE
  5
1FF0
330
1C17
100
AcDbEntity
  8
0
 62
     0
370
    -2
100
AcDbLine
 10
1534.768536885934
 20
315.2505007177223
 30
0.0
 11
1525.982025744919
 21
315.2505007177223
 31
0.0
  0
LINE
  5
1FF1
330
1C17
100
AcDbEntity
  8
0
 62
     0
370
    -2
100
AcDbLine
 10
1534.768536885934
 20
205.2505007177224
 30
0.0
 11
1525.982025744919
 21
205.2505007177224
 31
0.0
  0
LINE
  5
1FF2
330
1C17
100
AcDbEntity
  8
0
 62
     0
370
    -2
100
AcDbLine
 10
1527.232025744919
 20
312.7505007177223
 30
0.0
 11
1527.232025744919
 21
207.7505007177224
 31
0.0
  0
INSERT
  5
1FF3
330
1C17
100
AcDbEntity
  8
0
 62
     0
370
    -2
100
AcDbBlockReference
  2
_Open30
 10
1527.232025744919
 20
315.2505007177223
 30
0.0
 41
2.5
 42
2.5
 43
2.5
 50
90.0
  0
INSERT
  5
1FF4
330
1C17
100
AcDbEntity
  8
0
 62
     0
370
    -2
100
AcDbBlockReference
  2
_Open30
 10
1527.232025744919
 20
205.2505007177224
 30
0.0
 41
2.5
 42
2.5
 43
2.5
 50
270.0
  0
MTEXT
  5
1FF5
330
1C17
100
AcDbEntity
  8
0
 62
     4
100
AcDbMText
 10
1525.107025744919
 20
259.552256646748
 30
0.0
 40
3.0
 41
0.0
 71
     5
 72
     1
  1
550
 11
0.0000000000000001
 21
1.0
 31
0.0
 73
     1
 44
1.0
1001
ACAD
1000
MTEXTBEGIN
1070
    73
1070
     1
1070
    44
1040
1.0
1070
    74
1070
     0
1000
MTEXTEND
  0
POINT
  5
1FF6
330
1C17
100
AcDbEntity
  8
Defpoints
 62
     0
100
AcDbPoint
 10
1535.018536885934
 20
315.2505007177223
 30
0.0
  0
POINT
  5
1FF7
330
1C17
100
AcDbEntity
  8
Defpoints
 62
     0
100
AcDbPoint
 10
1535.018536885934
 20
205.2505007177224
 30
0.0
  0
POINT
  5
1FF8
330
1C17
100
AcDbEntity
  8
Defpoints
 62
     0
100
AcDbPoint
 10
1527.232025744919
 20
205.2505007177224
 30
0.0
  0
ENDBLK
  5
1C19
330
1C17
100
AcDbEntity
  8
0
100
AcDbBlockEnd
  0
BLOCK
  5
1C30
330
1C2F
100
AcDbEntity
  8
0
100
AcDbBlockBegin
  2
*D22
 70
     1
 10
0.0
 20
0.0
 30
0.0
  3
*D22
  1

  0
LINE
  5
1FF9
330
1C2F
100
AcDbEntity
  8
0
 62
     0
370
    -2
100
AcDbLine
 10
1641.018536885935
 20
315.5005007177223
 30
0.0
 11
1641.018536885935
 21
340.335133674469
 31
0.0
  0
LINE
  5
1FFA
330
1C2F
100
AcDbEntity
  8
0
 62
     0
370
    -2
100
AcDbLine
 10
1535.018536885934
 20
315.5005007177223
 30
0.0
 11
1535.018536885934
 21
340.335133674469
 31
0.0
  0
LINE
  5
1FFB
330
1C2F
100
AcDbEntity
  8
0
 62
     0
370
    -2
100
AcDbLine
 10
1638.518536885935
 20
339.085133674469
 30
0.0
 11
1537.518536885934
 21
339.085133674469
 31
0.0
  0
INSERT
  5
1FFC
330
1C2F
100
AcDbEntity
  8
0
 62
     0
370
    -2
100
AcDbBlockReference
  2
_Open30
 10
1641.018536885935
 20
339.085133674469
 30
0.0
 41
2.5
 42
2.5
 43
2.5
  0
INSERT
  5
1FFD
330
1C2F
100
AcDbEntity
  8
0
 62
     0
370
    -2
100
AcDbBlockReference
  2
_Open30
 10
1535.018536885934
 20
339.085133674469
 30
0.0
 41
2.5
 42
2.5
 43
2.5
 50
180.0
  0
MTEXT
  5
1FFE
330
1C2F
100
AcDbEntity
  8
0
 62
     4
100
AcDbMText
 10
1588.476334706087
 20
341.210133674469
 30
0.0
 40
3.0
 41
0.0
 71
     5
 72
     1
  1
530
 73
     1
 44
1.0
1001
ACAD
1000
MTEXTBEGIN
1070
    73
1070
     1
1070
    44
1040
1.0
1070
    74
1070
     0
1000
MTEXTEND
  0
POINT
  5
1FFF
330
1C2F
100
AcDbEntity
  8
Defpoints
 62
     0
100
AcDbPoint
 10
1641.018536885935
 20
315.2505007177223
 30
0.0
  0
POINT
  5
2000
330
1C2F
100
AcDbEntity
  8
Defpoints
 62
     0
100
AcDbPoint
 10
1535.018536885934
 20
315.2505007177223
 30
0.0
  0
POINT
  5
2001
330
1C2F
100
AcDbEntity
  8
Defpoints
 62
     0
100
AcDbPoint
 10
1535.018536885934
 20
339.085133674469
 30
0.0
  0
ENDBLK
  5
1C31
330
1C2F
100
AcDbEntity
  8
0
100
AcDbBlockEnd
  0
BLOCK
  5
1C48
330
1C47
100
AcDbEntity
  8
0
100
AcDbBlockBegin
  2
*D23
 70
     1
 10
0.0
 20
0.0
 30
0.0
  3
*D23
  1

  0
LINE
  5
200C
330
1C47
100
AcDbEntity
  8
0
 62
     0
370
    -2
100
AcDbLine
 10
1689.722443964633
 20
260.5005007177224
 30
0.0
 11
1689.722443964633
 21
339.4784343724923
 31
0.0
  0
LINE
  5
200D
330
1C47
100
AcDbEntity
  8
0
 62
     0
370
    -2
100
AcDbLine
 10
1676.722443964633
 20
258.3005007177224
 30
0.0
 11
1676.722443964633
 21
339.4784343724923
 31
0.0
  0
LINE
  5
200E
330
1C47
100
AcDbEntity
  8
0
 62
     0
370
    -2
100
AcDbLine
 10
1687.222443964633
 20
338.2284343724923
 30
0.0
 11
1679.222443964633
 21
338.2284343724923
 31
0.0
  0
INSERT
  5
200F
330
1C47
100
AcDbEntity
  8
0
 62
     0
370
    -2
100
AcDbBlockReference
  2
_Open30
 10
1689.722443964633
 20
338.2284343724923
 30
0.0
 41
2.5
 42
2.5
 43
2.5
  0
INSERT
  5
2010
330
1C47
100
AcDbEntity
  8
0
 62
     0
370
    -2
100
AcDbBlockReference
  2
_Open30
 10
1676.722443964633
 20
338.2284343724923
 30
0.0
 41
2.5
 42
2.5
 43
2.5
 50
180.0
  0
MTEXT
  5
2011
330
1C47
100
AcDbEntity
  8
0
 62
     4
100
AcDbMText
 10
1683.222443964633
 20
340.3534343724923
 30
0.0
 40
3.0
 41
0.0
 71
     5
 72
     1
  1
65
 73
     1
 44
1.0
1001
ACAD
1000
MTEXTBEGIN
1070
    73
1070
     1
1070
    44
1040
1.0
1070
    74
1070
     0
1000
MTEXTEND
  0
POINT
  5
2012
330
1C47
100
AcDbEntity
  8
Defpoints
 62
     0
100
AcDbPoint
 10
1689.722443964633
 20
260.2505007177224
 30
0.0
  0
POINT
  5
2013
330
1C47
100
AcDbEntity
  8
Defpoints
 62
     0
100
AcDbPoint
 10
1676.722443964633
 20
258.0505007177224
 30
0.0
  0
POINT
  5
2014
330
1C47
100
AcDbEntity
  8
Defpoints
 62
     0
100
AcDbPoint
 10
1676.722443964633
 20
338.2284343724923
 30
0.0
  0
ENDBLK
  5
1C49
330
1C47
100
AcDbEntity
  8
0
100
AcDbBlockEnd
  0
ENDSEC
  0
SECTION
  2
ENTITIES
  0
TEXT
  5
1156
330
1F
100
AcDbEntity
  8
0
 62
     3
100
AcDbText
 10
1822.829563987562
 20
183.8685509743988
 30
0.0
 40
3.2
  1
型　　式
  7
高3.2
100
AcDbText
  0
LINE
  5
115D
330
1F
100
AcDbEntity
  8
0
 62
     3
100
AcDbLine
 10
1821.329563987562
 20
188.3685509743988
 30
0.0
 11
1821.329563987563
 21
155.3685509743988
 31
0.0
  0
TEXT
  5
115E
330
1F
100
AcDbEntity
  8
0
 62
     3
100
AcDbText
 10
1822.829563987562
 20
172.8685509743988
 30
0.0
 40
3.2
  1
パネル種
  7
高3.2
100
AcDbText
  0
LINE
  5
115F
330
1F
100
AcDbEntity
  8
0
 62
     3
100
AcDbLine
 10
1879.974824551237
 20
188.3685509743988
 30
0.0
 11
1879.974824551237
 21
155.3685509743988
 31
0.0
  0
LINE
  5
1160
330
1F
100
AcDbEntity
  8
0
 62
     3
100
AcDbLine
 10
1821.329563987562
 20
188.3685509743988
 30
0.0
 11
1879.974824551237
 21
188.3685509743988
 31
0.0
  0
LINE
  5
1161
330
1F
100
AcDbEntity
  8
0
100
AcDbLine
 10
1821.329563987562
 20
182.8685509743988
 30
0.0
 11
1879.974824551237
 21
182.8685509743988
 31
0.0
  0
LINE
  5
1162
330
1F
100
AcDbEntity
  8
0
100
AcDbLine
 10
1821.329563987562
 20
166.3685509743987
 30
0.0
 11
1879.974824551237
 21
166.3685509743987
 31
0.0
  0
LINE
  5
1165
330
1F
100
AcDbEntity
  8
0
 62
     3
100
AcDbLine
 10
1821.329563987562
 20
155.3685509743988
 30
0.0
 11
1879.974824551237
 21
155.3685509743988
 31
0.0
  0
TEXT
  5
116A
330
1F
100
AcDbEntity
  8
0
 62
     3
100
AcDbText
 10
1831.978725348233
 20
193.1198276989796
 30
0.0
 40
4.5
  1
主　　仕　　様
  7
高4.5
100
AcDbText
  0
TEXT
  5
116B
330
1F
100
AcDbEntity
  8
0
 62
     3
100
AcDbText
 10
1849.188790170776
 20
172.8685509743988
 30
0.0
 40
3.2
  1
単結晶
  7
高3.2
100
AcDbText
  0
LINE
  5
116E
330
1F
100
AcDbEntity
  8
0
100
AcDbLine
 10
1847.688790170776
 20
188.3685509743988
 30
0.0
 11
1847.688790170776
 21
155.3685509743988
 31
0.0
  0
LINE
  5
1170
330
1F
100
AcDbEntity
  8
0
100
AcDbLine
 10
1821.329563987562
 20
160.8685509743987
 30
0.0
 11
1879.974824551237
 21
160.8685509743987
 31
0.0
  0
TEXT
  5
1171
330
1F
100
AcDbEntity
  8
0
 62
     3
100
AcDbText
 10
1822.829563987562
 20
161.8685509743988
 30
0.0
 40
3.2
  1
最大出力
  7
高3.2
100
AcDbText
  0
TEXT
  5
1172
330
1F
100
AcDbEntity
  8
0
 62
     3
100
AcDbText
 10
1849.188790170776
 20
161.8685509743988
 30
0.0
 40
3.2
  1
200W
  7
高3.2
100
AcDbText
  0
TEXT
  5
1173
330
1F
100
AcDbEntity
  8
0
 62
     3
100
AcDbText
 10
1849.188790170776
 20
183.8685509743988
 30
0.0
 40
3.2
  1
LPE-SO200
  7
高3.2
100
AcDbText
  0
LINE
  5
1179
330
1F
100
AcDbEntity
  8
0
100
AcDbLine
 10
1831.443183372921
 20
192.5001620508338
 30
0.0
 11
1869.861205165878
 21
192.5001620508338
 31
0.0
  0
TEXT
  5
1183
330
1F
100
AcDbEntity
  8
0
 62
     7
100
AcDbText
 10
1821.935776623508
 20
150.4543887936236
 30
0.0
 40
2.5
  1
注１）アンダーソンプラグは非防水です。
 41
0.8
  7
高2.5
100
AcDbText
  0
TEXT
  5
1184
330
1F
100
AcDbEntity
  8
0
 62
     7
100
AcDbText
 10
1821.935776623508
 20
144.4543887936236
 30
0.0
 40
2.5
  1
注２）安全にご使用いただくため、取扱説明書をご参照ください。
 41
0.8
  7
高2.5
100
AcDbText
  0
TEXT
  5
1186
330
1F
100
AcDbEntity
  8
0
 62
     3
100
AcDbText
 10
1822.829563987562
 20
178.3685509743987
 30
0.0
 40
3.2
  1
使用場所
  7
高3.2
100
AcDbText
  0
LINE
  5
1187
330
1F
100
AcDbEntity
  8
0
100
AcDbLine
 10
1821.329563987562
 20
177.3685509743988
 30
0.0
 11
1879.974824551237
 21
177.3685509743988
 31
0.0
  0
TEXT
  5
1188
330
1F
100
AcDbEntity
  8
0
 62
     3
100
AcDbText
 10
1849.188790170776
 20
178.3685509743987
 30
0.0
 40
3.2
  1
屋外型(IP44)
 41
0.8
  7
高3.2
100
AcDbText
  0
LINE
  5
118A
330
1F
100
AcDbEntity
  8
0
 62
     3
100
AcDbLine
 10
1518.325211780021
 20
349.7536152005959
 30
0.0
 11
1518.325211780021
 21
75.75361520059587
 31
0.0
  0
LINE
  5
118B
330
1F
100
AcDbEntity
  8
0
 62
     3
100
AcDbLine
 10
1908.325211780021
 20
75.75361520059587
 30
0.0
 11
1908.325211780021
 21
349.7536152005959
 31
0.0
  0
LINE
  5
118C
330
1F
100
AcDbEntity
  8
0
 62
     3
100
AcDbLine
 10
1518.325211780021
 20
75.75361520059587
 30
0.0
 11
1908.325211780021
 21
75.75361520059587
 31
0.0
  0
LINE
  5
118D
330
1F
100
AcDbEntity
  8
0
 62
     3
100
AcDbLine
 10
1736.981936960021
 20
349.7536152005959
 30
0.0
 11
1908.325211780021
 21
349.7536152005959
 31
0.0
  0
LINE
  5
118E
330
1F
100
AcDbEntity
  8
0
 62
     3
100
AcDbLine
 10
1688.427902290021
 20
349.7536152005959
 30
0.0
 11
1518.325211780021
 21
349.7536152005959
 31
0.0
  0
LINE
  5
118F
330
1F
100
AcDbEntity
  8
0
 62
     3
100
AcDbLine
 10
1505.923287990021
 20
216.1982541505958
 30
0.0
 11
1503.325211780021
 21
214.6982541505958
 31
0.0
  0
LINE
  5
1190
330
1F
100
AcDbEntity
  8
0
 62
     3
100
AcDbLine
 10
1505.923287990021
 20
216.1982541505958
 30
0.0
 11
1503.325211780021
 21
217.6982541505958
 31
0.0
  0
LINE
  5
1191
330
1F
100
AcDbEntity
  8
0
 62
     3
100
AcDbLine
 10
1503.325211780021
 20
214.6982541505958
 30
0.0
 11
1503.325211780021
 21
217.6982541505958
 31
0.0
  0
LINE
  5
1194
330
1F
100
AcDbEntity
  8
0
 62
     3
100
AcDbLine
 10
1856.325211780021
 20
75.75361520059587
 30
0.0
 11
1856.325211780021
 21
115.7536152005959
 31
0.0
  0
LINE
  5
1195
330
1F
100
AcDbEntity
  8
0
 62
     3
100
AcDbLine
 10
1869.325211780021
 20
85.75361520059587
 30
0.0
 11
1869.325211780021
 21
113.7536152005959
 31
0.0
  0
LINE
  5
1196
330
1F
100
AcDbEntity
  8
0
 62
     3
100
AcDbLine
 10
1829.325211780021
 20
85.75361520059587
 30
0.0
 11
1829.325211780021
 21
99.75361520059587
 31
0.0
  0
LINE
  5
1197
330
1F
100
AcDbEntity
  8
0
 62
     3
100
AcDbLine
 10
1839.325211780021
 20
99.75361520059587
 30
0.0
 11
1839.325211780021
 21
75.75361520059587
 31
0.0
  0
LINE
  5
1198
330
1F
100
AcDbEntity
  8
0
 62
     3
100
AcDbLine
 10
1810.325211780021
 20
115.7536152005959
 30
0.0
 11
1810.325211780021
 21
92.75361520059588
 31
0.0
  0
LINE
  5
1199
330
1F
100
AcDbEntity
  8
0
 62
     3
100
AcDbLine
 10
1869.325211780021
 20
113.7536152005959
 30
0.0
 11
1869.325211780021
 21
115.7536152005959
 31
0.0
  0
LINE
  5
119A
330
1F
100
AcDbEntity
  8
0
 62
     3
100
AcDbLine
 10
1882.325211780021
 20
92.75361520059588
 30
0.0
 11
1882.325211780021
 21
115.7536152005959
 31
0.0
  0
LINE
  5
119B
330
1F
100
AcDbEntity
  8
0
 62
     3
100
AcDbLine
 10
1908.325211780021
 20
115.7536152005959
 30
0.0
 11
1797.079777140021
 21
115.7536152005959
 31
0.0
  0
LINE
  5
119C
330
1F
100
AcDbEntity
  8
0
 62
     3
100
AcDbLine
 10
1908.325211780021
 20
106.7536152005958
 30
0.0
 11
1797.079777140021
 21
106.7536152005958
 31
0.0
  0
LINE
  5
119D
330
1F
100
AcDbEntity
  8
0
 62
     3
100
AcDbLine
 10
1908.325211780021
 20
92.75361520059588
 30
0.0
 11
1797.079777140021
 21
92.75361520059588
 31
0.0
  0
LINE
  5
119E
330
1F
100
AcDbEntity
  8
0
 62
     3
100
AcDbLine
 10
1908.325211780021
 20
85.75361520059587
 30
0.0
 11
1797.021769280021
 21
85.75361520059587
 31
0.0
  0
LINE
  5
119F
330
1F
100
AcDbEntity
  8
0
 62
     3
100
AcDbLine
 10
1895.325211780021
 20
92.75361520059588
 30
0.0
 11
1895.325211780021
 21
115.7536152005959
 31
0.0
  0
LINE
  5
11A0
330
1F
100
AcDbEntity
  8
0
 62
     3
100
AcDbLine
 10
1797.079777140021
 20
115.7536152005959
 30
0.0
 11
1797.079777140021
 21
75.75361520059587
 31
0.0
  0
LINE
  5
11A1
330
1F
100
AcDbEntity
  8
0
 62
     3
100
AcDbLine
 10
1856.325211780021
 20
99.75361520059587
 30
0.0
 11
1797.079777140021
 21
99.75361520059584
 31
0.0
  0
LINE
  5
11A2
330
1F
100
AcDbEntity
  8
0
 62
     3
100
AcDbLine
 10
1839.603536710021
 20
80.58647646059586
 30
0.0
 11
1856.325211780021
 21
80.58647646059586
 31
0.0
  0
TEXT
  5
11A3
330
1F
100
AcDbEntity
  8
0
 62
     3
100
AcDbText
 10
1840.489537193337
 20
94.82671205396121
 30
0.0
 40
2.5
  1
質量7.1kg
 41
0.8
  7
高2.5
100
AcDbText
  0
TEXT
  5
11A4
330
1F
100
AcDbEntity
  8
0
 62
     3
100
AcDbText
 10
1811.521580475274
 20
95.0514296055798
 30
0.0
 40
2.5
  1
-
  7
高2.5
100
AcDbText
  0
TEXT
  5
11A5
330
1F
100
AcDbEntity
  8
0
 62
     3
100
AcDbText
 10
1811.786488229971
 20
108.0658647243537
 30
0.0
 40
4.5
  1
パワーバンク用ソーラーパネル200W
 41
0.45
  7
高4.5
100
AcDbText
1001
ACAD
1000
ACAD_MTEXT_DEFINED_HEIGHT_BEGIN
1070
    46
1040
0.0
1000
ACAD_MTEXT_DEFINED_HEIGHT_END
  0
TEXT
  5
11A6
330
1F
100
AcDbEntity
  8
0
 62
     3
100
AcDbText
 10
1898.390800873495
 20
112.2673072992994
 30
0.0
 40
2.0
  1
DEF
  7
高2
100
AcDbText
  0
TEXT
  5
11A7
330
1F
100
AcDbEntity
  8
0
 62
     3
100
AcDbText
 10
1884.451702519787
 20
112.2673072992993
 30
0.0
 40
2.0
  1
DESN
  7
高2
100
AcDbText
  0
TEXT
  5
11A8
330
1F
100
AcDbEntity
  8
0
 62
     3
100
AcDbText
 10
1858.197335579787
 20
112.2673072992994
 30
0.0
 40
2.0
  1
APPD
  7
高2
100
AcDbText
  0
TEXT
  5
11A9
330
1F
100
AcDbEntity
  8
0
 62
     3
100
AcDbText
 10
1871.310071680021
 20
112.2673072992995
 30
0.0
 40
2.0
  1
CHCK
  7
高2
100
AcDbText
  0
TEXT
  5
11AA
330
1F
100
AcDbEntity
  8
0
 62
     3
100
AcDbText
 10
1830.252377419174
 20
89.9220140238266
 30
0.0
 40
2.0
  1
SCALE
 41
0.8
  7
高2
100
AcDbText
  0
TEXT
  5
11AB
330
1F
100
AcDbEntity
  8
0
 62
     3
100
AcDbText
 10
1798.764355843067
 20
89.9220140238266
 30
0.0
 40
2.0
  1
3AD　ANGLE
 41
1.5
  7
高2
100
AcDbText
  0
TEXT
  5
11AC
330
1F
100
AcDbEntity
  8
0
 62
     3
100
AcDbText
 10
1829.521783110022
 20
96.67355209278369
 30
0.0
 40
2.0
  1
REMARKS
 41
0.7
  7
高2
100
AcDbText
  0
TEXT
  5
11AD
330
1F
100
AcDbEntity
  8
0
 62
     3
100
AcDbText
 10
1798.547447490021
 20
96.75361520059588
 30
0.0
 40
2.0
  1
MATERIAL
 41
0.7
  7
高2
100
AcDbText
  0
TEXT
  5
11AE
330
1F
100
AcDbEntity
  8
0
 62
     3
100
AcDbText
 10
1799.123934692775
 20
103.7536152005958
 30
0.0
 40
2.0
  1
MODEL
  7
高2
100
AcDbText
  0
TEXT
  5
11AF
330
1F
100
AcDbEntity
  8
0
 62
     3
100
AcDbText
 10
1798.760855574107
 20
112.4606365511949
 30
0.0
 40
2.0
  1
CONPONENTS
 41
0.5
  7
高2
100
AcDbText
  0
TEXT
  5
11B0
330
1F
100
AcDbEntity
  8
0
 62
     3
100
AcDbText
 10
1811.467971045274
 20
100.8410963284078
 30
0.0
 40
4.5
  1
LPE-SO200
  7
高4.5
100
AcDbText
  0
TEXT
  5
11B1
330
1F
100
AcDbEntity
  8
0
 62
     3
100
AcDbText
 10
1859.420555219074
 20
76.89780615743098
 30
0.0
 40
6.299999999999998
  1
LPE-SO200
 41
0.8
  7
高6.3
100
AcDbText
1001
ACAD
1000
ACAD_MTEXT_DEFINED_HEIGHT_BEGIN
1070
    46
1040
0.0
1000
ACAD_MTEXT_DEFINED_HEIGHT_END
  0
TEXT
  5
11B2
330
1F
100
AcDbEntity
  8
0
 62
     3
100
AcDbText
 10
1872.888721530351
 20
86.85450435882886
 30
0.0
 40
3.2
  1
2021.11.12
  7
高3.2
100
AcDbText
1001
ACAD
1000
ACAD_MTEXT_DEFINED_HEIGHT_BEGIN
1070
    46
1040
0.0
1000
ACAD_MTEXT_DEFINED_HEIGHT_END
  0
TEXT
  5
11B3
330
1F
100
AcDbEntity
  8
0
 62
     3
100
AcDbText
 10
1843.112809674667
 20
86.38323427376509
 30
0.0
 40
2.5
  1
1/10
  7
高2.5
100
AcDbText
  0
TEXT
  5
11B4
330
1F
100
AcDbEntity
  8
0
 62
     3
100
AcDbText
 10
1840.190138650021
 20
76.57049337373184
 30
0.0
 40
3.2
  1
ZK-A3X
 41
0.8
  7
高3.2
100
AcDbText
  0
TEXT
  5
11B5
330
1F
100
AcDbEntity
  8
0
 62
     3
100
AcDbText
 10
1797.910478180021
 20
82.2782356227837
 30
0.0
 40
2.0
  1
NICHIDO IND.CO.LTD
 41
1.3
  7
高2
100
AcDbText
  0
TEXT
  5
11B6
330
1F
100
AcDbEntity
  8
0
 62
     3
100
AcDbText
 10
1799.092001444978
 20
107.8941434084808
 30
0.0
 40
3.2
  1
品 名
  7
高3.2
100
AcDbText
1001
ACAD
1000
ACAD_MTEXT_DEFINED_HEIGHT_BEGIN
1070
    46
1040
0.0
1000
ACAD_MTEXT_DEFINED_HEIGHT_END
  0
TEXT
  5
11B7
330
1F
100
AcDbEntity
  8
0
 62
     3
100
AcDbText
 10
1799.092001444978
 20
100.2536152005958
 30
0.0
 40
3.2
  1
型 式
  7
高3.2
100
AcDbText
1001
ACAD
1000
ACAD_MTEXT_DEFINED_HEIGHT_BEGIN
1070
    46
1040
3.064735913775952
1000
ACAD_MTEXT_DEFINED_HEIGHT_END
  0
TEXT
  5
11B8
330
1F
100
AcDbEntity
  8
0
 62
     3
100
AcDbText
 10
1799.092001444978
 20
93.25361520059587
 30
0.0
 40
3.2
  1
材 質
  7
高3.2
100
AcDbText
1001
ACAD
1000
ACAD_MTEXT_DEFINED_HEIGHT_BEGIN
1070
    46
1040
0.0
1000
ACAD_MTEXT_DEFINED_HEIGHT_END
  0
TEXT
  5
11B9
330
1F
100
AcDbEntity
  8
0
 62
     3
100
AcDbText
 10
1798.786966494978
 20
86.22105519284209
 30
0.0
 40
3.2
  1
第 三 角 法
  7
高3.2
100
AcDbText
1001
ACAD
1000
ACAD_MTEXT_DEFINED_HEIGHT_BEGIN
1070
    46
1040
0.0
1000
ACAD_MTEXT_DEFINED_HEIGHT_END
  0
TEXT
  5
11BA
330
1F
100
AcDbEntity
  8
0
 62
     3
100
AcDbText
 10
1797.193499102507
 20
76.8941434084808
 30
0.0
 40
3.2
  1
日動工業株式会社
 41
1.199999999999999
  7
高3.2
100
AcDbText
1001
ACAD
1000
ACAD_MTEXT_DEFINED_HEIGHT_BEGIN
1070
    46
1040
0.0
1000
ACAD_MTEXT_DEFINED_HEIGHT_END
  0
TEXT
  5
11BB
330
1F
100
AcDbEntity
  8
0
 62
     3
100
AcDbText
 10
1830.829123301986
 20
93.13819373376345
 30
0.0
 40
3.2
  1
備考
  7
高3.2
100
AcDbText
1001
ACAD
1000
ACAD_MTEXT_DEFINED_HEIGHT_BEGIN
1070
    46
1040
0.0
1000
ACAD_MTEXT_DEFINED_HEIGHT_END
  0
TEXT
  5
11BC
330
1F
100
AcDbEntity
  8
0
 62
     3
100
AcDbText
 10
1840.478180749021
 20
81.89984522616617
 30
0.0
 40
2.5
  1
出図コード
  7
高2.5
100
AcDbText
1001
ACAD
1000
ACAD_MTEXT_DEFINED_HEIGHT_BEGIN
1070
    46
1040
0.0
1000
ACAD_MTEXT_DEFINED_HEIGHT_END
  0
TEXT
  5
11BD
330
1F
100
AcDbEntity
  8
0
 62
     3
100
AcDbText
 10
1830.670357183898
 20
86.2068501110088
 30
0.0
 40
3.2
  1
尺度
  7
高3.2
100
AcDbText
1001
ACAD
1000
ACAD_MTEXT_DEFINED_HEIGHT_BEGIN
1070
    46
1040
0.0
1000
ACAD_MTEXT_DEFINED_HEIGHT_END
  0
TEXT
  5
11BE
330
1F
100
AcDbEntity
  8
0
 62
     3
100
AcDbText
 10
1857.816618665677
 20
87.33832855912629
 30
0.0
 40
3.2
  1
作成日
  7
高3.2
100
AcDbText
1001
ACAD
1000
ACAD_MTEXT_DEFINED_HEIGHT_BEGIN
1070
    46
1040
0.0
1000
ACAD_MTEXT_DEFINED_HEIGHT_END
  0
TEXT
  5
11BF
330
1F
100
AcDbEntity
  8
0
 62
     3
100
AcDbText
 10
1857.711092672541
 20
107.8941434084808
 30
0.0
 40
3.2
  1
承 認
  7
高3.2
100
AcDbText
1001
ACAD
1000
ACAD_MTEXT_DEFINED_HEIGHT_BEGIN
1070
    46
1040
0.0
1000
ACAD_MTEXT_DEFINED_HEIGHT_END
  0
TEXT
  5
11C0
330
1F
100
AcDbEntity
  8
0
 62
     3
100
AcDbText
 10
1870.711092672541
 20
107.8941434084808
 30
0.0
 40
3.2
  1
検 図
  7
高3.2
100
AcDbText
1001
ACAD
1000
ACAD_MTEXT_DEFINED_HEIGHT_BEGIN
1070
    46
1040
0.0
1000
ACAD_MTEXT_DEFINED_HEIGHT_END
  0
TEXT
  5
11C1
330
1F
100
AcDbEntity
  8
0
 62
     3
100
AcDbText
 10
1883.711092672541
 20
107.8941434084808
 30
0.0
 40
3.2
  1
設 計
  7
高3.2
100
AcDbText
1001
ACAD
1000
ACAD_MTEXT_DEFINED_HEIGHT_BEGIN
1070
    46
1040
0.0
1000
ACAD_MTEXT_DEFINED_HEIGHT_END
  0
TEXT
  5
11C2
330
1F
100
AcDbEntity
  8
0
 62
     3
100
AcDbText
 10
1897.011729192541
 20
107.8941434084808
 30
0.0
 40
3.2
  1
製 図
  7
高3.2
100
AcDbText
1001
ACAD
1000
ACAD_MTEXT_DEFINED_HEIGHT_BEGIN
1070
    46
1040
0.0
1000
ACAD_MTEXT_DEFINED_HEIGHT_END
  0
LINE
  5
11C3
330
1F
100
AcDbEntity
  8
0
 62
     3
100
AcDbLine
 10
1697.304204320555
 20
352.0865718842094
 30
0.0
 11
1697.304204320555
 21
347.3518139357624
 31
0.0
  0
LINE
  5
11C4
330
1F
100
AcDbEntity
  8
0
 62
     3
100
AcDbLine
 10
1698.269413142025
 20
350.2381156984327
 30
0.0
 11
1698.269413142025
 21
347.3518139357624
 31
0.0
  0
LINE
  5
11C5
330
1F
100
AcDbEntity
  8
0
 62
     3
100
AcDbLine
 10
1700.978267328022
 20
352.0865718842094
 30
0.0
 11
1700.978267328022
 21
350.0017867179167
 31
0.0
  0
LINE
  5
11C6
330
1F
100
AcDbEntity
  8
0
 62
     3
100
AcDbLine
 10
1701.943475137698
 20
352.0865718842094
 30
0.0
 11
1701.943475137698
 21
346.7172313553172
 31
0.0
  0
LINE
  5
11C7
330
1F
100
AcDbEntity
  8
0
 62
     3
100
AcDbLine
 10
1703.480931830761
 20
352.0540507065148
 30
0.0
 11
1703.480931830761
 21
347.3193504303768
 31
0.0
  0
LINE
  5
11C8
330
1F
100
AcDbEntity
  8
0
 62
     3
100
AcDbLine
 10
1705.010243623967
 20
352.0540294588221
 30
0.0
 11
1705.010243623967
 21
347.3193291826841
 31
0.0
  0
LINE
  5
11C9
330
1F
100
AcDbEntity
  8
0
 62
     3
100
AcDbLine
 10
1710.672140126109
 20
352.0539586331794
 30
0.0
 11
1710.672057158928
 21
347.3192593688363
 31
0.0
  0
LINE
  5
11CA
330
1F
100
AcDbEntity
  8
0
 62
     3
100
AcDbLine
 10
1715.350614960001
 20
352.0539586331794
 30
0.0
 11
1715.350697927182
 21
347.3192593688363
 31
0.0
  0
LINE
  5
11CB
330
1F
100
AcDbEntity
  8
0
 62
     3
100
AcDbLine
 10
1713.788415785568
 20
349.9911506637744
 30
0.0
 11
1712.234339300542
 21
349.9911506637744
 31
0.0
  0
LINE
  5
11CC
330
1F
100
AcDbEntity
  8
0
 62
     3
100
AcDbLine
 10
1713.788405667619
 20
349.3822079777317
 30
0.0
 11
1712.234350430286
 21
349.3822079777317
 31
0.0
  0
LINE
  5
11CD
330
1F
100
AcDbEntity
  8
0
 62
     3
100
AcDbLine
 10
1713.788452210184
 20
352.0539586331794
 30
0.0
 11
1713.788415785568
 21
349.9911506637744
 31
0.0
  0
LINE
  5
11CE
330
1F
100
AcDbEntity
  8
0
 62
     3
100
AcDbLine
 10
1713.788405667619
 20
349.3822079777317
 30
0.0
 11
1713.788369243003
 21
347.3192593688363
 31
0.0
  0
LINE
  5
11CF
330
1F
100
AcDbEntity
  8
0
 62
     3
100
AcDbLine
 10
1712.234302875926
 20
352.0539586331794
 30
0.0
 11
1712.234339300542
 21
349.9911506637744
 31
0.0
  0
LINE
  5
11D0
330
1F
100
AcDbEntity
  8
0
 62
     3
100
AcDbLine
 10
1712.234350430286
 20
349.3822079777317
 30
0.0
 11
1712.234385843107
 21
347.3192593688363
 31
0.0
  0
LINE
  5
11D1
330
1F
100
AcDbEntity
  8
0
 62
     3
100
AcDbLine
 10
1716.891787839489
 20
352.0539586331794
 30
0.0
 11
1716.891704872308
 21
347.3192593688363
 31
0.0
  0
LINE
  5
11D2
330
1F
100
AcDbEntity
  8
0
 62
     3
100
AcDbLine
 10
1718.421067255258
 20
352.0539586331794
 30
0.0
 11
1718.421149210644
 21
347.3192593688363
 31
0.0
  0
LINE
  5
11D3
330
1F
100
AcDbEntity
  8
0
 62
     3
100
AcDbLine
 10
1719.979994578568
 20
352.0539586331794
 30
0.0
 11
1719.979912623182
 21
347.3192593688363
 31
0.0
  0
ARC
  5
11D4
330
1F
100
AcDbEntity
  8
0
 62
     3
100
AcDbCircle
 10
1708.37628259439
 20
349.700251537458
 30
0.0
 40
3.015561595733376
100
AcDbArc
 50
97.70152400000622
 51
266.0248408089489
  0
ARC
  5
11D5
330
1F
100
AcDbEntity
  8
0
 62
     3
100
AcDbCircle
 10
1726.574181551462
 20
349.6699604219285
 30
0.0
 40
3.048311372854727
100
AcDbArc
 50
0.3142499999976029
 51
69.00558200000452
  0
ARC
  5
11D6
330
1F
100
AcDbEntity
  8
0
 62
     3
100
AcDbCircle
 10
1727.240050853612
 20
349.6699604219285
 30
0.0
 40
3.048311372854727
100
AcDbArc
 50
110.9944179999954
 51
148.1166110000016
  0
ARC
  5
11D7
330
1F
100
AcDbEntity
  8
0
 62
     3
100
AcDbCircle
 10
1726.574181551462
 20
349.7033982195777
 30
0.0
 40
3.048311372854727
100
AcDbArc
 50
290.9944179999955
 51
359.6857499999992
  0
ARC
  5
11D8
330
1F
100
AcDbEntity
  8
0
 62
     3
100
AcDbCircle
 10
1727.240050853612
 20
349.7033982195777
 30
0.0
 40
3.048311372854727
100
AcDbArc
 50
211.8833889999971
 51
249.0055820000045
  0
ARC
  5
11D9
330
1F
100
AcDbEntity
  8
0
 62
     3
100
AcDbCircle
 10
1726.907116708434
 20
350.9337964591139
 30
0.0
 40
1.754843910410663
100
AcDbArc
 50
64.36517200000719
 51
115.6348279999928
  0
ARC
  5
11DA
330
1F
100
AcDbEntity
  8
0
 62
     3
100
AcDbCircle
 10
1726.907116708434
 20
348.4395621823924
 30
0.0
 40
1.754843910410663
100
AcDbArc
 50
244.3651720000072
 51
295.6348279999928
  0
ARC
  5
11DB
330
1F
100
AcDbEntity
  8
0
 62
     3
100
AcDbCircle
 10
1726.907116708434
 20
350.9671310536838
 30
0.0
 40
0.8612620730595795
100
AcDbArc
 50
19.48660600000152
 51
160.5133939999984
  0
ARC
  5
11DC
330
1F
100
AcDbEntity
  8
0
 62
     3
100
AcDbCircle
 10
1726.907116708434
 20
348.4062285996173
 30
0.0
 40
0.8612620730595795
100
AcDbArc
 50
199.4866060000015
 51
340.5133939999985
  0
LINE
  5
11DD
330
1F
100
AcDbEntity
  8
0
 62
     3
100
AcDbLine
 10
1718.927378241241
 20
346.6847182719817
 30
0.0
 11
1716.385476853506
 21
346.6847182719817
 31
0.0
  0
LINE
  5
11DE
330
1F
100
AcDbEntity
  8
0
 62
     3
100
AcDbLine
 10
1718.927378241241
 20
346.990513042724
 30
0.0
 11
1718.927378241241
 21
346.6847182719817
 31
0.0
  0
LINE
  5
11DF
330
1F
100
AcDbEntity
  8
0
 62
     3
100
AcDbLine
 10
1715.856926957779
 20
352.6884977064445
 30
0.0
 11
1713.282141224201
 21
352.6884977064445
 31
0.0
  0
LINE
  5
11E0
330
1F
100
AcDbEntity
  8
0
 62
     3
100
AcDbLine
 10
1715.856926957779
 20
352.6884977064445
 30
0.0
 11
1715.856926957779
 21
352.3828455987822
 31
0.0
  0
LINE
  5
11E1
330
1F
100
AcDbEntity
  8
0
 62
     3
100
AcDbLine
 10
1715.856926957779
 20
346.990513042724
 30
0.0
 11
1715.856926957779
 21
346.6845756089016
 31
0.0
  0
LINE
  5
11E2
330
1F
100
AcDbEntity
  8
0
 62
     3
100
AcDbLine
 10
1715.856926957779
 20
346.6845756089016
 30
0.0
 11
1713.282141224201
 21
346.6845756089016
 31
0.0
  0
LINE
  5
11E3
330
1F
100
AcDbEntity
  8
0
 62
     3
100
AcDbLine
 10
1718.927378241241
 20
352.6886403695244
 30
0.0
 11
1718.927378241241
 21
352.3828455987822
 31
0.0
  0
LINE
  5
11E4
330
1F
100
AcDbEntity
  8
0
 62
     3
100
AcDbLine
 10
1718.927378241241
 20
352.6886403695244
 30
0.0
 11
1716.385476853506
 21
352.6886403695244
 31
0.0
  0
LINE
  5
11E5
330
1F
100
AcDbEntity
  8
0
 62
     3
100
AcDbLine
 10
1716.385476853506
 20
352.6886403695244
 30
0.0
 11
1716.385476853506
 21
352.3828455987822
 31
0.0
  0
LINE
  5
11E6
330
1F
100
AcDbEntity
  8
0
 62
     3
100
AcDbLine
 10
1719.473683592585
 20
346.990513042724
 30
0.0
 11
1719.473683592585
 21
346.6847182719817
 31
0.0
  0
LINE
  5
11E7
330
1F
100
AcDbEntity
  8
0
 62
     3
100
AcDbLine
 10
1722.218305454861
 20
346.6847182719817
 30
0.0
 11
1719.473683592585
 21
346.6847182719817
 31
0.0
  0
LINE
  5
11E8
330
1F
100
AcDbEntity
  8
0
 62
     3
100
AcDbLine
 10
1721.509273994337
 20
351.7234325598488
 30
0.0
 11
1721.509273994337
 21
347.6499260816571
 31
0.0
  0
LINE
  5
11E9
330
1F
100
AcDbEntity
  8
0
 62
     3
100
AcDbLine
 10
1721.509273994337
 20
347.6499260816571
 30
0.0
 11
1721.783974284404
 21
347.6499260816571
 31
0.0
  0
ARC
  5
11EA
330
1F
100
AcDbEntity
  8
0
 62
     3
100
AcDbCircle
 10
1720.379334846213
 20
349.6866793207531
 30
0.0
 40
2.474141041926213
100
AcDbArc
 50
304.5919550000087
 51
55.40804499999131
  0
LINE
  5
11EB
330
1F
100
AcDbEntity
  8
0
 62
     3
100
AcDbLine
 10
1722.218305454861
 20
352.6886403695244
 30
0.0
 11
1719.473683592585
 21
352.6886403695244
 31
0.0
  0
LINE
  5
11EC
330
1F
100
AcDbEntity
  8
0
 62
     3
100
AcDbLine
 10
1719.473683592585
 20
352.6886403695244
 30
0.0
 11
1719.473683592585
 21
352.3828455987822
 31
0.0
  0
LINE
  5
11ED
330
1F
100
AcDbEntity
  8
0
 62
     3
100
AcDbLine
 10
1716.385476853506
 20
346.990513042724
 30
0.0
 11
1716.385476853506
 21
346.6847182719817
 31
0.0
  0
LINE
  5
11EE
330
1F
100
AcDbEntity
  8
0
 62
     3
100
AcDbLine
 10
1721.509273994337
 20
351.7234325598488
 30
0.0
 11
1721.783974284404
 21
351.7234325598488
 31
0.0
  0
LINE
  5
11EF
330
1F
100
AcDbEntity
  8
0
 62
     3
100
AcDbLine
 10
1705.51646658358
 20
346.9905034715286
 30
0.0
 11
1705.516460512811
 21
346.6846803705294
 31
0.0
  0
LINE
  5
11F0
330
1F
100
AcDbEntity
  8
0
 62
     3
100
AcDbLine
 10
1696.797893334571
 20
346.7172313553172
 30
0.0
 11
1698.775724128008
 21
346.7172313553172
 31
0.0
  0
ARC
  5
11F1
330
1F
100
AcDbEntity
  8
0
 62
     3
100
AcDbCircle
 10
1688.854066388965
 20
349.7573703945956
 30
0.0
 40
21.26730034229026
100
AcDbArc
 50
353.8660059999985
 51
357.6940340000007
  0
LINE
  5
11F2
330
1F
100
AcDbEntity
  8
0
 62
     3
100
AcDbLine
 10
1708.680303688684
 20
348.9069314915146
 30
0.0
 11
1710.104145982164
 21
348.9016630755029
 31
0.0
  0
LINE
  5
11F3
330
1F
100
AcDbEntity
  8
0
 62
     3
100
AcDbLine
 10
1708.686053719065
 20
350.461069696029
 30
0.0
 11
1708.659128845147
 21
350.6334613336183
 31
0.0
  0
LINE
  5
11F4
330
1F
100
AcDbEntity
  8
0
 62
     3
100
AcDbLine
 10
1708.659128845147
 20
350.6334613336183
 30
0.0
 11
1708.626792892137
 21
350.7985356705358
 31
0.0
  0
LINE
  5
11F5
330
1F
100
AcDbEntity
  8
0
 62
     3
100
AcDbLine
 10
1708.626792892137
 20
350.7985356705358
 30
0.0
 11
1708.589296785169
 21
350.9550158216259
 31
0.0
  0
LINE
  5
11F6
330
1F
100
AcDbEntity
  8
0
 62
     3
100
AcDbLine
 10
1708.589296785169
 20
350.9550158216259
 30
0.0
 11
1708.546927873993
 21
351.1016916801952
 31
0.0
  0
LINE
  5
11F7
330
1F
100
AcDbEntity
  8
0
 62
     3
100
AcDbLine
 10
1708.546927873993
 20
351.1016916801952
 30
0.0
 11
1708.500016003744
 21
351.2374310477579
 31
0.0
  0
LINE
  5
11F8
330
1F
100
AcDbEntity
  8
0
 62
     3
100
AcDbLine
 10
1708.500016003744
 20
351.2374310477579
 30
0.0
 11
1708.448922385198
 21
351.3611836812142
 31
0.0
  0
LINE
  5
11F9
330
1F
100
AcDbEntity
  8
0
 62
     3
100
AcDbLine
 10
1708.448922385198
 20
351.3611836812142
 30
0.0
 11
1708.394041618366
 21
351.4719924225945
 31
0.0
  0
LINE
  5
11FA
330
1F
100
AcDbEntity
  8
0
 62
     3
100
AcDbLine
 10
1708.394041618366
 20
351.4719924225945
 30
0.0
 11
1708.335799668895
 21
351.5690023052137
 31
0.0
  0
LINE
  5
11FB
330
1F
100
AcDbEntity
  8
0
 62
     3
100
AcDbLine
 10
1708.335799668895
 20
351.5690023052137
 30
0.0
 11
1708.274645773722
 21
351.6514635890555
 31
0.0
  0
LINE
  5
11FC
330
1F
100
AcDbEntity
  8
0
 62
     3
100
AcDbLine
 10
1708.274645773722
 20
351.6514635890555
 30
0.0
 11
1708.211052441059
 21
351.718736819747
 31
0.0
  0
LINE
  5
11FD
330
1F
100
AcDbEntity
  8
0
 62
     3
100
AcDbLine
 10
1708.211052441059
 20
351.718736819747
 30
0.0
 11
1708.145511403226
 21
351.7703039583026
 31
0.0
  0
LINE
  5
11FE
330
1F
100
AcDbEntity
  8
0
 62
     3
100
AcDbLine
 10
1708.145511403226
 20
351.7703039583026
 30
0.0
 11
1708.078528557669
 21
351.8057653457392
 31
0.0
  0
LINE
  5
11FF
330
1F
100
AcDbEntity
  8
0
 62
     3
100
AcDbLine
 10
1708.078528557669
 20
351.8057653457392
 30
0.0
 11
1708.010622955169
 21
351.8248477974355
 31
0.0
  0
LINE
  5
1200
330
1F
100
AcDbEntity
  8
0
 62
     3
100
AcDbLine
 10
1708.010622955169
 20
351.8248477974355
 30
0.0
 11
1707.94231870548
 21
351.8274035913373
 31
0.0
  0
LINE
  5
1201
330
1F
100
AcDbEntity
  8
0
 62
     3
100
AcDbLine
 10
1707.94231870548
 20
351.8274035913373
 30
0.0
 11
1707.874143965539
 21
351.8134114797513
 31
0.0
  0
LINE
  5
1202
330
1F
100
AcDbEntity
  8
0
 62
     3
100
AcDbLine
 10
1707.874143965539
 20
351.8134114797513
 30
0.0
 11
1707.806624868688
 21
351.7829817483214
 31
0.0
  0
LINE
  5
1203
330
1F
100
AcDbEntity
  8
0
 62
     3
100
AcDbLine
 10
1707.806624868688
 20
351.7829817483214
 30
0.0
 11
1707.740284512889
 21
351.7363491334627
 31
0.0
  0
LINE
  5
1204
330
1F
100
AcDbEntity
  8
0
 62
     3
100
AcDbLine
 10
1707.740284512889
 20
351.7363491334627
 30
0.0
 11
1707.675635878151
 21
351.6738728223625
 31
0.0
  0
LINE
  5
1205
330
1F
100
AcDbEntity
  8
0
 62
     3
100
AcDbLine
 10
1707.675635878151
 20
351.6738728223625
 30
0.0
 11
1707.613176767565
 21
351.5960364529802
 31
0.0
  0
LINE
  5
1206
330
1F
100
AcDbEntity
  8
0
 62
     3
100
AcDbLine
 10
1707.613176767565
 20
351.5960364529802
 30
0.0
 11
1707.553391830882
 21
351.5034420432773
 31
0.0
  0
LINE
  5
1207
330
1F
100
AcDbEntity
  8
0
 62
     3
100
AcDbLine
 10
1707.553391830882
 20
351.5034420432773
 30
0.0
 11
1707.496742446575
 21
351.3968049322441
 31
0.0
  0
LINE
  5
1208
330
1F
100
AcDbEntity
  8
0
 62
     3
100
AcDbLine
 10
1707.496742446575
 20
351.3968049322441
 30
0.0
 11
1707.443666721833
 21
351.2769487209236
 31
0.0
  0
LINE
  5
1209
330
1F
100
AcDbEntity
  8
0
 62
     3
100
AcDbLine
 10
1707.443666721833
 20
351.2769487209236
 30
0.0
 11
1707.394574433587
 21
351.1448012252338
 31
0.0
  0
LINE
  5
120A
330
1F
100
AcDbEntity
  8
0
 62
     3
100
AcDbLine
 10
1707.394574433587
 20
351.1448012252338
 30
0.0
 11
1707.349845004924
 21
351.0013833462223
 31
0.0
  0
LINE
  5
120B
330
1F
100
AcDbEntity
  8
0
 62
     3
100
AcDbLine
 10
1707.349845004924
 20
351.0013833462223
 30
0.0
 11
1707.309825481491
 21
350.8478040110928
 31
0.0
  0
LINE
  5
120C
330
1F
100
AcDbEntity
  8
0
 62
     3
100
AcDbLine
 10
1707.309825481491
 20
350.8478040110928
 30
0.0
 11
1707.274823448936
 21
350.6852490434607
 31
0.0
  0
LINE
  5
120D
330
1F
100
AcDbEntity
  8
0
 62
     3
100
AcDbLine
 10
1707.274823448936
 20
350.6852490434607
 30
0.0
 11
1707.245110068291
 21
350.514975092584
 31
0.0
  0
LINE
  5
120E
330
1F
100
AcDbEntity
  8
0
 62
     3
100
AcDbLine
 10
1707.245110068291
 20
350.514975092584
 30
0.0
 11
1707.220916028791
 21
350.3382995154146
 31
0.0
  0
LINE
  5
120F
330
1F
100
AcDbEntity
  8
0
 62
     3
100
AcDbLine
 10
1707.220916028791
 20
350.3382995154146
 30
0.0
 11
1707.202426488902
 21
350.1565872232638
 31
0.0
  0
LINE
  5
1210
330
1F
100
AcDbEntity
  8
0
 62
     3
100
AcDbLine
 10
1707.202426488902
 20
350.1565872232638
 30
0.0
 11
1707.189786135295
 21
349.9712425874446
 31
0.0
  0
LINE
  5
1211
330
1F
100
AcDbEntity
  8
0
 62
     3
100
AcDbLine
 10
1707.189786135295
 20
349.9712425874446
 30
0.0
 11
1707.183092100278
 21
349.7836993213212
 31
0.0
  0
LINE
  5
1212
330
1F
100
AcDbEntity
  8
0
 62
     3
100
AcDbLine
 10
1707.183092100278
 20
349.7836993213212
 30
0.0
 11
1707.182394973596
 21
349.5954053033866
 31
0.0
  0
LINE
  5
1213
330
1F
100
AcDbEntity
  8
0
 62
     3
100
AcDbLine
 10
1707.182394973596
 20
349.5954053033866
 30
0.0
 11
1707.187701837813
 21
349.407816506493
 31
0.0
  0
LINE
  5
1214
330
1F
100
AcDbEntity
  8
0
 62
     3
100
AcDbLine
 10
1707.187701837813
 20
349.407816506493
 30
0.0
 11
1707.198970197546
 21
349.222383844518
 31
0.0
  0
LINE
  5
1215
330
1F
100
AcDbEntity
  8
0
 62
     3
100
AcDbLine
 10
1707.198970197546
 20
349.222383844518
 30
0.0
 11
1707.216114050225
 21
349.0405390072362
 31
0.0
  0
LINE
  5
1216
330
1F
100
AcDbEntity
  8
0
 62
     3
100
AcDbLine
 10
1707.216114050225
 20
349.0405390072362
 30
0.0
 11
1707.239000850722
 21
348.863689401345
 31
0.0
  0
LINE
  5
1217
330
1F
100
AcDbEntity
  8
0
 62
     3
100
AcDbLine
 10
1707.239000850722
 20
348.863689401345
 30
0.0
 11
1707.267452523135
 21
348.6932009499508
 31
0.0
  0
LINE
  5
1218
330
1F
100
AcDbEntity
  8
0
 62
     3
100
AcDbLine
 10
1707.267452523135
 20
348.6932009499508
 30
0.0
 11
1707.301250519766
 21
348.5303920218004
 31
0.0
  0
LINE
  5
1219
330
1F
100
AcDbEntity
  8
0
 62
     3
100
AcDbLine
 10
1707.301250519766
 20
348.5303920218004
 30
0.0
 11
1707.340132785738
 21
348.3765192661516
 31
0.0
  0
LINE
  5
121A
330
1F
100
AcDbEntity
  8
0
 62
     3
100
AcDbLine
 10
1707.340132785738
 20
348.3765192661516
 30
0.0
 11
1707.383799829764
 21
348.2327745773895
 31
0.0
  0
LINE
  5
121B
330
1F
100
AcDbEntity
  8
0
 62
     3
100
AcDbLine
 10
1707.383799829764
 20
348.2327745773895
 30
0.0
 11
1707.431912700552
 21
348.1002668827175
 31
0.0
  0
LINE
  5
121C
330
1F
100
AcDbEntity
  8
0
 62
     3
100
AcDbLine
 10
1707.431912700552
 20
348.1002668827175
 30
0.0
 11
1707.484100069377
 21
347.9800221421579
 31
0.0
  0
LINE
  5
121D
330
1F
100
AcDbEntity
  8
0
 62
     3
100
AcDbLine
 10
1707.484100069377
 20
347.9800221421579
 30
0.0
 11
1707.539959241872
 21
347.8729691834232
 31
0.0
  0
LINE
  5
121E
330
1F
100
AcDbEntity
  8
0
 62
     3
100
AcDbLine
 10
1707.539959241872
 20
347.8729691834232
 30
0.0
 11
1707.599057169822
 21
347.7799346429416
 31
0.0
  0
LINE
  5
121F
330
1F
100
AcDbEntity
  8
0
 62
     3
100
AcDbLine
 10
1707.599057169822
 20
347.7799346429416
 30
0.0
 11
1707.66093753373
 21
347.7016379068826
 31
0.0
  0
LINE
  5
1220
330
1F
100
AcDbEntity
  8
0
 62
     3
100
AcDbLine
 10
1707.66093753373
 20
347.7016379068826
 30
0.0
 11
1707.725122766406
 21
347.6386850403874
 31
0.0
  0
LINE
  5
1221
330
1F
100
AcDbEntity
  8
0
 62
     3
100
AcDbLine
 10
1707.725122766406
 20
347.6386850403874
 30
0.0
 11
1707.791116076556
 21
347.5915627168002
 31
0.0
  0
LINE
  5
1222
330
1F
100
AcDbEntity
  8
0
 62
     3
100
AcDbLine
 10
1707.791116076556
 20
347.5915627168002
 30
0.0
 11
1707.858407519556
 21
347.5606341704876
 31
0.0
  0
LINE
  5
1223
330
1F
100
AcDbEntity
  8
0
 62
     3
100
AcDbLine
 10
1707.858407519556
 20
347.5606341704876
 30
0.0
 11
1707.926477032829
 21
347.5461381850446
 31
0.0
  0
LINE
  5
1224
330
1F
100
AcDbEntity
  8
0
 62
     3
100
AcDbLine
 10
1707.926477032829
 20
347.5461381850446
 30
0.0
 11
1707.99479848303
 21
347.5481880814994
 31
0.0
  0
LINE
  5
1225
330
1F
100
AcDbEntity
  8
0
 62
     3
100
AcDbLine
 10
1707.99479848303
 20
347.5481880814994
 30
0.0
 11
1708.062843713226
 21
347.5667666593387
 31
0.0
  0
LINE
  5
1226
330
1F
100
AcDbEntity
  8
0
 62
     3
100
AcDbLine
 10
1708.062843713226
 20
347.5667666593387
 30
0.0
 11
1708.13008659007
 21
347.6017322672774
 31
0.0
  0
LINE
  5
1227
330
1F
100
AcDbEntity
  8
0
 62
     3
100
AcDbLine
 10
1708.13008659007
 20
347.6017322672774
 30
0.0
 11
1708.196008062784
 21
347.6528127324891
 31
0.0
  0
LINE
  5
1228
330
1F
100
AcDbEntity
  8
0
 62
     3
100
AcDbLine
 10
1708.196008062784
 20
347.6528127324891
 30
0.0
 11
1708.260097174944
 21
347.7196144667601
 31
0.0
  0
LINE
  5
1229
330
1F
100
AcDbEntity
  8
0
 62
     3
100
AcDbLine
 10
1708.260097174944
 20
347.7196144667601
 30
0.0
 11
1708.321860170644
 21
347.8016194311047
 31
0.0
  0
LINE
  5
122A
330
1F
100
AcDbEntity
  8
0
 62
     3
100
AcDbLine
 10
1708.321860170644
 20
347.8016194311047
 30
0.0
 11
1708.380818470899
 21
347.8981962655093
 31
0.0
  0
LINE
  5
122B
330
1F
100
AcDbEntity
  8
0
 62
     3
100
AcDbLine
 10
1708.380818470899
 20
347.8981962655093
 30
0.0
 11
1708.436516768006
 21
348.0085962417527
 31
0.0
  0
LINE
  5
122C
330
1F
100
AcDbEntity
  8
0
 62
     3
100
AcDbLine
 10
1708.436516768006
 20
348.0085962417527
 30
0.0
 11
1708.488525049135
 21
348.131967428534
 31
0.0
  0
LINE
  5
122D
330
1F
100
AcDbEntity
  8
0
 62
     3
100
AcDbLine
 10
1708.488525049135
 20
348.131967428534
 30
0.0
 11
1708.536440619919
 21
348.2673557032687
 31
0.0
  0
LINE
  5
122E
330
1F
100
AcDbEntity
  8
0
 62
     3
100
AcDbLine
 10
1708.536440619919
 20
348.2673557032687
 30
0.0
 11
1708.579893163427
 21
348.4137148700363
 31
0.0
  0
LINE
  5
122F
330
1F
100
AcDbEntity
  8
0
 62
     3
100
AcDbLine
 10
1708.579893163427
 20
348.4137148700363
 30
0.0
 11
1708.618546763753
 21
348.5699127303508
 31
0.0
  0
LINE
  5
1230
330
1F
100
AcDbEntity
  8
0
 62
     3
100
AcDbLine
 10
1708.618546763753
 20
348.5699127303508
 30
0.0
 11
1708.6521039532
 21
348.734743224699
 31
0.0
  0
LINE
  5
1231
330
1F
100
AcDbEntity
  8
0
 62
     3
100
AcDbLine
 10
1708.6521039532
 20
348.734743224699
 30
0.0
 11
1708.680303688684
 21
348.9069314915146
 31
0.0
  0
LINE
  5
1232
330
1F
100
AcDbEntity
  8
0
 62
     3
100
AcDbLine
 10
1708.686053719065
 20
350.461069696029
 30
0.0
 11
1710.109896012545
 21
350.455801280017
 31
0.0
  0
ARC
  5
1233
330
1F
100
AcDbEntity
  8
0
 62
     3
100
AcDbCircle
 10
1688.854066388965
 20
349.7573703945956
 30
0.0
 40
21.26730034229026
100
AcDbArc
 50
1.881965999999014
 51
5.709994000001157
  0
LINE
  5
1234
330
1F
100
AcDbEntity
  8
0
 62
     3
100
AcDbLine
 10
1705.516565739711
 20
352.6886140830709
 30
0.0
 11
1705.516560680736
 21
352.3828476425856
 31
0.0
  0
LINE
  5
1235
330
1F
100
AcDbEntity
  8
0
 62
     3
100
AcDbLine
 10
1702.974565196042
 20
346.9905109989205
 30
0.0
 11
1702.974560137067
 21
346.6847445584352
 31
0.0
  0
LINE
  5
1236
330
1F
100
AcDbEntity
  8
0
 62
     3
100
AcDbLine
 10
1702.974664351941
 20
352.6886676681584
 30
0.0
 11
1702.974659292966
 21
352.3828435553642
 31
0.0
  0
LINE
  5
1237
330
1F
100
AcDbEntity
  8
0
 62
     3
100
AcDbLine
 10
1698.775724128008
 20
347.0230261260593
 30
0.0
 11
1698.775724128008
 21
346.7172313553172
 31
0.0
  0
LINE
  5
1238
330
1F
100
AcDbEntity
  8
0
 62
     3
100
AcDbLine
 10
1698.269413142025
 20
350.2381156984327
 30
0.0
 11
1700.469965856473
 21
346.7172313553172
 31
0.0
  0
LINE
  5
1239
330
1F
100
AcDbEntity
  8
0
 62
     3
100
AcDbLine
 10
1700.469965856473
 20
346.7172313553172
 30
0.0
 11
1701.943475137698
 21
346.7172313553172
 31
0.0
  0
LINE
  5
123A
330
1F
100
AcDbEntity
  8
0
 62
     3
100
AcDbLine
 10
1702.449786123681
 20
352.7211534528598
 30
0.0
 11
1702.449786123681
 21
352.4153586821175
 31
0.0
  0
LINE
  5
123B
330
1F
100
AcDbEntity
  8
0
 62
     3
100
AcDbLine
 10
1700.471956342038
 20
352.7211534528598
 30
0.0
 11
1702.449786123681
 21
352.7211534528598
 31
0.0
  0
LINE
  5
123C
330
1F
100
AcDbEntity
  8
0
 62
     3
100
AcDbLine
 10
1700.471956342038
 20
352.7211534528598
 30
0.0
 11
1700.471956342038
 21
352.4153586821175
 31
0.0
  0
LINE
  5
123D
330
1F
100
AcDbEntity
  8
0
 62
     3
100
AcDbLine
 10
1700.978267328022
 20
350.0017867179167
 30
0.0
 11
1699.193682718504
 21
352.7211534528598
 31
0.0
  0
LINE
  5
123E
330
1F
100
AcDbEntity
  8
0
 62
     3
100
AcDbLine
 10
1696.797893334571
 20
352.7211534528598
 30
0.0
 11
1699.193682718504
 21
352.7211534528598
 31
0.0
  0
LINE
  5
123F
330
1F
100
AcDbEntity
  8
0
 62
     3
100
AcDbLine
 10
1710.165829140126
 20
352.6884977064445
 30
0.0
 11
1712.74061386191
 21
352.6884977064444
 31
0.0
  0
LINE
  5
1240
330
1F
100
AcDbEntity
  8
0
 62
     3
100
AcDbLine
 10
1710.165829140126
 20
352.3828455987822
 30
0.0
 11
1710.165829140126
 21
352.6884977064445
 31
0.0
  0
LINE
  5
1241
330
1F
100
AcDbEntity
  8
0
 62
     3
100
AcDbLine
 10
1710.165829140126
 20
346.6845756089016
 30
0.0
 11
1710.165829140126
 21
346.990513042724
 31
0.0
  0
LINE
  5
1242
330
1F
100
AcDbEntity
  8
0
 62
     3
100
AcDbLine
 10
1710.165829140126
 20
346.6845756089016
 30
0.0
 11
1712.74061386191
 21
346.6845756089016
 31
0.0
  0
LINE
  5
1243
330
1F
100
AcDbEntity
  8
0
 62
     3
100
AcDbLine
 10
1713.282141224201
 20
346.990513042724
 30
0.0
 11
1713.282141224201
 21
346.6845756089016
 31
0.0
  0
LINE
  5
1244
330
1F
100
AcDbEntity
  8
0
 62
     3
100
AcDbLine
 10
1712.74061386191
 20
346.990513042724
 30
0.0
 11
1712.74061386191
 21
346.6845756089016
 31
0.0
  0
LINE
  5
1245
330
1F
100
AcDbEntity
  8
0
 62
     3
100
AcDbLine
 10
1712.74061386191
 20
352.3828455987822
 30
0.0
 11
1712.74061386191
 21
352.6884977064445
 31
0.0
  0
LINE
  5
1246
330
1F
100
AcDbEntity
  8
0
 62
     3
100
AcDbLine
 10
1713.282141224201
 20
352.3828455987822
 30
0.0
 11
1713.282141224201
 21
352.6884977064445
 31
0.0
  0
LINE
  5
1247
330
1F
100
AcDbEntity
  8
0
 62
     3
100
AcDbLine
 10
1696.797893334571
 20
347.0230261260593
 30
0.0
 11
1696.797893334571
 21
346.7172313553172
 31
0.0
  0
LINE
  5
1248
330
1F
100
AcDbEntity
  8
0
 62
     3
100
AcDbLine
 10
1696.797893334571
 20
352.7211534528598
 30
0.0
 11
1696.797893334571
 21
352.4153586821175
 31
0.0
  0
ARC
  5
1249
330
1F
100
AcDbEntity
  8
0
 62
     3
100
AcDbCircle
 10
1722.47596198299
 20
350.3165186067365
 30
0.0
 40
2.37212176278799
100
AcDbArc
 50
17.3087490000009
 51
23.76507100000316
  0
ARC
  5
124A
330
1F
100
AcDbEntity
  8
0
 62
     3
100
AcDbCircle
 10
1720.454868293465
 20
349.6866793207531
 30
0.0
 40
4.489082006702322
100
AcDbArc
 50
342.691250999999
 51
17.30856600000147
  0
ARC
  5
124B
330
1F
100
AcDbEntity
  8
0
 62
     3
100
AcDbCircle
 10
1722.47596198299
 20
349.0568400347697
 30
0.0
 40
2.37212176278799
100
AcDbArc
 50
336.2349289999968
 51
342.691250999999
  0
ARC
  5
124C
330
1F
100
AcDbEntity
  8
0
 62
     3
100
AcDbCircle
 10
1722.218305454861
 20
350.3165186067365
 30
0.0
 40
2.37212176278799
100
AcDbArc
 50
17.3087490000009
 51
90.0
  0
ARC
  5
124D
330
1F
100
AcDbEntity
  8
0
 62
     3
100
AcDbCircle
 10
1720.197206686256
 20
349.6866928832485
 30
0.0
 40
4.489082006702322
100
AcDbArc
 50
342.691250999999
 51
17.30856600000147
  0
ARC
  5
124E
330
1F
100
AcDbEntity
  8
0
 62
     3
100
AcDbCircle
 10
1722.218305454861
 20
349.0568400347697
 30
0.0
 40
2.37212176278799
100
AcDbArc
 50
270.0
 51
342.691250999999
  0
ARC
  5
124F
330
1F
100
AcDbEntity
  8
0
 62
     3
100
AcDbCircle
 10
1707.959060875588
 20
349.6866793207531
 30
0.0
 40
3.001961048771398
100
AcDbArc
 50
46.75287999999379
 51
89.74999799999961
  0
ARC
  5
1250
330
1F
100
AcDbEntity
  8
0
 62
     3
100
AcDbCircle
 10
1707.959060875588
 20
349.6866793207531
 30
0.0
 40
3.001961048771398
100
AcDbArc
 50
273.9763330000016
 51
312.8231200000002
  0
ARC
  5
1251
330
1F
100
AcDbEntity
  8
0
 62
     3
100
AcDbCircle
 10
1724.077297383914
 20
349.6403370910289
 30
0.0
 40
3.983420308030568
100
AcDbArc
 50
0.6665839999990411
 51
23.90392800000231
  0
ARC
  5
1252
330
1F
100
AcDbEntity
  8
0
 62
     3
100
AcDbCircle
 10
1729.73693502116
 20
349.6403370910289
 30
0.0
 40
3.983420308030568
100
AcDbArc
 50
156.0960719999977
 51
179.3334160000009
  0
ARC
  5
1253
330
1F
100
AcDbEntity
  8
0
 62
     3
100
AcDbCircle
 10
1724.077297383914
 20
349.7330215504772
 30
0.0
 40
3.983420308030568
100
AcDbArc
 50
336.0960719999984
 51
359.3334159999977
  0
ARC
  5
1254
330
1F
100
AcDbEntity
  8
0
 62
     3
100
AcDbCircle
 10
1729.73693502116
 20
349.7330215504772
 30
0.0
 40
3.983420308030568
100
AcDbArc
 50
180.666583999999
 51
203.9039280000023
  0
LINE
  5
1255
330
1F
100
AcDbEntity
  8
0
  6
Continuous
 62
     3
100
AcDbLine
 10
1696.797893334571
 20
352.4153586821175
 30
0.0
 11
1697.304204320555
 21
352.0865718842094
 31
0.0
  0
LINE
  5
1256
330
1F
100
AcDbEntity
  8
0
  6
Continuous
 62
     3
100
AcDbLine
 10
1700.471956342038
 20
352.4153586821175
 30
0.0
 11
1700.978267328022
 21
352.0865718842094
 31
0.0
  0
LINE
  5
1257
330
1F
100
AcDbEntity
  8
0
  6
Continuous
 62
     3
100
AcDbLine
 10
1702.449786123681
 20
352.4153586821175
 30
0.0
 11
1701.943475137698
 21
352.0865718842094
 31
0.0
  0
LINE
  5
1258
330
1F
100
AcDbEntity
  8
0
  6
Continuous
 62
     3
100
AcDbLine
 10
1702.974659292966
 20
352.3828435553642
 30
0.0
 11
1703.480931830761
 21
352.0540507065148
 31
0.0
  0
LINE
  5
1259
330
1F
100
AcDbEntity
  8
0
  6
Continuous
 62
     3
100
AcDbLine
 10
1705.516560680736
 20
352.3828476425856
 30
0.0
 11
1705.010243623967
 21
352.0540294588221
 31
0.0
  0
LINE
  5
125A
330
1F
100
AcDbEntity
  8
0
  6
Continuous
 62
     3
100
AcDbLine
 10
1710.165829140126
 20
352.3828455987822
 30
0.0
 11
1710.672140126109
 21
352.0539586331794
 31
0.0
  0
LINE
  5
125B
330
1F
100
AcDbEntity
  8
0
  6
Continuous
 62
     3
100
AcDbLine
 10
1712.74061386191
 20
352.3828455987822
 30
0.0
 11
1712.234302875926
 21
352.0539586331794
 31
0.0
  0
LINE
  5
125C
330
1F
100
AcDbEntity
  8
0
  6
Continuous
 62
     3
100
AcDbLine
 10
1713.282141224201
 20
352.3828455987822
 30
0.0
 11
1713.788452210184
 21
352.0539586331794
 31
0.0
  0
LINE
  5
125D
330
1F
100
AcDbEntity
  8
0
  6
Continuous
 62
     3
100
AcDbLine
 10
1715.856926957779
 20
352.3828455987822
 30
0.0
 11
1715.350614960001
 21
352.0539586331794
 31
0.0
  0
LINE
  5
125E
330
1F
100
AcDbEntity
  8
0
  6
Continuous
 62
     3
100
AcDbLine
 10
1716.385476853506
 20
352.3828455987822
 30
0.0
 11
1716.891787839489
 21
352.0539586331794
 31
0.0
  0
LINE
  5
125F
330
1F
100
AcDbEntity
  8
0
  6
Continuous
 62
     3
100
AcDbLine
 10
1718.927378241241
 20
352.3828455987822
 30
0.0
 11
1718.421067255258
 21
352.0539586331794
 31
0.0
  0
LINE
  5
1260
330
1F
100
AcDbEntity
  8
0
  6
Continuous
 62
     3
100
AcDbLine
 10
1719.473683592585
 20
352.3828455987822
 30
0.0
 11
1719.979994578568
 21
352.0539586331794
 31
0.0
  0
LINE
  5
1261
330
1F
100
AcDbEntity
  8
0
  6
Continuous
 62
     3
100
AcDbLine
 10
1719.979912623182
 20
347.3192593688363
 30
0.0
 11
1719.473683592585
 21
346.990513042724
 31
0.0
  0
LINE
  5
1262
330
1F
100
AcDbEntity
  8
0
  6
Continuous
 62
     3
100
AcDbLine
 10
1718.421149210644
 20
347.3192593688363
 30
0.0
 11
1718.927378241241
 21
346.990513042724
 31
0.0
  0
LINE
  5
1263
330
1F
100
AcDbEntity
  8
0
  6
Continuous
 62
     3
100
AcDbLine
 10
1716.891704872308
 20
347.3192593688363
 30
0.0
 11
1716.385476853506
 21
346.990513042724
 31
0.0
  0
LINE
  5
1264
330
1F
100
AcDbEntity
  8
0
  6
Continuous
 62
     3
100
AcDbLine
 10
1715.856926957779
 20
346.990513042724
 30
0.0
 11
1715.350697927182
 21
347.3192593688363
 31
0.0
  0
LINE
  5
1265
330
1F
100
AcDbEntity
  8
0
  6
Continuous
 62
     3
100
AcDbLine
 10
1713.282141224201
 20
346.990513042724
 30
0.0
 11
1713.788369243003
 21
347.3192593688363
 31
0.0
  0
LINE
  5
1266
330
1F
100
AcDbEntity
  8
0
  6
Continuous
 62
     3
100
AcDbLine
 10
1712.74061386191
 20
346.990513042724
 30
0.0
 11
1712.234385843107
 21
347.3192593688363
 31
0.0
  0
LINE
  5
1267
330
1F
100
AcDbEntity
  8
0
  6
Continuous
 62
     3
100
AcDbLine
 10
1710.672057158928
 20
347.3192593688363
 30
0.0
 11
1710.165829140126
 21
346.990513042724
 31
0.0
  0
LINE
  5
1268
330
1F
100
AcDbEntity
  8
0
  6
Continuous
 62
     3
100
AcDbLine
 10
1705.516466583819
 20
346.9905154948337
 30
0.0
 11
1705.010243623967
 21
347.3193291826841
 31
0.0
  0
LINE
  5
1269
330
1F
100
AcDbEntity
  8
0
  6
Continuous
 62
     3
100
AcDbLine
 10
1702.974565196042
 20
346.9905109989205
 30
0.0
 11
1703.480832674861
 21
347.3193504303768
 31
0.0
  0
LINE
  5
126A
330
1F
100
AcDbEntity
  8
0
  6
Continuous
 62
     3
100
AcDbLine
 10
1698.775724128008
 20
347.0230261260593
 30
0.0
 11
1698.269413142025
 21
347.3518139357624
 31
0.0
  0
LINE
  5
126B
330
1F
100
AcDbEntity
  8
0
  6
Continuous
 62
     3
100
AcDbLine
 10
1696.797893334571
 20
347.0230261260593
 30
0.0
 11
1697.304204320555
 21
347.3518139357624
 31
0.0
  0
LINE
  5
126C
330
1F
100
AcDbEntity
  8
0
  6
Continuous
 62
     3
100
AcDbLine
 10
1705.516460513049
 20
346.6846923938346
 30
0.0
 11
1702.974560137067
 21
346.6847445584352
 31
0.0
  0
LINE
  5
126D
330
1F
100
AcDbEntity
  8
0
  6
Continuous
 62
     3
100
AcDbLine
 10
1702.974664351941
 20
352.6886676681584
 30
0.0
 11
1705.516565739711
 21
352.6886140830709
 31
0.0
  0
ARC
  5
126E
330
1F
100
AcDbEntity
  8
0
  6
Continuous
 62
     3
100
AcDbCircle
 10
1731.824908041282
 20
349.6684415771877
 30
0.0
 40
1.5
100
AcDbArc
 50
293.7485430905253
 51
66.25145690947462
  0
ARC
  5
126F
330
1F
100
AcDbEntity
  8
0
  6
Continuous
 62
     3
100
AcDbCircle
 10
1731.824908041282
 20
349.6684415771877
 30
0.0
 40
2.25
100
AcDbArc
 50
293.7485430905253
 51
66.25145690947462
  0
ARC
  5
1270
330
1F
100
AcDbEntity
  8
0
  6
Continuous
 62
     3
100
AcDbCircle
 10
1720.347290704956
 20
323.581772562519
 30
0.0
 40
30.0
100
AcDbArc
 50
66.25145690947462
 51
81.41597019517911
  0
ARC
  5
1271
330
1F
100
AcDbEntity
  8
0
  6
Continuous
 62
     3
100
AcDbCircle
 10
1720.347290704956
 20
323.581772562519
 30
0.0
 40
30.75
100
AcDbArc
 50
66.25145690947462
 51
81.41597019517911
  0
ARC
  5
1272
330
1F
100
AcDbEntity
  8
0
  6
Continuous
 62
     3
100
AcDbCircle
 10
1692.749621544505
 20
349.6684415771877
 30
0.0
 40
1.5
100
AcDbArc
 50
113.7485430905254
 51
246.2514569094746
  0
ARC
  5
1273
330
1F
100
AcDbEntity
  8
0
  6
Continuous
 62
     3
100
AcDbCircle
 10
1692.749621544505
 20
349.6684415771877
 30
0.0
 40
2.25
100
AcDbArc
 50
113.7485430905254
 51
246.2514569094746
  0
ARC
  5
1274
330
1F
100
AcDbEntity
  8
0
  6
Continuous
 62
     3
100
AcDbCircle
 10
1704.227238880831
 20
323.581772562519
 30
0.0
 40
30.0
100
AcDbArc
 50
98.5840298048209
 51
113.7485430905254
  0
ARC
  5
1275
330
1F
100
AcDbEntity
  8
0
  6
Continuous
 62
     3
100
AcDbCircle
 10
1704.227238880831
 20
323.581772562519
 30
0.0
 40
30.75
100
AcDbArc
 50
98.5840298048209
 51
113.7485430905254
  0
ARC
  5
1276
330
1F
100
AcDbEntity
  8
0
  6
Continuous
 62
     3
100
AcDbCircle
 10
1720.347290704956
 20
375.7551105918565
 30
0.0
 40
30.0
100
AcDbArc
 50
278.5840298048209
 51
293.7485430905253
  0
ARC
  5
1277
330
1F
100
AcDbEntity
  8
0
  6
Continuous
 62
     3
100
AcDbCircle
 10
1720.347290704956
 20
375.7551105918565
 30
0.0
 40
30.75
100
AcDbArc
 50
278.5840298048209
 51
293.7485430905253
  0
ARC
  5
1278
330
1F
100
AcDbEntity
  8
0
  6
Continuous
 62
     3
100
AcDbCircle
 10
1704.227238880831
 20
375.7551105918565
 30
0.0
 40
30.0
100
AcDbArc
 50
246.2514569094746
 51
261.4159701951791
  0
ARC
  5
1279
330
1F
100
AcDbEntity
  8
0
  6
Continuous
 62
     3
100
AcDbCircle
 10
1704.227238880831
 20
375.7551105918565
 30
0.0
 40
30.75
100
AcDbArc
 50
246.2514569094746
 51
261.4159701951791
  0
ARC
  5
127A
330
1F
100
AcDbEntity
  8
0
  6
Continuous
 62
     3
100
AcDbCircle
 10
1712.287264792893
 20
270.1866793207545
 30
0.0
 40
84.74999999999857
100
AcDbArc
 50
81.41597019517911
 51
98.5840298048209
  0
ARC
  5
127B
330
1F
100
AcDbEntity
  8
0
  6
Continuous
 62
     3
100
AcDbCircle
 10
1712.287264792893
 20
270.1866793207558
 30
0.0
 40
83.99999999999733
100
AcDbArc
 50
81.41597019517911
 51
98.5840298048209
  0
ARC
  5
127C
330
1F
100
AcDbEntity
  8
0
  6
Continuous
 62
     3
100
AcDbCircle
 10
1712.287264792893
 20
429.1502038336209
 30
0.0
 40
84.74999999999857
100
AcDbArc
 50
261.4159701951791
 51
278.5840298048209
  0
ARC
  5
127D
330
1F
100
AcDbEntity
  8
0
  6
Continuous
 62
     3
100
AcDbCircle
 10
1712.287264792893
 20
429.1502038336196
 30
0.0
 40
83.99999999999733
100
AcDbArc
 50
261.4159701951791
 51
278.5840298048209
  0
TEXT
  5
127E
330
1F
100
AcDbEntity
  8
0
 62
     3
100
AcDbText
 10
1895.825211780021
 20
340.2536152005958
 30
0.0
 40
3.2
  1
担　当
  7
高3.2
100
AcDbText
  0
TEXT
  5
127F
330
1F
100
AcDbEntity
  8
0
 62
     3
100
AcDbText
 10
1851.825211780021
 20
340.2536152005958
 30
0.0
 40
3.2
  1
変更・追記内容
  7
高3.2
100
AcDbText
  0
TEXT
  5
1280
330
1F
100
AcDbEntity
  8
0
 62
     3
100
AcDbText
 10
1826.93872678036
 20
335.5830766906876
 30
0.0
 40
2.0
  1
1
  7
高2
100
AcDbText
  0
TEXT
  5
1281
330
1F
100
AcDbEntity
  8
0
 62
     3
100
AcDbText
 10
1826.630215303603
 20
330.4132599784147
 30
0.0
 40
2.0
  1
2
  7
高2
100
AcDbText
  0
TEXT
  5
1282
330
1F
100
AcDbEntity
  8
0
 62
     3
100
AcDbText
 10
1833.825211780021
 20
340.2536152005958
 30
0.0
 40
3.2
  1
日　付
  7
高3.2
100
AcDbText
  0
TEXT
  5
1283
330
1F
100
AcDbEntity
  8
0
 62
     3
100
AcDbText
 10
1833.825211780021
 20
345.2536152005958
 30
0.0
 40
3.2
  1
図　　　　面　　　　略　　　　歴
  7
高3.2
100
AcDbText
  0
TEXT
  5
1284
330
1F
100
AcDbEntity
  8
0
 62
     3
100
AcDbText
 10
1823.825211780021
 20
340.2536152005958
 30
0.0
 40
3.2
  1
記号
  7
高3.2
100
AcDbText
  0
LINE
  5
1285
330
1F
100
AcDbEntity
  8
0
100
AcDbLine
 10
1827.325211780021
 20
333.544511200596
 30
0.0
 11
1825.425211780021
 21
330.2536152005958
 31
0.0
  0
LINE
  5
1286
330
1F
100
AcDbEntity
  8
0
100
AcDbLine
 10
1827.325211780021
 20
333.544511200596
 30
0.0
 11
1829.225211780021
 21
330.2536152005958
 31
0.0
  0
LINE
  5
1287
330
1F
100
AcDbEntity
  8
0
100
AcDbLine
 10
1825.425211780021
 20
330.2536152005958
 30
0.0
 11
1829.225211780021
 21
330.2536152005958
 31
0.0
  0
LINE
  5
1288
330
1F
100
AcDbEntity
  8
0
100
AcDbLine
 10
1827.325211780021
 20
338.5445122005959
 30
0.0
 11
1825.425211780021
 21
335.2536152005959
 31
0.0
  0
LINE
  5
1289
330
1F
100
AcDbEntity
  8
0
100
AcDbLine
 10
1827.325211780021
 20
338.5445122005959
 30
0.0
 11
1829.225211780021
 21
335.2536152005959
 31
0.0
  0
LINE
  5
128A
330
1F
100
AcDbEntity
  8
0
100
AcDbLine
 10
1825.425211780021
 20
335.2536152005959
 30
0.0
 11
1829.225211780021
 21
335.2536152005959
 31
0.0
  0
LINE
  5
128B
330
1F
100
AcDbEntity
  8
0
 62
     3
100
AcDbLine
 10
1822.325211780021
 20
344.7536152005958
 30
0.0
 11
1908.325211780021
 21
344.7536152005958
 31
0.0
  0
LINE
  5
128C
330
1F
100
AcDbEntity
  8
0
 62
     3
100
AcDbLine
 10
1822.325211780021
 20
339.7536152005959
 30
0.0
 11
1908.325211780021
 21
339.7536152005959
 31
0.0
  0
LINE
  5
128D
330
1F
100
AcDbEntity
  8
0
 62
     7
100
AcDbLine
 10
1822.325211780021
 20
334.7536152005958
 30
0.0
 11
1908.325211780021
 21
334.7536152005958
 31
0.0
  0
LINE
  5
128E
330
1F
100
AcDbEntity
  8
0
 62
     3
100
AcDbLine
 10
1822.325211780021
 20
329.7536152005958
 30
0.0
 11
1908.325211780021
 21
329.7536152005958
 31
0.0
  0
LINE
  5
128F
330
1F
100
AcDbEntity
  8
0
 62
     7
100
AcDbLine
 10
1894.325211780021
 20
329.7536152005958
 30
0.0
 11
1894.325211780021
 21
344.7536152005958
 31
0.0
  0
LINE
  5
1290
330
1F
100
AcDbEntity
  8
0
 62
     7
100
AcDbLine
 10
1850.325211780021
 20
329.7536152005958
 30
0.0
 11
1850.325211780021
 21
344.7536152005958
 31
0.0
  0
LINE
  5
1291
330
1F
100
AcDbEntity
  8
0
 62
     7
100
AcDbLine
 10
1832.325211780021
 20
329.7536152005958
 30
0.0
 11
1832.325211780021
 21
344.7536152005958
 31
0.0
  0
LINE
  5
1292
330
1F
100
AcDbEntity
  8
0
 62
     3
100
AcDbLine
 10
1822.325211780021
 20
329.7536152005958
 30
0.0
 11
1822.325211780021
 21
349.7536152005959
 31
0.0
  0
TEXT
  5
1293
330
1F
100
AcDbEntity
  8
0
 62
     3
100
AcDbText
 10
1843.112809674667
 20
89.66122264767546
 30
0.0
 40
2.5
  1
1/5
  7
高2.5
100
AcDbText
  0
TEXT
  5
1294
330
1F
100
AcDbEntity
  8
0
100
AcDbText
 10
1901.534911618897
 20
97.67765992919883
 30
0.0
 40
3.2
  1
I
  7
高3.2
100
AcDbText
  0
LINE
  5
1295
330
1F
100
AcDbEntity
  8
0
 62
     3
100
AcDbLine
 10
1908.325211780021
 20
121.7536152005958
 30
0.0
 11
1856.325211780022
 21
121.7536152005958
 31
0.0
  0
LINE
  5
1296
330
1F
100
AcDbEntity
  8
0
 62
     3
100
AcDbLine
 10
1882.325211780021
 20
115.7536152005959
 30
0.0
 11
1882.325211780021
 21
121.7536152005958
 31
0.0
  0
LINE
  5
1297
330
1F
100
AcDbEntity
  8
0
 62
     3
100
AcDbLine
 10
1856.325211780021
 20
115.7536152005959
 30
0.0
 11
1856.325211780022
 21
121.7536152005958
 31
0.0
  0
TEXT
  5
1298
330
1F
100
AcDbEntity
  8
0
 62
     3
100
AcDbText
 10
1861.602740134702
 20
116.4458414534739
 30
0.0
 40
4.5
  1
コード
  7
高4.5
100
AcDbText
  0
TEXT
  5
1299
330
1F
100
AcDbEntity
  8
0
 62
     3
100
AcDbText
 10
1887.380528462538
 20
116.4458414534739
 30
0.0
 40
4.5
  1
11539
  7
高4.5
100
AcDbText
  0
LINE
  5
184C
330
1F
100
AcDbEntity
  8
0
 62
     3
100
AcDbLine
 10
1641.018536885935
 20
205.2505007177224
 30
0.0
 11
1620.661647871996
 21
205.2505007177224
 31
0.0
  0
LINE
  5
184D
330
1F
100
AcDbEntity
  8
0
 62
     3
100
AcDbLine
 10
1535.018536885934
 20
315.2505007177223
 30
0.0
 11
1535.018536885934
 21
205.2505007177224
 31
0.0
  0
LINE
  5
184E
330
1F
100
AcDbEntity
  8
0
 62
     3
100
AcDbLine
 10
1641.018536885935
 20
315.2505007177223
 30
0.0
 11
1641.018536885935
 21
205.2505007177224
 31
0.0
  0
LINE
  5
184F
330
1F
100
AcDbEntity
  8
0
 62
     3
100
AcDbLine
 10
1641.018536885935
 20
315.2505007177223
 30
0.0
 11
1535.018536885934
 21
315.2505007177223
 31
0.0
  0
LINE
  5
1850
330
1F
100
AcDbEntity
  8
0
 62
     3
100
AcDbLine
 10
1676.722443964633
 20
216.0505007177224
 30
0.0
 11
1676.722443964633
 21
258.0505007177224
 31
0.0
  0
LINE
  5
1851
330
1F
100
AcDbEntity
  8
0
 62
     3
100
AcDbLine
 10
1689.722443964633
 20
229.8505007177224
 30
0.0
 11
1689.722443964633
 21
260.2505007177224
 31
0.0
  0
LINE
  5
1852
330
1F
100
AcDbEntity
  8
0
 62
     3
100
AcDbLine
 10
1713.050650992525
 20
205.2505007177224
 30
0.0
 11
1713.050650992525
 21
315.2505007177223
 31
0.0
  0
LINE
  5
1853
330
1F
100
AcDbEntity
  8
0
 62
     3
100
AcDbLine
 10
1819.050650992525
 20
205.2505007177224
 30
0.0
 11
1819.050650992525
 21
315.2505007177223
 31
0.0
  0
LINE
  5
1967
330
1F
100
AcDbEntity
  8
0
 62
     3
100
AcDbLine
 10
1567.318536885935
 20
315.8505007177226
 30
0.0
 11
1572.018536885934
 21
315.8505007177226
 31
0.0
  0
LINE
  5
1968
330
1F
100
AcDbEntity
  8
0
 62
     3
100
AcDbLine
 10
1604.018536885934
 20
315.8505007177226
 30
0.0
 11
1608.718536885934
 21
315.8505007177226
 31
0.0
  0
LINE
  5
1969
330
1F
100
AcDbEntity
  8
0
 62
     3
100
AcDbLine
 10
1567.318536885935
 20
315.8505007177226
 30
0.0
 11
1567.318536885935
 21
315.2505007177223
 31
0.0
  0
LINE
  5
196A
330
1F
100
AcDbEntity
  8
0
 62
     3
100
AcDbLine
 10
1608.718536885934
 20
315.2505007177223
 30
0.0
 11
1608.718536885934
 21
315.8505007177226
 31
0.0
  0
ARC
  5
196B
330
1F
100
AcDbEntity
  8
0
 62
     3
100
AcDbCircle
 10
1588.018536885934
 20
287.4505007177224
 30
0.0
 40
36.99999999999997
100
AcDbArc
 50
72.05474677024105
 51
107.9452532297589
  0
ARC
  5
196C
330
1F
100
AcDbEntity
  8
0
 62
     3
100
AcDbCircle
 10
1588.018536885934
 20
287.4505007177224
 30
0.0
 40
39.39999999999997
100
AcDbArc
 50
71.80917805205805
 51
108.1908219479419
  0
ARC
  5
196D
330
1F
100
AcDbEntity
  8
0
 62
     3
100
AcDbCircle
 10
1588.018536885934
 20
287.4505007177224
 30
0.0
 40
39.59999999999997
100
AcDbArc
 50
81.16013226346247
 51
98.83986773653758
  0
ARC
  5
196E
330
1F
100
AcDbEntity
  8
0
 62
     3
100
AcDbCircle
 10
1588.018536885934
 20
287.4505007177224
 30
0.0
 40
40.99999999999996
100
AcDbArc
 50
90.62330233754835
 51
92.07669766245
  0
ARC
  5
196F
330
1F
100
AcDbEntity
  8
0
 62
     3
100
AcDbCircle
 10
1588.018536885934
 20
287.4505007177224
 30
0.0
 40
40.99999999999996
100
AcDbArc
 50
93.32330233759263
 51
94.7766976624308
  0
ARC
  5
1970
330
1F
100
AcDbEntity
  8
0
 62
     3
100
AcDbCircle
 10
1588.018536885934
 20
287.4505007177224
 30
0.0
 40
40.99999999999996
100
AcDbArc
 50
96.02330233754893
 51
97.47669766246211
  0
ARC
  5
1971
330
1F
100
AcDbEntity
  8
0
 62
     3
100
AcDbCircle
 10
1588.018536885934
 20
287.4505007177224
 30
0.0
 40
40.99999999999996
100
AcDbArc
 50
98.72330233756777
 51
100.1766976624536
  0
ARC
  5
1972
330
1F
100
AcDbEntity
  8
0
 62
     3
100
AcDbCircle
 10
1588.018536885934
 20
287.4505007177224
 30
0.0
 40
40.99999999999996
100
AcDbArc
 50
107.5553640511767
 51
109.9660582970918
  0
ARC
  5
1973
330
1F
100
AcDbEntity
  8
0
 62
     3
100
AcDbCircle
 10
1588.018536885934
 20
287.4505007177224
 30
0.0
 40
37.79999999999997
100
AcDbArc
 50
67.78577184810406
 51
71.96941755059828
  0
ARC
  5
1974
330
1F
100
AcDbEntity
  8
0
 62
     3
100
AcDbCircle
 10
1588.018536885934
 20
287.4505007177224
 30
0.0
 40
37.79999999999997
100
AcDbArc
 50
108.0305824494017
 51
112.2142281518959
  0
ARC
  5
1975
330
1F
100
AcDbEntity
  8
0
 62
     3
100
AcDbCircle
 10
1588.018536885934
 20
287.4505007177224
 30
0.0
 40
41.79999999999997
100
AcDbArc
 50
72.74345193924482
 51
77.8468025309718
  0
ARC
  5
1976
330
1F
100
AcDbEntity
  8
0
 62
     3
100
AcDbCircle
 10
1588.018536885934
 20
287.4505007177224
 30
0.0
 40
41.79999999999997
100
AcDbArc
 50
102.1531974690282
 51
107.2565480607552
  0
ARC
  5
1977
330
1F
100
AcDbEntity
  8
0
 62
     3
100
AcDbCircle
 10
1588.018536885934
 20
287.4505007177224
 30
0.0
 40
41.49999999999996
100
AcDbArc
 50
78.06583249389628
 51
79.83205819216178
  0
ARC
  5
1978
330
1F
100
AcDbEntity
  8
0
 62
     3
100
AcDbCircle
 10
1588.018536885934
 20
287.4505007177224
 30
0.0
 40
41.49999999999996
100
AcDbArc
 50
81.26794180783001
 51
82.5320581921454
  0
ARC
  5
1979
330
1F
100
AcDbEntity
  8
0
 62
     3
100
AcDbCircle
 10
1588.018536885934
 20
287.4505007177224
 30
0.0
 40
41.49999999999996
100
AcDbArc
 50
83.96794180785139
 51
85.23205819215597
  0
ARC
  5
197A
330
1F
100
AcDbEntity
  8
0
 62
     3
100
AcDbCircle
 10
1588.018536885934
 20
287.4505007177224
 30
0.0
 40
41.49999999999996
100
AcDbArc
 50
86.66794180785961
 51
87.93205819215577
  0
ARC
  5
197B
330
1F
100
AcDbEntity
  8
0
 62
     3
100
AcDbCircle
 10
1588.018536885934
 20
287.4505007177224
 30
0.0
 40
41.49999999999996
100
AcDbArc
 50
89.36794180782156
 51
90.63205819211329
  0
ARC
  5
197C
330
1F
100
AcDbEntity
  8
0
 62
     3
100
AcDbCircle
 10
1588.018536885934
 20
287.4505007177224
 30
0.0
 40
41.49999999999996
100
AcDbArc
 50
92.06794180784426
 51
93.33205819214041
  0
ARC
  5
197D
330
1F
100
AcDbEntity
  8
0
 62
     3
100
AcDbCircle
 10
1588.018536885934
 20
287.4505007177224
 30
0.0
 40
41.49999999999996
100
AcDbArc
 50
94.767941807844
 51
96.03205819214865
  0
ARC
  5
197E
330
1F
100
AcDbEntity
  8
0
 62
     3
100
AcDbCircle
 10
1588.018536885934
 20
287.4505007177224
 30
0.0
 40
41.49999999999996
100
AcDbArc
 50
97.4679418078546
 51
98.73205819216998
  0
ARC
  5
197F
330
1F
100
AcDbEntity
  8
0
 62
     3
100
AcDbCircle
 10
1588.018536885934
 20
287.4505007177224
 30
0.0
 40
41.49999999999996
100
AcDbArc
 50
100.1679418078382
 51
101.9341675061037
  0
LINE
  5
1980
330
1F
100
AcDbEntity
  8
0
 62
     3
100
AcDbLine
 10
1600.318536885935
 20
324.8813703309173
 30
0.0
 11
1599.418536885935
 21
322.6505007177224
 31
0.0
  0
LINE
  5
1981
330
1F
100
AcDbEntity
  8
0
 62
     3
100
AcDbLine
 10
1575.718536885934
 20
324.8813703309173
 30
0.0
 11
1576.618536885934
 21
322.6505007177224
 31
0.0
  0
LINE
  5
1982
330
1F
100
AcDbEntity
  8
0
 62
     3
100
AcDbLine
 10
1600.418536885935
 20
327.3689175199955
 30
0.0
 11
1600.318536885935
 21
324.8813703309173
 31
0.0
  0
LINE
  5
1983
330
1F
100
AcDbEntity
  8
0
 62
     3
100
AcDbLine
 10
1575.618536885935
 20
327.3689175199955
 30
0.0
 11
1575.718536885934
 21
324.8813703309174
 31
0.0
  0
LINE
  5
1984
330
1F
100
AcDbEntity
  8
0
 62
     3
100
AcDbLine
 10
1604.018536885934
 20
315.8505007177226
 30
0.0
 11
1602.018536885935
 21
325.9861984537178
 31
0.0
  0
LINE
  5
1985
330
1F
100
AcDbEntity
  8
0
 62
     3
100
AcDbLine
 10
1603.729217449932
 20
315.2505007177225
 30
0.0
 11
1602.309609151133
 21
322.4448610277907
 31
0.0
  0
LINE
  5
1986
330
1F
100
AcDbEntity
  8
0
 62
     3
100
AcDbLine
 10
1574.018536885934
 20
325.9861984537178
 30
0.0
 11
1572.018536885934
 21
315.8505007177226
 31
0.0
  0
LINE
  5
1987
330
1F
100
AcDbEntity
  8
0
 62
     3
100
AcDbLine
 10
1573.727464620736
 20
322.4448610277907
 30
0.0
 11
1572.307856321937
 21
315.2505007177225
 31
0.0
  0
LINE
  5
1988
330
1F
100
AcDbEntity
  8
0
 62
     3
100
AcDbLine
 10
1595.943440522334
 20
327.2707878487502
 30
0.0
 11
1596.818536885935
 21
328.3136870839372
 31
0.0
  0
LINE
  5
1989
330
1F
100
AcDbEntity
  8
0
 62
     3
100
AcDbLine
 10
1580.093633249535
 20
327.2707878487502
 30
0.0
 11
1579.218536885935
 21
328.3136870839372
 31
0.0
  0
ARC
  5
198A
330
1F
100
AcDbEntity
  8
0
 62
     3
100
AcDbCircle
 10
1594.411351636096
 20
328.5563630681236
 30
0.0
 40
2.0
100
AcDbArc
 50
261.1601322634625
 51
320.0000000000037
  0
ARC
  5
198B
330
1F
100
AcDbEntity
  8
0
 62
     3
100
AcDbCircle
 10
1581.625722135773
 20
328.5563630681235
 30
0.0
 40
2.0
100
AcDbArc
 50
219.9999999999962
 51
278.8398677365375
  0
LINE
  5
198C
330
1F
100
AcDbEntity
  8
0
 62
     3
100
AcDbLine
 10
1586.53461564523
 20
328.3468914845295
 30
0.0
 11
1586.521027738379
 21
328.9234734391586
 31
0.0
  0
LINE
  5
198D
330
1F
100
AcDbEntity
  8
0
 62
     3
100
AcDbLine
 10
1587.574326972657
 20
328.3713936399565
 30
0.0
 11
1587.560739065806
 21
328.9479755945855
 31
0.0
  0
LINE
  5
198E
330
1F
100
AcDbEntity
  8
0
 62
     3
100
AcDbLine
 10
1584.569045615494
 20
328.8068909128924
 30
0.0
 11
1584.609779167495
 21
328.231589114392
 31
0.0
  0
LINE
  5
198F
330
1F
100
AcDbEntity
  8
0
 62
     3
100
AcDbLine
 10
1585.606448523767
 20
328.8803429782608
 30
0.0
 11
1585.647182075768
 21
328.3050411797603
 31
0.0
  0
LINE
  5
1990
330
1F
100
AcDbEntity
  8
0
 62
     3
100
AcDbLine
 10
1582.624722225864
 20
328.5984868581499
 30
0.0
 11
1582.692510984343
 21
328.0257425296399
 31
0.0
  0
LINE
  5
1991
330
1F
100
AcDbEntity
  8
0
 62
     3
100
AcDbLine
 10
1583.657513421097
 20
328.720725751506
 30
0.0
 11
1583.725302179577
 21
328.1479814229962
 31
0.0
  0
LINE
  5
1992
330
1F
100
AcDbEntity
  8
0
 62
     3
100
AcDbLine
 10
1580.692374453644
 20
328.2987239840493
 30
0.0
 11
1580.787067910605
 21
327.7298087611689
 31
0.0
  0
LINE
  5
1993
330
1F
100
AcDbEntity
  8
0
 62
     3
100
AcDbLine
 10
1581.718260881108
 20
328.4694783044808
 30
0.0
 11
1581.812954338069
 21
327.9005630816004
 31
0.0
  0
ARC
  5
1994
330
1F
100
AcDbEntity
  8
0
 62
     3
100
AcDbCircle
 10
1587.054471308943
 20
328.359142562243
 30
0.0
 40
0.5200000000000158
100
AcDbArc
 50
181.3499999999981
 51
1.349999999998142
  0
ARC
  5
1995
330
1F
100
AcDbEntity
  8
0
 62
     3
100
AcDbCircle
 10
1585.128480621632
 20
328.2683151470762
 30
0.0
 40
0.5199999999999653
100
AcDbArc
 50
184.0500000000084
 51
4.0500000000084
  0
ARC
  5
1996
330
1F
100
AcDbEntity
  8
0
 62
     3
100
AcDbCircle
 10
1583.20890658196
 20
328.0868619763179
 30
0.0
 40
0.5199999999999903
100
AcDbArc
 50
186.7499999999976
 51
6.749999999997755
  0
ARC
  5
1997
330
1F
100
AcDbEntity
  8
0
 62
     3
100
AcDbCircle
 10
1581.300011124337
 20
327.8151859213846
 30
0.0
 40
0.5200000000000165
100
AcDbArc
 50
189.4500000000002
 51
9.450000000000231
  0
ARC
  5
1998
330
1F
100
AcDbEntity
  8
0
 62
     3
100
AcDbCircle
 10
1588.018536885934
 20
287.4505007177224
 30
0.0
 40
40.99999999999996
100
AcDbArc
 50
87.92330233755
 51
89.37669766245164
  0
ARC
  5
1999
330
1F
100
AcDbEntity
  8
0
 62
     3
100
AcDbCircle
 10
1588.018536885934
 20
287.4505007177224
 30
0.0
 40
40.99999999999996
100
AcDbArc
 50
85.22330233756916
 51
86.67669766247263
  0
ARC
  5
199A
330
1F
100
AcDbEntity
  8
0
 62
     3
100
AcDbCircle
 10
1588.018536885934
 20
287.4505007177224
 30
0.0
 40
40.99999999999996
100
AcDbArc
 50
82.52330233753786
 51
83.97669766245106
  0
ARC
  5
199B
330
1F
100
AcDbEntity
  8
0
 62
     3
100
AcDbCircle
 10
1588.018536885934
 20
287.4505007177224
 30
0.0
 40
40.99999999999996
100
AcDbArc
 50
70.03394170290814
 51
72.44463594882326
  0
ARC
  5
199C
330
1F
100
AcDbEntity
  8
0
 62
     3
100
AcDbCircle
 10
1588.018536885934
 20
287.4505007177224
 30
0.0
 40
40.99999999999996
100
AcDbArc
 50
79.82330233754642
 51
81.27669766243222
  0
LINE
  5
199D
330
1F
100
AcDbEntity
  8
0
 62
     3
100
AcDbLine
 10
1589.502458126639
 20
328.3468914845295
 30
0.0
 11
1589.51604603349
 21
328.9234734391586
 31
0.0
  0
LINE
  5
199E
330
1F
100
AcDbEntity
  8
0
 62
     3
100
AcDbLine
 10
1588.462746799212
 20
328.3713936399565
 30
0.0
 11
1588.476334706063
 21
328.9479755945855
 31
0.0
  0
LINE
  5
199F
330
1F
100
AcDbEntity
  8
0
 62
     3
100
AcDbLine
 10
1591.468028156375
 20
328.8068909128924
 30
0.0
 11
1591.427294604374
 21
328.231589114392
 31
0.0
  0
LINE
  5
19A0
330
1F
100
AcDbEntity
  8
0
 62
     3
100
AcDbLine
 10
1590.430625248102
 20
328.8803429782608
 30
0.0
 11
1590.389891696101
 21
328.3050411797603
 31
0.0
  0
LINE
  5
19A1
330
1F
100
AcDbEntity
  8
0
 62
     3
100
AcDbLine
 10
1593.412351546005
 20
328.5984868581499
 30
0.0
 11
1593.344562787526
 21
328.0257425296399
 31
0.0
  0
LINE
  5
19A2
330
1F
100
AcDbEntity
  8
0
 62
     3
100
AcDbLine
 10
1592.379560350772
 20
328.720725751506
 30
0.0
 11
1592.311771592292
 21
328.1479814229962
 31
0.0
  0
LINE
  5
19A3
330
1F
100
AcDbEntity
  8
0
 62
     3
100
AcDbLine
 10
1595.344699318225
 20
328.2987239840493
 30
0.0
 11
1595.250005861264
 21
327.7298087611689
 31
0.0
  0
LINE
  5
19A4
330
1F
100
AcDbEntity
  8
0
 62
     3
100
AcDbLine
 10
1594.318812890762
 20
328.4694783044808
 30
0.0
 11
1594.224119433801
 21
327.9005630816004
 31
0.0
  0
ARC
  5
19A5
330
1F
100
AcDbEntity
  8
0
 62
     3
100
AcDbCircle
 10
1588.982602462926
 20
328.359142562243
 30
0.0
 40
0.5200000000000158
100
AcDbArc
 50
178.6500000000018
 51
358.6500000000019
  0
ARC
  5
19A6
330
1F
100
AcDbEntity
  8
0
 62
     3
100
AcDbCircle
 10
1590.908593150238
 20
328.2683151470762
 30
0.0
 40
0.5199999999999653
100
AcDbArc
 50
175.9500000000077
 51
355.9499999999916
  0
ARC
  5
19A7
330
1F
100
AcDbEntity
  8
0
 62
     3
100
AcDbCircle
 10
1592.828167189909
 20
328.0868619763179
 30
0.0
 40
0.5199999999999903
100
AcDbArc
 50
173.2500000000022
 51
353.2500000000023
  0
ARC
  5
19A8
330
1F
100
AcDbEntity
  8
0
 62
     3
100
AcDbCircle
 10
1594.737062647532
 20
327.8151859213846
 30
0.0
 40
0.5200000000000165
100
AcDbArc
 50
170.5499999999997
 51
350.5499999999998
  0
LINE
  5
19A9
330
1F
100
AcDbEntity
  8
0
 62
     3
100
AcDbLine
 10
1745.350650992525
 20
315.8505007177226
 30
0.0
 11
1750.050650992525
 21
315.8505007177226
 31
0.0
  0
LINE
  5
19AA
330
1F
100
AcDbEntity
  8
0
 62
     3
100
AcDbLine
 10
1782.050650992525
 20
315.8505007177226
 30
0.0
 11
1786.750650992525
 21
315.8505007177226
 31
0.0
  0
LINE
  5
19AB
330
1F
100
AcDbEntity
  8
0
 62
     3
100
AcDbLine
 10
1745.350650992525
 20
315.8505007177226
 30
0.0
 11
1745.350650992525
 21
315.2505007177223
 31
0.0
  0
LINE
  5
19AC
330
1F
100
AcDbEntity
  8
0
 62
     3
100
AcDbLine
 10
1786.750650992525
 20
315.2505007177223
 30
0.0
 11
1786.750650992525
 21
315.8505007177226
 31
0.0
  0
ARC
  5
19AD
330
1F
100
AcDbEntity
  8
0
 62
     3
100
AcDbCircle
 10
1766.050650992525
 20
287.4505007177224
 30
0.0
 40
36.99999999999997
100
AcDbArc
 50
72.0547467701794
 51
107.9452532298206
  0
ARC
  5
19AE
330
1F
100
AcDbEntity
  8
0
 62
     3
100
AcDbCircle
 10
1766.050650992525
 20
287.4505007177224
 30
0.0
 40
39.39999999999997
100
AcDbArc
 50
71.80917805205805
 51
108.1908219479419
  0
ARC
  5
19AF
330
1F
100
AcDbEntity
  8
0
 62
     3
100
AcDbCircle
 10
1766.050650992525
 20
287.4505007177224
 30
0.0
 40
39.59999999999997
100
AcDbArc
 50
81.16013226346247
 51
98.83986773653758
  0
ARC
  5
19B0
330
1F
100
AcDbEntity
  8
0
 62
     3
100
AcDbCircle
 10
1766.050650992525
 20
287.4505007177224
 30
0.0
 40
40.99999999999996
100
AcDbArc
 50
90.62330233754835
 51
92.07669766245
  0
ARC
  5
19B1
330
1F
100
AcDbEntity
  8
0
 62
     3
100
AcDbCircle
 10
1766.050650992525
 20
287.4505007177224
 30
0.0
 40
40.99999999999996
100
AcDbArc
 50
93.32330233759263
 51
94.7766976624308
  0
ARC
  5
19B2
330
1F
100
AcDbEntity
  8
0
 62
     3
100
AcDbCircle
 10
1766.050650992525
 20
287.4505007177224
 30
0.0
 40
40.99999999999996
100
AcDbArc
 50
96.02330233754887
 51
97.47669766246211
  0
ARC
  5
19B3
330
1F
100
AcDbEntity
  8
0
 62
     3
100
AcDbCircle
 10
1766.050650992525
 20
287.4505007177224
 30
0.0
 40
40.99999999999996
100
AcDbArc
 50
98.72330233756777
 51
100.1766976624536
  0
ARC
  5
19B4
330
1F
100
AcDbEntity
  8
0
 62
     3
100
AcDbCircle
 10
1766.050650992525
 20
287.4505007177224
 30
0.0
 40
40.99999999999996
100
AcDbArc
 50
107.5553640511767
 51
109.9660582970918
  0
ARC
  5
19B5
330
1F
100
AcDbEntity
  8
0
 62
     3
100
AcDbCircle
 10
1766.050650992525
 20
287.4505007177224
 30
0.0
 40
37.79999999999997
100
AcDbArc
 50
67.78577184810406
 51
71.96941755059828
  0
ARC
  5
19B6
330
1F
100
AcDbEntity
  8
0
 62
     3
100
AcDbCircle
 10
1766.050650992525
 20
287.4505007177224
 30
0.0
 40
37.79999999999997
100
AcDbArc
 50
108.0305824494017
 51
112.2142281518959
  0
ARC
  5
19B7
330
1F
100
AcDbEntity
  8
0
 62
     3
100
AcDbCircle
 10
1766.050650992525
 20
287.4505007177224
 30
0.0
 40
41.79999999999997
100
AcDbArc
 50
72.74345193924482
 51
77.8468025309718
  0
ARC
  5
19B8
330
1F
100
AcDbEntity
  8
0
 62
     3
100
AcDbCircle
 10
1766.050650992525
 20
287.4505007177224
 30
0.0
 40
41.79999999999997
100
AcDbArc
 50
102.1531974690282
 51
107.2565480607552
  0
ARC
  5
19B9
330
1F
100
AcDbEntity
  8
0
 62
     3
100
AcDbCircle
 10
1766.050650992525
 20
287.4505007177224
 30
0.0
 40
41.49999999999996
100
AcDbArc
 50
78.0658324938297
 51
79.83205819216178
  0
ARC
  5
19BA
330
1F
100
AcDbEntity
  8
0
 62
     3
100
AcDbCircle
 10
1766.050650992525
 20
287.4505007177224
 30
0.0
 40
41.49999999999996
100
AcDbArc
 50
81.26794180783001
 51
82.5320581921454
  0
ARC
  5
19BB
330
1F
100
AcDbEntity
  8
0
 62
     3
100
AcDbCircle
 10
1766.050650992525
 20
287.4505007177224
 30
0.0
 40
41.49999999999996
100
AcDbArc
 50
83.96794180785139
 51
85.23205819215597
  0
ARC
  5
19BC
330
1F
100
AcDbEntity
  8
0
 62
     3
100
AcDbCircle
 10
1766.050650992525
 20
287.4505007177224
 30
0.0
 40
41.49999999999996
100
AcDbArc
 50
86.66794180785961
 51
87.93205819215577
  0
ARC
  5
19BD
330
1F
100
AcDbEntity
  8
0
 62
     3
100
AcDbCircle
 10
1766.050650992525
 20
287.4505007177224
 30
0.0
 40
41.49999999999996
100
AcDbArc
 50
89.36794180782156
 51
90.63205819217843
  0
ARC
  5
19BE
330
1F
100
AcDbEntity
  8
0
 62
     3
100
AcDbCircle
 10
1766.050650992525
 20
287.4505007177224
 30
0.0
 40
41.49999999999996
100
AcDbArc
 50
92.06794180784426
 51
93.33205819214041
  0
ARC
  5
19BF
330
1F
100
AcDbEntity
  8
0
 62
     3
100
AcDbCircle
 10
1766.050650992525
 20
287.4505007177224
 30
0.0
 40
41.49999999999996
100
AcDbArc
 50
94.767941807844
 51
96.03205819214865
  0
ARC
  5
19C0
330
1F
100
AcDbEntity
  8
0
 62
     3
100
AcDbCircle
 10
1766.050650992525
 20
287.4505007177224
 30
0.0
 40
41.49999999999996
100
AcDbArc
 50
97.4679418078546
 51
98.73205819216998
  0
ARC
  5
19C1
330
1F
100
AcDbEntity
  8
0
 62
     3
100
AcDbCircle
 10
1766.050650992525
 20
287.4505007177224
 30
0.0
 40
41.49999999999996
100
AcDbArc
 50
100.1679418078382
 51
101.9341675061703
  0
LINE
  5
19C2
330
1F
100
AcDbEntity
  8
0
 62
     3
100
AcDbLine
 10
1778.350650992526
 20
324.8813703309173
 30
0.0
 11
1777.450650992525
 21
322.6505007177224
 31
0.0
  0
LINE
  5
19C3
330
1F
100
AcDbEntity
  8
0
 62
     3
100
AcDbLine
 10
1753.750650992525
 20
324.8813703309173
 30
0.0
 11
1754.650650992525
 21
322.6505007177224
 31
0.0
  0
LINE
  5
19C4
330
1F
100
AcDbEntity
  8
0
 62
     3
100
AcDbLine
 10
1778.450650992525
 20
327.3689175199955
 30
0.0
 11
1778.350650992526
 21
324.8813703309173
 31
0.0
  0
LINE
  5
19C5
330
1F
100
AcDbEntity
  8
0
 62
     3
100
AcDbLine
 10
1753.650650992525
 20
327.3689175199955
 30
0.0
 11
1753.750650992525
 21
324.8813703309174
 31
0.0
  0
LINE
  5
19C6
330
1F
100
AcDbEntity
  8
0
 62
     3
100
AcDbLine
 10
1782.050650992525
 20
315.8505007177226
 30
0.0
 11
1780.050650992525
 21
325.9861984537178
 31
0.0
  0
LINE
  5
19C7
330
1F
100
AcDbEntity
  8
0
 62
     3
100
AcDbLine
 10
1781.761331556523
 20
315.2505007177225
 30
0.0
 11
1780.341723257724
 21
322.4448610277907
 31
0.0
  0
LINE
  5
19C8
330
1F
100
AcDbEntity
  8
0
 62
     3
100
AcDbLine
 10
1752.050650992525
 20
325.9861984537178
 30
0.0
 11
1750.050650992525
 21
315.8505007177226
 31
0.0
  0
LINE
  5
19C9
330
1F
100
AcDbEntity
  8
0
 62
     3
100
AcDbLine
 10
1751.759578727327
 20
322.4448610277907
 30
0.0
 11
1750.339970428528
 21
315.2505007177225
 31
0.0
  0
LINE
  5
19CA
330
1F
100
AcDbEntity
  8
0
 62
     3
100
AcDbLine
 10
1773.975554628925
 20
327.2707878487502
 30
0.0
 11
1774.850650992525
 21
328.3136870839372
 31
0.0
  0
LINE
  5
19CB
330
1F
100
AcDbEntity
  8
0
 62
     3
100
AcDbLine
 10
1758.125747356126
 20
327.2707878487502
 30
0.0
 11
1757.250650992525
 21
328.3136870839372
 31
0.0
  0
ARC
  5
19CC
330
1F
100
AcDbEntity
  8
0
 62
     3
100
AcDbCircle
 10
1772.443465742687
 20
328.5563630681236
 30
0.0
 40
2.0
100
AcDbArc
 50
261.1601322634625
 51
320.0000000000037
  0
ARC
  5
19CD
330
1F
100
AcDbEntity
  8
0
 62
     3
100
AcDbCircle
 10
1759.657836242364
 20
328.5563630681235
 30
0.0
 40
2.0
100
AcDbArc
 50
219.9999999999962
 51
278.8398677364716
  0
LINE
  5
19CE
330
1F
100
AcDbEntity
  8
0
 62
     3
100
AcDbLine
 10
1764.566729751821
 20
328.3468914845295
 30
0.0
 11
1764.55314184497
 21
328.9234734391586
 31
0.0
  0
LINE
  5
19CF
330
1F
100
AcDbEntity
  8
0
 62
     3
100
AcDbLine
 10
1765.606441079247
 20
328.3713936399565
 30
0.0
 11
1765.592853172396
 21
328.9479755945855
 31
0.0
  0
LINE
  5
19D0
330
1F
100
AcDbEntity
  8
0
 62
     3
100
AcDbLine
 10
1762.601159722085
 20
328.8068909128924
 30
0.0
 11
1762.641893274086
 21
328.231589114392
 31
0.0
  0
LINE
  5
19D1
330
1F
100
AcDbEntity
  8
0
 62
     3
100
AcDbLine
 10
1763.638562630358
 20
328.8803429782608
 30
0.0
 11
1763.679296182358
 21
328.3050411797603
 31
0.0
  0
LINE
  5
19D2
330
1F
100
AcDbEntity
  8
0
 62
     3
100
AcDbLine
 10
1760.656836332455
 20
328.5984868581499
 30
0.0
 11
1760.724625090934
 21
328.0257425296399
 31
0.0
  0
LINE
  5
19D3
330
1F
100
AcDbEntity
  8
0
 62
     3
100
AcDbLine
 10
1761.689627527688
 20
328.720725751506
 30
0.0
 11
1761.757416286167
 21
328.1479814229962
 31
0.0
  0
LINE
  5
19D4
330
1F
100
AcDbEntity
  8
0
 62
     3
100
AcDbLine
 10
1758.724488560234
 20
328.2987239840493
 30
0.0
 11
1758.819182017196
 21
327.7298087611689
 31
0.0
  0
LINE
  5
19D5
330
1F
100
AcDbEntity
  8
0
 62
     3
100
AcDbLine
 10
1759.750374987698
 20
328.4694783044808
 30
0.0
 11
1759.845068444659
 21
327.9005630816004
 31
0.0
  0
ARC
  5
19D6
330
1F
100
AcDbEntity
  8
0
 62
     3
100
AcDbCircle
 10
1765.086585415534
 20
328.359142562243
 30
0.0
 40
0.5200000000000158
100
AcDbArc
 50
181.3499999999981
 51
1.349999999998145
  0
ARC
  5
19D7
330
1F
100
AcDbEntity
  8
0
 62
     3
100
AcDbCircle
 10
1763.160594728222
 20
328.2683151470762
 30
0.0
 40
0.5199999999999653
100
AcDbArc
 50
184.0500000000084
 51
4.050000000008396
  0
ARC
  5
19D8
330
1F
100
AcDbEntity
  8
0
 62
     3
100
AcDbCircle
 10
1761.24102068855
 20
328.0868619763179
 30
0.0
 40
0.5199999999999903
100
AcDbArc
 50
186.7499999999976
 51
6.749999999997771
  0
ARC
  5
19D9
330
1F
100
AcDbEntity
  8
0
 62
     3
100
AcDbCircle
 10
1759.332125230928
 20
327.8151859213846
 30
0.0
 40
0.5200000000000165
100
AcDbArc
 50
189.4500000000002
 51
9.450000000000192
  0
ARC
  5
19DA
330
1F
100
AcDbEntity
  8
0
 62
     3
100
AcDbCircle
 10
1766.050650992525
 20
287.4505007177224
 30
0.0
 40
40.99999999999996
100
AcDbArc
 50
87.92330233755
 51
89.37669766245164
  0
ARC
  5
19DB
330
1F
100
AcDbEntity
  8
0
 62
     3
100
AcDbCircle
 10
1766.050650992525
 20
287.4505007177224
 30
0.0
 40
40.99999999999996
100
AcDbArc
 50
85.22330233756916
 51
86.67669766247263
  0
ARC
  5
19DC
330
1F
100
AcDbEntity
  8
0
 62
     3
100
AcDbCircle
 10
1766.050650992525
 20
287.4505007177224
 30
0.0
 40
40.99999999999996
100
AcDbArc
 50
82.52330233753786
 51
83.97669766245106
  0
ARC
  5
19DD
330
1F
100
AcDbEntity
  8
0
 62
     3
100
AcDbCircle
 10
1766.050650992525
 20
287.4505007177224
 30
0.0
 40
40.99999999999996
100
AcDbArc
 50
70.0339417029081
 51
72.44463594882326
  0
ARC
  5
19DE
330
1F
100
AcDbEntity
  8
0
 62
     3
100
AcDbCircle
 10
1766.050650992525
 20
287.4505007177224
 30
0.0
 40
40.99999999999996
100
AcDbArc
 50
79.82330233754642
 51
81.27669766243222
  0
LINE
  5
19DF
330
1F
100
AcDbEntity
  8
0
 62
     3
100
AcDbLine
 10
1767.53457223323
 20
328.3468914845295
 30
0.0
 11
1767.548160140081
 21
328.9234734391586
 31
0.0
  0
LINE
  5
19E0
330
1F
100
AcDbEntity
  8
0
 62
     3
100
AcDbLine
 10
1766.494860905803
 20
328.3713936399565
 30
0.0
 11
1766.508448812654
 21
328.9479755945855
 31
0.0
  0
LINE
  5
19E1
330
1F
100
AcDbEntity
  8
0
 62
     3
100
AcDbLine
 10
1769.500142262966
 20
328.8068909128924
 30
0.0
 11
1769.459408710965
 21
328.231589114392
 31
0.0
  0
LINE
  5
19E2
330
1F
100
AcDbEntity
  8
0
 62
     3
100
AcDbLine
 10
1768.462739354693
 20
328.8803429782608
 30
0.0
 11
1768.422005802692
 21
328.3050411797603
 31
0.0
  0
LINE
  5
19E3
330
1F
100
AcDbEntity
  8
0
 62
     3
100
AcDbLine
 10
1771.444465652595
 20
328.5984868581499
 30
0.0
 11
1771.376676894116
 21
328.0257425296399
 31
0.0
  0
LINE
  5
19E4
330
1F
100
AcDbEntity
  8
0
 62
     3
100
AcDbLine
 10
1770.411674457362
 20
328.720725751506
 30
0.0
 11
1770.343885698883
 21
328.1479814229962
 31
0.0
  0
LINE
  5
19E5
330
1F
100
AcDbEntity
  8
0
 62
     3
100
AcDbLine
 10
1773.376813424816
 20
328.2987239840493
 30
0.0
 11
1773.282119967855
 21
327.7298087611689
 31
0.0
  0
LINE
  5
19E6
330
1F
100
AcDbEntity
  8
0
 62
     3
100
AcDbLine
 10
1772.350926997353
 20
328.4694783044808
 30
0.0
 11
1772.256233540391
 21
327.9005630816004
 31
0.0
  0
ARC
  5
19E7
330
1F
100
AcDbEntity
  8
0
 62
     3
100
AcDbCircle
 10
1767.014716569516
 20
328.359142562243
 30
0.0
 40
0.5200000000000158
100
AcDbArc
 50
178.6500000000018
 51
358.6500000000019
  0
ARC
  5
19E8
330
1F
100
AcDbEntity
  8
0
 62
     3
100
AcDbCircle
 10
1768.940707256829
 20
328.2683151470762
 30
0.0
 40
0.5199999999999653
100
AcDbArc
 50
175.9500000000077
 51
355.9499999999916
  0
ARC
  5
19E9
330
1F
100
AcDbEntity
  8
0
 62
     3
100
AcDbCircle
 10
1770.8602812965
 20
328.0868619763179
 30
0.0
 40
0.5199999999999903
100
AcDbArc
 50
173.2500000000022
 51
353.2500000000023
  0
ARC
  5
19EA
330
1F
100
AcDbEntity
  8
0
 62
     3
100
AcDbCircle
 10
1772.769176754122
 20
327.8151859213846
 30
0.0
 40
0.5200000000000165
100
AcDbArc
 50
170.5499999999997
 51
350.5499999999998
  0
LINE
  5
19EB
330
1F
100
AcDbEntity
  8
0
 62
     3
100
AcDbLine
 10
1680.922443964633
 20
315.2505007177223
 30
0.0
 11
1687.722443964633
 21
315.2505007177223
 31
0.0
  0
LINE
  5
19EC
330
1F
100
AcDbEntity
  8
0
 62
     3
100
AcDbLine
 10
1680.922443964633
 20
205.2505007177224
 30
0.0
 11
1687.722443964633
 21
205.2505007177224
 31
0.0
  0
LINE
  5
19ED
330
1F
100
AcDbEntity
  8
0
 62
     3
100
AcDbLine
 10
1713.050650992525
 20
315.2505007177223
 30
0.0
 11
1819.050650992525
 21
315.2505007177223
 31
0.0
  0
LINE
  5
19EE
330
1F
100
AcDbEntity
  8
0
 62
     3
100
AcDbLine
 10
1713.050650992525
 20
205.2505007177224
 30
0.0
 11
1736.050650992525
 21
205.2505007177224
 31
0.0
  0
LINE
  5
19F1
330
1F
100
AcDbEntity
  8
0
 62
     3
100
AcDbLine
 10
1680.922443964633
 20
205.2505007177224
 30
0.0
 11
1680.922443964633
 21
315.2505007177223
 31
0.0
  0
LINE
  5
19F2
330
1F
100
AcDbEntity
  8
0
 62
     3
100
AcDbLine
 10
1626.018536885935
 20
262.0505007177224
 30
0.0
 11
1626.018536885935
 21
292.4505007177224
 31
0.0
  0
LINE
  5
19F3
330
1F
100
AcDbEntity
  8
0
 62
     3
100
AcDbLine
 10
1550.018536885935
 20
292.4505007177224
 30
0.0
 11
1550.018536885935
 21
262.0505007177224
 31
0.0
  0
LINE
  5
19F4
330
1F
100
AcDbEntity
  8
0
 62
     3
100
AcDbLine
 10
1626.018536885935
 20
292.4505007177224
 30
0.0
 11
1550.018536885935
 21
292.4505007177224
 31
0.0
  0
LINE
  5
19F5
330
1F
100
AcDbEntity
  8
0
 62
     3
100
AcDbLine
 10
1626.018536885935
 20
262.0505007177224
 30
0.0
 11
1550.018536885935
 21
262.0505007177224
 31
0.0
  0
LINE
  5
19F7
330
1F
100
AcDbEntity
  8
0
 62
     3
100
AcDbLine
 10
1678.922443964633
 20
292.4505007177224
 30
0.0
 11
1680.922443964633
 21
292.4505007177224
 31
0.0
  0
LINE
  5
19F8
330
1F
100
AcDbEntity
  8
0
 62
     3
100
AcDbLine
 10
1680.922443964633
 20
262.0505007177224
 30
0.0
 11
1678.922443964633
 21
262.0505007177224
 31
0.0
  0
LINE
  5
19F9
330
1F
100
AcDbEntity
  8
0
 62
     3
100
AcDbLine
 10
1624.018536885935
 20
258.0505007177224
 30
0.0
 11
1552.018536885935
 21
258.0505007177224
 31
0.0
  0
LINE
  5
19FA
330
1F
100
AcDbEntity
  8
0
 62
     3
100
AcDbLine
 10
1624.018536885935
 20
216.0505007177224
 30
0.0
 11
1552.018536885935
 21
216.0505007177224
 31
0.0
  0
LINE
  5
19FB
330
1F
100
AcDbEntity
  8
0
 62
     3
100
AcDbLine
 10
1627.018536885935
 20
255.0505007177224
 30
0.0
 11
1627.018536885935
 21
219.0505007177224
 31
0.0
  0
LINE
  5
19FC
330
1F
100
AcDbEntity
  8
0
 62
     3
100
AcDbLine
 10
1549.018536885935
 20
255.0505007177224
 30
0.0
 11
1549.018536885935
 21
219.0505007177224
 31
0.0
  0
ARC
  5
19FD
330
1F
100
AcDbEntity
  8
0
 62
     3
100
AcDbCircle
 10
1624.018536885935
 20
255.0505007177223
 30
0.0
 40
3.0
100
AcDbArc
 50
0.0
 51
90.0
  0
ARC
  5
19FE
330
1F
100
AcDbEntity
  8
0
 62
     3
100
AcDbCircle
 10
1552.018536885935
 20
255.0505007177223
 30
0.0
 40
3.0
100
AcDbArc
 50
90.0
 51
180.0
  0
ARC
  5
19FF
330
1F
100
AcDbEntity
  8
0
 62
     3
100
AcDbCircle
 10
1552.018536885935
 20
219.0505007177224
 30
0.0
 40
3.0
100
AcDbArc
 50
180.0
 51
270.0
  0
ARC
  5
1A00
330
1F
100
AcDbEntity
  8
0
 62
     3
100
AcDbCircle
 10
1624.018536885935
 20
219.0505007177223
 30
0.0
 40
3.0
100
AcDbArc
 50
270.0
 51
0.0
  0
LINE
  5
1A01
330
1F
100
AcDbEntity
  8
0
 62
     3
100
AcDbLine
 10
1680.922443964633
 20
258.0505007177224
 30
0.0
 11
1676.722443964633
 21
258.0505007177224
 31
0.0
  0
LINE
  5
1A02
330
1F
100
AcDbEntity
  8
0
 62
     3
100
AcDbLine
 10
1676.722443964633
 20
216.0505007177224
 30
0.0
 11
1680.922443964633
 21
216.0505007177224
 31
0.0
  0
LINE
  5
1A05
330
1F
100
AcDbEntity
  8
0
 62
     3
100
AcDbLine
 10
1686.922443964633
 20
206.8505007177224
 30
0.0
 11
1686.922443964633
 21
314.4505007177224
 31
0.0
  0
LINE
  5
1A0C
330
1F
100
AcDbEntity
  8
0
 62
     3
100
AcDbLine
 10
1687.722443964633
 20
205.2505007177224
 30
0.0
 11
1687.722443964633
 21
206.1505007177224
 31
0.0
  0
LINE
  5
1A0D
330
1F
100
AcDbEntity
  8
0
 62
     3
100
AcDbLine
 10
1681.922443964633
 20
217.6505007177224
 30
0.0
 11
1682.722443964633
 21
217.6505007177224
 31
0.0
  0
LINE
  5
1A0F
330
1F
100
AcDbEntity
  8
0
 62
     3
100
AcDbLine
 10
1686.722443964633
 20
206.8505007177224
 30
0.0
 11
1686.722443964633
 21
314.4505007177224
 31
0.0
  0
LINE
  5
1A10
330
1F
100
AcDbEntity
  8
0
 62
     3
100
AcDbLine
 10
1686.922443964633
 20
206.8505007177224
 30
0.0
 11
1686.722443964633
 21
206.8505007177224
 31
0.0
  0
LINE
  5
1A12
330
1F
100
AcDbEntity
  8
0
 62
     3
100
AcDbLine
 10
1682.722443964633
 20
206.8505007177224
 30
0.0
 11
1682.722443964633
 21
217.6505007177224
 31
0.0
  0
LINE
  5
1A15
330
1F
100
AcDbEntity
  8
0
 62
     3
100
AcDbLine
 10
1682.722443964633
 20
206.8505007177224
 30
0.0
 11
1682.922443964633
 21
206.8505007177224
 31
0.0
  0
LINE
  5
1A19
330
1F
100
AcDbEntity
  8
0
 62
     3
100
AcDbLine
 10
1681.722443964633
 20
314.4505007177224
 30
0.0
 11
1686.922443964633
 21
314.4505007177224
 31
0.0
  0
LINE
  5
1A1A
330
1F
100
AcDbEntity
  8
0
 62
     3
100
AcDbLine
 10
1683.722443964633
 20
313.6505007177224
 30
0.0
 11
1685.922443964633
 21
313.6505007177224
 31
0.0
  0
LINE
  5
1A1B
330
1F
100
AcDbEntity
  8
0
 62
     3
100
AcDbLine
 10
1728.050650992525
 20
260.2505007177224
 30
0.0
 11
1804.050650992525
 21
260.2505007177224
 31
0.0
  0
LINE
  5
1A1C
330
1F
100
AcDbEntity
  8
0
 62
     3
100
AcDbLine
 10
1728.050650992525
 20
229.8505007177224
 30
0.0
 11
1804.050650992525
 21
229.8505007177224
 31
0.0
  0
LINE
  5
1A1D
330
1F
100
AcDbEntity
  8
0
 62
     3
100
AcDbLine
 10
1728.050650992525
 20
260.2505007177224
 30
0.0
 11
1728.050650992525
 21
229.8505007177224
 31
0.0
  0
LINE
  5
1A1E
330
1F
100
AcDbEntity
  8
0
 62
     3
100
AcDbLine
 10
1804.050650992525
 20
229.8505007177224
 30
0.0
 11
1804.050650992525
 21
260.2505007177224
 31
0.0
  0
LINE
  5
1A22
330
1F
100
AcDbEntity
  8
0
 62
     3
100
AcDbLine
 10
1678.922443964633
 20
262.0505007177224
 30
0.0
 11
1678.922443964633
 21
292.4505007177224
 31
0.0
  0
LINE
  5
1A23
330
1F
100
AcDbEntity
  8
0
 62
     3
100
AcDbLine
 10
1687.722443964633
 20
205.2505007177224
 30
0.0
 11
1687.722443964633
 21
315.2505007177223
 31
0.0
  0
LINE
  5
1A24
330
1F
100
AcDbEntity
  8
0
 62
     3
100
AcDbLine
 10
1681.722443964633
 20
206.0505007177224
 30
0.0
 11
1687.722443964633
 21
206.0505007177224
 31
0.0
  0
LINE
  5
1A28
330
1F
100
AcDbEntity
  8
0
 62
     3
100
AcDbLine
 10
1681.722443964633
 20
206.0505007177224
 30
0.0
 11
1681.722443964633
 21
314.4505007177224
 31
0.0
  0
LINE
  5
1A29
330
1F
100
AcDbEntity
  8
0
 62
     3
100
AcDbLine
 10
1681.922443964633
 20
206.0505007177224
 30
0.0
 11
1681.922443964633
 21
217.6505007177224
 31
0.0
  0
LINE
  5
1A2B
330
1F
100
AcDbEntity
  8
0
 62
     3
100
AcDbLine
 10
1682.922443964633
 20
206.8505007177224
 30
0.0
 11
1682.922443964633
 21
314.4505007177224
 31
0.0
  0
LINE
  5
1A2C
330
1F
100
AcDbEntity
  8
0
 62
     3
100
AcDbLine
 10
1683.722443964633
 20
206.0505007177224
 30
0.0
 11
1683.722443964633
 21
313.6505007177224
 31
0.0
  0
LINE
  5
1A2E
330
1F
100
AcDbEntity
  8
0
 62
     3
100
AcDbLine
 10
1685.922443964633
 20
206.0505007177224
 30
0.0
 11
1685.922443964633
 21
313.6505007177224
 31
0.0
  0
LINE
  5
1A2F
330
1F
100
AcDbEntity
  8
0
 62
     3
100
AcDbLine
 10
1683.922443964632
 20
266.0505007177224
 30
0.0
 11
1685.922443964633
 21
266.0505007177224
 31
0.0
  0
LINE
  5
1A30
330
1F
100
AcDbEntity
  8
0
 62
     3
100
AcDbLine
 10
1683.922443964632
 20
296.4505007177224
 30
0.0
 11
1685.922443964633
 21
296.4505007177224
 31
0.0
  0
LINE
  5
1A31
330
1F
100
AcDbEntity
  8
0
 62
     3
100
AcDbLine
 10
1683.922443964632
 20
266.0505007177224
 30
0.0
 11
1683.922443964632
 21
296.4505007177224
 31
0.0
  0
LINE
  5
1A32
330
1F
100
AcDbEntity
  8
0
 62
     3
100
AcDbLine
 10
1683.722443964633
 20
223.0505007177224
 30
0.0
 11
1685.722443964633
 21
223.0505007177224
 31
0.0
  0
LINE
  5
1A33
330
1F
100
AcDbEntity
  8
0
 62
     3
100
AcDbLine
 10
1683.722443964633
 20
253.4505007177224
 30
0.0
 11
1685.722443964633
 21
253.4505007177224
 31
0.0
  0
LINE
  5
1A34
330
1F
100
AcDbEntity
  8
0
 62
     3
100
AcDbLine
 10
1685.722443964633
 20
223.0505007177224
 30
0.0
 11
1685.722443964633
 21
253.4505007177224
 31
0.0
  0
LINE
  5
1A35
330
1F
100
AcDbEntity
  8
0
 62
     3
100
AcDbLine
 10
1689.722443964633
 20
260.2505007177224
 30
0.0
 11
1687.722443964633
 21
260.2505007177224
 31
0.0
  0
LINE
  5
1A36
330
1F
100
AcDbEntity
  8
0
 62
     3
100
AcDbLine
 10
1689.722443964633
 20
229.8505007177224
 30
0.0
 11
1687.722443964633
 21
229.8505007177224
 31
0.0
  0
LINE
  5
1A37
330
1F
100
AcDbEntity
  8
0
 62
     3
100
AcDbLine
 10
1736.050650992525
 20
227.8505007177224
 30
0.0
 11
1741.050650992525
 21
227.8505007177224
 31
0.0
  0
LINE
  5
1A38
330
1F
100
AcDbEntity
  8
0
 62
     3
100
AcDbLine
 10
1736.050650992525
 20
227.8505007177224
 30
0.0
 11
1736.050650992525
 21
220.8505007177224
 31
0.0
  0
LINE
  5
1A3B
330
1F
100
AcDbEntity
  8
0
 62
     3
100
AcDbLine
 10
1741.050650992525
 20
227.8505007177224
 30
0.0
 11
1741.050650992525
 21
220.8505007177224
 31
0.0
  0
LINE
  5
1A3F
330
1F
100
AcDbEntity
  8
0
 62
     3
100
AcDbLine
 10
1618.018536885935
 20
216.0505007177224
 30
0.0
 11
1618.018536885935
 21
205.0505007177224
 31
0.0
  0
LINE
  5
1A40
330
1F
100
AcDbEntity
  8
0
 62
     3
100
AcDbLine
 10
1613.018536885935
 20
216.0505007177224
 30
0.0
 11
1613.018536885935
 21
205.0505007177224
 31
0.0
  0
LINE
  5
1A41
330
1F
100
AcDbEntity
  8
0
 62
     3
100
AcDbLine
 10
1558.018536885935
 20
216.0505007177224
 30
0.0
 11
1558.018536885935
 21
205.0505007177224
 31
0.0
  0
LINE
  5
1A42
330
1F
100
AcDbEntity
  8
0
 62
     3
100
AcDbLine
 10
1563.018536885935
 20
216.0505007177224
 30
0.0
 11
1563.018536885935
 21
205.0505007177224
 31
0.0
  0
LINE
  5
1A43
330
1F
100
AcDbEntity
  8
0
 62
     3
100
AcDbLine
 10
1618.018536885935
 20
205.0505007177224
 30
0.0
 11
1613.018536885935
 21
205.0505007177224
 31
0.0
  0
LINE
  5
1A44
330
1F
100
AcDbEntity
  8
0
 62
     3
100
AcDbLine
 10
1563.018536885935
 20
205.0505007177224
 30
0.0
 11
1558.018536885935
 21
205.0505007177224
 31
0.0
  0
LINE
  5
1A45
330
1F
100
AcDbEntity
  8
0
 62
     3
100
AcDbLine
 10
1558.018536885935
 20
205.2505007177224
 30
0.0
 11
1535.018536885934
 21
205.2505007177224
 31
0.0
  0
LINE
  5
1A46
330
1F
100
AcDbEntity
  8
0
 62
     3
100
AcDbLine
 10
1613.018536885935
 20
205.2505007177224
 30
0.0
 11
1563.018536885935
 21
205.2505007177224
 31
0.0
  0
LINE
  5
1A48
330
1F
100
AcDbEntity
  8
0
 62
     3
100
AcDbLine
 10
1680.522443964633
 20
205.0505007177224
 30
0.0
 11
1688.122443964633
 21
205.0505007177224
 31
0.0
  0
LINE
  5
1A4A
330
1F
100
AcDbEntity
  8
0
 62
     3
100
AcDbLine
 10
1680.522443964633
 20
205.0505007177224
 30
0.0
 11
1680.522443964633
 21
216.0505007177224
 31
0.0
  0
LINE
  5
1A4B
330
1F
100
AcDbEntity
  8
0
 62
     3
100
AcDbLine
 10
1688.122443964633
 20
205.0505007177224
 30
0.0
 11
1688.122443964633
 21
212.7505007177224
 31
0.0
  0
LINE
  5
1A4C
330
1F
100
AcDbEntity
  8
0
 62
     3
100
AcDbLine
 10
1688.122443964633
 20
227.8505007177224
 30
0.0
 11
1687.722443964633
 21
227.8505007177224
 31
0.0
  0
LINE
  5
1A93
330
1F
100
AcDbEntity
  8
0
 62
     3
100
AcDbLine
 10
1741.050650992525
 20
221.0505007177224
 30
0.0
 11
1736.050650992525
 21
221.0505007177224
 31
0.0
  0
LINE
  5
1A94
330
1F
100
AcDbEntity
  8
0
 62
     3
100
AcDbLine
 10
1741.150650992525
 20
220.8505007177223
 30
0.0
 11
1735.950650992525
 21
220.8505007177223
 31
0.0
  0
LINE
  5
1A95
330
1F
100
AcDbEntity
  8
0
 62
     3
100
AcDbLine
 10
1741.850650992525
 20
215.2505007177224
 30
0.0
 11
1735.250650992525
 21
215.2505007177224
 31
0.0
  0
LINE
  5
1A97
330
1F
100
AcDbEntity
  8
0
 62
     3
100
AcDbLine
 10
1735.950650992525
 20
215.2505007177224
 30
0.0
 11
1735.950650992525
 21
220.8505007177223
 31
0.0
  0
LINE
  5
1A98
330
1F
100
AcDbEntity
  8
0
 62
     3
100
AcDbLine
 10
1741.150650992525
 20
220.8505007177223
 30
0.0
 11
1741.150650992525
 21
215.2505007177224
 31
0.0
  0
LINE
  5
1A99
330
1F
100
AcDbEntity
  8
0
 62
     3
100
AcDbLine
 10
1741.150650992525
 20
214.8505007177224
 30
0.0
 11
1735.950650992525
 21
214.8505007177224
 31
0.0
  0
LINE
  5
1A9B
330
1F
100
AcDbEntity
  8
0
 62
     3
100
AcDbLine
 10
1741.150650992525
 20
213.1505007177224
 30
0.0
 11
1735.950650992525
 21
213.1505007177224
 31
0.0
  0
LINE
  5
1A9C
330
1F
100
AcDbEntity
  8
0
 62
     3
100
AcDbLine
 10
1741.850650992525
 20
212.7505007177224
 30
0.0
 11
1735.250650992525
 21
212.7505007177224
 31
0.0
  0
LINE
  5
1A9D
330
1F
100
AcDbEntity
  8
0
 62
     3
100
AcDbLine
 10
1741.850650992525
 20
212.7505007177224
 30
0.0
 11
1741.850650992525
 21
222.3505007177223
 31
0.0
  0
LINE
  5
1A9E
330
1F
100
AcDbEntity
  8
0
 62
     3
100
AcDbLine
 10
1735.250650992525
 20
212.7505007177224
 30
0.0
 11
1735.250650992525
 21
222.3505007177223
 31
0.0
  0
LINE
  5
1A9F
330
1F
100
AcDbEntity
  8
0
 62
     3
100
AcDbLine
 10
1735.950650992525
 20
214.8505007177224
 30
0.0
 11
1735.950650992525
 21
212.7505007177224
 31
0.0
  0
LINE
  5
1AA0
330
1F
100
AcDbEntity
  8
0
 62
     3
100
AcDbLine
 10
1741.150650992525
 20
214.8505007177224
 30
0.0
 11
1741.150650992525
 21
212.7505007177224
 31
0.0
  0
LINE
  5
1AA1
330
1F
100
AcDbEntity
  8
0
 62
     3
100
AcDbLine
 10
1741.050650992525
 20
212.7505007177224
 30
0.0
 11
1741.050650992525
 21
205.0505007177224
 31
0.0
  0
LINE
  5
1AA2
330
1F
100
AcDbEntity
  8
0
 62
     3
100
AcDbLine
 10
1736.050650992525
 20
212.7505007177224
 30
0.0
 11
1736.050650992525
 21
205.0505007177224
 31
0.0
  0
LINE
  5
1AA3
330
1F
100
AcDbEntity
  8
0
 62
     3
100
AcDbLine
 10
1741.050650992525
 20
214.8505007177224
 30
0.0
 11
1741.050650992525
 21
213.1505007177224
 31
0.0
  0
LINE
  5
1AA4
330
1F
100
AcDbEntity
  8
0
 62
     3
100
AcDbLine
 10
1736.050650992525
 20
214.8505007177224
 30
0.0
 11
1736.050650992525
 21
213.1505007177224
 31
0.0
  0
LINE
  5
1AA5
330
1F
100
AcDbEntity
  8
0
 62
     3
100
AcDbLine
 10
1741.850650992525
 20
222.3505007177223
 30
0.0
 11
1741.050650992525
 21
222.3505007177223
 31
0.0
  0
LINE
  5
1AA6
330
1F
100
AcDbEntity
  8
0
 62
     3
100
AcDbLine
 10
1736.050650992525
 20
222.3505007177223
 30
0.0
 11
1735.250650992525
 21
222.3505007177223
 31
0.0
  0
LINE
  5
1AA7
330
1F
100
AcDbEntity
  8
0
 62
     3
100
AcDbLine
 10
1736.050650992525
 20
205.0505007177224
 30
0.0
 11
1741.050650992525
 21
205.0505007177224
 31
0.0
  0
LINE
  5
1AA8
330
1F
100
AcDbEntity
  8
0
 62
     3
100
AcDbLine
 10
1741.050650992525
 20
205.2505007177224
 30
0.0
 11
1791.050650992525
 21
205.2505007177224
 31
0.0
  0
LINE
  5
1AA9
330
1F
100
AcDbEntity
  8
0
 62
     3
100
AcDbLine
 10
1791.050650992525
 20
205.0505007177224
 30
0.0
 11
1796.050650992525
 21
205.0505007177224
 31
0.0
  0
LINE
  5
1AAA
330
1F
100
AcDbEntity
  8
0
 62
     3
100
AcDbLine
 10
1791.050650992525
 20
227.8505007177224
 30
0.0
 11
1796.050650992525
 21
227.8505007177224
 31
0.0
  0
LINE
  5
1AAB
330
1F
100
AcDbEntity
  8
0
 62
     3
100
AcDbLine
 10
1791.050650992525
 20
227.8505007177224
 30
0.0
 11
1791.050650992525
 21
220.8505007177224
 31
0.0
  0
LINE
  5
1AAC
330
1F
100
AcDbEntity
  8
0
 62
     3
100
AcDbLine
 10
1791.050650992525
 20
214.8505007177224
 30
0.0
 11
1791.050650992525
 21
213.1505007177224
 31
0.0
  0
LINE
  5
1AAD
330
1F
100
AcDbEntity
  8
0
 62
     3
100
AcDbLine
 10
1791.050650992525
 20
212.7505007177224
 30
0.0
 11
1791.050650992525
 21
205.0505007177224
 31
0.0
  0
LINE
  5
1AAE
330
1F
100
AcDbEntity
  8
0
 62
     3
100
AcDbLine
 10
1796.050650992525
 20
227.8505007177224
 30
0.0
 11
1796.050650992525
 21
220.8505007177224
 31
0.0
  0
LINE
  5
1AAF
330
1F
100
AcDbEntity
  8
0
 62
     3
100
AcDbLine
 10
1796.050650992525
 20
214.8505007177224
 30
0.0
 11
1796.050650992525
 21
213.1505007177224
 31
0.0
  0
LINE
  5
1AB0
330
1F
100
AcDbEntity
  8
0
 62
     3
100
AcDbLine
 10
1796.050650992525
 20
212.7505007177224
 30
0.0
 11
1796.050650992525
 21
205.0505007177224
 31
0.0
  0
LINE
  5
1AB1
330
1F
100
AcDbEntity
  8
0
 62
     3
100
AcDbLine
 10
1796.050650992525
 20
221.0505007177224
 30
0.0
 11
1791.050650992525
 21
221.0505007177224
 31
0.0
  0
LINE
  5
1AB2
330
1F
100
AcDbEntity
  8
0
 62
     3
100
AcDbLine
 10
1796.150650992525
 20
220.8505007177223
 30
0.0
 11
1790.950650992525
 21
220.8505007177223
 31
0.0
  0
LINE
  5
1AB3
330
1F
100
AcDbEntity
  8
0
 62
     3
100
AcDbLine
 10
1796.850650992525
 20
215.2505007177224
 30
0.0
 11
1790.250650992525
 21
215.2505007177224
 31
0.0
  0
LINE
  5
1AB4
330
1F
100
AcDbEntity
  8
0
 62
     3
100
AcDbLine
 10
1796.150650992525
 20
213.1505007177224
 30
0.0
 11
1790.950650992525
 21
213.1505007177224
 31
0.0
  0
LINE
  5
1AB5
330
1F
100
AcDbEntity
  8
0
 62
     3
100
AcDbLine
 10
1796.850650992525
 20
212.7505007177224
 30
0.0
 11
1790.250650992525
 21
212.7505007177224
 31
0.0
  0
LINE
  5
1AB6
330
1F
100
AcDbEntity
  8
0
 62
     3
100
AcDbLine
 10
1796.850650992525
 20
222.3505007177223
 30
0.0
 11
1796.050650992525
 21
222.3505007177223
 31
0.0
  0
LINE
  5
1AB7
330
1F
100
AcDbEntity
  8
0
 62
     3
100
AcDbLine
 10
1791.050650992525
 20
222.3505007177223
 30
0.0
 11
1790.250650992525
 21
222.3505007177223
 31
0.0
  0
LINE
  5
1AB8
330
1F
100
AcDbEntity
  8
0
 62
     3
100
AcDbLine
 10
1796.150650992525
 20
214.8505007177224
 30
0.0
 11
1790.950650992525
 21
214.8505007177224
 31
0.0
  0
LINE
  5
1AB9
330
1F
100
AcDbEntity
  8
0
 62
     3
100
AcDbLine
 10
1790.250650992525
 20
212.7505007177224
 30
0.0
 11
1790.250650992525
 21
222.3505007177223
 31
0.0
  0
LINE
  5
1ABA
330
1F
100
AcDbEntity
  8
0
 62
     3
100
AcDbLine
 10
1796.850650992525
 20
212.7505007177224
 30
0.0
 11
1796.850650992525
 21
222.3505007177223
 31
0.0
  0
LINE
  5
1ABB
330
1F
100
AcDbEntity
  8
0
 62
     3
100
AcDbLine
 10
1796.150650992525
 20
220.8505007177223
 30
0.0
 11
1796.150650992525
 21
215.2505007177224
 31
0.0
  0
LINE
  5
1ABC
330
1F
100
AcDbEntity
  8
0
 62
     3
100
AcDbLine
 10
1790.950650992525
 20
215.2505007177224
 30
0.0
 11
1790.950650992525
 21
220.8505007177223
 31
0.0
  0
LINE
  5
1ABD
330
1F
100
AcDbEntity
  8
0
 62
     3
100
AcDbLine
 10
1790.950650992525
 20
214.8505007177224
 30
0.0
 11
1790.950650992525
 21
212.7505007177224
 31
0.0
  0
LINE
  5
1ABE
330
1F
100
AcDbEntity
  8
0
 62
     3
100
AcDbLine
 10
1796.150650992525
 20
214.8505007177224
 30
0.0
 11
1796.150650992525
 21
212.7505007177224
 31
0.0
  0
LINE
  5
1ABF
330
1F
100
AcDbEntity
  8
0
 62
     3
100
AcDbLine
 10
1796.050650992525
 20
205.2505007177224
 30
0.0
 11
1819.050650992525
 21
205.2505007177224
 31
0.0
  0
LINE
  5
1AC0
330
1F
100
AcDbEntity
  8
0
 62
     3
100
AcDbLine
 10
1689.722443964633
 20
222.3505007177223
 30
0.0
 11
1687.722443964633
 21
222.3505007177223
 31
0.0
  0
LINE
  5
1AC1
330
1F
100
AcDbEntity
  8
0
 62
     3
100
AcDbLine
 10
1689.722443964633
 20
212.7505007177224
 30
0.0
 11
1687.722443964633
 21
212.7505007177224
 31
0.0
  0
LINE
  5
1AC2
330
1F
100
AcDbEntity
  8
0
 62
     3
100
AcDbLine
 10
1689.722443964633
 20
212.7505007177224
 30
0.0
 11
1689.722443964633
 21
222.3505007177223
 31
0.0
  0
LINE
  5
1AC3
330
1F
100
AcDbEntity
  8
0
 62
     3
100
AcDbLine
 10
1688.122443964633
 20
222.3505007177223
 30
0.0
 11
1688.122443964633
 21
227.8505007177224
 31
0.0
  0
LINE
  5
1AC4
330
1F
100
AcDbEntity
  8
0
 62
     3
100
AcDbLine
 10
1687.722443964633
 20
215.2505007177224
 30
0.0
 11
1689.722443964633
 21
215.2505007177224
 31
0.0
  0
LINE
  5
1AC8
330
1F
100
AcDbEntity
  8
0
 62
     3
100
AcDbLine
 10
1620.62654141526
 20
205.8595130148774
 30
0.0
 11
1620.62654141526
 21
216.0505007177224
 31
0.0
  0
LINE
  5
1AC9
330
1F
100
AcDbEntity
  8
0
 62
     3
100
AcDbLine
 10
1619.226541415261
 20
205.8595130148774
 30
0.0
 11
1619.226541415261
 21
216.0505007177224
 31
0.0
  0
ARC
  5
1ACA
330
1F
100
AcDbEntity
  8
0
 62
     3
100
AcDbCircle
 10
1625.926541415261
 20
205.8595130148776
 30
0.0
 40
5.299999999999998
100
AcDbArc
 50
180.0
 51
270.0
  0
ARC
  5
1ACB
330
1F
100
AcDbEntity
  8
0
 62
     3
100
AcDbCircle
 10
1625.926541415261
 20
205.8595130148776
 30
0.0
 40
6.7
100
AcDbArc
 50
180.0
 51
270.0
  0
LINE
  5
1ACC
330
1F
100
AcDbEntity
  8
0
 62
     3
100
AcDbLine
 10
1625.926541415261
 20
200.5595130148775
 30
0.0
 11
1651.396463204309
 21
200.5595130148775
 31
0.0
  0
LINE
  5
1ACD
330
1F
100
AcDbEntity
  8
0
 62
     3
100
AcDbLine
 10
1625.926541415261
 20
199.1595130148774
 30
0.0
 11
1651.396463204309
 21
199.1595130148774
 31
0.0
  0
LINE
  5
1ACF
330
1F
100
AcDbEntity
  8
0
 62
     3
100
AcDbLine
 10
1658.196463204309
 20
201.8595130148774
 30
0.0
 11
1658.196463204309
 21
197.8595130148774
 31
0.0
  0
LINE
  5
1AD1
330
1F
100
AcDbEntity
  8
0
 62
     3
100
AcDbLine
 10
1654.59646320431
 20
201.8595130148774
 30
0.0
 11
1658.196463204309
 21
201.8595130148774
 31
0.0
  0
LINE
  5
1AD2
330
1F
100
AcDbEntity
  8
0
 62
     3
100
AcDbLine
 10
1654.59646320431
 20
197.8595130148774
 30
0.0
 11
1658.196463204309
 21
197.8595130148774
 31
0.0
  0
LINE
  5
1AD8
330
1F
100
AcDbEntity
  8
0
 62
     3
100
AcDbLine
 10
1654.19646320431
 20
201.1595130148775
 30
0.0
 11
1651.396463204309
 21
200.8595130148774
 31
0.0
  0
LINE
  5
1AD9
330
1F
100
AcDbEntity
  8
0
 62
     3
100
AcDbLine
 10
1651.396463204309
 20
200.8595130148774
 30
0.0
 11
1651.396463204309
 21
198.8595130148774
 31
0.0
  0
LINE
  5
1ADA
330
1F
100
AcDbEntity
  8
0
 62
     3
100
AcDbLine
 10
1651.396463204309
 20
198.8595130148774
 30
0.0
 11
1654.19646320431
 21
198.5595130148775
 31
0.0
  0
LINE
  5
1ADB
330
1F
100
AcDbEntity
  8
0
 62
     3
100
AcDbLine
 10
1654.59646320431
 20
201.8595130148774
 30
0.0
 11
1654.19646320431
 21
201.1595130148775
 31
0.0
  0
LINE
  5
1ADC
330
1F
100
AcDbEntity
  8
0
 62
     3
100
AcDbLine
 10
1654.19646320431
 20
201.1595130148775
 30
0.0
 11
1654.19646320431
 21
198.5595130148775
 31
0.0
  0
LINE
  5
1ADD
330
1F
100
AcDbEntity
  8
0
 62
     3
100
AcDbLine
 10
1654.19646320431
 20
198.5595130148775
 30
0.0
 11
1654.59646320431
 21
197.8595130148774
 31
0.0
  0
LINE
  5
1ADE
330
1F
100
AcDbEntity
  8
0
 62
     3
100
AcDbLine
 10
1654.59646320431
 20
201.8595130148774
 30
0.0
 11
1654.59646320431
 21
197.8595130148774
 31
0.0
  0
LINE
  5
1ADF
330
1F
100
AcDbEntity
  8
0
 62
     3
100
AcDbLine
 10
1659.796463204309
 20
201.4395130148775
 30
0.0
 11
1659.796463204309
 21
199.9195130148775
 31
0.0
  0
LINE
  5
1AE0
330
1F
100
AcDbEntity
  8
0
 62
     3
100
AcDbLine
 10
1658.196463204309
 20
199.7995130148775
 30
0.0
 11
1659.796463204309
 21
199.7995130148775
 31
0.0
  0
LINE
  5
1AE1
330
1F
100
AcDbEntity
  8
0
 62
     3
100
AcDbLine
 10
1658.196463204309
 20
199.9195130148775
 30
0.0
 11
1659.796463204309
 21
199.9195130148775
 31
0.0
  0
LINE
  5
1AE3
330
1F
100
AcDbEntity
  8
0
 62
     3
100
AcDbLine
 10
1658.196463204309
 20
201.4395130148775
 30
0.0
 11
1659.796463204309
 21
201.4395130148775
 31
0.0
  0
LINE
  5
1AE5
330
1F
100
AcDbEntity
  8
0
 62
     3
100
AcDbLine
 10
1658.196463204309
 20
198.2795130148774
 30
0.0
 11
1659.796463204309
 21
198.2795130148774
 31
0.0
  0
LINE
  5
1AE6
330
1F
100
AcDbEntity
  8
0
 62
     3
100
AcDbLine
 10
1658.196463204309
 20
201.2595130148775
 30
0.0
 11
1659.796463204309
 21
201.2595130148775
 31
0.0
  0
LINE
  5
1AE7
330
1F
100
AcDbEntity
  8
0
 62
     3
100
AcDbLine
 10
1658.196463204309
 20
200.0995130148774
 30
0.0
 11
1659.796463204309
 21
200.0995130148774
 31
0.0
  0
LINE
  5
1AE8
330
1F
100
AcDbEntity
  8
0
 62
     3
100
AcDbLine
 10
1658.196463204309
 20
199.6195130148774
 30
0.0
 11
1659.796463204309
 21
199.6195130148774
 31
0.0
  0
LINE
  5
1AE9
330
1F
100
AcDbEntity
  8
0
 62
     3
100
AcDbLine
 10
1658.196463204309
 20
198.4595130148774
 30
0.0
 11
1659.796463204309
 21
198.4595130148774
 31
0.0
  0
LINE
  5
1AEA
330
1F
100
AcDbEntity
  8
0
 62
     3
100
AcDbLine
 10
1659.796463204309
 20
199.7995130148775
 30
0.0
 11
1659.796463204309
 21
198.2795130148774
 31
0.0
  0
LINE
  5
1AEB
330
1F
100
AcDbEntity
  8
0
 62
     3
100
AcDbLine
 10
1619.254277629865
 20
205.2505007177224
 30
0.0
 11
1618.018536885935
 21
205.2505007177224
 31
0.0
  0
LINE
  5
1B30
330
1F
100
AcDbEntity
  8
0
 62
     3
100
AcDbLine
 10
1781.967252852879
 20
168.9799136900828
 30
0.0
 11
1551.967252852879
 21
168.9799136900828
 31
0.0
  0
LINE
  5
1B31
330
1F
100
AcDbEntity
  8
0
 62
     3
100
AcDbLine
 10
1551.967252852879
 20
115.9799136900828
 30
0.0
 11
1551.967252852879
 21
168.9799136900828
 31
0.0
  0
LINE
  5
1B32
330
1F
100
AcDbEntity
  8
0
 62
     3
100
AcDbLine
 10
1781.967252852879
 20
115.9799136900828
 30
0.0
 11
1551.967252852879
 21
115.9799136900828
 31
0.0
  0
LINE
  5
1B33
330
1F
100
AcDbEntity
  8
0
 62
     3
100
AcDbLine
 10
1556.767252852879
 20
115.9799136900828
 30
0.0
 11
1556.767252852879
 21
168.9799136900828
 31
0.0
  0
LINE
  5
1B34
330
1F
100
AcDbEntity
  8
0
 62
     3
100
AcDbLine
 10
1608.467252852879
 20
115.9799136900828
 30
0.0
 11
1608.467252852879
 21
168.9799136900828
 31
0.0
  0
LINE
  5
1B35
330
1F
100
AcDbEntity
  8
0
 62
     3
100
AcDbLine
 10
1612.967252852879
 20
115.9799136900828
 30
0.0
 11
1612.967252852879
 21
168.9799136900828
 31
0.0
  0
LINE
  5
1B36
330
1F
100
AcDbEntity
  8
0
 62
     3
100
AcDbLine
 10
1664.567252852879
 20
115.9799136900828
 30
0.0
 11
1664.567252852879
 21
168.9799136900828
 31
0.0
  0
LINE
  5
1B37
330
1F
100
AcDbEntity
  8
0
 62
     3
100
AcDbLine
 10
1667.967252852879
 20
115.9799136900828
 30
0.0
 11
1667.967252852879
 21
168.9799136900828
 31
0.0
  0
LINE
  5
1B38
330
1F
100
AcDbEntity
  8
0
 62
     3
100
AcDbLine
 10
1719.467252852879
 20
115.9799136900828
 30
0.0
 11
1719.467252852879
 21
168.9799136900828
 31
0.0
  0
LINE
  5
1B39
330
1F
100
AcDbEntity
  8
0
 62
     3
100
AcDbLine
 10
1722.667252852879
 20
115.9799136900828
 30
0.0
 11
1722.667252852879
 21
168.9799136900828
 31
0.0
  0
LINE
  5
1B3A
330
1F
100
AcDbEntity
  8
0
 62
     3
100
AcDbLine
 10
1774.167252852879
 20
115.9799136900828
 30
0.0
 11
1774.167252852879
 21
168.9799136900828
 31
0.0
  0
LINE
  5
1B3B
330
1F
100
AcDbEntity
  8
0
 62
     3
100
AcDbLine
 10
1781.967252852879
 20
115.9799136900828
 30
0.0
 11
1781.967252852879
 21
168.9799136900828
 31
0.0
  0
CIRCLE
  5
1B5B
330
1F
100
AcDbEntity
  8
0
 62
     3
100
AcDbCircle
 10
1553.567252852879
 20
166.4799136900828
 30
0.0
 40
0.6000000000000001
  0
CIRCLE
  5
1B5C
330
1F
100
AcDbEntity
  8
0
 62
     3
100
AcDbCircle
 10
1553.567252852879
 20
166.4799136900828
 30
0.0
 40
1.1
  0
CIRCLE
  5
1B5D
330
1F
100
AcDbEntity
  8
0
 62
     3
100
AcDbCircle
 10
1553.567252852879
 20
118.4799136900828
 30
0.0
 40
0.6000000000000001
  0
CIRCLE
  5
1B5E
330
1F
100
AcDbEntity
  8
0
 62
     3
100
AcDbCircle
 10
1553.567252852879
 20
118.4799136900828
 30
0.0
 40
1.1
  0
CIRCLE
  5
1B60
330
1F
100
AcDbEntity
  8
0
 62
     3
100
AcDbCircle
 10
1780.367252852879
 20
166.4799136900828
 30
0.0
 40
0.6000000000000001
  0
CIRCLE
  5
1B61
330
1F
100
AcDbEntity
  8
0
 62
     3
100
AcDbCircle
 10
1780.367252852879
 20
166.4799136900828
 30
0.0
 40
1.1
  0
CIRCLE
  5
1B62
330
1F
100
AcDbEntity
  8
0
 62
     3
100
AcDbCircle
 10
1780.367252852879
 20
118.4799136900828
 30
0.0
 40
0.6000000000000001
  0
CIRCLE
  5
1B63
330
1F
100
AcDbEntity
  8
0
 62
     3
100
AcDbCircle
 10
1780.367252852879
 20
118.4799136900828
 30
0.0
 40
1.1
  0
LINE
  5
1B64
330
1F
100
AcDbEntity
  8
0
 62
     3
100
AcDbLine
 10
1774.167252852879
 20
167.7799136900828
 30
0.0
 11
1722.667252852879
 21
167.7799136900828
 31
0.0
  0
LINE
  5
1B65
330
1F
100
AcDbEntity
  8
0
 62
     3
100
AcDbLine
 10
1774.167252852879
 20
117.1799136900828
 30
0.0
 11
1722.667252852879
 21
117.1799136900828
 31
0.0
  0
LINE
  5
1B66
330
1F
100
AcDbEntity
  8
0
 62
     3
100
AcDbLine
 10
1608.467252852879
 20
117.1799136900828
 30
0.0
 11
1556.767252852879
 21
117.1799136900828
 31
0.0
  0
LINE
  5
1B67
330
1F
100
AcDbEntity
  8
0
 62
     3
100
AcDbLine
 10
1664.567252852879
 20
117.1799136900828
 30
0.0
 11
1612.967252852879
 21
117.1799136900828
 31
0.0
  0
LINE
  5
1B68
330
1F
100
AcDbEntity
  8
0
 62
     3
100
AcDbLine
 10
1719.467252852879
 20
117.1799136900828
 30
0.0
 11
1667.967252852879
 21
117.1799136900828
 31
0.0
  0
LINE
  5
1B69
330
1F
100
AcDbEntity
  8
0
 62
     3
100
AcDbLine
 10
1719.467252852879
 20
167.7799136900828
 30
0.0
 11
1667.967252852879
 21
167.7799136900828
 31
0.0
  0
LINE
  5
1B6A
330
1F
100
AcDbEntity
  8
0
 62
     3
100
AcDbLine
 10
1664.567252852879
 20
167.7799136900828
 30
0.0
 11
1612.967252852879
 21
167.7799136900828
 31
0.0
  0
LINE
  5
1B6B
330
1F
100
AcDbEntity
  8
0
 62
     3
100
AcDbLine
 10
1608.467252852879
 20
167.7799136900828
 30
0.0
 11
1556.767252852879
 21
167.7799136900828
 31
0.0
  0
TEXT
  5
1D4A
330
1F
100
AcDbEntity
  8
0
 62
     3
100
AcDbText
 10
1822.829563987562
 20
156.3685509743988
 30
0.0
 40
3.2
  1
充電時間
  7
高3.2
100
AcDbText
  0
TEXT
  5
1D4B
330
1F
100
AcDbEntity
  8
0
 62
     3
100
AcDbText
 10
1849.188790170776
 20
156.3685509743988
 30
0.0
 40
3.2
  1
12時間
  7
高3.2
100
AcDbText
  0
LINE
  5
1D4C
330
1F
100
AcDbEntity
  8
0
100
AcDbLine
 10
1821.329563987562
 20
171.8685509743987
 30
0.0
 11
1879.974824551237
 21
171.8685509743987
 31
0.0
  0
TEXT
  5
1D4D
330
1F
100
AcDbEntity
  8
0
 62
     3
100
AcDbText
 10
1822.829563987562
 20
167.3685509743988
 30
0.0
 40
3.2
  1
適応機種
  7
高3.2
100
AcDbText
  0
TEXT
  5
1D4E
330
1F
100
AcDbEntity
  8
0
 62
     3
100
AcDbText
 10
1849.188790170776
 20
167.3685509743988
 30
0.0
 40
3.2
  1
LPE-R1000L
  7
高3.2
100
AcDbText
  0
TEXT
  5
1F22
330
1F
100
AcDbEntity
  8
0
 62
     7
100
AcDbText
 10
1821.935776623508
 20
141.4543887936236
 30
0.0
 40
2.5
  1
注３）仕様変更は予告なく行う場合があります。予めご了承ください。
 41
0.8
  7
高2.5
100
AcDbText
  0
TEXT
  5
1F23
330
1F
100
AcDbEntity
  8
0
 62
     7
100
AcDbText
 10
1821.935776623508
 20
147.4543887936236
 30
0.0
 40
2.5
  1
　　　雨や湿気の多い場所で、接続および充電しないでください。
 41
0.8
  7
高2.5
100
AcDbText
  0
TEXT
  5
205A
330
1F
100
AcDbEntity
  8
0
 62
     4
100
AcDbText
 10
1644.048417889124
 20
190.7228422922744
 30
0.0
 40
3.0
  1
AWM2464 VW-1 14AWG
 41
0.8
100
AcDbText
1001
ACAD
1000
MTEXTBEGIN
1070
    73
1070
     1
1070
    44
1040
1.0
1070
    74
1070
     0
1000
MTEXTEND
  0
TEXT
  5
205B
330
1F
100
AcDbEntity
  8
0
 62
     4
100
AcDbText
 10
1644.048417889124
 20
185.7228422922744
 30
0.0
 40
3.0
  1
2.9M 先端(アンダーソンプラグ)
 41
0.8
100
AcDbText
1001
ACAD
1000
MTEXTBEGIN
1070
    73
1070
     1
1070
    44
1040
1.0
1070
    74
1070
     0
1000
MTEXTEND
  0
LINE
  5
205E
330
1F
100
AcDbEntity
  8
0
100
AcDbLine
 10
1689.722443964633
 20
260.5005007177224
 30
0.0
 11
1689.722443964633
 21
339.4784343724923
 31
0.0
  0
LINE
  5
205F
330
1F
100
AcDbEntity
  8
0
100
AcDbLine
 10
1676.722443964633
 20
258.3005007177224
 30
0.0
 11
1676.722443964633
 21
339.4784343724923
 31
0.0
  0
LINE
  5
2060
330
1F
100
AcDbEntity
  8
0
100
AcDbLine
 10
1687.222443964633
 20
338.2284343724923
 30
0.0
 11
1679.222443964633
 21
338.2284343724923
 31
0.0
  0
LINE
  5
2064
330
1F
100
AcDbEntity
  8
0
100
AcDbLine
 10
1641.018536885935
 20
315.5005007177223
 30
0.0
 11
1641.018536885935
 21
340.335133674469
 31
0.0
  0
LINE
  5
2065
330
1F
100
AcDbEntity
  8
0
100
AcDbLine
 10
1535.018536885934
 20
315.5005007177223
 30
0.0
 11
1535.018536885934
 21
340.335133674469
 31
0.0
  0
LINE
  5
2066
330
1F
100
AcDbEntity
  8
0
100
AcDbLine
 10
1638.518536885935
 20
339.085133674469
 30
0.0
 11
1537.518536885934
 21
339.085133674469
 31
0.0
  0
LINE
  5
206A
330
1F
100
AcDbEntity
  8
0
100
AcDbLine
 10
1534.768536885934
 20
315.2505007177223
 30
0.0
 11
1525.982025744919
 21
315.2505007177223
 31
0.0
  0
LINE
  5
206B
330
1F
100
AcDbEntity
  8
0
100
AcDbLine
 10
1534.768536885934
 20
205.2505007177224
 30
0.0
 11
1525.982025744919
 21
205.2505007177224
 31
0.0
  0
LINE
  5
206C
330
1F
100
AcDbEntity
  8
0
100
AcDbLine
 10
1527.232025744919
 20
312.7505007177223
 30
0.0
 11
1527.232025744919
 21
207.7505007177224
 31
0.0
  0
LINE
  5
2070
330
1F
100
AcDbEntity
  8
0
100
AcDbLine
 10
1551.717252852879
 20
168.9799136900828
 30
0.0
 11
1541.370088658869
 21
168.9799136900828
 31
0.0
  0
LINE
  5
2071
330
1F
100
AcDbEntity
  8
0
100
AcDbLine
 10
1551.717252852879
 20
115.9799136900828
 30
0.0
 11
1541.370088658869
 21
115.9799136900828
 31
0.0
  0
LINE
  5
2072
330
1F
100
AcDbEntity
  8
0
100
AcDbLine
 10
1542.620088658869
 20
166.4799136900828
 30
0.0
 11
1542.620088658869
 21
118.4799136900828
 31
0.0
  0
LINE
  5
2076
330
1F
100
AcDbEntity
  8
0
100
AcDbLine
 10
1781.967252852879
 20
169.2299136900828
 30
0.0
 11
1781.967252852879
 21
176.771261482584
 31
0.0
  0
LINE
  5
2077
330
1F
100
AcDbEntity
  8
0
100
AcDbLine
 10
1551.967252852879
 20
169.2299136900828
 30
0.0
 11
1551.967252852879
 21
176.771261482584
 31
0.0
  0
LINE
  5
2078
330
1F
100
AcDbEntity
  8
0
100
AcDbLine
 10
1779.467252852879
 20
175.521261482584
 30
0.0
 11
1554.467252852879
 21
175.521261482584
 31
0.0
  0
LINE
  5
207C
330
1F
100
AcDbEntity
  8
0
100
AcDbLine
 10
1639.436540719284
 20
196.78268414771
 30
0.0
 11
1640.923417889124
 21
192.2228422922744
 31
0.0
1001
ACAD
1000
DSTYLE
1002
{
1070
   147
1040
0.625
1070
    77
1070
     0
1002
}
  0
LINE
  5
207D
330
1F
100
AcDbEntity
  8
0
100
AcDbLine
 10
1640.923417889124
 20
192.2228422922744
 30
0.0
 11
1643.423417889124
 21
192.2228422922744
 31
0.0
1001
ACAD
1000
DSTYLE
1002
{
1070
   147
1040
0.625
1070
    77
1070
     0
1002
}
  0
LINE
  5
207E
330
1F
100
AcDbEntity
  8
0
  6
ByBlock
 62
     0
370
    -2
100
AcDbLine
 10
1638.799671801156
 20
196.575013380923
 30
0.0
 11
1638.661502309785
 21
199.1595130148774
 31
0.0
  0
LINE
  5
207F
330
1F
100
AcDbEntity
  8
0
  6
ByBlock
 62
     0
370
    -2
100
AcDbLine
 10
1638.661502309785
 20
199.1595130148774
 30
0.0
 11
1640.073409637413
 21
196.990354914497
 31
0.0
  0
LINE
  5
2080
330
1F
100
AcDbEntity
  8
0
  6
ByBlock
 62
     0
370
    -2
100
AcDbLine
 10
1638.661502309785
 20
199.1595130148774
 30
0.0
 11
1639.436540719284
 21
196.78268414771
 31
0.0
  0
TEXT
  5
2081
330
1F
100
AcDbEntity
  8
0
 62
     4
100
AcDbText
 10
1680.722443964633
 20
338.8534343724923
 30
0.0
 40
3.0
  1
65
100
AcDbText
  0
LINE
  5
2082
330
1F
100
AcDbEntity
  8
0
  6
ByBlock
 62
     0
370
    -2
100
AcDbLine
 10
1679.222443964633
 20
337.5585618724923
 30
0.0
 11
1676.722443964633
 21
338.2284343724923
 31
0.0
  0
LINE
  5
2083
330
1F
100
AcDbEntity
  8
0
  6
ByBlock
 62
     0
370
    -2
100
AcDbLine
 10
1676.722443964633
 20
338.2284343724923
 30
0.0
 11
1679.222443964633
 21
338.8983068724923
 31
0.0
  0
LINE
  5
2084
330
1F
100
AcDbEntity
  8
0
  6
ByBlock
 62
     0
370
    -2
100
AcDbLine
 10
1676.722443964633
 20
338.2284343724923
 30
0.0
 11
1679.222443964633
 21
338.2284343724923
 31
0.0
  0
LINE
  5
2085
330
1F
100
AcDbEntity
  8
0
  6
ByBlock
 62
     0
370
    -2
100
AcDbLine
 10
1687.222443964633
 20
338.8983068724923
 30
0.0
 11
1689.722443964633
 21
338.2284343724923
 31
0.0
  0
LINE
  5
2086
330
1F
100
AcDbEntity
  8
0
  6
ByBlock
 62
     0
370
    -2
100
AcDbLine
 10
1689.722443964633
 20
338.2284343724923
 30
0.0
 11
1687.222443964633
 21
337.5585618724923
 31
0.0
  0
LINE
  5
2087
330
1F
100
AcDbEntity
  8
0
  6
ByBlock
 62
     0
370
    -2
100
AcDbLine
 10
1689.722443964633
 20
338.2284343724923
 30
0.0
 11
1687.222443964633
 21
338.2284343724923
 31
0.0
  0
TEXT
  5
2088
330
1F
100
AcDbEntity
  8
0
 62
     4
100
AcDbText
 10
1584.726334706087
 20
339.710133674469
 30
0.0
 40
3.0
  1
530
100
AcDbText
  0
LINE
  5
2089
330
1F
100
AcDbEntity
  8
0
  6
ByBlock
 62
     0
370
    -2
100
AcDbLine
 10
1537.518536885934
 20
338.415261174469
 30
0.0
 11
1535.018536885934
 21
339.085133674469
 31
0.0
  0
LINE
  5
208A
330
1F
100
AcDbEntity
  8
0
  6
ByBlock
 62
     0
370
    -2
100
AcDbLine
 10
1535.018536885934
 20
339.085133674469
 30
0.0
 11
1537.518536885934
 21
339.755006174469
 31
0.0
  0
LINE
  5
208B
330
1F
100
AcDbEntity
  8
0
  6
ByBlock
 62
     0
370
    -2
100
AcDbLine
 10
1535.018536885934
 20
339.085133674469
 30
0.0
 11
1537.518536885934
 21
339.085133674469
 31
0.0
  0
LINE
  5
208C
330
1F
100
AcDbEntity
  8
0
  6
ByBlock
 62
     0
370
    -2
100
AcDbLine
 10
1638.518536885935
 20
339.755006174469
 30
0.0
 11
1641.018536885935
 21
339.085133674469
 31
0.0
  0
LINE
  5
208D
330
1F
100
AcDbEntity
  8
0
  6
ByBlock
 62
     0
370
    -2
100
AcDbLine
 10
1641.018536885935
 20
339.085133674469
 30
0.0
 11
1638.518536885935
 21
338.415261174469
 31
0.0
  0
LINE
  5
208E
330
1F
100
AcDbEntity
  8
0
  6
ByBlock
 62
     0
370
    -2
100
AcDbLine
 10
1641.018536885935
 20
339.085133674469
 30
0.0
 11
1638.518536885935
 21
339.085133674469
 31
0.0
  0
TEXT
  5
208F
330
1F
100
AcDbEntity
  8
0
 62
     4
100
AcDbText
 10
1526.607025744919
 20
255.802256646748
 30
0.0
 40
3.0
  1
550
 50
90.0
100
AcDbText
  0
LINE
  5
2090
330
1F
100
AcDbEntity
  8
0
  6
ByBlock
 62
     0
370
    -2
100
AcDbLine
 10
1527.901898244919
 20
207.7505007177224
 30
0.0
 11
1527.232025744919
 21
205.2505007177224
 31
0.0
  0
LINE
  5
2091
330
1F
100
AcDbEntity
  8
0
  6
ByBlock
 62
     0
370
    -2
100
AcDbLine
 10
1527.232025744919
 20
205.2505007177224
 30
0.0
 11
1526.562153244919
 21
207.7505007177224
 31
0.0
  0
LINE
  5
2092
330
1F
100
AcDbEntity
  8
0
  6
ByBlock
 62
     0
370
    -2
100
AcDbLine
 10
1527.232025744919
 20
205.2505007177224
 30
0.0
 11
1527.232025744919
 21
207.7505007177224
 31
0.0
  0
LINE
  5
2093
330
1F
100
AcDbEntity
  8
0
  6
ByBlock
 62
     0
370
    -2
100
AcDbLine
 10
1526.562153244919
 20
312.7505007177223
 30
0.0
 11
1527.232025744919
 21
315.2505007177223
 31
0.0
  0
LINE
  5
2094
330
1F
100
AcDbEntity
  8
0
  6
ByBlock
 62
     0
370
    -2
100
AcDbLine
 10
1527.232025744919
 20
315.2505007177223
 30
0.0
 11
1527.901898244919
 21
312.7505007177223
 31
0.0
  0
LINE
  5
2095
330
1F
100
AcDbEntity
  8
0
  6
ByBlock
 62
     0
370
    -2
100
AcDbLine
 10
1527.232025744919
 20
315.2505007177223
 30
0.0
 11
1527.232025744919
 21
312.7505007177223
 31
0.0
  0
TEXT
  5
2096
330
1F
100
AcDbEntity
  8
0
 62
     4
100
AcDbText
 10
1541.995088658869
 20
138.0575092964782
 30
0.0
 40
3.0
  1
530
 50
90.0
100
AcDbText
  0
LINE
  5
2097
330
1F
100
AcDbEntity
  8
0
  6
ByBlock
 62
     0
370
    -2
100
AcDbLine
 10
1543.289961158869
 20
118.4799136900828
 30
0.0
 11
1542.620088658869
 21
115.9799136900828
 31
0.0
  0
LINE
  5
2098
330
1F
100
AcDbEntity
  8
0
  6
ByBlock
 62
     0
370
    -2
100
AcDbLine
 10
1542.620088658869
 20
115.9799136900828
 30
0.0
 11
1541.950216158869
 21
118.4799136900828
 31
0.0
  0
LINE
  5
2099
330
1F
100
AcDbEntity
  8
0
  6
ByBlock
 62
     0
370
    -2
100
AcDbLine
 10
1542.620088658869
 20
115.9799136900828
 30
0.0
 11
1542.620088658869
 21
118.4799136900828
 31
0.0
  0
LINE
  5
209A
330
1F
100
AcDbEntity
  8
0
  6
ByBlock
 62
     0
370
    -2
100
AcDbLine
 10
1541.950216158869
 20
166.4799136900828
 30
0.0
 11
1542.620088658869
 21
168.9799136900828
 31
0.0
  0
LINE
  5
209B
330
1F
100
AcDbEntity
  8
0
  6
ByBlock
 62
     0
370
    -2
100
AcDbLine
 10
1542.620088658869
 20
168.9799136900828
 30
0.0
 11
1543.289961158869
 21
166.4799136900828
 31
0.0
  0
LINE
  5
209C
330
1F
100
AcDbEntity
  8
0
  6
ByBlock
 62
     0
370
    -2
100
AcDbLine
 10
1542.620088658869
 20
168.9799136900828
 30
0.0
 11
1542.620088658869
 21
166.4799136900828
 31
0.0
  0
TEXT
  5
209D
330
1F
100
AcDbEntity
  8
0
 62
     4
100
AcDbText
 10
1642.945933068981
 20
176.146261482584
 30
0.0
 40
3.0
  1
2300(展開寸法)
100
AcDbText
  0
LINE
  5
209E
330
1F
100
AcDbEntity
  8
0
  6
ByBlock
 62
     0
370
    -2
100
AcDbLine
 10
1554.467252852879
 20
174.851388982584
 30
0.0
 11
1551.967252852879
 21
175.521261482584
 31
0.0
  0
LINE
  5
209F
330
1F
100
AcDbEntity
  8
0
  6
ByBlock
 62
     0
370
    -2
100
AcDbLine
 10
1551.967252852879
 20
175.521261482584
 30
0.0
 11
1554.467252852879
 21
176.191133982584
 31
0.0
  0
LINE
  5
20A0
330
1F
100
AcDbEntity
  8
0
  6
ByBlock
 62
     0
370
    -2
100
AcDbLine
 10
1551.967252852879
 20
175.521261482584
 30
0.0
 11
1554.467252852879
 21
175.521261482584
 31
0.0
  0
LINE
  5
20A1
330
1F
100
AcDbEntity
  8
0
  6
ByBlock
 62
     0
370
    -2
100
AcDbLine
 10
1779.467252852879
 20
176.191133982584
 30
0.0
 11
1781.967252852879
 21
175.521261482584
 31
0.0
  0
LINE
  5
20A2
330
1F
100
AcDbEntity
  8
0
  6
ByBlock
 62
     0
370
    -2
100
AcDbLine
 10
1781.967252852879
 20
175.521261482584
 30
0.0
 11
1779.467252852879
 21
174.851388982584
 31
0.0
  0
LINE
  5
20A3
330
1F
100
AcDbEntity
  8
0
  6
ByBlock
 62
     0
370
    -2
100
AcDbLine
 10
1781.967252852879
 20
175.521261482584
 30
0.0
 11
1779.467252852879
 21
175.521261482584
 31
0.0
  0
ENDSEC
  0
SECTION
  2
OBJECTS
  0
DICTIONARY
  5
C
330
0
100
AcDbDictionary
281
     1
  3
ACAD_2007HEADERVARS_RT
350
20A8
  3
ACAD_COLOR
350
73
  3
ACAD_GROUP
350
D
  3
ACAD_LAYOUT
350
1A
  3
ACAD_MATERIAL
350
72
  3
ACAD_MLEADERSTYLE
350
168
  3
ACAD_MLINESTYLE
350
17
  3
ACAD_PLOTSETTINGS
350
19
  3
ACAD_PLOTSTYLENAME
350
E
  3
ACAD_SCALELIST
350
156
  3
ACAD_TABLESTYLE
350
86
  3
ACAD_VISUALSTYLE
350
99
  3
ACDB_RECOMPOSE_DATA
350
20A6
  3
AcDbVariableDictionary
350
66
  3
AEC_PROPERTY_SET_DEFS
350
1152
  3
DWGPROPS
350
20A7
  0
DICTIONARY
  5
AE9
330
8
100
AcDbDictionary
280
     1
281
     1
  0
DICTIONARY
  5
DD
330
2
100
AcDbDictionary
280
     1
281
     1
  3
ACAD_LAYERSTATES
360
DE
  0
DICTIONARY
  5
8E9
330
10
100
AcDbDictionary
280
     1
281
     1
  3
ADSK_XREC_LAYER_RECONCILED
360
129A
  0
DICTIONARY
  5
324
330
1F
100
AcDbDictionary
280
     1
281
     1
  3
ACAD_SORTENTS
360
325
  0
DICTIONARY
  5
F2C
330
E22
100
AcDbDictionary
280
     1
281
     1
  3
ACAD_SORTENTS
360
F2D
  0
DICTIONARY
  5
20A8
102
{ACAD_REACTORS
330
C
102
}
330
C
100
AcDbDictionary
281
     1
  3
DIMARCSYM
350
20AA
  3
DIMFXL
350
20A9
  3
DIMJOGANG
350
20AB
  0
DICTIONARY
  5
73
102
{ACAD_REACTORS
330
C
102
}
330
C
100
AcDbDictionary
281
     1
  0
DICTIONARY
  5
D
102
{ACAD_REACTORS
330
C
102
}
330
C
100
AcDbDictionary
281
     1
  0
DICTIONARY
  5
1A
102
{ACAD_REACTORS
330
C
102
}
330
C
100
AcDbDictionary
281
     1
  3
Model
350
22
  3
レイアウト1
350
59
  3
レイアウト2
350
5E
  0
DICTIONARY
  5
72
102
{ACAD_REACTORS
330
C
102
}
330
C
100
AcDbDictionary
281
     1
  3
ByBlock
350
97
  3
ByLayer
350
96
  3
Global
350
98
  0
DICTIONARY
  5
168
102
{ACAD_REACTORS
330
C
102
}
330
C
100
AcDbDictionary
281
     1
  3
Standard
350
169
  0
DICTIONARY
  5
17
102
{ACAD_REACTORS
330
C
102
}
330
C
100
AcDbDictionary
281
     1
  3
Standard
350
18
  0
DICTIONARY
  5
19
102
{ACAD_REACTORS
330
C
102
}
330
C
100
AcDbDictionary
281
     1
  0
ACDBDICTIONARYWDFLT
  5
E
102
{ACAD_REACTORS
330
C
102
}
330
C
100
AcDbDictionary
281
     1
  3
Normal
350
F
100
AcDbDictionaryWithDefault
340
F
  0
DICTIONARY
  5
156
102
{ACAD_REACTORS
330
C
102
}
330
C
100
AcDbDictionary
281
     1
  3
A0
350
157
  3
A1
350
158
  3
A2
350
159
  3
A3
350
15A
  3
A4
350
15B
  3
A5
350
15C
  3
A6
350
15D
  3
A7
350
15E
  3
A8
350
15F
  3
A9
350
160
  3
B0
350
161
  3
B1
350
162
  3
B2
350
163
  3
B3
350
164
  3
B4
350
165
  3
B5
350
166
  3
B6
350
167
  0
DICTIONARY
  5
86
102
{ACAD_REACTORS
330
C
102
}
330
C
100
AcDbDictionary
281
     1
  3
Standard
350
87
  3
部品表
350
D97
  0
DICTIONARY
  5
99
102
{ACAD_REACTORS
330
C
102
}
330
C
100
AcDbDictionary
281
     1
  3
2dWireframe
350
9F
  3
3D Hidden
350
A1
  3
3dWireframe
350
A0
  3
Basic
350
9E
  3
Brighten
350
A5
  3
ColorChange
350
A9
  3
Conceptual
350
A2
  3
Dim
350
A4
  3
EdgeColorOff
350
155
  3
Facepattern
350
A8
  3
Flat
350
9A
  3
FlatWithEdges
350
9B
  3
Gouraud
350
9C
  3
GouraudWithEdges
350
9D
  3
Hidden
350
14D
  3
JitterOff
350
153
  3
Linepattern
350
A7
  3
OverhangOff
350
154
  3
Realistic
350
A3
  3
Shaded
350
152
  3
Shaded with edges
350
151
  3
Shades of Gray
350
14E
  3
Sketchy
350
14F
  3
Thicken
350
A6
  3
Wireframe
350
14C
  3
X-Ray
350
150
  0
XRECORD
  5
20A6
102
{ACAD_REACTORS
330
C
102
}
330
C
100
AcDbXrecord
280
     1
 90
        1
330
87
330
D97
  0
DICTIONARY
  5
66
102
{ACAD_REACTORS
330
C
102
}
330
C
100
AcDbDictionary
281
     1
  3
CANNOSCALE
350
24A
  3
CMLEADERSTYLE
350
248
  3
CTABLESTYLE
350
89
  3
DIMASSOC
350
67
  3
HIDETEXT
350
6B
  3
INDEXCTL
350
B30
  3
LAYEREVAL
350
24C
  3
LAYERNOTIFY
350
24D
  3
LIGHTINGUNITS
350
24B
  3
MSLTSCALE
350
249
  3
SORTENTS
350
B2F
  3
XCLIPFRAME
350
2015
  0
DICTIONARY
  5
1152
102
{ACAD_REACTORS
330
C
102
}
330
C
100
AcDbDictionary
281
     1
  0
XRECORD
  5
20A7
102
{ACAD_REACTORS
330
C
102
}
330
C
100
AcDbXrecord
280
     1
  1
DWGPROPS COOKIE
  2

  3

  4

  6

  7

  8
imamura
  9

300
=
301
=
302
=
303
=
304
=
305
=
306
=
307
=
308
=
309
=
 40
0.3904094907407407
 41
2458807.553720614
 42
2459556.378972384
  1

 90
        0
  0
DICTIONARY
  5
DE
102
{ACAD_REACTORS
330
DD
102
}
330
DD
100
AcDbDictionary
281
     1
  0
XRECORD
  5
129A
102
{ACAD_REACTORS
330
8E9
102
}
330
8E9
100
AcDbXrecord
280
     1
290
     1
  0
SORTENTSTABLE
  5
325
102
{ACAD_REACTORS
330
324
102
}
330
324
100
AcDbSortentsTable
330
1F
331
1ABA
  5
1ABE
331
2081
  5
2095
331
19CD
  5
1A24
331
1277
  5
11D1
331
199D
  5
19F3
331
1A3B
  5
1973
331
207D
  5
209A
331
19C9
  5
1A20
331
1273
  5
11CD
331
1852
  5
196F
331
1999
  5
19EF
331
1234
  5
118E
331
1995
  5
19EB
331
1230
  5
118A
331
126F
  5
11C9
331
184E
  5
1956
331
1991
  5
19E7
331
122C
  5
1184
331
126B
  5
11C5
331
1228
  5
1179
331
11BE
  5
F86
331
11FD
  5
104D
331
11F9
  5
1048
331
11BA
  5
F81
331
11B6
  5
F7C
331
11F5
  5
1040
331
1187
  5
1292
331
1B37
  5
1B5C
331
11B2
  5
F77
331
11F1
  5
1031
331
1183
  5
128F
331
1B33
  5
1B54
331
20A3
  5
205B
331
1AB6
  5
1ABA
331
1A37
  5
1948
331
209F
  5
2060
331
1A33
  5
18C0
331
1AB2
  5
1AB6
331
19C5
  5
1A1C
331
209B
  5
206D
331
1A00
  5
1A49
331
1A2F
  5
18C3
331
1AAE
  5
1AB2
331
19C1
  5
1A18
331
2071
  5
2067
331
19BD
  5
1A14
331
19FC
  5
194C
331
198D
  5
19E3
331
1A2B
  5
195F
331
1267
  5
11C1
331
1AAA
  5
1AAE
331
19B9
  5
1A10
331
19F8
  5
1A45
331
1263
  5
11BD
331
1989
  5
19DF
331
1224
  5
1172
331
1985
  5
19DB
331
1220
  5
116B
331
125F
  5
11B9
331
1296
  5
1296
331
1981
  5
19D7
331
121C
  5
1163
331
125B
  5
11B5
331
1292
  5
11EC
331
1218
  5
115F
331
11AE
  5
F73
331
11ED
  5
102D
331
11E9
  5
1029
331
11AA
  5
F6E
331
11E5
  5
100C
331
11A6
  5
F6A
331
11A2
  5
F66
331
11E1
  5
FF6
331
1173
  5
1289
331
1AEB
  5
184D
331
1AE7
  5
1AD0
331
116B
  5
1284
331
1AE3
  5
1AD2
331
1B38
  5
1B5D
331
2097
  5
2074
331
2093
  5
207B
331
1AA6
  5
1AA4
331
1A23
  5
1964
331
1AA2
  5
1972
331
19B5
  5
1A0C
331
19F4
  5
192F
331
1A9E
  5
1AA7
331
2065
  5
2083
331
19B1
  5
1A08
331
19AD
  5
1A03
331
19EC
  5
18A2
331
128E
  5
11E8
331
197D
  5
19D3
331
1A1B
  5
1942
331
1257
  5
11B1
331
19A9
  5
19FF
331
19E8
  5
1A41
331
1253
  5
11AD
331
128A
  5
11E4
331
1979
  5
19CF
331
1214
  5
1157
331
1210
  5
10D5
331
124F
  5
11A9
331
1286
  5
11E0
331
1975
  5
19CB
331
1971
  5
19C7
331
120C
  5
1076
331
124B
  5
11A5
331
1282
  5
11DC
331
1208
  5
1059
331
119E
  5
F62
331
11DD
  5
FF1
331
119A
  5
F5D
331
11D9
  5
FAB
331
11D5
  5
F9F
331
1ADF
  5
1AE3
331
1196
  5
F59
331
11D1
  5
F9A
331
1ADB
  5
1AE8
331
115F
  5
127C
331
1B6A
  5
1B34
331
19E4
  5
1A3B
331
19E0
  5
1A37
331
1ACD
  5
1ADD
331
1AC9
  5
1AC7
331
19DC
  5
1A33
331
196D
  5
19C3
331
1247
  5
11A1
331
1A4A
  5
1959
331
208C
  5
2085
331
19D8
  5
1A2F
331
1243
  5
119D
331
1969
  5
19BF
331
2088
  5
208B
331
19A4
  5
19FA
331
123F
  5
1199
331
127E
  5
11D8
331
19A0
  5
19F6
331
123B
  5
1195
331
127A
  5
11D4
331
11CD
  5
F95
331
11C9
  5
F91
331
11C5
  5
F8D
331
1204
  5
1054
331
1B66
  5
1B3A
331
11C1
  5
F89
331
1200
  5
1050
331
1B62
  5
1B6A
331
1D4D
  5
20A0
331
1B5E
  5
1B67
331
118E
  5
F41
331
118A
  5
F37
331
1A46
  5
184E
331
1A0F
  5
1969
331
1A42
  5
1A9D
331
1AC1
  5
1AC4
331
19D4
  5
1A2B
331
1ABD
  5
1AC1
331
2084
  5
2094
331
19D0
  5
1A27
331
1AB9
  5
1ABD
331
2080
  5
2098
331
19CC
  5
1A23
331
1276
  5
11D0
331
199C
  5
19F2
331
1237
  5
1191
331
207C
  5
2099
331
19C8
  5
1A1F
331
1233
  5
118D
331
1272
  5
11CC
331
1851
  5
1963
331
1998
  5
19EE
331
2078
  5
1D4C
331
1994
  5
19EA
331
122F
  5
1188
331
126E
  5
11C8
331
184D
  5
1949
331
1990
  5
19E6
331
122B
  5
1183
331
126A
  5
11C4
331
11BD
  5
F84
331
11FC
  5
104C
331
11F8
  5
1047
331
11B9
  5
F80
331
11B5
  5
F7B
331
11F4
  5
1034
331
1186
  5
1291
331
1B36
  5
1B59
331
11B1
  5
F76
331
11F0
  5
1030
331
1B32
  5
1B36
331
20A2
  5
205A
331
1A36
  5
1A96
331
1AB5
  5
1AB9
331
209E
  5
205F
331
1A32
  5
18BA
331
1AB1
  5
1AB5
331
19C4
  5
1A1B
331
209A
  5
206C
331
19FF
  5
1A48
331
1A2E
  5
196C
331
1AAD
  5
1AB1
331
19C0
  5
1A17
331
1AA9
  5
1AAD
331
2070
  5
2066
331
19BC
  5
1A13
331
19FB
  5
194E
331
1266
  5
11C0
331
198C
  5
19E2
331
1227
  5
1175
331
206C
  5
207A
331
19B8
  5
1A0F
331
1262
  5
11BC
331
1299
  5
1299
331
1988
  5
19DE
331
1223
  5
1171
331
1984
  5
19DA
331
121F
  5
116A
331
125E
  5
11B8
331
1295
  5
F5F
331
1291
  5
11EB
331
1980
  5
19D6
331
121B
  5
1162
331
125A
  5
11B4
331
11AD
  5
F72
331
11EC
  5
102C
331
11E8
  5
1028
331
11A9
  5
F6D
331
11A5
  5
F69
331
11E4
  5
FF9
331
11A1
  5
F65
331
11E0
  5
FF5
331
1172
  5
1288
331
1AEA
  5
1AE4
331
1AE6
  5
1AD1
331
116E
  5
1285
331
116A
  5
1283
331
1B3B
  5
1B60
331
2096
  5
2077
331
2092
  5
2080
331
1AA5
  5
1AA3
331
19F7
  5
1A44
331
1A22
  5
195C
331
1AA1
  5
1975
331
19B4
  5
1A0B
331
19F3
  5
194F
331
1A1E
  5
1A94
331
1A9D
  5
1AA8
331
2064
  5
2082
331
19B0
  5
1A07
331
2060
  5
208E
331
19AC
  5
1A02
331
19EB
  5
1937
331
128D
  5
11E7
331
197C
  5
19D2
331
1A1A
  5
193A
331
1217
  5
115E
331
1256
  5
11B0
331
1A99
  5
1AA6
331
19A8
  5
19FE
331
1252
  5
11AC
331
1289
  5
11E3
331
1978
  5
19CE
331
1213
  5
1156
331
1974
  5
19CA
331
120F
  5
10C2
331
124E
  5
11A8
331
1285
  5
11DF
331
1970
  5
19C6
331
120B
  5
105E
331
124A
  5
11A4
331
1281
  5
11DB
331
119D
  5
F61
331
11DC
  5
FEF
331
11D8
  5
FA2
331
1199
  5
F5C
331
11D4
  5
F9E
331
1ADE
  5
1AEB
331
1195
  5
F58
331
1191
  5
F54
331
11D0
  5
F99
331
1162
  5
127F
331
1ADA
  5
1AE7
331
115E
  5
127B
331
1AD2
  5
1ADB
331
1B69
  5
1B32
331
1A95
  5
1AA0
331
19E7
  5
1A40
331
19E3
  5
1A3A
331
19DF
  5
1A36
331
1ACC
  5
1ADF
331
1AC8
  5
1ACD
331
208F
  5
2081
331
19DB
  5
1A32
331
196C
  5
19C2
331
1A12
  5
195E
331
1246
  5
11A0
331
208B
  5
208A
331
19A7
  5
19FD
331
1242
  5
119C
331
1968
  5
19BE
331
19A3
  5
19F9
331
123E
  5
1198
331
127D
  5
11D7
331
123A
  5
1194
331
1279
  5
11D3
331
11CC
  5
F94
331
1207
  5
1058
331
11C8
  5
F90
331
11C4
  5
F8C
331
1203
  5
1053
331
1156
  5
1277
331
1B65
  5
1B37
331
11C0
  5
F88
331
1B61
  5
1B69
331
1D4C
  5
209F
331
118D
  5
F3D
331
1B5D
  5
1B66
331
1A45
  5
1857
331
1AC4
  5
1AC6
331
19D7
  5
1A2E
331
1A41
  5
1A9C
331
1AC0
  5
1AC3
331
2087
  5
2091
331
19D3
  5
1A2A
331
2083
  5
2093
331
19CF
  5
1A26
331
199F
  5
19F5
331
1ABC
  5
1AC0
331
1AB8
  5
1ABC
331
207F
  5
2097
331
19CB
  5
1A22
331
1275
  5
11CF
331
199B
  5
19F1
331
1236
  5
1190
331
1232
  5
118C
331
1271
  5
11CB
331
1850
  5
1957
331
1997
  5
19ED
331
1993
  5
19E9
331
122E
  5
1187
331
126D
  5
11C7
331
184C
  5
184C
331
122A
  5
117C
331
11FF
  5
104F
331
1269
  5
11C3
331
11BC
  5
F83
331
11FB
  5
104B
331
11F7
  5
1044
331
11B8
  5
F7F
331
11B4
  5
F7A
331
11F3
  5
1033
331
1B35
  5
1B58
331
11B0
  5
F75
331
1B31
  5
1B3B
331
1179
  5
128C
331
20A1
  5
1F23
331
1A35
  5
1A95
331
1AB4
  5
1AB8
331
19C7
  5
1A1E
331
209D
  5
2065
331
1A02
  5
1A4B
331
1A31
  5
196D
331
1AB0
  5
1AB4
331
2077
  5
1D4B
331
19C3
  5
1A1A
331
2099
  5
2076
331
19FE
  5
1A47
331
1AAC
  5
1AB0
331
198F
  5
19E5
331
19BF
  5
1A16
331
1AA8
  5
18C7
331
19BB
  5
1A12
331
19FA
  5
1936
331
1265
  5
11BF
331
198B
  5
19E1
331
1226
  5
1174
331
1A29
  5
195B
331
206B
  5
2079
331
1222
  5
1170
331
1261
  5
11BB
331
1298
  5
1298
331
1987
  5
19DD
331
1983
  5
19D9
331
121E
  5
1165
331
125D
  5
11B7
331
1294
  5
1295
331
1290
  5
11EA
331
121A
  5
1161
331
11EF
  5
102F
331
1259
  5
11B3
331
11AC
  5
F71
331
11EB
  5
102B
331
11E7
  5
1027
331
11A8
  5
F6C
331
11A4
  5
F68
331
11E3
  5
FF8
331
11A0
  5
F64
331
1171
  5
1287
331
1AE9
  5
1AD8
331
1AE5
  5
1ADA
331
1AE1
  5
1ACF
331
1B3A
  5
1B5F
331
2095
  5
207D
331
2091
  5
207F
331
1AA4
  5
1971
331
19B7
  5
1A0E
331
1AA0
  5
1AAC
331
19B3
  5
1A0A
331
19F2
  5
1953
331
19EE
  5
18C6
331
1A1D
  5
1A93
331
1A9C
  5
1AA2
331
197F
  5
19D5
331
19AF
  5
1A05
331
1A98
  5
1AA9
331
205F
  5
208D
331
19AB
  5
1A01
331
19EA
  5
1A43
331
1255
  5
11AF
331
128C
  5
11E6
331
197B
  5
19D1
331
1216
  5
115D
331
1A19
  5
1939
331
205B
  5
209C
331
1251
  5
11AB
331
1288
  5
11E2
331
1977
  5
19CD
331
1212
  5
10F9
331
1973
  5
19C9
331
120E
  5
10C1
331
124D
  5
11A7
331
1284
  5
11DE
331
1280
  5
11DA
331
120A
  5
105B
331
11DF
  5
FF3
331
1249
  5
11A3
331
119C
  5
F60
331
11DB
  5
FEE
331
11D7
  5
FA1
331
1198
  5
F5B
331
1194
  5
F57
331
11D3
  5
F9D
331
1165
  5
1282
331
1ADD
  5
1AEA
331
1190
  5
F53
331
1161
  5
127E
331
1F23
  5
20A3
331
1AD9
  5
1AE6
331
115D
  5
127A
331
1AD1
  5
1ADC
331
1B68
  5
1B38
331
1A94
  5
1A9F
331
19E6
  5
1A3F
331
1ACF
  5
1AE2
331
19E2
  5
1A39
331
1ACB
  5
1AE0
331
19DE
  5
1A35
331
196F
  5
19C5
331
1A15
  5
1A92
331
1A4C
  5
1A97
331
208E
  5
2087
331
19DA
  5
1A31
331
196B
  5
19C1
331
1245
  5
119F
331
1A48
  5
18B8
331
208A
  5
2089
331
19A6
  5
19FC
331
1241
  5
119B
331
1967
  5
19BD
331
19A2
  5
19F8
331
123D
  5
1197
331
127C
  5
11D6
331
11CF
  5
F98
331
1239
  5
1193
331
1278
  5
11D2
331
11CB
  5
F93
331
11C7
  5
F8F
331
1206
  5
1056
331
11C3
  5
F8B
331
1202
  5
1052
331
1B64
  5
1B31
331
1B60
  5
1B68
331
1D4B
  5
209E
331
118C
  5
F39
331
1B5C
  5
1B65
331
1188
  5
1293
331
1A44
  5
1864
331
1AC3
  5
1967
331
19D6
  5
1A2D
331
1A0D
  5
18C5
331
1A40
  5
1A9B
331
1ABF
  5
1928
331
2086
  5
2090
331
19D2
  5
1A29
331
2082
  5
2092
331
19CE
  5
1A25
331
199E
  5
19F4
331
1ABB
  5
1ABF
331
207E
  5
2096
331
19CA
  5
1A21
331
1274
  5
11CE
331
1853
  5
1976
331
199A
  5
19F0
331
1235
  5
118F
331
1A38
  5
1970
331
1996
  5
19EC
331
1231
  5
118B
331
1270
  5
11CA
331
184F
  5
192A
331
1992
  5
19E8
331
122D
  5
1186
331
126C
  5
11C6
331
1229
  5
117B
331
11BF
  5
F87
331
11FE
  5
104E
331
1268
  5
11C2
331
11FA
  5
104A
331
11BB
  5
F82
331
11F6
  5
1043
331
11B7
  5
F7D
331
11B3
  5
F79
331
11F2
  5
1032
331
1184
  5
1290
331
1B34
  5
1B57
331
1B30
  5
1B30
331
1AB7
  5
1ABB
331
20A0
  5
2061
331
1A34
  5
1962
331
1AB3
  5
1AB7
331
19C6
  5
1A1D
331
1A05
  5
1968
331
209C
  5
2073
331
1A01
  5
1A4A
331
1A30
  5
18C4
331
1AAF
  5
1AB3
331
2076
  5
1D4A
331
19C2
  5
1A19
331
2098
  5
2075
331
2072
  5
206B
331
19BE
  5
1A15
331
19FD
  5
1A46
331
198E
  5
19E4
331
1A2C
  5
1960
331
1AAB
  5
1AAF
331
19BA
  5
1A11
331
19F9
  5
1933
331
1264
  5
11BE
331
198A
  5
19E0
331
1225
  5
1173
331
1A28
  5
195A
331
206A
  5
2078
331
1221
  5
116E
331
1260
  5
11BA
331
1297
  5
1297
331
1986
  5
19DC
331
1982
  5
19D8
331
121D
  5
1164
331
125C
  5
11B6
331
1293
  5
1294
331
1219
  5
1160
331
11AF
  5
F74
331
11EE
  5
102E
331
1258
  5
11B2
331
11AB
  5
F6F
331
11EA
  5
102A
331
11E6
  5
1020
331
11A7
  5
F6B
331
11A3
  5
F67
331
11E2
  5
FF7
331
1170
  5
1286
331
1AE8
  5
1AD9
331
1AE0
  5
1AD5
331
1B39
  5
1B5E
331
2094
  5
207C
331
1AA7
  5
1929
331
2090
  5
207E
331
1A24
  5
18B9
331
1AA3
  5
1974
331
19B6
  5
1A0D
331
19F5
  5
1932
331
19F1
  5
1958
331
1A9F
  5
1AAB
331
2066
  5
2084
331
19B2
  5
1A09
331
19ED
  5
193C
331
1A1C
  5
1946
331
1A9B
  5
1AA1
331
128F
  5
11E9
331
197E
  5
19D4
331
19AE
  5
1A04
331
205E
  5
208C
331
19AA
  5
1A00
331
19E9
  5
1A42
331
1254
  5
11AE
331
128B
  5
11E5
331
197A
  5
19D0
331
1215
  5
115C
331
205A
  5
209B
331
1211
  5
10E1
331
1250
  5
11AA
331
1287
  5
11E1
331
1976
  5
19CC
331
1972
  5
19C8
331
120D
  5
108E
331
124C
  5
11A6
331
1283
  5
11DD
331
1209
  5
105A
331
119F
  5
F63
331
11DE
  5
FF2
331
1248
  5
11A2
331
119B
  5
F5E
331
11DA
  5
FD4
331
11D6
  5
FA0
331
1197
  5
F5A
331
11D2
  5
F9C
331
1ADC
  5
1AE9
331
1160
  5
127D
331
1F22
  5
20A2
331
1AD8
  5
1AE5
331
1B6B
  5
1B35
331
1A97
  5
1AAA
331
1A93
  5
1A9E
331
19E5
  5
1A3C
331
19E1
  5
1A38
331
1ACA
  5
1AE1
331
19DD
  5
1A34
331
196E
  5
19C4
331
1A4B
  5
1966
331
208D
  5
2086
331
19D9
  5
1A30
331
1244
  5
119E
331
196A
  5
19C0
331
1A10
  5
1A4C
331
2089
  5
2088
331
19A5
  5
19FB
331
1240
  5
119A
331
127F
  5
11D9
331
19A1
  5
19F7
331
123C
  5
1196
331
127B
  5
11D5
331
11CE
  5
F96
331
1238
  5
1192
331
11CA
  5
F92
331
11C6
  5
F8E
331
1205
  5
1055
331
1B67
  5
1B39
331
11C2
  5
F8A
331
1201
  5
1051
331
1B63
  5
1B6B
331
1D4E
  5
20A1
331
118F
  5
F4B
331
1D4A
  5
209D
331
118B
  5
F38
331
1B5B
  5
1B64
331
1A43
  5
185F
331
1AC2
  5
1965
331
19D5
  5
1A2C
331
1A0C
  5
195D
331
1A3F
  5
1A9A
331
1ABE
  5
1AC2
331
2085
  5
208F
331
19D1
  5
1A28
  0
SORTENTSTABLE
  5
F2D
102
{ACAD_REACTORS
330
F2C
102
}
330
F2C
100
AcDbSortentsTable
330
E22
  0
XRECORD
  5
20AA
102
{ACAD_REACTORS
330
20A8
102
}
330
20A8
100
AcDbXrecord
280
     1
 70
     2
  0
XRECORD
  5
20A9
102
{ACAD_REACTORS
330
20A8
102
}
330
20A8
100
AcDbXrecord
280
     1
 40
1.25
  0
XRECORD
  5
20AB
102
{ACAD_REACTORS
330
20A8
102
}
330
20A8
100
AcDbXrecord
280
     1
 40
1.570796326794896
  0
LAYOUT
  5
22
102
{ACAD_XDICTIONARY
360
20AC
102
}
102
{ACAD_REACTORS
330
1A
102
}
330
1A
100
AcDbPlotSettings
  1

  2
none_device
  4
ANSI_A_(8.50_x_11.00_Inches)
  6

 40
6.349999904632567
 41
19.04999923706055
 42
6.350006103515625
 43
19.04998779296875
 44
215.8999938964844
 45
279.3999938964844
 46
0.0
 47
0.0
 48
0.0
 49
0.0
140
0.0
141
0.0
142
1.0
143
2.584895464708373
 70
 11952
 72
     0
 73
     1
 74
     0
  7

 75
     0
147
0.3868628397755418
148
0.0
149
0.0
100
AcDbLayout
  1
Model
 70
     1
 71
     0
 10
0.0
 20
0.0
 11
12.0
 21
9.0
 12
0.0
 22
0.0
 32
0.0
 14
0.0
 24
0.0
 34
0.0
 15
0.0
 25
0.0
 35
0.0
146
0.0
 13
0.0
 23
0.0
 33
0.0
 16
1.0
 26
0.0
 36
0.0
 17
0.0
 27
1.0
 37
0.0
 76
     0
330
1F
331
94
  0
LAYOUT
  5
59
102
{ACAD_XDICTIONARY
360
20AE
102
}
102
{ACAD_REACTORS
330
1A
102
}
330
1A
100
AcDbPlotSettings
  1

  2
None
  4

  6

 40
0.0
 41
0.0
 42
0.0
 43
0.0
 44
0.0
 45
0.0
 46
0.0
 47
0.0
 48
0.0
 49
0.0
140
0.0
141
0.0
142
1.0
143
1.0
 70
   688
 72
     0
 73
     0
 74
     5
  7

 75
    16
147
1.0
148
0.0
149
0.0
100
AcDbLayout
  1
レイアウト1
 70
     1
 71
     1
 10
0.0
 20
0.0
 11
12.0
 21
9.0
 12
0.0
 22
0.0
 32
0.0
 14
0.0
 24
0.0
 34
0.0
 15
0.0
 25
0.0
 35
0.0
146
0.0
 13
0.0
 23
0.0
 33
0.0
 16
1.0
 26
0.0
 36
0.0
 17
0.0
 27
1.0
 37
0.0
 76
     0
330
58
  0
LAYOUT
  5
5E
102
{ACAD_XDICTIONARY
360
20B0
102
}
102
{ACAD_REACTORS
330
1A
102
}
330
1A
100
AcDbPlotSettings
  1

  2
None
  4

  6

 40
0.0
 41
0.0
 42
0.0
 43
0.0
 44
0.0
 45
0.0
 46
0.0
 47
0.0
 48
0.0
 49
0.0
140
0.0
141
0.0
142
1.0
143
1.0
 70
   688
 72
     0
 73
     0
 74
     5
  7

 75
    16
147
1.0
148
0.0
149
0.0
100
AcDbLayout
  1
レイアウト2
 70
     1
 71
     2
 10
0.0
 20
0.0
 11
12.0
 21
9.0
 12
0.0
 22
0.0
 32
0.0
 14
0.0
 24
0.0
 34
0.0
 15
0.0
 25
0.0
 35
0.0
146
0.0
 13
0.0
 23
0.0
 33
0.0
 16
1.0
 26
0.0
 36
0.0
 17
0.0
 27
1.0
 37
0.0
 76
     0
330
5D
  0
MATERIAL
  5
97
102
{ACAD_XDICTIONARY
360
12F7
102
}
102
{ACAD_REACTORS
330
72
102
}
330
72
100
AcDbMaterial
  1
ByBlock
 73
     1
 78
     1
172
     1
176
     1
270
     1
274
     1
  0
MATERIAL
  5
96
102
{ACAD_XDICTIONARY
360
12F5
102
}
102
{ACAD_REACTORS
330
72
102
}
330
72
100
AcDbMaterial
  1
ByLayer
 73
     1
 78
     1
172
     1
176
     1
270
     1
274
     1
  0
MATERIAL
  5
98
102
{ACAD_XDICTIONARY
360
12F9
102
}
102
{ACAD_REACTORS
330
72
102
}
330
72
100
AcDbMaterial
  1
Global
 73
     1
 78
     1
172
     1
176
     1
270
     1
274
     1
  0
MLEADERSTYLE
  5
169
102
{ACAD_REACTORS
330
168
102
}
330
168
100
AcDbMLeaderStyle
170
     2
171
     1
172
     0
 90
        2
 40
0.0
 41
0.0
173
     1
 91
-1056964608
340
14
 92
       -2
290
     1
 42
2.0
291
     1
 43
0.36
  3
Standard
 44
4.0
300

342
11
174
     1
178
     6
175
     1
176
     0
 93
-1056964608
 45
4.0
292
     0
297
     0
 46
4.0
 94
-1056964608
 47
1.0
 49
1.0
140
1.0
293
     1
141
0.0
294
     1
177
     0
142
1.0
295
     0
296
     0
143
0.125
1001
ACAD_MLEADERVER
1070
     2
  0
MLINESTYLE
  5
18
102
{ACAD_REACTORS
330
17
102
}
330
17
100
AcDbMlineStyle
  2
STANDARD
 70
     0
  3

 62
   256
 51
90.0
 52
90.0
 71
     2
 49
0.5
 62
   256
  6
BYLAYER
 49
-0.5
 62
   256
  6
BYLAYER
  0
ACDBPLACEHOLDER
  5
F
102
{ACAD_REACTORS
330
E
102
}
330
E
  0
SCALE
  5
157
102
{ACAD_REACTORS
330
156
102
}
330
156
100
AcDbScale
 70
     0
300
1:1
140
1.0
141
1.0
290
     1
  0
SCALE
  5
158
102
{ACAD_REACTORS
330
156
102
}
330
156
100
AcDbScale
 70
     0
300
1:2
140
1.0
141
2.0
290
     0
  0
SCALE
  5
159
102
{ACAD_REACTORS
330
156
102
}
330
156
100
AcDbScale
 70
     0
300
1:4
140
1.0
141
4.0
290
     0
  0
SCALE
  5
15A
102
{ACAD_REACTORS
330
156
102
}
330
156
100
AcDbScale
 70
     0
300
1:5
140
1.0
141
5.0
290
     0
  0
SCALE
  5
15B
102
{ACAD_REACTORS
330
156
102
}
330
156
100
AcDbScale
 70
     0
300
1:8
140
1.0
141
8.0
290
     0
  0
SCALE
  5
15C
102
{ACAD_REACTORS
330
156
102
}
330
156
100
AcDbScale
 70
     0
300
1:10
140
1.0
141
10.0
290
     0
  0
SCALE
  5
15D
102
{ACAD_REACTORS
330
156
102
}
330
156
100
AcDbScale
 70
     0
300
1:16
140
1.0
141
16.0
290
     0
  0
SCALE
  5
15E
102
{ACAD_REACTORS
330
156
102
}
330
156
100
AcDbScale
 70
     0
300
1:20
140
1.0
141
20.0
290
     0
  0
SCALE
  5
15F
102
{ACAD_REACTORS
330
156
102
}
330
156
100
AcDbScale
 70
     0
300
1:30
140
1.0
141
30.0
290
     0
  0
SCALE
  5
160
102
{ACAD_REACTORS
330
156
102
}
330
156
100
AcDbScale
 70
     0
300
1:40
140
1.0
141
40.0
290
     0
  0
SCALE
  5
161
102
{ACAD_REACTORS
330
156
102
}
330
156
100
AcDbScale
 70
     0
300
1:50
140
1.0
141
50.0
290
     0
  0
SCALE
  5
162
102
{ACAD_REACTORS
330
156
102
}
330
156
100
AcDbScale
 70
     0
300
1:100
140
1.0
141
100.0
290
     0
  0
SCALE
  5
163
102
{ACAD_REACTORS
330
156
102
}
330
156
100
AcDbScale
 70
     0
300
2:1
140
2.0
141
1.0
290
     0
  0
SCALE
  5
164
102
{ACAD_REACTORS
330
156
102
}
330
156
100
AcDbScale
 70
     0
300
4:1
140
4.0
141
1.0
290
     0
  0
SCALE
  5
165
102
{ACAD_REACTORS
330
156
102
}
330
156
100
AcDbScale
 70
     0
300
8:1
140
8.0
141
1.0
290
     0
  0
SCALE
  5
166
102
{ACAD_REACTORS
330
156
102
}
330
156
100
AcDbScale
 70
     0
300
10:1
140
10.0
141
1.0
290
     0
  0
SCALE
  5
167
102
{ACAD_REACTORS
330
156
102
}
330
156
100
AcDbScale
 70
     0
300
100:1
140
100.0
141
1.0
290
     0
  0
TABLESTYLE
  5
87
102
{ACAD_XDICTIONARY
360
AE1
102
}
102
{ACAD_REACTORS
330
86
102
}
330
86
100
AcDbTableStyle
  3
Standard
 70
     0
 71
     0
 40
0.06
 41
0.06
280
     0
281
     0
  7
Standard
140
0.18
170
     2
 62
     0
 63
     7
283
     0
274
    -2
284
     1
 64
     0
275
    -2
285
     1
 65
     0
276
    -2
286
     1
 66
     0
277
    -2
287
     1
 67
     0
278
    -2
288
     1
 68
     0
279
    -2
289
     1
 69
     0
  7
Standard
140
0.25
170
     5
 62
     0
 63
     7
283
     0
274
    -2
284
     1
 64
     0
275
    -2
285
     1
 65
     0
276
    -2
286
     1
 66
     0
277
    -2
287
     1
 67
     0
278
    -2
288
     1
 68
     0
279
    -2
289
     1
 69
     0
  7
Standard
140
0.18
170
     5
 62
     0
 63
     7
283
     0
274
    -2
284
     1
 64
     0
275
    -2
285
     1
 65
     0
276
    -2
286
     1
 66
     0
277
    -2
287
     1
 67
     0
278
    -2
288
     1
 68
     0
279
    -2
289
     1
 69
     0
  0
TABLESTYLE
  5
D97
102
{ACAD_XDICTIONARY
360
D98
102
}
102
{ACAD_REACTORS
330
86
102
}
330
86
100
AcDbTableStyle
  3
Standard
 70
     1
 71
     0
 40
1.5
 41
0.5
280
     0
281
     0
  7
高3.2
140
0.18
170
     7
 62
     3
 63
     7
283
     0
274
    -2
284
     1
 64
     3
275
    -2
285
     1
 65
     7
276
    -2
286
     1
 66
     3
277
    -2
287
     1
 67
     3
278
    -2
288
     1
 68
     7
279
    -2
289
     1
 69
     3
  7
高3.2
140
0.25
170
     8
 62
     3
 63
     7
283
     0
274
    -2
284
     1
 64
     0
275
    -2
285
     1
 65
     0
276
    -2
286
     1
 66
     0
277
    -2
287
     1
 67
     0
278
    -2
288
     1
 68
     0
279
    -2
289
     1
 69
     0
  7
高3.2
140
0.18
170
     7
 62
     3
 63
     7
283
     0
274
    -2
284
     1
 64
     3
275
    -2
285
     1
 65
     7
276
    -2
286
     1
 66
     3
277
    -2
287
     1
 67
     3
278
    -2
288
     1
 68
     7
279
    -2
289
     1
 69
     3
  0
VISUALSTYLE
  5
9F
102
{ACAD_XDICTIONARY
360
20BD
102
}
102
{ACAD_REACTORS
330
99
102
}
330
99
100
AcDbVisualStyle
  2

 70
     4
 71
     0
 72
     2
 73
     1
 90
        0
 40
-0.6
 41
-30.0
 62
     5
 63
     7
 74
     1
 91
        4
 64
     7
 65
   257
 75
     1
175
     1
 42
1.0
 92
        0
 66
   257
 43
1.0
 76
     1
 77
     6
 78
     2
 67
     7
 79
     5
170
     0
171
     0
290
     0
174
     0
 93
        1
 44
0.0
173
     0
291
     0
 45
0.0
1001
ACAD
1000
AcDbSavedByObjectVersion
1070
     0
  0
VISUALSTYLE
  5
A1
102
{ACAD_XDICTIONARY
360
20C1
102
}
102
{ACAD_REACTORS
330
99
102
}
330
99
100
AcDbVisualStyle
  2

 70
     6
 71
     1
 72
     2
 73
     2
 90
        0
 40
-0.6
 41
-30.0
 62
     5
 63
     7
 74
     2
 91
        2
 64
     7
 65
   257
 75
     2
175
     1
 42
40.0
 92
        0
 66
   257
 43
1.0
 76
     1
 77
     6
 78
     2
 67
     7
 79
     3
170
     0
171
     0
290
     0
174
     0
 93
        1
 44
0.0
173
     0
291
     0
 45
0.0
1001
ACAD
1000
AcDbSavedByObjectVersion
1070
     0
  0
VISUALSTYLE
  5
A0
102
{ACAD_XDICTIONARY
360
20BF
102
}
102
{ACAD_REACTORS
330
99
102
}
330
99
100
AcDbVisualStyle
  2

 70
     5
 71
     0
 72
     2
 73
     1
 90
        0
 40
-0.6
 41
-30.0
 62
     5
 63
     7
 74
     1
 91
        4
 64
     7
 65
   257
 75
     1
175
     1
 42
1.0
 92
        0
 66
   257
 43
1.0
 76
     1
 77
     6
 78
     2
 67
     7
 79
     5
170
     0
171
     0
290
     0
174
     0
 93
        1
 44
0.0
173
     0
291
     0
 45
0.0
1001
ACAD
1000
AcDbSavedByObjectVersion
1070
     0
  0
VISUALSTYLE
  5
9E
102
{ACAD_XDICTIONARY
360
20BB
102
}
102
{ACAD_REACTORS
330
99
102
}
330
99
100
AcDbVisualStyle
  2

 70
     7
 71
     1
 72
     0
 73
     1
 90
        0
 40
-0.6
 41
-30.0
 62
     5
 63
     7
 74
     0
 91
        4
 64
     7
 65
   257
 75
     1
175
     1
 42
1.0
 92
        8
 66
     7
 43
1.0
 76
     1
 77
     6
 78
     2
 67
     7
 79
     5
170
     0
171
     0
290
     0
174
     0
 93
        1
 44
0.0
173
     0
291
     1
 45
0.0
1001
ACAD
1000
AcDbSavedByObjectVersion
1070
     0
  0
VISUALSTYLE
  5
A5
102
{ACAD_XDICTIONARY
360
20C9
102
}
102
{ACAD_REACTORS
330
99
102
}
330
99
100
AcDbVisualStyle
  2

 70
    12
 71
     2
 72
     2
 73
     1
 90
        0
 40
-0.6
 41
-30.0
 62
     5
 63
     7
 74
     1
 91
        4
 64
     7
 65
   257
 75
     1
175
     1
 42
1.0
 92
        8
 66
     7
 43
1.0
 76
     1
 77
     6
 78
     2
 67
     7
 79
     5
170
     0
171
     0
290
     0
174
     0
 93
        1
 44
50.0
173
     0
291
     1
 45
0.0
1001
ACAD
1000
AcDbSavedByObjectVersion
1070
     0
  0
VISUALSTYLE
  5
A9
102
{ACAD_XDICTIONARY
360
20D1
102
}
102
{ACAD_REACTORS
330
99
102
}
330
99
100
AcDbVisualStyle
  2

 70
    16
 71
     2
 72
     2
 73
     3
 90
        0
 40
-0.6
 41
-30.0
 62
     5
 63
     8
 74
     1
 91
        4
 64
     7
 65
   257
 75
     1
175
     1
 42
1.0
 92
        8
 66
     8
 43
1.0
 76
     1
 77
     6
 78
     2
 67
     7
 79
     5
170
     0
171
     0
290
     0
174
     0
 93
        1
 44
0.0
173
     0
291
     1
 45
0.0
1001
ACAD
1000
AcDbSavedByObjectVersion
1070
     0
  0
VISUALSTYLE
  5
A2
102
{ACAD_XDICTIONARY
360
20C3
102
}
102
{ACAD_REACTORS
330
99
102
}
330
99
100
AcDbVisualStyle
  2

 70
     9
 71
     3
 72
     2
 73
     1
 90
        0
 40
-0.6
 41
-30.0
 62
     5
 63
     7
 74
     2
 91
        2
 64
     7
 65
   257
 75
     1
175
     1
 42
40.0
 92
        8
 66
     7
 43
1.0
 76
     1
 77
     6
 78
     2
 67
     7
 79
     3
170
     0
171
     0
290
     0
174
     0
 93
        1
 44
0.0
173
     0
291
     0
 45
0.0
1001
ACAD
1000
AcDbSavedByObjectVersion
1070
     0
  0
VISUALSTYLE
  5
A4
102
{ACAD_XDICTIONARY
360
20C7
102
}
102
{ACAD_REACTORS
330
99
102
}
330
99
100
AcDbVisualStyle
  2

 70
    11
 71
     2
 72
     2
 73
     1
 90
        0
 40
-0.6
 41
-30.0
 62
     5
 63
     7
 74
     1
 91
        4
 64
     7
 65
   257
 75
     1
175
     1
 42
1.0
 92
        8
 66
     7
 43
1.0
 76
     1
 77
     6
 78
     2
 67
     7
 79
     5
170
     0
171
     0
290
     0
174
     0
 93
        1
 44
-50.0
173
     0
291
     1
 45
0.0
1001
ACAD
1000
AcDbSavedByObjectVersion
1070
     0
  0
VISUALSTYLE
  5
155
102
{ACAD_XDICTIONARY
360
20E5
102
}
102
{ACAD_REACTORS
330
99
102
}
330
99
100
AcDbVisualStyle
  2

 70
    22
 71
     2
 72
     2
 73
     0
 90
        0
 40
-0.6
 41
-30.0
 62
     5
 63
     7
 74
     1
 91
        4
 64
     7
 65
   257
 75
     1
175
     1
 42
1.0
 92
        8
 66
     7
 43
1.0
 76
     1
 77
     6
 78
     2
 67
     7
 79
     5
170
     0
171
     0
290
     0
174
     0
 93
        1
 44
0.0
173
     0
291
     1
 45
0.0
1001
ACAD
1000
AcDbSavedByObjectVersion
1070
     0
  0
VISUALSTYLE
  5
A8
102
{ACAD_XDICTIONARY
360
20CF
102
}
102
{ACAD_REACTORS
330
99
102
}
330
99
100
AcDbVisualStyle
  2

 70
    15
 71
     2
 72
     2
 73
     1
 90
        0
 40
-0.6
 41
-30.0
 62
     5
 63
     7
 74
     1
 91
        4
 64
     7
 65
   257
 75
     1
175
     1
 42
1.0
 92
        8
 66
     7
 43
1.0
 76
     1
 77
     6
 78
     2
 67
     7
 79
     5
170
     0
171
     0
290
     0
174
     0
 93
        1
 44
0.0
173
     0
291
     1
 45
0.0
1001
ACAD
1000
AcDbSavedByObjectVersion
1070
     0
  0
VISUALSTYLE
  5
9A
102
{ACAD_XDICTIONARY
360
20B3
102
}
102
{ACAD_REACTORS
330
99
102
}
330
99
100
AcDbVisualStyle
  2

 70
     0
 71
     2
 72
     1
 73
     1
 90
        2
 40
-0.6
 41
30.0
 62
     5
 63
     7
 74
     0
 91
        4
 64
     7
 65
   257
 75
     1
175
     1
 42
1.0
 92
        8
 66
     7
 43
1.0
 76
     1
 77
     6
 78
     2
 67
     7
 79
     5
170
     0
171
     0
290
     0
174
     0
 93
        1
 44
0.0
173
     0
291
     1
 45
0.0
1001
ACAD
1000
AcDbSavedByObjectVersion
1070
     0
  0
VISUALSTYLE
  5
9B
102
{ACAD_XDICTIONARY
360
20B5
102
}
102
{ACAD_REACTORS
330
99
102
}
330
99
100
AcDbVisualStyle
  2

 70
     1
 71
     2
 72
     1
 73
     1
 90
        2
 40
-0.6
 41
30.0
 62
     5
 63
     7
 74
     1
 91
        4
 64
     7
 65
   257
 75
     1
175
     1
 42
1.0
 92
        0
 66
   257
 43
1.0
 76
     1
 77
     6
 78
     2
 67
     7
 79
     5
170
     0
171
     0
290
     0
174
     0
 93
        1
 44
0.0
173
     0
291
     1
 45
0.0
1001
ACAD
1000
AcDbSavedByObjectVersion
1070
     0
  0
VISUALSTYLE
  5
9C
102
{ACAD_XDICTIONARY
360
20B7
102
}
102
{ACAD_REACTORS
330
99
102
}
330
99
100
AcDbVisualStyle
  2

 70
     2
 71
     2
 72
     2
 73
     1
 90
        2
 40
-0.6
 41
30.0
 62
     5
 63
     7
 74
     0
 91
        4
 64
     7
 65
   257
 75
     1
175
     1
 42
1.0
 92
        0
 66
     7
 43
1.0
 76
     1
 77
     6
 78
     2
 67
     7
 79
     5
170
     0
171
     0
290
     0
174
     0
 93
        1
 44
0.0
173
     0
291
     1
 45
0.0
1001
ACAD
1000
AcDbSavedByObjectVersion
1070
     0
  0
VISUALSTYLE
  5
9D
102
{ACAD_XDICTIONARY
360
20B9
102
}
102
{ACAD_REACTORS
330
99
102
}
330
99
100
AcDbVisualStyle
  2

 70
     3
 71
     2
 72
     2
 73
     1
 90
        2
 40
-0.6
 41
30.0
 62
     5
 63
     7
 74
     1
 91
        4
 64
     7
 65
   257
 75
     1
175
     1
 42
1.0
 92
        0
 66
   257
 43
1.0
 76
     1
 77
     6
 78
     2
 67
     7
 79
     5
170
     0
171
     0
290
     0
174
     0
 93
        1
 44
0.0
173
     0
291
     1
 45
0.0
1001
ACAD
1000
AcDbSavedByObjectVersion
1070
     0
  0
VISUALSTYLE
  5
14D
102
{ACAD_XDICTIONARY
360
20D5
102
}
102
{ACAD_REACTORS
330
99
102
}
330
99
100
AcDbVisualStyle
  2

 70
     6
 71
     1
 72
     2
 73
     2
 90
        0
 40
-0.6
 41
-30.0
 62
     5
 63
     7
 74
     2
 91
        2
 64
     7
 65
   257
 75
     2
175
     1
 42
40.0
 92
        0
 66
   257
 43
1.0
 76
     1
 77
     6
 78
     2
 67
     7
 79
     3
170
     0
171
     0
290
     0
174
     0
 93
        1
 44
0.0
173
     0
291
     0
 45
0.0
1001
ACAD
1000
AcDbSavedByObjectVersion
1070
     0
  0
VISUALSTYLE
  5
153
102
{ACAD_XDICTIONARY
360
20E1
102
}
102
{ACAD_REACTORS
330
99
102
}
330
99
100
AcDbVisualStyle
  2

 70
    20
 71
     2
 72
     2
 73
     0
 90
        0
 40
-0.6
 41
-30.0
 62
     5
 63
     7
 74
     1
 91
        4
 64
     7
 65
   257
 75
     1
175
     1
 42
1.0
 92
       10
 66
     7
 43
1.0
 76
     1
 77
     6
 78
     2
 67
     7
 79
     5
170
     0
171
     0
290
     0
174
     0
 93
        1
 44
0.0
173
     0
291
     1
 45
0.0
1001
ACAD
1000
AcDbSavedByObjectVersion
1070
     0
  0
VISUALSTYLE
  5
A7
102
{ACAD_XDICTIONARY
360
20CD
102
}
102
{ACAD_REACTORS
330
99
102
}
330
99
100
AcDbVisualStyle
  2

 70
    14
 71
     2
 72
     2
 73
     1
 90
        0
 40
-0.6
 41
-30.0
 62
     5
 63
     7
 74
     1
 91
        4
 64
     7
 65
   257
 75
     7
175
     7
 42
1.0
 92
        8
 66
     7
 43
1.0
 76
     1
 77
     6
 78
     2
 67
     7
 79
     5
170
     0
171
     0
290
     0
174
     0
 93
        1
 44
0.0
173
     0
291
     1
 45
0.0
1001
ACAD
1000
AcDbSavedByObjectVersion
1070
     0
  0
VISUALSTYLE
  5
154
102
{ACAD_XDICTIONARY
360
20E3
102
}
102
{ACAD_REACTORS
330
99
102
}
330
99
100
AcDbVisualStyle
  2

 70
    21
 71
     2
 72
     2
 73
     0
 90
        0
 40
-0.6
 41
-30.0
 62
     5
 63
     7
 74
     1
 91
        4
 64
     7
 65
   257
 75
     1
175
     1
 42
1.0
 92
        9
 66
     7
 43
1.0
 76
     1
 77
     6
 78
     2
 67
     7
 79
     5
170
     0
171
     0
290
     0
174
     0
 93
        1
 44
0.0
173
     0
291
     1
 45
0.0
1001
ACAD
1000
AcDbSavedByObjectVersion
1070
     0
  0
VISUALSTYLE
  5
A3
102
{ACAD_XDICTIONARY
360
20C5
102
}
102
{ACAD_REACTORS
330
99
102
}
330
99
100
AcDbVisualStyle
  2

 70
     8
 71
     2
 72
     2
 73
     1
 90
        0
 40
-0.6
 41
-30.0
 62
     5
 63
     7
 74
     1
 91
        0
 64
     7
 65
   257
 75
     1
175
     1
 42
1.0
 92
        8
 66
     8
 43
1.0
 76
     1
 77
     6
 78
     2
 67
     7
 79
     5
170
     0
171
     0
290
     0
174
     0
 93
       13
 44
0.0
173
     0
291
     0
 45
0.0
1001
ACAD
1000
AcDbSavedByObjectVersion
1070
     0
  0
VISUALSTYLE
  5
152
102
{ACAD_XDICTIONARY
360
20DF
102
}
102
{ACAD_REACTORS
330
99
102
}
330
99
100
AcDbVisualStyle
  2

 70
    27
 71
     2
 72
     2
 73
     1
 90
        2
 40
-0.6
 41
30.0
 62
     5
 63
     7
 74
     0
 91
        4
 64
     7
 65
   257
 75
     1
175
     1
 42
1.0
 92
        8
 66
   257
 43
1.0
 76
     1
 77
     6
 78
     2
 67
     8
 79
     3
170
     0
171
     0
290
     0
174
     0
 93
        5
 44
0.0
173
     0
291
     0
 45
0.0
1001
ACAD
1000
AcDbSavedByObjectVersion
1070
     0
  0
VISUALSTYLE
  5
151
102
{ACAD_XDICTIONARY
360
20DD
102
}
102
{ACAD_REACTORS
330
99
102
}
330
99
100
AcDbVisualStyle
  2

 70
    26
 71
     2
 72
     2
 73
     1
 90
        2
 40
-0.6
 41
30.0
 62
     5
 63
     7
 74
     1
 91
       10
 64
     7
 65
   257
 75
     2
175
     1
 42
1.0
 92
        8
 66
   257
 43
1.0
 76
     1
 77
     6
 78
     2
 67
     7
 79
     3
170
     0
171
     0
290
     0
174
     0
 93
        5
 44
0.0
173
     0
291
     0
 45
0.0
1001
ACAD
1000
AcDbSavedByObjectVersion
1070
     0
  0
VISUALSTYLE
  5
14E
102
{ACAD_XDICTIONARY
360
20D7
102
}
102
{ACAD_REACTORS
330
99
102
}
330
99
100
AcDbVisualStyle
  2

 70
    23
 71
     2
 72
     2
 73
     3
 90
        0
 40
-0.6
 41
-30.0
 62
     5
 63
     7
 74
     2
 91
        2
 64
     7
 65
     7
 75
     1
175
     1
 42
40.0
 92
        8
 66
     7
 43
1.0
 76
     1
 77
     6
 78
     2
 67
     7
 79
     3
170
     0
171
     0
290
     0
174
     0
 93
        1
 44
0.0
173
     0
291
     0
 45
0.0
1001
ACAD
1000
AcDbSavedByObjectVersion
1070
     0
  0
VISUALSTYLE
  5
14F
102
{ACAD_XDICTIONARY
360
20D9
102
}
102
{ACAD_REACTORS
330
99
102
}
330
99
100
AcDbVisualStyle
  2

 70
    24
 71
     1
 72
     2
 73
     2
 90
        0
 40
-0.6
 41
-30.0
 62
     5
 63
     7
 74
     2
 91
        2
 64
     7
 65
     7
 75
     1
175
     1
 42
40.0
 92
       11
 66
     7
 43
1.0
 76
     1
 77
     6
 78
     2
 67
     7
 79
     6
170
     0
171
     0
290
     0
174
     0
 93
        1
 44
0.0
173
     0
291
     0
 45
0.0
1001
ACAD
1000
AcDbSavedByObjectVersion
1070
     0
  0
VISUALSTYLE
  5
A6
102
{ACAD_XDICTIONARY
360
20CB
102
}
102
{ACAD_REACTORS
330
99
102
}
330
99
100
AcDbVisualStyle
  2

 70
    13
 71
     2
 72
     2
 73
     1
 90
        0
 40
-0.6
 41
-30.0
 62
     5
 63
     7
 74
     1
 91
        4
 64
     7
 65
   257
 75
     1
175
     1
 42
1.0
 92
       12
 66
     7
 43
1.0
 76
     1
 77
     6
 78
     2
 67
     7
 79
     5
170
     0
171
     0
290
     0
174
     0
 93
        1
 44
0.0
173
     0
291
     1
 45
0.0
1001
ACAD
1000
AcDbSavedByObjectVersion
1070
     0
  0
VISUALSTYLE
  5
14C
102
{ACAD_XDICTIONARY
360
20D3
102
}
102
{ACAD_REACTORS
330
99
102
}
330
99
100
AcDbVisualStyle
  2

 70
     5
 71
     0
 72
     2
 73
     0
 90
        0
 40
-0.6
 41
-30.0
 62
     5
 63
     7
 74
     1
 91
        4
 64
     7
 65
   257
 75
     1
175
     1
 42
1.0
 92
        0
 66
   257
 43
1.0
 76
     1
 77
     6
 78
     2
 67
     7
 79
     3
170
     0
171
     0
290
     0
174
     0
 93
        1
 44
0.0
173
     0
291
     0
 45
0.0
1001
ACAD
1000
AcDbSavedByObjectVersion
1070
     0
  0
VISUALSTYLE
  5
150
102
{ACAD_XDICTIONARY
360
20DB
102
}
102
{ACAD_REACTORS
330
99
102
}
330
99
100
AcDbVisualStyle
  2

 70
    25
 71
     2
 72
     2
 73
     1
 90
        1
 40
0.5
 41
-30.0
 62
     5
 63
     7
 74
     1
 91
        0
 64
     7
 65
   257
 75
     1
175
     1
 42
1.0
 92
        8
 66
     7
 43
1.0
 76
     1
 77
     6
 78
     2
 67
     7
 79
     3
170
     0
171
     0
290
     0
174
     0
 93
       13
 44
0.0
173
     0
291
     0
 45
0.0
1001
ACAD
1000
AcDbSavedByObjectVersion
1070
     0
  0
DICTIONARYVAR
  5
24A
102
{ACAD_REACTORS
330
66
102
}
330
66
100
DictionaryVariables
280
     0
  1
1:1
  0
DICTIONARYVAR
  5
248
102
{ACAD_REACTORS
330
66
102
}
330
66
100
DictionaryVariables
280
     0
  1
STANDARD
  0
DICTIONARYVAR
  5
89
102
{ACAD_REACTORS
330
66
102
}
330
66
100
DictionaryVariables
280
     0
  1
STANDARD
  0
DICTIONARYVAR
  5
67
102
{ACAD_REACTORS
330
66
102
}
330
66
100
DictionaryVariables
280
     0
  1
2
  0
DICTIONARYVAR
  5
6B
102
{ACAD_REACTORS
330
66
102
}
330
66
100
DictionaryVariables
280
     0
  1
1
  0
DICTIONARYVAR
  5
B30
102
{ACAD_REACTORS
330
66
102
}
330
66
100
DictionaryVariables
280
     0
  1
0
  0
DICTIONARYVAR
  5
24C
102
{ACAD_REACTORS
330
66
102
}
330
66
100
DictionaryVariables
280
     0
  1
1
  0
DICTIONARYVAR
  5
24D
102
{ACAD_REACTORS
330
66
102
}
330
66
100
DictionaryVariables
280
     0
  1
15
  0
DICTIONARYVAR
  5
24B
102
{ACAD_REACTORS
330
66
102
}
330
66
100
DictionaryVariables
280
     0
  1
0
  0
DICTIONARYVAR
  5
249
102
{ACAD_REACTORS
330
66
102
}
330
66
100
DictionaryVariables
280
     0
  1
0
  0
DICTIONARYVAR
  5
B2F
102
{ACAD_REACTORS
330
66
102
}
330
66
100
DictionaryVariables
280
     0
  1
127
  0
DICTIONARYVAR
  5
2015
102
{ACAD_REACTORS
330
66
102
}
330
66
100
DictionaryVariables
280
     0
  1
2
  0
DICTIONARY
  5
20AC
330
22
100
AcDbDictionary
280
     1
281
     1
  3
ACAD_XREC_ROUNDTRIP
360
20AD
  0
DICTIONARY
  5
20AE
330
59
100
AcDbDictionary
280
     1
281
     1
  3
ACAD_XREC_ROUNDTRIP
360
20AF
  0
DICTIONARY
  5
20B0
330
5E
100
AcDbDictionary
280
     1
281
     1
  3
ACAD_XREC_ROUNDTRIP
360
20B1
  0
DICTIONARY
  5
12F7
330
97
100
AcDbDictionary
280
     1
281
     1
  3
ACAD_XREC_ROUNDTRIP
360
12F8
  0
DICTIONARY
  5
12F5
330
96
100
AcDbDictionary
280
     1
281
     1
  3
ACAD_XREC_ROUNDTRIP
360
12F6
  0
DICTIONARY
  5
12F9
330
98
100
AcDbDictionary
280
     1
281
     1
  3
ACAD_XREC_ROUNDTRIP
360
12FA
  0
DICTIONARY
  5
AE1
330
87
100
AcDbDictionary
280
     1
281
     1
  3
ACAD_ROUNDTRIP_2008_TABLESTYLE_CELLSTYLEMAP
360
20A4
  3
ACAD_XREC_ROUNDTRIP
360
20B2
  0
DICTIONARY
  5
D98
330
D97
100
AcDbDictionary
280
     1
281
     1
  3
ACAD_ROUNDTRIP_2008_TABLESTYLE_CELLSTYLEMAP
360
20A5
  3
ACAD_XREC_ROUNDTRIP
360
20E7
  0
DICTIONARY
  5
20BD
330
9F
100
AcDbDictionary
280
     1
281
     1
  3
ACAD_XREC_ROUNDTRIP
360
20BE
  0
DICTIONARY
  5
20C1
330
A1
100
AcDbDictionary
280
     1
281
     1
  3
ACAD_XREC_ROUNDTRIP
360
20C2
  0
DICTIONARY
  5
20BF
330
A0
100
AcDbDictionary
280
     1
281
     1
  3
ACAD_XREC_ROUNDTRIP
360
20C0
  0
DICTIONARY
  5
20BB
330
9E
100
AcDbDictionary
280
     1
281
     1
  3
ACAD_XREC_ROUNDTRIP
360
20BC
  0
DICTIONARY
  5
20C9
330
A5
100
AcDbDictionary
280
     1
281
     1
  3
ACAD_XREC_ROUNDTRIP
360
20CA
  0
DICTIONARY
  5
20D1
330
A9
100
AcDbDictionary
280
     1
281
     1
  3
ACAD_XREC_ROUNDTRIP
360
20D2
  0
DICTIONARY
  5
20C3
330
A2
100
AcDbDictionary
280
     1
281
     1
  3
ACAD_XREC_ROUNDTRIP
360
20C4
  0
DICTIONARY
  5
20C7
330
A4
100
AcDbDictionary
280
     1
281
     1
  3
ACAD_XREC_ROUNDTRIP
360
20C8
  0
DICTIONARY
  5
20E5
330
155
100
AcDbDictionary
280
     1
281
     1
  3
ACAD_XREC_ROUNDTRIP
360
20E6
  0
DICTIONARY
  5
20CF
330
A8
100
AcDbDictionary
280
     1
281
     1
  3
ACAD_XREC_ROUNDTRIP
360
20D0
  0
DICTIONARY
  5
20B3
330
9A
100
AcDbDictionary
280
     1
281
     1
  3
ACAD_XREC_ROUNDTRIP
360
20B4
  0
DICTIONARY
  5
20B5
330
9B
100
AcDbDictionary
280
     1
281
     1
  3
ACAD_XREC_ROUNDTRIP
360
20B6
  0
DICTIONARY
  5
20B7
330
9C
100
AcDbDictionary
280
     1
281
     1
  3
ACAD_XREC_ROUNDTRIP
360
20B8
  0
DICTIONARY
  5
20B9
330
9D
100
AcDbDictionary
280
     1
281
     1
  3
ACAD_XREC_ROUNDTRIP
360
20BA
  0
DICTIONARY
  5
20D5
330
14D
100
AcDbDictionary
280
     1
281
     1
  3
ACAD_XREC_ROUNDTRIP
360
20D6
  0
DICTIONARY
  5
20E1
330
153
100
AcDbDictionary
280
     1
281
     1
  3
ACAD_XREC_ROUNDTRIP
360
20E2
  0
DICTIONARY
  5
20CD
330
A7
100
AcDbDictionary
280
     1
281
     1
  3
ACAD_XREC_ROUNDTRIP
360
20CE
  0
DICTIONARY
  5
20E3
330
154
100
AcDbDictionary
280
     1
281
     1
  3
ACAD_XREC_ROUNDTRIP
360
20E4
  0
DICTIONARY
  5
20C5
330
A3
100
AcDbDictionary
280
     1
281
     1
  3
ACAD_XREC_ROUNDTRIP
360
20C6
  0
DICTIONARY
  5
20DF
330
152
100
AcDbDictionary
280
     1
281
     1
  3
ACAD_XREC_ROUNDTRIP
360
20E0
  0
DICTIONARY
  5
20DD
330
151
100
AcDbDictionary
280
     1
281
     1
  3
ACAD_XREC_ROUNDTRIP
360
20DE
  0
DICTIONARY
  5
20D7
330
14E
100
AcDbDictionary
280
     1
281
     1
  3
ACAD_XREC_ROUNDTRIP
360
20D8
  0
DICTIONARY
  5
20D9
330
14F
100
AcDbDictionary
280
     1
281
     1
  3
ACAD_XREC_ROUNDTRIP
360
20DA
  0
DICTIONARY
  5
20CB
330
A6
100
AcDbDictionary
280
     1
281
     1
  3
ACAD_XREC_ROUNDTRIP
360
20CC
  0
DICTIONARY
  5
20D3
330
14C
100
AcDbDictionary
280
     1
281
     1
  3
ACAD_XREC_ROUNDTRIP
360
20D4
  0
DICTIONARY
  5
20DB
330
150
100
AcDbDictionary
280
     1
281
     1
  3
ACAD_XREC_ROUNDTRIP
360
20DC
  0
XRECORD
  5
20AD
102
{ACAD_REACTORS
330
20AC
102
}
330
20AC
100
AcDbXrecord
280
     1
102
SHADEPLOT
 70
     0
102
SHADEPLOTRESLEVEL
 70
     2
102
SHADEPLOTCUSTOMDPI
 70
   300
  0
XRECORD
  5
20AF
102
{ACAD_REACTORS
330
20AE
102
}
330
20AE
100
AcDbXrecord
280
     1
102
SHADEPLOT
 70
     0
102
SHADEPLOTRESLEVEL
 70
     2
102
SHADEPLOTCUSTOMDPI
 70
   300
  0
XRECORD
  5
20B1
102
{ACAD_REACTORS
330
20B0
102
}
330
20B0
100
AcDbXrecord
280
     1
102
SHADEPLOT
 70
     0
102
SHADEPLOTRESLEVEL
 70
     2
102
SHADEPLOTCUSTOMDPI
 70
   300
  0
XRECORD
  5
12F8
102
{ACAD_REACTORS
330
12F7
102
}
330
12F7
100
AcDbXrecord
280
     1
102
MATERIAL
148
0.0
149
0.0
149
0.0
 93
        0
 94
      127
282
     0
 72
     1
 77
     1
171
     1
175
     1
179
     1
273
     0
  0
XRECORD
  5
12F6
102
{ACAD_REACTORS
330
12F5
102
}
330
12F5
100
AcDbXrecord
280
     1
102
MATERIAL
148
0.0
149
0.0
149
0.0
 93
        0
 94
      127
282
     0
 72
     1
 77
     1
171
     1
175
     1
179
     1
273
     0
  0
XRECORD
  5
12FA
102
{ACAD_REACTORS
330
12F9
102
}
330
12F9
100
AcDbXrecord
280
     1
102
MATERIAL
148
0.0
149
0.0
149
0.0
 93
        0
 94
      127
282
     0
 72
     1
 77
     1
171
     1
175
     1
179
     1
273
     0
  0
CELLSTYLEMAP
  5
20A4
102
{ACAD_REACTORS
330
AE1
102
}
330
AE1
100
AcDbCellStyleMap
 90
        3
300
CELLSTYLE
  1
TABLEFORMAT_BEGIN
 90
        5
170
     1
 91
        0
 92
    32768
 62
   257
 93
        1
300
CONTENTFORMAT
  1
CONTENTFORMAT_BEGIN
 90
        0
 91
        0
 92
      512
 93
        0
300

 40
0.0
140
1.0
 94
        5
 62
     0
340
11
144
0.25
309
CONTENTFORMAT_END
171
     1
301
MARGIN
  1
CELLMARGIN_BEGIN
 40
0.06
 40
0.06
 40
0.06
 40
0.06
 40
0.18
 40
0.18
309
CELLMARGIN_END
 94
        6
 95
        1
302
GRIDFORMAT
  1
GRIDFORMAT_BEGIN
 90
        0
 91
        1
 62
     0
 92
       -2
340
0
 93
        0
 40
0.045
309
GRIDFORMAT_END
 95
        2
302
GRIDFORMAT
  1
GRIDFORMAT_BEGIN
 90
        0
 91
        1
 62
     0
 92
       -2
340
0
 93
        0
 40
0.045
309
GRIDFORMAT_END
 95
        4
302
GRIDFORMAT
  1
GRIDFORMAT_BEGIN
 90
        0
 91
        1
 62
     0
 92
       -2
340
0
 93
        0
 40
0.045
309
GRIDFORMAT_END
 95
        8
302
GRIDFORMAT
  1
GRIDFORMAT_BEGIN
 90
        0
 91
        1
 62
     0
 92
       -2
340
0
 93
        0
 40
0.045
309
GRIDFORMAT_END
 95
       16
302
GRIDFORMAT
  1
GRIDFORMAT_BEGIN
 90
        0
 91
        1
 62
     0
 92
       -2
340
0
 93
        0
 40
0.045
309
GRIDFORMAT_END
 95
       32
302
GRIDFORMAT
  1
GRIDFORMAT_BEGIN
 90
        0
 91
        1
 62
     0
 92
       -2
340
0
 93
        0
 40
0.045
309
GRIDFORMAT_END
309
TABLEFORMAT_END
  1
CELLSTYLE_BEGIN
 90
        1
 91
        1
300
_TITLE
309
CELLSTYLE_END
300
CELLSTYLE
  1
TABLEFORMAT_BEGIN
 90
        5
170
     1
 91
        0
 92
        0
 62
   257
 93
        1
300
CONTENTFORMAT
  1
CONTENTFORMAT_BEGIN
 90
        0
 91
        0
 92
      512
 93
        0
300

 40
0.0
140
1.0
 94
        5
 62
     0
340
11
144
0.18
309
CONTENTFORMAT_END
171
     1
301
MARGIN
  1
CELLMARGIN_BEGIN
 40
0.06
 40
0.06
 40
0.06
 40
0.06
 40
0.18
 40
0.18
309
CELLMARGIN_END
 94
        6
 95
        1
302
GRIDFORMAT
  1
GRIDFORMAT_BEGIN
 90
        0
 91
        1
 62
     0
 92
       -2
340
0
 93
        0
 40
0.045
309
GRIDFORMAT_END
 95
        2
302
GRIDFORMAT
  1
GRIDFORMAT_BEGIN
 90
        0
 91
        1
 62
     0
 92
       -2
340
0
 93
        0
 40
0.045
309
GRIDFORMAT_END
 95
        4
302
GRIDFORMAT
  1
GRIDFORMAT_BEGIN
 90
        0
 91
        1
 62
     0
 92
       -2
340
0
 93
        0
 40
0.045
309
GRIDFORMAT_END
 95
        8
302
GRIDFORMAT
  1
GRIDFORMAT_BEGIN
 90
        0
 91
        1
 62
     0
 92
       -2
340
0
 93
        0
 40
0.045
309
GRIDFORMAT_END
 95
       16
302
GRIDFORMAT
  1
GRIDFORMAT_BEGIN
 90
        0
 91
        1
 62
     0
 92
       -2
340
0
 93
        0
 40
0.045
309
GRIDFORMAT_END
 95
       32
302
GRIDFORMAT
  1
GRIDFORMAT_BEGIN
 90
        0
 91
        1
 62
     0
 92
       -2
340
0
 93
        0
 40
0.045
309
GRIDFORMAT_END
309
TABLEFORMAT_END
  1
CELLSTYLE_BEGIN
 90
        2
 91
        1
300
_HEADER
309
CELLSTYLE_END
300
CELLSTYLE
  1
TABLEFORMAT_BEGIN
 90
        5
170
     1
 91
        0
 92
        0
 62
   257
 93
        1
300
CONTENTFORMAT
  1
CONTENTFORMAT_BEGIN
 90
        0
 91
        0
 92
      512
 93
        0
300

 40
0.0
140
1.0
 94
        2
 62
     0
340
11
144
0.18
309
CONTENTFORMAT_END
171
     1
301
MARGIN
  1
CELLMARGIN_BEGIN
 40
0.06
 40
0.06
 40
0.06
 40
0.06
 40
0.18
 40
0.18
309
CELLMARGIN_END
 94
        6
 95
        1
302
GRIDFORMAT
  1
GRIDFORMAT_BEGIN
 90
        0
 91
        1
 62
     0
 92
       -2
340
0
 93
        0
 40
0.045
309
GRIDFORMAT_END
 95
        2
302
GRIDFORMAT
  1
GRIDFORMAT_BEGIN
 90
        0
 91
        1
 62
     0
 92
       -2
340
0
 93
        0
 40
0.045
309
GRIDFORMAT_END
 95
        4
302
GRIDFORMAT
  1
GRIDFORMAT_BEGIN
 90
        0
 91
        1
 62
     0
 92
       -2
340
0
 93
        0
 40
0.045
309
GRIDFORMAT_END
 95
        8
302
GRIDFORMAT
  1
GRIDFORMAT_BEGIN
 90
        0
 91
        1
 62
     0
 92
       -2
340
0
 93
        0
 40
0.045
309
GRIDFORMAT_END
 95
       16
302
GRIDFORMAT
  1
GRIDFORMAT_BEGIN
 90
        0
 91
        1
 62
     0
 92
       -2
340
0
 93
        0
 40
0.045
309
GRIDFORMAT_END
 95
       32
302
GRIDFORMAT
  1
GRIDFORMAT_BEGIN
 90
        0
 91
        1
 62
     0
 92
       -2
340
0
 93
        0
 40
0.045
309
GRIDFORMAT_END
309
TABLEFORMAT_END
  1
CELLSTYLE_BEGIN
 90
        3
 91
        2
300
_DATA
309
CELLSTYLE_END
  0
XRECORD
  5
20B2
102
{ACAD_REACTORS
330
AE1
102
}
330
AE1
100
AcDbXrecord
280
     1
102
ACAD_ROUNDTRIP_PRE2007_TABLESTYLE
 90
      512
 91
        0
  1

 92
      512
 93
        0
  2

 94
      512
 95
        0
  3

  0
CELLSTYLEMAP
  5
20A5
102
{ACAD_REACTORS
330
D98
102
}
330
D98
100
AcDbCellStyleMap
 90
        3
300
CELLSTYLE
  1
TABLEFORMAT_BEGIN
 90
        5
170
     1
 91
        0
 92
    32768
 62
   257
 93
        1
300
CONTENTFORMAT
  1
CONTENTFORMAT_BEGIN
 90
        0
 91
        0
 92
      512
 93
        0
300

 40
0.0
140
1.0
 94
        8
 62
     3
340
11D
144
0.25
309
CONTENTFORMAT_END
171
     1
301
MARGIN
  1
CELLMARGIN_BEGIN
 40
0.5
 40
10.0
 40
0.06
 40
0.06
 40
0.18
 40
0.18
309
CELLMARGIN_END
 94
        6
 95
        1
302
GRIDFORMAT
  1
GRIDFORMAT_BEGIN
 90
        0
 91
        1
 62
     0
 92
       -2
340
0
 93
        0
 40
0.045
309
GRIDFORMAT_END
 95
        2
302
GRIDFORMAT
  1
GRIDFORMAT_BEGIN
 90
        0
 91
        1
 62
     0
 92
       -2
340
0
 93
        0
 40
0.045
309
GRIDFORMAT_END
 95
        4
302
GRIDFORMAT
  1
GRIDFORMAT_BEGIN
 90
        0
 91
        1
 62
     0
 92
       -2
340
0
 93
        0
 40
0.045
309
GRIDFORMAT_END
 95
        8
302
GRIDFORMAT
  1
GRIDFORMAT_BEGIN
 90
        0
 91
        1
 62
     0
 92
       -2
340
0
 93
        0
 40
0.045
309
GRIDFORMAT_END
 95
       16
302
GRIDFORMAT
  1
GRIDFORMAT_BEGIN
 90
        0
 91
        1
 62
     0
 92
       -2
340
0
 93
        0
 40
0.045
309
GRIDFORMAT_END
 95
       32
302
GRIDFORMAT
  1
GRIDFORMAT_BEGIN
 90
        0
 91
        1
 62
     0
 92
       -2
340
0
 93
        0
 40
0.045
309
GRIDFORMAT_END
309
TABLEFORMAT_END
  1
CELLSTYLE_BEGIN
 90
        1
 91
        1
300
_TITLE
309
CELLSTYLE_END
300
CELLSTYLE
  1
TABLEFORMAT_BEGIN
 90
        5
170
     1
 91
        0
 92
        0
 62
   257
 93
        1
300
CONTENTFORMAT
  1
CONTENTFORMAT_BEGIN
 90
        0
 91
        0
 92
      512
 93
        0
300

 40
0.0
140
1.0
 94
        7
 62
     3
340
11D
144
0.18
309
CONTENTFORMAT_END
171
     1
301
MARGIN
  1
CELLMARGIN_BEGIN
 40
0.5
 40
1.5
 40
0.06
 40
0.06
 40
0.18
 40
0.18
309
CELLMARGIN_END
 94
        6
 95
        1
302
GRIDFORMAT
  1
GRIDFORMAT_BEGIN
 90
        0
 91
        1
 62
     3
 92
       -2
340
14
 93
        0
 40
0.045
309
GRIDFORMAT_END
 95
        2
302
GRIDFORMAT
  1
GRIDFORMAT_BEGIN
 90
        0
 91
        1
 62
     7
 92
       -2
340
14
 93
        0
 40
0.045
309
GRIDFORMAT_END
 95
        4
302
GRIDFORMAT
  1
GRIDFORMAT_BEGIN
 90
        0
 91
        1
 62
     3
 92
       -2
340
14
 93
        0
 40
0.045
309
GRIDFORMAT_END
 95
        8
302
GRIDFORMAT
  1
GRIDFORMAT_BEGIN
 90
        0
 91
        1
 62
     3
 92
       -2
340
14
 93
        0
 40
0.045
309
GRIDFORMAT_END
 95
       16
302
GRIDFORMAT
  1
GRIDFORMAT_BEGIN
 90
        0
 91
        1
 62
     7
 92
       -2
340
14
 93
        0
 40
0.045
309
GRIDFORMAT_END
 95
       32
302
GRIDFORMAT
  1
GRIDFORMAT_BEGIN
 90
        0
 91
        1
 62
     3
 92
       -2
340
14
 93
        0
 40
0.045
309
GRIDFORMAT_END
309
TABLEFORMAT_END
  1
CELLSTYLE_BEGIN
 90
        2
 91
        1
300
_HEADER
309
CELLSTYLE_END
300
CELLSTYLE
  1
TABLEFORMAT_BEGIN
 90
        5
170
     1
 91
        0
 92
        0
 62
   257
 93
        1
300
CONTENTFORMAT
  1
CONTENTFORMAT_BEGIN
 90
        0
 91
        0
 92
      512
 93
        0
300

 40
0.0
140
1.0
 94
        7
 62
     3
340
11D
144
0.18
309
CONTENTFORMAT_END
171
     1
301
MARGIN
  1
CELLMARGIN_BEGIN
 40
0.5
 40
1.5
 40
0.06
 40
0.06
 40
0.18
 40
0.18
309
CELLMARGIN_END
 94
        6
 95
        1
302
GRIDFORMAT
  1
GRIDFORMAT_BEGIN
 90
        0
 91
        1
 62
     3
 92
       -2
340
14
 93
        0
 40
0.045
309
GRIDFORMAT_END
 95
        2
302
GRIDFORMAT
  1
GRIDFORMAT_BEGIN
 90
        0
 91
        1
 62
     7
 92
       -2
340
14
 93
        0
 40
0.045
309
GRIDFORMAT_END
 95
        4
302
GRIDFORMAT
  1
GRIDFORMAT_BEGIN
 90
        0
 91
        1
 62
     3
 92
       -2
340
14
 93
        0
 40
0.045
309
GRIDFORMAT_END
 95
        8
302
GRIDFORMAT
  1
GRIDFORMAT_BEGIN
 90
        0
 91
        1
 62
     3
 92
       -2
340
14
 93
        0
 40
0.045
309
GRIDFORMAT_END
 95
       16
302
GRIDFORMAT
  1
GRIDFORMAT_BEGIN
 90
        0
 91
        1
 62
     7
 92
       -2
340
14
 93
        0
 40
0.045
309
GRIDFORMAT_END
 95
       32
302
GRIDFORMAT
  1
GRIDFORMAT_BEGIN
 90
        0
 91
        1
 62
     3
 92
       -2
340
14
 93
        0
 40
0.045
309
GRIDFORMAT_END
309
TABLEFORMAT_END
  1
CELLSTYLE_BEGIN
 90
        3
 91
        2
300
_DATA
309
CELLSTYLE_END
  0
XRECORD
  5
20E7
102
{ACAD_REACTORS
330
D98
102
}
330
D98
100
AcDbXrecord
280
     1
102
ACAD_ROUNDTRIP_PRE2007_TABLESTYLE
 90
      512
 91
        0
  1

 92
      512
 93
        0
  2

 94
      512
 95
        0
  3

  0
XRECORD
  5
20BE
102
{ACAD_REACTORS
330
20BD
102
}
330
20BD
100
AcDbXrecord
280
     1
102
RTVSPropertyOp0
 70
     1
102
RTVSPropertyOp1
 70
     1
102
RTVSPropertyOp2
 70
     1
102
RTVSPropertyOp3
 70
     1
102
RTVSPropertyOp4
 70
     1
102
RTVSPropertyOp5
 70
     1
102
RTVSPropertyOp6
 70
     1
102
RTVSPropertyOp7
 70
     1
102
RTVSPropertyOp8
 70
     1
102
RTVSPropertyOp9
 70
     1
102
RTVSPropertyOp10
 70
     1
102
RTVSPropertyOp11
 70
     1
102
RTVSPropertyOp12
 70
     1
102
RTVSPropertyOp13
 70
     1
102
RTVSPropertyOp14
 70
     1
102
RTVSPropertyOp15
 70
     1
102
RTVSPropertyOp16
 70
     1
102
RTVSPropertyOp17
 70
     1
102
RTVSPropertyOp18
 70
     1
102
RTVSPropertyOp19
 70
     1
102
RTVSPropertyOp20
 70
     1
102
RTVSPropertyOp21
 70
     1
102
RTVSPropertyOp22
 70
     1
102
RTVSPropertyOp23
 70
     1
102
RTVSPropertyOp24
 70
     1
102
RTVSPropertyOp25
 70
     1
102
RTVSPropertyOp26
 70
     1
102
RTVSPropertyOp27
 70
     1
102
RTVSPropertyOp28
 70
     1
102
RTVSPropertyOp29
 70
     1
102
RTVSPropertyOp30
 70
     1
102
RTVSPropertyOp31
 70
     1
102
RTVSPropertyOp32
 70
     1
  0
XRECORD
  5
20C2
102
{ACAD_REACTORS
330
20C1
102
}
330
20C1
100
AcDbXrecord
280
     1
102
RTVSPropertyOp0
 70
     1
102
RTVSPropertyOp1
 70
     1
102
RTVSPropertyOp2
 70
     1
102
RTVSPropertyOp3
 70
     1
102
RTVSPropertyOp4
 70
     1
102
RTVSPropertyOp5
 70
     1
102
RTVSPropertyOp6
 70
     1
102
RTVSPropertyOp7
 70
     1
102
RTVSPropertyOp8
 70
     1
102
RTVSPropertyOp9
 70
     1
102
RTVSPropertyOp10
 70
     1
102
RTVSPropertyOp11
 70
     1
102
RTVSPropertyOp12
 70
     1
102
RTVSPropertyOp13
 70
     1
102
RTVSPropertyOp14
 70
     1
102
RTVSPropertyOp15
 70
     1
102
RTVSPropertyOp16
 70
     1
102
RTVSPropertyOp17
 70
     1
102
RTVSPropertyOp18
 70
     1
102
RTVSPropertyOp19
 70
     1
102
RTVSPropertyOp20
 70
     1
102
RTVSPropertyOp21
 70
     1
102
RTVSPropertyOp22
 70
     1
102
RTVSPropertyOp23
 70
     1
102
RTVSPropertyOp24
 70
     1
102
RTVSPropertyOp25
 70
     1
102
RTVSPropertyOp26
 70
     1
102
RTVSPropertyOp27
 70
     1
102
RTVSPropertyOp28
 70
     1
102
RTVSPropertyOp29
 70
     1
102
RTVSPropertyOp30
 70
     1
102
RTVSPropertyOp31
 70
     1
102
RTVSPropertyOp32
 70
     1
  0
XRECORD
  5
20C0
102
{ACAD_REACTORS
330
20BF
102
}
330
20BF
100
AcDbXrecord
280
     1
102
RTVSPropertyOp0
 70
     1
102
RTVSPropertyOp1
 70
     1
102
RTVSPropertyOp2
 70
     1
102
RTVSPropertyOp3
 70
     1
102
RTVSPropertyOp4
 70
     1
102
RTVSPropertyOp5
 70
     1
102
RTVSPropertyOp6
 70
     1
102
RTVSPropertyOp7
 70
     1
102
RTVSPropertyOp8
 70
     1
102
RTVSPropertyOp9
 70
     1
102
RTVSPropertyOp10
 70
     1
102
RTVSPropertyOp11
 70
     1
102
RTVSPropertyOp12
 70
     1
102
RTVSPropertyOp13
 70
     1
102
RTVSPropertyOp14
 70
     1
102
RTVSPropertyOp15
 70
     1
102
RTVSPropertyOp16
 70
     1
102
RTVSPropertyOp17
 70
     1
102
RTVSPropertyOp18
 70
     1
102
RTVSPropertyOp19
 70
     1
102
RTVSPropertyOp20
 70
     1
102
RTVSPropertyOp21
 70
     1
102
RTVSPropertyOp22
 70
     1
102
RTVSPropertyOp23
 70
     1
102
RTVSPropertyOp24
 70
     1
102
RTVSPropertyOp25
 70
     1
102
RTVSPropertyOp26
 70
     1
102
RTVSPropertyOp27
 70
     1
102
RTVSPropertyOp28
 70
     1
102
RTVSPropertyOp29
 70
     1
102
RTVSPropertyOp30
 70
     1
102
RTVSPropertyOp31
 70
     1
102
RTVSPropertyOp32
 70
     1
  0
XRECORD
  5
20BC
102
{ACAD_REACTORS
330
20BB
102
}
330
20BB
100
AcDbXrecord
280
     1
102
RTVSPropertyOp0
 70
     1
102
RTVSPropertyOp1
 70
     1
102
RTVSPropertyOp2
 70
     1
102
RTVSPropertyOp3
 70
     1
102
RTVSPropertyOp4
 70
     1
102
RTVSPropertyOp5
 70
     1
102
RTVSPropertyOp6
 70
     1
102
RTVSPropertyOp7
 70
     1
102
RTVSPropertyOp8
 70
     1
102
RTVSPropertyOp9
 70
     1
102
RTVSPropertyOp10
 70
     1
102
RTVSPropertyOp11
 70
     1
102
RTVSPropertyOp12
 70
     1
102
RTVSPropertyOp13
 70
     1
102
RTVSPropertyOp14
 70
     1
102
RTVSPropertyOp15
 70
     1
102
RTVSPropertyOp16
 70
     1
102
RTVSPropertyOp17
 70
     1
102
RTVSPropertyOp18
 70
     1
102
RTVSPropertyOp19
 70
     1
102
RTVSPropertyOp20
 70
     1
102
RTVSPropertyOp21
 70
     1
102
RTVSPropertyOp22
 70
     1
102
RTVSPropertyOp23
 70
     1
102
RTVSPropertyOp24
 70
     1
102
RTVSPropertyOp25
 70
     1
102
RTVSPropertyOp26
 70
     1
102
RTVSPropertyOp27
 70
     1
102
RTVSPropertyOp28
 70
     1
102
RTVSPropertyOp29
 70
     1
102
RTVSPropertyOp30
 70
     1
102
RTVSPropertyOp31
 70
     1
102
RTVSPropertyOp32
 70
     1
  0
XRECORD
  5
20CA
102
{ACAD_REACTORS
330
20C9
102
}
330
20C9
100
AcDbXrecord
280
     1
102
RTVSPropertyOp0
 70
     1
102
RTVSPropertyOp1
 70
     1
102
RTVSPropertyOp2
 70
     1
102
RTVSPropertyOp3
 70
     1
102
RTVSPropertyOp4
 70
     1
102
RTVSPropertyOp5
 70
     1
102
RTVSPropertyOp6
 70
     1
102
RTVSPropertyOp7
 70
     1
102
RTVSPropertyOp8
 70
     1
102
RTVSPropertyOp9
 70
     1
102
RTVSPropertyOp10
 70
     1
102
RTVSPropertyOp11
 70
     1
102
RTVSPropertyOp12
 70
     1
102
RTVSPropertyOp13
 70
     1
102
RTVSPropertyOp14
 70
     1
102
RTVSPropertyOp15
 70
     1
102
RTVSPropertyOp16
 70
     1
102
RTVSPropertyOp17
 70
     1
102
RTVSPropertyOp18
 70
     1
102
RTVSPropertyOp19
 70
     1
102
RTVSPropertyOp20
 70
     1
102
RTVSPropertyOp21
 70
     1
102
RTVSPropertyOp22
 70
     1
102
RTVSPropertyOp23
 70
     1
102
RTVSPropertyOp24
 70
     1
102
RTVSPropertyOp25
 70
     1
102
RTVSPropertyOp26
 70
     1
102
RTVSPropertyOp27
 70
     1
102
RTVSPropertyOp28
 70
     1
102
RTVSPropertyOp29
 70
     1
102
RTVSPropertyOp30
 70
     1
102
RTVSPropertyOp31
 70
     1
102
RTVSPropertyOp32
 70
     1
  0
XRECORD
  5
20D2
102
{ACAD_REACTORS
330
20D1
102
}
330
20D1
100
AcDbXrecord
280
     1
102
RTVSPropertyOp0
 70
     1
102
RTVSPropertyOp1
 70
     1
102
RTVSPropertyOp2
 70
     1
102
RTVSPropertyOp3
 70
     1
102
RTVSPropertyOp4
 70
     1
102
RTVSPropertyOp5
 70
     1
102
RTVSPropertyOp6
 70
     1
102
RTVSPropertyOp7
 70
     1
102
RTVSPropertyOp8
 70
     1
102
RTVSPropertyOp9
 70
     1
102
RTVSPropertyOp10
 70
     1
102
RTVSPropertyOp11
 70
     1
102
RTVSPropertyOp12
 70
     1
102
RTVSPropertyOp13
 70
     1
102
RTVSPropertyOp14
 70
     1
102
RTVSPropertyOp15
 70
     1
102
RTVSPropertyOp16
 70
     1
102
RTVSPropertyOp17
 70
     1
102
RTVSPropertyOp18
 70
     1
102
RTVSPropertyOp19
 70
     1
102
RTVSPropertyOp20
 70
     1
102
RTVSPropertyOp21
 70
     1
102
RTVSPropertyOp22
 70
     1
102
RTVSPropertyOp23
 70
     1
102
RTVSPropertyOp24
 70
     1
102
RTVSPropertyOp25
 70
     1
102
RTVSPropertyOp26
 70
     1
102
RTVSPropertyOp27
 70
     1
102
RTVSPropertyOp28
 70
     1
102
RTVSPropertyOp29
 70
     1
102
RTVSPropertyOp30
 70
     1
102
RTVSPropertyOp31
 70
     1
102
RTVSPropertyOp32
 70
     1
  0
XRECORD
  5
20C4
102
{ACAD_REACTORS
330
20C3
102
}
330
20C3
100
AcDbXrecord
280
     1
102
RTVSPropertyOp0
 70
     1
102
RTVSPropertyOp1
 70
     1
102
RTVSPropertyOp2
 70
     1
102
RTVSPropertyOp3
 70
     1
102
RTVSPropertyOp4
 70
     1
102
RTVSPropertyOp5
 70
     1
102
RTVSPropertyOp6
 70
     1
102
RTVSPropertyOp7
 70
     1
102
RTVSPropertyOp8
 70
     1
102
RTVSPropertyOp9
 70
     1
102
RTVSPropertyOp10
 70
     1
102
RTVSPropertyOp11
 70
     1
102
RTVSPropertyOp12
 70
     1
102
RTVSPropertyOp13
 70
     1
102
RTVSPropertyOp14
 70
     1
102
RTVSPropertyOp15
 70
     1
102
RTVSPropertyOp16
 70
     1
102
RTVSPropertyOp17
 70
     1
102
RTVSPropertyOp18
 70
     1
102
RTVSPropertyOp19
 70
     1
102
RTVSPropertyOp20
 70
     1
102
RTVSPropertyOp21
 70
     1
102
RTVSPropertyOp22
 70
     1
102
RTVSPropertyOp23
 70
     1
102
RTVSPropertyOp24
 70
     1
102
RTVSPropertyOp25
 70
     1
102
RTVSPropertyOp26
 70
     1
102
RTVSPropertyOp27
 70
     1
102
RTVSPropertyOp28
 70
     1
102
RTVSPropertyOp29
 70
     1
102
RTVSPropertyOp30
 70
     1
102
RTVSPropertyOp31
 70
     1
102
RTVSPropertyOp32
 70
     1
  0
XRECORD
  5
20C8
102
{ACAD_REACTORS
330
20C7
102
}
330
20C7
100
AcDbXrecord
280
     1
102
RTVSPropertyOp0
 70
     1
102
RTVSPropertyOp1
 70
     1
102
RTVSPropertyOp2
 70
     1
102
RTVSPropertyOp3
 70
     1
102
RTVSPropertyOp4
 70
     1
102
RTVSPropertyOp5
 70
     1
102
RTVSPropertyOp6
 70
     1
102
RTVSPropertyOp7
 70
     1
102
RTVSPropertyOp8
 70
     1
102
RTVSPropertyOp9
 70
     1
102
RTVSPropertyOp10
 70
     1
102
RTVSPropertyOp11
 70
     1
102
RTVSPropertyOp12
 70
     1
102
RTVSPropertyOp13
 70
     1
102
RTVSPropertyOp14
 70
     1
102
RTVSPropertyOp15
 70
     1
102
RTVSPropertyOp16
 70
     1
102
RTVSPropertyOp17
 70
     1
102
RTVSPropertyOp18
 70
     1
102
RTVSPropertyOp19
 70
     1
102
RTVSPropertyOp20
 70
     1
102
RTVSPropertyOp21
 70
     1
102
RTVSPropertyOp22
 70
     1
102
RTVSPropertyOp23
 70
     1
102
RTVSPropertyOp24
 70
     1
102
RTVSPropertyOp25
 70
     1
102
RTVSPropertyOp26
 70
     1
102
RTVSPropertyOp27
 70
     1
102
RTVSPropertyOp28
 70
     1
102
RTVSPropertyOp29
 70
     1
102
RTVSPropertyOp30
 70
     1
102
RTVSPropertyOp31
 70
     1
102
RTVSPropertyOp32
 70
     1
  0
XRECORD
  5
20E6
102
{ACAD_REACTORS
330
20E5
102
}
330
20E5
100
AcDbXrecord
280
     1
102
RTVSPropertyOp0
 70
     0
102
RTVSPropertyOp1
 70
     0
102
RTVSPropertyOp2
 70
     0
102
RTVSPropertyOp3
 70
     0
102
RTVSPropertyOp4
 70
     0
102
RTVSPropertyOp5
 70
     0
102
RTVSPropertyOp6
 70
     0
102
RTVSPropertyOp7
 70
     0
102
RTVSPropertyOp8
 70
     0
102
RTVSPropertyOp9
 70
     0
102
RTVSPropertyOp10
 70
     0
102
RTVSPropertyOp11
 70
     0
102
RTVSPropertyOp12
 70
     0
102
RTVSPropertyOp13
 70
     0
102
RTVSPropertyOp14
 70
     2
102
RTVSPropertyOp15
 70
     0
102
RTVSPropertyOp16
 70
     0
102
RTVSPropertyOp17
 70
     0
102
RTVSPropertyOp18
 70
     0
102
RTVSPropertyOp19
 70
     0
102
RTVSPropertyOp20
 70
     0
102
RTVSPropertyOp21
 70
     0
102
RTVSPropertyOp22
 70
     0
102
RTVSPropertyOp23
 70
     0
102
RTVSPropertyOp24
 70
     0
102
RTVSPropertyOp25
 70
     0
102
RTVSPropertyOp26
 70
     0
102
RTVSPropertyOp27
 70
     0
102
RTVSPropertyOp28
 70
     1
102
RTVSPropertyOp29
 70
     1
102
RTVSPropertyOp30
 70
     1
102
RTVSPropertyOp31
 70
     1
102
RTVSPropertyOp32
 70
     1
  0
XRECORD
  5
20D0
102
{ACAD_REACTORS
330
20CF
102
}
330
20CF
100
AcDbXrecord
280
     1
102
RTVSPropertyOp0
 70
     1
102
RTVSPropertyOp1
 70
     1
102
RTVSPropertyOp2
 70
     1
102
RTVSPropertyOp3
 70
     1
102
RTVSPropertyOp4
 70
     1
102
RTVSPropertyOp5
 70
     1
102
RTVSPropertyOp6
 70
     1
102
RTVSPropertyOp7
 70
     1
102
RTVSPropertyOp8
 70
     1
102
RTVSPropertyOp9
 70
     1
102
RTVSPropertyOp10
 70
     1
102
RTVSPropertyOp11
 70
     1
102
RTVSPropertyOp12
 70
     1
102
RTVSPropertyOp13
 70
     1
102
RTVSPropertyOp14
 70
     1
102
RTVSPropertyOp15
 70
     1
102
RTVSPropertyOp16
 70
     1
102
RTVSPropertyOp17
 70
     1
102
RTVSPropertyOp18
 70
     1
102
RTVSPropertyOp19
 70
     1
102
RTVSPropertyOp20
 70
     1
102
RTVSPropertyOp21
 70
     1
102
RTVSPropertyOp22
 70
     1
102
RTVSPropertyOp23
 70
     1
102
RTVSPropertyOp24
 70
     1
102
RTVSPropertyOp25
 70
     1
102
RTVSPropertyOp26
 70
     1
102
RTVSPropertyOp27
 70
     1
102
RTVSPropertyOp28
 70
     1
102
RTVSPropertyOp29
 70
     1
102
RTVSPropertyOp30
 70
     1
102
RTVSPropertyOp31
 70
     1
102
RTVSPropertyOp32
 70
     1
  0
XRECORD
  5
20B4
102
{ACAD_REACTORS
330
20B3
102
}
330
20B3
100
AcDbXrecord
280
     1
102
RTVSPropertyOp0
 70
     1
102
RTVSPropertyOp1
 70
     1
102
RTVSPropertyOp2
 70
     1
102
RTVSPropertyOp3
 70
     1
102
RTVSPropertyOp4
 70
     1
102
RTVSPropertyOp5
 70
     1
102
RTVSPropertyOp6
 70
     1
102
RTVSPropertyOp7
 70
     1
102
RTVSPropertyOp8
 70
     1
102
RTVSPropertyOp9
 70
     1
102
RTVSPropertyOp10
 70
     1
102
RTVSPropertyOp11
 70
     1
102
RTVSPropertyOp12
 70
     1
102
RTVSPropertyOp13
 70
     1
102
RTVSPropertyOp14
 70
     1
102
RTVSPropertyOp15
 70
     1
102
RTVSPropertyOp16
 70
     1
102
RTVSPropertyOp17
 70
     1
102
RTVSPropertyOp18
 70
     1
102
RTVSPropertyOp19
 70
     1
102
RTVSPropertyOp20
 70
     1
102
RTVSPropertyOp21
 70
     1
102
RTVSPropertyOp22
 70
     1
102
RTVSPropertyOp23
 70
     1
102
RTVSPropertyOp24
 70
     1
102
RTVSPropertyOp25
 70
     1
102
RTVSPropertyOp26
 70
     1
102
RTVSPropertyOp27
 70
     1
102
RTVSPropertyOp28
 70
     1
102
RTVSPropertyOp29
 70
     1
102
RTVSPropertyOp30
 70
     1
102
RTVSPropertyOp31
 70
     1
102
RTVSPropertyOp32
 70
     1
  0
XRECORD
  5
20B6
102
{ACAD_REACTORS
330
20B5
102
}
330
20B5
100
AcDbXrecord
280
     1
102
RTVSPropertyOp0
 70
     1
102
RTVSPropertyOp1
 70
     1
102
RTVSPropertyOp2
 70
     1
102
RTVSPropertyOp3
 70
     1
102
RTVSPropertyOp4
 70
     1
102
RTVSPropertyOp5
 70
     1
102
RTVSPropertyOp6
 70
     1
102
RTVSPropertyOp7
 70
     1
102
RTVSPropertyOp8
 70
     1
102
RTVSPropertyOp9
 70
     1
102
RTVSPropertyOp10
 70
     1
102
RTVSPropertyOp11
 70
     1
102
RTVSPropertyOp12
 70
     1
102
RTVSPropertyOp13
 70
     1
102
RTVSPropertyOp14
 70
     1
102
RTVSPropertyOp15
 70
     1
102
RTVSPropertyOp16
 70
     1
102
RTVSPropertyOp17
 70
     1
102
RTVSPropertyOp18
 70
     1
102
RTVSPropertyOp19
 70
     1
102
RTVSPropertyOp20
 70
     1
102
RTVSPropertyOp21
 70
     1
102
RTVSPropertyOp22
 70
     1
102
RTVSPropertyOp23
 70
     1
102
RTVSPropertyOp24
 70
     1
102
RTVSPropertyOp25
 70
     1
102
RTVSPropertyOp26
 70
     1
102
RTVSPropertyOp27
 70
     1
102
RTVSPropertyOp28
 70
     1
102
RTVSPropertyOp29
 70
     1
102
RTVSPropertyOp30
 70
     1
102
RTVSPropertyOp31
 70
     1
102
RTVSPropertyOp32
 70
     1
  0
XRECORD
  5
20B8
102
{ACAD_REACTORS
330
20B7
102
}
330
20B7
100
AcDbXrecord
280
     1
102
RTVSPropertyOp0
 70
     1
102
RTVSPropertyOp1
 70
     1
102
RTVSPropertyOp2
 70
     1
102
RTVSPropertyOp3
 70
     1
102
RTVSPropertyOp4
 70
     1
102
RTVSPropertyOp5
 70
     1
102
RTVSPropertyOp6
 70
     1
102
RTVSPropertyOp7
 70
     1
102
RTVSPropertyOp8
 70
     1
102
RTVSPropertyOp9
 70
     1
102
RTVSPropertyOp10
 70
     1
102
RTVSPropertyOp11
 70
     1
102
RTVSPropertyOp12
 70
     1
102
RTVSPropertyOp13
 70
     1
102
RTVSPropertyOp14
 70
     1
102
RTVSPropertyOp15
 70
     1
102
RTVSPropertyOp16
 70
     1
102
RTVSPropertyOp17
 70
     1
102
RTVSPropertyOp18
 70
     1
102
RTVSPropertyOp19
 70
     1
102
RTVSPropertyOp20
 70
     1
102
RTVSPropertyOp21
 70
     1
102
RTVSPropertyOp22
 70
     1
102
RTVSPropertyOp23
 70
     1
102
RTVSPropertyOp24
 70
     1
102
RTVSPropertyOp25
 70
     1
102
RTVSPropertyOp26
 70
     1
102
RTVSPropertyOp27
 70
     1
102
RTVSPropertyOp28
 70
     1
102
RTVSPropertyOp29
 70
     1
102
RTVSPropertyOp30
 70
     1
102
RTVSPropertyOp31
 70
     1
102
RTVSPropertyOp32
 70
     1
  0
XRECORD
  5
20BA
102
{ACAD_REACTORS
330
20B9
102
}
330
20B9
100
AcDbXrecord
280
     1
102
RTVSPropertyOp0
 70
     1
102
RTVSPropertyOp1
 70
     1
102
RTVSPropertyOp2
 70
     1
102
RTVSPropertyOp3
 70
     1
102
RTVSPropertyOp4
 70
     1
102
RTVSPropertyOp5
 70
     1
102
RTVSPropertyOp6
 70
     1
102
RTVSPropertyOp7
 70
     1
102
RTVSPropertyOp8
 70
     1
102
RTVSPropertyOp9
 70
     1
102
RTVSPropertyOp10
 70
     1
102
RTVSPropertyOp11
 70
     1
102
RTVSPropertyOp12
 70
     1
102
RTVSPropertyOp13
 70
     1
102
RTVSPropertyOp14
 70
     1
102
RTVSPropertyOp15
 70
     1
102
RTVSPropertyOp16
 70
     1
102
RTVSPropertyOp17
 70
     1
102
RTVSPropertyOp18
 70
     1
102
RTVSPropertyOp19
 70
     1
102
RTVSPropertyOp20
 70
     1
102
RTVSPropertyOp21
 70
     1
102
RTVSPropertyOp22
 70
     1
102
RTVSPropertyOp23
 70
     1
102
RTVSPropertyOp24
 70
     1
102
RTVSPropertyOp25
 70
     1
102
RTVSPropertyOp26
 70
     1
102
RTVSPropertyOp27
 70
     1
102
RTVSPropertyOp28
 70
     1
102
RTVSPropertyOp29
 70
     1
102
RTVSPropertyOp30
 70
     1
102
RTVSPropertyOp31
 70
     1
102
RTVSPropertyOp32
 70
     1
  0
XRECORD
  5
20D6
102
{ACAD_REACTORS
330
20D5
102
}
330
20D5
100
AcDbXrecord
280
     1
102
RTVSPropertyOp0
 70
     1
102
RTVSPropertyOp1
 70
     1
102
RTVSPropertyOp2
 70
     1
102
RTVSPropertyOp3
 70
     1
102
RTVSPropertyOp4
 70
     1
102
RTVSPropertyOp5
 70
     1
102
RTVSPropertyOp6
 70
     1
102
RTVSPropertyOp7
 70
     1
102
RTVSPropertyOp8
 70
     1
102
RTVSPropertyOp9
 70
     1
102
RTVSPropertyOp10
 70
     1
102
RTVSPropertyOp11
 70
     1
102
RTVSPropertyOp12
 70
     1
102
RTVSPropertyOp13
 70
     1
102
RTVSPropertyOp14
 70
     1
102
RTVSPropertyOp15
 70
     1
102
RTVSPropertyOp16
 70
     1
102
RTVSPropertyOp17
 70
     1
102
RTVSPropertyOp18
 70
     1
102
RTVSPropertyOp19
 70
     1
102
RTVSPropertyOp20
 70
     1
102
RTVSPropertyOp21
 70
     1
102
RTVSPropertyOp22
 70
     1
102
RTVSPropertyOp23
 70
     1
102
RTVSPropertyOp24
 70
     1
102
RTVSPropertyOp25
 70
     1
102
RTVSPropertyOp26
 70
     1
102
RTVSPropertyOp27
 70
     1
102
RTVSPropertyOp28
 70
     1
102
RTVSPropertyOp29
 70
     1
102
RTVSPropertyOp30
 70
     1
102
RTVSPropertyOp31
 70
     1
102
RTVSPropertyOp32
 70
     1
  0
XRECORD
  5
20E2
102
{ACAD_REACTORS
330
20E1
102
}
330
20E1
100
AcDbXrecord
280
     1
102
RTVSPropertyOp0
 70
     0
102
RTVSPropertyOp1
 70
     0
102
RTVSPropertyOp2
 70
     0
102
RTVSPropertyOp3
 70
     0
102
RTVSPropertyOp4
 70
     0
102
RTVSPropertyOp5
 70
     0
102
RTVSPropertyOp6
 70
     0
102
RTVSPropertyOp7
 70
     0
102
RTVSPropertyOp8
 70
     0
102
RTVSPropertyOp9
 70
     0
102
RTVSPropertyOp10
 70
     0
102
RTVSPropertyOp11
 70
     0
102
RTVSPropertyOp12
 70
     0
102
RTVSPropertyOp13
 70
     0
102
RTVSPropertyOp14
 70
     2
102
RTVSPropertyOp15
 70
     0
102
RTVSPropertyOp16
 70
     0
102
RTVSPropertyOp17
 70
     0
102
RTVSPropertyOp18
 70
     0
102
RTVSPropertyOp19
 70
     0
102
RTVSPropertyOp20
 70
     0
102
RTVSPropertyOp21
 70
     0
102
RTVSPropertyOp22
 70
     0
102
RTVSPropertyOp23
 70
     0
102
RTVSPropertyOp24
 70
     0
102
RTVSPropertyOp25
 70
     0
102
RTVSPropertyOp26
 70
     0
102
RTVSPropertyOp27
 70
     0
102
RTVSPropertyOp28
 70
     1
102
RTVSPropertyOp29
 70
     1
102
RTVSPropertyOp30
 70
     1
102
RTVSPropertyOp31
 70
     1
102
RTVSPropertyOp32
 70
     1
  0
XRECORD
  5
20CE
102
{ACAD_REACTORS
330
20CD
102
}
330
20CD
100
AcDbXrecord
280
     1
102
RTVSPropertyOp0
 70
     1
102
RTVSPropertyOp1
 70
     1
102
RTVSPropertyOp2
 70
     1
102
RTVSPropertyOp3
 70
     1
102
RTVSPropertyOp4
 70
     1
102
RTVSPropertyOp5
 70
     1
102
RTVSPropertyOp6
 70
     1
102
RTVSPropertyOp7
 70
     1
102
RTVSPropertyOp8
 70
     1
102
RTVSPropertyOp9
 70
     1
102
RTVSPropertyOp10
 70
     1
102
RTVSPropertyOp11
 70
     1
102
RTVSPropertyOp12
 70
     1
102
RTVSPropertyOp13
 70
     1
102
RTVSPropertyOp14
 70
     1
102
RTVSPropertyOp15
 70
     1
102
RTVSPropertyOp16
 70
     1
102
RTVSPropertyOp17
 70
     1
102
RTVSPropertyOp18
 70
     1
102
RTVSPropertyOp19
 70
     1
102
RTVSPropertyOp20
 70
     1
102
RTVSPropertyOp21
 70
     1
102
RTVSPropertyOp22
 70
     1
102
RTVSPropertyOp23
 70
     1
102
RTVSPropertyOp24
 70
     1
102
RTVSPropertyOp25
 70
     1
102
RTVSPropertyOp26
 70
     1
102
RTVSPropertyOp27
 70
     1
102
RTVSPropertyOp28
 70
     1
102
RTVSPropertyOp29
 70
     1
102
RTVSPropertyOp30
 70
     1
102
RTVSPropertyOp31
 70
     1
102
RTVSPropertyOp32
 70
     1
  0
XRECORD
  5
20E4
102
{ACAD_REACTORS
330
20E3
102
}
330
20E3
100
AcDbXrecord
280
     1
102
RTVSPropertyOp0
 70
     0
102
RTVSPropertyOp1
 70
     0
102
RTVSPropertyOp2
 70
     0
102
RTVSPropertyOp3
 70
     0
102
RTVSPropertyOp4
 70
     0
102
RTVSPropertyOp5
 70
     0
102
RTVSPropertyOp6
 70
     0
102
RTVSPropertyOp7
 70
     0
102
RTVSPropertyOp8
 70
     0
102
RTVSPropertyOp9
 70
     0
102
RTVSPropertyOp10
 70
     0
102
RTVSPropertyOp11
 70
     0
102
RTVSPropertyOp12
 70
     0
102
RTVSPropertyOp13
 70
     0
102
RTVSPropertyOp14
 70
     2
102
RTVSPropertyOp15
 70
     0
102
RTVSPropertyOp16
 70
     0
102
RTVSPropertyOp17
 70
     0
102
RTVSPropertyOp18
 70
     0
102
RTVSPropertyOp19
 70
     0
102
RTVSPropertyOp20
 70
     0
102
RTVSPropertyOp21
 70
     0
102
RTVSPropertyOp22
 70
     0
102
RTVSPropertyOp23
 70
     0
102
RTVSPropertyOp24
 70
     0
102
RTVSPropertyOp25
 70
     0
102
RTVSPropertyOp26
 70
     0
102
RTVSPropertyOp27
 70
     0
102
RTVSPropertyOp28
 70
     1
102
RTVSPropertyOp29
 70
     1
102
RTVSPropertyOp30
 70
     1
102
RTVSPropertyOp31
 70
     1
102
RTVSPropertyOp32
 70
     1
  0
XRECORD
  5
20C6
102
{ACAD_REACTORS
330
20C5
102
}
330
20C5
100
AcDbXrecord
280
     1
102
RTVSPropertyOp0
 70
     1
102
RTVSPropertyOp1
 70
     1
102
RTVSPropertyOp2
 70
     1
102
RTVSPropertyOp3
 70
     1
102
RTVSPropertyOp4
 70
     1
102
RTVSPropertyOp5
 70
     1
102
RTVSPropertyOp6
 70
     1
102
RTVSPropertyOp7
 70
     1
102
RTVSPropertyOp8
 70
     1
102
RTVSPropertyOp9
 70
     1
102
RTVSPropertyOp10
 70
     1
102
RTVSPropertyOp11
 70
     1
102
RTVSPropertyOp12
 70
     1
102
RTVSPropertyOp13
 70
     1
102
RTVSPropertyOp14
 70
     1
102
RTVSPropertyOp15
 70
     1
102
RTVSPropertyOp16
 70
     1
102
RTVSPropertyOp17
 70
     1
102
RTVSPropertyOp18
 70
     1
102
RTVSPropertyOp19
 70
     1
102
RTVSPropertyOp20
 70
     1
102
RTVSPropertyOp21
 70
     1
102
RTVSPropertyOp22
 70
     1
102
RTVSPropertyOp23
 70
     1
102
RTVSPropertyOp24
 70
     1
102
RTVSPropertyOp25
 70
     1
102
RTVSPropertyOp26
 70
     1
102
RTVSPropertyOp27
 70
     1
102
RTVSPropertyOp28
 70
     1
102
RTVSPropertyOp29
 70
     1
102
RTVSPropertyOp30
 70
     1
102
RTVSPropertyOp31
 70
     1
102
RTVSPropertyOp32
 70
     1
  0
XRECORD
  5
20E0
102
{ACAD_REACTORS
330
20DF
102
}
330
20DF
100
AcDbXrecord
280
     1
102
RTVSPropertyOp0
 70
     1
102
RTVSPropertyOp1
 70
     1
102
RTVSPropertyOp2
 70
     1
102
RTVSPropertyOp3
 70
     1
102
RTVSPropertyOp4
 70
     1
102
RTVSPropertyOp5
 70
     1
102
RTVSPropertyOp6
 70
     1
102
RTVSPropertyOp7
 70
     1
102
RTVSPropertyOp8
 70
     1
102
RTVSPropertyOp9
 70
     1
102
RTVSPropertyOp10
 70
     1
102
RTVSPropertyOp11
 70
     1
102
RTVSPropertyOp12
 70
     1
102
RTVSPropertyOp13
 70
     1
102
RTVSPropertyOp14
 70
     1
102
RTVSPropertyOp15
 70
     1
102
RTVSPropertyOp16
 70
     1
102
RTVSPropertyOp17
 70
     1
102
RTVSPropertyOp18
 70
     1
102
RTVSPropertyOp19
 70
     1
102
RTVSPropertyOp20
 70
     1
102
RTVSPropertyOp21
 70
     1
102
RTVSPropertyOp22
 70
     1
102
RTVSPropertyOp23
 70
     1
102
RTVSPropertyOp24
 70
     1
102
RTVSPropertyOp25
 70
     1
102
RTVSPropertyOp26
 70
     1
102
RTVSPropertyOp27
 70
     1
102
RTVSPropertyOp28
 70
     1
102
RTVSPropertyOp29
 70
     1
102
RTVSPropertyOp30
 70
     1
102
RTVSPropertyOp31
 70
     1
102
RTVSPropertyOp32
 70
     1
  0
XRECORD
  5
20DE
102
{ACAD_REACTORS
330
20DD
102
}
330
20DD
100
AcDbXrecord
280
     1
102
RTVSPropertyOp0
 70
     1
102
RTVSPropertyOp1
 70
     1
102
RTVSPropertyOp2
 70
     1
102
RTVSPropertyOp3
 70
     1
102
RTVSPropertyOp4
 70
     1
102
RTVSPropertyOp5
 70
     1
102
RTVSPropertyOp6
 70
     1
102
RTVSPropertyOp7
 70
     1
102
RTVSPropertyOp8
 70
     1
102
RTVSPropertyOp9
 70
     1
102
RTVSPropertyOp10
 70
     1
102
RTVSPropertyOp11
 70
     1
102
RTVSPropertyOp12
 70
     1
102
RTVSPropertyOp13
 70
     1
102
RTVSPropertyOp14
 70
     1
102
RTVSPropertyOp15
 70
     1
102
RTVSPropertyOp16
 70
     1
102
RTVSPropertyOp17
 70
     1
102
RTVSPropertyOp18
 70
     1
102
RTVSPropertyOp19
 70
     1
102
RTVSPropertyOp20
 70
     1
102
RTVSPropertyOp21
 70
     1
102
RTVSPropertyOp22
 70
     1
102
RTVSPropertyOp23
 70
     1
102
RTVSPropertyOp24
 70
     1
102
RTVSPropertyOp25
 70
     1
102
RTVSPropertyOp26
 70
     1
102
RTVSPropertyOp27
 70
     1
102
RTVSPropertyOp28
 70
     1
102
RTVSPropertyOp29
 70
     1
102
RTVSPropertyOp30
 70
     1
102
RTVSPropertyOp31
 70
     1
102
RTVSPropertyOp32
 70
     1
  0
XRECORD
  5
20D8
102
{ACAD_REACTORS
330
20D7
102
}
330
20D7
100
AcDbXrecord
280
     1
102
RTVSPropertyOp0
 70
     1
102
RTVSPropertyOp1
 70
     1
102
RTVSPropertyOp2
 70
     1
102
RTVSPropertyOp3
 70
     1
102
RTVSPropertyOp4
 70
     1
102
RTVSPropertyOp5
 70
     1
102
RTVSPropertyOp6
 70
     1
102
RTVSPropertyOp7
 70
     1
102
RTVSPropertyOp8
 70
     1
102
RTVSPropertyOp9
 70
     1
102
RTVSPropertyOp10
 70
     1
102
RTVSPropertyOp11
 70
     1
102
RTVSPropertyOp12
 70
     1
102
RTVSPropertyOp13
 70
     1
102
RTVSPropertyOp14
 70
     1
102
RTVSPropertyOp15
 70
     1
102
RTVSPropertyOp16
 70
     1
102
RTVSPropertyOp17
 70
     1
102
RTVSPropertyOp18
 70
     1
102
RTVSPropertyOp19
 70
     1
102
RTVSPropertyOp20
 70
     1
102
RTVSPropertyOp21
 70
     1
102
RTVSPropertyOp22
 70
     1
102
RTVSPropertyOp23
 70
     1
102
RTVSPropertyOp24
 70
     1
102
RTVSPropertyOp25
 70
     1
102
RTVSPropertyOp26
 70
     1
102
RTVSPropertyOp27
 70
     1
102
RTVSPropertyOp28
 70
     1
102
RTVSPropertyOp29
 70
     1
102
RTVSPropertyOp30
 70
     1
102
RTVSPropertyOp31
 70
     1
102
RTVSPropertyOp32
 70
     1
  0
XRECORD
  5
20DA
102
{ACAD_REACTORS
330
20D9
102
}
330
20D9
100
AcDbXrecord
280
     1
102
RTVSPropertyOp0
 70
     1
102
RTVSPropertyOp1
 70
     1
102
RTVSPropertyOp2
 70
     1
102
RTVSPropertyOp3
 70
     1
102
RTVSPropertyOp4
 70
     1
102
RTVSPropertyOp5
 70
     1
102
RTVSPropertyOp6
 70
     1
102
RTVSPropertyOp7
 70
     1
102
RTVSPropertyOp8
 70
     1
102
RTVSPropertyOp9
 70
     1
102
RTVSPropertyOp10
 70
     1
102
RTVSPropertyOp11
 70
     1
102
RTVSPropertyOp12
 70
     1
102
RTVSPropertyOp13
 70
     1
102
RTVSPropertyOp14
 70
     1
102
RTVSPropertyOp15
 70
     1
102
RTVSPropertyOp16
 70
     1
102
RTVSPropertyOp17
 70
     1
102
RTVSPropertyOp18
 70
     1
102
RTVSPropertyOp19
 70
     1
102
RTVSPropertyOp20
 70
     1
102
RTVSPropertyOp21
 70
     1
102
RTVSPropertyOp22
 70
     1
102
RTVSPropertyOp23
 70
     1
102
RTVSPropertyOp24
 70
     1
102
RTVSPropertyOp25
 70
     1
102
RTVSPropertyOp26
 70
     1
102
RTVSPropertyOp27
 70
     1
102
RTVSPropertyOp28
 70
     1
102
RTVSPropertyOp29
 70
     1
102
RTVSPropertyOp30
 70
     1
102
RTVSPropertyOp31
 70
     1
102
RTVSPropertyOp32
 70
     1
  0
XRECORD
  5
20CC
102
{ACAD_REACTORS
330
20CB
102
}
330
20CB
100
AcDbXrecord
280
     1
102
RTVSPropertyOp0
 70
     1
102
RTVSPropertyOp1
 70
     1
102
RTVSPropertyOp2
 70
     1
102
RTVSPropertyOp3
 70
     1
102
RTVSPropertyOp4
 70
     1
102
RTVSPropertyOp5
 70
     1
102
RTVSPropertyOp6
 70
     1
102
RTVSPropertyOp7
 70
     1
102
RTVSPropertyOp8
 70
     1
102
RTVSPropertyOp9
 70
     1
102
RTVSPropertyOp10
 70
     1
102
RTVSPropertyOp11
 70
     1
102
RTVSPropertyOp12
 70
     1
102
RTVSPropertyOp13
 70
     1
102
RTVSPropertyOp14
 70
     1
102
RTVSPropertyOp15
 70
     1
102
RTVSPropertyOp16
 70
     1
102
RTVSPropertyOp17
 70
     1
102
RTVSPropertyOp18
 70
     1
102
RTVSPropertyOp19
 70
     1
102
RTVSPropertyOp20
 70
     1
102
RTVSPropertyOp21
 70
     1
102
RTVSPropertyOp22
 70
     1
102
RTVSPropertyOp23
 70
     1
102
RTVSPropertyOp24
 70
     1
102
RTVSPropertyOp25
 70
     1
102
RTVSPropertyOp26
 70
     1
102
RTVSPropertyOp27
 70
     1
102
RTVSPropertyOp28
 70
     1
102
RTVSPropertyOp29
 70
     1
102
RTVSPropertyOp30
 70
     1
102
RTVSPropertyOp31
 70
     1
102
RTVSPropertyOp32
 70
     1
  0
XRECORD
  5
20D4
102
{ACAD_REACTORS
330
20D3
102
}
330
20D3
100
AcDbXrecord
280
     1
102
RTVSPropertyOp0
 70
     1
102
RTVSPropertyOp1
 70
     1
102
RTVSPropertyOp2
 70
     1
102
RTVSPropertyOp3
 70
     1
102
RTVSPropertyOp4
 70
     1
102
RTVSPropertyOp5
 70
     1
102
RTVSPropertyOp6
 70
     1
102
RTVSPropertyOp7
 70
     1
102
RTVSPropertyOp8
 70
     1
102
RTVSPropertyOp9
 70
     1
102
RTVSPropertyOp10
 70
     1
102
RTVSPropertyOp11
 70
     1
102
RTVSPropertyOp12
 70
     1
102
RTVSPropertyOp13
 70
     1
102
RTVSPropertyOp14
 70
     1
102
RTVSPropertyOp15
 70
     1
102
RTVSPropertyOp16
 70
     1
102
RTVSPropertyOp17
 70
     1
102
RTVSPropertyOp18
 70
     1
102
RTVSPropertyOp19
 70
     1
102
RTVSPropertyOp20
 70
     1
102
RTVSPropertyOp21
 70
     1
102
RTVSPropertyOp22
 70
     1
102
RTVSPropertyOp23
 70
     1
102
RTVSPropertyOp24
 70
     1
102
RTVSPropertyOp25
 70
     1
102
RTVSPropertyOp26
 70
     1
102
RTVSPropertyOp27
 70
     1
102
RTVSPropertyOp28
 70
     1
102
RTVSPropertyOp29
 70
     1
102
RTVSPropertyOp30
 70
     1
102
RTVSPropertyOp31
 70
     1
102
RTVSPropertyOp32
 70
     1
  0
XRECORD
  5
20DC
102
{ACAD_REACTORS
330
20DB
102
}
330
20DB
100
AcDbXrecord
280
     1
102
RTVSPropertyOp0
 70
     1
102
RTVSPropertyOp1
 70
     1
102
RTVSPropertyOp2
 70
     1
102
RTVSPropertyOp3
 70
     1
102
RTVSPropertyOp4
 70
     1
102
RTVSPropertyOp5
 70
     1
102
RTVSPropertyOp6
 70
     1
102
RTVSPropertyOp7
 70
     1
102
RTVSPropertyOp8
 70
     1
102
RTVSPropertyOp9
 70
     1
102
RTVSPropertyOp10
 70
     1
102
RTVSPropertyOp11
 70
     1
102
RTVSPropertyOp12
 70
     1
102
RTVSPropertyOp13
 70
     1
102
RTVSPropertyOp14
 70
     1
102
RTVSPropertyOp15
 70
     1
102
RTVSPropertyOp16
 70
     1
102
RTVSPropertyOp17
 70
     1
102
RTVSPropertyOp18
 70
     1
102
RTVSPropertyOp19
 70
     1
102
RTVSPropertyOp20
 70
     1
102
RTVSPropertyOp21
 70
     1
102
RTVSPropertyOp22
 70
     1
102
RTVSPropertyOp23
 70
     1
102
RTVSPropertyOp24
 70
     1
102
RTVSPropertyOp25
 70
     1
102
RTVSPropertyOp26
 70
     1
102
RTVSPropertyOp27
 70
     1
102
RTVSPropertyOp28
 70
     1
102
RTVSPropertyOp29
 70
     1
102
RTVSPropertyOp30
 70
     1
102
RTVSPropertyOp31
 70
     1
102
RTVSPropertyOp32
 70
     1
  0
ENDSEC
  0
EOF
