  0
SECTION
  2
HEADER
  9
$ACADVER
  1
AC1015
  9
$ACADMAINTVER
 70
    20
  9
$DWGCODEPAGE
  3
ANSI_932
  9
$INSBASE
 10
0.0
 20
0.0
 30
0.0
  9
$EXTMIN
 10
1503.325211780021
 20
75.75361520059587
 30
0.0
  9
$EXTMAX
 10
1908.325211780021
 20
354.9366793207531
 30
0.0
  9
$LIMMIN
 10
0.0
 20
0.0
  9
$LIMMAX
 10
12.0
 20
9.0
  9
$ORTHOMODE
 70
     0
  9
$REGENMODE
 70
     1
  9
$FILLMODE
 70
     1
  9
$QTEXTMODE
 70
     0
  9
$MIRRTEXT
 70
     0
  9
$LTSCALE
 40
0.2
  9
$ATTMODE
 70
     1
  9
$TEXTSIZE
 40
3.2
  9
$TRACEWID
 40
0.05
  9
$TEXTSTYLE
  7
高3.2
  9
$CLAYER
  8
0
  9
$CELTYPE
  6
ByLayer
  9
$CECOLOR
 62
   256
  9
$CELTSCALE
 40
1.0
  9
$DISPSILH
 70
     0
  9
$DIMSCALE
 40
1.0
  9
$DIMASZ
 40
2.5
  9
$DIMEXO
 40
0.25
  9
$DIMDLI
 40
0.2
  9
$DIMRND
 40
0.0
  9
$DIMDLE
 40
0.0
  9
$DIMEXE
 40
1.25
  9
$DIMTP
 40
0.0
  9
$DIMTM
 40
0.0
  9
$DIMTXT
 40
3.0
  9
$DIMCEN
 40
0.0
  9
$DIMTSZ
 40
0.0
  9
$DIMTOL
 70
     0
  9
$DIMLIM
 70
     0
  9
$DIMTIH
 70
     0
  9
$DIMTOH
 70
     0
  9
$DIMSE1
 70
     0
  9
$DIMSE2
 70
     0
  9
$DIMTAD
 70
     3
  9
$DIMZIN
 70
     8
  9
$DIMBLK
  1
Open30
  9
$DIMASO
 70
     1
  9
$DIMSHO
 70
     1
  9
$DIMPOST
  1

  9
$DIMAPOST
  1

  9
$DIMALT
 70
     0
  9
$DIMALTD
 70
     3
  9
$DIMALTF
 40
0.03937007874016
  9
$DIMLFAC
 40
1.0
  9
$DIMTOFL
 70
     1
  9
$DIMTVP
 40
0.0
  9
$DIMTIX
 70
     0
  9
$DIMSOXD
 70
     0
  9
$DIMSAH
 70
     0
  9
$DIMBLK1
  1

  9
$DIMBLK2
  1

  9
$DIMSTYLE
  2
1：1
  9
$DIMCLRD
 70
     0
  9
$DIMCLRE
 70
     0
  9
$DIMCLRT
 70
     4
  9
$DIMTFAC
 40
1.0
  9
$DIMGAP
 40
0.625
  9
$DIMJUST
 70
     0
  9
$DIMSD1
 70
     0
  9
$DIMSD2
 70
     0
  9
$DIMTOLJ
 70
     0
  9
$DIMTZIN
 70
     8
  9
$DIMALTZ
 70
     0
  9
$DIMALTTZ
 70
     0
  9
$DIMUPT
 70
     1
  9
$DIMDEC
 70
     2
  9
$DIMTDEC
 70
     2
  9
$DIMALTU
 70
     2
  9
$DIMALTTD
 70
     3
  9
$DIMTXSTY
  7
Standard
  9
$DIMAUNIT
 70
     0
  9
$DIMADEC
 70
     1
  9
$DIMALTRND
 40
0.0
  9
$DIMAZIN
 70
     2
  9
$DIMDSEP
 70
    46
  9
$DIMATFIT
 70
     0
  9
$DIMFRAC
 70
     0
  9
$DIMLDRBLK
  1
Open30
  9
$DIMLUNIT
 70
     2
  9
$DIMLWD
 70
    -2
  9
$DIMLWE
 70
    -2
  9
$DIMTMOVE
 70
     0
  9
$LUNITS
 70
     2
  9
$LUPREC
 70
     4
  9
$SKETCHINC
 40
0.1
  9
$FILLETRAD
 40
0.0
  9
$AUNITS
 70
     0
  9
$AUPREC
 70
     0
  9
$MENU
  1
.
  9
$ELEVATION
 40
0.0
  9
$PELEVATION
 40
0.0
  9
$THICKNESS
 40
0.0
  9
$LIMCHECK
 70
     0
  9
$CHAMFERA
 40
0.0
  9
$CHAMFERB
 40
0.0
  9
$CHAMFERC
 40
0.0
  9
$CHAMFERD
 40
0.0
  9
$SKPOLY
 70
     0
  9
$TDCREATE
 40
2458807.553720614
  9
$TDUCREATE
 40
2458807.178720614
  9
$TDUPDATE
 40
2459914.684347905
  9
$TDUUPDATE
 40
2459914.309347905
  9
$TDINDWG
 40
0.4613972569
  9
$TDUSRTIMER
 40
0.4613970949
  9
$USRTIMER
 70
     1
  9
$ANGBASE
 50
0.0
  9
$ANGDIR
 70
     0
  9
$PDMODE
 70
     0
  9
$PDSIZE
 40
0.0
  9
$PLINEWID
 40
0.0
  9
$SPLFRAME
 70
     0
  9
$SPLINETYPE
 70
     6
  9
$SPLINESEGS
 70
     8
  9
$HANDSEED
  5
1FCB
  9
$SURFTAB1
 70
     6
  9
$SURFTAB2
 70
     6
  9
$SURFTYPE
 70
     6
  9
$SURFU
 70
     6
  9
$SURFV
 70
     6
  9
$UCSBASE
  2

  9
$UCSNAME
  2

  9
$UCSORG
 10
0.0
 20
0.0
 30
0.0
  9
$UCSXDIR
 10
1.0
 20
0.0
 30
0.0
  9
$UCSYDIR
 10
0.0
 20
1.0
 30
0.0
  9
$UCSORTHOREF
  2

  9
$UCSORTHOVIEW
 70
     0
  9
$UCSORGTOP
 10
0.0
 20
0.0
 30
0.0
  9
$UCSORGBOTTOM
 10
0.0
 20
0.0
 30
0.0
  9
$UCSORGLEFT
 10
0.0
 20
0.0
 30
0.0
  9
$UCSORGRIGHT
 10
0.0
 20
0.0
 30
0.0
  9
$UCSORGFRONT
 10
0.0
 20
0.0
 30
0.0
  9
$UCSORGBACK
 10
0.0
 20
0.0
 30
0.0
  9
$PUCSBASE
  2

  9
$PUCSNAME
  2

  9
$PUCSORG
 10
0.0
 20
0.0
 30
0.0
  9
$PUCSXDIR
 10
1.0
 20
0.0
 30
0.0
  9
$PUCSYDIR
 10
0.0
 20
1.0
 30
0.0
  9
$PUCSORTHOREF
  2

  9
$PUCSORTHOVIEW
 70
     0
  9
$PUCSORGTOP
 10
0.0
 20
0.0
 30
0.0
  9
$PUCSORGBOTTOM
 10
0.0
 20
0.0
 30
0.0
  9
$PUCSORGLEFT
 10
0.0
 20
0.0
 30
0.0
  9
$PUCSORGRIGHT
 10
0.0
 20
0.0
 30
0.0
  9
$PUCSORGFRONT
 10
0.0
 20
0.0
 30
0.0
  9
$PUCSORGBACK
 10
0.0
 20
0.0
 30
0.0
  9
$USERI1
 70
     0
  9
$USERI2
 70
     0
  9
$USERI3
 70
     0
  9
$USERI4
 70
     0
  9
$USERI5
 70
     0
  9
$USERR1
 40
0.0
  9
$USERR2
 40
0.0
  9
$USERR3
 40
0.0
  9
$USERR4
 40
0.0
  9
$USERR5
 40
0.0
  9
$WORLDVIEW
 70
     1
  9
$SHADEDGE
 70
     3
  9
$SHADEDIF
 70
    70
  9
$TILEMODE
 70
     1
  9
$MAXACTVP
 70
    64
  9
$PINSBASE
 10
0.0
 20
0.0
 30
0.0
  9
$PLIMCHECK
 70
     0
  9
$PEXTMIN
 10
0.0
 20
0.0
 30
0.0
  9
$PEXTMAX
 10
0.0
 20
0.0
 30
0.0
  9
$PLIMMIN
 10
0.0
 20
0.0
  9
$PLIMMAX
 10
12.0
 20
9.0
  9
$UNITMODE
 70
     0
  9
$VISRETAIN
 70
     1
  9
$PLINEGEN
 70
     0
  9
$PSLTSCALE
 70
     1
  9
$TREEDEPTH
 70
  3020
  9
$CMLSTYLE
  2
Standard
  9
$CMLJUST
 70
     0
  9
$CMLSCALE
 40
1.0
  9
$PROXYGRAPHICS
 70
     1
  9
$MEASUREMENT
 70
     1
  9
$CELWEIGHT
370
    -1
  9
$ENDCAPS
280
     0
  9
$JOINSTYLE
280
     0
  9
$LWDISPLAY
290
     0
  9
$INSUNITS
 70
     1
  9
$HYPERLINKBASE
  1

  9
$STYLESHEET
  1

  9
$XEDIT
290
     1
  9
$CEPSNTYPE
380
     0
  9
$PSTYLEMODE
290
     1
  9
$FINGERPRINTGUID
  2
{45633027-C016-4E70-BF40-BB2D012833B7}
  9
$VERSIONGUID
  2
{BDC5EFAB-108D-4244-99C4-A6E005292DC7}
  9
$EXTNAMES
290
     1
  9
$PSVPSCALE
 40
0.0
  9
$OLESTARTUP
290
     0
  0
ENDSEC
  0
SECTION
  2
CLASSES
  0
CLASS
  1
ACDBDICTIONARYWDFLT
  2
AcDbDictionaryWithDefault
  3
ObjectDBX Classes
 90
        0
280
     0
281
     0
  0
CLASS
  1
ACDBPLACEHOLDER
  2
AcDbPlaceHolder
  3
ObjectDBX Classes
 90
        0
280
     0
281
     0
  0
CLASS
  1
LAYOUT
  2
AcDbLayout
  3
ObjectDBX Classes
 90
        0
280
     0
281
     0
  0
CLASS
  1
DICTIONARYVAR
  2
AcDbDictionaryVar
  3
ObjectDBX Classes
 90
        0
280
     0
281
     0
  0
CLASS
  1
TABLESTYLE
  2
AcDbTableStyle
  3
ObjectDBX Classes
 90
     4095
280
     0
281
     0
  0
CLASS
  1
MATERIAL
  2
AcDbMaterial
  3
ObjectDBX Classes
 90
     1153
280
     0
281
     0
  0
CLASS
  1
VISUALSTYLE
  2
AcDbVisualStyle
  3
ObjectDBX Classes
 90
     4095
280
     0
281
     0
  0
CLASS
  1
SORTENTSTABLE
  2
AcDbSortentsTable
  3
ObjectDBX Classes
 90
        0
280
     0
281
     0
  0
CLASS
  1
DIMASSOC
  2
AcDbDimAssoc
  3
"AcDbDimAssoc|Product Desc:     AcDim ARX App For Dimension|Company:          Autodesk, Inc.|WEB Address:      www.autodesk.com"
 90
        0
280
     0
281
     0
  0
CLASS
  1
SCALE
  2
AcDbScale
  3
ObjectDBX Classes
 90
     1153
280
     0
281
     0
  0
CLASS
  1
MLEADERSTYLE
  2
AcDbMLeaderStyle
  3
ACDB_MLEADERSTYLE_CLASS
 90
     4095
280
     0
281
     0
  0
CLASS
  1
CELLSTYLEMAP
  2
AcDbCellStyleMap
  3
ObjectDBX Classes
 90
     1152
280
     0
281
     0
  0
CLASS
  1
AEC_REFEDIT_STATUS_TRACKER
  2
AecDbRefEditStatusTracker
  3
AecArchBase60|Product Desc: Autodesk Architectural Desktop 2007 |Company: Autodesk,Inc. |WEB Address: www.autodesk.com
 90
      129
280
     0
281
     0
  0
CLASS
  1
NPOCOLLECTION
  2
AcDbImpNonPersistentObjectsCollection
  3
ObjectDBX Classes
 90
     1153
280
     0
281
     0
  0
ENDSEC
  0
SECTION
  2
TABLES
  0
TABLE
  2
VPORT
  5
8
102
{ACAD_XDICTIONARY
360
AE9
102
}
330
0
100
AcDbSymbolTable
 70
     1
  0
VPORT
  5
94
330
8
100
AcDbSymbolTableRecord
100
AcDbViewportTableRecord
  2
*Active
 70
     0
 10
0.0
 20
0.0
 11
1.0
 21
1.0
 12
1746.733109741229
 22
236.494917526574
 13
0.0
 23
0.0
 14
0.5
 24
0.5
 15
0.5
 25
0.5
 16
0.0
 26
0.0
 36
1.0
 17
0.0
 27
0.0
 37
0.0
 40
1030.676329157066
 41
1.151933701657458
 42
50.0
 43
0.0
 44
0.0
 50
0.0
 51
0.0
 71
     0
 72
  1000
 73
     1
 74
     2
 75
     0
 76
     0
 77
     0
 78
     0
281
     0
 65
     1
110
0.0
120
0.0
130
0.0
111
1.0
121
0.0
131
0.0
112
0.0
122
1.0
132
0.0
 79
     0
146
0.0
  0
ENDTAB
  0
TABLE
  2
LTYPE
  5
5
330
0
100
AcDbSymbolTable
 70
     4
  0
LTYPE
  5
14
330
5
100
AcDbSymbolTableRecord
100
AcDbLinetypeTableRecord
  2
ByBlock
 70
     0
  3

 72
    65
 73
     0
 40
0.0
  0
LTYPE
  5
15
330
5
100
AcDbSymbolTableRecord
100
AcDbLinetypeTableRecord
  2
ByLayer
 70
     0
  3

 72
    65
 73
     0
 40
0.0
  0
LTYPE
  5
16
330
5
100
AcDbSymbolTableRecord
100
AcDbLinetypeTableRecord
  2
Continuous
 70
     0
  3
Solid line
 72
    65
 73
     0
 40
0.0
  0
LTYPE
  5
148
330
5
100
AcDbSymbolTableRecord
100
AcDbLinetypeTableRecord
  2
CENTER
 70
     0
  3
Center ____ _ ____ _ ____ _ ____ _ ____ _ ____
 72
    65
 73
     4
 40
50.8
 49
31.75
 74
     0
 49
-6.349999999999997
 74
     0
 49
6.349999999999997
 74
     0
 49
-6.349999999999997
 74
     0
  0
LTYPE
  5
149
330
5
100
AcDbSymbolTableRecord
100
AcDbLinetypeTableRecord
  2
HIDDEN
 70
     0
  3
Hidden __ __ __ __ __ __ __ __ __ __ __ __ __ __
 72
    65
 73
     2
 40
9.524999999999996
 49
6.349999999999997
 74
     0
 49
-3.174999999999998
 74
     0
  0
LTYPE
  5
14A
330
5
100
AcDbSymbolTableRecord
100
AcDbLinetypeTableRecord
  2
PHANTOM
 70
     0
  3
Phantom ______  __  __  ______  __  __  ______
 72
    65
 73
     6
 40
63.5
 49
31.75
 74
     0
 49
-6.349999999999997
 74
     0
 49
6.349999999999997
 74
     0
 49
-6.349999999999997
 74
     0
 49
6.349999999999997
 74
     0
 49
-6.349999999999997
 74
     0
  0
ENDTAB
  0
TABLE
  2
LAYER
  5
2
102
{ACAD_XDICTIONARY
360
DD
102
}
330
0
100
AcDbSymbolTable
 70
     2
  0
LAYER
  5
10
102
{ACAD_XDICTIONARY
360
8E9
102
}
330
2
100
AcDbSymbolTableRecord
100
AcDbLayerTableRecord
  2
0
 70
     0
 62
     7
  6
Continuous
370
    -3
390
F
  0
LAYER
  5
D8
330
2
100
AcDbSymbolTableRecord
100
AcDbLayerTableRecord
  2
Defpoints
 70
     0
 62
     7
  6
Continuous
290
     0
370
    -3
390
F
  0
ENDTAB
  0
TABLE
  2
STYLE
  5
3
330
0
100
AcDbSymbolTable
 70
     6
  0
STYLE
  5
11
330
3
100
AcDbSymbolTableRecord
100
AcDbTextStyleTableRecord
  2
Standard
 70
     0
 40
0.0
 41
1.0
 50
0.0
 71
     0
 42
0.2
  3
txt.shx
  4
bigfont.shx
  0
STYLE
  5
11D
330
3
100
AcDbSymbolTableRecord
100
AcDbTextStyleTableRecord
  2
高3.2
 70
     0
 40
3.2
 41
1.0
 50
0.0
 71
     0
 42
3.2
  3
txt.shx
  4
bigfont.shx
  0
STYLE
  5
11E
330
3
100
AcDbSymbolTableRecord
100
AcDbTextStyleTableRecord
  2
高6.3
 70
     0
 40
6.299999999999998
 41
1.0
 50
0.0
 71
     0
 42
6.299999999999998
  3
txt.shx
  4
bigfont.shx
  0
STYLE
  5
11F
330
3
100
AcDbSymbolTableRecord
100
AcDbTextStyleTableRecord
  2
高2.5
 70
     0
 40
2.5
 41
1.0
 50
0.0
 71
     0
 42
0.2
  3
txt.shx
  4
bigfont.shx
  0
STYLE
  5
146
330
3
100
AcDbSymbolTableRecord
100
AcDbTextStyleTableRecord
  2
高4.5
 70
     0
 40
4.5
 41
1.0
 50
0.0
 71
     0
 42
6.299999999999998
  3
txt.shx
  4
bigfont.shx
  0
STYLE
  5
171
330
3
100
AcDbSymbolTableRecord
100
AcDbTextStyleTableRecord
  2
高2
 70
     0
 40
2.0
 41
1.0
 50
0.0
 71
     0
 42
6.299999999999998
  3
txt.shx
  4
bigfont.shx
  0
ENDTAB
  0
TABLE
  2
VIEW
  5
6
330
0
100
AcDbSymbolTable
 70
     0
  0
ENDTAB
  0
TABLE
  2
UCS
  5
7
330
0
100
AcDbSymbolTable
 70
     0
  0
ENDTAB
  0
TABLE
  2
APPID
  5
9
330
0
100
AcDbSymbolTable
 70
     9
  0
APPID
  5
12
330
9
100
AcDbSymbolTableRecord
100
AcDbRegAppTableRecord
  2
ACAD
 70
     0
  0
APPID
  5
DC
330
9
100
AcDbSymbolTableRecord
100
AcDbRegAppTableRecord
  2
ACAD_DSTYLE_DIMJOGGED_JOGANGLE_SYMBOL
 70
     0
  0
APPID
  5
3A5
330
9
100
AcDbSymbolTableRecord
100
AcDbRegAppTableRecord
  2
ACAD_EXEMPT_FROM_CAD_STANDARDS
 70
     0
  0
APPID
  5
70D
330
9
100
AcDbSymbolTableRecord
100
AcDbRegAppTableRecord
  2
ACAD_DSTYLE_DIMJAG
 70
     0
  0
APPID
  5
70E
330
9
100
AcDbSymbolTableRecord
100
AcDbRegAppTableRecord
  2
ACAD_DSTYLE_DIMBREAK
 70
     0
  0
APPID
  5
70F
330
9
100
AcDbSymbolTableRecord
100
AcDbRegAppTableRecord
  2
ACAD_DSTYLE_DIMTALN
 70
     0
  0
APPID
  5
B18
330
9
100
AcDbSymbolTableRecord
100
AcDbRegAppTableRecord
  2
ACAD_DSTYLE_DIMARC_LENGTH_SYMBOL
 70
     0
  0
APPID
  5
B19
330
9
100
AcDbSymbolTableRecord
100
AcDbRegAppTableRecord
  2
ACAD_DSTYLE_DIMEXT_LENGTH
 70
     0
  0
APPID
  5
B2E
330
9
100
AcDbSymbolTableRecord
100
AcDbRegAppTableRecord
  2
ACAD_MLEADERVER
 70
     0
  0
ENDTAB
  0
TABLE
  2
DIMSTYLE
  5
A
330
0
100
AcDbSymbolTable
 70
    10
100
AcDbDimStyleTable
 71
     5
340
12A
340
129
340
D9
340
DB
340
DA
  0
DIMSTYLE
105
D9
330
A
100
AcDbSymbolTableRecord
100
AcDbDimStyleTableRecord
  2
1：1
 70
     0
 41
2.5
 42
0.25
 43
0.2
 44
1.25
 73
     0
 74
     0
 77
     3
 78
     8
 79
     2
140
3.0
141
0.0
143
0.03937007874016
147
0.625
171
     3
172
     1
178
     4
179
     1
271
     2
272
     2
274
     3
283
     0
284
     8
288
     1
289
     0
340
11
341
C6
342
C6
1001
ACAD_DSTYLE_DIMARC_LENGTH_SYMBOL
1070
   379
1070
     2
1001
ACAD_DSTYLE_DIMEXT_LENGTH
1070
   378
1040
1.25
1001
ACAD_DSTYLE_DIMJOGGED_JOGANGLE_SYMBOL
1070
   384
1040
1.570796326794896
  0
DIMSTYLE
105
DA
330
A
100
AcDbSymbolTableRecord
100
AcDbDimStyleTableRecord
  2
2：1
 70
     0
 41
2.5
 42
0.25
 43
0.2
 44
1.25
 73
     0
 74
     0
 77
     3
 78
     8
 79
     2
140
3.0
141
0.0
143
0.03937007874016
144
0.5
147
0.625
171
     3
172
     1
178
     4
179
     1
271
     2
272
     2
274
     3
283
     0
284
     8
288
     1
289
     0
340
11
341
C6
342
C6
1001
ACAD_DSTYLE_DIMARC_LENGTH_SYMBOL
1070
   379
1070
     2
1001
ACAD_DSTYLE_DIMEXT_LENGTH
1070
   378
1040
1.25
1001
ACAD_DSTYLE_DIMJOGGED_JOGANGLE_SYMBOL
1070
   384
1040
1.570796326794896
  0
DIMSTYLE
105
DB
330
A
100
AcDbSymbolTableRecord
100
AcDbDimStyleTableRecord
  2
5：1
 70
     0
 41
2.5
 42
0.25
 43
0.2
 44
1.25
 73
     0
 74
     0
 77
     3
 78
     8
 79
     2
140
3.0
141
0.0
143
0.03937007874016
144
0.2
147
0.625
171
     3
172
     1
178
     4
179
     1
271
     2
272
     2
274
     3
283
     0
284
     8
288
     1
289
     0
340
11
341
C6
342
C6
1001
ACAD_DSTYLE_DIMARC_LENGTH_SYMBOL
1070
   379
1070
     2
1001
ACAD_DSTYLE_DIMEXT_LENGTH
1070
   378
1040
1.25
1001
ACAD_DSTYLE_DIMJOGGED_JOGANGLE_SYMBOL
1070
   384
1040
1.570796326794896
  0
DIMSTYLE
105
127
330
A
100
AcDbSymbolTableRecord
100
AcDbDimStyleTableRecord
  2
10：1
 70
     0
 41
2.5
 42
0.25
 43
0.2
 44
1.25
 73
     0
 74
     0
 77
     3
 78
     8
 79
     2
140
3.0
141
0.0
143
0.03937007874016
144
0.1
147
0.625
171
     3
172
     1
178
     4
179
     1
271
     2
272
     2
274
     3
283
     0
284
     8
288
     1
289
     0
340
11
341
C6
342
C6
1001
ACAD_DSTYLE_DIMARC_LENGTH_SYMBOL
1070
   379
1070
     2
1001
ACAD_DSTYLE_DIMEXT_LENGTH
1070
   378
1040
1.25
1001
ACAD_DSTYLE_DIMJOGGED_JOGANGLE_SYMBOL
1070
   384
1040
1.570796326794896
  0
DIMSTYLE
105
128
330
A
100
AcDbSymbolTableRecord
100
AcDbDimStyleTableRecord
  2
1／2
 70
     0
 41
2.5
 42
0.25
 43
0.2
 44
1.25
 73
     0
 74
     0
 77
     3
 78
     8
 79
     2
140
3.0
141
0.0
143
0.03937007874016
144
2.0
147
0.625
171
     3
172
     1
178
     4
179
     1
271
     2
272
     2
274
     3
283
     0
284
     8
288
     1
289
     0
340
11
341
C6
342
C6
1001
ACAD_DSTYLE_DIMARC_LENGTH_SYMBOL
1070
   379
1070
     2
1001
ACAD_DSTYLE_DIMEXT_LENGTH
1070
   378
1040
1.25
1001
ACAD_DSTYLE_DIMJOGGED_JOGANGLE_SYMBOL
1070
   384
1040
1.570796326794896
  0
DIMSTYLE
105
129
330
A
100
AcDbSymbolTableRecord
100
AcDbDimStyleTableRecord
  2
1／5
 70
     0
 41
2.5
 42
0.25
 43
0.2
 44
1.25
 73
     0
 74
     0
 77
     3
 78
     8
 79
     2
140
3.0
141
0.0
143
0.03937007874016
144
5.0
147
0.625
171
     3
172
     1
178
     4
179
     1
271
     2
272
     2
274
     3
283
     0
284
     8
288
     1
289
     0
340
11
341
C6
342
C6
1001
ACAD_DSTYLE_DIMARC_LENGTH_SYMBOL
1070
   379
1070
     2
1001
ACAD_DSTYLE_DIMEXT_LENGTH
1070
   378
1040
1.25
1001
ACAD_DSTYLE_DIMJOGGED_JOGANGLE_SYMBOL
1070
   384
1040
1.570796326794896
  0
DIMSTYLE
105
12A
330
A
100
AcDbSymbolTableRecord
100
AcDbDimStyleTableRecord
  2
1／10
 70
     0
 41
2.5
 42
0.25
 43
0.2
 44
1.25
 73
     0
 74
     0
 77
     3
 78
     8
 79
     2
140
3.0
141
0.0
143
0.03937007874016
144
10.0
147
0.625
171
     3
172
     1
178
     4
179
     1
271
     2
272
     2
274
     3
283
     0
284
     8
288
     1
289
     0
340
11
341
C6
342
C6
1001
ACAD_DSTYLE_DIMARC_LENGTH_SYMBOL
1070
   379
1070
     2
1001
ACAD_DSTYLE_DIMEXT_LENGTH
1070
   378
1040
1.25
1001
ACAD_DSTYLE_DIMJOGGED_JOGANGLE_SYMBOL
1070
   384
1040
1.570796326794896
  0
DIMSTYLE
105
70A
330
A
100
AcDbSymbolTableRecord
100
AcDbDimStyleTableRecord
  2
1／4
 70
     0
 41
2.5
 42
0.25
 43
0.2
 44
1.25
 73
     0
 74
     0
 77
     3
 78
     8
 79
     2
140
3.0
141
0.0
143
0.03937007874016
144
4.0
147
0.625
171
     3
172
     1
178
     4
179
     1
271
     2
272
     2
274
     3
283
     0
284
     8
288
     1
289
     0
340
11
341
C6
342
C6
1001
ACAD_DSTYLE_DIMARC_LENGTH_SYMBOL
1070
   379
1070
     2
1001
ACAD_DSTYLE_DIMEXT_LENGTH
1070
   378
1040
1.25
1001
ACAD_DSTYLE_DIMJOGGED_JOGANGLE_SYMBOL
1070
   384
1040
1.570796326794896
  0
DIMSTYLE
105
70B
330
A
100
AcDbSymbolTableRecord
100
AcDbDimStyleTableRecord
  2
1／3
 70
     0
 41
2.5
 42
0.25
 43
0.2
 44
1.25
 73
     0
 74
     0
 77
     3
 78
     8
 79
     2
140
3.0
141
0.0
143
0.03937007874016
144
3.0
147
0.625
171
     3
172
     1
178
     4
179
     1
271
     2
272
     2
274
     3
283
     0
284
     8
288
     1
289
     0
340
11
341
C6
342
C6
1001
ACAD_DSTYLE_DIMARC_LENGTH_SYMBOL
1070
   379
1070
     2
1001
ACAD_DSTYLE_DIMEXT_LENGTH
1070
   378
1040
1.25
1001
ACAD_DSTYLE_DIMJOGGED_JOGANGLE_SYMBOL
1070
   384
1040
1.570796326794896
  0
DIMSTYLE
105
70C
330
A
100
AcDbSymbolTableRecord
100
AcDbDimStyleTableRecord
  2
FREE
 70
     0
 41
2.5
 42
0.25
 43
0.2
 44
1.25
 73
     0
 74
     0
 77
     3
 78
     8
 79
     2
140
3.0
141
0.0
143
0.03937007874016
147
0.625
171
     3
172
     1
178
     4
179
     1
271
     2
272
     2
274
     3
283
     0
284
     8
288
     1
289
     0
340
11
341
C6
342
C6
1001
ACAD_DSTYLE_DIMBREAK
1070
   391
1040
3.75
1001
ACAD_DSTYLE_DIMJAG
1070
   388
1040
1.5
1001
ACAD_DSTYLE_DIMTALN
1070
   392
1070
     0
1001
ACAD_DSTYLE_DIMARC_LENGTH_SYMBOL
1070
   379
1070
     2
1001
ACAD_DSTYLE_DIMEXT_LENGTH
1070
   378
1040
1.25
1001
ACAD_DSTYLE_DIMJOGGED_JOGANGLE_SYMBOL
1070
   384
1040
1.570796326794896
  0
ENDTAB
  0
TABLE
  2
BLOCK_RECORD
  5
1
330
0
100
AcDbSymbolTable
 70
    27
  0
BLOCK_RECORD
  5
1F
102
{ACAD_XDICTIONARY
360
324
102
}
330
1
100
AcDbSymbolTableRecord
100
AcDbBlockTableRecord
  2
*Model_Space
340
22
  0
BLOCK_RECORD
  5
58
330
1
100
AcDbSymbolTableRecord
100
AcDbBlockTableRecord
  2
*Paper_Space
340
59
  0
BLOCK_RECORD
  5
5D
330
1
100
AcDbSymbolTableRecord
100
AcDbBlockTableRecord
  2
*Paper_Space0
340
5E
  0
BLOCK_RECORD
  5
C6
330
1
100
AcDbSymbolTableRecord
100
AcDbBlockTableRecord
  2
_Open30
340
0
102
{BLKREFS
331
101A
331
101B
331
1448
331
1449
331
1620
331
1621
331
187A
331
187B
331
1883
331
1884
331
188E
331
188F
331
1897
331
1898
331
18A0
331
18A1
331
1AB8
331
1AB9
331
1ADA
331
1ADB
331
1B03
331
1B04
331
1C34
331
1C35
331
1C3D
331
1C3E
331
1D00
331
1D01
331
1D09
331
1D0A
331
1D12
331
1D13
331
1D62
331
1D63
331
1DC5
331
1DC6
331
1DCE
331
1DCF
331
1EC1
331
1EC2
331
1ECA
331
1ECB
331
1ED3
331
1ED4
331
1EDC
331
1EDD
331
1EE5
331
1EE6
102
}
  0
BLOCK_RECORD
  5
E22
102
{ACAD_XDICTIONARY
360
F2C
102
}
330
1
100
AcDbSymbolTableRecord
100
AcDbBlockTableRecord
  2
A$C769D123E
340
0
1001
ACAD
1000
DesignCenter Data
1002
{
1070
     1
1070
     1
1002
}
  0
BLOCK_RECORD
  5
FB2
330
1
100
AcDbSymbolTableRecord
100
AcDbBlockTableRecord
  2
*D3
340
0
  0
BLOCK_RECORD
  5
105F
330
1
100
AcDbSymbolTableRecord
100
AcDbBlockTableRecord
  2
*D4
340
0
  0
BLOCK_RECORD
  5
1077
330
1
100
AcDbSymbolTableRecord
100
AcDbBlockTableRecord
  2
*D5
340
0
  0
BLOCK_RECORD
  5
108F
330
1
100
AcDbSymbolTableRecord
100
AcDbBlockTableRecord
  2
*D6
340
0
  0
BLOCK_RECORD
  5
10E2
330
1
100
AcDbSymbolTableRecord
100
AcDbBlockTableRecord
  2
*D7
340
0
  0
BLOCK_RECORD
  5
10FA
330
1
100
AcDbSymbolTableRecord
100
AcDbBlockTableRecord
  2
*D8
340
0
  0
BLOCK_RECORD
  5
1432
330
1
100
AcDbSymbolTableRecord
100
AcDbBlockTableRecord
  2
*D9
340
0
  0
BLOCK_RECORD
  5
1605
330
1
100
AcDbSymbolTableRecord
100
AcDbBlockTableRecord
  2
*D10
340
0
  0
BLOCK_RECORD
  5
162B
330
1
100
AcDbSymbolTableRecord
100
AcDbBlockTableRecord
  2
*D11
340
0
  0
BLOCK_RECORD
  5
1643
330
1
100
AcDbSymbolTableRecord
100
AcDbBlockTableRecord
  2
*D12
340
0
  0
BLOCK_RECORD
  5
165B
330
1
100
AcDbSymbolTableRecord
100
AcDbBlockTableRecord
  2
*D13
340
0
  0
BLOCK_RECORD
  5
1673
330
1
100
AcDbSymbolTableRecord
100
AcDbBlockTableRecord
  2
*D14
340
0
  0
BLOCK_RECORD
  5
1694
330
1
100
AcDbSymbolTableRecord
100
AcDbBlockTableRecord
  2
*D15
340
0
  0
BLOCK_RECORD
  5
19E6
330
1
100
AcDbSymbolTableRecord
100
AcDbBlockTableRecord
  2
*D16
340
0
  0
BLOCK_RECORD
  5
19F2
330
1
100
AcDbSymbolTableRecord
100
AcDbBlockTableRecord
  2
*D17
340
0
  0
BLOCK_RECORD
  5
19FE
330
1
100
AcDbSymbolTableRecord
100
AcDbBlockTableRecord
  2
*D18
340
0
  0
BLOCK_RECORD
  5
1A9E
330
1
100
AcDbSymbolTableRecord
100
AcDbBlockTableRecord
  2
*D19
340
0
  0
BLOCK_RECORD
  5
1AC0
330
1
100
AcDbSymbolTableRecord
100
AcDbBlockTableRecord
  2
*D20
340
0
  0
BLOCK_RECORD
  5
1AE9
330
1
100
AcDbSymbolTableRecord
100
AcDbBlockTableRecord
  2
*D21
340
0
  0
BLOCK_RECORD
  5
1B16
330
1
100
AcDbSymbolTableRecord
100
AcDbBlockTableRecord
  2
*D22
340
0
  0
BLOCK_RECORD
  5
1B6D
330
1
100
AcDbSymbolTableRecord
100
AcDbBlockTableRecord
  2
*D23
340
0
  0
BLOCK_RECORD
  5
1B79
330
1
100
AcDbSymbolTableRecord
100
AcDbBlockTableRecord
  2
*D24
340
0
  0
BLOCK_RECORD
  5
1BCA
330
1
100
AcDbSymbolTableRecord
100
AcDbBlockTableRecord
  2
*D25
340
0
  0
BLOCK_RECORD
  5
1BF0
330
1
100
AcDbSymbolTableRecord
100
AcDbBlockTableRecord
  2
*D26
340
0
  0
ENDTAB
  0
ENDSEC
  0
SECTION
  2
BLOCKS
  0
BLOCK
  5
20
330
1F
100
AcDbEntity
  8
0
100
AcDbBlockBegin
  2
*Model_Space
 70
     0
 10
0.0
 20
0.0
 30
0.0
  3
*Model_Space
  1

  0
ENDBLK
  5
21
330
1F
100
AcDbEntity
  8
0
100
AcDbBlockEnd
  0
BLOCK
  5
5A
330
58
100
AcDbEntity
 67
     1
  8
0
100
AcDbBlockBegin
  2
*Paper_Space
 70
     0
 10
0.0
 20
0.0
 30
0.0
  3
*Paper_Space
  1

  0
ENDBLK
  5
5B
330
58
100
AcDbEntity
 67
     1
  8
0
100
AcDbBlockEnd
  0
BLOCK
  5
5F
330
5D
100
AcDbEntity
 67
     1
  8
0
100
AcDbBlockBegin
  2
*Paper_Space0
 70
     0
 10
0.0
 20
0.0
 30
0.0
  3
*Paper_Space0
  1

  0
ENDBLK
  5
60
330
5D
100
AcDbEntity
 67
     1
  8
0
100
AcDbBlockEnd
  0
BLOCK
  5
C7
330
C6
100
AcDbEntity
  8
0
100
AcDbBlockBegin
  2
_Open30
 70
     0
 10
0.0
 20
0.0
 30
0.0
  3
_Open30
  1

  0
LINE
  5
C8
330
C6
100
AcDbEntity
  8
0
  6
ByBlock
 62
     0
370
    -2
100
AcDbLine
 10
-1.0
 20
0.267949
 30
0.0
 11
0.0
 21
0.0
 31
0.0
  0
LINE
  5
C9
330
C6
100
AcDbEntity
  8
0
  6
ByBlock
 62
     0
370
    -2
100
AcDbLine
 10
0.0
 20
0.0
 30
0.0
 11
-1.0
 21
-0.267949
 31
0.0
  0
LINE
  5
CA
330
C6
100
AcDbEntity
  8
0
  6
ByBlock
 62
     0
370
    -2
100
AcDbLine
 10
0.0
 20
0.0
 30
0.0
 11
-1.0
 21
0.0
 31
0.0
  0
ENDBLK
  5
CB
330
C6
100
AcDbEntity
  8
0
100
AcDbBlockEnd
  0
BLOCK
  5
F2E
330
E22
100
AcDbEntity
  8
0
100
AcDbBlockBegin
  2
A$C769D123E
 70
     0
 10
0.0
 20
0.0
 30
0.0
  3
A$C769D123E
  1

  0
LINE
  5
E23
330
E22
100
AcDbEntity
  8
0
 62
     3
100
AcDbLine
 10
19.99999818659637
 20
283.9999999941307
 30
0.0
 11
19.99999818659637
 21
9.999999994130716
 31
0.0
  0
LINE
  5
E24
330
E22
100
AcDbEntity
  8
0
 62
     3
100
AcDbLine
 10
409.9999981865964
 20
9.999999994130716
 30
0.0
 11
409.9999981865964
 21
283.9999999941307
 31
0.0
  0
LINE
  5
E25
330
E22
100
AcDbEntity
  8
0
 62
     3
100
AcDbLine
 10
19.99999818659637
 20
9.999999994130716
 30
0.0
 11
409.9999981865964
 21
9.999999994130716
 31
0.0
  0
LINE
  5
E26
330
E22
100
AcDbEntity
  8
0
 62
     3
100
AcDbLine
 10
238.6567233665965
 20
283.9999999941307
 30
0.0
 11
409.9999981865962
 21
283.9999999941307
 31
0.0
  0
LINE
  5
E27
330
E22
100
AcDbEntity
  8
0
 62
     3
100
AcDbLine
 10
190.1026886965965
 20
283.9999999941307
 30
0.0
 11
19.99999818659637
 21
283.9999999941307
 31
0.0
  0
LINE
  5
E28
330
E22
100
AcDbEntity
  8
0
 62
     3
100
AcDbLine
 10
7.598074396596302
 20
150.4446389441306
 30
0.0
 11
4.99999818659637
 21
148.9446389441306
 31
0.0
  0
LINE
  5
E29
330
E22
100
AcDbEntity
  8
0
 62
     3
100
AcDbLine
 10
7.598074396596302
 20
150.4446389441306
 30
0.0
 11
4.99999818659637
 21
151.9446389441307
 31
0.0
  0
LINE
  5
E2A
330
E22
100
AcDbEntity
  8
0
 62
     3
100
AcDbLine
 10
4.99999818659637
 20
148.9446389441306
 30
0.0
 11
4.99999818659637
 21
151.9446389441307
 31
0.0
  0
LINE
  5
E2B
330
E22
100
AcDbEntity
  8
0
 62
   254
370
     0
100
AcDbLine
 10
-0.0000018134035145
 20
-0.0000000058692819
 30
0.0
 11
-0.0000018134035145
 21
291.9999999941307
 31
0.0
  0
LINE
  5
E2C
330
E22
100
AcDbEntity
  8
0
 62
   254
370
     0
100
AcDbLine
 10
-0.0000018134035145
 20
291.9999999941307
 30
0.0
 11
419.9999981865961
 21
291.9999999941307
 31
0.0
  0
LINE
  5
E2D
330
E22
100
AcDbEntity
  8
0
 62
     3
100
AcDbLine
 10
357.9999981865965
 20
9.999999994130716
 30
0.0
 11
357.9999981865965
 21
49.99999999413072
 31
0.0
  0
LINE
  5
E2E
330
E22
100
AcDbEntity
  8
0
 62
     3
100
AcDbLine
 10
370.9999981865966
 20
19.99999999413072
 30
0.0
 11
370.9999981865966
 21
47.9999999941307
 31
0.0
  0
LINE
  5
E2F
330
E22
100
AcDbEntity
  8
0
 62
     3
100
AcDbLine
 10
330.9999981865965
 20
19.99999999413072
 30
0.0
 11
330.9999981865965
 21
33.99999999413072
 31
0.0
  0
LINE
  5
E30
330
E22
100
AcDbEntity
  8
0
 62
     3
100
AcDbLine
 10
340.9999981865965
 20
33.99999999413072
 30
0.0
 11
340.9999981865965
 21
9.999999994130716
 31
0.0
  0
LINE
  5
E31
330
E22
100
AcDbEntity
  8
0
 62
     3
100
AcDbLine
 10
311.9999981865965
 20
49.99999999413072
 30
0.0
 11
311.9999981865965
 21
26.99999999413072
 31
0.0
  0
LINE
  5
E32
330
E22
100
AcDbEntity
  8
0
 62
     3
100
AcDbLine
 10
370.9999981865966
 20
47.9999999941307
 30
0.0
 11
370.9999981865966
 21
49.99999999413072
 31
0.0
  0
LINE
  5
E33
330
E22
100
AcDbEntity
  8
0
 62
     3
100
AcDbLine
 10
383.9999981865966
 20
26.99999999413072
 30
0.0
 11
383.9999981865966
 21
49.99999999413072
 31
0.0
  0
LINE
  5
E34
330
E22
100
AcDbEntity
  8
0
 62
     3
100
AcDbLine
 10
409.9999981865964
 20
49.99999999413072
 30
0.0
 11
298.7545635465965
 21
49.99999999413073
 31
0.0
  0
LINE
  5
E35
330
E22
100
AcDbEntity
  8
0
 62
     3
100
AcDbLine
 10
409.9999981865964
 20
40.9999999941307
 30
0.0
 11
298.7545635465965
 21
40.9999999941307
 31
0.0
  0
LINE
  5
E36
330
E22
100
AcDbEntity
  8
0
 62
     3
100
AcDbLine
 10
409.9999981865964
 20
26.99999999413072
 30
0.0
 11
298.7545635465965
 21
26.99999999413072
 31
0.0
  0
LINE
  5
E37
330
E22
100
AcDbEntity
  8
0
 62
     3
100
AcDbLine
 10
409.9999981865964
 20
19.99999999413072
 30
0.0
 11
298.6965556865964
 21
19.99999999413072
 31
0.0
  0
LINE
  5
E38
330
E22
100
AcDbEntity
  8
0
 62
     3
100
AcDbLine
 10
396.9999981865965
 20
26.99999999413072
 30
0.0
 11
396.9999981865965
 21
49.99999999413072
 31
0.0
  0
LINE
  5
E39
330
E22
100
AcDbEntity
  8
0
 62
     3
100
AcDbLine
 10
298.7545635465965
 20
49.99999999413073
 30
0.0
 11
298.7545635465965
 21
9.999999994130716
 31
0.0
  0
LINE
  5
E3A
330
E22
100
AcDbEntity
  8
0
 62
     3
100
AcDbLine
 10
357.9999981865965
 20
33.99999999413072
 30
0.0
 11
298.7545635465965
 21
33.99999999413071
 31
0.0
  0
LINE
  5
E3B
330
E22
100
AcDbEntity
  8
0
 62
     3
100
AcDbLine
 10
341.2783231165963
 20
14.8328612541307
 30
0.0
 11
357.9999981865965
 21
14.8328612541307
 31
0.0
  0
TEXT
  5
E3C
330
E22
100
AcDbEntity
  8
0
 62
     3
100
AcDbText
 10
342.1643235999122
 20
29.07309684749606
 30
0.0
 40
2.5
  1
******
  7
高2.5
100
AcDbText
  0
TEXT
  5
E3D
330
E22
100
AcDbEntity
  8
0
 62
     3
100
AcDbText
 10
313.1963668818487
 20
29.29781439911463
 30
0.0
 40
2.5
  1
*****
  7
高2.5
100
AcDbText
  0
TEXT
  5
E3E
330
E22
100
AcDbEntity
  8
0
 62
     3
100
AcDbText
 10
313.461274636546
 20
42.3122495178886
 30
0.0
 40
4.5
  1
**********
  7
高4.5
100
AcDbText
1001
ACAD
1000
ACAD_MTEXT_DEFINED_HEIGHT_BEGIN
1070
    46
1040
0.0
1000
ACAD_MTEXT_DEFINED_HEIGHT_END
  0
TEXT
  5
E3F
330
E22
100
AcDbEntity
  8
0
 62
     3
100
AcDbText
 10
400.0655872800703
 20
46.5136920928343
 30
0.0
 40
2.0
  1
DEF
  7
高2
100
AcDbText
  0
TEXT
  5
E40
330
E22
100
AcDbEntity
  8
0
 62
     3
100
AcDbText
 10
386.1264889263623
 20
46.51369209283421
 30
0.0
 40
2.0
  1
DESN
  7
高2
100
AcDbText
  0
TEXT
  5
E41
330
E22
100
AcDbEntity
  8
0
 62
     3
100
AcDbText
 10
359.8721219863622
 20
46.5136920928343
 30
0.0
 40
2.0
  1
APPD
  7
高2
100
AcDbText
  0
TEXT
  5
E42
330
E22
100
AcDbEntity
  8
0
 62
     3
100
AcDbText
 10
372.9848580865964
 20
46.51369209283433
 30
0.0
 40
2.0
  1
CHCK
  7
高2
100
AcDbText
  0
TEXT
  5
E43
330
E22
100
AcDbEntity
  8
0
 62
     3
100
AcDbText
 10
331.9271638257492
 20
24.16839881736144
 30
0.0
 40
2.0
  1
SCALE
 41
0.8
  7
高2
100
AcDbText
  0
TEXT
  5
E44
330
E22
100
AcDbEntity
  8
0
 62
     3
100
AcDbText
 10
300.4391422496427
 20
24.16839881736145
 30
0.0
 40
2.0
  1
3AD　ANGLE
 41
1.5
  7
高2
100
AcDbText
  0
TEXT
  5
E45
330
E22
100
AcDbEntity
  8
0
 62
     3
100
AcDbText
 10
331.196569516598
 20
30.91993688631854
 30
0.0
 40
2.0
  1
REMARKS
 41
0.7
  7
高2
100
AcDbText
  0
TEXT
  5
E46
330
E22
100
AcDbEntity
  8
0
 62
     3
100
AcDbText
 10
300.2222338965964
 20
30.99999999413072
 30
0.0
 40
2.0
  1
MATERIAL
 41
0.7
  7
高2
100
AcDbText
  0
TEXT
  5
E47
330
E22
100
AcDbEntity
  8
0
 62
     3
100
AcDbText
 10
300.7987210993507
 20
37.99999999413071
 30
0.0
 40
2.0
  1
MODEL
  7
高2
100
AcDbText
  0
TEXT
  5
E48
330
E22
100
AcDbEntity
  8
0
 62
     3
100
AcDbText
 10
300.4356419806818
 20
46.7070213447297
 30
0.0
 40
2.0
  1
CONPONENTS
 41
0.5
  7
高2
100
AcDbText
  0
TEXT
  5
E49
330
E22
100
AcDbEntity
  8
0
 62
     3
100
AcDbText
 10
313.1427574518486
 20
35.08748112194266
 30
0.0
 40
4.5
  1
********
  7
高4.5
100
AcDbText
  0
TEXT
  5
E4A
330
E22
100
AcDbEntity
  8
0
 62
     3
100
AcDbText
 10
361.0953416256493
 20
11.14419095096582
 30
0.0
 40
6.299999999999998
  1
*-********
 41
0.6
  7
高6.3
100
AcDbText
1001
ACAD
1000
ACAD_MTEXT_DEFINED_HEIGHT_BEGIN
1070
    46
1040
0.0
1000
ACAD_MTEXT_DEFINED_HEIGHT_END
  0
TEXT
  5
E4B
330
E22
100
AcDbEntity
  8
0
 62
     3
100
AcDbText
 10
374.563507936926
 20
21.10088915236372
 30
0.0
 40
3.2
  1
******
  7
高3.2
100
AcDbText
1001
ACAD
1000
ACAD_MTEXT_DEFINED_HEIGHT_BEGIN
1070
    46
1040
0.0
1000
ACAD_MTEXT_DEFINED_HEIGHT_END
  0
TEXT
  5
E4C
330
E22
100
AcDbEntity
  8
0
 62
     3
100
AcDbText
 10
344.7875960812428
 20
21.10091699669859
 30
0.0
 40
3.2
  1
1/1
  7
高3.2
100
AcDbText
  0
TEXT
  5
E4D
330
E22
100
AcDbEntity
  8
0
 62
     3
100
AcDbText
 10
341.8649250565963
 20
10.81687816726668
 30
0.0
 40
3.2
  1
ZK-A3X
 41
0.8
  7
高3.2
100
AcDbText
  0
TEXT
  5
E4E
330
E22
100
AcDbEntity
  8
0
 62
     3
100
AcDbText
 10
299.5852645865964
 20
16.52462041631854
 30
0.0
 40
2.0
  1
NICHIDO IND.CO.LTD
 41
1.3
  7
高2
100
AcDbText
  0
TEXT
  5
E4F
330
E22
100
AcDbEntity
  8
0
 62
     3
100
AcDbText
 10
300.7667878515535
 20
42.14052820201565
 30
0.0
 40
3.2
  1
品 名
  7
高3.2
100
AcDbText
1001
ACAD
1000
ACAD_MTEXT_DEFINED_HEIGHT_BEGIN
1070
    46
1040
0.0
1000
ACAD_MTEXT_DEFINED_HEIGHT_END
  0
TEXT
  5
E50
330
E22
100
AcDbEntity
  8
0
 62
     3
100
AcDbText
 10
300.7667878515535
 20
34.49999999413071
 30
0.0
 40
3.2
  1
型 式
  7
高3.2
100
AcDbText
1001
ACAD
1000
ACAD_MTEXT_DEFINED_HEIGHT_BEGIN
1070
    46
1040
3.064735913775952
1000
ACAD_MTEXT_DEFINED_HEIGHT_END
  0
TEXT
  5
E51
330
E22
100
AcDbEntity
  8
0
 62
     3
100
AcDbText
 10
300.7667878515535
 20
27.49999999413072
 30
0.0
 40
3.2
  1
材 質
  7
高3.2
100
AcDbText
1001
ACAD
1000
ACAD_MTEXT_DEFINED_HEIGHT_BEGIN
1070
    46
1040
0.0
1000
ACAD_MTEXT_DEFINED_HEIGHT_END
  0
TEXT
  5
E52
330
E22
100
AcDbEntity
  8
0
 62
     3
100
AcDbText
 10
300.4617529015536
 20
20.46743998637696
 30
0.0
 40
3.2
  1
第 三 角 法
  7
高3.2
100
AcDbText
1001
ACAD
1000
ACAD_MTEXT_DEFINED_HEIGHT_BEGIN
1070
    46
1040
0.0
1000
ACAD_MTEXT_DEFINED_HEIGHT_END
  0
TEXT
  5
E53
330
E22
100
AcDbEntity
  8
0
 62
     3
100
AcDbText
 10
298.8682855090824
 20
11.14052820201564
 30
0.0
 40
3.2
  1
日動工業株式会社
 41
1.199999999999999
  7
高3.2
100
AcDbText
1001
ACAD
1000
ACAD_MTEXT_DEFINED_HEIGHT_BEGIN
1070
    46
1040
0.0
1000
ACAD_MTEXT_DEFINED_HEIGHT_END
  0
TEXT
  5
E54
330
E22
100
AcDbEntity
  8
0
 62
     3
100
AcDbText
 10
332.503909708561
 20
27.38457852729828
 30
0.0
 40
3.2
  1
備考
  7
高3.2
100
AcDbText
1001
ACAD
1000
ACAD_MTEXT_DEFINED_HEIGHT_BEGIN
1070
    46
1040
0.0
1000
ACAD_MTEXT_DEFINED_HEIGHT_END
  0
TEXT
  5
E55
330
E22
100
AcDbEntity
  8
0
 62
     3
100
AcDbText
 10
342.1529671555963
 20
16.14623001970101
 30
0.0
 40
2.5
  1
出図コード
  7
高2.5
100
AcDbText
1001
ACAD
1000
ACAD_MTEXT_DEFINED_HEIGHT_BEGIN
1070
    46
1040
0.0
1000
ACAD_MTEXT_DEFINED_HEIGHT_END
  0
TEXT
  5
E56
330
E22
100
AcDbEntity
  8
0
 62
     3
100
AcDbText
 10
332.3451435904735
 20
20.45323490454364
 30
0.0
 40
3.2
  1
尺度
  7
高3.2
100
AcDbText
1001
ACAD
1000
ACAD_MTEXT_DEFINED_HEIGHT_BEGIN
1070
    46
1040
0.0
1000
ACAD_MTEXT_DEFINED_HEIGHT_END
  0
TEXT
  5
E57
330
E22
100
AcDbEntity
  8
0
 62
     3
100
AcDbText
 10
359.4914050722524
 20
21.58471335266113
 30
0.0
 40
3.2
  1
作成日
  7
高3.2
100
AcDbText
1001
ACAD
1000
ACAD_MTEXT_DEFINED_HEIGHT_BEGIN
1070
    46
1040
0.0
1000
ACAD_MTEXT_DEFINED_HEIGHT_END
  0
TEXT
  5
E58
330
E22
100
AcDbEntity
  8
0
 62
     3
100
AcDbText
 10
359.3858790791162
 20
42.14052820201565
 30
0.0
 40
3.2
  1
承 認
  7
高3.2
100
AcDbText
1001
ACAD
1000
ACAD_MTEXT_DEFINED_HEIGHT_BEGIN
1070
    46
1040
0.0
1000
ACAD_MTEXT_DEFINED_HEIGHT_END
  0
TEXT
  5
E59
330
E22
100
AcDbEntity
  8
0
 62
     3
100
AcDbText
 10
372.3858790791162
 20
42.14052820201565
 30
0.0
 40
3.2
  1
検 図
  7
高3.2
100
AcDbText
1001
ACAD
1000
ACAD_MTEXT_DEFINED_HEIGHT_BEGIN
1070
    46
1040
0.0
1000
ACAD_MTEXT_DEFINED_HEIGHT_END
  0
TEXT
  5
E5A
330
E22
100
AcDbEntity
  8
0
 62
     3
100
AcDbText
 10
385.3858790791162
 20
42.14052820201565
 30
0.0
 40
3.2
  1
設 計
  7
高3.2
100
AcDbText
1001
ACAD
1000
ACAD_MTEXT_DEFINED_HEIGHT_BEGIN
1070
    46
1040
0.0
1000
ACAD_MTEXT_DEFINED_HEIGHT_END
  0
TEXT
  5
E5B
330
E22
100
AcDbEntity
  8
0
 62
     3
100
AcDbText
 10
398.6865155991162
 20
42.14052820201565
 30
0.0
 40
3.2
  1
製 図
  7
高3.2
100
AcDbText
1001
ACAD
1000
ACAD_MTEXT_DEFINED_HEIGHT_BEGIN
1070
    46
1040
0.0
1000
ACAD_MTEXT_DEFINED_HEIGHT_END
  0
LINE
  5
E5C
330
E22
100
AcDbEntity
  8
0
 62
     3
100
AcDbLine
 10
198.9789907271299
 20
286.3329566777442
 30
0.0
 11
198.9789907271299
 21
281.5981987292973
 31
0.0
  0
LINE
  5
E5D
330
E22
100
AcDbEntity
  8
0
 62
     3
100
AcDbLine
 10
199.9441995486006
 20
284.4845004919676
 30
0.0
 11
199.9441995486006
 21
281.5981987292973
 31
0.0
  0
LINE
  5
E5E
330
E22
100
AcDbEntity
  8
0
 62
     3
100
AcDbLine
 10
202.6530537345975
 20
286.3329566777442
 30
0.0
 11
202.6530537345975
 21
284.2481715114516
 31
0.0
  0
LINE
  5
E5F
330
E22
100
AcDbEntity
  8
0
 62
     3
100
AcDbLine
 10
203.6182615442728
 20
286.3329566777442
 30
0.0
 11
203.6182615442728
 21
280.9636161488519
 31
0.0
  0
LINE
  5
E60
330
E22
100
AcDbEntity
  8
0
 62
     3
100
AcDbLine
 10
205.1557182373362
 20
286.3004355000498
 30
0.0
 11
205.1557182373362
 21
281.5657352239116
 31
0.0
  0
LINE
  5
E61
330
E22
100
AcDbEntity
  8
0
 62
     3
100
AcDbLine
 10
206.6850300305421
 20
286.3004142523569
 30
0.0
 11
206.6850300305421
 21
281.5657139762189
 31
0.0
  0
LINE
  5
E62
330
E22
100
AcDbEntity
  8
0
 62
     3
100
AcDbLine
 10
212.3469265326846
 20
286.3003434267143
 30
0.0
 11
212.3468435655034
 21
281.5656441623712
 31
0.0
  0
LINE
  5
E63
330
E22
100
AcDbEntity
  8
0
 62
     3
100
AcDbLine
 10
217.0254013665763
 20
286.3003434267143
 30
0.0
 11
217.0254843337575
 21
281.5656441623712
 31
0.0
  0
LINE
  5
E64
330
E22
100
AcDbEntity
  8
0
 62
     3
100
AcDbLine
 10
215.4632021921434
 20
284.2375354573091
 30
0.0
 11
213.9091257071175
 21
284.2375354573091
 31
0.0
  0
LINE
  5
E65
330
E22
100
AcDbEntity
  8
0
 62
     3
100
AcDbLine
 10
215.4631920741945
 20
283.6285927712666
 30
0.0
 11
213.9091368368613
 21
283.6285927712666
 31
0.0
  0
LINE
  5
E66
330
E22
100
AcDbEntity
  8
0
 62
     3
100
AcDbLine
 10
215.4632386167596
 20
286.3003434267143
 30
0.0
 11
215.4632021921434
 21
284.2375354573091
 31
0.0
  0
LINE
  5
E67
330
E22
100
AcDbEntity
  8
0
 62
     3
100
AcDbLine
 10
215.4631920741945
 20
283.6285927712666
 30
0.0
 11
215.4631556495781
 21
281.5656441623712
 31
0.0
  0
LINE
  5
E68
330
E22
100
AcDbEntity
  8
0
 62
     3
100
AcDbLine
 10
213.9090892825013
 20
286.3003434267143
 30
0.0
 11
213.9091257071175
 21
284.2375354573091
 31
0.0
  0
LINE
  5
E69
330
E22
100
AcDbEntity
  8
0
 62
     3
100
AcDbLine
 10
213.9091368368613
 20
283.6285927712666
 30
0.0
 11
213.9091722496825
 21
281.5656441623712
 31
0.0
  0
LINE
  5
E6A
330
E22
100
AcDbEntity
  8
0
 62
     3
100
AcDbLine
 10
218.566574246064
 20
286.3003434267143
 30
0.0
 11
218.5664912788827
 21
281.5656441623712
 31
0.0
  0
LINE
  5
E6B
330
E22
100
AcDbEntity
  8
0
 62
     3
100
AcDbLine
 10
220.0958536618334
 20
286.3003434267143
 30
0.0
 11
220.0959356172195
 21
281.5656441623712
 31
0.0
  0
LINE
  5
E6C
330
E22
100
AcDbEntity
  8
0
 62
     3
100
AcDbLine
 10
221.6547809851429
 20
286.3003434267143
 30
0.0
 11
221.6546990297565
 21
281.5656441623712
 31
0.0
  0
ARC
  5
E6D
330
E22
100
AcDbEntity
  8
0
 62
     3
100
AcDbCircle
 10
210.0510690009655
 20
283.9466363309928
 30
0.0
 40
3.015561595733376
100
AcDbArc
 50
97.70152400000624
 51
266.0248408089489
  0
ARC
  5
E6E
330
E22
100
AcDbEntity
  8
0
 62
     3
100
AcDbCircle
 10
228.2489679580369
 20
283.9163452154633
 30
0.0
 40
3.048311372854727
100
AcDbArc
 50
0.3142499999975672
 51
69.00558200000452
  0
ARC
  5
E6F
330
E22
100
AcDbEntity
  8
0
 62
     3
100
AcDbCircle
 10
228.9148372601874
 20
283.9163452154633
 30
0.0
 40
3.048311372854727
100
AcDbArc
 50
110.9944179999954
 51
148.1166110000009
  0
ARC
  5
E70
330
E22
100
AcDbEntity
  8
0
 62
     3
100
AcDbCircle
 10
228.2489679580369
 20
283.9497830131125
 30
0.0
 40
3.048311372854727
100
AcDbArc
 50
290.9944179999955
 51
359.6857499999992
  0
ARC
  5
E71
330
E22
100
AcDbEntity
  8
0
 62
     3
100
AcDbCircle
 10
228.9148372601874
 20
283.9497830131125
 30
0.0
 40
3.048311372854727
100
AcDbArc
 50
211.8833889999971
 51
249.0055820000045
  0
ARC
  5
E72
330
E22
100
AcDbEntity
  8
0
 62
     3
100
AcDbCircle
 10
228.5819031150095
 20
285.1801812526487
 30
0.0
 40
1.754843910410663
100
AcDbArc
 50
64.36517200000682
 51
115.6348279999931
  0
ARC
  5
E73
330
E22
100
AcDbEntity
  8
0
 62
     3
100
AcDbCircle
 10
228.5819031150095
 20
282.6859469759272
 30
0.0
 40
1.754843910410663
100
AcDbArc
 50
244.3651720000068
 51
295.6348279999931
  0
ARC
  5
E74
330
E22
100
AcDbEntity
  8
0
 62
     3
100
AcDbCircle
 10
228.5819031150095
 20
285.2135158472186
 30
0.0
 40
0.8612620730595795
100
AcDbArc
 50
19.48660600000012
 51
160.5133939999998
  0
ARC
  5
E75
330
E22
100
AcDbEntity
  8
0
 62
     3
100
AcDbCircle
 10
228.5819031150095
 20
282.6526133931521
 30
0.0
 40
0.8612620730595795
100
AcDbArc
 50
199.4866060000001
 51
340.5133939999999
  0
LINE
  5
E76
330
E22
100
AcDbEntity
  8
0
 62
     3
100
AcDbLine
 10
220.6021646478169
 20
280.9311030655166
 30
0.0
 11
218.0602632600805
 21
280.9311030655166
 31
0.0
  0
LINE
  5
E77
330
E22
100
AcDbEntity
  8
0
 62
     3
100
AcDbLine
 10
220.6021646478169
 20
281.2368978362588
 30
0.0
 11
220.6021646478169
 21
280.9311030655166
 31
0.0
  0
LINE
  5
E78
330
E22
100
AcDbEntity
  8
0
 62
     3
100
AcDbLine
 10
217.5317133643546
 20
286.9348824999793
 30
0.0
 11
214.9569276307762
 21
286.9348824999793
 31
0.0
  0
LINE
  5
E79
330
E22
100
AcDbEntity
  8
0
 62
     3
100
AcDbLine
 10
217.5317133643546
 20
286.9348824999793
 30
0.0
 11
217.5317133643546
 21
286.629230392317
 31
0.0
  0
LINE
  5
E7A
330
E22
100
AcDbEntity
  8
0
 62
     3
100
AcDbLine
 10
217.5317133643546
 20
281.2368978362588
 30
0.0
 11
217.5317133643546
 21
280.9309604024365
 31
0.0
  0
LINE
  5
E7B
330
E22
100
AcDbEntity
  8
0
 62
     3
100
AcDbLine
 10
217.5317133643546
 20
280.9309604024365
 30
0.0
 11
214.9569276307762
 21
280.9309604024365
 31
0.0
  0
LINE
  5
E7C
330
E22
100
AcDbEntity
  8
0
 62
     3
100
AcDbLine
 10
220.6021646478169
 20
286.9350251630593
 30
0.0
 11
220.6021646478169
 21
286.629230392317
 31
0.0
  0
LINE
  5
E7D
330
E22
100
AcDbEntity
  8
0
 62
     3
100
AcDbLine
 10
220.6021646478169
 20
286.9350251630593
 30
0.0
 11
218.0602632600805
 21
286.9350251630593
 31
0.0
  0
LINE
  5
E7E
330
E22
100
AcDbEntity
  8
0
 62
     3
100
AcDbLine
 10
218.0602632600805
 20
286.9350251630593
 30
0.0
 11
218.0602632600805
 21
286.629230392317
 31
0.0
  0
LINE
  5
E7F
330
E22
100
AcDbEntity
  8
0
 62
     3
100
AcDbLine
 10
221.1484699991597
 20
281.2368978362588
 30
0.0
 11
221.1484699991597
 21
280.9311030655166
 31
0.0
  0
LINE
  5
E80
330
E22
100
AcDbEntity
  8
0
 62
     3
100
AcDbLine
 10
223.8930918614358
 20
280.9311030655166
 30
0.0
 11
221.1484699991597
 21
280.9311030655166
 31
0.0
  0
LINE
  5
E81
330
E22
100
AcDbEntity
  8
0
 62
     3
100
AcDbLine
 10
223.1840604009124
 20
285.9698173533837
 30
0.0
 11
223.1840604009124
 21
281.896310875192
 31
0.0
  0
LINE
  5
E82
330
E22
100
AcDbEntity
  8
0
 62
     3
100
AcDbLine
 10
223.1840604009124
 20
281.896310875192
 30
0.0
 11
223.4587606909795
 21
281.896310875192
 31
0.0
  0
ARC
  5
E83
330
E22
100
AcDbEntity
  8
0
 62
     3
100
AcDbCircle
 10
222.0541212527883
 20
283.9330641142879
 30
0.0
 40
2.474141041926213
100
AcDbArc
 50
304.591955000008
 51
55.408044999992
  0
LINE
  5
E84
330
E22
100
AcDbEntity
  8
0
 62
     3
100
AcDbLine
 10
223.8930918614358
 20
286.9350251630593
 30
0.0
 11
221.1484699991597
 21
286.9350251630593
 31
0.0
  0
LINE
  5
E85
330
E22
100
AcDbEntity
  8
0
 62
     3
100
AcDbLine
 10
221.1484699991597
 20
286.9350251630593
 30
0.0
 11
221.1484699991597
 21
286.629230392317
 31
0.0
  0
LINE
  5
E86
330
E22
100
AcDbEntity
  8
0
 62
     3
100
AcDbLine
 10
218.0602632600805
 20
281.2368978362588
 30
0.0
 11
218.0602632600805
 21
280.9311030655166
 31
0.0
  0
LINE
  5
E87
330
E22
100
AcDbEntity
  8
0
 62
     3
100
AcDbLine
 10
223.1840604009124
 20
285.9698173533837
 30
0.0
 11
223.4587606909795
 21
285.9698173533837
 31
0.0
  0
LINE
  5
E88
330
E22
100
AcDbEntity
  8
0
 62
     3
100
AcDbLine
 10
207.1912529901553
 20
281.2368882650634
 30
0.0
 11
207.1912469193862
 21
280.9310651640641
 31
0.0
  0
LINE
  5
E89
330
E22
100
AcDbEntity
  8
0
 62
     3
100
AcDbLine
 10
198.4726797411465
 20
280.9636161488519
 30
0.0
 11
200.4505105345838
 21
280.9636161488519
 31
0.0
  0
ARC
  5
E8A
330
E22
100
AcDbEntity
  8
0
 62
     3
100
AcDbCircle
 10
190.5288527955408
 20
284.0037551881305
 30
0.0
 40
21.26730034229026
100
AcDbArc
 50
353.8660059999985
 51
357.6940340000007
  0
LINE
  5
E8B
330
E22
100
AcDbEntity
  8
0
 62
     3
100
AcDbLine
 10
210.3550900952591
 20
283.1533162850495
 30
0.0
 11
211.7789323887391
 21
283.1480478690377
 31
0.0
  0
LINE
  5
E8C
330
E22
100
AcDbEntity
  8
0
 62
     3
100
AcDbLine
 10
210.3608401256404
 20
284.7074544895639
 30
0.0
 11
210.3339152517226
 21
284.8798461271531
 31
0.0
  0
LINE
  5
E8D
330
E22
100
AcDbEntity
  8
0
 62
     3
100
AcDbLine
 10
210.3339152517226
 20
284.8798461271531
 30
0.0
 11
210.3015792987126
 21
285.0449204640707
 31
0.0
  0
LINE
  5
E8E
330
E22
100
AcDbEntity
  8
0
 62
     3
100
AcDbLine
 10
210.3015792987126
 20
285.0449204640707
 30
0.0
 11
210.2640831917445
 21
285.2014006151606
 31
0.0
  0
LINE
  5
E8F
330
E22
100
AcDbEntity
  8
0
 62
     3
100
AcDbLine
 10
210.2640831917445
 20
285.2014006151606
 30
0.0
 11
210.2217142805682
 21
285.34807647373
 31
0.0
  0
LINE
  5
E90
330
E22
100
AcDbEntity
  8
0
 62
     3
100
AcDbLine
 10
210.2217142805682
 20
285.34807647373
 30
0.0
 11
210.174802410319
 21
285.4838158412927
 31
0.0
  0
LINE
  5
E91
330
E22
100
AcDbEntity
  8
0
 62
     3
100
AcDbLine
 10
210.174802410319
 20
285.4838158412927
 30
0.0
 11
210.1237087917736
 21
285.607568474749
 31
0.0
  0
LINE
  5
E92
330
E22
100
AcDbEntity
  8
0
 62
     3
100
AcDbLine
 10
210.1237087917736
 20
285.607568474749
 30
0.0
 11
210.068828024941
 21
285.7183772161294
 31
0.0
  0
LINE
  5
E93
330
E22
100
AcDbEntity
  8
0
 62
     3
100
AcDbLine
 10
210.068828024941
 20
285.7183772161294
 30
0.0
 11
210.0105860754711
 21
285.8153870987485
 31
0.0
  0
LINE
  5
E94
330
E22
100
AcDbEntity
  8
0
 62
     3
100
AcDbLine
 10
210.0105860754711
 20
285.8153870987485
 30
0.0
 11
209.9494321802972
 21
285.8978483825904
 31
0.0
  0
LINE
  5
E95
330
E22
100
AcDbEntity
  8
0
 62
     3
100
AcDbLine
 10
209.9494321802972
 20
285.8978483825904
 30
0.0
 11
209.8858388476344
 21
285.9651216132818
 31
0.0
  0
LINE
  5
E96
330
E22
100
AcDbEntity
  8
0
 62
     3
100
AcDbLine
 10
209.8858388476344
 20
285.9651216132818
 30
0.0
 11
209.8202978098011
 21
286.0166887518374
 31
0.0
  0
LINE
  5
E97
330
E22
100
AcDbEntity
  8
0
 62
     3
100
AcDbLine
 10
209.8202978098011
 20
286.0166887518374
 30
0.0
 11
209.753314964244
 21
286.052150139274
 31
0.0
  0
LINE
  5
E98
330
E22
100
AcDbEntity
  8
0
 62
     3
100
AcDbLine
 10
209.753314964244
 20
286.052150139274
 30
0.0
 11
209.685409361744
 21
286.0712325909704
 31
0.0
  0
LINE
  5
E99
330
E22
100
AcDbEntity
  8
0
 62
     3
100
AcDbLine
 10
209.685409361744
 20
286.0712325909704
 30
0.0
 11
209.6171051120557
 21
286.0737883848722
 31
0.0
  0
LINE
  5
E9A
330
E22
100
AcDbEntity
  8
0
 62
     3
100
AcDbLine
 10
209.6171051120557
 20
286.0737883848722
 30
0.0
 11
209.548930372114
 21
286.0597962732862
 31
0.0
  0
LINE
  5
E9B
330
E22
100
AcDbEntity
  8
0
 62
     3
100
AcDbLine
 10
209.548930372114
 20
286.0597962732862
 30
0.0
 11
209.4814112752633
 21
286.0293665418562
 31
0.0
  0
LINE
  5
E9C
330
E22
100
AcDbEntity
  8
0
 62
     3
100
AcDbLine
 10
209.4814112752633
 20
286.0293665418562
 30
0.0
 11
209.4150709194639
 21
285.9827339269975
 31
0.0
  0
LINE
  5
E9D
330
E22
100
AcDbEntity
  8
0
 62
     3
100
AcDbLine
 10
209.4150709194639
 20
285.9827339269975
 30
0.0
 11
209.3504222847266
 21
285.9202576158974
 31
0.0
  0
LINE
  5
E9E
330
E22
100
AcDbEntity
  8
0
 62
     3
100
AcDbLine
 10
209.3504222847266
 20
285.9202576158974
 30
0.0
 11
209.2879631741398
 21
285.842421246515
 31
0.0
  0
LINE
  5
E9F
330
E22
100
AcDbEntity
  8
0
 62
     3
100
AcDbLine
 10
209.2879631741398
 20
285.842421246515
 30
0.0
 11
209.2281782374571
 21
285.7498268368122
 31
0.0
  0
LINE
  5
EA0
330
E22
100
AcDbEntity
  8
0
 62
     3
100
AcDbLine
 10
209.2281782374571
 20
285.7498268368122
 30
0.0
 11
209.1715288531502
 21
285.6431897257789
 31
0.0
  0
LINE
  5
EA1
330
E22
100
AcDbEntity
  8
0
 62
     3
100
AcDbLine
 10
209.1715288531502
 20
285.6431897257789
 30
0.0
 11
209.1184531284079
 21
285.5233335144585
 31
0.0
  0
LINE
  5
EA2
330
E22
100
AcDbEntity
  8
0
 62
     3
100
AcDbLine
 10
209.1184531284079
 20
285.5233335144585
 30
0.0
 11
209.0693608401625
 21
285.3911860187687
 31
0.0
  0
LINE
  5
EA3
330
E22
100
AcDbEntity
  8
0
 62
     3
100
AcDbLine
 10
209.0693608401625
 20
285.3911860187687
 30
0.0
 11
209.024631411499
 21
285.2477681397571
 31
0.0
  0
LINE
  5
EA4
330
E22
100
AcDbEntity
  8
0
 62
     3
100
AcDbLine
 10
209.024631411499
 20
285.2477681397571
 30
0.0
 11
208.984611888066
 21
285.0941888046277
 31
0.0
  0
LINE
  5
EA5
330
E22
100
AcDbEntity
  8
0
 62
     3
100
AcDbLine
 10
208.984611888066
 20
285.0941888046277
 30
0.0
 11
208.9496098555112
 21
284.9316338369956
 31
0.0
  0
LINE
  5
EA6
330
E22
100
AcDbEntity
  8
0
 62
     3
100
AcDbLine
 10
208.9496098555112
 20
284.9316338369956
 30
0.0
 11
208.9198964748659
 21
284.7613598861189
 31
0.0
  0
LINE
  5
EA7
330
E22
100
AcDbEntity
  8
0
 62
     3
100
AcDbLine
 10
208.9198964748659
 20
284.7613598861189
 30
0.0
 11
208.8957024353663
 21
284.5846843089494
 31
0.0
  0
LINE
  5
EA8
330
E22
100
AcDbEntity
  8
0
 62
     3
100
AcDbLine
 10
208.8957024353663
 20
284.5846843089494
 30
0.0
 11
208.8772128954777
 21
284.4029720167987
 31
0.0
  0
LINE
  5
EA9
330
E22
100
AcDbEntity
  8
0
 62
     3
100
AcDbLine
 10
208.8772128954777
 20
284.4029720167987
 30
0.0
 11
208.8645725418698
 21
284.2176273809794
 31
0.0
  0
LINE
  5
EAA
330
E22
100
AcDbEntity
  8
0
 62
     3
100
AcDbLine
 10
208.8645725418698
 20
284.2176273809794
 30
0.0
 11
208.8578785068528
 21
284.0300841148561
 31
0.0
  0
LINE
  5
EAB
330
E22
100
AcDbEntity
  8
0
 62
     3
100
AcDbLine
 10
208.8578785068528
 20
284.0300841148561
 30
0.0
 11
208.8571813801709
 21
283.8417900969215
 31
0.0
  0
LINE
  5
EAC
330
E22
100
AcDbEntity
  8
0
 62
     3
100
AcDbLine
 10
208.8571813801709
 20
283.8417900969215
 30
0.0
 11
208.8624882443887
 21
283.6542013000278
 31
0.0
  0
LINE
  5
EAD
330
E22
100
AcDbEntity
  8
0
 62
     3
100
AcDbLine
 10
208.8624882443887
 20
283.6542013000278
 30
0.0
 11
208.8737566041207
 21
283.4687686380529
 31
0.0
  0
LINE
  5
EAE
330
E22
100
AcDbEntity
  8
0
 62
     3
100
AcDbLine
 10
208.8737566041207
 20
283.4687686380529
 30
0.0
 11
208.8909004568006
 21
283.286923800771
 31
0.0
  0
LINE
  5
EAF
330
E22
100
AcDbEntity
  8
0
 62
     3
100
AcDbLine
 10
208.8909004568006
 20
283.286923800771
 30
0.0
 11
208.9137872572974
 21
283.1100741948798
 31
0.0
  0
LINE
  5
EB0
330
E22
100
AcDbEntity
  8
0
 62
     3
100
AcDbLine
 10
208.9137872572974
 20
283.1100741948798
 30
0.0
 11
208.9422389297101
 21
282.9395857434857
 31
0.0
  0
LINE
  5
EB1
330
E22
100
AcDbEntity
  8
0
 62
     3
100
AcDbLine
 10
208.9422389297101
 20
282.9395857434857
 30
0.0
 11
208.9760369263413
 21
282.7767768153353
 31
0.0
  0
LINE
  5
EB2
330
E22
100
AcDbEntity
  8
0
 62
     3
100
AcDbLine
 10
208.9760369263413
 20
282.7767768153353
 30
0.0
 11
209.0149191923138
 21
282.6229040596865
 31
0.0
  0
LINE
  5
EB3
330
E22
100
AcDbEntity
  8
0
 62
     3
100
AcDbLine
 10
209.0149191923138
 20
282.6229040596865
 30
0.0
 11
209.0585862363389
 21
282.4791593709244
 31
0.0
  0
LINE
  5
EB4
330
E22
100
AcDbEntity
  8
0
 62
     3
100
AcDbLine
 10
209.0585862363389
 20
282.4791593709244
 30
0.0
 11
209.106699107127
 21
282.3466516762524
 31
0.0
  0
LINE
  5
EB5
330
E22
100
AcDbEntity
  8
0
 62
     3
100
AcDbLine
 10
209.106699107127
 20
282.3466516762524
 30
0.0
 11
209.1588864759526
 21
282.2264069356927
 31
0.0
  0
LINE
  5
EB6
330
E22
100
AcDbEntity
  8
0
 62
     3
100
AcDbLine
 10
209.1588864759526
 20
282.2264069356927
 30
0.0
 11
209.2147456484474
 21
282.1193539769581
 31
0.0
  0
LINE
  5
EB7
330
E22
100
AcDbEntity
  8
0
 62
     3
100
AcDbLine
 10
209.2147456484474
 20
282.1193539769581
 30
0.0
 11
209.2738435763974
 21
282.0263194364764
 31
0.0
  0
LINE
  5
EB8
330
E22
100
AcDbEntity
  8
0
 62
     3
100
AcDbLine
 10
209.2738435763974
 20
282.0263194364764
 30
0.0
 11
209.3357239403051
 21
281.9480227004174
 31
0.0
  0
LINE
  5
EB9
330
E22
100
AcDbEntity
  8
0
 62
     3
100
AcDbLine
 10
209.3357239403051
 20
281.9480227004174
 30
0.0
 11
209.3999091729809
 21
281.8850698339223
 31
0.0
  0
LINE
  5
EBA
330
E22
100
AcDbEntity
  8
0
 62
     3
100
AcDbLine
 10
209.3999091729809
 20
281.8850698339223
 30
0.0
 11
209.4659024831317
 21
281.837947510335
 31
0.0
  0
LINE
  5
EBB
330
E22
100
AcDbEntity
  8
0
 62
     3
100
AcDbLine
 10
209.4659024831317
 20
281.837947510335
 30
0.0
 11
209.5331939261312
 21
281.8070189640224
 31
0.0
  0
LINE
  5
EBC
330
E22
100
AcDbEntity
  8
0
 62
     3
100
AcDbLine
 10
209.5331939261312
 20
281.8070189640224
 30
0.0
 11
209.6012634394042
 21
281.7925229785795
 31
0.0
  0
LINE
  5
EBD
330
E22
100
AcDbEntity
  8
0
 62
     3
100
AcDbLine
 10
209.6012634394042
 20
281.7925229785795
 30
0.0
 11
209.6695848896054
 21
281.7945728750343
 31
0.0
  0
LINE
  5
EBE
330
E22
100
AcDbEntity
  8
0
 62
     3
100
AcDbLine
 10
209.6695848896054
 20
281.7945728750343
 30
0.0
 11
209.737630119801
 21
281.8131514528736
 31
0.0
  0
LINE
  5
EBF
330
E22
100
AcDbEntity
  8
0
 62
     3
100
AcDbLine
 10
209.737630119801
 20
281.8131514528736
 30
0.0
 11
209.8048729966456
 21
281.8481170608123
 31
0.0
  0
LINE
  5
EC0
330
E22
100
AcDbEntity
  8
0
 62
     3
100
AcDbLine
 10
209.8048729966456
 20
281.8481170608123
 30
0.0
 11
209.870794469359
 21
281.8991975260238
 31
0.0
  0
LINE
  5
EC1
330
E22
100
AcDbEntity
  8
0
 62
     3
100
AcDbLine
 10
209.870794469359
 20
281.8991975260238
 30
0.0
 11
209.9348835815197
 21
281.965999260295
 31
0.0
  0
LINE
  5
EC2
330
E22
100
AcDbEntity
  8
0
 62
     3
100
AcDbLine
 10
209.9348835815197
 20
281.965999260295
 30
0.0
 11
209.9966465772197
 21
282.0480042246396
 31
0.0
  0
LINE
  5
EC3
330
E22
100
AcDbEntity
  8
0
 62
     3
100
AcDbLine
 10
209.9966465772197
 20
282.0480042246396
 30
0.0
 11
210.0556048774745
 21
282.1445810590443
 31
0.0
  0
LINE
  5
EC4
330
E22
100
AcDbEntity
  8
0
 62
     3
100
AcDbLine
 10
210.0556048774745
 20
282.1445810590443
 30
0.0
 11
210.1113031745811
 21
282.2549810352876
 31
0.0
  0
LINE
  5
EC5
330
E22
100
AcDbEntity
  8
0
 62
     3
100
AcDbLine
 10
210.1113031745811
 20
282.2549810352876
 30
0.0
 11
210.1633114557105
 21
282.3783522220688
 31
0.0
  0
LINE
  5
EC6
330
E22
100
AcDbEntity
  8
0
 62
     3
100
AcDbLine
 10
210.1633114557105
 20
282.3783522220688
 30
0.0
 11
210.2112270264945
 21
282.5137404968034
 31
0.0
  0
LINE
  5
EC7
330
E22
100
AcDbEntity
  8
0
 62
     3
100
AcDbLine
 10
210.2112270264945
 20
282.5137404968034
 30
0.0
 11
210.2546795700021
 21
282.6600996635711
 31
0.0
  0
LINE
  5
EC8
330
E22
100
AcDbEntity
  8
0
 62
     3
100
AcDbLine
 10
210.2546795700021
 20
282.6600996635711
 30
0.0
 11
210.2933331703284
 21
282.8162975238857
 31
0.0
  0
LINE
  5
EC9
330
E22
100
AcDbEntity
  8
0
 62
     3
100
AcDbLine
 10
210.2933331703284
 20
282.8162975238857
 30
0.0
 11
210.326890359775
 21
282.9811280182338
 31
0.0
  0
LINE
  5
ECA
330
E22
100
AcDbEntity
  8
0
 62
     3
100
AcDbLine
 10
210.326890359775
 20
282.9811280182338
 30
0.0
 11
210.3550900952591
 21
283.1533162850495
 31
0.0
  0
LINE
  5
ECB
330
E22
100
AcDbEntity
  8
0
 62
     3
100
AcDbLine
 10
210.3608401256404
 20
284.7074544895639
 30
0.0
 11
211.7846824191204
 21
284.7021860735519
 31
0.0
  0
ARC
  5
ECC
330
E22
100
AcDbEntity
  8
0
 62
     3
100
AcDbCircle
 10
190.5288527955408
 20
284.0037551881305
 30
0.0
 40
21.26730034229026
100
AcDbArc
 50
1.881965999998799
 51
5.709994000000508
  0
LINE
  5
ECD
330
E22
100
AcDbEntity
  8
0
 62
     3
100
AcDbLine
 10
207.1913521462863
 20
286.9349988766058
 30
0.0
 11
207.1913470873119
 21
286.6292324361205
 31
0.0
  0
LINE
  5
ECE
330
E22
100
AcDbEntity
  8
0
 62
     3
100
AcDbLine
 10
204.6493516026169
 20
281.2368957924554
 30
0.0
 11
204.6493465436422
 21
280.93112935197
 31
0.0
  0
LINE
  5
ECF
330
E22
100
AcDbEntity
  8
0
 62
     3
100
AcDbLine
 10
204.6494507585164
 20
286.9350524616931
 30
0.0
 11
204.6494456995417
 21
286.629228348899
 31
0.0
  0
LINE
  5
ED0
330
E22
100
AcDbEntity
  8
0
 62
     3
100
AcDbLine
 10
200.4505105345838
 20
281.2694109195942
 30
0.0
 11
200.4505105345838
 21
280.9636161488519
 31
0.0
  0
LINE
  5
ED1
330
E22
100
AcDbEntity
  8
0
 62
     3
100
AcDbLine
 10
199.9441995486006
 20
284.4845004919676
 30
0.0
 11
202.1447522630479
 21
280.9636161488519
 31
0.0
  0
LINE
  5
ED2
330
E22
100
AcDbEntity
  8
0
 62
     3
100
AcDbLine
 10
202.1447522630479
 20
280.9636161488519
 30
0.0
 11
203.6182615442728
 21
280.9636161488519
 31
0.0
  0
LINE
  5
ED3
330
E22
100
AcDbEntity
  8
0
 62
     3
100
AcDbLine
 10
204.1245725302563
 20
286.9675382463947
 30
0.0
 11
204.1245725302563
 21
286.6617434756524
 31
0.0
  0
LINE
  5
ED4
330
E22
100
AcDbEntity
  8
0
 62
     3
100
AcDbLine
 10
202.1467427486141
 20
286.9675382463947
 30
0.0
 11
204.1245725302563
 21
286.9675382463947
 31
0.0
  0
LINE
  5
ED5
330
E22
100
AcDbEntity
  8
0
 62
     3
100
AcDbLine
 10
202.1467427486141
 20
286.9675382463947
 30
0.0
 11
202.1467427486141
 21
286.6617434756524
 31
0.0
  0
LINE
  5
ED6
330
E22
100
AcDbEntity
  8
0
 62
     3
100
AcDbLine
 10
202.6530537345975
 20
284.2481715114516
 30
0.0
 11
200.8684691250794
 21
286.9675382463947
 31
0.0
  0
LINE
  5
ED7
330
E22
100
AcDbEntity
  8
0
 62
     3
100
AcDbLine
 10
198.4726797411465
 20
286.9675382463947
 30
0.0
 11
200.8684691250794
 21
286.9675382463947
 31
0.0
  0
LINE
  5
ED8
330
E22
100
AcDbEntity
  8
0
 62
     3
100
AcDbLine
 10
211.8406155467012
 20
286.9348824999793
 30
0.0
 11
214.4154002684847
 21
286.9348824999791
 31
0.0
  0
LINE
  5
ED9
330
E22
100
AcDbEntity
  8
0
 62
     3
100
AcDbLine
 10
211.8406155467012
 20
286.629230392317
 30
0.0
 11
211.8406155467012
 21
286.9348824999793
 31
0.0
  0
LINE
  5
EDA
330
E22
100
AcDbEntity
  8
0
 62
     3
100
AcDbLine
 10
211.8406155467012
 20
280.9309604024365
 30
0.0
 11
211.8406155467012
 21
281.2368978362588
 31
0.0
  0
LINE
  5
EDB
330
E22
100
AcDbEntity
  8
0
 62
     3
100
AcDbLine
 10
211.8406155467012
 20
280.9309604024364
 30
0.0
 11
214.4154002684847
 21
280.9309604024365
 31
0.0
  0
LINE
  5
EDC
330
E22
100
AcDbEntity
  8
0
 62
     3
100
AcDbLine
 10
214.9569276307762
 20
281.2368978362588
 30
0.0
 11
214.9569276307762
 21
280.9309604024365
 31
0.0
  0
LINE
  5
EDD
330
E22
100
AcDbEntity
  8
0
 62
     3
100
AcDbLine
 10
214.4154002684847
 20
281.2368978362588
 30
0.0
 11
214.4154002684847
 21
280.9309604024365
 31
0.0
  0
LINE
  5
EDE
330
E22
100
AcDbEntity
  8
0
 62
     3
100
AcDbLine
 10
214.4154002684847
 20
286.629230392317
 30
0.0
 11
214.4154002684847
 21
286.9348824999793
 31
0.0
  0
LINE
  5
EDF
330
E22
100
AcDbEntity
  8
0
 62
     3
100
AcDbLine
 10
214.9569276307762
 20
286.629230392317
 30
0.0
 11
214.9569276307762
 21
286.9348824999793
 31
0.0
  0
LINE
  5
EE0
330
E22
100
AcDbEntity
  8
0
 62
     3
100
AcDbLine
 10
198.4726797411465
 20
281.2694109195941
 30
0.0
 11
198.4726797411465
 21
280.9636161488519
 31
0.0
  0
LINE
  5
EE1
330
E22
100
AcDbEntity
  8
0
 62
     3
100
AcDbLine
 10
198.4726797411465
 20
286.9675382463947
 30
0.0
 11
198.4726797411465
 21
286.6617434756524
 31
0.0
  0
ARC
  5
EE2
330
E22
100
AcDbEntity
  8
0
 62
     3
100
AcDbCircle
 10
224.150748389565
 20
284.5629034002713
 30
0.0
 40
2.37212176278799
100
AcDbArc
 50
17.30874900000206
 51
23.76507100000091
  0
ARC
  5
EE3
330
E22
100
AcDbEntity
  8
0
 62
     3
100
AcDbCircle
 10
222.12965470004
 20
283.9330641142879
 30
0.0
 40
4.489082006702322
100
AcDbArc
 50
342.691250999998
 51
17.3085660000007
  0
ARC
  5
EE4
330
E22
100
AcDbEntity
  8
0
 62
     3
100
AcDbCircle
 10
224.150748389565
 20
283.3032248283045
 30
0.0
 40
2.37212176278799
100
AcDbArc
 50
336.2349289999991
 51
342.691250999998
  0
ARC
  5
EE5
330
E22
100
AcDbEntity
  8
0
 62
     3
100
AcDbCircle
 10
223.8930918614358
 20
284.5629034002713
 30
0.0
 40
2.37212176278799
100
AcDbArc
 50
17.30874900000206
 51
90.0
  0
ARC
  5
EE6
330
E22
100
AcDbEntity
  8
0
 62
     3
100
AcDbCircle
 10
221.8719930928312
 20
283.9330776767834
 30
0.0
 40
4.489082006702322
100
AcDbArc
 50
342.691250999998
 51
17.3085660000007
  0
ARC
  5
EE7
330
E22
100
AcDbEntity
  8
0
 62
     3
100
AcDbCircle
 10
223.8930918614358
 20
283.3032248283045
 30
0.0
 40
2.37212176278799
100
AcDbArc
 50
270.0
 51
342.691250999998
  0
ARC
  5
EE8
330
E22
100
AcDbEntity
  8
0
 62
     3
100
AcDbCircle
 10
209.6338472821628
 20
283.9330641142879
 30
0.0
 40
3.001961048771398
100
AcDbArc
 50
46.75287999999464
 51
89.74999799999961
  0
ARC
  5
EE9
330
E22
100
AcDbEntity
  8
0
 62
     3
100
AcDbCircle
 10
209.6338472821628
 20
283.9330641142879
 30
0.0
 40
3.001961048771398
100
AcDbArc
 50
273.9763330000016
 51
312.8231199999997
  0
ARC
  5
EEA
330
E22
100
AcDbEntity
  8
0
 62
     3
100
AcDbCircle
 10
225.7520837904888
 20
283.8867218845638
 30
0.0
 40
3.983420308030568
100
AcDbArc
 50
0.6665839999989652
 51
23.90392800000231
  0
ARC
  5
EEB
330
E22
100
AcDbEntity
  8
0
 62
     3
100
AcDbCircle
 10
231.4117214277355
 20
283.8867218845638
 30
0.0
 40
3.983420308030568
100
AcDbArc
 50
156.0960719999977
 51
179.333416000001
  0
ARC
  5
EEC
330
E22
100
AcDbEntity
  8
0
 62
     3
100
AcDbCircle
 10
225.7520837904888
 20
283.979406344012
 30
0.0
 40
3.983420308030568
100
AcDbArc
 50
336.096071999998
 51
359.3334159999978
  0
ARC
  5
EED
330
E22
100
AcDbEntity
  8
0
 62
     3
100
AcDbCircle
 10
231.4117214277355
 20
283.979406344012
 30
0.0
 40
3.983420308030568
100
AcDbArc
 50
180.666583999999
 51
203.9039280000023
  0
LINE
  5
EEE
330
E22
100
AcDbEntity
  8
0
  6
Continuous
 62
     3
100
AcDbLine
 10
198.4726797411465
 20
286.6617434756524
 30
0.0
 11
198.9789907271299
 21
286.3329566777442
 31
0.0
  0
LINE
  5
EEF
330
E22
100
AcDbEntity
  8
0
  6
Continuous
 62
     3
100
AcDbLine
 10
202.1467427486141
 20
286.6617434756524
 30
0.0
 11
202.6530537345975
 21
286.3329566777442
 31
0.0
  0
LINE
  5
EF0
330
E22
100
AcDbEntity
  8
0
  6
Continuous
 62
     3
100
AcDbLine
 10
204.1245725302563
 20
286.6617434756524
 30
0.0
 11
203.6182615442728
 21
286.3329566777442
 31
0.0
  0
LINE
  5
EF1
330
E22
100
AcDbEntity
  8
0
  6
Continuous
 62
     3
100
AcDbLine
 10
204.6494456995417
 20
286.629228348899
 30
0.0
 11
205.1557182373362
 21
286.3004355000498
 31
0.0
  0
LINE
  5
EF2
330
E22
100
AcDbEntity
  8
0
  6
Continuous
 62
     3
100
AcDbLine
 10
207.1913470873119
 20
286.6292324361205
 30
0.0
 11
206.6850300305421
 21
286.3004142523569
 31
0.0
  0
LINE
  5
EF3
330
E22
100
AcDbEntity
  8
0
  6
Continuous
 62
     3
100
AcDbLine
 10
211.8406155467012
 20
286.629230392317
 30
0.0
 11
212.3469265326846
 21
286.3003434267143
 31
0.0
  0
LINE
  5
EF4
330
E22
100
AcDbEntity
  8
0
  6
Continuous
 62
     3
100
AcDbLine
 10
214.4154002684847
 20
286.629230392317
 30
0.0
 11
213.9090892825013
 21
286.3003434267143
 31
0.0
  0
LINE
  5
EF5
330
E22
100
AcDbEntity
  8
0
  6
Continuous
 62
     3
100
AcDbLine
 10
214.9569276307762
 20
286.629230392317
 30
0.0
 11
215.4632386167596
 21
286.3003434267143
 31
0.0
  0
LINE
  5
EF6
330
E22
100
AcDbEntity
  8
0
  6
Continuous
 62
     3
100
AcDbLine
 10
217.5317133643546
 20
286.629230392317
 30
0.0
 11
217.0254013665763
 21
286.3003434267143
 31
0.0
  0
LINE
  5
EF7
330
E22
100
AcDbEntity
  8
0
  6
Continuous
 62
     3
100
AcDbLine
 10
218.0602632600805
 20
286.629230392317
 30
0.0
 11
218.566574246064
 21
286.3003434267143
 31
0.0
  0
LINE
  5
EF8
330
E22
100
AcDbEntity
  8
0
  6
Continuous
 62
     3
100
AcDbLine
 10
220.6021646478169
 20
286.629230392317
 30
0.0
 11
220.0958536618334
 21
286.3003434267143
 31
0.0
  0
LINE
  5
EF9
330
E22
100
AcDbEntity
  8
0
  6
Continuous
 62
     3
100
AcDbLine
 10
221.1484699991597
 20
286.629230392317
 30
0.0
 11
221.6547809851429
 21
286.3003434267143
 31
0.0
  0
LINE
  5
EFA
330
E22
100
AcDbEntity
  8
0
  6
Continuous
 62
     3
100
AcDbLine
 10
221.6546990297565
 20
281.5656441623712
 30
0.0
 11
221.1484699991597
 21
281.2368978362588
 31
0.0
  0
LINE
  5
EFB
330
E22
100
AcDbEntity
  8
0
  6
Continuous
 62
     3
100
AcDbLine
 10
220.0959356172195
 20
281.5656441623712
 30
0.0
 11
220.6021646478169
 21
281.2368978362588
 31
0.0
  0
LINE
  5
EFC
330
E22
100
AcDbEntity
  8
0
  6
Continuous
 62
     3
100
AcDbLine
 10
218.5664912788827
 20
281.5656441623712
 30
0.0
 11
218.0602632600805
 21
281.2368978362588
 31
0.0
  0
LINE
  5
EFD
330
E22
100
AcDbEntity
  8
0
  6
Continuous
 62
     3
100
AcDbLine
 10
217.5317133643546
 20
281.2368978362588
 30
0.0
 11
217.0254843337575
 21
281.5656441623712
 31
0.0
  0
LINE
  5
EFE
330
E22
100
AcDbEntity
  8
0
  6
Continuous
 62
     3
100
AcDbLine
 10
214.9569276307762
 20
281.2368978362588
 30
0.0
 11
215.4631556495781
 21
281.5656441623712
 31
0.0
  0
LINE
  5
EFF
330
E22
100
AcDbEntity
  8
0
  6
Continuous
 62
     3
100
AcDbLine
 10
214.4154002684847
 20
281.2368978362588
 30
0.0
 11
213.9091722496825
 21
281.5656441623712
 31
0.0
  0
LINE
  5
F00
330
E22
100
AcDbEntity
  8
0
  6
Continuous
 62
     3
100
AcDbLine
 10
212.3468435655034
 20
281.5656441623712
 30
0.0
 11
211.8406155467012
 21
281.2368978362588
 31
0.0
  0
LINE
  5
F01
330
E22
100
AcDbEntity
  8
0
  6
Continuous
 62
     3
100
AcDbLine
 10
207.1912529903941
 20
281.2369002883685
 30
0.0
 11
206.6850300305421
 21
281.5657139762189
 31
0.0
  0
LINE
  5
F02
330
E22
100
AcDbEntity
  8
0
  6
Continuous
 62
     3
100
AcDbLine
 10
204.6493516026169
 20
281.2368957924554
 30
0.0
 11
205.1556190814365
 21
281.5657352239116
 31
0.0
  0
LINE
  5
F03
330
E22
100
AcDbEntity
  8
0
  6
Continuous
 62
     3
100
AcDbLine
 10
200.4505105345838
 20
281.2694109195942
 30
0.0
 11
199.9441995486006
 21
281.5981987292973
 31
0.0
  0
LINE
  5
F04
330
E22
100
AcDbEntity
  8
0
  6
Continuous
 62
     3
100
AcDbLine
 10
198.4726797411465
 20
281.2694109195942
 30
0.0
 11
198.9789907271299
 21
281.5981987292973
 31
0.0
  0
LINE
  5
F05
330
E22
100
AcDbEntity
  8
0
  6
Continuous
 62
     3
100
AcDbLine
 10
207.1912469196246
 20
280.9310771873693
 30
0.0
 11
204.6493465436422
 21
280.93112935197
 31
0.0
  0
LINE
  5
F06
330
E22
100
AcDbEntity
  8
0
  6
Continuous
 62
     3
100
AcDbLine
 10
204.6494507585164
 20
286.9350524616931
 30
0.0
 11
207.1913521462863
 21
286.9349988766058
 31
0.0
  0
ARC
  5
F07
330
E22
100
AcDbEntity
  8
0
  6
Continuous
 62
     3
100
AcDbCircle
 10
233.4996944478569
 20
283.9148263707226
 30
0.0
 40
1.5
100
AcDbArc
 50
293.7485430905253
 51
66.2514569094748
  0
ARC
  5
F08
330
E22
100
AcDbEntity
  8
0
  6
Continuous
 62
     3
100
AcDbCircle
 10
233.4996944478569
 20
283.9148263707226
 30
0.0
 40
2.25
100
AcDbArc
 50
293.7485430905253
 51
66.2514569094748
  0
ARC
  5
F09
330
E22
100
AcDbEntity
  8
0
  6
Continuous
 62
     3
100
AcDbCircle
 10
222.0220771115314
 20
257.8281573560539
 30
0.0
 40
30.0
100
AcDbArc
 50
66.2514569094748
 51
81.41597019517911
  0
ARC
  5
F0A
330
E22
100
AcDbEntity
  8
0
  6
Continuous
 62
     3
100
AcDbCircle
 10
222.0220771115314
 20
257.8281573560539
 30
0.0
 40
30.75
100
AcDbArc
 50
66.2514569094748
 51
81.41597019517911
  0
ARC
  5
F0B
330
E22
100
AcDbEntity
  8
0
  6
Continuous
 62
     3
100
AcDbCircle
 10
194.4244079510804
 20
283.9148263707226
 30
0.0
 40
1.5
100
AcDbArc
 50
113.7485430905252
 51
246.2514569094748
  0
ARC
  5
F0C
330
E22
100
AcDbEntity
  8
0
  6
Continuous
 62
     3
100
AcDbCircle
 10
194.4244079510804
 20
283.9148263707226
 30
0.0
 40
2.25
100
AcDbArc
 50
113.7485430905252
 51
246.2514569094748
  0
ARC
  5
F0D
330
E22
100
AcDbEntity
  8
0
  6
Continuous
 62
     3
100
AcDbCircle
 10
205.9020252874061
 20
257.8281573560539
 30
0.0
 40
30.0
100
AcDbArc
 50
98.5840298048209
 51
113.7485430905252
  0
ARC
  5
F0E
330
E22
100
AcDbEntity
  8
0
  6
Continuous
 62
     3
100
AcDbCircle
 10
205.9020252874061
 20
257.8281573560539
 30
0.0
 40
30.75
100
AcDbArc
 50
98.5840298048209
 51
113.7485430905252
  0
ARC
  5
F0F
330
E22
100
AcDbEntity
  8
0
  6
Continuous
 62
     3
100
AcDbCircle
 10
222.0220771115314
 20
310.0014953853913
 30
0.0
 40
30.0
100
AcDbArc
 50
278.5840298048209
 51
293.7485430905253
  0
ARC
  5
F10
330
E22
100
AcDbEntity
  8
0
  6
Continuous
 62
     3
100
AcDbCircle
 10
222.0220771115314
 20
310.0014953853913
 30
0.0
 40
30.75
100
AcDbArc
 50
278.5840298048209
 51
293.7485430905253
  0
ARC
  5
F11
330
E22
100
AcDbEntity
  8
0
  6
Continuous
 62
     3
100
AcDbCircle
 10
205.9020252874061
 20
310.0014953853913
 30
0.0
 40
30.0
100
AcDbArc
 50
246.2514569094748
 51
261.4159701951791
  0
ARC
  5
F12
330
E22
100
AcDbEntity
  8
0
  6
Continuous
 62
     3
100
AcDbCircle
 10
205.9020252874061
 20
310.0014953853913
 30
0.0
 40
30.75
100
AcDbArc
 50
246.2514569094748
 51
261.4159701951791
  0
ARC
  5
F13
330
E22
100
AcDbEntity
  8
0
  6
Continuous
 62
     3
100
AcDbCircle
 10
213.9620511994688
 20
204.4330641142894
 30
0.0
 40
84.74999999999857
100
AcDbArc
 50
81.41597019517911
 51
98.5840298048209
  0
ARC
  5
F14
330
E22
100
AcDbEntity
  8
0
  6
Continuous
 62
     3
100
AcDbCircle
 10
213.9620511994688
 20
204.4330641142906
 30
0.0
 40
83.99999999999733
100
AcDbArc
 50
81.41597019517911
 51
98.5840298048209
  0
ARC
  5
F15
330
E22
100
AcDbEntity
  8
0
  6
Continuous
 62
     3
100
AcDbCircle
 10
213.9620511994688
 20
363.3965886271558
 30
0.0
 40
84.74999999999857
100
AcDbArc
 50
261.4159701951791
 51
278.5840298048209
  0
ARC
  5
F16
330
E22
100
AcDbEntity
  8
0
  6
Continuous
 62
     3
100
AcDbCircle
 10
213.9620511994688
 20
363.3965886271545
 30
0.0
 40
83.99999999999733
100
AcDbArc
 50
261.4159701951791
 51
278.5840298048209
  0
TEXT
  5
F17
330
E22
100
AcDbEntity
  8
0
 62
     3
100
AcDbText
 10
397.4999981865963
 20
274.4999999941307
 30
0.0
 40
3.2
  1
担　当
  7
高3.2
100
AcDbText
  0
TEXT
  5
F18
330
E22
100
AcDbEntity
  8
0
 62
     3
100
AcDbText
 10
353.4999981865963
 20
274.4999999941307
 30
0.0
 40
3.2
  1
変更・追記内容
  7
高3.2
100
AcDbText
  0
TEXT
  5
F19
330
E22
100
AcDbEntity
  8
0
 62
     3
100
AcDbText
 10
328.6135131869355
 20
269.8294614842224
 30
0.0
 40
2.0
  1
1
  7
高2
100
AcDbText
  0
TEXT
  5
F1A
330
E22
100
AcDbEntity
  8
0
 62
     3
100
AcDbText
 10
328.3050017101782
 20
264.6596447719495
 30
0.0
 40
2.0
  1
2
  7
高2
100
AcDbText
  0
TEXT
  5
F1B
330
E22
100
AcDbEntity
  8
0
 62
     3
100
AcDbText
 10
335.4999981865963
 20
274.4999999941307
 30
0.0
 40
3.2
  1
日　付
  7
高3.2
100
AcDbText
  0
TEXT
  5
F1C
330
E22
100
AcDbEntity
  8
0
 62
     3
100
AcDbText
 10
335.4999981865963
 20
279.4999999941307
 30
0.0
 40
3.2
  1
図　　　　面　　　　略　　　　歴
  7
高3.2
100
AcDbText
  0
TEXT
  5
F1D
330
E22
100
AcDbEntity
  8
0
 62
     3
100
AcDbText
 10
325.4999981865962
 20
274.4999999941307
 30
0.0
 40
3.2
  1
記号
  7
高3.2
100
AcDbText
  0
LINE
  5
F1E
330
E22
100
AcDbEntity
  8
0
100
AcDbLine
 10
328.9999981865963
 20
267.7908959941309
 30
0.0
 11
327.0999981865964
 21
264.4999999941307
 31
0.0
  0
LINE
  5
F1F
330
E22
100
AcDbEntity
  8
0
100
AcDbLine
 10
328.9999981865963
 20
267.7908959941309
 30
0.0
 11
330.8999981865961
 21
264.4999999941307
 31
0.0
  0
LINE
  5
F20
330
E22
100
AcDbEntity
  8
0
100
AcDbLine
 10
327.0999981865964
 20
264.4999999941307
 30
0.0
 11
330.8999981865961
 21
264.4999999941307
 31
0.0
  0
LINE
  5
F21
330
E22
100
AcDbEntity
  8
0
100
AcDbLine
 10
328.9999981865963
 20
272.7908969941308
 30
0.0
 11
327.0999981865964
 21
269.4999999941307
 31
0.0
  0
LINE
  5
F22
330
E22
100
AcDbEntity
  8
0
100
AcDbLine
 10
328.9999981865963
 20
272.7908969941308
 30
0.0
 11
330.8999981865961
 21
269.4999999941307
 31
0.0
  0
LINE
  5
F23
330
E22
100
AcDbEntity
  8
0
100
AcDbLine
 10
327.0999981865964
 20
269.4999999941307
 30
0.0
 11
330.8999981865961
 21
269.4999999941307
 31
0.0
  0
LINE
  5
F24
330
E22
100
AcDbEntity
  8
0
 62
     3
100
AcDbLine
 10
323.9999981865963
 20
278.9999999941307
 30
0.0
 11
409.9999981865962
 21
278.9999999941307
 31
0.0
  0
LINE
  5
F25
330
E22
100
AcDbEntity
  8
0
 62
     3
100
AcDbLine
 10
323.9999981865963
 20
273.9999999941307
 30
0.0
 11
409.9999981865962
 21
273.9999999941307
 31
0.0
  0
LINE
  5
F26
330
E22
100
AcDbEntity
  8
0
 62
     7
100
AcDbLine
 10
323.9999981865963
 20
268.9999999941307
 30
0.0
 11
409.9999981865962
 21
268.9999999941307
 31
0.0
  0
LINE
  5
F27
330
E22
100
AcDbEntity
  8
0
 62
     3
100
AcDbLine
 10
323.9999981865963
 20
263.9999999941307
 30
0.0
 11
409.9999981865962
 21
263.9999999941307
 31
0.0
  0
LINE
  5
F28
330
E22
100
AcDbEntity
  8
0
 62
     7
100
AcDbLine
 10
395.9999981865962
 20
263.9999999941307
 30
0.0
 11
395.9999981865962
 21
278.9999999941307
 31
0.0
  0
LINE
  5
F29
330
E22
100
AcDbEntity
  8
0
 62
     7
100
AcDbLine
 10
351.9999981865963
 20
263.9999999941307
 30
0.0
 11
351.9999981865963
 21
278.9999999941307
 31
0.0
  0
LINE
  5
F2A
330
E22
100
AcDbEntity
  8
0
 62
     7
100
AcDbLine
 10
333.9999981865962
 20
263.9999999941307
 30
0.0
 11
333.9999981865962
 21
278.9999999941307
 31
0.0
  0
LINE
  5
F2B
330
E22
100
AcDbEntity
  8
0
 62
     3
100
AcDbLine
 10
323.9999981865963
 20
263.9999999941307
 30
0.0
 11
323.9999981865963
 21
283.9999999941307
 31
0.0
  0
ENDBLK
  5
F2F
330
E22
100
AcDbEntity
  8
0
100
AcDbBlockEnd
  0
BLOCK
  5
FB3
330
FB2
100
AcDbEntity
  8
0
100
AcDbBlockBegin
  2
*D3
 70
     1
 10
0.0
 20
0.0
 30
0.0
  3
*D3
  1

  0
LINE
  5
1017
330
FB2
100
AcDbEntity
  8
0
 62
     0
370
    -2
100
AcDbLine
 10
4068.615213816165
 20
-624.3230788735045
 30
0.0
 11
4068.615213816165
 21
-542.7809687147264
 31
0.0
  0
LINE
  5
1018
330
FB2
100
AcDbEntity
  8
0
 62
     0
370
    -2
100
AcDbLine
 10
6268.615213816165
 20
-624.3230788735045
 30
0.0
 11
6268.615213816165
 21
-542.7809687147264
 31
0.0
  0
LINE
  5
1019
330
FB2
100
AcDbEntity
  8
0
 62
     0
370
    -2
100
AcDbLine
 10
4071.115213816165
 20
-544.0309687147264
 30
0.0
 11
6266.115213816164
 21
-544.0309687147264
 31
0.0
  0
INSERT
  5
101A
330
FB2
100
AcDbEntity
  8
0
 62
     0
370
    -2
100
AcDbBlockReference
  2
_Open30
 10
4068.615213816165
 20
-544.0309687147264
 30
0.0
 41
2.5
 42
2.5
 43
2.5
 50
180.0
  0
INSERT
  5
101B
330
FB2
100
AcDbEntity
  8
0
 62
     0
370
    -2
100
AcDbBlockReference
  2
_Open30
 10
6268.615213816165
 20
-544.0309687147264
 30
0.0
 41
2.5
 42
2.5
 43
2.5
  0
MTEXT
  5
101C
330
FB2
100
AcDbEntity
  8
0
 62
     4
100
AcDbMText
 10
6140.997680268167
 20
-541.9059687147264
 30
0.0
 40
3.0
 41
0.0
 71
     5
 72
     1
  1
2200
 73
     1
 44
1.0
1001
ACAD
1000
MTEXTBEGIN
1070
    73
1070
     1
1070
    44
1040
1.0
1070
    74
1070
     0
1000
MTEXTEND
  0
POINT
  5
101D
330
FB2
100
AcDbEntity
  8
Defpoints
 62
     0
100
AcDbPoint
 10
4068.615213816165
 20
-624.5730788735045
 30
0.0
  0
POINT
  5
101E
330
FB2
100
AcDbEntity
  8
Defpoints
 62
     0
100
AcDbPoint
 10
6268.615213816165
 20
-624.5730788735045
 30
0.0
  0
POINT
  5
101F
330
FB2
100
AcDbEntity
  8
Defpoints
 62
     0
100
AcDbPoint
 10
6268.615213816165
 20
-544.0309687147264
 30
0.0
  0
ENDBLK
  5
FB4
330
FB2
100
AcDbEntity
  8
0
100
AcDbBlockEnd
  0
BLOCK
  5
1060
330
105F
100
AcDbEntity
  8
0
100
AcDbBlockBegin
  2
*D4
 70
     1
 10
0.0
 20
0.0
 30
0.0
  3
*D4
  1

  0
LINE
  5
1877
330
105F
100
AcDbEntity
  8
0
 62
     0
370
    -2
100
AcDbLine
 10
1276.662356629463
 20
226.2258561406889
 30
0.0
 11
1276.662356629463
 21
215.9704299723227
 31
0.0
  0
LINE
  5
1878
330
105F
100
AcDbEntity
  8
0
 62
     0
370
    -2
100
AcDbLine
 10
1358.662356629463
 20
226.2258561406889
 30
0.0
 11
1358.662356629463
 21
215.9704299723227
 31
0.0
  0
LINE
  5
1879
330
105F
100
AcDbEntity
  8
0
 62
     0
370
    -2
100
AcDbLine
 10
1279.162356629463
 20
217.2204299723227
 30
0.0
 11
1356.162356629463
 21
217.2204299723227
 31
0.0
  0
INSERT
  5
187A
330
105F
100
AcDbEntity
  8
0
 62
     0
370
    -2
100
AcDbBlockReference
  2
_Open30
 10
1276.662356629463
 20
217.2204299723227
 30
0.0
 41
2.5
 42
2.5
 43
2.5
 50
180.0
  0
INSERT
  5
187B
330
105F
100
AcDbEntity
  8
0
 62
     0
370
    -2
100
AcDbBlockReference
  2
_Open30
 10
1358.662356629463
 20
217.2204299723227
 30
0.0
 41
2.5
 42
2.5
 43
2.5
  0
MTEXT
  5
187C
330
105F
100
AcDbEntity
  8
0
 62
     4
100
AcDbMText
 10
1316.301483429915
 20
219.3454299723227
 30
0.0
 40
3.0
 41
0.0
 71
     5
 72
     1
  1
410
 73
     1
 44
1.0
1001
ACAD
1000
MTEXTBEGIN
1070
    73
1070
     1
1070
    44
1040
1.0
1070
    74
1070
     0
1000
MTEXTEND
  0
POINT
  5
187D
330
105F
100
AcDbEntity
  8
Defpoints
 62
     0
100
AcDbPoint
 10
1276.662356629463
 20
226.4758561406889
 30
0.0
  0
POINT
  5
187E
330
105F
100
AcDbEntity
  8
Defpoints
 62
     0
100
AcDbPoint
 10
1358.662356629463
 20
226.4758561406889
 30
0.0
  0
POINT
  5
187F
330
105F
100
AcDbEntity
  8
Defpoints
 62
     0
100
AcDbPoint
 10
1358.662356629463
 20
217.2204299723227
 30
0.0
  0
ENDBLK
  5
1061
330
105F
100
AcDbEntity
  8
0
100
AcDbBlockEnd
  0
BLOCK
  5
1078
330
1077
100
AcDbEntity
  8
0
100
AcDbBlockBegin
  2
*D5
 70
     1
 10
0.0
 20
0.0
 30
0.0
  3
*D5
  1

  0
LINE
  5
1880
330
1077
100
AcDbEntity
  8
0
 62
     0
370
    -2
100
AcDbLine
 10
1358.912356629463
 20
296.4758561406888
 30
0.0
 11
1373.800477140577
 21
296.4758561406888
 31
0.0
  0
LINE
  5
1881
330
1077
100
AcDbEntity
  8
0
 62
     0
370
    -2
100
AcDbLine
 10
1358.912356629463
 20
226.4758561406889
 30
0.0
 11
1373.800477140577
 21
226.4758561406889
 31
0.0
  0
LINE
  5
1882
330
1077
100
AcDbEntity
  8
0
 62
     0
370
    -2
100
AcDbLine
 10
1372.550477140577
 20
293.9758561406888
 30
0.0
 11
1372.550477140577
 21
228.9758561406889
 31
0.0
  0
INSERT
  5
1883
330
1077
100
AcDbEntity
  8
0
 62
     0
370
    -2
100
AcDbBlockReference
  2
_Open30
 10
1372.550477140577
 20
296.4758561406888
 30
0.0
 41
2.5
 42
2.5
 43
2.5
 50
90.0
  0
INSERT
  5
1884
330
1077
100
AcDbEntity
  8
0
 62
     0
370
    -2
100
AcDbBlockReference
  2
_Open30
 10
1372.550477140577
 20
226.4758561406889
 30
0.0
 41
2.5
 42
2.5
 43
2.5
 50
270.0
  0
MTEXT
  5
1885
330
1077
100
AcDbEntity
  8
0
 62
     4
100
AcDbMText
 10
1370.425477140577
 20
261.7879981674088
 30
0.0
 40
3.0
 41
0.0
 71
     5
 72
     1
  1
350
 11
0.0000000000000001
 21
1.0
 31
0.0
 73
     1
 44
1.0
1001
ACAD
1000
MTEXTBEGIN
1070
    73
1070
     1
1070
    44
1040
1.0
1070
    74
1070
     0
1000
MTEXTEND
  0
POINT
  5
1886
330
1077
100
AcDbEntity
  8
Defpoints
 62
     0
100
AcDbPoint
 10
1358.662356629463
 20
296.4758561406888
 30
0.0
  0
POINT
  5
1887
330
1077
100
AcDbEntity
  8
Defpoints
 62
     0
100
AcDbPoint
 10
1358.662356629463
 20
226.4758561406889
 30
0.0
  0
POINT
  5
1888
330
1077
100
AcDbEntity
  8
Defpoints
 62
     0
100
AcDbPoint
 10
1372.550477140577
 20
226.4758561406889
 30
0.0
  0
ENDBLK
  5
1079
330
1077
100
AcDbEntity
  8
0
100
AcDbBlockEnd
  0
BLOCK
  5
1090
330
108F
100
AcDbEntity
  8
0
100
AcDbBlockBegin
  2
*D6
 70
     1
 10
0.0
 20
0.0
 30
0.0
  3
*D6
  1

  0
LINE
  5
1889
330
108F
100
AcDbEntity
  8
0
 62
     0
370
    -2
100
AcDbLine
 10
1406.326849235451
 20
236.2258561406889
 30
0.0
 11
1406.326849235451
 21
215.936526994905
 31
0.0
  0
LINE
  5
188A
330
108F
100
AcDbEntity
  8
0
 62
     0
370
    -2
100
AcDbLine
 10
1415.326849235451
 20
226.025856140689
 30
0.0
 11
1415.326849235451
 21
215.936526994905
 31
0.0
  0
LINE
  5
188B
330
108F
100
AcDbEntity
  8
0
 62
     0
370
    -2
100
AcDbLine
 10
1403.826849235451
 20
217.186526994905
 30
0.0
 11
1401.326849235451
 21
217.186526994905
 31
0.0
  0
LINE
  5
188C
330
108F
100
AcDbEntity
  8
0
 62
     0
370
    -2
100
AcDbLine
 10
1417.826849235451
 20
217.186526994905
 30
0.0
 11
1426.576849235451
 21
217.186526994905
 31
0.0
  0
LINE
  5
188D
330
108F
100
AcDbEntity
  8
0
 62
     0
370
    -2
100
AcDbLine
 10
1406.326849235451
 20
217.186526994905
 30
0.0
 11
1415.326849235451
 21
217.186526994905
 31
0.0
  0
INSERT
  5
188E
330
108F
100
AcDbEntity
  8
0
 62
     0
370
    -2
100
AcDbBlockReference
  2
_Open30
 10
1406.326849235451
 20
217.186526994905
 30
0.0
 41
2.5
 42
2.5
 43
2.5
  0
INSERT
  5
188F
330
108F
100
AcDbEntity
  8
0
 62
     0
370
    -2
100
AcDbBlockReference
  2
_Open30
 10
1415.326849235451
 20
217.186526994905
 30
0.0
 41
2.5
 42
2.5
 43
2.5
 50
180.0
  0
MTEXT
  5
1890
330
108F
100
AcDbEntity
  8
0
 62
     4
100
AcDbMText
 10
1423.451849235451
 20
219.311526994905
 30
0.0
 40
3.0
 41
0.0
 71
     5
 72
     1
  1
45
 73
     1
 44
1.0
1001
ACAD
1000
MTEXTBEGIN
1070
    73
1070
     1
1070
    44
1040
1.0
1070
    74
1070
     0
1000
MTEXTEND
  0
POINT
  5
1891
330
108F
100
AcDbEntity
  8
Defpoints
 62
     0
100
AcDbPoint
 10
1406.326849235451
 20
236.4758561406889
 30
0.0
  0
POINT
  5
1892
330
108F
100
AcDbEntity
  8
Defpoints
 62
     0
100
AcDbPoint
 10
1415.326849235451
 20
226.275856140689
 30
0.0
  0
POINT
  5
1893
330
108F
100
AcDbEntity
  8
Defpoints
 62
     0
100
AcDbPoint
 10
1415.326849235451
 20
217.186526994905
 30
0.0
  0
ENDBLK
  5
1091
330
108F
100
AcDbEntity
  8
0
100
AcDbBlockEnd
  0
BLOCK
  5
10E3
330
10E2
100
AcDbEntity
  8
0
100
AcDbBlockBegin
  2
*D7
 70
     1
 10
0.0
 20
0.0
 30
0.0
  3
*D7
  1

  0
LINE
  5
1894
330
10E2
100
AcDbEntity
  8
0
 62
     0
370
    -2
100
AcDbLine
 10
1240.993192907914
 20
136.291931767753
 30
0.0
 11
1228.456039231032
 21
136.291931767753
 31
0.0
  0
LINE
  5
1895
330
10E2
100
AcDbEntity
  8
0
 62
     0
370
    -2
100
AcDbLine
 10
1240.993192907914
 20
177.291931767753
 30
0.0
 11
1228.456039231032
 21
177.291931767753
 31
0.0
  0
LINE
  5
1896
330
10E2
100
AcDbEntity
  8
0
 62
     0
370
    -2
100
AcDbLine
 10
1229.706039231032
 20
138.791931767753
 30
0.0
 11
1229.706039231032
 21
174.791931767753
 31
0.0
  0
INSERT
  5
1897
330
10E2
100
AcDbEntity
  8
0
 62
     0
370
    -2
100
AcDbBlockReference
  2
_Open30
 10
1229.706039231032
 20
136.291931767753
 30
0.0
 41
2.5
 42
2.5
 43
2.5
 50
270.0
  0
INSERT
  5
1898
330
10E2
100
AcDbEntity
  8
0
 62
     0
370
    -2
100
AcDbBlockReference
  2
_Open30
 10
1229.706039231032
 20
177.291931767753
 30
0.0
 41
2.5
 42
2.5
 43
2.5
 50
90.0
  0
MTEXT
  5
1899
330
10E2
100
AcDbEntity
  8
0
 62
     4
100
AcDbMText
 10
1227.581039231032
 20
157.6252519322152
 30
0.0
 40
3.0
 41
0.0
 71
     5
 72
     1
  1
410
 11
0.0000000000000001
 21
1.0
 31
0.0
 73
     1
 44
1.0
1001
ACAD
1000
MTEXTBEGIN
1070
    73
1070
     1
1070
    44
1040
1.0
1070
    74
1070
     0
1000
MTEXTEND
  0
POINT
  5
189A
330
10E2
100
AcDbEntity
  8
Defpoints
 62
     0
100
AcDbPoint
 10
1241.243192907914
 20
136.291931767753
 30
0.0
  0
POINT
  5
189B
330
10E2
100
AcDbEntity
  8
Defpoints
 62
     0
100
AcDbPoint
 10
1241.243192907914
 20
177.291931767753
 30
0.0
  0
POINT
  5
189C
330
10E2
100
AcDbEntity
  8
Defpoints
 62
     0
100
AcDbPoint
 10
1229.706039231032
 20
177.291931767753
 30
0.0
  0
ENDBLK
  5
10E4
330
10E2
100
AcDbEntity
  8
0
100
AcDbBlockEnd
  0
BLOCK
  5
10FB
330
10FA
100
AcDbEntity
  8
0
100
AcDbBlockBegin
  2
*D8
 70
     1
 10
0.0
 20
0.0
 30
0.0
  3
*D8
  1

  0
LINE
  5
189D
330
10FA
100
AcDbEntity
  8
0
 62
     0
370
    -2
100
AcDbLine
 10
1241.243192907914
 20
177.541931767753
 30
0.0
 11
1241.243192907914
 21
189.3163773137713
 31
0.0
  0
LINE
  5
189E
330
10FA
100
AcDbEntity
  8
0
 62
     0
370
    -2
100
AcDbLine
 10
1461.243192907914
 20
177.541931767753
 30
0.0
 11
1461.243192907914
 21
189.3163773137713
 31
0.0
  0
LINE
  5
189F
330
10FA
100
AcDbEntity
  8
0
 62
     0
370
    -2
100
AcDbLine
 10
1243.743192907914
 20
188.0663773137713
 30
0.0
 11
1458.743192907914
 21
188.0663773137713
 31
0.0
  0
INSERT
  5
18A0
330
10FA
100
AcDbEntity
  8
0
 62
     0
370
    -2
100
AcDbBlockReference
  2
_Open30
 10
1241.243192907914
 20
188.0663773137713
 30
0.0
 41
2.5
 42
2.5
 43
2.5
 50
180.0
  0
INSERT
  5
18A1
330
10FA
100
AcDbEntity
  8
0
 62
     0
370
    -2
100
AcDbBlockReference
  2
_Open30
 10
1461.243192907914
 20
188.0663773137713
 30
0.0
 41
2.5
 42
2.5
 43
2.5
  0
MTEXT
  5
18A2
330
10FA
100
AcDbEntity
  8
0
 62
     4
100
AcDbMText
 10
1351.177330677021
 20
190.1913773137713
 30
0.0
 40
3.0
 41
0.0
 71
     5
 72
     1
  1
2200(展開寸法)
 73
     1
 44
1.0
1001
ACAD
1000
MTEXTBEGIN
1070
    73
1070
     1
1070
    44
1040
1.0
1070
    74
1070
     0
1000
MTEXTEND
  0
POINT
  5
18A3
330
10FA
100
AcDbEntity
  8
Defpoints
 62
     0
100
AcDbPoint
 10
1241.243192907914
 20
177.291931767753
 30
0.0
  0
POINT
  5
18A4
330
10FA
100
AcDbEntity
  8
Defpoints
 62
     0
100
AcDbPoint
 10
1461.243192907914
 20
177.291931767753
 30
0.0
  0
POINT
  5
18A5
330
10FA
100
AcDbEntity
  8
Defpoints
 62
     0
100
AcDbPoint
 10
1461.243192907914
 20
188.0663773137713
 30
0.0
  0
ENDBLK
  5
10FC
330
10FA
100
AcDbEntity
  8
0
100
AcDbBlockEnd
  0
BLOCK
  5
1433
330
1432
100
AcDbEntity
  8
0
100
AcDbBlockBegin
  2
*D9
 70
     1
 10
0.0
 20
0.0
 30
0.0
  3
*D9
  1

  0
LINE
  5
1443
330
1432
100
AcDbEntity
  8
0
 62
     0
370
    -2
100
AcDbLine
 10
3077.914731285159
 20
638.0112106814123
 30
0.0
 11
3078.469124092354
 21
649.0466504482798
 31
0.0
  0
LINE
  5
1444
330
1432
100
AcDbEntity
  8
0
 62
     0
370
    -2
100
AcDbLine
 10
3072.502187731152
 20
638.1470813120138
 30
0.0
 11
3072.502187731152
 21
649.1964379554042
 31
0.0
  0
ARC
  5
1445
330
1432
100
AcDbEntity
  8
0
 62
     0
370
    -2
100
AcDbCircle
 10
3072.502187731152
 20
530.2720813120131
 30
0.0
 40
117.6743566433913
100
AcDbArc
 50
84.68947009592664
 51
85.90674586288491
  0
ARC
  5
1446
330
1432
100
AcDbEntity
  8
0
 62
     0
370
    -2
100
AcDbCircle
 10
3072.502187731152
 20
530.2720813120131
 30
0.0
 40
117.6743566433913
100
AcDbArc
 50
91.21727576695835
 51
92.43455153391662
  0
ARC
  5
1447
330
1432
100
AcDbEntity
  8
0
 62
     0
370
    -2
100
AcDbCircle
 10
3072.502187731152
 20
530.2720813120131
 30
0.0
 40
117.6743566433913
100
AcDbArc
 50
87.12402162984316
 51
90.0000000000001
  0
INSERT
  5
1448
330
1432
100
AcDbEntity
  8
0
 62
     0
370
    -2
100
AcDbBlockReference
  2
_Open30
 10
3078.406406322319
 20
647.7982248472442
 30
0.0
 41
2.5
 42
2.5
 43
2.5
 50
176.515383746364
  0
INSERT
  5
1449
330
1432
100
AcDbEntity
  8
0
 62
     0
370
    -2
100
AcDbBlockReference
  2
_Open30
 10
3072.502187731152
 20
647.9464379554042
 30
0.0
 41
2.5
 42
2.5
 43
2.5
 50
0.6086378834792307
  0
MTEXT
  5
144A
330
1432
100
AcDbEntity
  8
0
 62
     4
100
AcDbMText
 10
3076.696143540504
 20
649.9980040975137
 30
0.0
 40
3.0
 41
0.0
 71
     5
 72
     1
  1
2.9\U+00B0
 11
0.9993870262750306
 21
-0.0350081663780253
 31
0.0
 73
     1
 44
1.0
1001
ACAD
1000
MTEXTBEGIN
1070
    73
1070
     1
1070
    44
1040
1.0
1070
    74
1070
     0
1000
MTEXTEND
  0
POINT
  5
144B
330
1432
100
AcDbEntity
  8
Defpoints
 62
     0
100
AcDbPoint
 10
3074.470995421633
 20
647.929966758395
 30
0.0
  0
POINT
  5
144C
330
1432
100
AcDbEntity
  8
Defpoints
 62
     0
100
AcDbPoint
 10
3077.902187731152
 20
637.7615255612049
 30
0.0
  0
POINT
  5
144D
330
1432
100
AcDbEntity
  8
Defpoints
 62
     0
100
AcDbPoint
 10
3072.502187731152
 20
530.2720813120131
 30
0.0
  0
POINT
  5
144E
330
1432
100
AcDbEntity
  8
Defpoints
 62
     0
100
AcDbPoint
 10
3072.502187731152
 20
637.8970813120138
 30
0.0
  0
POINT
  5
144F
330
1432
100
AcDbEntity
  8
Defpoints
 62
     0
100
AcDbPoint
 10
3072.502187731152
 20
530.2720813120131
 30
0.0
  0
ENDBLK
  5
1434
330
1432
100
AcDbEntity
  8
0
100
AcDbBlockEnd
  0
BLOCK
  5
1606
330
1605
100
AcDbEntity
  8
0
100
AcDbBlockBegin
  2
*D10
 70
     1
 10
0.0
 20
0.0
 30
0.0
  3
*D10
  1

  0
LINE
  5
161D
330
1605
100
AcDbEntity
  8
0
 62
     0
370
    -2
100
AcDbLine
 10
3869.221612166117
 20
-85.7561649662348
 30
0.0
 11
3869.221612166117
 21
-17.83452736848085
 31
0.0
  0
LINE
  5
161E
330
1605
100
AcDbEntity
  8
0
 62
     0
370
    -2
100
AcDbLine
 10
2169.221612166117
 20
-187.7561649662348
 30
0.0
 11
2169.221612166117
 21
-17.83452736848085
 31
0.0
  0
LINE
  5
161F
330
1605
100
AcDbEntity
  8
0
 62
     0
370
    -2
100
AcDbLine
 10
3866.721612166117
 20
-19.08452736848085
 30
0.0
 11
2171.721612166117
 21
-19.08452736848085
 31
0.0
  0
INSERT
  5
1620
330
1605
100
AcDbEntity
  8
0
 62
     0
370
    -2
100
AcDbBlockReference
  2
_Open30
 10
3869.221612166117
 20
-19.08452736848085
 30
0.0
 41
2.5
 42
2.5
 43
2.5
  0
INSERT
  5
1621
330
1605
100
AcDbEntity
  8
0
 62
     0
370
    -2
100
AcDbBlockReference
  2
_Open30
 10
2169.221612166117
 20
-19.08452736848085
 30
0.0
 41
2.5
 42
2.5
 43
2.5
 50
180.0
  0
MTEXT
  5
1622
330
1605
100
AcDbEntity
  8
0
 62
     4
100
AcDbMText
 10
3122.859572125711
 20
-16.95952736848085
 30
0.0
 40
3.0
 41
0.0
 71
     5
 72
     1
  1
1700
 73
     1
 44
1.0
1001
ACAD
1000
MTEXTBEGIN
1070
    73
1070
     1
1070
    44
1040
1.0
1070
    74
1070
     0
1000
MTEXTEND
  0
POINT
  5
1623
330
1605
100
AcDbEntity
  8
Defpoints
 62
     0
100
AcDbPoint
 10
3869.221612166117
 20
-86.00616496623478
 30
0.0
  0
POINT
  5
1624
330
1605
100
AcDbEntity
  8
Defpoints
 62
     0
100
AcDbPoint
 10
2169.221612166117
 20
-188.0061649662348
 30
0.0
  0
POINT
  5
1625
330
1605
100
AcDbEntity
  8
Defpoints
 62
     0
100
AcDbPoint
 10
2169.221612166117
 20
-19.08452736848085
 30
0.0
  0
ENDBLK
  5
1607
330
1605
100
AcDbEntity
  8
0
100
AcDbBlockEnd
  0
BLOCK
  5
162C
330
162B
100
AcDbEntity
  8
0
100
AcDbBlockBegin
  2
*D11
 70
     1
 10
0.0
 20
0.0
 30
0.0
  3
*D11
  1

  0
LINE
  5
1D0F
330
162B
100
AcDbEntity
  8
0
 62
     0
370
    -2
100
AcDbLine
 10
1653.741454278737
 20
295.745200351372
 30
0.0
 11
1666.461669961174
 21
295.7452003513719
 31
0.0
  0
LINE
  5
1D10
330
162B
100
AcDbEntity
  8
0
 62
     0
370
    -2
100
AcDbLine
 10
1653.741454278737
 20
224.345200351372
 30
0.0
 11
1666.461669961174
 21
224.345200351372
 31
0.0
  0
LINE
  5
1D11
330
162B
100
AcDbEntity
  8
0
 62
     0
370
    -2
100
AcDbLine
 10
1665.211669961174
 20
293.2452003513719
 30
0.0
 11
1665.211669961174
 21
226.845200351372
 31
0.0
  0
INSERT
  5
1D12
330
162B
100
AcDbEntity
  8
0
 62
     0
370
    -2
100
AcDbBlockReference
  2
_Open30
 10
1665.211669961174
 20
295.7452003513719
 30
0.0
 41
2.5
 42
2.5
 43
2.5
 50
90.0
  0
INSERT
  5
1D13
330
162B
100
AcDbEntity
  8
0
 62
     0
370
    -2
100
AcDbBlockReference
  2
_Open30
 10
1665.211669961174
 20
224.345200351372
 30
0.0
 41
2.5
 42
2.5
 43
2.5
 50
270.0
  0
MTEXT
  5
1D14
330
162B
100
AcDbEntity
  8
0
 62
     4
100
AcDbMText
 10
1663.086669961174
 20
259.7041654569348
 30
0.0
 40
3.0
 41
0.0
 71
     5
 72
     1
  1
357
 11
0.0000000000000001
 21
1.0
 31
0.0
 73
     1
 44
1.0
1001
ACAD
1000
MTEXTBEGIN
1070
    73
1070
     1
1070
    44
1040
1.0
1070
    74
1070
     0
1000
MTEXTEND
  0
POINT
  5
1D15
330
162B
100
AcDbEntity
  8
Defpoints
 62
     0
100
AcDbPoint
 10
1653.491454278737
 20
295.745200351372
 30
0.0
  0
POINT
  5
1D16
330
162B
100
AcDbEntity
  8
Defpoints
 62
     0
100
AcDbPoint
 10
1653.491454278737
 20
224.345200351372
 30
0.0
  0
POINT
  5
1D17
330
162B
100
AcDbEntity
  8
Defpoints
 62
     0
100
AcDbPoint
 10
1665.211669961174
 20
224.345200351372
 30
0.0
  0
ENDBLK
  5
162D
330
162B
100
AcDbEntity
  8
0
100
AcDbBlockEnd
  0
BLOCK
  5
1644
330
1643
100
AcDbEntity
  8
0
100
AcDbBlockBegin
  2
*D12
 70
     1
 10
0.0
 20
0.0
 30
0.0
  3
*D12
  1

  0
LINE
  5
1D06
330
1643
100
AcDbEntity
  8
0
 62
     0
370
    -2
100
AcDbLine
 10
1653.491454278737
 20
224.095200351372
 30
0.0
 11
1653.491454278737
 21
213.7169655746384
 31
0.0
  0
LINE
  5
1D07
330
1643
100
AcDbEntity
  8
0
 62
     0
370
    -2
100
AcDbLine
 10
1565.491454278737
 20
224.095200351372
 30
0.0
 11
1565.491454278737
 21
213.7169655746384
 31
0.0
  0
LINE
  5
1D08
330
1643
100
AcDbEntity
  8
0
 62
     0
370
    -2
100
AcDbLine
 10
1650.991454278737
 20
214.9669655746384
 30
0.0
 11
1567.991454278737
 21
214.9669655746384
 31
0.0
  0
INSERT
  5
1D09
330
1643
100
AcDbEntity
  8
0
 62
     0
370
    -2
100
AcDbBlockReference
  2
_Open30
 10
1653.491454278737
 20
214.9669655746384
 30
0.0
 41
2.5
 42
2.5
 43
2.5
  0
INSERT
  5
1D0A
330
1643
100
AcDbEntity
  8
0
 62
     0
370
    -2
100
AcDbBlockReference
  2
_Open30
 10
1565.491454278737
 20
214.9669655746384
 30
0.0
 41
2.5
 42
2.5
 43
2.5
 50
180.0
  0
MTEXT
  5
1D0B
330
1643
100
AcDbEntity
  8
0
 62
     4
100
AcDbMText
 10
1607.616272651625
 20
217.0919655746384
 30
0.0
 40
3.0
 41
0.0
 71
     5
 72
     1
  1
440
 73
     1
 44
1.0
1001
ACAD
1000
MTEXTBEGIN
1070
    73
1070
     1
1070
    44
1040
1.0
1070
    74
1070
     0
1000
MTEXTEND
  0
POINT
  5
1D0C
330
1643
100
AcDbEntity
  8
Defpoints
 62
     0
100
AcDbPoint
 10
1653.491454278737
 20
224.345200351372
 30
0.0
  0
POINT
  5
1D0D
330
1643
100
AcDbEntity
  8
Defpoints
 62
     0
100
AcDbPoint
 10
1565.491454278737
 20
224.345200351372
 30
0.0
  0
POINT
  5
1D0E
330
1643
100
AcDbEntity
  8
Defpoints
 62
     0
100
AcDbPoint
 10
1565.491454278737
 20
214.9669655746384
 30
0.0
  0
ENDBLK
  5
1645
330
1643
100
AcDbEntity
  8
0
100
AcDbBlockEnd
  0
BLOCK
  5
165C
330
165B
100
AcDbEntity
  8
0
100
AcDbBlockBegin
  2
*D13
 70
     1
 10
0.0
 20
0.0
 30
0.0
  3
*D13
  1

  0
LINE
  5
1CFD
330
165B
100
AcDbEntity
  8
0
 62
     0
370
    -2
100
AcDbLine
 10
1702.300442272312
 20
251.495200351372
 30
0.0
 11
1702.300442272312
 21
213.2829421804727
 31
0.0
  0
LINE
  5
1CFE
330
165B
100
AcDbEntity
  8
0
 62
     0
370
    -2
100
AcDbLine
 10
1691.500442272312
 20
252.295200351372
 30
0.0
 11
1691.500442272312
 21
213.2829421804727
 31
0.0
  0
LINE
  5
1CFF
330
165B
100
AcDbEntity
  8
0
 62
     0
370
    -2
100
AcDbLine
 10
1699.800442272312
 20
214.5329421804727
 30
0.0
 11
1694.000442272312
 21
214.5329421804727
 31
0.0
  0
INSERT
  5
1D00
330
165B
100
AcDbEntity
  8
0
 62
     0
370
    -2
100
AcDbBlockReference
  2
_Open30
 10
1702.300442272312
 20
214.5329421804727
 30
0.0
 41
2.5
 42
2.5
 43
2.5
  0
INSERT
  5
1D01
330
165B
100
AcDbEntity
  8
0
 62
     0
370
    -2
100
AcDbBlockReference
  2
_Open30
 10
1691.500442272312
 20
214.5329421804727
 30
0.0
 41
2.5
 42
2.5
 43
2.5
 50
180.0
  0
MTEXT
  5
1D02
330
165B
100
AcDbEntity
  8
0
 62
     4
100
AcDbMText
 10
1696.777231248947
 20
216.6579421804727
 30
0.0
 40
3.0
 41
0.0
 71
     5
 72
     1
  1
54
 73
     1
 44
1.0
1001
ACAD
1000
MTEXTBEGIN
1070
    73
1070
     1
1070
    44
1040
1.0
1070
    74
1070
     0
1000
MTEXTEND
  0
POINT
  5
1D03
330
165B
100
AcDbEntity
  8
Defpoints
 62
     0
100
AcDbPoint
 10
1702.300442272312
 20
251.745200351372
 30
0.0
  0
POINT
  5
1D04
330
165B
100
AcDbEntity
  8
Defpoints
 62
     0
100
AcDbPoint
 10
1691.500442272312
 20
252.545200351372
 30
0.0
  0
POINT
  5
1D05
330
165B
100
AcDbEntity
  8
Defpoints
 62
     0
100
AcDbPoint
 10
1691.500442272312
 20
214.5329421804727
 30
0.0
  0
ENDBLK
  5
165D
330
165B
100
AcDbEntity
  8
0
100
AcDbBlockEnd
  0
BLOCK
  5
1674
330
1673
100
AcDbEntity
  8
0
100
AcDbBlockBegin
  2
*D14
 70
     1
 10
0.0
 20
0.0
 30
0.0
  3
*D14
  1

  0
LINE
  5
1DCB
330
1673
100
AcDbEntity
  8
0
 62
     0
370
    -2
100
AcDbLine
 10
1584.393641335677
 20
153.8370331832018
 30
0.0
 11
1584.393641335677
 21
178.7918590068886
 31
0.0
  0
LINE
  5
1DCC
330
1673
100
AcDbEntity
  8
0
 62
     0
370
    -2
100
AcDbLine
 10
1754.393641335677
 20
164.0370331832018
 30
0.0
 11
1754.393641335677
 21
178.7918590068886
 31
0.0
  0
LINE
  5
1DCD
330
1673
100
AcDbEntity
  8
0
 62
     0
370
    -2
100
AcDbLine
 10
1586.893641335677
 20
177.5418590068886
 30
0.0
 11
1751.893641335677
 21
177.5418590068886
 31
0.0
  0
INSERT
  5
1DCE
330
1673
100
AcDbEntity
  8
0
 62
     0
370
    -2
100
AcDbBlockReference
  2
_Open30
 10
1584.393641335677
 20
177.5418590068886
 30
0.0
 41
2.5
 42
2.5
 43
2.5
 50
180.0
  0
INSERT
  5
1DCF
330
1673
100
AcDbEntity
  8
0
 62
     0
370
    -2
100
AcDbBlockReference
  2
_Open30
 10
1754.393641335677
 20
177.5418590068886
 30
0.0
 41
2.5
 42
2.5
 43
2.5
  0
MTEXT
  5
1DD0
330
1673
100
AcDbEntity
  8
0
 62
     4
100
AcDbMText
 10
1670.999317293704
 20
179.6668590068886
 30
0.0
 40
3.0
 41
0.0
 71
     5
 72
     1
  1
1700(展開寸法)
 73
     1
 44
1.0
1001
ACAD
1000
MTEXTBEGIN
1070
    73
1070
     1
1070
    44
1040
1.0
1070
    74
1070
     0
1000
MTEXTEND
  0
POINT
  5
1DD1
330
1673
100
AcDbEntity
  8
Defpoints
 62
     0
100
AcDbPoint
 10
1584.393641335677
 20
153.5870331832018
 30
0.0
  0
POINT
  5
1DD2
330
1673
100
AcDbEntity
  8
Defpoints
 62
     0
100
AcDbPoint
 10
1754.393641335677
 20
163.7870331832018
 30
0.0
  0
POINT
  5
1DD3
330
1673
100
AcDbEntity
  8
Defpoints
 62
     0
100
AcDbPoint
 10
1754.393641335677
 20
177.5418590068886
 30
0.0
  0
ENDBLK
  5
1675
330
1673
100
AcDbEntity
  8
0
100
AcDbBlockEnd
  0
BLOCK
  5
1695
330
1694
100
AcDbEntity
  8
0
100
AcDbBlockBegin
  2
*D15
 70
     1
 10
0.0
 20
0.0
 30
0.0
  3
*D15
  1

  0
LINE
  5
1DC2
330
1694
100
AcDbEntity
  8
0
 62
     0
370
    -2
100
AcDbLine
 10
1590.543641335678
 20
163.7870331832018
 30
0.0
 11
1570.495645358987
 21
163.7870331832018
 31
0.0
  0
LINE
  5
1DC3
330
1694
100
AcDbEntity
  8
0
 62
     0
370
    -2
100
AcDbLine
 10
1590.543641335678
 20
119.7870331832018
 30
0.0
 11
1570.495645358987
 21
119.7870331832018
 31
0.0
  0
LINE
  5
1DC4
330
1694
100
AcDbEntity
  8
0
 62
     0
370
    -2
100
AcDbLine
 10
1571.745645358987
 20
161.2870331832018
 30
0.0
 11
1571.745645358987
 21
122.2870331832018
 31
0.0
  0
INSERT
  5
1DC5
330
1694
100
AcDbEntity
  8
0
 62
     0
370
    -2
100
AcDbBlockReference
  2
_Open30
 10
1571.745645358987
 20
163.7870331832018
 30
0.0
 41
2.5
 42
2.5
 43
2.5
 50
90.0
  0
INSERT
  5
1DC6
330
1694
100
AcDbEntity
  8
0
 62
     0
370
    -2
100
AcDbBlockReference
  2
_Open30
 10
1571.745645358987
 20
119.7870331832018
 30
0.0
 41
2.5
 42
2.5
 43
2.5
 50
270.0
  0
MTEXT
  5
1DC7
330
1694
100
AcDbEntity
  8
0
 62
     4
100
AcDbMText
 10
1569.620645358987
 20
142.0003250958409
 30
0.0
 40
3.0
 41
0.0
 71
     5
 72
     1
  1
440
 11
0.0000000000000001
 21
1.0
 31
0.0
 73
     1
 44
1.0
1001
ACAD
1000
MTEXTBEGIN
1070
    73
1070
     1
1070
    44
1040
1.0
1070
    74
1070
     0
1000
MTEXTEND
  0
POINT
  5
1DC8
330
1694
100
AcDbEntity
  8
Defpoints
 62
     0
100
AcDbPoint
 10
1590.793641335678
 20
163.7870331832018
 30
0.0
  0
POINT
  5
1DC9
330
1694
100
AcDbEntity
  8
Defpoints
 62
     0
100
AcDbPoint
 10
1590.793641335678
 20
119.7870331832018
 30
0.0
  0
POINT
  5
1DCA
330
1694
100
AcDbEntity
  8
Defpoints
 62
     0
100
AcDbPoint
 10
1571.745645358987
 20
119.7870331832018
 30
0.0
  0
ENDBLK
  5
1696
330
1694
100
AcDbEntity
  8
0
100
AcDbBlockEnd
  0
BLOCK
  5
19E7
330
19E6
100
AcDbEntity
  8
0
100
AcDbBlockBegin
  2
*D16
 70
     1
 10
0.0
 20
0.0
 30
0.0
  3
*D16
  1

  0
LINE
  5
1EBE
330
19E6
100
AcDbEntity
  8
0
 62
     0
370
    -2
100
AcDbLine
 10
1565.241454278737
 20
309.345200351372
 30
0.0
 11
1541.97852805895
 21
309.345200351372
 31
0.0
  0
LINE
  5
1EBF
330
19E6
100
AcDbEntity
  8
0
 62
     0
370
    -2
100
AcDbLine
 10
1565.241454278737
 20
224.345200351372
 30
0.0
 11
1541.97852805895
 21
224.345200351372
 31
0.0
  0
LINE
  5
1EC0
330
19E6
100
AcDbEntity
  8
0
 62
     0
370
    -2
100
AcDbLine
 10
1543.22852805895
 20
306.845200351372
 30
0.0
 11
1543.22852805895
 21
226.845200351372
 31
0.0
  0
INSERT
  5
1EC1
330
19E6
100
AcDbEntity
  8
0
 62
     0
370
    -2
100
AcDbBlockReference
  2
_Open30
 10
1543.22852805895
 20
309.345200351372
 30
0.0
 41
2.5
 42
2.5
 43
2.5
 50
90.0
  0
INSERT
  5
1EC2
330
19E6
100
AcDbEntity
  8
0
 62
     0
370
    -2
100
AcDbBlockReference
  2
_Open30
 10
1543.22852805895
 20
224.345200351372
 30
0.0
 41
2.5
 42
2.5
 43
2.5
 50
270.0
  0
MTEXT
  5
1EC3
330
19E6
100
AcDbEntity
  8
0
 62
     4
100
AcDbMText
 10
1541.10352805895
 20
266.845200351372
 30
0.0
 40
3.0
 41
0.0
 71
     5
 72
     1
  1
425
 11
0.0000000000000001
 21
1.0
 31
0.0
 73
     1
 44
1.0
1001
ACAD
1000
MTEXTBEGIN
1070
    73
1070
     1
1070
    44
1040
1.0
1070
    74
1070
     0
1000
MTEXTEND
  0
POINT
  5
1EC4
330
19E6
100
AcDbEntity
  8
Defpoints
 62
     0
100
AcDbPoint
 10
1565.491454278737
 20
309.345200351372
 30
0.0
  0
POINT
  5
1EC5
330
19E6
100
AcDbEntity
  8
Defpoints
 62
     0
100
AcDbPoint
 10
1565.491454278737
 20
224.345200351372
 30
0.0
  0
POINT
  5
1EC6
330
19E6
100
AcDbEntity
  8
Defpoints
 62
     0
100
AcDbPoint
 10
1543.22852805895
 20
224.345200351372
 30
0.0
  0
ENDBLK
  5
19E8
330
19E6
100
AcDbEntity
  8
0
100
AcDbBlockEnd
  0
BLOCK
  5
19F3
330
19F2
100
AcDbEntity
  8
0
100
AcDbBlockBegin
  2
*D17
 70
     1
 10
0.0
 20
0.0
 30
0.0
  3
*D17
  1

  0
LINE
  5
1EC7
330
19F2
100
AcDbEntity
  8
0
 62
     0
370
    -2
100
AcDbLine
 10
1646.291454278737
 20
224.095200351372
 30
0.0
 11
1646.291454278737
 21
213.7169655746384
 31
0.0
  0
LINE
  5
1EC8
330
19F2
100
AcDbEntity
  8
0
 62
     0
370
    -2
100
AcDbLine
 10
1565.491454278737
 20
224.095200351372
 30
0.0
 11
1565.491454278737
 21
213.7169655746384
 31
0.0
  0
LINE
  5
1EC9
330
19F2
100
AcDbEntity
  8
0
 62
     0
370
    -2
100
AcDbLine
 10
1643.791454278737
 20
214.9669655746384
 30
0.0
 11
1567.991454278737
 21
214.9669655746384
 31
0.0
  0
INSERT
  5
1ECA
330
19F2
100
AcDbEntity
  8
0
 62
     0
370
    -2
100
AcDbBlockReference
  2
_Open30
 10
1646.291454278737
 20
214.9669655746384
 30
0.0
 41
2.5
 42
2.5
 43
2.5
  0
INSERT
  5
1ECB
330
19F2
100
AcDbEntity
  8
0
 62
     0
370
    -2
100
AcDbBlockReference
  2
_Open30
 10
1565.491454278737
 20
214.9669655746384
 30
0.0
 41
2.5
 42
2.5
 43
2.5
 50
180.0
  0
MTEXT
  5
1ECC
330
19F2
100
AcDbEntity
  8
0
 62
     4
100
AcDbMText
 10
1605.891454278737
 20
217.0919655746384
 30
0.0
 40
3.0
 41
0.0
 71
     5
 72
     1
  1
404
 73
     1
 44
1.0
1001
ACAD
1000
MTEXTBEGIN
1070
    73
1070
     1
1070
    44
1040
1.0
1070
    74
1070
     0
1000
MTEXTEND
  0
POINT
  5
1ECD
330
19F2
100
AcDbEntity
  8
Defpoints
 62
     0
100
AcDbPoint
 10
1646.291454278737
 20
224.345200351372
 30
0.0
  0
POINT
  5
1ECE
330
19F2
100
AcDbEntity
  8
Defpoints
 62
     0
100
AcDbPoint
 10
1565.491454278737
 20
224.345200351372
 30
0.0
  0
POINT
  5
1ECF
330
19F2
100
AcDbEntity
  8
Defpoints
 62
     0
100
AcDbPoint
 10
1565.491454278737
 20
214.9669655746384
 30
0.0
  0
ENDBLK
  5
19F4
330
19F2
100
AcDbEntity
  8
0
100
AcDbBlockEnd
  0
BLOCK
  5
19FF
330
19FE
100
AcDbEntity
  8
0
100
AcDbBlockBegin
  2
*D18
 70
     1
 10
0.0
 20
0.0
 30
0.0
  3
*D18
  1

  0
LINE
  5
1ED0
330
19FE
100
AcDbEntity
  8
0
 62
     0
370
    -2
100
AcDbLine
 10
1699.700442272312
 20
264.695200351372
 30
0.0
 11
1699.700442272312
 21
213.693914167613
 31
0.0
  0
LINE
  5
1ED1
330
19FE
100
AcDbEntity
  8
0
 62
     0
370
    -2
100
AcDbLine
 10
1686.700442272312
 20
258.095200351372
 30
0.0
 11
1686.700442272312
 21
213.693914167613
 31
0.0
  0
LINE
  5
1ED2
330
19FE
100
AcDbEntity
  8
0
 62
     0
370
    -2
100
AcDbLine
 10
1697.200442272312
 20
214.943914167613
 30
0.0
 11
1689.200442272312
 21
214.943914167613
 31
0.0
  0
INSERT
  5
1ED3
330
19FE
100
AcDbEntity
  8
0
 62
     0
370
    -2
100
AcDbBlockReference
  2
_Open30
 10
1699.700442272312
 20
214.943914167613
 30
0.0
 41
2.5
 42
2.5
 43
2.5
  0
INSERT
  5
1ED4
330
19FE
100
AcDbEntity
  8
0
 62
     0
370
    -2
100
AcDbBlockReference
  2
_Open30
 10
1686.700442272312
 20
214.943914167613
 30
0.0
 41
2.5
 42
2.5
 43
2.5
 50
180.0
  0
MTEXT
  5
1ED5
330
19FE
100
AcDbEntity
  8
0
 62
     4
100
AcDbMText
 10
1693.177231248947
 20
217.068914167613
 30
0.0
 40
3.0
 41
0.0
 71
     5
 72
     1
  1
65
 73
     1
 44
1.0
1001
ACAD
1000
MTEXTBEGIN
1070
    73
1070
     1
1070
    44
1040
1.0
1070
    74
1070
     0
1000
MTEXTEND
  0
POINT
  5
1ED6
330
19FE
100
AcDbEntity
  8
Defpoints
 62
     0
100
AcDbPoint
 10
1699.700442272312
 20
264.945200351372
 30
0.0
  0
POINT
  5
1ED7
330
19FE
100
AcDbEntity
  8
Defpoints
 62
     0
100
AcDbPoint
 10
1686.700442272312
 20
258.345200351372
 30
0.0
  0
POINT
  5
1ED8
330
19FE
100
AcDbEntity
  8
Defpoints
 62
     0
100
AcDbPoint
 10
1686.700442272312
 20
214.943914167613
 30
0.0
  0
ENDBLK
  5
1A00
330
19FE
100
AcDbEntity
  8
0
100
AcDbBlockEnd
  0
BLOCK
  5
1A9F
330
1A9E
100
AcDbEntity
  8
0
100
AcDbBlockBegin
  2
*D19
 70
     1
 10
0.0
 20
0.0
 30
0.0
  3
*D19
  1

  0
LINE
  5
1AB5
330
1A9E
100
AcDbEntity
  8
0
 62
     0
370
    -2
100
AcDbLine
 10
1937.241454278737
 20
885.6805734370771
 30
0.0
 11
1873.887900815286
 21
885.6805734370771
 31
0.0
  0
LINE
  5
1AB6
330
1A9E
100
AcDbEntity
  8
0
 62
     0
370
    -2
100
AcDbLine
 10
1937.241454278737
 20
680.6805734370771
 30
0.0
 11
1873.887900815286
 21
680.6805734370771
 31
0.0
  0
LINE
  5
1AB7
330
1A9E
100
AcDbEntity
  8
0
 62
     0
370
    -2
100
AcDbLine
 10
1875.137900815286
 20
883.1805734370773
 30
0.0
 11
1875.137900815286
 21
683.1805734370772
 31
0.0
  0
INSERT
  5
1AB8
330
1A9E
100
AcDbEntity
  8
0
 62
     0
370
    -2
100
AcDbBlockReference
  2
_Open30
 10
1875.137900815286
 20
885.6805734370771
 30
0.0
 41
2.5
 42
2.5
 43
2.5
 50
90.0
  0
INSERT
  5
1AB9
330
1A9E
100
AcDbEntity
  8
0
 62
     0
370
    -2
100
AcDbBlockReference
  2
_Open30
 10
1875.137900815286
 20
680.6805734370771
 30
0.0
 41
2.5
 42
2.5
 43
2.5
 50
270.0
  0
MTEXT
  5
1ABA
330
1A9E
100
AcDbEntity
  8
0
 62
     4
100
AcDbMText
 10
1873.012900815286
 20
762.9028263448097
 30
0.0
 40
3.0
 41
0.0
 71
     5
 72
     1
  1
205
 11
0.0000000000000001
 21
1.0
 31
0.0
 73
     1
 44
1.0
1001
ACAD
1000
MTEXTBEGIN
1070
    73
1070
     1
1070
    44
1040
1.0
1070
    74
1070
     0
1000
MTEXTEND
  0
POINT
  5
1ABB
330
1A9E
100
AcDbEntity
  8
Defpoints
 62
     0
100
AcDbPoint
 10
1937.491454278737
 20
885.6805734370771
 30
0.0
  0
POINT
  5
1ABC
330
1A9E
100
AcDbEntity
  8
Defpoints
 62
     0
100
AcDbPoint
 10
1937.491454278737
 20
680.6805734370771
 30
0.0
  0
POINT
  5
1ABD
330
1A9E
100
AcDbEntity
  8
Defpoints
 62
     0
100
AcDbPoint
 10
1875.137900815286
 20
680.6805734370771
 30
0.0
  0
ENDBLK
  5
1AA0
330
1A9E
100
AcDbEntity
  8
0
100
AcDbBlockEnd
  0
BLOCK
  5
1AC1
330
1AC0
100
AcDbEntity
  8
0
100
AcDbBlockBegin
  2
*D20
 70
     1
 10
0.0
 20
0.0
 30
0.0
  3
*D20
  1

  0
LINE
  5
1AD7
330
1AC0
100
AcDbEntity
  8
0
 62
     0
370
    -2
100
AcDbLine
 10
1937.491454278737
 20
680.9305734370772
 30
0.0
 11
1937.491454278737
 21
690.1427753829966
 31
0.0
  0
LINE
  5
1AD8
330
1AC0
100
AcDbEntity
  8
0
 62
     0
370
    -2
100
AcDbLine
 10
1907.491454278737
 20
680.9305734370772
 30
0.0
 11
1907.491454278737
 21
690.1427753829966
 31
0.0
  0
LINE
  5
1AD9
330
1AC0
100
AcDbEntity
  8
0
 62
     0
370
    -2
100
AcDbLine
 10
1934.991454278737
 20
688.8927753829968
 30
0.0
 11
1909.991454278737
 21
688.8927753829968
 31
0.0
  0
INSERT
  5
1ADA
330
1AC0
100
AcDbEntity
  8
0
 62
     0
370
    -2
100
AcDbBlockReference
  2
_Open30
 10
1937.491454278737
 20
688.8927753829968
 30
0.0
 41
2.5
 42
2.5
 43
2.5
  0
INSERT
  5
1ADB
330
1AC0
100
AcDbEntity
  8
0
 62
     0
370
    -2
100
AcDbBlockReference
  2
_Open30
 10
1907.491454278737
 20
688.8927753829968
 30
0.0
 41
2.5
 42
2.5
 43
2.5
 50
180.0
  0
MTEXT
  5
1ADC
330
1AC0
100
AcDbEntity
  8
0
 62
     4
100
AcDbMText
 10
1920.362798079512
 20
691.0177753829966
 30
0.0
 40
3.0
 41
0.0
 71
     5
 72
     1
  1
30
 73
     1
 44
1.0
1001
ACAD
1000
MTEXTBEGIN
1070
    73
1070
     1
1070
    44
1040
1.0
1070
    74
1070
     0
1000
MTEXTEND
  0
POINT
  5
1ADD
330
1AC0
100
AcDbEntity
  8
Defpoints
 62
     0
100
AcDbPoint
 10
1937.491454278737
 20
680.6805734370771
 30
0.0
  0
POINT
  5
1ADE
330
1AC0
100
AcDbEntity
  8
Defpoints
 62
     0
100
AcDbPoint
 10
1907.491454278737
 20
680.6805734370771
 30
0.0
  0
POINT
  5
1ADF
330
1AC0
100
AcDbEntity
  8
Defpoints
 62
     0
100
AcDbPoint
 10
1907.491454278737
 20
688.8927753829968
 30
0.0
  0
ENDBLK
  5
1AC2
330
1AC0
100
AcDbEntity
  8
0
100
AcDbBlockEnd
  0
BLOCK
  5
1AEA
330
1AE9
100
AcDbEntity
  8
0
100
AcDbBlockBegin
  2
*D21
 70
     1
 10
0.0
 20
0.0
 30
0.0
  3
*D21
  1

  0
LINE
  5
1B00
330
1AE9
100
AcDbEntity
  8
0
 62
     0
370
    -2
100
AcDbLine
 10
2205.286394246612
 20
654.6805734370772
 30
0.0
 11
2174.906006944148
 21
654.6805734370772
 31
0.0
  0
LINE
  5
1B01
330
1AE9
100
AcDbEntity
  8
0
 62
     0
370
    -2
100
AcDbLine
 10
2205.286394246612
 20
550.6805734370773
 30
0.0
 11
2174.906006944148
 21
550.6805734370773
 31
0.0
  0
LINE
  5
1B02
330
1AE9
100
AcDbEntity
  8
0
 62
     0
370
    -2
100
AcDbLine
 10
2176.156006944149
 20
652.1805734370772
 30
0.0
 11
2176.156006944149
 21
553.1805734370773
 31
0.0
  0
INSERT
  5
1B03
330
1AE9
100
AcDbEntity
  8
0
 62
     0
370
    -2
100
AcDbBlockReference
  2
_Open30
 10
2176.156006944149
 20
654.6805734370772
 30
0.0
 41
2.5
 42
2.5
 43
2.5
 50
90.0
  0
INSERT
  5
1B04
330
1AE9
100
AcDbEntity
  8
0
 62
     0
370
    -2
100
AcDbBlockReference
  2
_Open30
 10
2176.156006944149
 20
550.6805734370773
 30
0.0
 41
2.5
 42
2.5
 43
2.5
 50
270.0
  0
MTEXT
  5
1B05
330
1AE9
100
AcDbEntity
  8
0
 62
     4
100
AcDbMText
 10
2174.031006944149
 20
587.6413150911413
 30
0.0
 40
3.0
 41
0.0
 71
     5
 72
     1
  1
104
 11
0.0000000000000001
 21
1.0
 31
0.0
 73
     1
 44
1.0
1001
ACAD
1000
MTEXTBEGIN
1070
    73
1070
     1
1070
    44
1040
1.0
1070
    74
1070
     0
1000
MTEXTEND
  0
POINT
  5
1B06
330
1AE9
100
AcDbEntity
  8
Defpoints
 62
     0
100
AcDbPoint
 10
2205.536394246612
 20
654.6805734370772
 30
0.0
  0
POINT
  5
1B07
330
1AE9
100
AcDbEntity
  8
Defpoints
 62
     0
100
AcDbPoint
 10
2205.536394246612
 20
550.6805734370773
 30
0.0
  0
POINT
  5
1B08
330
1AE9
100
AcDbEntity
  8
Defpoints
 62
     0
100
AcDbPoint
 10
2176.156006944149
 20
550.6805734370773
 30
0.0
  0
ENDBLK
  5
1AEB
330
1AE9
100
AcDbEntity
  8
0
100
AcDbBlockEnd
  0
BLOCK
  5
1B17
330
1B16
100
AcDbEntity
  8
0
100
AcDbBlockBegin
  2
*D22
 70
     1
 10
0.0
 20
0.0
 30
0.0
  3
*D22
  1

  0
LINE
  5
1D5D
330
1B16
100
AcDbEntity
  8
0
 62
     0
370
    -2
100
AcDbLine
 10
1692.700442272312
 20
224.095200351372
 30
0.0
 11
1692.700442272312
 21
217.3111459890642
 31
0.0
  0
LINE
  5
1D5E
330
1B16
100
AcDbEntity
  8
0
 62
     0
370
    -2
100
AcDbLine
 10
1698.700442272311
 20
224.095200351372
 30
0.0
 11
1698.700442272311
 21
217.3111459890642
 31
0.0
  0
LINE
  5
1D5F
330
1B16
100
AcDbEntity
  8
0
 62
     0
370
    -2
100
AcDbLine
 10
1690.200442272312
 20
218.5611459890643
 30
0.0
 11
1687.700442272312
 21
218.5611459890643
 31
0.0
  0
LINE
  5
1D60
330
1B16
100
AcDbEntity
  8
0
 62
     0
370
    -2
100
AcDbLine
 10
1701.200442272312
 20
218.5611459890643
 30
0.0
 11
1709.450442272312
 21
218.5611459890643
 31
0.0
  0
LINE
  5
1D61
330
1B16
100
AcDbEntity
  8
0
 62
     0
370
    -2
100
AcDbLine
 10
1692.700442272312
 20
218.5611459890643
 30
0.0
 11
1698.700442272311
 21
218.5611459890643
 31
0.0
  0
INSERT
  5
1D62
330
1B16
100
AcDbEntity
  8
0
 62
     0
370
    -2
100
AcDbBlockReference
  2
_Open30
 10
1692.700442272312
 20
218.5611459890643
 30
0.0
 41
2.5
 42
2.5
 43
2.5
  0
INSERT
  5
1D63
330
1B16
100
AcDbEntity
  8
0
 62
     0
370
    -2
100
AcDbBlockReference
  2
_Open30
 10
1698.700442272311
 20
218.5611459890643
 30
0.0
 41
2.5
 42
2.5
 43
2.5
 50
180.0
  0
MTEXT
  5
1D64
330
1B16
100
AcDbEntity
  8
0
 62
     4
100
AcDbMText
 10
1706.575442272312
 20
220.6861459890642
 30
0.0
 40
3.0
 41
0.0
 71
     5
 72
     1
  1
30
 73
     1
 44
1.0
1001
ACAD
1000
MTEXTBEGIN
1070
    73
1070
     1
1070
    44
1040
1.0
1070
    74
1070
     0
1000
MTEXTEND
  0
POINT
  5
1D65
330
1B16
100
AcDbEntity
  8
Defpoints
 62
     0
100
AcDbPoint
 10
1692.700442272312
 20
224.345200351372
 30
0.0
  0
POINT
  5
1D66
330
1B16
100
AcDbEntity
  8
Defpoints
 62
     0
100
AcDbPoint
 10
1698.700442272311
 20
224.345200351372
 30
0.0
  0
POINT
  5
1D67
330
1B16
100
AcDbEntity
  8
Defpoints
 62
     0
100
AcDbPoint
 10
1698.700442272311
 20
218.5611459890643
 30
0.0
  0
ENDBLK
  5
1B18
330
1B16
100
AcDbEntity
  8
0
100
AcDbBlockEnd
  0
BLOCK
  5
1B6E
330
1B6D
100
AcDbEntity
  8
0
100
AcDbBlockBegin
  2
*D23
 70
     1
 10
0.0
 20
0.0
 30
0.0
  3
*D23
  1

  0
LINE
  5
1ED9
330
1B6D
100
AcDbEntity
  8
0
 62
     0
370
    -2
100
AcDbLine
 10
1584.393641335677
 20
153.8370331832018
 30
0.0
 11
1584.393641335677
 21
178.7918590068886
 31
0.0
  0
LINE
  5
1EDA
330
1B6D
100
AcDbEntity
  8
0
 62
     0
370
    -2
100
AcDbLine
 10
1781.093641335677
 20
162.2370331832018
 30
0.0
 11
1781.093641335677
 21
178.7918590068886
 31
0.0
  0
LINE
  5
1EDB
330
1B6D
100
AcDbEntity
  8
0
 62
     0
370
    -2
100
AcDbLine
 10
1586.893641335677
 20
177.5418590068886
 30
0.0
 11
1778.593641335677
 21
177.5418590068886
 31
0.0
  0
INSERT
  5
1EDC
330
1B6D
100
AcDbEntity
  8
0
 62
     0
370
    -2
100
AcDbBlockReference
  2
_Open30
 10
1584.393641335677
 20
177.5418590068886
 30
0.0
 41
2.5
 42
2.5
 43
2.5
 50
180.0
  0
INSERT
  5
1EDD
330
1B6D
100
AcDbEntity
  8
0
 62
     0
370
    -2
100
AcDbBlockReference
  2
_Open30
 10
1781.093641335677
 20
177.5418590068886
 30
0.0
 41
2.5
 42
2.5
 43
2.5
  0
MTEXT
  5
1EDE
330
1B6D
100
AcDbEntity
  8
0
 62
     4
100
AcDbMText
 10
1671.099317293703
 20
179.6668590068886
 30
0.0
 40
3.0
 41
0.0
 71
     5
 72
     1
  1
1967(展開寸法)
 73
     1
 44
1.0
1001
ACAD
1000
MTEXTBEGIN
1070
    73
1070
     1
1070
    44
1040
1.0
1070
    74
1070
     0
1000
MTEXTEND
  0
POINT
  5
1EDF
330
1B6D
100
AcDbEntity
  8
Defpoints
 62
     0
100
AcDbPoint
 10
1584.393641335677
 20
153.5870331832018
 30
0.0
  0
POINT
  5
1EE0
330
1B6D
100
AcDbEntity
  8
Defpoints
 62
     0
100
AcDbPoint
 10
1781.093641335677
 20
161.9870331832018
 30
0.0
  0
POINT
  5
1EE1
330
1B6D
100
AcDbEntity
  8
Defpoints
 62
     0
100
AcDbPoint
 10
1781.093641335677
 20
177.5418590068886
 30
0.0
  0
ENDBLK
  5
1B6F
330
1B6D
100
AcDbEntity
  8
0
100
AcDbBlockEnd
  0
BLOCK
  5
1B7A
330
1B79
100
AcDbEntity
  8
0
100
AcDbBlockBegin
  2
*D24
 70
     1
 10
0.0
 20
0.0
 30
0.0
  3
*D24
  1

  0
LINE
  5
1EE2
330
1B79
100
AcDbEntity
  8
0
 62
     0
370
    -2
100
AcDbLine
 10
1589.543641335677
 20
161.9870331832018
 30
0.0
 11
1570.495645358987
 21
161.9870331832018
 31
0.0
  0
LINE
  5
1EE3
330
1B79
100
AcDbEntity
  8
0
 62
     0
370
    -2
100
AcDbLine
 10
1589.543641335677
 20
121.5870331832018
 30
0.0
 11
1570.495645358987
 21
121.5870331832018
 31
0.0
  0
LINE
  5
1EE4
330
1B79
100
AcDbEntity
  8
0
 62
     0
370
    -2
100
AcDbLine
 10
1571.745645358987
 20
159.4870331832018
 30
0.0
 11
1571.745645358987
 21
124.0870331832018
 31
0.0
  0
INSERT
  5
1EE5
330
1B79
100
AcDbEntity
  8
0
 62
     0
370
    -2
100
AcDbBlockReference
  2
_Open30
 10
1571.745645358987
 20
161.9870331832018
 30
0.0
 41
2.5
 42
2.5
 43
2.5
 50
90.0
  0
INSERT
  5
1EE6
330
1B79
100
AcDbEntity
  8
0
 62
     0
370
    -2
100
AcDbBlockReference
  2
_Open30
 10
1571.745645358987
 20
121.5870331832018
 30
0.0
 41
2.5
 42
2.5
 43
2.5
 50
270.0
  0
MTEXT
  5
1EE7
330
1B79
100
AcDbEntity
  8
0
 62
     4
100
AcDbMText
 10
1569.620645358987
 20
142.0003250958409
 30
0.0
 40
3.0
 41
0.0
 71
     5
 72
     1
  1
404
 11
0.0000000000000001
 21
1.0
 31
0.0
 73
     1
 44
1.0
1001
ACAD
1000
MTEXTBEGIN
1070
    73
1070
     1
1070
    44
1040
1.0
1070
    74
1070
     0
1000
MTEXTEND
  0
POINT
  5
1EE8
330
1B79
100
AcDbEntity
  8
Defpoints
 62
     0
100
AcDbPoint
 10
1589.793641335677
 20
161.9870331832018
 30
0.0
  0
POINT
  5
1EE9
330
1B79
100
AcDbEntity
  8
Defpoints
 62
     0
100
AcDbPoint
 10
1589.793641335677
 20
121.5870331832018
 30
0.0
  0
POINT
  5
1EEA
330
1B79
100
AcDbEntity
  8
Defpoints
 62
     0
100
AcDbPoint
 10
1571.745645358987
 20
121.5870331832018
 30
0.0
  0
ENDBLK
  5
1B7B
330
1B79
100
AcDbEntity
  8
0
100
AcDbBlockEnd
  0
BLOCK
  5
1BCB
330
1BCA
100
AcDbEntity
  8
0
100
AcDbBlockBegin
  2
*D25
 70
     1
 10
0.0
 20
0.0
 30
0.0
  3
*D25
  1

  0
LINE
  5
1C31
330
1BCA
100
AcDbEntity
  8
0
 62
     0
370
    -2
100
AcDbLine
 10
3509.393641335677
 20
-719.7650694872354
 30
0.0
 11
3509.393641335677
 21
-689.6246629271423
 31
0.0
  0
LINE
  5
1C32
330
1BCA
100
AcDbEntity
  8
0
 62
     0
370
    -2
100
AcDbLine
 10
2232.393641335677
 20
-719.7650694872354
 30
0.0
 11
2232.393641335677
 21
-689.6246629271423
 31
0.0
  0
LINE
  5
1C33
330
1BCA
100
AcDbEntity
  8
0
 62
     0
370
    -2
100
AcDbLine
 10
3506.893641335677
 20
-690.8746629271425
 30
0.0
 11
2234.893641335677
 21
-690.8746629271425
 31
0.0
  0
INSERT
  5
1C34
330
1BCA
100
AcDbEntity
  8
0
 62
     0
370
    -2
100
AcDbBlockReference
  2
_Open30
 10
3509.393641335677
 20
-690.8746629271425
 30
0.0
 41
2.5
 42
2.5
 43
2.5
  0
INSERT
  5
1C35
330
1BCA
100
AcDbEntity
  8
0
 62
     0
370
    -2
100
AcDbBlockReference
  2
_Open30
 10
2232.393641335677
 20
-690.8746629271425
 30
0.0
 41
2.5
 42
2.5
 43
2.5
 50
180.0
  0
MTEXT
  5
1C36
330
1BCA
100
AcDbEntity
  8
0
 62
     4
100
AcDbMText
 10
3118.342587330403
 20
-688.7496629271423
 30
0.0
 40
3.0
 41
0.0
 71
     5
 72
     1
  1
1277
 73
     1
 44
1.0
1001
ACAD
1000
MTEXTBEGIN
1070
    73
1070
     1
1070
    44
1040
1.0
1070
    74
1070
     0
1000
MTEXTEND
  0
POINT
  5
1C37
330
1BCA
100
AcDbEntity
  8
Defpoints
 62
     0
100
AcDbPoint
 10
3509.393641335677
 20
-720.0150694872355
 30
0.0
  0
POINT
  5
1C38
330
1BCA
100
AcDbEntity
  8
Defpoints
 62
     0
100
AcDbPoint
 10
2232.393641335677
 20
-720.0150694872355
 30
0.0
  0
POINT
  5
1C39
330
1BCA
100
AcDbEntity
  8
Defpoints
 62
     0
100
AcDbPoint
 10
2232.393641335677
 20
-690.8746629271425
 30
0.0
  0
ENDBLK
  5
1BCC
330
1BCA
100
AcDbEntity
  8
0
100
AcDbBlockEnd
  0
BLOCK
  5
1BF1
330
1BF0
100
AcDbEntity
  8
0
100
AcDbBlockBegin
  2
*D26
 70
     1
 10
0.0
 20
0.0
 30
0.0
  3
*D26
  1

  0
LINE
  5
1C3A
330
1BF0
100
AcDbEntity
  8
0
 62
     0
370
    -2
100
AcDbLine
 10
3094.393641335677
 20
-719.7650694872354
 30
0.0
 11
3094.393641335677
 21
-691.9465209075215
 31
0.0
  0
LINE
  5
1C3B
330
1BF0
100
AcDbEntity
  8
0
 62
     0
370
    -2
100
AcDbLine
 10
2709.393641335677
 20
-719.7650694872354
 30
0.0
 11
2709.393641335677
 21
-691.9465209075215
 31
0.0
  0
LINE
  5
1C3C
330
1BF0
100
AcDbEntity
  8
0
 62
     0
370
    -2
100
AcDbLine
 10
3091.893641335677
 20
-693.1965209075215
 30
0.0
 11
2711.893641335677
 21
-693.1965209075215
 31
0.0
  0
INSERT
  5
1C3D
330
1BF0
100
AcDbEntity
  8
0
 62
     0
370
    -2
100
AcDbBlockReference
  2
_Open30
 10
3094.393641335677
 20
-693.1965209075215
 30
0.0
 41
2.5
 42
2.5
 43
2.5
  0
INSERT
  5
1C3E
330
1BF0
100
AcDbEntity
  8
0
 62
     0
370
    -2
100
AcDbBlockReference
  2
_Open30
 10
2709.393641335677
 20
-693.1965209075215
 30
0.0
 41
2.5
 42
2.5
 43
2.5
 50
180.0
  0
MTEXT
  5
1C3F
330
1BF0
100
AcDbEntity
  8
0
 62
     4
100
AcDbMText
 10
2837.490360796468
 20
-691.0715209075215
 30
0.0
 40
3.0
 41
0.0
 71
     5
 72
     1
  1
385
 73
     1
 44
1.0
1001
ACAD
1000
MTEXTBEGIN
1070
    73
1070
     1
1070
    44
1040
1.0
1070
    74
1070
     0
1000
MTEXTEND
  0
POINT
  5
1C40
330
1BF0
100
AcDbEntity
  8
Defpoints
 62
     0
100
AcDbPoint
 10
3094.393641335677
 20
-720.0150694872355
 30
0.0
  0
POINT
  5
1C41
330
1BF0
100
AcDbEntity
  8
Defpoints
 62
     0
100
AcDbPoint
 10
2709.393641335677
 20
-720.0150694872355
 30
0.0
  0
POINT
  5
1C42
330
1BF0
100
AcDbEntity
  8
Defpoints
 62
     0
100
AcDbPoint
 10
2709.393641335677
 20
-693.1965209075215
 30
0.0
  0
ENDBLK
  5
1BF2
330
1BF0
100
AcDbEntity
  8
0
100
AcDbBlockEnd
  0
ENDSEC
  0
SECTION
  2
ENTITIES
  0
TEXT
  5
1156
330
1F
100
AcDbEntity
  8
0
 62
     3
100
AcDbText
 10
1822.829563987562
 20
200.9630090706067
 30
0.0
 40
3.2
  1
型　　　式
  7
高3.2
100
AcDbText
  0
TEXT
  5
1157
330
1F
100
AcDbEntity
  8
0
 62
     3
100
AcDbText
 10
1822.829563987562
 20
173.4630090706066
 30
0.0
 40
3.2
  1
出力電流
  7
高3.2
100
AcDbText
  0
LINE
  5
115D
330
1F
100
AcDbEntity
  8
0
 62
     3
100
AcDbLine
 10
1821.329563987562
 20
205.4630090706067
 30
0.0
 11
1821.329563987563
 21
155.9630090706063
 31
0.0
  0
TEXT
  5
115E
330
1F
100
AcDbEntity
  8
0
 62
     3
100
AcDbText
 10
1822.829563987562
 20
189.9630090706065
 30
0.0
 40
3.2
  1
パネル種
  7
高3.2
100
AcDbText
  0
LINE
  5
115F
330
1F
100
AcDbEntity
  8
0
 62
     3
100
AcDbLine
 10
1879.974824551237
 20
205.4630090706067
 30
0.0
 11
1879.974824551237
 21
155.9630090706063
 31
0.0
  0
LINE
  5
1160
330
1F
100
AcDbEntity
  8
0
 62
     3
100
AcDbLine
 10
1821.329563987562
 20
205.4630090706067
 30
0.0
 11
1879.974824551237
 21
205.4630090706067
 31
0.0
  0
LINE
  5
1161
330
1F
100
AcDbEntity
  8
0
100
AcDbLine
 10
1821.329563987562
 20
199.9630090706066
 30
0.0
 11
1879.974824551237
 21
199.9630090706066
 31
0.0
  0
LINE
  5
1162
330
1F
100
AcDbEntity
  8
0
100
AcDbLine
 10
1821.329563987562
 20
188.9630090706065
 30
0.0
 11
1879.974824551237
 21
188.9630090706065
 31
0.0
  0
LINE
  5
1163
330
1F
100
AcDbEntity
  8
0
100
AcDbLine
 10
1821.329563987562
 20
177.9630090706065
 30
0.0
 11
1879.974824551237
 21
177.9630090706065
 31
0.0
  0
LINE
  5
1164
330
1F
100
AcDbEntity
  8
0
100
AcDbLine
 10
1821.329563987562
 20
172.4630090706066
 30
0.0
 11
1879.974824551237
 21
172.4630090706066
 31
0.0
  0
LINE
  5
1165
330
1F
100
AcDbEntity
  8
0
 62
     3
100
AcDbLine
 10
1821.329563987562
 20
155.9630090706063
 30
0.0
 11
1879.974824551237
 21
155.9630090706063
 31
0.0
  0
TEXT
  5
116A
330
1F
100
AcDbEntity
  8
0
 62
     3
100
AcDbText
 10
1831.978725348233
 20
210.2142857951875
 30
0.0
 40
4.5
  1
主　　仕　　様
  7
高4.5
100
AcDbText
  0
TEXT
  5
116B
330
1F
100
AcDbEntity
  8
0
 62
     3
100
AcDbText
 10
1849.188790170776
 20
189.9630090706065
 30
0.0
 40
3.2
  1
単結晶
  7
高3.2
100
AcDbText
  0
LINE
  5
116E
330
1F
100
AcDbEntity
  8
0
100
AcDbLine
 10
1847.688790170776
 20
205.4630090706067
 30
0.0
 11
1847.688790170776
 21
155.9630090706063
 31
0.0
  0
LINE
  5
1170
330
1F
100
AcDbEntity
  8
0
100
AcDbLine
 10
1821.329563987562
 20
183.4630090706065
 30
0.0
 11
1879.974824551237
 21
183.4630090706065
 31
0.0
  0
TEXT
  5
1171
330
1F
100
AcDbEntity
  8
0
 62
     3
100
AcDbText
 10
1822.829563987562
 20
184.4630090706066
 30
0.0
 40
3.2
  1
最大出力
  7
高3.2
100
AcDbText
  0
TEXT
  5
1172
330
1F
100
AcDbEntity
  8
0
 62
     3
100
AcDbText
 10
1849.188790170776
 20
184.4630090706066
 30
0.0
 40
3.2
  1
100W
  7
高3.2
100
AcDbText
  0
TEXT
  5
1173
330
1F
100
AcDbEntity
  8
0
 62
     3
100
AcDbText
 10
1849.188790170776
 20
200.9630090706067
 30
0.0
 40
3.2
  1
LPE-SO100
  7
高3.2
100
AcDbText
  0
TEXT
  5
1174
330
1F
100
AcDbEntity
  8
0
 62
     3
100
AcDbText
 10
1849.188790170776
 20
173.4630090706066
 30
0.0
 40
3.2
  1
5.5A
  7
高3.2
100
AcDbText
  0
LINE
  5
1179
330
1F
100
AcDbEntity
  8
0
100
AcDbLine
 10
1831.443183372921
 20
209.5946201470416
 30
0.0
 11
1869.861205165878
 21
209.5946201470416
 31
0.0
  0
TEXT
  5
117B
330
1F
100
AcDbEntity
  8
0
 62
     3
100
AcDbText
 10
1822.829563987562
 20
178.9630090706066
 30
0.0
 40
3.2
  1
出力電圧
  7
高3.2
100
AcDbText
  0
TEXT
  5
117C
330
1F
100
AcDbEntity
  8
0
 62
     3
100
AcDbText
 10
1849.188790170776
 20
178.9630090706066
 30
0.0
 40
3.2
  1
18V
  7
高3.2
100
AcDbText
  0
TEXT
  5
1183
330
1F
100
AcDbEntity
  8
0
 62
     7
100
AcDbText
 10
1821.935776623508
 20
151.0488468898311
 30
0.0
 40
2.5
  1
注１）安全にご使用いただくため、取扱説明書をご参照ください。
 41
0.8
  7
高2.5
100
AcDbText
  0
TEXT
  5
1184
330
1F
100
AcDbEntity
  8
0
 62
     7
100
AcDbText
 10
1821.935776623508
 20
148.0488468898311
 30
0.0
 40
2.5
  1
注２）仕様変更は予告なく行う場合があります。予めご了承ください。
 41
0.8
  7
高2.5
100
AcDbText
  0
TEXT
  5
1186
330
1F
100
AcDbEntity
  8
0
 62
     3
100
AcDbText
 10
1822.829563987562
 20
195.4630090706066
 30
0.0
 40
3.2
  1
使用　場所
  7
高3.2
100
AcDbText
  0
LINE
  5
1187
330
1F
100
AcDbEntity
  8
0
100
AcDbLine
 10
1821.329563987562
 20
194.4630090706066
 30
0.0
 11
1879.974824551237
 21
194.4630090706066
 31
0.0
  0
TEXT
  5
1188
330
1F
100
AcDbEntity
  8
0
 62
     3
100
AcDbText
 10
1849.188790170776
 20
195.4630090706066
 30
0.0
 40
3.2
  1
屋内型
 41
0.8
  7
高3.2
100
AcDbText
  0
LINE
  5
118A
330
1F
100
AcDbEntity
  8
0
 62
     3
100
AcDbLine
 10
1518.325211780021
 20
349.7536152005959
 30
0.0
 11
1518.325211780021
 21
75.75361520059587
 31
0.0
  0
LINE
  5
118B
330
1F
100
AcDbEntity
  8
0
 62
     3
100
AcDbLine
 10
1908.325211780021
 20
75.75361520059587
 30
0.0
 11
1908.325211780021
 21
349.7536152005959
 31
0.0
  0
LINE
  5
118C
330
1F
100
AcDbEntity
  8
0
 62
     3
100
AcDbLine
 10
1518.325211780021
 20
75.75361520059587
 30
0.0
 11
1908.325211780021
 21
75.75361520059587
 31
0.0
  0
LINE
  5
118D
330
1F
100
AcDbEntity
  8
0
 62
     3
100
AcDbLine
 10
1736.981936960021
 20
349.7536152005959
 30
0.0
 11
1908.325211780021
 21
349.7536152005959
 31
0.0
  0
LINE
  5
118E
330
1F
100
AcDbEntity
  8
0
 62
     3
100
AcDbLine
 10
1688.427902290021
 20
349.7536152005959
 30
0.0
 11
1518.325211780021
 21
349.7536152005959
 31
0.0
  0
LINE
  5
118F
330
1F
100
AcDbEntity
  8
0
 62
     3
100
AcDbLine
 10
1505.923287990021
 20
216.1982541505958
 30
0.0
 11
1503.325211780021
 21
214.6982541505958
 31
0.0
  0
LINE
  5
1190
330
1F
100
AcDbEntity
  8
0
 62
     3
100
AcDbLine
 10
1505.923287990021
 20
216.1982541505958
 30
0.0
 11
1503.325211780021
 21
217.6982541505958
 31
0.0
  0
LINE
  5
1191
330
1F
100
AcDbEntity
  8
0
 62
     3
100
AcDbLine
 10
1503.325211780021
 20
214.6982541505958
 30
0.0
 11
1503.325211780021
 21
217.6982541505958
 31
0.0
  0
LINE
  5
1194
330
1F
100
AcDbEntity
  8
0
 62
     3
100
AcDbLine
 10
1856.325211780021
 20
75.75361520059587
 30
0.0
 11
1856.325211780021
 21
115.7536152005959
 31
0.0
  0
LINE
  5
1195
330
1F
100
AcDbEntity
  8
0
 62
     3
100
AcDbLine
 10
1869.325211780021
 20
85.75361520059587
 30
0.0
 11
1869.325211780021
 21
113.7536152005959
 31
0.0
  0
LINE
  5
1196
330
1F
100
AcDbEntity
  8
0
 62
     3
100
AcDbLine
 10
1829.325211780021
 20
85.75361520059587
 30
0.0
 11
1829.325211780021
 21
99.75361520059587
 31
0.0
  0
LINE
  5
1197
330
1F
100
AcDbEntity
  8
0
 62
     3
100
AcDbLine
 10
1839.325211780021
 20
99.75361520059587
 30
0.0
 11
1839.325211780021
 21
75.75361520059587
 31
0.0
  0
LINE
  5
1198
330
1F
100
AcDbEntity
  8
0
 62
     3
100
AcDbLine
 10
1810.325211780021
 20
115.7536152005959
 30
0.0
 11
1810.325211780021
 21
92.75361520059588
 31
0.0
  0
LINE
  5
1199
330
1F
100
AcDbEntity
  8
0
 62
     3
100
AcDbLine
 10
1869.325211780021
 20
113.7536152005959
 30
0.0
 11
1869.325211780021
 21
115.7536152005959
 31
0.0
  0
LINE
  5
119A
330
1F
100
AcDbEntity
  8
0
 62
     3
100
AcDbLine
 10
1882.325211780021
 20
92.75361520059588
 30
0.0
 11
1882.325211780021
 21
115.7536152005959
 31
0.0
  0
LINE
  5
119B
330
1F
100
AcDbEntity
  8
0
 62
     3
100
AcDbLine
 10
1908.325211780021
 20
115.7536152005959
 30
0.0
 11
1797.079777140021
 21
115.7536152005959
 31
0.0
  0
LINE
  5
119C
330
1F
100
AcDbEntity
  8
0
 62
     3
100
AcDbLine
 10
1908.325211780021
 20
106.7536152005958
 30
0.0
 11
1797.079777140021
 21
106.7536152005958
 31
0.0
  0
LINE
  5
119D
330
1F
100
AcDbEntity
  8
0
 62
     3
100
AcDbLine
 10
1908.325211780021
 20
92.75361520059588
 30
0.0
 11
1797.079777140021
 21
92.75361520059588
 31
0.0
  0
LINE
  5
119E
330
1F
100
AcDbEntity
  8
0
 62
     3
100
AcDbLine
 10
1908.325211780021
 20
85.75361520059587
 30
0.0
 11
1797.021769280021
 21
85.75361520059587
 31
0.0
  0
LINE
  5
119F
330
1F
100
AcDbEntity
  8
0
 62
     3
100
AcDbLine
 10
1895.325211780021
 20
92.75361520059588
 30
0.0
 11
1895.325211780021
 21
115.7536152005959
 31
0.0
  0
LINE
  5
11A0
330
1F
100
AcDbEntity
  8
0
 62
     3
100
AcDbLine
 10
1797.079777140021
 20
115.7536152005959
 30
0.0
 11
1797.079777140021
 21
75.75361520059587
 31
0.0
  0
LINE
  5
11A1
330
1F
100
AcDbEntity
  8
0
 62
     3
100
AcDbLine
 10
1856.325211780021
 20
99.75361520059587
 30
0.0
 11
1797.079777140021
 21
99.75361520059584
 31
0.0
  0
LINE
  5
11A2
330
1F
100
AcDbEntity
  8
0
 62
     3
100
AcDbLine
 10
1839.603536710021
 20
80.58647646059586
 30
0.0
 11
1856.325211780021
 21
80.58647646059586
 31
0.0
  0
TEXT
  5
11A3
330
1F
100
AcDbEntity
  8
0
 62
     3
100
AcDbText
 10
1840.489537193337
 20
94.82671205396121
 30
0.0
 40
2.5
  1
-
 41
0.8
  7
高2.5
100
AcDbText
  0
TEXT
  5
11A4
330
1F
100
AcDbEntity
  8
0
 62
     3
100
AcDbText
 10
1811.521580475274
 20
95.0514296055798
 30
0.0
 40
2.5
  1
-
  7
高2.5
100
AcDbText
  0
TEXT
  5
11A5
330
1F
100
AcDbEntity
  8
0
 62
     3
100
AcDbText
 10
1811.786488229971
 20
108.0658647243537
 30
0.0
 40
4.5
  1
ピンバン用ソーラーパネル100W
 41
0.5
  7
高4.5
100
AcDbText
1001
ACAD
1000
ACAD_MTEXT_DEFINED_HEIGHT_BEGIN
1070
    46
1040
0.0
1000
ACAD_MTEXT_DEFINED_HEIGHT_END
  0
TEXT
  5
11A6
330
1F
100
AcDbEntity
  8
0
 62
     3
100
AcDbText
 10
1898.390800873495
 20
112.2673072992994
 30
0.0
 40
2.0
  1
DEF
  7
高2
100
AcDbText
  0
TEXT
  5
11A7
330
1F
100
AcDbEntity
  8
0
 62
     3
100
AcDbText
 10
1884.451702519787
 20
112.2673072992993
 30
0.0
 40
2.0
  1
DESN
  7
高2
100
AcDbText
  0
TEXT
  5
11A8
330
1F
100
AcDbEntity
  8
0
 62
     3
100
AcDbText
 10
1858.197335579787
 20
112.2673072992994
 30
0.0
 40
2.0
  1
APPD
  7
高2
100
AcDbText
  0
TEXT
  5
11A9
330
1F
100
AcDbEntity
  8
0
 62
     3
100
AcDbText
 10
1871.310071680021
 20
112.2673072992995
 30
0.0
 40
2.0
  1
CHCK
  7
高2
100
AcDbText
  0
TEXT
  5
11AA
330
1F
100
AcDbEntity
  8
0
 62
     3
100
AcDbText
 10
1830.252377419174
 20
89.9220140238266
 30
0.0
 40
2.0
  1
SCALE
 41
0.8
  7
高2
100
AcDbText
  0
TEXT
  5
11AB
330
1F
100
AcDbEntity
  8
0
 62
     3
100
AcDbText
 10
1798.764355843067
 20
89.9220140238266
 30
0.0
 40
2.0
  1
3AD　ANGLE
 41
1.5
  7
高2
100
AcDbText
  0
TEXT
  5
11AC
330
1F
100
AcDbEntity
  8
0
 62
     3
100
AcDbText
 10
1829.521783110022
 20
96.67355209278369
 30
0.0
 40
2.0
  1
REMARKS
 41
0.7
  7
高2
100
AcDbText
  0
TEXT
  5
11AD
330
1F
100
AcDbEntity
  8
0
 62
     3
100
AcDbText
 10
1798.547447490021
 20
96.75361520059588
 30
0.0
 40
2.0
  1
MATERIAL
 41
0.7
  7
高2
100
AcDbText
  0
TEXT
  5
11AE
330
1F
100
AcDbEntity
  8
0
 62
     3
100
AcDbText
 10
1799.123934692775
 20
103.7536152005958
 30
0.0
 40
2.0
  1
MODEL
  7
高2
100
AcDbText
  0
TEXT
  5
11AF
330
1F
100
AcDbEntity
  8
0
 62
     3
100
AcDbText
 10
1798.760855574107
 20
112.4606365511949
 30
0.0
 40
2.0
  1
CONPONENTS
 41
0.5
  7
高2
100
AcDbText
  0
TEXT
  5
11B0
330
1F
100
AcDbEntity
  8
0
 62
     3
100
AcDbText
 10
1811.467971045274
 20
100.8410963284078
 30
0.0
 40
4.5
  1
LPE-SO100
  7
高4.5
100
AcDbText
  0
TEXT
  5
11B1
330
1F
100
AcDbEntity
  8
0
 62
     3
100
AcDbText
 10
1859.420555219074
 20
76.89780615743098
 30
0.0
 40
6.299999999999998
  1
LPE-SO100
 41
0.8
  7
高6.3
100
AcDbText
1001
ACAD
1000
ACAD_MTEXT_DEFINED_HEIGHT_BEGIN
1070
    46
1040
0.0
1000
ACAD_MTEXT_DEFINED_HEIGHT_END
  0
TEXT
  5
11B2
330
1F
100
AcDbEntity
  8
0
 62
     3
100
AcDbText
 10
1872.888721530351
 20
86.85450435882886
 30
0.0
 40
3.2
  1
2022.11.15
  7
高3.2
100
AcDbText
1001
ACAD
1000
ACAD_MTEXT_DEFINED_HEIGHT_BEGIN
1070
    46
1040
0.0
1000
ACAD_MTEXT_DEFINED_HEIGHT_END
  0
TEXT
  5
11B3
330
1F
100
AcDbEntity
  8
0
 62
     3
100
AcDbText
 10
1843.112809674667
 20
86.38323427376509
 30
0.0
 40
2.5
  1
1/10
  7
高2.5
100
AcDbText
  0
TEXT
  5
11B4
330
1F
100
AcDbEntity
  8
0
 62
     3
100
AcDbText
 10
1840.190138650021
 20
76.57049337373184
 30
0.0
 40
3.2
  1
ZK-A3X
 41
0.8
  7
高3.2
100
AcDbText
  0
TEXT
  5
11B5
330
1F
100
AcDbEntity
  8
0
 62
     3
100
AcDbText
 10
1797.910478180021
 20
82.2782356227837
 30
0.0
 40
2.0
  1
NICHIDO IND.CO.LTD
 41
1.3
  7
高2
100
AcDbText
  0
TEXT
  5
11B6
330
1F
100
AcDbEntity
  8
0
 62
     3
100
AcDbText
 10
1799.092001444978
 20
107.8941434084808
 30
0.0
 40
3.2
  1
品 名
  7
高3.2
100
AcDbText
1001
ACAD
1000
ACAD_MTEXT_DEFINED_HEIGHT_BEGIN
1070
    46
1040
0.0
1000
ACAD_MTEXT_DEFINED_HEIGHT_END
  0
TEXT
  5
11B7
330
1F
100
AcDbEntity
  8
0
 62
     3
100
AcDbText
 10
1799.092001444978
 20
100.2536152005958
 30
0.0
 40
3.2
  1
型 式
  7
高3.2
100
AcDbText
1001
ACAD
1000
ACAD_MTEXT_DEFINED_HEIGHT_BEGIN
1070
    46
1040
3.064735913775952
1000
ACAD_MTEXT_DEFINED_HEIGHT_END
  0
TEXT
  5
11B8
330
1F
100
AcDbEntity
  8
0
 62
     3
100
AcDbText
 10
1799.092001444978
 20
93.25361520059587
 30
0.0
 40
3.2
  1
材 質
  7
高3.2
100
AcDbText
1001
ACAD
1000
ACAD_MTEXT_DEFINED_HEIGHT_BEGIN
1070
    46
1040
0.0
1000
ACAD_MTEXT_DEFINED_HEIGHT_END
  0
TEXT
  5
11B9
330
1F
100
AcDbEntity
  8
0
 62
     3
100
AcDbText
 10
1798.786966494978
 20
86.22105519284209
 30
0.0
 40
3.2
  1
第 三 角 法
  7
高3.2
100
AcDbText
1001
ACAD
1000
ACAD_MTEXT_DEFINED_HEIGHT_BEGIN
1070
    46
1040
0.0
1000
ACAD_MTEXT_DEFINED_HEIGHT_END
  0
TEXT
  5
11BA
330
1F
100
AcDbEntity
  8
0
 62
     3
100
AcDbText
 10
1797.193499102507
 20
76.8941434084808
 30
0.0
 40
3.2
  1
日動工業株式会社
 41
1.199999999999999
  7
高3.2
100
AcDbText
1001
ACAD
1000
ACAD_MTEXT_DEFINED_HEIGHT_BEGIN
1070
    46
1040
0.0
1000
ACAD_MTEXT_DEFINED_HEIGHT_END
  0
TEXT
  5
11BB
330
1F
100
AcDbEntity
  8
0
 62
     3
100
AcDbText
 10
1830.829123301986
 20
93.13819373376345
 30
0.0
 40
3.2
  1
備考
  7
高3.2
100
AcDbText
1001
ACAD
1000
ACAD_MTEXT_DEFINED_HEIGHT_BEGIN
1070
    46
1040
0.0
1000
ACAD_MTEXT_DEFINED_HEIGHT_END
  0
TEXT
  5
11BC
330
1F
100
AcDbEntity
  8
0
 62
     3
100
AcDbText
 10
1840.478180749021
 20
81.89984522616617
 30
0.0
 40
2.5
  1
出図コード
  7
高2.5
100
AcDbText
1001
ACAD
1000
ACAD_MTEXT_DEFINED_HEIGHT_BEGIN
1070
    46
1040
0.0
1000
ACAD_MTEXT_DEFINED_HEIGHT_END
  0
TEXT
  5
11BD
330
1F
100
AcDbEntity
  8
0
 62
     3
100
AcDbText
 10
1830.670357183898
 20
86.2068501110088
 30
0.0
 40
3.2
  1
尺度
  7
高3.2
100
AcDbText
1001
ACAD
1000
ACAD_MTEXT_DEFINED_HEIGHT_BEGIN
1070
    46
1040
0.0
1000
ACAD_MTEXT_DEFINED_HEIGHT_END
  0
TEXT
  5
11BE
330
1F
100
AcDbEntity
  8
0
 62
     3
100
AcDbText
 10
1857.816618665677
 20
87.33832855912629
 30
0.0
 40
3.2
  1
作成日
  7
高3.2
100
AcDbText
1001
ACAD
1000
ACAD_MTEXT_DEFINED_HEIGHT_BEGIN
1070
    46
1040
0.0
1000
ACAD_MTEXT_DEFINED_HEIGHT_END
  0
TEXT
  5
11BF
330
1F
100
AcDbEntity
  8
0
 62
     3
100
AcDbText
 10
1857.711092672541
 20
107.8941434084808
 30
0.0
 40
3.2
  1
承 認
  7
高3.2
100
AcDbText
1001
ACAD
1000
ACAD_MTEXT_DEFINED_HEIGHT_BEGIN
1070
    46
1040
0.0
1000
ACAD_MTEXT_DEFINED_HEIGHT_END
  0
TEXT
  5
11C0
330
1F
100
AcDbEntity
  8
0
 62
     3
100
AcDbText
 10
1870.711092672541
 20
107.8941434084808
 30
0.0
 40
3.2
  1
検 図
  7
高3.2
100
AcDbText
1001
ACAD
1000
ACAD_MTEXT_DEFINED_HEIGHT_BEGIN
1070
    46
1040
0.0
1000
ACAD_MTEXT_DEFINED_HEIGHT_END
  0
TEXT
  5
11C1
330
1F
100
AcDbEntity
  8
0
 62
     3
100
AcDbText
 10
1883.711092672541
 20
107.8941434084808
 30
0.0
 40
3.2
  1
設 計
  7
高3.2
100
AcDbText
1001
ACAD
1000
ACAD_MTEXT_DEFINED_HEIGHT_BEGIN
1070
    46
1040
0.0
1000
ACAD_MTEXT_DEFINED_HEIGHT_END
  0
TEXT
  5
11C2
330
1F
100
AcDbEntity
  8
0
 62
     3
100
AcDbText
 10
1897.011729192541
 20
107.8941434084808
 30
0.0
 40
3.2
  1
製 図
  7
高3.2
100
AcDbText
1001
ACAD
1000
ACAD_MTEXT_DEFINED_HEIGHT_BEGIN
1070
    46
1040
0.0
1000
ACAD_MTEXT_DEFINED_HEIGHT_END
  0
LINE
  5
11C3
330
1F
100
AcDbEntity
  8
0
 62
     3
100
AcDbLine
 10
1697.304204320555
 20
352.0865718842094
 30
0.0
 11
1697.304204320555
 21
347.3518139357624
 31
0.0
  0
LINE
  5
11C4
330
1F
100
AcDbEntity
  8
0
 62
     3
100
AcDbLine
 10
1698.269413142025
 20
350.2381156984327
 30
0.0
 11
1698.269413142025
 21
347.3518139357624
 31
0.0
  0
LINE
  5
11C5
330
1F
100
AcDbEntity
  8
0
 62
     3
100
AcDbLine
 10
1700.978267328022
 20
352.0865718842094
 30
0.0
 11
1700.978267328022
 21
350.0017867179167
 31
0.0
  0
LINE
  5
11C6
330
1F
100
AcDbEntity
  8
0
 62
     3
100
AcDbLine
 10
1701.943475137698
 20
352.0865718842094
 30
0.0
 11
1701.943475137698
 21
346.7172313553172
 31
0.0
  0
LINE
  5
11C7
330
1F
100
AcDbEntity
  8
0
 62
     3
100
AcDbLine
 10
1703.480931830761
 20
352.0540507065148
 30
0.0
 11
1703.480931830761
 21
347.3193504303768
 31
0.0
  0
LINE
  5
11C8
330
1F
100
AcDbEntity
  8
0
 62
     3
100
AcDbLine
 10
1705.010243623967
 20
352.0540294588221
 30
0.0
 11
1705.010243623967
 21
347.3193291826841
 31
0.0
  0
LINE
  5
11C9
330
1F
100
AcDbEntity
  8
0
 62
     3
100
AcDbLine
 10
1710.672140126109
 20
352.0539586331794
 30
0.0
 11
1710.672057158928
 21
347.3192593688363
 31
0.0
  0
LINE
  5
11CA
330
1F
100
AcDbEntity
  8
0
 62
     3
100
AcDbLine
 10
1715.350614960001
 20
352.0539586331794
 30
0.0
 11
1715.350697927182
 21
347.3192593688363
 31
0.0
  0
LINE
  5
11CB
330
1F
100
AcDbEntity
  8
0
 62
     3
100
AcDbLine
 10
1713.788415785568
 20
349.9911506637744
 30
0.0
 11
1712.234339300542
 21
349.9911506637744
 31
0.0
  0
LINE
  5
11CC
330
1F
100
AcDbEntity
  8
0
 62
     3
100
AcDbLine
 10
1713.788405667619
 20
349.3822079777317
 30
0.0
 11
1712.234350430286
 21
349.3822079777317
 31
0.0
  0
LINE
  5
11CD
330
1F
100
AcDbEntity
  8
0
 62
     3
100
AcDbLine
 10
1713.788452210184
 20
352.0539586331794
 30
0.0
 11
1713.788415785568
 21
349.9911506637744
 31
0.0
  0
LINE
  5
11CE
330
1F
100
AcDbEntity
  8
0
 62
     3
100
AcDbLine
 10
1713.788405667619
 20
349.3822079777317
 30
0.0
 11
1713.788369243003
 21
347.3192593688363
 31
0.0
  0
LINE
  5
11CF
330
1F
100
AcDbEntity
  8
0
 62
     3
100
AcDbLine
 10
1712.234302875926
 20
352.0539586331794
 30
0.0
 11
1712.234339300542
 21
349.9911506637744
 31
0.0
  0
LINE
  5
11D0
330
1F
100
AcDbEntity
  8
0
 62
     3
100
AcDbLine
 10
1712.234350430286
 20
349.3822079777317
 30
0.0
 11
1712.234385843107
 21
347.3192593688363
 31
0.0
  0
LINE
  5
11D1
330
1F
100
AcDbEntity
  8
0
 62
     3
100
AcDbLine
 10
1716.891787839489
 20
352.0539586331794
 30
0.0
 11
1716.891704872308
 21
347.3192593688363
 31
0.0
  0
LINE
  5
11D2
330
1F
100
AcDbEntity
  8
0
 62
     3
100
AcDbLine
 10
1718.421067255258
 20
352.0539586331794
 30
0.0
 11
1718.421149210644
 21
347.3192593688363
 31
0.0
  0
LINE
  5
11D3
330
1F
100
AcDbEntity
  8
0
 62
     3
100
AcDbLine
 10
1719.979994578568
 20
352.0539586331794
 30
0.0
 11
1719.979912623182
 21
347.3192593688363
 31
0.0
  0
ARC
  5
11D4
330
1F
100
AcDbEntity
  8
0
 62
     3
100
AcDbCircle
 10
1708.37628259439
 20
349.700251537458
 30
0.0
 40
3.015561595733376
100
AcDbArc
 50
97.70152400000622
 51
266.0248408089489
  0
ARC
  5
11D5
330
1F
100
AcDbEntity
  8
0
 62
     3
100
AcDbCircle
 10
1726.574181551462
 20
349.6699604219285
 30
0.0
 40
3.048311372854727
100
AcDbArc
 50
0.3142499999976029
 51
69.00558200000452
  0
ARC
  5
11D6
330
1F
100
AcDbEntity
  8
0
 62
     3
100
AcDbCircle
 10
1727.240050853612
 20
349.6699604219285
 30
0.0
 40
3.048311372854727
100
AcDbArc
 50
110.9944179999954
 51
148.1166110000016
  0
ARC
  5
11D7
330
1F
100
AcDbEntity
  8
0
 62
     3
100
AcDbCircle
 10
1726.574181551462
 20
349.7033982195777
 30
0.0
 40
3.048311372854727
100
AcDbArc
 50
290.9944179999955
 51
359.6857499999992
  0
ARC
  5
11D8
330
1F
100
AcDbEntity
  8
0
 62
     3
100
AcDbCircle
 10
1727.240050853612
 20
349.7033982195777
 30
0.0
 40
3.048311372854727
100
AcDbArc
 50
211.8833889999971
 51
249.0055820000045
  0
ARC
  5
11D9
330
1F
100
AcDbEntity
  8
0
 62
     3
100
AcDbCircle
 10
1726.907116708434
 20
350.9337964591139
 30
0.0
 40
1.754843910410663
100
AcDbArc
 50
64.36517200000719
 51
115.6348279999928
  0
ARC
  5
11DA
330
1F
100
AcDbEntity
  8
0
 62
     3
100
AcDbCircle
 10
1726.907116708434
 20
348.4395621823924
 30
0.0
 40
1.754843910410663
100
AcDbArc
 50
244.3651720000072
 51
295.6348279999928
  0
ARC
  5
11DB
330
1F
100
AcDbEntity
  8
0
 62
     3
100
AcDbCircle
 10
1726.907116708434
 20
350.9671310536838
 30
0.0
 40
0.8612620730595795
100
AcDbArc
 50
19.48660600000152
 51
160.5133939999984
  0
ARC
  5
11DC
330
1F
100
AcDbEntity
  8
0
 62
     3
100
AcDbCircle
 10
1726.907116708434
 20
348.4062285996173
 30
0.0
 40
0.8612620730595795
100
AcDbArc
 50
199.4866060000015
 51
340.5133939999985
  0
LINE
  5
11DD
330
1F
100
AcDbEntity
  8
0
 62
     3
100
AcDbLine
 10
1718.927378241241
 20
346.6847182719817
 30
0.0
 11
1716.385476853506
 21
346.6847182719817
 31
0.0
  0
LINE
  5
11DE
330
1F
100
AcDbEntity
  8
0
 62
     3
100
AcDbLine
 10
1718.927378241241
 20
346.990513042724
 30
0.0
 11
1718.927378241241
 21
346.6847182719817
 31
0.0
  0
LINE
  5
11DF
330
1F
100
AcDbEntity
  8
0
 62
     3
100
AcDbLine
 10
1715.856926957779
 20
352.6884977064445
 30
0.0
 11
1713.282141224201
 21
352.6884977064445
 31
0.0
  0
LINE
  5
11E0
330
1F
100
AcDbEntity
  8
0
 62
     3
100
AcDbLine
 10
1715.856926957779
 20
352.6884977064445
 30
0.0
 11
1715.856926957779
 21
352.3828455987822
 31
0.0
  0
LINE
  5
11E1
330
1F
100
AcDbEntity
  8
0
 62
     3
100
AcDbLine
 10
1715.856926957779
 20
346.990513042724
 30
0.0
 11
1715.856926957779
 21
346.6845756089016
 31
0.0
  0
LINE
  5
11E2
330
1F
100
AcDbEntity
  8
0
 62
     3
100
AcDbLine
 10
1715.856926957779
 20
346.6845756089016
 30
0.0
 11
1713.282141224201
 21
346.6845756089016
 31
0.0
  0
LINE
  5
11E3
330
1F
100
AcDbEntity
  8
0
 62
     3
100
AcDbLine
 10
1718.927378241241
 20
352.6886403695244
 30
0.0
 11
1718.927378241241
 21
352.3828455987822
 31
0.0
  0
LINE
  5
11E4
330
1F
100
AcDbEntity
  8
0
 62
     3
100
AcDbLine
 10
1718.927378241241
 20
352.6886403695244
 30
0.0
 11
1716.385476853506
 21
352.6886403695244
 31
0.0
  0
LINE
  5
11E5
330
1F
100
AcDbEntity
  8
0
 62
     3
100
AcDbLine
 10
1716.385476853506
 20
352.6886403695244
 30
0.0
 11
1716.385476853506
 21
352.3828455987822
 31
0.0
  0
LINE
  5
11E6
330
1F
100
AcDbEntity
  8
0
 62
     3
100
AcDbLine
 10
1719.473683592585
 20
346.990513042724
 30
0.0
 11
1719.473683592585
 21
346.6847182719817
 31
0.0
  0
LINE
  5
11E7
330
1F
100
AcDbEntity
  8
0
 62
     3
100
AcDbLine
 10
1722.218305454861
 20
346.6847182719817
 30
0.0
 11
1719.473683592585
 21
346.6847182719817
 31
0.0
  0
LINE
  5
11E8
330
1F
100
AcDbEntity
  8
0
 62
     3
100
AcDbLine
 10
1721.509273994337
 20
351.7234325598488
 30
0.0
 11
1721.509273994337
 21
347.6499260816571
 31
0.0
  0
LINE
  5
11E9
330
1F
100
AcDbEntity
  8
0
 62
     3
100
AcDbLine
 10
1721.509273994337
 20
347.6499260816571
 30
0.0
 11
1721.783974284404
 21
347.6499260816571
 31
0.0
  0
ARC
  5
11EA
330
1F
100
AcDbEntity
  8
0
 62
     3
100
AcDbCircle
 10
1720.379334846213
 20
349.6866793207531
 30
0.0
 40
2.474141041926213
100
AcDbArc
 50
304.5919550000087
 51
55.40804499999131
  0
LINE
  5
11EB
330
1F
100
AcDbEntity
  8
0
 62
     3
100
AcDbLine
 10
1722.218305454861
 20
352.6886403695244
 30
0.0
 11
1719.473683592585
 21
352.6886403695244
 31
0.0
  0
LINE
  5
11EC
330
1F
100
AcDbEntity
  8
0
 62
     3
100
AcDbLine
 10
1719.473683592585
 20
352.6886403695244
 30
0.0
 11
1719.473683592585
 21
352.3828455987822
 31
0.0
  0
LINE
  5
11ED
330
1F
100
AcDbEntity
  8
0
 62
     3
100
AcDbLine
 10
1716.385476853506
 20
346.990513042724
 30
0.0
 11
1716.385476853506
 21
346.6847182719817
 31
0.0
  0
LINE
  5
11EE
330
1F
100
AcDbEntity
  8
0
 62
     3
100
AcDbLine
 10
1721.509273994337
 20
351.7234325598488
 30
0.0
 11
1721.783974284404
 21
351.7234325598488
 31
0.0
  0
LINE
  5
11EF
330
1F
100
AcDbEntity
  8
0
 62
     3
100
AcDbLine
 10
1705.51646658358
 20
346.9905034715286
 30
0.0
 11
1705.516460512811
 21
346.6846803705294
 31
0.0
  0
LINE
  5
11F0
330
1F
100
AcDbEntity
  8
0
 62
     3
100
AcDbLine
 10
1696.797893334571
 20
346.7172313553172
 30
0.0
 11
1698.775724128008
 21
346.7172313553172
 31
0.0
  0
ARC
  5
11F1
330
1F
100
AcDbEntity
  8
0
 62
     3
100
AcDbCircle
 10
1688.854066388965
 20
349.7573703945956
 30
0.0
 40
21.26730034229026
100
AcDbArc
 50
353.8660059999985
 51
357.6940340000007
  0
LINE
  5
11F2
330
1F
100
AcDbEntity
  8
0
 62
     3
100
AcDbLine
 10
1708.680303688684
 20
348.9069314915146
 30
0.0
 11
1710.104145982164
 21
348.9016630755029
 31
0.0
  0
LINE
  5
11F3
330
1F
100
AcDbEntity
  8
0
 62
     3
100
AcDbLine
 10
1708.686053719065
 20
350.461069696029
 30
0.0
 11
1708.659128845147
 21
350.6334613336183
 31
0.0
  0
LINE
  5
11F4
330
1F
100
AcDbEntity
  8
0
 62
     3
100
AcDbLine
 10
1708.659128845147
 20
350.6334613336183
 30
0.0
 11
1708.626792892137
 21
350.7985356705358
 31
0.0
  0
LINE
  5
11F5
330
1F
100
AcDbEntity
  8
0
 62
     3
100
AcDbLine
 10
1708.626792892137
 20
350.7985356705358
 30
0.0
 11
1708.589296785169
 21
350.9550158216259
 31
0.0
  0
LINE
  5
11F6
330
1F
100
AcDbEntity
  8
0
 62
     3
100
AcDbLine
 10
1708.589296785169
 20
350.9550158216259
 30
0.0
 11
1708.546927873993
 21
351.1016916801952
 31
0.0
  0
LINE
  5
11F7
330
1F
100
AcDbEntity
  8
0
 62
     3
100
AcDbLine
 10
1708.546927873993
 20
351.1016916801952
 30
0.0
 11
1708.500016003744
 21
351.2374310477579
 31
0.0
  0
LINE
  5
11F8
330
1F
100
AcDbEntity
  8
0
 62
     3
100
AcDbLine
 10
1708.500016003744
 20
351.2374310477579
 30
0.0
 11
1708.448922385198
 21
351.3611836812142
 31
0.0
  0
LINE
  5
11F9
330
1F
100
AcDbEntity
  8
0
 62
     3
100
AcDbLine
 10
1708.448922385198
 20
351.3611836812142
 30
0.0
 11
1708.394041618366
 21
351.4719924225945
 31
0.0
  0
LINE
  5
11FA
330
1F
100
AcDbEntity
  8
0
 62
     3
100
AcDbLine
 10
1708.394041618366
 20
351.4719924225945
 30
0.0
 11
1708.335799668895
 21
351.5690023052137
 31
0.0
  0
LINE
  5
11FB
330
1F
100
AcDbEntity
  8
0
 62
     3
100
AcDbLine
 10
1708.335799668895
 20
351.5690023052137
 30
0.0
 11
1708.274645773722
 21
351.6514635890555
 31
0.0
  0
LINE
  5
11FC
330
1F
100
AcDbEntity
  8
0
 62
     3
100
AcDbLine
 10
1708.274645773722
 20
351.6514635890555
 30
0.0
 11
1708.211052441059
 21
351.718736819747
 31
0.0
  0
LINE
  5
11FD
330
1F
100
AcDbEntity
  8
0
 62
     3
100
AcDbLine
 10
1708.211052441059
 20
351.718736819747
 30
0.0
 11
1708.145511403226
 21
351.7703039583026
 31
0.0
  0
LINE
  5
11FE
330
1F
100
AcDbEntity
  8
0
 62
     3
100
AcDbLine
 10
1708.145511403226
 20
351.7703039583026
 30
0.0
 11
1708.078528557669
 21
351.8057653457392
 31
0.0
  0
LINE
  5
11FF
330
1F
100
AcDbEntity
  8
0
 62
     3
100
AcDbLine
 10
1708.078528557669
 20
351.8057653457392
 30
0.0
 11
1708.010622955169
 21
351.8248477974355
 31
0.0
  0
LINE
  5
1200
330
1F
100
AcDbEntity
  8
0
 62
     3
100
AcDbLine
 10
1708.010622955169
 20
351.8248477974355
 30
0.0
 11
1707.94231870548
 21
351.8274035913373
 31
0.0
  0
LINE
  5
1201
330
1F
100
AcDbEntity
  8
0
 62
     3
100
AcDbLine
 10
1707.94231870548
 20
351.8274035913373
 30
0.0
 11
1707.874143965539
 21
351.8134114797513
 31
0.0
  0
LINE
  5
1202
330
1F
100
AcDbEntity
  8
0
 62
     3
100
AcDbLine
 10
1707.874143965539
 20
351.8134114797513
 30
0.0
 11
1707.806624868688
 21
351.7829817483214
 31
0.0
  0
LINE
  5
1203
330
1F
100
AcDbEntity
  8
0
 62
     3
100
AcDbLine
 10
1707.806624868688
 20
351.7829817483214
 30
0.0
 11
1707.740284512889
 21
351.7363491334627
 31
0.0
  0
LINE
  5
1204
330
1F
100
AcDbEntity
  8
0
 62
     3
100
AcDbLine
 10
1707.740284512889
 20
351.7363491334627
 30
0.0
 11
1707.675635878151
 21
351.6738728223625
 31
0.0
  0
LINE
  5
1205
330
1F
100
AcDbEntity
  8
0
 62
     3
100
AcDbLine
 10
1707.675635878151
 20
351.6738728223625
 30
0.0
 11
1707.613176767565
 21
351.5960364529802
 31
0.0
  0
LINE
  5
1206
330
1F
100
AcDbEntity
  8
0
 62
     3
100
AcDbLine
 10
1707.613176767565
 20
351.5960364529802
 30
0.0
 11
1707.553391830882
 21
351.5034420432773
 31
0.0
  0
LINE
  5
1207
330
1F
100
AcDbEntity
  8
0
 62
     3
100
AcDbLine
 10
1707.553391830882
 20
351.5034420432773
 30
0.0
 11
1707.496742446575
 21
351.3968049322441
 31
0.0
  0
LINE
  5
1208
330
1F
100
AcDbEntity
  8
0
 62
     3
100
AcDbLine
 10
1707.496742446575
 20
351.3968049322441
 30
0.0
 11
1707.443666721833
 21
351.2769487209236
 31
0.0
  0
LINE
  5
1209
330
1F
100
AcDbEntity
  8
0
 62
     3
100
AcDbLine
 10
1707.443666721833
 20
351.2769487209236
 30
0.0
 11
1707.394574433587
 21
351.1448012252338
 31
0.0
  0
LINE
  5
120A
330
1F
100
AcDbEntity
  8
0
 62
     3
100
AcDbLine
 10
1707.394574433587
 20
351.1448012252338
 30
0.0
 11
1707.349845004924
 21
351.0013833462223
 31
0.0
  0
LINE
  5
120B
330
1F
100
AcDbEntity
  8
0
 62
     3
100
AcDbLine
 10
1707.349845004924
 20
351.0013833462223
 30
0.0
 11
1707.309825481491
 21
350.8478040110928
 31
0.0
  0
LINE
  5
120C
330
1F
100
AcDbEntity
  8
0
 62
     3
100
AcDbLine
 10
1707.309825481491
 20
350.8478040110928
 30
0.0
 11
1707.274823448936
 21
350.6852490434607
 31
0.0
  0
LINE
  5
120D
330
1F
100
AcDbEntity
  8
0
 62
     3
100
AcDbLine
 10
1707.274823448936
 20
350.6852490434607
 30
0.0
 11
1707.245110068291
 21
350.514975092584
 31
0.0
  0
LINE
  5
120E
330
1F
100
AcDbEntity
  8
0
 62
     3
100
AcDbLine
 10
1707.245110068291
 20
350.514975092584
 30
0.0
 11
1707.220916028791
 21
350.3382995154146
 31
0.0
  0
LINE
  5
120F
330
1F
100
AcDbEntity
  8
0
 62
     3
100
AcDbLine
 10
1707.220916028791
 20
350.3382995154146
 30
0.0
 11
1707.202426488902
 21
350.1565872232638
 31
0.0
  0
LINE
  5
1210
330
1F
100
AcDbEntity
  8
0
 62
     3
100
AcDbLine
 10
1707.202426488902
 20
350.1565872232638
 30
0.0
 11
1707.189786135295
 21
349.9712425874446
 31
0.0
  0
LINE
  5
1211
330
1F
100
AcDbEntity
  8
0
 62
     3
100
AcDbLine
 10
1707.189786135295
 20
349.9712425874446
 30
0.0
 11
1707.183092100278
 21
349.7836993213212
 31
0.0
  0
LINE
  5
1212
330
1F
100
AcDbEntity
  8
0
 62
     3
100
AcDbLine
 10
1707.183092100278
 20
349.7836993213212
 30
0.0
 11
1707.182394973596
 21
349.5954053033866
 31
0.0
  0
LINE
  5
1213
330
1F
100
AcDbEntity
  8
0
 62
     3
100
AcDbLine
 10
1707.182394973596
 20
349.5954053033866
 30
0.0
 11
1707.187701837813
 21
349.407816506493
 31
0.0
  0
LINE
  5
1214
330
1F
100
AcDbEntity
  8
0
 62
     3
100
AcDbLine
 10
1707.187701837813
 20
349.407816506493
 30
0.0
 11
1707.198970197546
 21
349.222383844518
 31
0.0
  0
LINE
  5
1215
330
1F
100
AcDbEntity
  8
0
 62
     3
100
AcDbLine
 10
1707.198970197546
 20
349.222383844518
 30
0.0
 11
1707.216114050225
 21
349.0405390072362
 31
0.0
  0
LINE
  5
1216
330
1F
100
AcDbEntity
  8
0
 62
     3
100
AcDbLine
 10
1707.216114050225
 20
349.0405390072362
 30
0.0
 11
1707.239000850722
 21
348.863689401345
 31
0.0
  0
LINE
  5
1217
330
1F
100
AcDbEntity
  8
0
 62
     3
100
AcDbLine
 10
1707.239000850722
 20
348.863689401345
 30
0.0
 11
1707.267452523135
 21
348.6932009499508
 31
0.0
  0
LINE
  5
1218
330
1F
100
AcDbEntity
  8
0
 62
     3
100
AcDbLine
 10
1707.267452523135
 20
348.6932009499508
 30
0.0
 11
1707.301250519766
 21
348.5303920218004
 31
0.0
  0
LINE
  5
1219
330
1F
100
AcDbEntity
  8
0
 62
     3
100
AcDbLine
 10
1707.301250519766
 20
348.5303920218004
 30
0.0
 11
1707.340132785738
 21
348.3765192661516
 31
0.0
  0
LINE
  5
121A
330
1F
100
AcDbEntity
  8
0
 62
     3
100
AcDbLine
 10
1707.340132785738
 20
348.3765192661516
 30
0.0
 11
1707.383799829764
 21
348.2327745773895
 31
0.0
  0
LINE
  5
121B
330
1F
100
AcDbEntity
  8
0
 62
     3
100
AcDbLine
 10
1707.383799829764
 20
348.2327745773895
 30
0.0
 11
1707.431912700552
 21
348.1002668827175
 31
0.0
  0
LINE
  5
121C
330
1F
100
AcDbEntity
  8
0
 62
     3
100
AcDbLine
 10
1707.431912700552
 20
348.1002668827175
 30
0.0
 11
1707.484100069377
 21
347.9800221421579
 31
0.0
  0
LINE
  5
121D
330
1F
100
AcDbEntity
  8
0
 62
     3
100
AcDbLine
 10
1707.484100069377
 20
347.9800221421579
 30
0.0
 11
1707.539959241872
 21
347.8729691834232
 31
0.0
  0
LINE
  5
121E
330
1F
100
AcDbEntity
  8
0
 62
     3
100
AcDbLine
 10
1707.539959241872
 20
347.8729691834232
 30
0.0
 11
1707.599057169822
 21
347.7799346429416
 31
0.0
  0
LINE
  5
121F
330
1F
100
AcDbEntity
  8
0
 62
     3
100
AcDbLine
 10
1707.599057169822
 20
347.7799346429416
 30
0.0
 11
1707.66093753373
 21
347.7016379068826
 31
0.0
  0
LINE
  5
1220
330
1F
100
AcDbEntity
  8
0
 62
     3
100
AcDbLine
 10
1707.66093753373
 20
347.7016379068826
 30
0.0
 11
1707.725122766406
 21
347.6386850403874
 31
0.0
  0
LINE
  5
1221
330
1F
100
AcDbEntity
  8
0
 62
     3
100
AcDbLine
 10
1707.725122766406
 20
347.6386850403874
 30
0.0
 11
1707.791116076556
 21
347.5915627168002
 31
0.0
  0
LINE
  5
1222
330
1F
100
AcDbEntity
  8
0
 62
     3
100
AcDbLine
 10
1707.791116076556
 20
347.5915627168002
 30
0.0
 11
1707.858407519556
 21
347.5606341704876
 31
0.0
  0
LINE
  5
1223
330
1F
100
AcDbEntity
  8
0
 62
     3
100
AcDbLine
 10
1707.858407519556
 20
347.5606341704876
 30
0.0
 11
1707.926477032829
 21
347.5461381850446
 31
0.0
  0
LINE
  5
1224
330
1F
100
AcDbEntity
  8
0
 62
     3
100
AcDbLine
 10
1707.926477032829
 20
347.5461381850446
 30
0.0
 11
1707.99479848303
 21
347.5481880814994
 31
0.0
  0
LINE
  5
1225
330
1F
100
AcDbEntity
  8
0
 62
     3
100
AcDbLine
 10
1707.99479848303
 20
347.5481880814994
 30
0.0
 11
1708.062843713226
 21
347.5667666593387
 31
0.0
  0
LINE
  5
1226
330
1F
100
AcDbEntity
  8
0
 62
     3
100
AcDbLine
 10
1708.062843713226
 20
347.5667666593387
 30
0.0
 11
1708.13008659007
 21
347.6017322672774
 31
0.0
  0
LINE
  5
1227
330
1F
100
AcDbEntity
  8
0
 62
     3
100
AcDbLine
 10
1708.13008659007
 20
347.6017322672774
 30
0.0
 11
1708.196008062784
 21
347.6528127324891
 31
0.0
  0
LINE
  5
1228
330
1F
100
AcDbEntity
  8
0
 62
     3
100
AcDbLine
 10
1708.196008062784
 20
347.6528127324891
 30
0.0
 11
1708.260097174944
 21
347.7196144667601
 31
0.0
  0
LINE
  5
1229
330
1F
100
AcDbEntity
  8
0
 62
     3
100
AcDbLine
 10
1708.260097174944
 20
347.7196144667601
 30
0.0
 11
1708.321860170644
 21
347.8016194311047
 31
0.0
  0
LINE
  5
122A
330
1F
100
AcDbEntity
  8
0
 62
     3
100
AcDbLine
 10
1708.321860170644
 20
347.8016194311047
 30
0.0
 11
1708.380818470899
 21
347.8981962655093
 31
0.0
  0
LINE
  5
122B
330
1F
100
AcDbEntity
  8
0
 62
     3
100
AcDbLine
 10
1708.380818470899
 20
347.8981962655093
 30
0.0
 11
1708.436516768006
 21
348.0085962417527
 31
0.0
  0
LINE
  5
122C
330
1F
100
AcDbEntity
  8
0
 62
     3
100
AcDbLine
 10
1708.436516768006
 20
348.0085962417527
 30
0.0
 11
1708.488525049135
 21
348.131967428534
 31
0.0
  0
LINE
  5
122D
330
1F
100
AcDbEntity
  8
0
 62
     3
100
AcDbLine
 10
1708.488525049135
 20
348.131967428534
 30
0.0
 11
1708.536440619919
 21
348.2673557032687
 31
0.0
  0
LINE
  5
122E
330
1F
100
AcDbEntity
  8
0
 62
     3
100
AcDbLine
 10
1708.536440619919
 20
348.2673557032687
 30
0.0
 11
1708.579893163427
 21
348.4137148700363
 31
0.0
  0
LINE
  5
122F
330
1F
100
AcDbEntity
  8
0
 62
     3
100
AcDbLine
 10
1708.579893163427
 20
348.4137148700363
 30
0.0
 11
1708.618546763753
 21
348.5699127303508
 31
0.0
  0
LINE
  5
1230
330
1F
100
AcDbEntity
  8
0
 62
     3
100
AcDbLine
 10
1708.618546763753
 20
348.5699127303508
 30
0.0
 11
1708.6521039532
 21
348.734743224699
 31
0.0
  0
LINE
  5
1231
330
1F
100
AcDbEntity
  8
0
 62
     3
100
AcDbLine
 10
1708.6521039532
 20
348.734743224699
 30
0.0
 11
1708.680303688684
 21
348.9069314915146
 31
0.0
  0
LINE
  5
1232
330
1F
100
AcDbEntity
  8
0
 62
     3
100
AcDbLine
 10
1708.686053719065
 20
350.461069696029
 30
0.0
 11
1710.109896012545
 21
350.455801280017
 31
0.0
  0
ARC
  5
1233
330
1F
100
AcDbEntity
  8
0
 62
     3
100
AcDbCircle
 10
1688.854066388965
 20
349.7573703945956
 30
0.0
 40
21.26730034229026
100
AcDbArc
 50
1.881965999999014
 51
5.709994000001157
  0
LINE
  5
1234
330
1F
100
AcDbEntity
  8
0
 62
     3
100
AcDbLine
 10
1705.516565739711
 20
352.6886140830709
 30
0.0
 11
1705.516560680736
 21
352.3828476425856
 31
0.0
  0
LINE
  5
1235
330
1F
100
AcDbEntity
  8
0
 62
     3
100
AcDbLine
 10
1702.974565196042
 20
346.9905109989205
 30
0.0
 11
1702.974560137067
 21
346.6847445584352
 31
0.0
  0
LINE
  5
1236
330
1F
100
AcDbEntity
  8
0
 62
     3
100
AcDbLine
 10
1702.974664351941
 20
352.6886676681584
 30
0.0
 11
1702.974659292966
 21
352.3828435553642
 31
0.0
  0
LINE
  5
1237
330
1F
100
AcDbEntity
  8
0
 62
     3
100
AcDbLine
 10
1698.775724128008
 20
347.0230261260593
 30
0.0
 11
1698.775724128008
 21
346.7172313553172
 31
0.0
  0
LINE
  5
1238
330
1F
100
AcDbEntity
  8
0
 62
     3
100
AcDbLine
 10
1698.269413142025
 20
350.2381156984327
 30
0.0
 11
1700.469965856473
 21
346.7172313553172
 31
0.0
  0
LINE
  5
1239
330
1F
100
AcDbEntity
  8
0
 62
     3
100
AcDbLine
 10
1700.469965856473
 20
346.7172313553172
 30
0.0
 11
1701.943475137698
 21
346.7172313553172
 31
0.0
  0
LINE
  5
123A
330
1F
100
AcDbEntity
  8
0
 62
     3
100
AcDbLine
 10
1702.449786123681
 20
352.7211534528598
 30
0.0
 11
1702.449786123681
 21
352.4153586821175
 31
0.0
  0
LINE
  5
123B
330
1F
100
AcDbEntity
  8
0
 62
     3
100
AcDbLine
 10
1700.471956342038
 20
352.7211534528598
 30
0.0
 11
1702.449786123681
 21
352.7211534528598
 31
0.0
  0
LINE
  5
123C
330
1F
100
AcDbEntity
  8
0
 62
     3
100
AcDbLine
 10
1700.471956342038
 20
352.7211534528598
 30
0.0
 11
1700.471956342038
 21
352.4153586821175
 31
0.0
  0
LINE
  5
123D
330
1F
100
AcDbEntity
  8
0
 62
     3
100
AcDbLine
 10
1700.978267328022
 20
350.0017867179167
 30
0.0
 11
1699.193682718504
 21
352.7211534528598
 31
0.0
  0
LINE
  5
123E
330
1F
100
AcDbEntity
  8
0
 62
     3
100
AcDbLine
 10
1696.797893334571
 20
352.7211534528598
 30
0.0
 11
1699.193682718504
 21
352.7211534528598
 31
0.0
  0
LINE
  5
123F
330
1F
100
AcDbEntity
  8
0
 62
     3
100
AcDbLine
 10
1710.165829140126
 20
352.6884977064445
 30
0.0
 11
1712.74061386191
 21
352.6884977064444
 31
0.0
  0
LINE
  5
1240
330
1F
100
AcDbEntity
  8
0
 62
     3
100
AcDbLine
 10
1710.165829140126
 20
352.3828455987822
 30
0.0
 11
1710.165829140126
 21
352.6884977064445
 31
0.0
  0
LINE
  5
1241
330
1F
100
AcDbEntity
  8
0
 62
     3
100
AcDbLine
 10
1710.165829140126
 20
346.6845756089016
 30
0.0
 11
1710.165829140126
 21
346.990513042724
 31
0.0
  0
LINE
  5
1242
330
1F
100
AcDbEntity
  8
0
 62
     3
100
AcDbLine
 10
1710.165829140126
 20
346.6845756089016
 30
0.0
 11
1712.74061386191
 21
346.6845756089016
 31
0.0
  0
LINE
  5
1243
330
1F
100
AcDbEntity
  8
0
 62
     3
100
AcDbLine
 10
1713.282141224201
 20
346.990513042724
 30
0.0
 11
1713.282141224201
 21
346.6845756089016
 31
0.0
  0
LINE
  5
1244
330
1F
100
AcDbEntity
  8
0
 62
     3
100
AcDbLine
 10
1712.74061386191
 20
346.990513042724
 30
0.0
 11
1712.74061386191
 21
346.6845756089016
 31
0.0
  0
LINE
  5
1245
330
1F
100
AcDbEntity
  8
0
 62
     3
100
AcDbLine
 10
1712.74061386191
 20
352.3828455987822
 30
0.0
 11
1712.74061386191
 21
352.6884977064445
 31
0.0
  0
LINE
  5
1246
330
1F
100
AcDbEntity
  8
0
 62
     3
100
AcDbLine
 10
1713.282141224201
 20
352.3828455987822
 30
0.0
 11
1713.282141224201
 21
352.6884977064445
 31
0.0
  0
LINE
  5
1247
330
1F
100
AcDbEntity
  8
0
 62
     3
100
AcDbLine
 10
1696.797893334571
 20
347.0230261260593
 30
0.0
 11
1696.797893334571
 21
346.7172313553172
 31
0.0
  0
LINE
  5
1248
330
1F
100
AcDbEntity
  8
0
 62
     3
100
AcDbLine
 10
1696.797893334571
 20
352.7211534528598
 30
0.0
 11
1696.797893334571
 21
352.4153586821175
 31
0.0
  0
ARC
  5
1249
330
1F
100
AcDbEntity
  8
0
 62
     3
100
AcDbCircle
 10
1722.47596198299
 20
350.3165186067365
 30
0.0
 40
2.37212176278799
100
AcDbArc
 50
17.3087490000009
 51
23.76507100000316
  0
ARC
  5
124A
330
1F
100
AcDbEntity
  8
0
 62
     3
100
AcDbCircle
 10
1720.454868293465
 20
349.6866793207531
 30
0.0
 40
4.489082006702322
100
AcDbArc
 50
342.691250999999
 51
17.30856600000147
  0
ARC
  5
124B
330
1F
100
AcDbEntity
  8
0
 62
     3
100
AcDbCircle
 10
1722.47596198299
 20
349.0568400347697
 30
0.0
 40
2.37212176278799
100
AcDbArc
 50
336.2349289999968
 51
342.691250999999
  0
ARC
  5
124C
330
1F
100
AcDbEntity
  8
0
 62
     3
100
AcDbCircle
 10
1722.218305454861
 20
350.3165186067365
 30
0.0
 40
2.37212176278799
100
AcDbArc
 50
17.3087490000009
 51
90.0
  0
ARC
  5
124D
330
1F
100
AcDbEntity
  8
0
 62
     3
100
AcDbCircle
 10
1720.197206686256
 20
349.6866928832485
 30
0.0
 40
4.489082006702322
100
AcDbArc
 50
342.691250999999
 51
17.30856600000147
  0
ARC
  5
124E
330
1F
100
AcDbEntity
  8
0
 62
     3
100
AcDbCircle
 10
1722.218305454861
 20
349.0568400347697
 30
0.0
 40
2.37212176278799
100
AcDbArc
 50
270.0
 51
342.691250999999
  0
ARC
  5
124F
330
1F
100
AcDbEntity
  8
0
 62
     3
100
AcDbCircle
 10
1707.959060875588
 20
349.6866793207531
 30
0.0
 40
3.001961048771398
100
AcDbArc
 50
46.75287999999379
 51
89.74999799999961
  0
ARC
  5
1250
330
1F
100
AcDbEntity
  8
0
 62
     3
100
AcDbCircle
 10
1707.959060875588
 20
349.6866793207531
 30
0.0
 40
3.001961048771398
100
AcDbArc
 50
273.9763330000016
 51
312.8231200000002
  0
ARC
  5
1251
330
1F
100
AcDbEntity
  8
0
 62
     3
100
AcDbCircle
 10
1724.077297383914
 20
349.6403370910289
 30
0.0
 40
3.983420308030568
100
AcDbArc
 50
0.6665839999990411
 51
23.90392800000231
  0
ARC
  5
1252
330
1F
100
AcDbEntity
  8
0
 62
     3
100
AcDbCircle
 10
1729.73693502116
 20
349.6403370910289
 30
0.0
 40
3.983420308030568
100
AcDbArc
 50
156.0960719999977
 51
179.3334160000009
  0
ARC
  5
1253
330
1F
100
AcDbEntity
  8
0
 62
     3
100
AcDbCircle
 10
1724.077297383914
 20
349.7330215504772
 30
0.0
 40
3.983420308030568
100
AcDbArc
 50
336.0960719999984
 51
359.3334159999977
  0
ARC
  5
1254
330
1F
100
AcDbEntity
  8
0
 62
     3
100
AcDbCircle
 10
1729.73693502116
 20
349.7330215504772
 30
0.0
 40
3.983420308030568
100
AcDbArc
 50
180.666583999999
 51
203.9039280000023
  0
LINE
  5
1255
330
1F
100
AcDbEntity
  8
0
  6
Continuous
 62
     3
100
AcDbLine
 10
1696.797893334571
 20
352.4153586821175
 30
0.0
 11
1697.304204320555
 21
352.0865718842094
 31
0.0
  0
LINE
  5
1256
330
1F
100
AcDbEntity
  8
0
  6
Continuous
 62
     3
100
AcDbLine
 10
1700.471956342038
 20
352.4153586821175
 30
0.0
 11
1700.978267328022
 21
352.0865718842094
 31
0.0
  0
LINE
  5
1257
330
1F
100
AcDbEntity
  8
0
  6
Continuous
 62
     3
100
AcDbLine
 10
1702.449786123681
 20
352.4153586821175
 30
0.0
 11
1701.943475137698
 21
352.0865718842094
 31
0.0
  0
LINE
  5
1258
330
1F
100
AcDbEntity
  8
0
  6
Continuous
 62
     3
100
AcDbLine
 10
1702.974659292966
 20
352.3828435553642
 30
0.0
 11
1703.480931830761
 21
352.0540507065148
 31
0.0
  0
LINE
  5
1259
330
1F
100
AcDbEntity
  8
0
  6
Continuous
 62
     3
100
AcDbLine
 10
1705.516560680736
 20
352.3828476425856
 30
0.0
 11
1705.010243623967
 21
352.0540294588221
 31
0.0
  0
LINE
  5
125A
330
1F
100
AcDbEntity
  8
0
  6
Continuous
 62
     3
100
AcDbLine
 10
1710.165829140126
 20
352.3828455987822
 30
0.0
 11
1710.672140126109
 21
352.0539586331794
 31
0.0
  0
LINE
  5
125B
330
1F
100
AcDbEntity
  8
0
  6
Continuous
 62
     3
100
AcDbLine
 10
1712.74061386191
 20
352.3828455987822
 30
0.0
 11
1712.234302875926
 21
352.0539586331794
 31
0.0
  0
LINE
  5
125C
330
1F
100
AcDbEntity
  8
0
  6
Continuous
 62
     3
100
AcDbLine
 10
1713.282141224201
 20
352.3828455987822
 30
0.0
 11
1713.788452210184
 21
352.0539586331794
 31
0.0
  0
LINE
  5
125D
330
1F
100
AcDbEntity
  8
0
  6
Continuous
 62
     3
100
AcDbLine
 10
1715.856926957779
 20
352.3828455987822
 30
0.0
 11
1715.350614960001
 21
352.0539586331794
 31
0.0
  0
LINE
  5
125E
330
1F
100
AcDbEntity
  8
0
  6
Continuous
 62
     3
100
AcDbLine
 10
1716.385476853506
 20
352.3828455987822
 30
0.0
 11
1716.891787839489
 21
352.0539586331794
 31
0.0
  0
LINE
  5
125F
330
1F
100
AcDbEntity
  8
0
  6
Continuous
 62
     3
100
AcDbLine
 10
1718.927378241241
 20
352.3828455987822
 30
0.0
 11
1718.421067255258
 21
352.0539586331794
 31
0.0
  0
LINE
  5
1260
330
1F
100
AcDbEntity
  8
0
  6
Continuous
 62
     3
100
AcDbLine
 10
1719.473683592585
 20
352.3828455987822
 30
0.0
 11
1719.979994578568
 21
352.0539586331794
 31
0.0
  0
LINE
  5
1261
330
1F
100
AcDbEntity
  8
0
  6
Continuous
 62
     3
100
AcDbLine
 10
1719.979912623182
 20
347.3192593688363
 30
0.0
 11
1719.473683592585
 21
346.990513042724
 31
0.0
  0
LINE
  5
1262
330
1F
100
AcDbEntity
  8
0
  6
Continuous
 62
     3
100
AcDbLine
 10
1718.421149210644
 20
347.3192593688363
 30
0.0
 11
1718.927378241241
 21
346.990513042724
 31
0.0
  0
LINE
  5
1263
330
1F
100
AcDbEntity
  8
0
  6
Continuous
 62
     3
100
AcDbLine
 10
1716.891704872308
 20
347.3192593688363
 30
0.0
 11
1716.385476853506
 21
346.990513042724
 31
0.0
  0
LINE
  5
1264
330
1F
100
AcDbEntity
  8
0
  6
Continuous
 62
     3
100
AcDbLine
 10
1715.856926957779
 20
346.990513042724
 30
0.0
 11
1715.350697927182
 21
347.3192593688363
 31
0.0
  0
LINE
  5
1265
330
1F
100
AcDbEntity
  8
0
  6
Continuous
 62
     3
100
AcDbLine
 10
1713.282141224201
 20
346.990513042724
 30
0.0
 11
1713.788369243003
 21
347.3192593688363
 31
0.0
  0
LINE
  5
1266
330
1F
100
AcDbEntity
  8
0
  6
Continuous
 62
     3
100
AcDbLine
 10
1712.74061386191
 20
346.990513042724
 30
0.0
 11
1712.234385843107
 21
347.3192593688363
 31
0.0
  0
LINE
  5
1267
330
1F
100
AcDbEntity
  8
0
  6
Continuous
 62
     3
100
AcDbLine
 10
1710.672057158928
 20
347.3192593688363
 30
0.0
 11
1710.165829140126
 21
346.990513042724
 31
0.0
  0
LINE
  5
1268
330
1F
100
AcDbEntity
  8
0
  6
Continuous
 62
     3
100
AcDbLine
 10
1705.516466583819
 20
346.9905154948337
 30
0.0
 11
1705.010243623967
 21
347.3193291826841
 31
0.0
  0
LINE
  5
1269
330
1F
100
AcDbEntity
  8
0
  6
Continuous
 62
     3
100
AcDbLine
 10
1702.974565196042
 20
346.9905109989205
 30
0.0
 11
1703.480832674861
 21
347.3193504303768
 31
0.0
  0
LINE
  5
126A
330
1F
100
AcDbEntity
  8
0
  6
Continuous
 62
     3
100
AcDbLine
 10
1698.775724128008
 20
347.0230261260593
 30
0.0
 11
1698.269413142025
 21
347.3518139357624
 31
0.0
  0
LINE
  5
126B
330
1F
100
AcDbEntity
  8
0
  6
Continuous
 62
     3
100
AcDbLine
 10
1696.797893334571
 20
347.0230261260593
 30
0.0
 11
1697.304204320555
 21
347.3518139357624
 31
0.0
  0
LINE
  5
126C
330
1F
100
AcDbEntity
  8
0
  6
Continuous
 62
     3
100
AcDbLine
 10
1705.516460513049
 20
346.6846923938346
 30
0.0
 11
1702.974560137067
 21
346.6847445584352
 31
0.0
  0
LINE
  5
126D
330
1F
100
AcDbEntity
  8
0
  6
Continuous
 62
     3
100
AcDbLine
 10
1702.974664351941
 20
352.6886676681584
 30
0.0
 11
1705.516565739711
 21
352.6886140830709
 31
0.0
  0
ARC
  5
126E
330
1F
100
AcDbEntity
  8
0
  6
Continuous
 62
     3
100
AcDbCircle
 10
1731.824908041282
 20
349.6684415771877
 30
0.0
 40
1.5
100
AcDbArc
 50
293.7485430905253
 51
66.25145690947462
  0
ARC
  5
126F
330
1F
100
AcDbEntity
  8
0
  6
Continuous
 62
     3
100
AcDbCircle
 10
1731.824908041282
 20
349.6684415771877
 30
0.0
 40
2.25
100
AcDbArc
 50
293.7485430905253
 51
66.25145690947462
  0
ARC
  5
1270
330
1F
100
AcDbEntity
  8
0
  6
Continuous
 62
     3
100
AcDbCircle
 10
1720.347290704956
 20
323.581772562519
 30
0.0
 40
30.0
100
AcDbArc
 50
66.25145690947462
 51
81.41597019517911
  0
ARC
  5
1271
330
1F
100
AcDbEntity
  8
0
  6
Continuous
 62
     3
100
AcDbCircle
 10
1720.347290704956
 20
323.581772562519
 30
0.0
 40
30.75
100
AcDbArc
 50
66.25145690947462
 51
81.41597019517911
  0
ARC
  5
1272
330
1F
100
AcDbEntity
  8
0
  6
Continuous
 62
     3
100
AcDbCircle
 10
1692.749621544505
 20
349.6684415771877
 30
0.0
 40
1.5
100
AcDbArc
 50
113.7485430905254
 51
246.2514569094746
  0
ARC
  5
1273
330
1F
100
AcDbEntity
  8
0
  6
Continuous
 62
     3
100
AcDbCircle
 10
1692.749621544505
 20
349.6684415771877
 30
0.0
 40
2.25
100
AcDbArc
 50
113.7485430905254
 51
246.2514569094746
  0
ARC
  5
1274
330
1F
100
AcDbEntity
  8
0
  6
Continuous
 62
     3
100
AcDbCircle
 10
1704.227238880831
 20
323.581772562519
 30
0.0
 40
30.0
100
AcDbArc
 50
98.5840298048209
 51
113.7485430905254
  0
ARC
  5
1275
330
1F
100
AcDbEntity
  8
0
  6
Continuous
 62
     3
100
AcDbCircle
 10
1704.227238880831
 20
323.581772562519
 30
0.0
 40
30.75
100
AcDbArc
 50
98.5840298048209
 51
113.7485430905254
  0
ARC
  5
1276
330
1F
100
AcDbEntity
  8
0
  6
Continuous
 62
     3
100
AcDbCircle
 10
1720.347290704956
 20
375.7551105918565
 30
0.0
 40
30.0
100
AcDbArc
 50
278.5840298048209
 51
293.7485430905253
  0
ARC
  5
1277
330
1F
100
AcDbEntity
  8
0
  6
Continuous
 62
     3
100
AcDbCircle
 10
1720.347290704956
 20
375.7551105918565
 30
0.0
 40
30.75
100
AcDbArc
 50
278.5840298048209
 51
293.7485430905253
  0
ARC
  5
1278
330
1F
100
AcDbEntity
  8
0
  6
Continuous
 62
     3
100
AcDbCircle
 10
1704.227238880831
 20
375.7551105918565
 30
0.0
 40
30.0
100
AcDbArc
 50
246.2514569094746
 51
261.4159701951791
  0
ARC
  5
1279
330
1F
100
AcDbEntity
  8
0
  6
Continuous
 62
     3
100
AcDbCircle
 10
1704.227238880831
 20
375.7551105918565
 30
0.0
 40
30.75
100
AcDbArc
 50
246.2514569094746
 51
261.4159701951791
  0
ARC
  5
127A
330
1F
100
AcDbEntity
  8
0
  6
Continuous
 62
     3
100
AcDbCircle
 10
1712.287264792893
 20
270.1866793207545
 30
0.0
 40
84.74999999999857
100
AcDbArc
 50
81.41597019517911
 51
98.5840298048209
  0
ARC
  5
127B
330
1F
100
AcDbEntity
  8
0
  6
Continuous
 62
     3
100
AcDbCircle
 10
1712.287264792893
 20
270.1866793207558
 30
0.0
 40
83.99999999999733
100
AcDbArc
 50
81.41597019517911
 51
98.5840298048209
  0
ARC
  5
127C
330
1F
100
AcDbEntity
  8
0
  6
Continuous
 62
     3
100
AcDbCircle
 10
1712.287264792893
 20
429.1502038336209
 30
0.0
 40
84.74999999999857
100
AcDbArc
 50
261.4159701951791
 51
278.5840298048209
  0
ARC
  5
127D
330
1F
100
AcDbEntity
  8
0
  6
Continuous
 62
     3
100
AcDbCircle
 10
1712.287264792893
 20
429.1502038336196
 30
0.0
 40
83.99999999999733
100
AcDbArc
 50
261.4159701951791
 51
278.5840298048209
  0
TEXT
  5
127E
330
1F
100
AcDbEntity
  8
0
 62
     3
100
AcDbText
 10
1895.825211780021
 20
340.2536152005958
 30
0.0
 40
3.2
  1
担　当
  7
高3.2
100
AcDbText
  0
TEXT
  5
127F
330
1F
100
AcDbEntity
  8
0
 62
     3
100
AcDbText
 10
1851.825211780021
 20
340.2536152005958
 30
0.0
 40
3.2
  1
変更・追記内容
  7
高3.2
100
AcDbText
  0
TEXT
  5
1280
330
1F
100
AcDbEntity
  8
0
 62
     3
100
AcDbText
 10
1826.93872678036
 20
335.5830766906876
 30
0.0
 40
2.0
  1
1
  7
高2
100
AcDbText
  0
TEXT
  5
1281
330
1F
100
AcDbEntity
  8
0
 62
     3
100
AcDbText
 10
1826.630215303603
 20
330.4132599784147
 30
0.0
 40
2.0
  1
2
  7
高2
100
AcDbText
  0
TEXT
  5
1282
330
1F
100
AcDbEntity
  8
0
 62
     3
100
AcDbText
 10
1833.825211780021
 20
340.2536152005958
 30
0.0
 40
3.2
  1
日　付
  7
高3.2
100
AcDbText
  0
TEXT
  5
1283
330
1F
100
AcDbEntity
  8
0
 62
     3
100
AcDbText
 10
1833.825211780021
 20
345.2536152005958
 30
0.0
 40
3.2
  1
図　　　　面　　　　略　　　　歴
  7
高3.2
100
AcDbText
  0
TEXT
  5
1284
330
1F
100
AcDbEntity
  8
0
 62
     3
100
AcDbText
 10
1823.825211780021
 20
340.2536152005958
 30
0.0
 40
3.2
  1
記号
  7
高3.2
100
AcDbText
  0
LINE
  5
1285
330
1F
100
AcDbEntity
  8
0
100
AcDbLine
 10
1827.325211780021
 20
333.544511200596
 30
0.0
 11
1825.425211780021
 21
330.2536152005958
 31
0.0
  0
LINE
  5
1286
330
1F
100
AcDbEntity
  8
0
100
AcDbLine
 10
1827.325211780021
 20
333.544511200596
 30
0.0
 11
1829.225211780021
 21
330.2536152005958
 31
0.0
  0
LINE
  5
1287
330
1F
100
AcDbEntity
  8
0
100
AcDbLine
 10
1825.425211780021
 20
330.2536152005958
 30
0.0
 11
1829.225211780021
 21
330.2536152005958
 31
0.0
  0
LINE
  5
1288
330
1F
100
AcDbEntity
  8
0
100
AcDbLine
 10
1827.325211780021
 20
338.5445122005959
 30
0.0
 11
1825.425211780021
 21
335.2536152005959
 31
0.0
  0
LINE
  5
1289
330
1F
100
AcDbEntity
  8
0
100
AcDbLine
 10
1827.325211780021
 20
338.5445122005959
 30
0.0
 11
1829.225211780021
 21
335.2536152005959
 31
0.0
  0
LINE
  5
128A
330
1F
100
AcDbEntity
  8
0
100
AcDbLine
 10
1825.425211780021
 20
335.2536152005959
 30
0.0
 11
1829.225211780021
 21
335.2536152005959
 31
0.0
  0
LINE
  5
128B
330
1F
100
AcDbEntity
  8
0
 62
     3
100
AcDbLine
 10
1822.325211780021
 20
344.7536152005958
 30
0.0
 11
1908.325211780021
 21
344.7536152005958
 31
0.0
  0
LINE
  5
128C
330
1F
100
AcDbEntity
  8
0
 62
     3
100
AcDbLine
 10
1822.325211780021
 20
339.7536152005959
 30
0.0
 11
1908.325211780021
 21
339.7536152005959
 31
0.0
  0
LINE
  5
128D
330
1F
100
AcDbEntity
  8
0
 62
     7
100
AcDbLine
 10
1822.325211780021
 20
334.7536152005958
 30
0.0
 11
1908.325211780021
 21
334.7536152005958
 31
0.0
  0
LINE
  5
128E
330
1F
100
AcDbEntity
  8
0
 62
     3
100
AcDbLine
 10
1822.325211780021
 20
329.7536152005958
 30
0.0
 11
1908.325211780021
 21
329.7536152005958
 31
0.0
  0
LINE
  5
128F
330
1F
100
AcDbEntity
  8
0
 62
     7
100
AcDbLine
 10
1894.325211780021
 20
329.7536152005958
 30
0.0
 11
1894.325211780021
 21
344.7536152005958
 31
0.0
  0
LINE
  5
1290
330
1F
100
AcDbEntity
  8
0
 62
     7
100
AcDbLine
 10
1850.325211780021
 20
329.7536152005958
 30
0.0
 11
1850.325211780021
 21
344.7536152005958
 31
0.0
  0
LINE
  5
1291
330
1F
100
AcDbEntity
  8
0
 62
     7
100
AcDbLine
 10
1832.325211780021
 20
329.7536152005958
 30
0.0
 11
1832.325211780021
 21
344.7536152005958
 31
0.0
  0
LINE
  5
1292
330
1F
100
AcDbEntity
  8
0
 62
     3
100
AcDbLine
 10
1822.325211780021
 20
329.7536152005958
 30
0.0
 11
1822.325211780021
 21
349.7536152005959
 31
0.0
  0
TEXT
  5
1293
330
1F
100
AcDbEntity
  8
0
 62
     3
100
AcDbText
 10
1843.112809674667
 20
89.66122264767546
 30
0.0
 40
2.5
  1
1/5
  7
高2.5
100
AcDbText
  0
TEXT
  5
1294
330
1F
100
AcDbEntity
  8
0
100
AcDbText
 10
1901.534911618897
 20
97.67765992919883
 30
0.0
 40
3.2
  1
I
  7
高3.2
100
AcDbText
  0
LINE
  5
1295
330
1F
100
AcDbEntity
  8
0
 62
     3
100
AcDbLine
 10
1908.325211780021
 20
121.7536152005958
 30
0.0
 11
1856.325211780022
 21
121.7536152005958
 31
0.0
  0
LINE
  5
1296
330
1F
100
AcDbEntity
  8
0
 62
     3
100
AcDbLine
 10
1882.325211780021
 20
115.7536152005959
 30
0.0
 11
1882.325211780021
 21
121.7536152005958
 31
0.0
  0
LINE
  5
1297
330
1F
100
AcDbEntity
  8
0
 62
     3
100
AcDbLine
 10
1856.325211780021
 20
115.7536152005959
 30
0.0
 11
1856.325211780022
 21
121.7536152005958
 31
0.0
  0
TEXT
  5
1298
330
1F
100
AcDbEntity
  8
0
 62
     3
100
AcDbText
 10
1861.602740134702
 20
116.4458414534739
 30
0.0
 40
4.5
  1
コード
  7
高4.5
100
AcDbText
  0
TEXT
  5
1299
330
1F
100
AcDbEntity
  8
0
 62
     3
100
AcDbText
 10
1887.380528462538
 20
116.4458414534739
 30
0.0
 40
4.5
  1
11534
  7
高4.5
100
AcDbText
  0
LINE
  5
18D4
330
1F
100
AcDbEntity
  8
0
 62
     3
100
AcDbLine
 10
1692.700442272312
 20
309.345200351372
 30
0.0
 11
1692.700442272312
 21
224.345200351372
 31
0.0
  0
LINE
  5
18D5
330
1F
100
AcDbEntity
  8
0
 62
     3
100
AcDbLine
 10
1688.700442272312
 20
253.345200351372
 30
0.0
 11
1688.700442272312
 21
232.345200351372
 31
0.0
  0
LINE
  5
18D6
330
1F
100
AcDbEntity
  8
0
 62
     3
100
AcDbLine
 10
1686.700442272312
 20
299.345200351372
 30
0.0
 11
1686.700442272312
 21
258.345200351372
 31
0.0
  0
LINE
  5
18D7
330
1F
100
AcDbEntity
  8
0
 62
     3
100
AcDbLine
 10
1693.700442272312
 20
224.945200351372
 30
0.0
 11
1693.700442272312
 21
308.7452003513721
 31
0.0
  0
LINE
  5
18D8
330
1F
100
AcDbEntity
  8
0
 62
     3
100
AcDbLine
 10
1696.100442272312
 20
308.145200351372
 30
0.0
 11
1696.100442272312
 21
225.945200351372
 31
0.0
  0
LINE
  5
18D9
330
1F
100
AcDbEntity
  8
0
 62
     3
100
AcDbLine
 10
1695.100442272311
 20
225.345200351372
 30
0.0
 11
1695.100442272311
 21
307.5452003513719
 31
0.0
  0
LINE
  5
18DB
330
1F
100
AcDbEntity
  8
0
 62
     3
100
AcDbLine
 10
1698.700442272311
 20
308.7452003513721
 30
0.0
 11
1698.700442272311
 21
264.945200351372
 31
0.0
  0
LINE
  5
18DE
330
1F
100
AcDbEntity
  8
0
 62
     3
100
AcDbLine
 10
1698.500442272312
 20
224.345200351372
 30
0.0
 11
1692.700442272312
 21
224.345200351372
 31
0.0
  0
LINE
  5
18DF
330
1F
100
AcDbEntity
  8
0
 62
     3
100
AcDbLine
 10
1697.500442272312
 20
224.945200351372
 30
0.0
 11
1693.700442272312
 21
224.945200351372
 31
0.0
  0
LINE
  5
18E0
330
1F
100
AcDbEntity
  8
0
 62
     3
100
AcDbLine
 10
1695.100442272311
 20
225.345200351372
 30
0.0
 11
1697.300442272312
 21
225.345200351372
 31
0.0
  0
LINE
  5
18E1
330
1F
100
AcDbEntity
  8
0
 62
     3
100
AcDbLine
 10
1698.700442272311
 20
308.7452003513721
 30
0.0
 11
1693.700442272312
 21
308.7452003513721
 31
0.0
  0
LINE
  5
18E2
330
1F
100
AcDbEntity
  8
0
 62
     3
100
AcDbLine
 10
1698.500442272312
 20
308.1452003513721
 30
0.0
 11
1696.300442272312
 21
308.145200351372
 31
0.0
  0
LINE
  5
18E4
330
1F
100
AcDbEntity
  8
0
 62
     3
100
AcDbLine
 10
1699.700442272312
 20
309.345200351372
 30
0.0
 11
1692.700442272312
 21
309.345200351372
 31
0.0
  0
LINE
  5
18E5
330
1F
100
AcDbEntity
  8
0
 62
     3
100
AcDbLine
 10
1698.700442272311
 20
264.945200351372
 30
0.0
 11
1699.700442272312
 21
264.945200351372
 31
0.0
  0
LINE
  5
18E7
330
1F
100
AcDbEntity
  8
0
 62
     3
100
AcDbLine
 10
1565.491454278737
 20
309.345200351372
 30
0.0
 11
1646.291454278737
 21
309.345200351372
 31
0.0
  0
LINE
  5
18E8
330
1F
100
AcDbEntity
  8
0
 62
     3
100
AcDbLine
 10
1742.72656275265
 20
309.345200351372
 30
0.0
 11
1823.52656275265
 21
309.345200351372
 31
0.0
  0
LINE
  5
18E9
330
1F
100
AcDbEntity
  8
0
 62
     3
100
AcDbLine
 10
1762.72656275265
 20
309.9452003513722
 30
0.0
 11
1769.52656275265
 21
309.9452003513722
 31
0.0
  0
LINE
  5
18EA
330
1F
100
AcDbEntity
  8
0
 62
     3
100
AcDbLine
 10
1796.72656275265
 20
309.9452003513722
 30
0.0
 11
1803.52656275265
 21
309.9452003513722
 31
0.0
  0
LINE
  5
18EB
330
1F
100
AcDbEntity
  8
0
 62
     3
100
AcDbLine
 10
1565.491454278737
 20
224.345200351372
 30
0.0
 11
1646.291454278737
 21
224.345200351372
 31
0.0
  0
LINE
  5
18EC
330
1F
100
AcDbEntity
  8
0
 62
     3
100
AcDbLine
 10
1574.391454278736
 20
232.345200351372
 30
0.0
 11
1637.391454278738
 21
232.345200351372
 31
0.0
  0
LINE
  5
18ED
330
1F
100
AcDbEntity
  8
0
 62
     3
100
AcDbLine
 10
1574.291454278737
 20
253.345200351372
 30
0.0
 11
1639.291454278737
 21
253.345200351372
 31
0.0
  0
LINE
  5
18F0
330
1F
100
AcDbEntity
  8
0
 62
     3
100
AcDbLine
 10
1742.72656275265
 20
224.345200351372
 30
0.0
 11
1823.52656275265
 21
224.345200351372
 31
0.0
  0
LINE
  5
18F1
330
1F
100
AcDbEntity
  8
0
 62
     3
100
AcDbLine
 10
1646.291454278737
 20
224.345200351372
 30
0.0
 11
1646.291454278737
 21
268.2816970364445
 31
0.0
  0
LINE
  5
18F2
330
1F
100
AcDbEntity
  8
0
 62
     3
100
AcDbLine
 10
1565.491454278737
 20
224.345200351372
 30
0.0
 11
1565.491454278737
 21
309.345200351372
 31
0.0
  0
LINE
  5
18F3
330
1F
100
AcDbEntity
  8
0
 62
     3
100
AcDbLine
 10
1742.72656275265
 20
224.345200351372
 30
0.0
 11
1742.72656275265
 21
309.345200351372
 31
0.0
  0
LINE
  5
18F4
330
1F
100
AcDbEntity
  8
0
 62
     3
100
AcDbLine
 10
1823.52656275265
 20
224.345200351372
 30
0.0
 11
1823.52656275265
 21
309.345200351372
 31
0.0
  0
LINE
  5
18F5
330
1F
100
AcDbEntity
  8
0
 62
     3
100
AcDbLine
 10
1761.32656275265
 20
264.945200351372
 30
0.0
 11
1804.92656275265
 21
264.945200351372
 31
0.0
  0
LINE
  5
18F6
330
1F
100
AcDbEntity
  8
0
 62
     3
100
AcDbLine
 10
1771.42656275265
 20
314.1804276240995
 30
0.0
 11
1771.42656275265
 21
315.8514391058663
 31
0.0
  0
LINE
  5
18F7
330
1F
100
AcDbEntity
  8
0
 62
     3
100
AcDbLine
 10
1794.82656275265
 20
314.1804276240979
 30
0.0
 11
1794.82656275265
 21
315.8514391058661
 31
0.0
  0
LINE
  5
18F8
330
1F
100
AcDbEntity
  8
0
 62
     3
100
AcDbLine
 10
1769.92656275265
 20
312.3472620317626
 30
0.0
 11
1769.92656275265
 21
309.345200351372
 31
0.0
  0
LINE
  5
18F9
330
1F
100
AcDbEntity
  8
0
 62
     3
100
AcDbLine
 10
1769.52656275265
 20
316.3851508616581
 30
0.0
 11
1769.52656275265
 21
309.9452003513722
 31
0.0
  0
LINE
  5
18FA
330
1F
100
AcDbEntity
  8
0
 62
     3
100
AcDbLine
 10
1796.32656275265
 20
312.3472620317626
 30
0.0
 11
1796.32656275265
 21
309.345200351372
 31
0.0
  0
LINE
  5
18FB
330
1F
100
AcDbEntity
  8
0
 62
     3
100
AcDbLine
 10
1796.72656275265
 20
316.3851508616581
 30
0.0
 11
1796.72656275265
 21
309.9452003513722
 31
0.0
  0
LINE
  5
18FC
330
1F
100
AcDbEntity
  8
0
 62
     3
100
AcDbLine
 10
1762.72656275265
 20
309.9452003513722
 30
0.0
 11
1762.72656275265
 21
309.345200351372
 31
0.0
  0
LINE
  5
18FD
330
1F
100
AcDbEntity
  8
0
 62
     3
100
AcDbLine
 10
1803.52656275265
 20
309.345200351372
 30
0.0
 11
1803.52656275265
 21
309.9452003513722
 31
0.0
  0
LINE
  5
18FE
330
1F
100
AcDbEntity
  8
0
 62
     3
100
AcDbLine
 10
1823.52656275265
 20
275.7452003513721
 30
0.0
 11
1804.92656275265
 21
264.945200351372
 31
0.0
  0
LINE
  5
18FF
330
1F
100
AcDbEntity
  8
0
 62
     3
100
AcDbLine
 10
1742.72656275265
 20
275.7452003513721
 30
0.0
 11
1761.32656275265
 21
264.945200351372
 31
0.0
  0
CIRCLE
  5
1900
330
1F
100
AcDbEntity
  8
0
 62
     3
100
AcDbCircle
 10
1819.52656275265
 20
278.345200351372
 30
0.0
 40
1.0
  0
CIRCLE
  5
1901
330
1F
100
AcDbEntity
  8
0
 62
     3
100
AcDbCircle
 10
1819.52656275265
 20
278.345200351372
 30
0.0
 40
1.7
  0
CIRCLE
  5
1902
330
1F
100
AcDbEntity
  8
0
 62
     3
100
AcDbCircle
 10
1746.72656275265
 20
278.345200351372
 30
0.0
 40
1.0
  0
CIRCLE
  5
1903
330
1F
100
AcDbEntity
  8
0
 62
     3
100
AcDbCircle
 10
1746.72656275265
 20
278.345200351372
 30
0.0
 40
1.7
  0
ARC
  5
1904
330
1F
100
AcDbEntity
  8
0
 62
     3
100
AcDbCircle
 10
1783.12656275265
 20
300.2202003513719
 30
0.0
 40
17.12500000000014
100
AcDbArc
 50
50.03378695620487
 51
129.966213043795
  0
ARC
  5
1905
330
1F
100
AcDbEntity
  8
0
 62
     3
100
AcDbCircle
 10
1783.12656275265
 20
300.2202003513719
 30
0.0
 40
18.92500000000014
100
AcDbArc
 50
71.74612942942703
 51
108.2538705705729
  0
ARC
  5
1906
330
1F
100
AcDbEntity
  8
0
 62
     3
100
AcDbCircle
 10
1789.806149040906
 20
320.4720830297241
 30
0.0
 40
2.399999999999999
100
AcDbArc
 50
251.7461294294271
 51
335.284144688191
  0
ARC
  5
1907
330
1F
100
AcDbEntity
  8
0
 62
     3
100
AcDbCircle
 10
1776.446976464393
 20
320.4720830297238
 30
0.0
 40
2.399999999999999
100
AcDbArc
 50
204.7158553117946
 51
288.2538705705729
  0
ARC
  5
1908
330
1F
100
AcDbEntity
  8
0
 62
     3
100
AcDbCircle
 10
1783.12656275265
 20
300.2202003513719
 30
0.0
 40
17.92500000000014
100
AcDbArc
 50
42.57421123571649
 51
50.03378695620487
  0
ARC
  5
1909
330
1F
100
AcDbEntity
  8
0
 62
     3
100
AcDbCircle
 10
1783.12656275265
 20
300.2202003513719
 30
0.0
 40
17.92500000000014
100
AcDbArc
 50
129.966213043795
 51
137.4257887642835
  0
ARC
  5
190A
330
1F
100
AcDbEntity
  8
0
 62
     3
100
AcDbCircle
 10
1783.12656275265
 20
300.2202003513719
 30
0.0
 40
21.92500000000014
100
AcDbArc
 50
53.18510411801615
 51
65.28414468819751
  0
ARC
  5
190B
330
1F
100
AcDbEntity
  8
0
 62
     3
100
AcDbCircle
 10
1783.12656275265
 20
300.2202003513719
 30
0.0
 40
21.92500000000014
100
AcDbArc
 50
114.7158553118025
 51
129.966213043795
  0
ARC
  5
190C
330
1F
100
AcDbEntity
  8
0
 62
     3
100
AcDbCircle
 10
1783.12656275265
 20
300.2202003513719
 30
0.0
 40
21.52500000000014
100
AcDbArc
 50
65.28414468819751
 51
67.61571641875801
  0
ARC
  5
190D
330
1F
100
AcDbEntity
  8
0
 62
     3
100
AcDbCircle
 10
1783.12656275265
 20
300.2202003513719
 30
0.0
 40
21.52500000000014
100
AcDbArc
 50
70.38428358124881
 51
73.61571641877235
  0
ARC
  5
190E
330
1F
100
AcDbEntity
  8
0
 62
     3
100
AcDbCircle
 10
1783.12656275265
 20
300.2202003513719
 30
0.0
 40
21.52500000000014
100
AcDbArc
 50
76.3842835812605
 51
79.6157164187762
  0
ARC
  5
190F
330
1F
100
AcDbEntity
  8
0
 62
     3
100
AcDbCircle
 10
1783.12656275265
 20
300.2202003513719
 30
0.0
 40
21.52500000000014
100
AcDbArc
 50
82.38428358122602
 51
85.615716418769
  0
ARC
  5
1910
330
1F
100
AcDbEntity
  8
0
 62
     3
100
AcDbCircle
 10
1783.12656275265
 20
300.2202003513719
 30
0.0
 40
21.52500000000014
100
AcDbArc
 50
88.38428358124055
 51
91.61571641875942
  0
ARC
  5
1911
330
1F
100
AcDbEntity
  8
0
 62
     3
100
AcDbCircle
 10
1783.12656275265
 20
300.2202003513719
 30
0.0
 40
21.52500000000014
100
AcDbArc
 50
94.384283581231
 51
97.61571641877401
  0
ARC
  5
1912
330
1F
100
AcDbEntity
  8
0
 62
     3
100
AcDbCircle
 10
1783.12656275265
 20
300.2202003513719
 30
0.0
 40
21.52500000000014
100
AcDbArc
 50
100.3842835812237
 51
103.6157164187395
  0
ARC
  5
1913
330
1F
100
AcDbEntity
  8
0
 62
     3
100
AcDbCircle
 10
1783.12656275265
 20
300.2202003513719
 30
0.0
 40
21.52500000000014
100
AcDbArc
 50
106.3842835812276
 51
109.6157164187512
  0
ARC
  5
1914
330
1F
100
AcDbEntity
  8
0
 62
     3
100
AcDbCircle
 10
1783.12656275265
 20
300.2202003513719
 30
0.0
 40
21.52500000000014
100
AcDbArc
 50
112.384283581242
 51
114.7158553118025
  0
ARC
  5
1915
330
1F
100
AcDbEntity
  8
0
 62
     3
100
AcDbCircle
 10
1783.12656275265
 20
300.2202003513719
 30
0.0
 40
21.12500000000014
100
AcDbArc
 50
49.9252116222847
 51
53.18510411801615
  0
ARC
  5
1916
330
1F
100
AcDbEntity
  8
0
 62
     3
100
AcDbCircle
 10
1783.12656275265
 20
300.2202003513719
 30
0.0
 40
21.12500000000014
100
AcDbArc
 50
91.58949988495978
 51
94.41050011502198
  0
ARC
  5
1917
330
1F
100
AcDbEntity
  8
0
 62
     3
100
AcDbCircle
 10
1783.12656275265
 20
300.2202003513719
 30
0.0
 40
21.12500000000014
100
AcDbArc
 50
97.58949988493995
 51
100.4105001150261
  0
ARC
  5
1918
330
1F
100
AcDbEntity
  8
0
 62
     3
100
AcDbCircle
 10
1783.12656275265
 20
300.2202003513719
 30
0.0
 40
21.12500000000014
100
AcDbArc
 50
103.5894998849699
 51
106.410500115021
  0
ARC
  5
1919
330
1F
100
AcDbEntity
  8
0
 62
     3
100
AcDbCircle
 10
1783.12656275265
 20
300.2202003513719
 30
0.0
 40
21.12500000000014
100
AcDbArc
 50
109.5894998849649
 51
112.4105001150502
  0
ARC
  5
191A
330
1F
100
AcDbEntity
  8
0
 62
     3
100
AcDbCircle
 10
1783.12656275265
 20
300.2202003513719
 30
0.0
 40
21.12500000000014
100
AcDbArc
 50
126.8148958819838
 51
130.0747883777153
  0
LINE
  5
191B
330
1F
100
AcDbEntity
  8
0
 62
     3
100
AcDbLine
 10
1794.82656275265
 20
315.8514391058661
 30
0.0
 11
1796.264718962637
 21
317.7728205660857
 31
0.0
  0
LINE
  5
191C
330
1F
100
AcDbEntity
  8
0
 62
     3
100
AcDbLine
 10
1794.826562752649
 20
314.1804276240986
 30
0.0
 11
1794.12656275265
 21
313.3452003513719
 31
0.0
  0
LINE
  5
191D
330
1F
100
AcDbEntity
  8
0
 62
     3
100
AcDbLine
 10
1771.42656275265
 20
315.8514391058661
 30
0.0
 11
1769.988406542663
 21
317.7728205660857
 31
0.0
  0
LINE
  5
191E
330
1F
100
AcDbEntity
  8
0
 62
     3
100
AcDbLine
 10
1769.043351073818
 20
317.0240324681603
 30
0.0
 11
1772.12656275265
 21
313.3452003513719
 31
0.0
  0
LINE
  5
191F
330
1F
100
AcDbEntity
  8
0
 62
     3
100
AcDbLine
 10
1791.986291058847
 20
319.4685987091661
 30
0.0
 11
1792.29381013941
 21
320.1367060777778
 31
0.0
  0
LINE
  5
1920
330
1F
100
AcDbEntity
  8
0
 62
     3
100
AcDbLine
 10
1774.266834446451
 20
319.4685987091668
 30
0.0
 11
1773.959315365891
 21
320.1367060777778
 31
0.0
  0
LINE
  5
1921
330
1F
100
AcDbEntity
  8
0
 62
     3
100
AcDbLine
 10
1781.558201151687
 20
320.2105146782812
 30
0.0
 11
1781.481072710152
 21
321.6822130137492
 31
0.0
  0
LINE
  5
1922
330
1F
100
AcDbEntity
  8
0
 62
     3
100
AcDbLine
 10
1782.596775867833
 20
320.264944072774
 30
0.0
 11
1782.519647426296
 21
321.7366424082419
 31
0.0
  0
LINE
  5
1923
330
1F
100
AcDbEntity
  8
0
 62
     3
100
AcDbLine
 10
1779.47723596381
 20
319.9370672167806
 30
0.0
 11
1779.246695674545
 21
321.3926413173126
 31
0.0
  0
LINE
  5
1924
330
1F
100
AcDbEntity
  8
0
 62
     3
100
AcDbLine
 10
1780.504431838028
 20
320.0997590604225
 30
0.0
 11
1780.273891548765
 21
321.5553331609545
 31
0.0
  0
LINE
  5
1925
330
1F
100
AcDbEntity
  8
0
 62
     3
100
AcDbLine
 10
1777.4362535639
 20
319.4475976358831
 30
0.0
 11
1777.054827274562
 21
320.8710999270349
 31
0.0
  0
LINE
  5
1926
330
1F
100
AcDbEntity
  8
0
 62
     3
100
AcDbLine
 10
1778.44081642324
 20
319.7167694427899
 30
0.0
 11
1778.059390133902
 21
321.1402717339419
 31
0.0
  0
LINE
  5
1927
330
1F
100
AcDbEntity
  8
0
 62
     3
100
AcDbLine
 10
1775.457615382236
 20
318.747468666745
 30
0.0
 11
1774.929482079068
 21
320.1233029595281
 31
0.0
  0
LINE
  5
1928
330
1F
100
AcDbEntity
  8
0
 62
     3
100
AcDbLine
 10
1776.428539025793
 20
319.1201713342719
 30
0.0
 11
1775.900405722625
 21
320.4960056270552
 31
0.0
  0
ARC
  5
1929
330
1F
100
AcDbEntity
  8
0
 62
     3
100
AcDbCircle
 10
1782.07748850976
 20
320.2377293755275
 30
0.0
 40
0.5200000000000137
100
AcDbArc
 50
182.9999999999893
 51
2.999999999989288
  0
ARC
  5
192A
330
1F
100
AcDbEntity
  8
0
 62
     3
100
AcDbCircle
 10
1779.990833900919
 20
320.0184131386013
 30
0.0
 40
0.5199999999999329
100
AcDbArc
 50
188.9999999999919
 51
8.999999999991949
  0
ARC
  5
192B
330
1F
100
AcDbEntity
  8
0
 62
     3
100
AcDbCircle
 10
1777.93853499357
 20
319.5821835393366
 30
0.0
 40
0.5200000000000539
100
AcDbArc
 50
194.9999999999978
 51
15.00000000001464
  0
ARC
  5
192C
330
1F
100
AcDbEntity
  8
0
 62
     3
100
AcDbCircle
 10
1775.943077204014
 20
318.9338200005084
 30
0.0
 40
0.5199999999999726
100
AcDbArc
 50
201.0000000000146
 51
21.00000000001458
  0
ARC
  5
192D
330
1F
100
AcDbEntity
  8
0
 62
     3
100
AcDbCircle
 10
1783.12656275265
 20
300.2202003513719
 30
0.0
 40
21.12500000000014
100
AcDbArc
 50
85.58949988491319
 51
88.41050011504021
  0
ARC
  5
192E
330
1F
100
AcDbEntity
  8
0
 62
     3
100
AcDbCircle
 10
1783.12656275265
 20
300.2202003513719
 30
0.0
 40
21.12500000000014
100
AcDbArc
 50
79.58949988497387
 51
82.41050011506025
  0
ARC
  5
192F
330
1F
100
AcDbEntity
  8
0
 62
     3
100
AcDbCircle
 10
1783.12656275265
 20
300.2202003513719
 30
0.0
 40
21.12500000000014
100
AcDbArc
 50
73.58949988497903
 51
76.4105001150301
  0
ARC
  5
1930
330
1F
100
AcDbEntity
  8
0
 62
     3
100
AcDbCircle
 10
1783.12656275265
 20
300.2202003513719
 30
0.0
 40
21.12500000000014
100
AcDbArc
 50
67.58949988494979
 51
70.41050011503509
  0
LINE
  5
1931
330
1F
100
AcDbEntity
  8
0
 62
     3
100
AcDbLine
 10
1784.694924353612
 20
320.2105146782812
 30
0.0
 11
1784.772052795149
 21
321.6822130137492
 31
0.0
  0
LINE
  5
1932
330
1F
100
AcDbEntity
  8
0
 62
     3
100
AcDbLine
 10
1783.656349637468
 20
320.264944072774
 30
0.0
 11
1783.733478079003
 21
321.7366424082419
 31
0.0
  0
LINE
  5
1933
330
1F
100
AcDbEntity
  8
0
 62
     3
100
AcDbLine
 10
1786.775889541491
 20
319.9370672167806
 30
0.0
 11
1787.006429830755
 21
321.3926413173126
 31
0.0
  0
LINE
  5
1934
330
1F
100
AcDbEntity
  8
0
 62
     3
100
AcDbLine
 10
1785.748693667272
 20
320.0997590604225
 30
0.0
 11
1785.979233956536
 21
321.5553331609545
 31
0.0
  0
LINE
  5
1935
330
1F
100
AcDbEntity
  8
0
 62
     3
100
AcDbLine
 10
1788.8168719414
 20
319.4475976358831
 30
0.0
 11
1789.198298230738
 21
320.8710999270349
 31
0.0
  0
LINE
  5
1936
330
1F
100
AcDbEntity
  8
0
 62
     3
100
AcDbLine
 10
1787.81230908206
 20
319.7167694427899
 30
0.0
 11
1788.193735371397
 21
321.1402717339419
 31
0.0
  0
LINE
  5
1937
330
1F
100
AcDbEntity
  8
0
 62
     3
100
AcDbLine
 10
1790.795510123064
 20
318.747468666745
 30
0.0
 11
1791.323643426231
 21
320.1233029595281
 31
0.0
  0
LINE
  5
1938
330
1F
100
AcDbEntity
  8
0
 62
     3
100
AcDbLine
 10
1789.824586479507
 20
319.1201713342719
 30
0.0
 11
1790.352719782674
 21
320.4960056270552
 31
0.0
  0
ARC
  5
1939
330
1F
100
AcDbEntity
  8
0
 62
     3
100
AcDbCircle
 10
1784.17563699554
 20
320.2377293755275
 30
0.0
 40
0.5200000000000137
100
AcDbArc
 50
177.0000000000107
 51
357.0000000000107
  0
ARC
  5
193A
330
1F
100
AcDbEntity
  8
0
 62
     3
100
AcDbCircle
 10
1786.262291604381
 20
320.0184131386013
 30
0.0
 40
0.5199999999999329
100
AcDbArc
 50
171.000000000008
 51
351.000000000008
  0
ARC
  5
193B
330
1F
100
AcDbEntity
  8
0
 62
     3
100
AcDbCircle
 10
1788.31459051173
 20
319.5821835393366
 30
0.0
 40
0.5200000000000539
100
AcDbArc
 50
165.0000000000021
 51
345.0000000000021
  0
ARC
  5
193C
330
1F
100
AcDbEntity
  8
0
 62
     3
100
AcDbCircle
 10
1790.310048301286
 20
318.9338200005084
 30
0.0
 40
0.5199999999999726
100
AcDbArc
 50
158.9999999999995
 51
338.9999999999996
  0
LINE
  5
193D
330
1F
100
AcDbEntity
  8
0
 62
     3
100
AcDbLine
 10
1585.491454278737
 20
309.9452003513722
 30
0.0
 11
1592.291454278736
 21
309.9452003513722
 31
0.0
  0
LINE
  5
193E
330
1F
100
AcDbEntity
  8
0
 62
     3
100
AcDbLine
 10
1619.491454278736
 20
309.9452003513722
 30
0.0
 11
1626.291454278737
 21
309.9452003513722
 31
0.0
  0
LINE
  5
193F
330
1F
100
AcDbEntity
  8
0
 62
     3
100
AcDbLine
 10
1594.191454278736
 20
314.1804276240995
 30
0.0
 11
1594.191454278736
 21
315.8514391058663
 31
0.0
  0
LINE
  5
1940
330
1F
100
AcDbEntity
  8
0
 62
     3
100
AcDbLine
 10
1617.591454278737
 20
314.1804276240979
 30
0.0
 11
1617.591454278737
 21
315.8514391058661
 31
0.0
  0
LINE
  5
1941
330
1F
100
AcDbEntity
  8
0
 62
     3
100
AcDbLine
 10
1592.691454278736
 20
312.3472620317626
 30
0.0
 11
1592.691454278736
 21
309.345200351372
 31
0.0
  0
LINE
  5
1942
330
1F
100
AcDbEntity
  8
0
 62
     3
100
AcDbLine
 10
1592.291454278736
 20
316.3851508616581
 30
0.0
 11
1592.291454278736
 21
309.9452003513722
 31
0.0
  0
LINE
  5
1943
330
1F
100
AcDbEntity
  8
0
 62
     3
100
AcDbLine
 10
1619.091454278738
 20
312.3472620317626
 30
0.0
 11
1619.091454278738
 21
309.345200351372
 31
0.0
  0
LINE
  5
1944
330
1F
100
AcDbEntity
  8
0
 62
     3
100
AcDbLine
 10
1619.491454278736
 20
316.3851508616581
 30
0.0
 11
1619.491454278736
 21
309.9452003513722
 31
0.0
  0
LINE
  5
1945
330
1F
100
AcDbEntity
  8
0
 62
     3
100
AcDbLine
 10
1585.491454278737
 20
309.9452003513722
 30
0.0
 11
1585.491454278737
 21
309.345200351372
 31
0.0
  0
LINE
  5
1946
330
1F
100
AcDbEntity
  8
0
 62
     3
100
AcDbLine
 10
1626.291454278737
 20
309.345200351372
 30
0.0
 11
1626.291454278737
 21
309.9452003513722
 31
0.0
  0
ARC
  5
1947
330
1F
100
AcDbEntity
  8
0
 62
     3
100
AcDbCircle
 10
1605.891454278737
 20
300.2202003513719
 30
0.0
 40
17.12500000000014
100
AcDbArc
 50
50.03378695620487
 51
129.966213043795
  0
ARC
  5
1948
330
1F
100
AcDbEntity
  8
0
 62
     3
100
AcDbCircle
 10
1605.891454278737
 20
300.2202003513719
 30
0.0
 40
18.92500000000014
100
AcDbArc
 50
71.74612942942703
 51
108.2538705705729
  0
ARC
  5
1949
330
1F
100
AcDbEntity
  8
0
 62
     3
100
AcDbCircle
 10
1612.571040566994
 20
320.4720830297241
 30
0.0
 40
2.399999999999999
100
AcDbArc
 50
251.7461294294271
 51
335.284144688191
  0
ARC
  5
194A
330
1F
100
AcDbEntity
  8
0
 62
     3
100
AcDbCircle
 10
1599.211867990481
 20
320.4720830297238
 30
0.0
 40
2.399999999999999
100
AcDbArc
 50
204.7158553117946
 51
288.2538705705729
  0
ARC
  5
194B
330
1F
100
AcDbEntity
  8
0
 62
     3
100
AcDbCircle
 10
1605.891454278737
 20
300.2202003513719
 30
0.0
 40
17.92500000000014
100
AcDbArc
 50
42.57421123571649
 51
50.03378695620487
  0
ARC
  5
194C
330
1F
100
AcDbEntity
  8
0
 62
     3
100
AcDbCircle
 10
1605.891454278737
 20
300.2202003513719
 30
0.0
 40
17.92500000000014
100
AcDbArc
 50
129.966213043795
 51
137.4257887642835
  0
ARC
  5
194D
330
1F
100
AcDbEntity
  8
0
 62
     3
100
AcDbCircle
 10
1605.891454278737
 20
300.2202003513719
 30
0.0
 40
21.92500000000014
100
AcDbArc
 50
53.18510411801615
 51
65.28414468819751
  0
ARC
  5
194E
330
1F
100
AcDbEntity
  8
0
 62
     3
100
AcDbCircle
 10
1605.891454278737
 20
300.2202003513719
 30
0.0
 40
21.92500000000014
100
AcDbArc
 50
114.7158553118025
 51
126.8148958819838
  0
ARC
  5
194F
330
1F
100
AcDbEntity
  8
0
 62
     3
100
AcDbCircle
 10
1605.891454278737
 20
300.2202003513719
 30
0.0
 40
21.52500000000014
100
AcDbArc
 50
65.28414468819751
 51
67.61571641875801
  0
ARC
  5
1950
330
1F
100
AcDbEntity
  8
0
 62
     3
100
AcDbCircle
 10
1605.891454278737
 20
300.2202003513719
 30
0.0
 40
21.52500000000014
100
AcDbArc
 50
70.38428358124881
 51
73.61571641877235
  0
ARC
  5
1951
330
1F
100
AcDbEntity
  8
0
 62
     3
100
AcDbCircle
 10
1605.891454278737
 20
300.2202003513719
 30
0.0
 40
21.52500000000014
100
AcDbArc
 50
76.3842835812605
 51
79.6157164187762
  0
ARC
  5
1952
330
1F
100
AcDbEntity
  8
0
 62
     3
100
AcDbCircle
 10
1605.891454278737
 20
300.2202003513719
 30
0.0
 40
21.52500000000014
100
AcDbArc
 50
82.38428358122602
 51
85.615716418769
  0
ARC
  5
1953
330
1F
100
AcDbEntity
  8
0
 62
     3
100
AcDbCircle
 10
1605.891454278737
 20
300.2202003513719
 30
0.0
 40
21.52500000000014
100
AcDbArc
 50
88.38428358124055
 51
91.61571641875942
  0
ARC
  5
1954
330
1F
100
AcDbEntity
  8
0
 62
     3
100
AcDbCircle
 10
1605.891454278737
 20
300.2202003513719
 30
0.0
 40
21.52500000000014
100
AcDbArc
 50
94.384283581231
 51
97.61571641877401
  0
ARC
  5
1955
330
1F
100
AcDbEntity
  8
0
 62
     3
100
AcDbCircle
 10
1605.891454278737
 20
300.2202003513719
 30
0.0
 40
21.52500000000014
100
AcDbArc
 50
100.3842835812237
 51
103.6157164187395
  0
ARC
  5
1956
330
1F
100
AcDbEntity
  8
0
 62
     3
100
AcDbCircle
 10
1605.891454278737
 20
300.2202003513719
 30
0.0
 40
21.52500000000014
100
AcDbArc
 50
106.3842835812276
 51
109.6157164187512
  0
ARC
  5
1957
330
1F
100
AcDbEntity
  8
0
 62
     3
100
AcDbCircle
 10
1605.891454278737
 20
300.2202003513719
 30
0.0
 40
21.52500000000014
100
AcDbArc
 50
112.384283581242
 51
114.7158553118025
  0
ARC
  5
1958
330
1F
100
AcDbEntity
  8
0
 62
     3
100
AcDbCircle
 10
1605.891454278737
 20
300.2202003513719
 30
0.0
 40
21.12500000000014
100
AcDbArc
 50
49.9252116222847
 51
53.18510411801615
  0
ARC
  5
1959
330
1F
100
AcDbEntity
  8
0
 62
     3
100
AcDbCircle
 10
1605.891454278737
 20
300.2202003513719
 30
0.0
 40
21.12500000000014
100
AcDbArc
 50
91.58949988495978
 51
94.41050011502198
  0
ARC
  5
195A
330
1F
100
AcDbEntity
  8
0
 62
     3
100
AcDbCircle
 10
1605.891454278737
 20
300.2202003513719
 30
0.0
 40
21.12500000000014
100
AcDbArc
 50
97.58949988493995
 51
100.4105001150261
  0
ARC
  5
195B
330
1F
100
AcDbEntity
  8
0
 62
     3
100
AcDbCircle
 10
1605.891454278737
 20
300.2202003513719
 30
0.0
 40
21.12500000000014
100
AcDbArc
 50
103.5894998849699
 51
106.410500115021
  0
ARC
  5
195C
330
1F
100
AcDbEntity
  8
0
 62
     3
100
AcDbCircle
 10
1605.891454278737
 20
300.2202003513719
 30
0.0
 40
21.12500000000014
100
AcDbArc
 50
109.5894998849649
 51
112.4105001150502
  0
ARC
  5
195D
330
1F
100
AcDbEntity
  8
0
 62
     3
100
AcDbCircle
 10
1605.891454278737
 20
300.2202003513719
 30
0.0
 40
21.12500000000014
100
AcDbArc
 50
126.8148958819838
 51
130.0747883777153
  0
LINE
  5
195E
330
1F
100
AcDbEntity
  8
0
 62
     3
100
AcDbLine
 10
1617.591454278737
 20
315.8514391058661
 30
0.0
 11
1619.029610488725
 21
317.7728205660857
 31
0.0
  0
LINE
  5
195F
330
1F
100
AcDbEntity
  8
0
 62
     3
100
AcDbLine
 10
1617.591454278737
 20
314.1804276240986
 30
0.0
 11
1616.891454278737
 21
313.3452003513719
 31
0.0
  0
LINE
  5
1960
330
1F
100
AcDbEntity
  8
0
 62
     3
100
AcDbLine
 10
1594.191454278736
 20
315.8514391058661
 30
0.0
 11
1592.75329806875
 21
317.7728205660857
 31
0.0
  0
LINE
  5
1961
330
1F
100
AcDbEntity
  8
0
 62
     3
100
AcDbLine
 10
1594.191454278738
 20
314.1804276240986
 30
0.0
 11
1594.891454278737
 21
313.3452003513719
 31
0.0
  0
LINE
  5
1962
330
1F
100
AcDbEntity
  8
0
 62
     3
100
AcDbLine
 10
1614.751182584935
 20
319.4685987091661
 30
0.0
 11
1615.058701665497
 21
320.1367060777778
 31
0.0
  0
LINE
  5
1963
330
1F
100
AcDbEntity
  8
0
 62
     3
100
AcDbLine
 10
1597.031725972539
 20
319.4685987091668
 30
0.0
 11
1596.724206891978
 21
320.1367060777778
 31
0.0
  0
LINE
  5
1964
330
1F
100
AcDbEntity
  8
0
 62
     3
100
AcDbLine
 10
1604.323092677775
 20
320.2105146782812
 30
0.0
 11
1604.245964236239
 21
321.6822130137492
 31
0.0
  0
LINE
  5
1965
330
1F
100
AcDbEntity
  8
0
 62
     3
100
AcDbLine
 10
1605.36166739392
 20
320.264944072774
 30
0.0
 11
1605.284538952383
 21
321.7366424082419
 31
0.0
  0
LINE
  5
1966
330
1F
100
AcDbEntity
  8
0
 62
     3
100
AcDbLine
 10
1602.242127489897
 20
319.9370672167806
 30
0.0
 11
1602.011587200633
 21
321.3926413173126
 31
0.0
  0
LINE
  5
1967
330
1F
100
AcDbEntity
  8
0
 62
     3
100
AcDbLine
 10
1603.269323364115
 20
320.0997590604225
 30
0.0
 11
1603.038783074852
 21
321.5553331609545
 31
0.0
  0
LINE
  5
1968
330
1F
100
AcDbEntity
  8
0
 62
     3
100
AcDbLine
 10
1600.201145089987
 20
319.4475976358831
 30
0.0
 11
1599.819718800649
 21
320.8710999270349
 31
0.0
  0
LINE
  5
1969
330
1F
100
AcDbEntity
  8
0
 62
     3
100
AcDbLine
 10
1601.205707949327
 20
319.7167694427899
 30
0.0
 11
1600.824281659989
 21
321.1402717339419
 31
0.0
  0
LINE
  5
196A
330
1F
100
AcDbEntity
  8
0
 62
     3
100
AcDbLine
 10
1598.222506908323
 20
318.747468666745
 30
0.0
 11
1597.694373605156
 21
320.1233029595281
 31
0.0
  0
LINE
  5
196B
330
1F
100
AcDbEntity
  8
0
 62
     3
100
AcDbLine
 10
1599.19343055188
 20
319.1201713342719
 30
0.0
 11
1598.665297248712
 21
320.4960056270552
 31
0.0
  0
ARC
  5
196C
330
1F
100
AcDbEntity
  8
0
 62
     3
100
AcDbCircle
 10
1604.842380035847
 20
320.2377293755275
 30
0.0
 40
0.5200000000000137
100
AcDbArc
 50
182.9999999999893
 51
2.999999999989288
  0
ARC
  5
196D
330
1F
100
AcDbEntity
  8
0
 62
     3
100
AcDbCircle
 10
1602.755725427005
 20
320.0184131386013
 30
0.0
 40
0.5199999999999329
100
AcDbArc
 50
188.9999999999919
 51
8.999999999991949
  0
ARC
  5
196E
330
1F
100
AcDbEntity
  8
0
 62
     3
100
AcDbCircle
 10
1600.703426519657
 20
319.5821835393366
 30
0.0
 40
0.5200000000000539
100
AcDbArc
 50
194.9999999999978
 51
14.99999999999786
  0
ARC
  5
196F
330
1F
100
AcDbEntity
  8
0
 62
     3
100
AcDbCircle
 10
1598.707968730102
 20
318.9338200005084
 30
0.0
 40
0.5199999999999726
100
AcDbArc
 50
201.0000000000146
 51
21.00000000001458
  0
ARC
  5
1970
330
1F
100
AcDbEntity
  8
0
 62
     3
100
AcDbCircle
 10
1605.891454278737
 20
300.2202003513719
 30
0.0
 40
21.12500000000014
100
AcDbArc
 50
85.58949988491319
 51
88.41050011504021
  0
ARC
  5
1971
330
1F
100
AcDbEntity
  8
0
 62
     3
100
AcDbCircle
 10
1605.891454278737
 20
300.2202003513719
 30
0.0
 40
21.12500000000014
100
AcDbArc
 50
79.58949988497387
 51
82.41050011506025
  0
ARC
  5
1972
330
1F
100
AcDbEntity
  8
0
 62
     3
100
AcDbCircle
 10
1605.891454278737
 20
300.2202003513719
 30
0.0
 40
21.12500000000014
100
AcDbArc
 50
73.58949988497903
 51
76.4105001150301
  0
ARC
  5
1973
330
1F
100
AcDbEntity
  8
0
 62
     3
100
AcDbCircle
 10
1605.891454278737
 20
300.2202003513719
 30
0.0
 40
21.12500000000014
100
AcDbArc
 50
67.58949988494979
 51
70.41050011503509
  0
LINE
  5
1974
330
1F
100
AcDbEntity
  8
0
 62
     3
100
AcDbLine
 10
1607.4598158797
 20
320.2105146782812
 30
0.0
 11
1607.536944321236
 21
321.6822130137492
 31
0.0
  0
LINE
  5
1975
330
1F
100
AcDbEntity
  8
0
 62
     3
100
AcDbLine
 10
1606.421241163555
 20
320.264944072774
 30
0.0
 11
1606.498369605091
 21
321.7366424082419
 31
0.0
  0
LINE
  5
1976
330
1F
100
AcDbEntity
  8
0
 62
     3
100
AcDbLine
 10
1609.540781067578
 20
319.9370672167806
 30
0.0
 11
1609.771321356842
 21
321.3926413173126
 31
0.0
  0
LINE
  5
1977
330
1F
100
AcDbEntity
  8
0
 62
     3
100
AcDbLine
 10
1608.513585193359
 20
320.0997590604225
 30
0.0
 11
1608.744125482623
 21
321.5553331609545
 31
0.0
  0
LINE
  5
1978
330
1F
100
AcDbEntity
  8
0
 62
     3
100
AcDbLine
 10
1611.581763467488
 20
319.4475976358831
 30
0.0
 11
1611.963189756826
 21
320.8710999270349
 31
0.0
  0
LINE
  5
1979
330
1F
100
AcDbEntity
  8
0
 62
     3
100
AcDbLine
 10
1610.577200608147
 20
319.7167694427899
 30
0.0
 11
1610.958626897485
 21
321.1402717339419
 31
0.0
  0
LINE
  5
197A
330
1F
100
AcDbEntity
  8
0
 62
     3
100
AcDbLine
 10
1613.560401649151
 20
318.747468666745
 30
0.0
 11
1614.08853495232
 21
320.1233029595281
 31
0.0
  0
LINE
  5
197B
330
1F
100
AcDbEntity
  8
0
 62
     3
100
AcDbLine
 10
1612.589478005595
 20
319.1201713342719
 30
0.0
 11
1613.117611308763
 21
320.4960056270552
 31
0.0
  0
ARC
  5
197C
330
1F
100
AcDbEntity
  8
0
 62
     3
100
AcDbCircle
 10
1606.940528521626
 20
320.2377293755275
 30
0.0
 40
0.5200000000000137
100
AcDbArc
 50
177.0000000000107
 51
357.0000000000107
  0
ARC
  5
197D
330
1F
100
AcDbEntity
  8
0
 62
     3
100
AcDbCircle
 10
1609.027183130468
 20
320.0184131386013
 30
0.0
 40
0.5199999999999329
100
AcDbArc
 50
171.000000000008
 51
351.000000000008
  0
ARC
  5
197E
330
1F
100
AcDbEntity
  8
0
 62
     3
100
AcDbCircle
 10
1611.079482037817
 20
319.5821835393366
 30
0.0
 40
0.5200000000000539
100
AcDbArc
 50
165.0000000000021
 51
345.0000000000021
  0
ARC
  5
197F
330
1F
100
AcDbEntity
  8
0
 62
     3
100
AcDbCircle
 10
1613.074939827373
 20
318.9338200005084
 30
0.0
 40
0.5199999999999726
100
AcDbArc
 50
158.9999999999995
 51
338.9999999999996
  0
LINE
  5
1988
330
1F
100
AcDbEntity
  8
0
 62
     3
100
AcDbLine
 10
1695.200442272312
 20
319.1616829037027
 30
0.0
 11
1695.200442272312
 21
319.7452003513721
 31
0.0
  0
LINE
  5
1989
330
1F
100
AcDbEntity
  8
0
 62
     3
100
AcDbLine
 10
1699.200442272312
 20
319.1616829037027
 30
0.0
 11
1699.200442272312
 21
319.7452003513721
 31
0.0
  0
LINE
  5
198A
330
1F
100
AcDbEntity
  8
0
 62
     3
100
AcDbLine
 10
1694.800442272312
 20
315.1846164097662
 30
0.0
 11
1694.800442272312
 21
319.7452003513721
 31
0.0
  0
LINE
  5
198B
330
1F
100
AcDbEntity
  8
0
 62
     3
100
AcDbLine
 10
1699.600442272312
 20
315.1846164097662
 30
0.0
 11
1699.600442272312
 21
319.7452003513721
 31
0.0
  0
LINE
  5
198C
330
1F
100
AcDbEntity
  8
0
 62
     3
100
AcDbLine
 10
1694.700442272312
 20
314.9514391058663
 30
0.0
 11
1694.700442272312
 21
309.345200351372
 31
0.0
  0
LINE
  5
198D
330
1F
100
AcDbEntity
  8
0
 62
     3
100
AcDbLine
 10
1699.700442272312
 20
314.9514391058663
 30
0.0
 11
1699.700442272312
 21
309.345200351372
 31
0.0
  0
LINE
  5
198E
330
1F
100
AcDbEntity
  8
0
 62
     3
100
AcDbLine
 10
1699.700442272312
 20
309.9452003513722
 30
0.0
 11
1694.700442272312
 21
309.9452003513722
 31
0.0
  0
LINE
  5
198F
330
1F
100
AcDbEntity
  8
0
 62
     3
100
AcDbLine
 10
1772.864718962637
 20
313.9300576456467
 30
0.0
 11
1769.988406542663
 21
317.7728205660859
 31
0.0
  0
ELLIPSE
  5
1990
330
1F
100
AcDbEntity
  8
0
 62
     3
100
AcDbEllipse
 10
1697.200442272312
 20
315.8514391058663
 30
0.0
 11
-2.399999999999999
 21
0.0
 31
0.0
210
0.0
220
0.0
230
1.0
 40
0.8005756084247936
 41
3.141592653589792
 42
6.283185307179584
  0
ELLIPSE
  5
1991
330
1F
100
AcDbEntity
  8
0
 62
     3
100
AcDbEllipse
 10
1697.200442272312
 20
315.1846164097662
 30
0.0
 11
-2.399999999999999
 21
0.0
 31
0.0
210
0.0
220
0.0
230
1.0
 40
0.7664233576642801
 41
0.0
 42
0.0693235330617727
  0
ELLIPSE
  5
1992
330
1F
100
AcDbEntity
  8
0
 62
     3
100
AcDbEllipse
 10
1697.200442272312
 20
315.1846164097662
 30
0.0
 11
-2.399999999999999
 21
0.0
 31
0.0
210
0.0
220
0.0
230
1.0
 40
0.7664233576642801
 41
3.07226912052802
 42
3.141592653589792
  0
LINE
  5
1993
330
1F
100
AcDbEntity
  8
0
 62
     3
100
AcDbLine
 10
1694.800442272312
 20
315.8514391058663
 30
0.0
 11
1695.600442272312
 21
315.8514391058663
 31
0.0
  0
LINE
  5
1994
330
1F
100
AcDbEntity
  8
0
 62
     3
100
AcDbLine
 10
1698.800442272312
 20
315.8514391058663
 30
0.0
 11
1699.600442272312
 21
315.8514391058663
 31
0.0
  0
ELLIPSE
  5
1995
330
1F
100
AcDbEntity
  8
0
 62
     3
100
AcDbEllipse
 10
1697.200442272312
 20
315.8514391058663
 30
0.0
 11
-1.6
 21
0.0
 31
0.0
210
0.0
220
0.0
230
1.0
 40
0.7008634126371902
 41
3.141592666201148
 42
6.283185294568227
  0
LINE
  5
1996
330
1F
100
AcDbEntity
  8
0
 62
     3
100
AcDbLine
 10
1695.600442272313
 20
315.8514391058663
 30
0.0
 11
1694.700442272312
 21
314.9514391058663
 31
0.0
  0
LINE
  5
1997
330
1F
100
AcDbEntity
  8
0
 62
     3
100
AcDbLine
 10
1698.800442272312
 20
315.8514391058663
 30
0.0
 11
1699.700442272312
 21
314.9514391058663
 31
0.0
  0
ARC
  5
1998
330
1F
100
AcDbEntity
  8
0
 62
     3
100
AcDbCircle
 10
1697.200442272312
 20
319.7452003513721
 30
0.0
 40
2.0
100
AcDbArc
 50
0.0
 51
180.0
  0
ARC
  5
1999
330
1F
100
AcDbEntity
  8
0
 62
     3
100
AcDbCircle
 10
1697.200442272312
 20
319.7452003513721
 30
0.0
 40
2.399999999999999
100
AcDbArc
 50
0.0
 51
180.0
  0
LINE
  5
199A
330
1F
100
AcDbEntity
  8
0
 62
     3
100
AcDbLine
 10
1775.966284007005
 20
315.776422041894
 30
0.0
 11
1773.959315365891
 21
320.1367060777778
 31
0.0
  0
ELLIPSE
  5
199B
330
1F
100
AcDbEntity
  8
0
 62
     3
100
AcDbEllipse
 10
1697.200442272312
 20
317.9565640598361
 30
0.0
 11
-2.399999999999999
 21
0.0
 31
0.0
210
0.0
220
0.0
230
1.0
 40
0.9083925074757624
 41
3.718232836102312
 42
5.706545124667066
  0
LINE
  5
199C
330
1F
100
AcDbEntity
  8
0
 62
     3
100
AcDbLine
 10
1695.188524226607
 20
319.1452003513721
 30
0.0
 11
1694.800442272312
 21
319.1452003513721
 31
0.0
  0
LINE
  5
199D
330
1F
100
AcDbEntity
  8
0
 62
     3
100
AcDbLine
 10
1699.212360318017
 20
319.1452003513721
 30
0.0
 11
1699.600442272312
 21
319.1452003513721
 31
0.0
  0
LINE
  5
199E
330
1F
100
AcDbEntity
  8
0
 62
     3
100
AcDbLine
 10
1692.700442272312
 20
299.345200351372
 30
0.0
 11
1686.700442272312
 21
299.345200351372
 31
0.0
  0
LINE
  5
199F
330
1F
100
AcDbEntity
  8
0
 62
     3
100
AcDbLine
 10
1692.700442272312
 20
258.345200351372
 30
0.0
 11
1686.700442272312
 21
258.345200351372
 31
0.0
  0
LINE
  5
19A0
330
1F
100
AcDbEntity
  8
0
 62
     3
100
AcDbLine
 10
1692.700442272312
 20
253.345200351372
 30
0.0
 11
1688.700442272312
 21
253.345200351372
 31
0.0
  0
LINE
  5
19A1
330
1F
100
AcDbEntity
  8
0
 62
     3
100
AcDbLine
 10
1692.700442272312
 20
232.345200351372
 30
0.0
 11
1688.700442272312
 21
232.345200351372
 31
0.0
  0
LINE
  5
1A99
102
{ACAD_REACTORS
330
19E0
102
}
330
1F
100
AcDbEntity
  8
0
 62
     3
100
AcDbLine
 10
1575.491454278737
 20
264.345200351372
 30
0.0
 11
1575.491454278737
 21
293.345200351372
 31
0.0
  0
LINE
  5
1A9A
102
{ACAD_REACTORS
330
19E0
102
}
330
1F
100
AcDbEntity
  8
0
 62
     3
100
AcDbLine
 10
1636.291454278737
 20
264.345200351372
 30
0.0
 11
1636.291454278737
 21
293.345200351372
 31
0.0
  0
LINE
  5
1A9B
330
1F
100
AcDbEntity
  8
0
 62
     3
100
AcDbLine
 10
1630.291454278737
 20
299.345200351372
 30
0.0
 11
1581.491454278737
 21
299.345200351372
 31
0.0
  0
LINE
  5
1A9C
330
1F
100
AcDbEntity
  8
0
 62
     3
100
AcDbLine
 10
1630.291454278737
 20
258.345200351372
 30
0.0
 11
1581.491454278737
 21
258.345200351372
 31
0.0
  0
ARC
  5
1AE0
330
1F
100
AcDbEntity
  8
0
 62
     3
100
AcDbCircle
 10
1630.291454278737
 20
264.345200351372
 30
0.0
 40
6.0
100
AcDbArc
 50
270.0
 51
0.0
  0
ARC
  5
1AE1
330
1F
100
AcDbEntity
  8
0
 62
     3
100
AcDbCircle
 10
1630.291454278737
 20
293.345200351372
 30
0.0
 40
6.0
100
AcDbArc
 50
0.0
 51
90.0
  0
ARC
  5
1AE2
330
1F
100
AcDbEntity
  8
0
 62
     3
100
AcDbCircle
 10
1581.491454278737
 20
293.345200351372
 30
0.0
 40
6.0
100
AcDbArc
 50
90.0
 51
180.0
  0
ARC
  5
1AE3
330
1F
100
AcDbEntity
  8
0
 62
     3
100
AcDbCircle
 10
1581.491454278737
 20
264.345200351372
 30
0.0
 40
6.0
100
AcDbArc
 50
180.0
 51
270.0
  0
LINE
  5
1AE6
330
1F
100
AcDbEntity
  8
0
 62
     3
100
AcDbLine
 10
1574.291454278737
 20
232.345200351372
 30
0.0
 11
1639.291454278737
 21
232.345200351372
 31
0.0
  0
LINE
  5
1B09
102
{ACAD_REACTORS
330
19E0
102
}
330
1F
100
AcDbEntity
  8
0
 62
     3
100
AcDbLine
 10
1574.291454278737
 20
232.345200351372
 30
0.0
 11
1574.291454278737
 21
253.345200351372
 31
0.0
  0
LINE
  5
1B0A
102
{ACAD_REACTORS
330
19E0
102
}
330
1F
100
AcDbEntity
  8
0
 62
     3
100
AcDbLine
 10
1639.291454278737
 20
232.345200351372
 30
0.0
 11
1639.291454278737
 21
253.345200351372
 31
0.0
  0
LINE
  5
1B2D
330
1F
100
AcDbEntity
  8
0
 62
     3
100
AcDbLine
 10
1699.700442272312
 20
309.345200351372
 30
0.0
 11
1699.700442272312
 21
264.945200351372
 31
0.0
  0
LINE
  5
1B31
330
1F
100
AcDbEntity
  8
0
 62
     3
100
AcDbLine
 10
1697.300442272312
 20
307.5452003513719
 30
0.0
 11
1697.300442272312
 21
225.345200351372
 31
0.0
  0
LINE
  5
1B32
330
1F
100
AcDbEntity
  8
0
 62
     3
100
AcDbLine
 10
1697.300442272312
 20
307.5452003513719
 30
0.0
 11
1697.500442272312
 21
307.5452003513719
 31
0.0
  0
LINE
  5
1B33
330
1F
100
AcDbEntity
  8
0
 62
     3
100
AcDbLine
 10
1696.300442272312
 20
308.145200351372
 30
0.0
 11
1696.300442272312
 21
225.945200351372
 31
0.0
  0
LINE
  5
1B34
330
1F
100
AcDbEntity
  8
0
 62
     3
100
AcDbLine
 10
1696.100442272312
 20
225.945200351372
 30
0.0
 11
1696.300442272312
 21
225.945200351372
 31
0.0
  0
LINE
  5
1B35
330
1F
100
AcDbEntity
  8
0
 62
     3
100
AcDbLine
 10
1696.100442272312
 20
308.145200351372
 30
0.0
 11
1693.900442272312
 21
308.145200351372
 31
0.0
  0
LINE
  5
1B36
330
1F
100
AcDbEntity
  8
0
 62
     3
100
AcDbLine
 10
1694.900442272312
 20
302.545200351372
 30
0.0
 11
1694.900442272312
 21
307.5452003513719
 31
0.0
  0
LINE
  5
1B37
330
1F
100
AcDbEntity
  8
0
 62
     3
100
AcDbLine
 10
1695.100442272311
 20
307.5452003513719
 30
0.0
 11
1694.900442272312
 21
307.5452003513719
 31
0.0
  0
LINE
  5
1B38
330
1F
100
AcDbEntity
  8
0
 62
     3
100
AcDbLine
 10
1693.900442272312
 20
302.545200351372
 30
0.0
 11
1693.900442272312
 21
308.145200351372
 31
0.0
  0
LINE
  5
1B39
330
1F
100
AcDbEntity
  8
0
 62
     3
100
AcDbLine
 10
1694.900442272312
 20
302.545200351372
 30
0.0
 11
1693.900442272312
 21
302.545200351372
 31
0.0
  0
LINE
  5
1B3A
330
1F
100
AcDbEntity
  8
0
 62
     3
100
AcDbLine
 10
1698.500442272312
 20
308.1452003513721
 30
0.0
 11
1698.500442272312
 21
224.345200351372
 31
0.0
  0
LINE
  5
1B3C
330
1F
100
AcDbEntity
  8
0
 62
     3
100
AcDbLine
 10
1697.500442272312
 20
307.5452003513719
 30
0.0
 11
1697.500442272312
 21
224.945200351372
 31
0.0
  0
LINE
  5
1B59
330
1F
100
AcDbEntity
  8
0
 62
     3
100
AcDbLine
 10
1584.393641335677
 20
153.5870331832018
 30
0.0
 11
1584.393641335677
 21
129.9870331832018
 31
0.0
  0
CIRCLE
  5
1B63
330
1F
100
AcDbEntity
  8
0
 62
     3
100
AcDbCircle
 10
1779.593641335677
 20
123.8870331832018
 30
0.0
 40
0.5
  0
CIRCLE
  5
1B64
330
1F
100
AcDbEntity
  8
0
 62
     3
100
AcDbCircle
 10
1779.593641335677
 20
123.8870331832018
 30
0.0
 40
0.85
  0
CIRCLE
  5
1B65
330
1F
100
AcDbEntity
  8
0
 62
     3
100
AcDbCircle
 10
1779.593641335677
 20
159.6870331832018
 30
0.0
 40
0.5
  0
CIRCLE
  5
1B66
330
1F
100
AcDbEntity
  8
0
 62
     3
100
AcDbCircle
 10
1779.593641335677
 20
159.6870331832018
 30
0.0
 40
0.85
  0
XLINE
  5
1BA9
330
1F
100
AcDbEntity
  8
0
100
AcDbXline
 10
3287.393641335677
 20
-531.0150694872354
 30
0.0
 11
1.0
 21
0.0
 31
0.0
  0
LINE
  5
1BAA
330
1F
100
AcDbEntity
  8
0
 62
     3
100
AcDbLine
 10
1584.393641335677
 20
152.6870331832018
 30
0.0
 11
1584.393641335677
 21
130.8870331832017
 31
0.0
  0
LINE
  5
1BAB
330
1F
100
AcDbEntity
  8
0
 62
     3
100
AcDbLine
 10
1589.793641335677
 20
121.5870331832018
 30
0.0
 11
1584.393641335677
 21
130.8870331832017
 31
0.0
  0
LINE
  5
1BAC
330
1F
100
AcDbEntity
  8
0
 62
     3
100
AcDbLine
 10
1589.793641335677
 20
161.9870331832018
 30
0.0
 11
1584.393641335677
 21
152.6870331832018
 31
0.0
  0
CIRCLE
  5
1BAD
330
1F
100
AcDbEntity
  8
0
 62
     3
100
AcDbCircle
 10
1591.093641335677
 20
123.5870331832018
 30
0.0
 40
0.5
  0
CIRCLE
  5
1BAE
330
1F
100
AcDbEntity
  8
0
 62
     3
100
AcDbCircle
 10
1591.093641335677
 20
123.5870331832018
 30
0.0
 40
0.85
  0
CIRCLE
  5
1BAF
330
1F
100
AcDbEntity
  8
0
 62
     3
100
AcDbCircle
 10
1591.093641335677
 20
159.9870331832018
 30
0.0
 40
0.5
  0
CIRCLE
  5
1BB0
330
1F
100
AcDbEntity
  8
0
 62
     3
100
AcDbCircle
 10
1591.093641335677
 20
159.9870331832018
 30
0.0
 40
0.85
  0
LINE
  5
1BB1
330
1F
100
AcDbEntity
  8
0
 62
     3
100
AcDbLine
 10
1589.793641335677
 20
161.9870331832018
 30
0.0
 11
1781.093641335677
 21
161.9870331832018
 31
0.0
  0
LINE
  5
1BB2
330
1F
100
AcDbEntity
  8
0
 62
     3
100
AcDbLine
 10
1589.793641335677
 20
121.5870331832018
 30
0.0
 11
1781.093641335677
 21
121.5870331832018
 31
0.0
  0
LINE
  5
1BBD
330
1F
100
AcDbEntity
  8
0
 62
     3
100
AcDbLine
 10
1585.693641335677
 20
153.5870331832018
 30
0.0
 11
1585.693641335677
 21
129.9870331832018
 31
0.0
  0
LINE
  5
1BBE
330
1F
100
AcDbEntity
  8
0
 62
     3
100
AcDbLine
 10
1590.693641335677
 20
153.5870331832018
 30
0.0
 11
1590.693641335677
 21
129.9870331832018
 31
0.0
  0
LINE
  5
1BBF
330
1F
100
AcDbEntity
  8
0
 62
     3
100
AcDbLine
 10
1585.693641335677
 20
153.5870331832018
 30
0.0
 11
1590.693641335677
 21
153.5870331832018
 31
0.0
  0
LINE
  5
1BC0
330
1F
100
AcDbEntity
  8
0
 62
     3
100
AcDbLine
 10
1585.693641335677
 20
129.9870331832018
 30
0.0
 11
1590.693641335677
 21
129.9870331832018
 31
0.0
  0
LINE
  5
1BC2
330
1F
100
AcDbEntity
  8
0
 62
     3
100
AcDbLine
 10
1606.593641335677
 20
121.5870331832018
 30
0.0
 11
1606.593641335677
 21
161.9870331832018
 31
0.0
  0
LINE
  5
1BC4
330
1F
100
AcDbEntity
  8
0
 62
     3
100
AcDbLine
 10
1610.693641335677
 20
121.5870331832018
 30
0.0
 11
1610.693641335677
 21
161.9870331832018
 31
0.0
  0
LINE
  5
1BC6
330
1F
100
AcDbEntity
  8
0
 62
     3
100
AcDbLine
 10
1610.693641335677
 20
160.6870331832018
 30
0.0
 11
1776.893641335677
 21
160.6870331832018
 31
0.0
  0
LINE
  5
1BC7
330
1F
100
AcDbEntity
  8
0
 62
     3
100
AcDbLine
 10
1610.693641335677
 20
122.8870331832017
 30
0.0
 11
1776.893641335677
 21
122.8870331832017
 31
0.0
  0
LINE
  5
1BC8
330
1F
100
AcDbEntity
  8
0
 62
     3
100
AcDbLine
 10
1654.393641335676
 20
122.8870331832017
 30
0.0
 11
1654.393641335676
 21
160.6870331832018
 31
0.0
  0
LINE
  5
1BE2
330
1F
100
AcDbEntity
  8
0
 62
     3
100
AcDbLine
 10
1696.893641335677
 20
122.8870331832017
 30
0.0
 11
1696.893641335677
 21
160.6870331832018
 31
0.0
  0
LINE
  5
1BE3
330
1F
100
AcDbEntity
  8
0
 62
     3
100
AcDbLine
 10
1649.193641335677
 20
122.8870331832017
 30
0.0
 11
1649.193641335677
 21
160.6870331832018
 31
0.0
  0
LINE
  5
1BED
330
1F
100
AcDbEntity
  8
0
 62
     3
100
AcDbLine
 10
1692.893641335677
 20
122.8870331832017
 30
0.0
 11
1692.893641335677
 21
160.6870331832018
 31
0.0
  0
LINE
  5
1BEE
330
1F
100
AcDbEntity
  8
0
 62
     3
100
AcDbLine
 10
1735.393641335677
 20
122.8870331832017
 30
0.0
 11
1735.393641335677
 21
160.6870331832018
 31
0.0
  0
LINE
  5
1C07
330
1F
100
AcDbEntity
  8
0
 62
     3
100
AcDbLine
 10
1738.393641335677
 20
122.8870331832017
 30
0.0
 11
1738.393641335677
 21
160.6870331832018
 31
0.0
  0
LINE
  5
1C08
330
1F
100
AcDbEntity
  8
0
 62
     3
100
AcDbLine
 10
1776.893641335677
 20
121.5870331832018
 30
0.0
 11
1776.893641335677
 21
161.9870331832018
 31
0.0
  0
LINE
  5
1C09
330
1F
100
AcDbEntity
  8
0
 62
     3
100
AcDbLine
 10
1781.093641335677
 20
121.5870331832018
 30
0.0
 11
1781.093641335677
 21
161.9870331832018
 31
0.0
  0
LINE
  5
1C5E
330
1F
100
AcDbEntity
  8
0
  6
HIDDEN
 62
     7
100
AcDbLine
 10
1583.671891690125
 20
271.345200351372
 30
0.0
 11
1583.671891690125
 21
266.1452003513721
 31
0.0
  0
LINE
  5
1C5F
330
1F
100
AcDbEntity
  8
0
  6
HIDDEN
 62
     7
100
AcDbLine
 10
1584.671891690125
 20
272.345200351372
 30
0.0
 11
1597.811891690125
 21
272.345200351372
 31
0.0
  0
LINE
  5
1C60
330
1F
100
AcDbEntity
  8
0
  6
HIDDEN
 62
     7
100
AcDbLine
 10
1598.811891690125
 20
266.1452003513721
 30
0.0
 11
1598.811891690125
 21
271.345200351372
 31
0.0
  0
LINE
  5
1C62
330
1F
100
AcDbEntity
  8
0
  6
HIDDEN
 62
     7
100
AcDbLine
 10
1584.671891690125
 20
265.1452003513721
 30
0.0
 11
1597.811891690125
 21
265.1452003513721
 31
0.0
  0
ARC
  5
1C67
330
1F
100
AcDbEntity
  8
0
  6
HIDDEN
 62
     7
100
AcDbCircle
 10
1597.811891690125
 20
271.345200351372
 30
0.0
 40
1.0
100
AcDbArc
 50
0.0
 51
90.0
  0
ARC
  5
1C68
330
1F
100
AcDbEntity
  8
0
  6
HIDDEN
 62
     7
100
AcDbCircle
 10
1597.811891690125
 20
266.1452003513721
 30
0.0
 40
1.0
100
AcDbArc
 50
270.0
 51
0.0
  0
ARC
  5
1C69
330
1F
100
AcDbEntity
  8
0
  6
HIDDEN
 62
     7
100
AcDbCircle
 10
1584.671891690125
 20
266.1452003513721
 30
0.0
 40
1.0
100
AcDbArc
 50
180.0
 51
270.0
  0
ARC
  5
1C6A
330
1F
100
AcDbEntity
  8
0
  6
HIDDEN
 62
     7
100
AcDbCircle
 10
1584.671891690125
 20
271.345200351372
 30
0.0
 40
1.0
100
AcDbArc
 50
90.0
 51
180.0
  0
LINE
  5
1C6B
330
1F
100
AcDbEntity
  8
0
  6
HIDDEN
 62
     7
100
AcDbLine
 10
1601.371891690124
 20
269.905200351372
 30
0.0
 11
1601.371891690124
 21
267.585200351372
 31
0.0
  0
LINE
  5
1C6C
330
1F
100
AcDbEntity
  8
0
  6
HIDDEN
 62
     7
100
AcDbLine
 10
1599.271891690125
 20
269.905200351372
 30
0.0
 11
1601.371891690124
 21
269.905200351372
 31
0.0
  0
LINE
  5
1C6D
330
1F
100
AcDbEntity
  8
0
  6
HIDDEN
 62
     7
100
AcDbLine
 10
1599.271891690125
 20
267.585200351372
 30
0.0
 11
1601.371891690124
 21
267.585200351372
 31
0.0
  0
LINE
  5
1C6E
330
1F
100
AcDbEntity
  8
0
  6
HIDDEN
 62
     7
100
AcDbLine
 10
1598.811891690125
 20
270.345200351372
 30
0.0
 11
1599.271891690125
 21
270.345200351372
 31
0.0
  0
LINE
  5
1C6F
330
1F
100
AcDbEntity
  8
0
  6
HIDDEN
 62
     7
100
AcDbLine
 10
1598.811891690125
 20
267.1452003513721
 30
0.0
 11
1599.271891690125
 21
267.1452003513721
 31
0.0
  0
LINE
  5
1C71
330
1F
100
AcDbEntity
  8
0
  6
HIDDEN
 62
     7
100
AcDbLine
 10
1599.271891690125
 20
270.345200351372
 30
0.0
 11
1599.271891690125
 21
267.1452003513721
 31
0.0
  0
LINE
  5
1C96
330
1F
100
AcDbEntity
  8
0
 62
     3
100
AcDbLine
 10
1654.415842772966
 20
308.8006914836349
 30
0.0
 11
1654.415842772966
 21
309.0606914836347
 31
0.0
  0
LINE
  5
1C97
330
1F
100
AcDbEntity
  8
0
 62
     3
100
AcDbLine
 10
1654.415842772966
 20
309.8406914836339
 30
0.0
 11
1654.415842772966
 21
310.1006914836338
 31
0.0
  0
LINE
  5
1C98
330
1F
100
AcDbEntity
  8
0
 62
     3
100
AcDbLine
 10
1654.775842772966
 20
308.8006914836349
 30
0.0
 11
1654.775842772966
 21
309.0606914836347
 31
0.0
  0
LINE
  5
1C99
330
1F
100
AcDbEntity
  8
0
 62
     3
100
AcDbLine
 10
1654.775842772966
 20
309.8406914836339
 30
0.0
 11
1654.775842772966
 21
310.1006914836338
 31
0.0
  0
LINE
  5
1C9A
330
1F
100
AcDbEntity
  8
0
 62
     3
100
AcDbLine
 10
1653.595842772966
 20
307.9206914836338
 30
0.0
 11
1653.595842772966
 21
308.8006914836349
 31
0.0
  0
LINE
  5
1C9B
330
1F
100
AcDbEntity
  8
0
 62
     3
100
AcDbLine
 10
1653.595842772966
 20
309.0606914836347
 30
0.0
 11
1653.595842772966
 21
309.8406914836339
 31
0.0
  0
LINE
  5
1C9C
330
1F
100
AcDbEntity
  8
0
 62
     3
100
AcDbLine
 10
1653.595842772966
 20
310.1006914836338
 30
0.0
 11
1653.595842772966
 21
311.0206914836339
 31
0.0
  0
LINE
  5
1C9D
330
1F
100
AcDbEntity
  8
0
 62
     3
100
AcDbLine
 10
1655.595842772967
 20
307.9206914836338
 30
0.0
 11
1655.595842772967
 21
308.8006914836349
 31
0.0
  0
LINE
  5
1C9E
330
1F
100
AcDbEntity
  8
0
 62
     3
100
AcDbLine
 10
1655.595842772967
 20
309.0606914836347
 30
0.0
 11
1655.595842772967
 21
309.8406914836339
 31
0.0
  0
LINE
  5
1C9F
330
1F
100
AcDbEntity
  8
0
 62
     3
100
AcDbLine
 10
1655.595842772967
 20
310.1006914836338
 30
0.0
 11
1655.595842772967
 21
311.0206914836339
 31
0.0
  0
LINE
  5
1CA0
330
1F
100
AcDbEntity
  8
0
 62
     3
100
AcDbLine
 10
1653.495842772966
 20
311.3206914836338
 30
0.0
 11
1653.495842772966
 21
313.8206914836347
 31
0.0
  0
LINE
  5
1CA1
330
1F
100
AcDbEntity
  8
0
 62
     3
100
AcDbLine
 10
1655.695842772966
 20
311.3206914836338
 30
0.0
 11
1655.695842772966
 21
313.8206914836347
 31
0.0
  0
LINE
  5
1CA2
330
1F
100
AcDbEntity
  8
0
 62
     3
100
AcDbLine
 10
1653.645842772967
 20
313.8206914836347
 30
0.0
 11
1653.645842772967
 21
314.6206914836347
 31
0.0
  0
LINE
  5
1CA3
330
1F
100
AcDbEntity
  8
0
 62
     3
100
AcDbLine
 10
1655.545842772966
 20
313.8206914836347
 30
0.0
 11
1655.545842772966
 21
314.6206914836347
 31
0.0
  0
LINE
  5
1CA4
330
1F
100
AcDbEntity
  8
0
 62
     3
100
AcDbLine
 10
1654.045842772967
 20
314.6206914836347
 30
0.0
 11
1654.045842772967
 21
316.6806914836336
 31
0.0
  0
LINE
  5
1CA5
330
1F
100
AcDbEntity
  8
0
 62
     3
100
AcDbLine
 10
1655.145842772967
 20
314.6206914836347
 30
0.0
 11
1655.145842772967
 21
316.6806914836336
 31
0.0
  0
LINE
  5
1CA7
330
1F
100
AcDbEntity
  8
0
 62
     3
100
AcDbLine
 10
1653.895842772967
 20
308.2806914836339
 30
0.0
 11
1653.895842772967
 21
308.5406914836348
 31
0.0
  0
LINE
  5
1CA8
330
1F
100
AcDbEntity
  8
0
 62
     3
100
AcDbLine
 10
1653.895842772967
 20
308.8006914836349
 30
0.0
 11
1653.895842772967
 21
309.0606914836347
 31
0.0
  0
LINE
  5
1CA9
330
1F
100
AcDbEntity
  8
0
 62
     3
100
AcDbLine
 10
1653.895842772967
 20
309.3206914836338
 30
0.0
 11
1653.895842772967
 21
309.5806914836338
 31
0.0
  0
LINE
  5
1CAA
330
1F
100
AcDbEntity
  8
0
 62
     3
100
AcDbLine
 10
1653.895842772967
 20
309.8406914836339
 30
0.0
 11
1653.895842772967
 21
310.1006914836338
 31
0.0
  0
LINE
  5
1CAB
330
1F
100
AcDbEntity
  8
0
 62
     3
100
AcDbLine
 10
1653.895842772967
 20
310.3606914836338
 30
0.0
 11
1653.895842772967
 21
310.6206914836338
 31
0.0
  0
LINE
  5
1CAD
330
1F
100
AcDbEntity
  8
0
 62
     3
100
AcDbLine
 10
1655.295842772966
 20
308.2806914836339
 30
0.0
 11
1655.295842772966
 21
308.5406914836348
 31
0.0
  0
LINE
  5
1CAE
330
1F
100
AcDbEntity
  8
0
 62
     3
100
AcDbLine
 10
1655.295842772966
 20
308.8006914836349
 30
0.0
 11
1655.295842772966
 21
309.0606914836347
 31
0.0
  0
LINE
  5
1CAF
330
1F
100
AcDbEntity
  8
0
 62
     3
100
AcDbLine
 10
1655.295842772966
 20
309.3206914836338
 30
0.0
 11
1655.295842772966
 21
309.5806914836338
 31
0.0
  0
LINE
  5
1CB0
330
1F
100
AcDbEntity
  8
0
 62
     3
100
AcDbLine
 10
1655.295842772966
 20
309.8406914836339
 30
0.0
 11
1655.295842772966
 21
310.1006914836338
 31
0.0
  0
LINE
  5
1CB1
330
1F
100
AcDbEntity
  8
0
 62
     3
100
AcDbLine
 10
1655.295842772966
 20
310.3606914836338
 30
0.0
 11
1655.295842772966
 21
310.6206914836338
 31
0.0
  0
LINE
  5
1CB2
330
1F
100
AcDbEntity
  8
0
 62
     3
100
AcDbLine
 10
1655.595842772967
 20
307.9206914836338
 30
0.0
 11
1653.595842772966
 21
307.9206914836338
 31
0.0
  0
LINE
  5
1CB3
330
1F
100
AcDbEntity
  8
0
 62
     3
100
AcDbLine
 10
1655.595842772967
 20
308.2806914836339
 30
0.0
 11
1653.595842772966
 21
308.2806914836339
 31
0.0
  0
LINE
  5
1CB4
330
1F
100
AcDbEntity
  8
0
 62
     3
100
AcDbLine
 10
1655.595842772967
 20
308.5406914836348
 30
0.0
 11
1653.595842772966
 21
308.5406914836348
 31
0.0
  0
LINE
  5
1CB5
330
1F
100
AcDbEntity
  8
0
 62
     3
100
AcDbLine
 10
1654.415842772966
 20
308.8006914836349
 30
0.0
 11
1653.595842772966
 21
308.8006914836349
 31
0.0
  0
LINE
  5
1CB6
330
1F
100
AcDbEntity
  8
0
 62
     3
100
AcDbLine
 10
1654.775842772966
 20
308.8006914836349
 30
0.0
 11
1655.595842772967
 21
308.8006914836349
 31
0.0
  0
LINE
  5
1CB7
330
1F
100
AcDbEntity
  8
0
 62
     3
100
AcDbLine
 10
1654.415842772966
 20
309.0606914836347
 30
0.0
 11
1653.595842772966
 21
309.0606914836347
 31
0.0
  0
LINE
  5
1CB8
330
1F
100
AcDbEntity
  8
0
 62
     3
100
AcDbLine
 10
1654.775842772966
 20
309.0606914836347
 30
0.0
 11
1655.595842772967
 21
309.0606914836347
 31
0.0
  0
LINE
  5
1CB9
330
1F
100
AcDbEntity
  8
0
 62
     3
100
AcDbLine
 10
1655.595842772967
 20
309.3206914836338
 30
0.0
 11
1653.595842772966
 21
309.3206914836338
 31
0.0
  0
LINE
  5
1CBA
330
1F
100
AcDbEntity
  8
0
 62
     3
100
AcDbLine
 10
1655.595842772967
 20
309.5806914836338
 30
0.0
 11
1653.595842772966
 21
309.5806914836338
 31
0.0
  0
LINE
  5
1CBB
330
1F
100
AcDbEntity
  8
0
 62
     3
100
AcDbLine
 10
1654.415842772966
 20
309.8406914836339
 30
0.0
 11
1653.595842772966
 21
309.8406914836339
 31
0.0
  0
LINE
  5
1CBC
330
1F
100
AcDbEntity
  8
0
 62
     3
100
AcDbLine
 10
1654.775842772966
 20
309.8406914836339
 30
0.0
 11
1655.595842772967
 21
309.8406914836339
 31
0.0
  0
LINE
  5
1CBD
330
1F
100
AcDbEntity
  8
0
 62
     3
100
AcDbLine
 10
1654.415842772966
 20
310.1006914836338
 30
0.0
 11
1653.595842772966
 21
310.1006914836338
 31
0.0
  0
LINE
  5
1CBE
330
1F
100
AcDbEntity
  8
0
 62
     3
100
AcDbLine
 10
1654.775842772966
 20
310.1006914836338
 30
0.0
 11
1655.595842772967
 21
310.1006914836338
 31
0.0
  0
LINE
  5
1CBF
330
1F
100
AcDbEntity
  8
0
 62
     3
100
AcDbLine
 10
1655.595842772967
 20
310.3606914836338
 30
0.0
 11
1653.595842772966
 21
310.3606914836338
 31
0.0
  0
LINE
  5
1CC0
330
1F
100
AcDbEntity
  8
0
 62
     3
100
AcDbLine
 10
1655.595842772967
 20
310.6206914836338
 30
0.0
 11
1653.595842772966
 21
310.6206914836338
 31
0.0
  0
LINE
  5
1CC1
330
1F
100
AcDbEntity
  8
0
 62
     3
100
AcDbLine
 10
1655.545842772966
 20
314.6206914836347
 30
0.0
 11
1653.645842772967
 21
314.6206914836347
 31
0.0
  0
LINE
  5
1CC2
330
1F
100
AcDbEntity
  8
0
 62
     3
100
AcDbLine
 10
1655.695842772966
 20
313.8206914836347
 30
0.0
 11
1653.495842772966
 21
313.8206914836347
 31
0.0
  0
LINE
  5
1CC3
330
1F
100
AcDbEntity
  8
0
 62
     3
100
AcDbLine
 10
1653.495842772966
 20
311.3206914836338
 30
0.0
 11
1655.695842772966
 21
311.3206914836338
 31
0.0
  0
LINE
  5
1CC4
330
1F
100
AcDbEntity
  8
0
 62
     3
100
AcDbLine
 10
1654.045842772967
 20
316.6806914836336
 30
0.0
 11
1655.145842772967
 21
316.6806914836336
 31
0.0
  0
LINE
  5
1CC5
330
1F
100
AcDbEntity
  8
0
 62
     3
100
AcDbLine
 10
1654.045842772967
 20
316.3806914836337
 30
0.0
 11
1655.145842772967
 21
316.3806914836337
 31
0.0
  0
LINE
  5
1CC6
330
1F
100
AcDbEntity
  8
0
 62
     3
100
AcDbLine
 10
1655.695842772966
 20
311.3206914836338
 30
0.0
 11
1655.595842772967
 21
311.0206914836339
 31
0.0
  0
LINE
  5
1CC7
330
1F
100
AcDbEntity
  8
0
 62
     3
100
AcDbLine
 10
1655.595842772967
 20
311.0206914836339
 30
0.0
 11
1653.595842772966
 21
311.0206914836339
 31
0.0
  0
LINE
  5
1CC8
330
1F
100
AcDbEntity
  8
0
 62
     3
100
AcDbLine
 10
1653.595842772966
 20
311.0206914836339
 30
0.0
 11
1653.495842772966
 21
311.3206914836338
 31
0.0
  0
LINE
  5
1CCB
330
1F
100
AcDbEntity
  8
0
 62
     3
100
AcDbLine
 10
1655.195842772966
 20
278.7452003513721
 30
0.0
 11
1655.195842772966
 21
307.9206914836338
 31
0.0
  0
LINE
  5
1CCC
330
1F
100
AcDbEntity
  8
0
 62
     3
100
AcDbLine
 10
1653.995842772966
 20
278.7452003513721
 30
0.0
 11
1653.995842772966
 21
307.9206914836338
 31
0.0
  0
ARC
  5
1CCD
330
1F
100
AcDbEntity
  8
0
 62
     3
100
AcDbCircle
 10
1644.595842772966
 20
278.745200351372
 30
0.0
 40
10.6
100
AcDbArc
 50
270.0
 51
0.0
  0
ARC
  5
1CCE
330
1F
100
AcDbEntity
  8
0
 62
     3
100
AcDbCircle
 10
1644.595842772966
 20
278.745200351372
 30
0.0
 40
9.4
100
AcDbArc
 50
270.0
 51
0.0
  0
LINE
  5
1CCF
330
1F
100
AcDbEntity
  8
0
  6
HIDDEN
 62
     7
100
AcDbLine
 10
1601.371891690124
 20
268.145200351372
 30
0.0
 11
1636.291454278737
 21
268.1452003513721
 31
0.0
  0
LINE
  5
1CD0
330
1F
100
AcDbEntity
  8
0
  6
HIDDEN
 62
     7
100
AcDbLine
 10
1601.371891690124
 20
269.345200351372
 30
0.0
 11
1636.291454278737
 21
269.345200351372
 31
0.0
  0
LINE
  5
1CD4
330
1F
100
AcDbEntity
  8
0
 62
     3
100
AcDbLine
 10
1646.291454278737
 20
269.4993958097705
 30
0.0
 11
1646.291454278737
 21
309.345200351372
 31
0.0
  0
LINE
  5
1CD5
330
1F
100
AcDbEntity
  8
0
 62
     3
100
AcDbLine
 10
1636.291454278737
 20
269.345200351372
 30
0.0
 11
1644.595842772966
 21
269.345200351372
 31
0.0
  0
LINE
  5
1CD6
330
1F
100
AcDbEntity
  8
0
 62
     3
100
AcDbLine
 10
1636.291454278737
 20
268.1452003513721
 30
0.0
 11
1644.595842772966
 21
268.1452003513721
 31
0.0
  0
TEXT
  5
1DE6
330
1F
100
AcDbEntity
  8
0
 62
     3
100
AcDbText
 10
1822.829563987562
 20
162.4630090706066
 30
0.0
 40
3.2
  1
短絡電流
  7
高3.2
100
AcDbText
  0
LINE
  5
1DE7
330
1F
100
AcDbEntity
  8
0
100
AcDbLine
 10
1821.329563987562
 20
166.9630090706067
 30
0.0
 11
1879.974824551237
 21
166.9630090706067
 31
0.0
  0
TEXT
  5
1DE8
330
1F
100
AcDbEntity
  8
0
 62
     3
100
AcDbText
 10
1849.188790170776
 20
162.4630090706066
 30
0.0
 40
3.2
  1
5.5A
  7
高3.2
100
AcDbText
  0
TEXT
  5
1DE9
330
1F
100
AcDbEntity
  8
0
 62
     3
100
AcDbText
 10
1822.829563987562
 20
167.9630090706067
 30
0.0
 40
3.2
  1
開放電圧
  7
高3.2
100
AcDbText
  0
TEXT
  5
1DEA
330
1F
100
AcDbEntity
  8
0
 62
     3
100
AcDbText
 10
1849.188790170776
 20
167.9630090706067
 30
0.0
 40
3.2
  1
22V
  7
高3.2
100
AcDbText
  0
TEXT
  5
1E01
330
1F
100
AcDbEntity
  8
0
 62
     3
100
AcDbText
 10
1822.829563987562
 20
156.9630090706067
 30
0.0
 40
3.2
  1
質量
  7
高3.2
100
AcDbText
  0
LINE
  5
1E02
330
1F
100
AcDbEntity
  8
0
100
AcDbLine
 10
1821.329563987562
 20
161.4630090706068
 30
0.0
 11
1879.974824551237
 21
161.4630090706068
 31
0.0
  0
TEXT
  5
1E03
330
1F
100
AcDbEntity
  8
0
 62
     3
100
AcDbText
 10
1849.188790170776
 20
156.9630090706067
 30
0.0
 40
3.2
  1
4.4kg
  7
高3.2
100
AcDbText
  0
TEXT
  5
1F31
330
1F
100
AcDbEntity
  8
0
 62
     4
100
AcDbText
 10
1546.014710168709
 20
289.998385619996
 30
0.0
 40
3.0
  1
USB出力
100
AcDbText
1001
ACAD
1000
MTEXTBEGIN
1070
    73
1070
     1
1070
    44
1040
1.0
1070
    74
1070
     0
1000
MTEXTEND
  0
TEXT
  5
1F32
330
1F
100
AcDbEntity
  8
0
 62
     4
100
AcDbText
 10
1548.414710168709
 20
284.998385619996
 30
0.0
 40
3.0
  1
タイプA
100
AcDbText
1001
ACAD
1000
MTEXTBEGIN
1070
    73
1070
     1
1070
    44
1040
1.0
1070
    74
1070
     0
1000
MTEXTEND
  0
TEXT
  5
1F33
330
1F
100
AcDbEntity
  8
0
 62
     4
100
AcDbText
 10
1548.414710168709
 20
279.998385619996
 30
0.0
 40
3.0
  1
タイプC
100
AcDbText
1001
ACAD
1000
MTEXTBEGIN
1070
    73
1070
     1
1070
    44
1040
1.0
1070
    74
1070
     0
1000
MTEXTEND
  0
LINE
  5
1F38
330
1F
100
AcDbEntity
  8
0
100
AcDbLine
 10
1589.543641335677
 20
161.9870331832018
 30
0.0
 11
1570.495645358987
 21
161.9870331832018
 31
0.0
  0
LINE
  5
1F39
330
1F
100
AcDbEntity
  8
0
100
AcDbLine
 10
1589.543641335677
 20
121.5870331832018
 30
0.0
 11
1570.495645358987
 21
121.5870331832018
 31
0.0
  0
LINE
  5
1F3A
330
1F
100
AcDbEntity
  8
0
100
AcDbLine
 10
1571.745645358987
 20
159.4870331832018
 30
0.0
 11
1571.745645358987
 21
124.0870331832018
 31
0.0
  0
LINE
  5
1F3E
330
1F
100
AcDbEntity
  8
0
100
AcDbLine
 10
1584.393641335677
 20
153.8370331832018
 30
0.0
 11
1584.393641335677
 21
178.7918590068886
 31
0.0
  0
LINE
  5
1F3F
330
1F
100
AcDbEntity
  8
0
100
AcDbLine
 10
1781.093641335677
 20
162.2370331832018
 30
0.0
 11
1781.093641335677
 21
178.7918590068886
 31
0.0
  0
LINE
  5
1F40
330
1F
100
AcDbEntity
  8
0
100
AcDbLine
 10
1586.893641335677
 20
177.5418590068886
 30
0.0
 11
1778.593641335677
 21
177.5418590068886
 31
0.0
  0
LINE
  5
1F44
330
1F
100
AcDbEntity
  8
0
100
AcDbLine
 10
1699.700442272312
 20
264.695200351372
 30
0.0
 11
1699.700442272312
 21
213.693914167613
 31
0.0
  0
LINE
  5
1F45
330
1F
100
AcDbEntity
  8
0
100
AcDbLine
 10
1686.700442272312
 20
258.095200351372
 30
0.0
 11
1686.700442272312
 21
213.693914167613
 31
0.0
  0
LINE
  5
1F46
330
1F
100
AcDbEntity
  8
0
100
AcDbLine
 10
1697.200442272312
 20
214.943914167613
 30
0.0
 11
1689.200442272312
 21
214.943914167613
 31
0.0
  0
LINE
  5
1F4A
330
1F
100
AcDbEntity
  8
0
100
AcDbLine
 10
1646.291454278737
 20
224.095200351372
 30
0.0
 11
1646.291454278737
 21
213.7169655746384
 31
0.0
  0
LINE
  5
1F4B
330
1F
100
AcDbEntity
  8
0
100
AcDbLine
 10
1565.491454278737
 20
224.095200351372
 30
0.0
 11
1565.491454278737
 21
213.7169655746384
 31
0.0
  0
LINE
  5
1F4C
330
1F
100
AcDbEntity
  8
0
100
AcDbLine
 10
1643.791454278737
 20
214.9669655746384
 30
0.0
 11
1567.991454278737
 21
214.9669655746384
 31
0.0
  0
LINE
  5
1F50
330
1F
100
AcDbEntity
  8
0
100
AcDbLine
 10
1565.241454278737
 20
309.345200351372
 30
0.0
 11
1541.97852805895
 21
309.345200351372
 31
0.0
  0
LINE
  5
1F51
330
1F
100
AcDbEntity
  8
0
100
AcDbLine
 10
1565.241454278737
 20
224.345200351372
 30
0.0
 11
1541.97852805895
 21
224.345200351372
 31
0.0
  0
LINE
  5
1F52
330
1F
100
AcDbEntity
  8
0
100
AcDbLine
 10
1543.22852805895
 20
306.845200351372
 30
0.0
 11
1543.22852805895
 21
226.845200351372
 31
0.0
  0
TEXT
  5
1F56
330
1F
100
AcDbEntity
  8
0
 62
     4
100
AcDbText
 10
1664.478614965038
 20
329.0453678429048
 30
0.0
 40
3.0
  1
AWM2464 VW-1 16AWG
 41
0.8
100
AcDbText
1001
ACAD
1000
MTEXTBEGIN
1070
    73
1070
     1
1070
    44
1040
1.0
1070
    74
1070
     0
1000
MTEXTEND
  0
TEXT
  5
1F57
330
1F
100
AcDbEntity
  8
0
 62
     4
100
AcDbText
 10
1664.478614965038
 20
324.0453678429048
 30
0.0
 40
3.0
  1
2.95m
 41
0.8
100
AcDbText
1001
ACAD
1000
MTEXTBEGIN
1070
    73
1070
     1
1070
    44
1040
1.0
1070
    74
1070
     0
1000
MTEXTEND
  0
LINE
  5
1F5A
330
1F
100
AcDbEntity
  8
0
100
AcDbLine
 10
1589.205316914524
 20
273.7951531724629
 30
0.0
 11
1564.339710168708
 21
291.4983856199961
 31
0.0
1001
ACAD
1000
DSTYLE
1002
{
1070
   147
1040
0.625
1070
    77
1070
     0
1002
}
  0
LINE
  5
1F5B
330
1F
100
AcDbEntity
  8
0
100
AcDbLine
 10
1564.339710168708
 20
291.4983856199961
 30
0.0
 11
1561.839710168707
 21
291.4983856199961
 31
0.0
1001
ACAD
1000
DSTYLE
1002
{
1070
   147
1040
0.625
1070
    77
1070
     0
1002
}
  0
LINE
  5
1F5C
330
1F
100
AcDbEntity
  8
0
  6
ByBlock
 62
     0
370
    -2
100
AcDbLine
 10
1589.593830322982
 20
274.3408513470101
 30
0.0
 11
1591.241891690124
 21
272.345200351372
 31
0.0
  0
LINE
  5
1F5D
330
1F
100
AcDbEntity
  8
0
  6
ByBlock
 62
     0
370
    -2
100
AcDbLine
 10
1591.241891690124
 20
272.345200351372
 30
0.0
 11
1588.816803506065
 21
273.2494549979155
 31
0.0
  0
LINE
  5
1F5E
330
1F
100
AcDbEntity
  8
0
  6
ByBlock
 62
     0
370
    -2
100
AcDbLine
 10
1591.241891690124
 20
272.345200351372
 30
0.0
 11
1589.205316914524
 21
273.7951531724629
 31
0.0
  0
TEXT
  5
1F5F
330
1F
100
AcDbEntity
  8
0
 62
     4
100
AcDbText
 10
1571.120645358987
 20
138.2503250958409
 30
0.0
 40
3.0
  1
404
 50
90.0
100
AcDbText
  0
LINE
  5
1F60
330
1F
100
AcDbEntity
  8
0
  6
ByBlock
 62
     0
370
    -2
100
AcDbLine
 10
1572.415517858987
 20
124.0870331832018
 30
0.0
 11
1571.745645358987
 21
121.5870331832018
 31
0.0
  0
LINE
  5
1F61
330
1F
100
AcDbEntity
  8
0
  6
ByBlock
 62
     0
370
    -2
100
AcDbLine
 10
1571.745645358987
 20
121.5870331832018
 30
0.0
 11
1571.075772858987
 21
124.0870331832018
 31
0.0
  0
LINE
  5
1F62
330
1F
100
AcDbEntity
  8
0
  6
ByBlock
 62
     0
370
    -2
100
AcDbLine
 10
1571.745645358987
 20
121.5870331832018
 30
0.0
 11
1571.745645358987
 21
124.0870331832018
 31
0.0
  0
LINE
  5
1F63
330
1F
100
AcDbEntity
  8
0
  6
ByBlock
 62
     0
370
    -2
100
AcDbLine
 10
1571.075772858987
 20
159.4870331832018
 30
0.0
 11
1571.745645358987
 21
161.9870331832018
 31
0.0
  0
LINE
  5
1F64
330
1F
100
AcDbEntity
  8
0
  6
ByBlock
 62
     0
370
    -2
100
AcDbLine
 10
1571.745645358987
 20
161.9870331832018
 30
0.0
 11
1572.415517858987
 21
159.4870331832018
 31
0.0
  0
LINE
  5
1F65
330
1F
100
AcDbEntity
  8
0
  6
ByBlock
 62
     0
370
    -2
100
AcDbLine
 10
1571.745645358987
 20
161.9870331832018
 30
0.0
 11
1571.745645358987
 21
159.4870331832018
 31
0.0
  0
TEXT
  5
1F66
330
1F
100
AcDbEntity
  8
0
 62
     4
100
AcDbText
 10
1656.899317293703
 20
178.1668590068886
 30
0.0
 40
3.0
  1
1967(展開寸法)
100
AcDbText
  0
LINE
  5
1F67
330
1F
100
AcDbEntity
  8
0
  6
ByBlock
 62
     0
370
    -2
100
AcDbLine
 10
1778.593641335677
 20
178.2117315068886
 30
0.0
 11
1781.093641335677
 21
177.5418590068886
 31
0.0
  0
LINE
  5
1F68
330
1F
100
AcDbEntity
  8
0
  6
ByBlock
 62
     0
370
    -2
100
AcDbLine
 10
1781.093641335677
 20
177.5418590068886
 30
0.0
 11
1778.593641335677
 21
176.8719865068886
 31
0.0
  0
LINE
  5
1F69
330
1F
100
AcDbEntity
  8
0
  6
ByBlock
 62
     0
370
    -2
100
AcDbLine
 10
1781.093641335677
 20
177.5418590068886
 30
0.0
 11
1778.593641335677
 21
177.5418590068886
 31
0.0
  0
LINE
  5
1F6A
330
1F
100
AcDbEntity
  8
0
  6
ByBlock
 62
     0
370
    -2
100
AcDbLine
 10
1586.893641335677
 20
176.8719865068886
 30
0.0
 11
1584.393641335677
 21
177.5418590068886
 31
0.0
  0
LINE
  5
1F6B
330
1F
100
AcDbEntity
  8
0
  6
ByBlock
 62
     0
370
    -2
100
AcDbLine
 10
1584.393641335677
 20
177.5418590068886
 30
0.0
 11
1586.893641335677
 21
178.2117315068886
 31
0.0
  0
LINE
  5
1F6C
330
1F
100
AcDbEntity
  8
0
  6
ByBlock
 62
     0
370
    -2
100
AcDbLine
 10
1584.393641335677
 20
177.5418590068886
 30
0.0
 11
1586.893641335677
 21
177.5418590068886
 31
0.0
  0
TEXT
  5
1F6D
330
1F
100
AcDbEntity
  8
0
 62
     4
100
AcDbText
 10
1690.677231248947
 20
215.568914167613
 30
0.0
 40
3.0
  1
65
100
AcDbText
  0
LINE
  5
1F6E
330
1F
100
AcDbEntity
  8
0
  6
ByBlock
 62
     0
370
    -2
100
AcDbLine
 10
1689.200442272312
 20
214.274041667613
 30
0.0
 11
1686.700442272312
 21
214.943914167613
 31
0.0
  0
LINE
  5
1F6F
330
1F
100
AcDbEntity
  8
0
  6
ByBlock
 62
     0
370
    -2
100
AcDbLine
 10
1686.700442272312
 20
214.943914167613
 30
0.0
 11
1689.200442272312
 21
215.613786667613
 31
0.0
  0
LINE
  5
1F70
330
1F
100
AcDbEntity
  8
0
  6
ByBlock
 62
     0
370
    -2
100
AcDbLine
 10
1686.700442272312
 20
214.943914167613
 30
0.0
 11
1689.200442272312
 21
214.943914167613
 31
0.0
  0
LINE
  5
1F71
330
1F
100
AcDbEntity
  8
0
  6
ByBlock
 62
     0
370
    -2
100
AcDbLine
 10
1697.200442272312
 20
215.613786667613
 30
0.0
 11
1699.700442272312
 21
214.943914167613
 31
0.0
  0
LINE
  5
1F72
330
1F
100
AcDbEntity
  8
0
  6
ByBlock
 62
     0
370
    -2
100
AcDbLine
 10
1699.700442272312
 20
214.943914167613
 30
0.0
 11
1697.200442272312
 21
214.274041667613
 31
0.0
  0
LINE
  5
1F73
330
1F
100
AcDbEntity
  8
0
  6
ByBlock
 62
     0
370
    -2
100
AcDbLine
 10
1699.700442272312
 20
214.943914167613
 30
0.0
 11
1697.200442272312
 21
214.943914167613
 31
0.0
  0
TEXT
  5
1F74
330
1F
100
AcDbEntity
  8
0
 62
     4
100
AcDbText
 10
1602.141454278737
 20
215.5919655746384
 30
0.0
 40
3.0
  1
404
100
AcDbText
  0
LINE
  5
1F75
330
1F
100
AcDbEntity
  8
0
  6
ByBlock
 62
     0
370
    -2
100
AcDbLine
 10
1567.991454278737
 20
214.2970930746384
 30
0.0
 11
1565.491454278737
 21
214.9669655746384
 31
0.0
  0
LINE
  5
1F76
330
1F
100
AcDbEntity
  8
0
  6
ByBlock
 62
     0
370
    -2
100
AcDbLine
 10
1565.491454278737
 20
214.9669655746384
 30
0.0
 11
1567.991454278737
 21
215.6368380746384
 31
0.0
  0
LINE
  5
1F77
330
1F
100
AcDbEntity
  8
0
  6
ByBlock
 62
     0
370
    -2
100
AcDbLine
 10
1565.491454278737
 20
214.9669655746384
 30
0.0
 11
1567.991454278737
 21
214.9669655746384
 31
0.0
  0
LINE
  5
1F78
330
1F
100
AcDbEntity
  8
0
  6
ByBlock
 62
     0
370
    -2
100
AcDbLine
 10
1643.791454278737
 20
215.6368380746384
 30
0.0
 11
1646.291454278737
 21
214.9669655746384
 31
0.0
  0
LINE
  5
1F79
330
1F
100
AcDbEntity
  8
0
  6
ByBlock
 62
     0
370
    -2
100
AcDbLine
 10
1646.291454278737
 20
214.9669655746384
 30
0.0
 11
1643.791454278737
 21
214.2970930746384
 31
0.0
  0
LINE
  5
1F7A
330
1F
100
AcDbEntity
  8
0
  6
ByBlock
 62
     0
370
    -2
100
AcDbLine
 10
1646.291454278737
 20
214.9669655746384
 30
0.0
 11
1643.791454278737
 21
214.9669655746384
 31
0.0
  0
TEXT
  5
1F7B
330
1F
100
AcDbEntity
  8
0
 62
     4
100
AcDbText
 10
1542.60352805895
 20
262.845200351372
 30
0.0
 40
3.0
  1
425
 50
90.0
100
AcDbText
  0
LINE
  5
1F7C
330
1F
100
AcDbEntity
  8
0
  6
ByBlock
 62
     0
370
    -2
100
AcDbLine
 10
1543.89840055895
 20
226.845200351372
 30
0.0
 11
1543.22852805895
 21
224.345200351372
 31
0.0
  0
LINE
  5
1F7D
330
1F
100
AcDbEntity
  8
0
  6
ByBlock
 62
     0
370
    -2
100
AcDbLine
 10
1543.22852805895
 20
224.345200351372
 30
0.0
 11
1542.55865555895
 21
226.845200351372
 31
0.0
  0
LINE
  5
1F7E
330
1F
100
AcDbEntity
  8
0
  6
ByBlock
 62
     0
370
    -2
100
AcDbLine
 10
1543.22852805895
 20
224.345200351372
 30
0.0
 11
1543.22852805895
 21
226.845200351372
 31
0.0
  0
LINE
  5
1F7F
330
1F
100
AcDbEntity
  8
0
  6
ByBlock
 62
     0
370
    -2
100
AcDbLine
 10
1542.55865555895
 20
306.845200351372
 30
0.0
 11
1543.22852805895
 21
309.345200351372
 31
0.0
  0
LINE
  5
1F80
330
1F
100
AcDbEntity
  8
0
  6
ByBlock
 62
     0
370
    -2
100
AcDbLine
 10
1543.22852805895
 20
309.345200351372
 30
0.0
 11
1543.89840055895
 21
306.845200351372
 31
0.0
  0
LINE
  5
1F81
330
1F
100
AcDbEntity
  8
0
  6
ByBlock
 62
     0
370
    -2
100
AcDbLine
 10
1543.22852805895
 20
309.345200351372
 30
0.0
 11
1543.22852805895
 21
306.845200351372
 31
0.0
  0
LINE
  5
1F82
330
1F
100
AcDbEntity
  8
0
100
AcDbLine
 10
1655.876439990272
 20
306.1862657243907
 30
0.0
 11
1661.353614965038
 21
325.5453678429049
 31
0.0
1001
ACAD
1000
DSTYLE
1002
{
1070
   147
1040
0.625
1070
    77
1070
     0
1002
}
  0
LINE
  5
1F83
330
1F
100
AcDbEntity
  8
0
100
AcDbLine
 10
1661.353614965038
 20
325.5453678429049
 30
0.0
 11
1663.853614965038
 21
325.5453678429049
 31
0.0
1001
ACAD
1000
DSTYLE
1002
{
1070
   147
1040
0.625
1070
    77
1070
     0
1002
}
  0
LINE
  5
1F84
330
1F
100
AcDbEntity
  8
0
  6
ByBlock
 62
     0
370
    -2
100
AcDbLine
 10
1656.521011202509
 20
306.0039003806106
 30
0.0
 11
1655.195842772966
 21
303.7806914836335
 31
0.0
  0
LINE
  5
1F85
330
1F
100
AcDbEntity
  8
0
  6
ByBlock
 62
     0
370
    -2
100
AcDbLine
 10
1655.195842772966
 20
303.7806914836335
 30
0.0
 11
1655.231868778036
 21
306.3686310681708
 31
0.0
  0
LINE
  5
1F86
330
1F
100
AcDbEntity
  8
0
  6
ByBlock
 62
     0
370
    -2
100
AcDbLine
 10
1655.195842772966
 20
303.7806914836335
 30
0.0
 11
1655.876439990272
 21
306.1862657243907
 31
0.0
  0
ENDSEC
  0
SECTION
  2
OBJECTS
  0
DICTIONARY
  5
C
330
0
100
AcDbDictionary
281
     1
  3
ACAD_2007HEADERVARS_RT
350
1F8B
  3
ACAD_COLOR
350
73
  3
ACAD_GROUP
350
D
  3
ACAD_LAYOUT
350
1A
  3
ACAD_MATERIAL
350
72
  3
ACAD_MLEADERSTYLE
350
168
  3
ACAD_MLINESTYLE
350
17
  3
ACAD_PLOTSETTINGS
350
19
  3
ACAD_PLOTSTYLENAME
350
E
  3
ACAD_SCALELIST
350
156
  3
ACAD_TABLESTYLE
350
86
  3
ACAD_VISUALSTYLE
350
99
  3
ACDB_RECOMPOSE_DATA
350
1F89
  3
AcDbVariableDictionary
350
66
  3
AEC_PROPERTY_SET_DEFS
350
1152
  3
DWGPROPS
350
1F8A
  0
DICTIONARY
  5
AE9
330
8
100
AcDbDictionary
280
     1
281
     1
  0
DICTIONARY
  5
DD
330
2
100
AcDbDictionary
280
     1
281
     1
  3
ACAD_LAYERSTATES
360
DE
  0
DICTIONARY
  5
8E9
330
10
100
AcDbDictionary
280
     1
281
     1
  3
ADSK_XREC_LAYER_RECONCILED
360
129A
  0
DICTIONARY
  5
324
330
1F
100
AcDbDictionary
280
     1
281
     1
  3
ACAD_SORTENTS
360
325
  0
DICTIONARY
  5
F2C
330
E22
100
AcDbDictionary
280
     1
281
     1
  3
ACAD_SORTENTS
360
F2D
  0
DICTIONARY
  5
1F8B
102
{ACAD_REACTORS
330
C
102
}
330
C
100
AcDbDictionary
281
     1
  3
DIMARCSYM
350
1F8D
  3
DIMFXL
350
1F8C
  3
DIMJOGANG
350
1F8E
  0
DICTIONARY
  5
73
102
{ACAD_REACTORS
330
C
102
}
330
C
100
AcDbDictionary
281
     1
  0
DICTIONARY
  5
D
102
{ACAD_REACTORS
330
C
102
}
330
C
100
AcDbDictionary
281
     1
  0
DICTIONARY
  5
1A
102
{ACAD_REACTORS
330
C
102
}
330
C
100
AcDbDictionary
281
     1
  3
Model
350
22
  3
レイアウト1
350
59
  3
レイアウト2
350
5E
  0
DICTIONARY
  5
72
102
{ACAD_REACTORS
330
C
102
}
330
C
100
AcDbDictionary
281
     1
  3
ByBlock
350
97
  3
ByLayer
350
96
  3
Global
350
98
  0
DICTIONARY
  5
168
102
{ACAD_REACTORS
330
C
102
}
330
C
100
AcDbDictionary
281
     1
  3
Standard
350
169
  0
DICTIONARY
  5
17
102
{ACAD_REACTORS
330
C
102
}
330
C
100
AcDbDictionary
281
     1
  3
Standard
350
18
  0
DICTIONARY
  5
19
102
{ACAD_REACTORS
330
C
102
}
330
C
100
AcDbDictionary
281
     1
  0
ACDBDICTIONARYWDFLT
  5
E
102
{ACAD_REACTORS
330
C
102
}
330
C
100
AcDbDictionary
281
     1
  3
Normal
350
F
100
AcDbDictionaryWithDefault
340
F
  0
DICTIONARY
  5
156
102
{ACAD_REACTORS
330
C
102
}
330
C
100
AcDbDictionary
281
     1
  3
A0
350
157
  3
A1
350
158
  3
A2
350
159
  3
A3
350
15A
  3
A4
350
15B
  3
A5
350
15C
  3
A6
350
15D
  3
A7
350
15E
  3
A8
350
15F
  3
A9
350
160
  3
B0
350
161
  3
B1
350
162
  3
B2
350
163
  3
B3
350
164
  3
B4
350
165
  3
B5
350
166
  3
B6
350
167
  0
DICTIONARY
  5
86
102
{ACAD_REACTORS
330
C
102
}
330
C
100
AcDbDictionary
281
     1
  3
Standard
350
87
  3
部品表
350
D97
  0
DICTIONARY
  5
99
102
{ACAD_REACTORS
330
C
102
}
330
C
100
AcDbDictionary
281
     1
  3
2dWireframe
350
9F
  3
3D Hidden
350
A1
  3
3dWireframe
350
A0
  3
Basic
350
9E
  3
Brighten
350
A5
  3
ColorChange
350
A9
  3
Conceptual
350
A2
  3
Dim
350
A4
  3
EdgeColorOff
350
155
  3
Facepattern
350
A8
  3
Flat
350
9A
  3
FlatWithEdges
350
9B
  3
Gouraud
350
9C
  3
GouraudWithEdges
350
9D
  3
Hidden
350
14D
  3
JitterOff
350
153
  3
Linepattern
350
A7
  3
OverhangOff
350
154
  3
Realistic
350
A3
  3
Shaded
350
152
  3
Shaded with edges
350
151
  3
Shades of Gray
350
14E
  3
Sketchy
350
14F
  3
Thicken
350
A6
  3
Wireframe
350
14C
  3
X-Ray
350
150
  0
XRECORD
  5
1F89
102
{ACAD_REACTORS
330
C
102
}
330
C
100
AcDbXrecord
280
     1
 90
        1
330
87
330
D97
  0
DICTIONARY
  5
66
102
{ACAD_REACTORS
330
C
102
}
330
C
100
AcDbDictionary
281
     1
  3
CANNOSCALE
350
24A
  3
CMLEADERSTYLE
350
248
  3
CTABLESTYLE
350
89
  3
DIMASSOC
350
67
  3
HIDETEXT
350
6B
  3
INDEXCTL
350
B30
  3
LAYEREVAL
350
24C
  3
LAYERNOTIFY
350
24D
  3
LIGHTINGUNITS
350
24B
  3
MSLTSCALE
350
249
  3
SORTENTS
350
B2F
  3
XCLIPFRAME
350
1EEC
  0
DICTIONARY
  5
1152
102
{ACAD_REACTORS
330
C
102
}
330
C
100
AcDbDictionary
281
     1
  0
XRECORD
  5
1F8A
102
{ACAD_REACTORS
330
C
102
}
330
C
100
AcDbXrecord
280
     1
  1
DWGPROPS COOKIE
  2

  3

  4

  6

  7

  8
imamura
  9

300
=
301
=
302
=
303
=
304
=
305
=
306
=
307
=
308
=
309
=
 40
0.4613970833333334
 41
2458807.553720614
 42
2459914.684347905
  1

 90
        0
  0
DICTIONARY
  5
DE
102
{ACAD_REACTORS
330
DD
102
}
330
DD
100
AcDbDictionary
281
     1
  0
XRECORD
  5
129A
102
{ACAD_REACTORS
330
8E9
102
}
330
8E9
100
AcDbXrecord
280
     1
290
     1
  0
SORTENTSTABLE
  5
325
102
{ACAD_REACTORS
330
324
102
}
330
324
100
AcDbSortentsTable
330
1F
331
1F74
  5
1C6C
331
1F31
  5
1F81
331
1F70
  5
1C9F
331
1DE9
  5
1F7A
331
1F6C
  5
1CB8
331
1F68
  5
1CBA
331
1937
  5
1965
331
1933
  5
1961
331
18F4
  5
1922
331
124E
  5
11A8
331
128D
  5
11E7
331
192F
  5
195D
331
18F0
  5
1919
331
124A
  5
11A4
331
1289
  5
11E3
331
192B
  5
1959
331
18EC
  5
1917
331
1CAF
  5
1F59
331
1246
  5
11A0
331
1285
  5
11DF
331
18E8
  5
1913
331
1281
  5
11DB
331
1CAB
  5
1F56
331
196D
  5
19A3
331
1242
  5
119C
331
1CA7
  5
1F50
331
1969
  5
199F
331
1CA3
  5
1F4D
331
1965
  5
199B
331
1AE0
  5
1CA4
331
1961
  5
1997
331
1217
  5
115E
331
119D
  5
F61
331
11D4
  5
F9E
331
1213
  5
1156
331
115E
  5
127B
331
1199
  5
F5C
331
11D0
  5
F99
331
120F
  5
10C2
331
120B
  5
105E
331
1156
  5
1277
331
1195
  5
F58
331
11CC
  5
F94
331
11C8
  5
F90
331
1191
  5
F54
331
1F64
  5
1CC1
331
1F60
  5
1CC3
331
1F5C
  5
1F7C
331
1C09
  5
1F3F
331
1C9C
  5
1F46
331
1DE7
  5
1F78
331
1C98
  5
1F42
331
1927
  5
1955
331
1923
  5
1951
331
127D
  5
11D7
331
195E
  5
1994
331
191F
  5
194D
331
1279
  5
11D3
331
195A
  5
1990
331
191B
  5
1949
331
18E4
  5
1904
331
1275
  5
11CF
331
18E0
  5
1900
331
1271
  5
11CB
331
19A0
  5
1BAF
331
1CD6
  5
190C
331
199C
  5
1B67
331
1998
  5
1B3D
331
1207
  5
1058
331
118D
  5
F3D
331
1203
  5
1053
331
123E
  5
1198
331
11FF
  5
104F
331
11FB
  5
104B
331
123A
  5
1194
331
11C4
  5
F8C
331
11C0
  5
F88
331
1BED
  5
1F3A
331
1F50
  5
1BB1
331
1F4C
  5
1C61
331
1E02
  5
1F85
331
1B09
  5
191E
331
1956
  5
1984
331
1917
  5
1945
331
1952
  5
1980
331
1913
  5
1941
331
126D
  5
11C7
331
194E
  5
197C
331
190F
  5
193D
331
18D8
  5
18EE
331
1269
  5
11C3
331
194A
  5
1978
331
190B
  5
1939
331
18D4
  5
18E4
331
1CCE
  5
1F75
331
1BAF
  5
1DE7
331
1265
  5
11BF
331
1BAB
  5
1CD4
331
1994
  5
19C2
331
1261
  5
11BB
331
1CC6
  5
1F70
331
1990
  5
19BE
331
1CC2
  5
1F6C
331
198C
  5
19BA
331
1988
  5
19B6
331
11F7
  5
1044
331
1236
  5
1190
331
1B66
  5
1CB2
331
11BC
  5
F83
331
11F3
  5
1033
331
1232
  5
118C
331
122E
  5
1187
331
1179
  5
128C
331
11B8
  5
F7F
331
11EF
  5
102F
331
11EB
  5
102B
331
122A
  5
117C
331
11B4
  5
F7A
331
11B0
  5
F75
331
1171
  5
1287
331
1F44
  5
1C6D
331
1F83
  5
18DE
331
1F40
  5
1CB5
331
1F7F
  5
1BC6
331
1C6C
  5
1910
331
1F7B
  5
1C09
331
1C68
  5
1912
331
1BBD
  5
1CCF
331
1F38
  5
1CBD
331
1C60
  5
1F32
331
1A9A
  5
191C
331
1946
  5
1974
331
1907
  5
1935
331
1942
  5
1970
331
1903
  5
1931
331
125D
  5
11B7
331
193E
  5
196C
331
18FF
  5
192D
331
1259
  5
11B3
331
1298
  5
1298
331
193A
  5
1968
331
18FB
  5
1929
331
1294
  5
1295
331
1CBE
  5
1F68
331
1255
  5
11AF
331
1290
  5
11EA
331
1CBA
  5
1F64
331
197C
  5
19B2
331
1251
  5
11AB
331
1CB6
  5
1F60
331
1B37
  5
1CAD
331
1978
  5
19AE
331
1CB2
  5
1F5C
331
1974
  5
19AA
331
1B33
  5
18FC
331
1970
  5
19A6
331
11E7
  5
1027
331
1226
  5
1174
331
11AC
  5
F71
331
11E3
  5
FF8
331
1222
  5
1170
331
121E
  5
1165
331
11A8
  5
F6C
331
11DF
  5
FF3
331
11DB
  5
FEE
331
121A
  5
1161
331
1165
  5
1282
331
11A4
  5
F68
331
1161
  5
127E
331
11A0
  5
F64
331
1F77
  5
1C6B
331
1F73
  5
1C99
331
1F6F
  5
1C9E
331
1DE8
  5
1F79
331
1F6B
  5
1CB7
331
1936
  5
1964
331
18F7
  5
1925
331
1932
  5
1960
331
18F3
  5
1921
331
124D
  5
11A7
331
128C
  5
11E6
331
192E
  5
195C
331
1249
  5
11A3
331
1288
  5
11E2
331
192A
  5
1958
331
18EB
  5
1916
331
1CAE
  5
1F58
331
1245
  5
119F
331
1284
  5
11DE
331
1280
  5
11DA
331
1CAA
  5
1F55
331
196C
  5
19A2
331
1241
  5
119B
331
1968
  5
199E
331
1CA2
  5
1F4C
331
1AE3
  5
1CA8
331
1964
  5
199A
331
1960
  5
1996
331
11D7
  5
FA1
331
1216
  5
115D
331
119C
  5
F60
331
11D3
  5
F9D
331
1212
  5
10F9
331
115D
  5
127A
331
120E
  5
10C1
331
1198
  5
F5B
331
11CF
  5
F98
331
120A
  5
105B
331
1194
  5
F57
331
11CB
  5
F93
331
1190
  5
F53
331
1F67
  5
1CB9
331
1F63
  5
1CC0
331
1F5F
  5
1CC6
331
1F5B
  5
1F80
331
1C9F
  5
1F49
331
1C08
  5
1F3E
331
1C9B
  5
1F45
331
1DE6
  5
1F77
331
1926
  5
1954
331
1922
  5
1950
331
127C
  5
11D6
331
195D
  5
1993
331
191E
  5
194C
331
18E7
  5
1906
331
1278
  5
11D2
331
1959
  5
198F
331
191A
  5
1948
331
1274
  5
11CE
331
1270
  5
11CA
331
199F
  5
1BAA
331
1CD5
  5
190A
331
1BB2
  5
1DEA
331
199B
  5
1B66
331
1206
  5
1056
331
118C
  5
F39
331
1202
  5
1052
331
123D
  5
1197
331
1188
  5
1293
331
11C7
  5
F8F
331
11FE
  5
104E
331
11FA
  5
104A
331
1239
  5
1193
331
1184
  5
1290
331
11C3
  5
F8B
331
1F57
  5
18E3
331
1C97
  5
1F41
331
1E01
  5
1F84
331
1F4B
  5
1C60
331
1955
  5
1983
331
1916
  5
1944
331
18DF
  5
18FE
331
1951
  5
197F
331
1912
  5
1940
331
18DB
  5
18F7
331
126C
  5
11C6
331
194D
  5
197B
331
190E
  5
193C
331
18D7
  5
18EC
331
1268
  5
11C2
331
1949
  5
1977
331
190A
  5
1938
331
1CCD
  5
1F76
331
1BAE
  5
1DE6
331
1997
  5
1B3C
331
1264
  5
11BE
331
1BAA
  5
1CCD
331
1993
  5
19C1
331
1260
  5
11BA
331
1CC5
  5
1F6F
331
198F
  5
19BD
331
1CC1
  5
1F6B
331
198B
  5
19B9
331
11BF
  5
F87
331
11F6
  5
1043
331
1235
  5
118F
331
1B65
  5
1CB1
331
117C
  5
128E
331
11BB
  5
F82
331
11F2
  5
1032
331
1231
  5
118B
331
122D
  5
1186
331
11B7
  5
F7D
331
11EE
  5
102E
331
11EA
  5
102A
331
1229
  5
117B
331
1174
  5
128A
331
11B3
  5
F79
331
1170
  5
1286
331
1F86
  5
18DB
331
1C6F
  5
190D
331
1F82
  5
18DD
331
1BC4
  5
1F37
331
1C6B
  5
1E02
331
1F3F
  5
1CB4
331
1F7E
  5
1C07
331
1C67
  5
1F33
331
1F7A
  5
1C68
331
1BC0
  5
1CCA
331
1A99
  5
1920
331
1945
  5
1973
331
1906
  5
1934
331
1941
  5
196F
331
1902
  5
1930
331
125C
  5
11B6
331
193D
  5
196B
331
18FE
  5
192C
331
1258
  5
11B2
331
1297
  5
1297
331
1939
  5
1967
331
18FA
  5
1928
331
1293
  5
1294
331
1CBD
  5
1F67
331
197F
  5
19B5
331
1254
  5
11AE
331
1CB9
  5
1F63
331
197B
  5
19B1
331
1B3A
  5
18F8
331
1250
  5
11AA
331
1CB5
  5
1F5F
331
1977
  5
19AD
331
1B36
  5
18F2
331
1CB1
  5
1F5B
331
1B32
  5
1CA9
331
1973
  5
19A9
331
11AF
  5
F74
331
11E6
  5
1020
331
1225
  5
1173
331
11AB
  5
F6F
331
11E2
  5
FF7
331
1221
  5
116E
331
121D
  5
1164
331
11A7
  5
F6B
331
11DE
  5
FF2
331
11DA
  5
FD4
331
1219
  5
1160
331
1164
  5
1281
331
11A3
  5
F67
331
1160
  5
127D
331
1F76
  5
1C6A
331
1F33
  5
1F83
331
1F72
  5
1C98
331
1F6E
  5
1C9D
331
1F6A
  5
1CB6
331
1C5F
  5
1907
331
1935
  5
1963
331
18F6
  5
1924
331
128F
  5
11E9
331
1931
  5
195F
331
18F2
  5
191D
331
124C
  5
11A6
331
128B
  5
11E5
331
192D
  5
195B
331
1248
  5
11A2
331
1287
  5
11E1
331
1929
  5
1957
331
18EA
  5
1915
331
1283
  5
11DD
331
1CAD
  5
1F57
331
196F
  5
19A5
331
1244
  5
119E
331
1CA9
  5
1F54
331
196B
  5
19A1
331
1240
  5
119A
331
1CA5
  5
1F4F
331
1AE6
  5
1CA2
331
1967
  5
199D
331
1CA1
  5
1F4B
331
1AE2
  5
1CA7
331
1963
  5
1999
331
119F
  5
F63
331
11D6
  5
FA0
331
1215
  5
115C
331
119B
  5
F5E
331
11D2
  5
F9C
331
1211
  5
10E1
331
120D
  5
108E
331
1197
  5
F5A
331
11CE
  5
F96
331
11CA
  5
F92
331
1209
  5
105A
331
1F66
  5
1CBC
331
1F62
  5
1CC5
331
1F5E
  5
1F7E
331
1F5A
  5
1F7F
331
1C9E
  5
1F48
331
1C07
  5
1F3D
331
1BC8
  5
1F39
331
1C9A
  5
1F44
331
1925
  5
1953
331
127F
  5
11D9
331
1921
  5
194F
331
127B
  5
11D5
331
195C
  5
1992
331
191D
  5
194B
331
1277
  5
11D1
331
1958
  5
1987
331
1919
  5
1947
331
18E2
  5
1903
331
1273
  5
11CD
331
199E
  5
1BA9
331
1CD4
  5
191B
331
1BB1
  5
1DE9
331
1CD0
  5
1909
331
199A
  5
1B65
331
1205
  5
1055
331
118F
  5
F4B
331
118B
  5
F38
331
1201
  5
1051
331
11FD
  5
104D
331
123C
  5
1196
331
1187
  5
1292
331
11C6
  5
F8E
331
11F9
  5
1048
331
1238
  5
1192
331
1183
  5
128F
331
11C2
  5
F8A
331
1F56
  5
18E1
331
1C96
  5
1F40
331
1F52
  5
1BC4
331
1F4A
  5
1C5E
331
1BE3
  5
1F38
331
1954
  5
1982
331
1915
  5
1943
331
18DE
  5
18FD
331
126F
  5
11C9
331
1950
  5
197E
331
1911
  5
193F
331
126B
  5
11C5
331
194C
  5
197A
331
190D
  5
193B
331
18D6
  5
18EB
331
1267
  5
11C1
331
1948
  5
1976
331
1909
  5
1937
331
1CCC
  5
1F73
331
1BAD
  5
1CD6
331
1996
  5
1B3B
331
1263
  5
11BD
331
1CC8
  5
1F72
331
1BA9
  5
1CC7
331
1992
  5
19C0
331
1CC4
  5
1F6E
331
198E
  5
19BC
331
1CC0
  5
1F6A
331
1B59
  5
1CAE
331
198A
  5
19B8
331
11BE
  5
F86
331
11F5
  5
1040
331
1234
  5
118E
331
1B64
  5
1CB0
331
1230
  5
118A
331
117B
  5
128D
331
11BA
  5
F81
331
11F1
  5
1031
331
122C
  5
1184
331
11B6
  5
F7C
331
11ED
  5
102D
331
11E9
  5
1029
331
1228
  5
1179
331
1173
  5
1289
331
11B2
  5
F77
331
1F46
  5
1C6F
331
1F85
  5
18DA
331
1F81
  5
1BED
331
1BC7
  5
1CC8
331
1C6E
  5
190E
331
1F3E
  5
1CB3
331
1F7D
  5
1BEF
331
1C6A
  5
1908
331
1BBF
  5
1CCC
331
1F3A
  5
1CBF
331
1F79
  5
1C67
331
1A9C
  5
1CA3
331
1C62
  5
1911
331
1944
  5
1972
331
1905
  5
1933
331
125F
  5
11B9
331
1940
  5
196E
331
1901
  5
192F
331
125B
  5
11B5
331
193C
  5
196A
331
18FD
  5
192B
331
1257
  5
11B1
331
1296
  5
1296
331
1938
  5
1966
331
18F9
  5
1927
331
1292
  5
11EC
331
1CBC
  5
1F66
331
197E
  5
19B4
331
1253
  5
11AD
331
1CB8
  5
1F62
331
1B39
  5
1CAB
331
197A
  5
19B0
331
1CB4
  5
1F5E
331
1B35
  5
1CAA
331
1976
  5
19AC
331
1CB0
  5
1F5A
331
1972
  5
19A8
331
1B31
  5
18FA
331
11AE
  5
F73
331
11E5
  5
100C
331
1224
  5
1172
331
116B
  5
1284
331
11AA
  5
F6E
331
11E1
  5
FF6
331
1220
  5
116B
331
121C
  5
1163
331
11A6
  5
F6A
331
11DD
  5
FF1
331
11D9
  5
FAB
331
1218
  5
115F
331
1163
  5
1280
331
11A2
  5
F66
331
1F75
  5
1C69
331
1F32
  5
1F82
331
1F71
  5
1C97
331
1DEA
  5
1F7B
331
1F6D
  5
1CA0
331
1C5E
  5
1E01
331
1F69
  5
1CBB
331
1934
  5
1962
331
18F5
  5
1923
331
124F
  5
11A9
331
128E
  5
11E8
331
1930
  5
195E
331
18F1
  5
191A
331
124B
  5
11A5
331
128A
  5
11E4
331
192C
  5
195A
331
18ED
  5
1918
331
1247
  5
11A1
331
1286
  5
11E0
331
1928
  5
1956
331
18E9
  5
1914
331
1282
  5
11DC
331
196E
  5
19A4
331
1B2D
  5
18E8
331
1243
  5
119D
331
1CA8
  5
1F51
331
196A
  5
19A0
331
1CA4
  5
1F4E
331
1966
  5
199C
331
1CA0
  5
1F4A
331
1AE1
  5
1CA5
331
1962
  5
1998
331
119E
  5
F62
331
11D5
  5
F9F
331
1214
  5
1157
331
115F
  5
127C
331
119A
  5
F5D
331
11D1
  5
F9A
331
1210
  5
10D5
331
120C
  5
1076
331
1157
  5
1278
331
1196
  5
F59
331
11CD
  5
F95
331
11C9
  5
F91
331
1208
  5
1059
331
1F65
  5
1CC2
331
1F61
  5
1CC4
331
1F5D
  5
1F7D
331
1C9D
  5
1F47
331
1C99
  5
1F43
331
1924
  5
1952
331
127E
  5
11D8
331
195F
  5
1995
331
1920
  5
194E
331
127A
  5
11D4
331
195B
  5
1991
331
191C
  5
194A
331
18E5
  5
1905
331
1276
  5
11D0
331
1918
  5
1946
331
18E1
  5
1902
331
1272
  5
11CC
331
19A1
  5
1BB0
331
199D
  5
1B6A
331
1BB0
  5
1DE8
331
1999
  5
1B64
331
118E
  5
F41
331
1204
  5
1054
331
123F
  5
1199
331
118A
  5
F37
331
1200
  5
1050
331
11FC
  5
104C
331
123B
  5
1195
331
1186
  5
1291
331
11C5
  5
F8D
331
11C1
  5
F89
331
11F8
  5
1047
331
1BEE
  5
1F3C
331
1F51
  5
1BC1
331
1E03
  5
1F86
331
1B0A
  5
191F
331
1BE2
  5
1F3B
331
1C71
  5
1E03
331
1957
  5
1985
331
1953
  5
1981
331
1914
  5
1942
331
126E
  5
11C8
331
194F
  5
197D
331
1910
  5
193E
331
18D9
  5
18F1
331
126A
  5
11C4
331
194B
  5
1979
331
190C
  5
193A
331
18D5
  5
18E9
331
1CCF
  5
190B
331
1266
  5
11C0
331
1908
  5
1936
331
1CCB
  5
1F74
331
1BAC
  5
1CD5
331
1995
  5
19C3
331
1262
  5
11BC
331
1CC7
  5
1F71
331
1991
  5
19BF
331
1CC3
  5
1F6D
331
198D
  5
19BB
331
1989
  5
19B7
331
1237
  5
1191
331
11BD
  5
F84
331
11F4
  5
1034
331
1233
  5
118D
331
1B63
  5
1CAF
331
122F
  5
1188
331
11B9
  5
F80
331
11F0
  5
1030
331
11EC
  5
102C
331
122B
  5
1183
331
11B5
  5
F7B
331
11E8
  5
1028
331
1172
  5
1288
331
11B1
  5
F76
331
1F45
  5
1C6E
331
1F84
  5
18D9
331
1F80
  5
1BE3
331
1BC6
  5
1CC9
331
1C6D
  5
190F
331
1BC2
  5
1F34
331
1C69
  5
1F31
331
1F7C
  5
1BEE
331
1BBE
  5
1CD0
331
1F39
  5
1CBE
331
1F78
  5
1C62
331
1A9B
  5
1CA1
331
1947
  5
1975
331
1943
  5
1971
331
1904
  5
1932
331
125E
  5
11B8
331
193F
  5
196D
331
1900
  5
192E
331
125A
  5
11B4
331
1299
  5
1299
331
193B
  5
1969
331
18FC
  5
192A
331
1CBF
  5
1F69
331
1256
  5
11B0
331
1295
  5
F5F
331
18F8
  5
1926
331
1291
  5
11EB
331
1CBB
  5
1F65
331
197D
  5
19B3
331
1B3C
  5
18F9
331
1252
  5
11AC
331
1CB7
  5
1F61
331
1979
  5
19AF
331
1B38
  5
18F5
331
1CB3
  5
1F5D
331
1975
  5
19AB
331
1B34
  5
1901
331
1971
  5
19A7
331
1227
  5
1175
331
11AD
  5
F72
331
11E4
  5
FF9
331
1223
  5
1171
331
116E
  5
1285
331
121F
  5
116A
331
116A
  5
1283
331
11A9
  5
F6D
331
11E0
  5
FF5
331
121B
  5
1162
331
11A5
  5
F69
331
11DC
  5
FEF
331
11D8
  5
FA2
331
1162
  5
127F
331
11A1
  5
F65
  0
SORTENTSTABLE
  5
F2D
102
{ACAD_REACTORS
330
F2C
102
}
330
F2C
100
AcDbSortentsTable
330
E22
  0
XRECORD
  5
1F8D
102
{ACAD_REACTORS
330
1F8B
102
}
330
1F8B
100
AcDbXrecord
280
     1
 70
     2
  0
XRECORD
  5
1F8C
102
{ACAD_REACTORS
330
1F8B
102
}
330
1F8B
100
AcDbXrecord
280
     1
 40
1.25
  0
XRECORD
  5
1F8E
102
{ACAD_REACTORS
330
1F8B
102
}
330
1F8B
100
AcDbXrecord
280
     1
 40
1.570796326794896
  0
LAYOUT
  5
22
102
{ACAD_XDICTIONARY
360
1F8F
102
}
102
{ACAD_REACTORS
330
1A
102
}
330
1A
100
AcDbPlotSettings
  1

  2
none_device
  4
ANSI_A_(8.50_x_11.00_Inches)
  6

 40
6.349999904632567
 41
19.04999923706055
 42
6.350006103515625
 43
19.04998779296875
 44
215.8999938964844
 45
279.3999938964844
 46
0.0
 47
0.0
 48
0.0
 49
0.0
140
0.0
141
0.0
142
1.0
143
2.584895464708373
 70
 11952
 72
     0
 73
     1
 74
     0
  7

 75
     0
147
0.3868628397755418
148
0.0
149
0.0
100
AcDbLayout
  1
Model
 70
     1
 71
     0
 10
0.0
 20
0.0
 11
12.0
 21
9.0
 12
0.0
 22
0.0
 32
0.0
 14
0.0
 24
0.0
 34
0.0
 15
0.0
 25
0.0
 35
0.0
146
0.0
 13
0.0
 23
0.0
 33
0.0
 16
1.0
 26
0.0
 36
0.0
 17
0.0
 27
1.0
 37
0.0
 76
     0
330
1F
331
94
  0
LAYOUT
  5
59
102
{ACAD_XDICTIONARY
360
1F91
102
}
102
{ACAD_REACTORS
330
1A
102
}
330
1A
100
AcDbPlotSettings
  1

  2
None
  4

  6

 40
0.0
 41
0.0
 42
0.0
 43
0.0
 44
0.0
 45
0.0
 46
0.0
 47
0.0
 48
0.0
 49
0.0
140
0.0
141
0.0
142
1.0
143
1.0
 70
   688
 72
     0
 73
     0
 74
     5
  7

 75
    16
147
1.0
148
0.0
149
0.0
100
AcDbLayout
  1
レイアウト1
 70
     1
 71
     1
 10
0.0
 20
0.0
 11
12.0
 21
9.0
 12
0.0
 22
0.0
 32
0.0
 14
0.0
 24
0.0
 34
0.0
 15
0.0
 25
0.0
 35
0.0
146
0.0
 13
0.0
 23
0.0
 33
0.0
 16
1.0
 26
0.0
 36
0.0
 17
0.0
 27
1.0
 37
0.0
 76
     0
330
58
  0
LAYOUT
  5
5E
102
{ACAD_XDICTIONARY
360
1F93
102
}
102
{ACAD_REACTORS
330
1A
102
}
330
1A
100
AcDbPlotSettings
  1

  2
None
  4

  6

 40
0.0
 41
0.0
 42
0.0
 43
0.0
 44
0.0
 45
0.0
 46
0.0
 47
0.0
 48
0.0
 49
0.0
140
0.0
141
0.0
142
1.0
143
1.0
 70
   688
 72
     0
 73
     0
 74
     5
  7

 75
    16
147
1.0
148
0.0
149
0.0
100
AcDbLayout
  1
レイアウト2
 70
     1
 71
     2
 10
0.0
 20
0.0
 11
12.0
 21
9.0
 12
0.0
 22
0.0
 32
0.0
 14
0.0
 24
0.0
 34
0.0
 15
0.0
 25
0.0
 35
0.0
146
0.0
 13
0.0
 23
0.0
 33
0.0
 16
1.0
 26
0.0
 36
0.0
 17
0.0
 27
1.0
 37
0.0
 76
     0
330
5D
  0
MATERIAL
  5
97
102
{ACAD_XDICTIONARY
360
12F7
102
}
102
{ACAD_REACTORS
330
72
102
}
330
72
100
AcDbMaterial
  1
ByBlock
 73
     1
 78
     1
172
     1
176
     1
270
     1
274
     1
  0
MATERIAL
  5
96
102
{ACAD_XDICTIONARY
360
12F5
102
}
102
{ACAD_REACTORS
330
72
102
}
330
72
100
AcDbMaterial
  1
ByLayer
 73
     1
 78
     1
172
     1
176
     1
270
     1
274
     1
  0
MATERIAL
  5
98
102
{ACAD_XDICTIONARY
360
12F9
102
}
102
{ACAD_REACTORS
330
72
102
}
330
72
100
AcDbMaterial
  1
Global
 73
     1
 78
     1
172
     1
176
     1
270
     1
274
     1
  0
MLEADERSTYLE
  5
169
102
{ACAD_REACTORS
330
168
102
}
330
168
100
AcDbMLeaderStyle
170
     2
171
     1
172
     0
 90
        2
 40
0.0
 41
0.0
173
     1
 91
-1056964608
340
14
 92
       -2
290
     1
 42
2.0
291
     1
 43
0.36
  3
Standard
 44
4.0
300

342
11
174
     1
178
     6
175
     1
176
     0
 93
-1056964608
 45
4.0
292
     0
297
     0
 46
4.0
 94
-1056964608
 47
1.0
 49
1.0
140
1.0
293
     1
141
0.0
294
     1
177
     0
142
1.0
295
     0
296
     0
143
0.125
1001
ACAD_MLEADERVER
1070
     2
  0
MLINESTYLE
  5
18
102
{ACAD_REACTORS
330
17
102
}
330
17
100
AcDbMlineStyle
  2
STANDARD
 70
     0
  3

 62
   256
 51
90.0
 52
90.0
 71
     2
 49
0.5
 62
   256
  6
BYLAYER
 49
-0.5
 62
   256
  6
BYLAYER
  0
ACDBPLACEHOLDER
  5
F
102
{ACAD_REACTORS
330
E
102
}
330
E
  0
SCALE
  5
157
102
{ACAD_REACTORS
330
156
102
}
330
156
100
AcDbScale
 70
     0
300
1:1
140
1.0
141
1.0
290
     1
  0
SCALE
  5
158
102
{ACAD_REACTORS
330
156
102
}
330
156
100
AcDbScale
 70
     0
300
1:2
140
1.0
141
2.0
290
     0
  0
SCALE
  5
159
102
{ACAD_REACTORS
330
156
102
}
330
156
100
AcDbScale
 70
     0
300
1:4
140
1.0
141
4.0
290
     0
  0
SCALE
  5
15A
102
{ACAD_REACTORS
330
156
102
}
330
156
100
AcDbScale
 70
     0
300
1:5
140
1.0
141
5.0
290
     0
  0
SCALE
  5
15B
102
{ACAD_REACTORS
330
156
102
}
330
156
100
AcDbScale
 70
     0
300
1:8
140
1.0
141
8.0
290
     0
  0
SCALE
  5
15C
102
{ACAD_REACTORS
330
156
102
}
330
156
100
AcDbScale
 70
     0
300
1:10
140
1.0
141
10.0
290
     0
  0
SCALE
  5
15D
102
{ACAD_REACTORS
330
156
102
}
330
156
100
AcDbScale
 70
     0
300
1:16
140
1.0
141
16.0
290
     0
  0
SCALE
  5
15E
102
{ACAD_REACTORS
330
156
102
}
330
156
100
AcDbScale
 70
     0
300
1:20
140
1.0
141
20.0
290
     0
  0
SCALE
  5
15F
102
{ACAD_REACTORS
330
156
102
}
330
156
100
AcDbScale
 70
     0
300
1:30
140
1.0
141
30.0
290
     0
  0
SCALE
  5
160
102
{ACAD_REACTORS
330
156
102
}
330
156
100
AcDbScale
 70
     0
300
1:40
140
1.0
141
40.0
290
     0
  0
SCALE
  5
161
102
{ACAD_REACTORS
330
156
102
}
330
156
100
AcDbScale
 70
     0
300
1:50
140
1.0
141
50.0
290
     0
  0
SCALE
  5
162
102
{ACAD_REACTORS
330
156
102
}
330
156
100
AcDbScale
 70
     0
300
1:100
140
1.0
141
100.0
290
     0
  0
SCALE
  5
163
102
{ACAD_REACTORS
330
156
102
}
330
156
100
AcDbScale
 70
     0
300
2:1
140
2.0
141
1.0
290
     0
  0
SCALE
  5
164
102
{ACAD_REACTORS
330
156
102
}
330
156
100
AcDbScale
 70
     0
300
4:1
140
4.0
141
1.0
290
     0
  0
SCALE
  5
165
102
{ACAD_REACTORS
330
156
102
}
330
156
100
AcDbScale
 70
     0
300
8:1
140
8.0
141
1.0
290
     0
  0
SCALE
  5
166
102
{ACAD_REACTORS
330
156
102
}
330
156
100
AcDbScale
 70
     0
300
10:1
140
10.0
141
1.0
290
     0
  0
SCALE
  5
167
102
{ACAD_REACTORS
330
156
102
}
330
156
100
AcDbScale
 70
     0
300
100:1
140
100.0
141
1.0
290
     0
  0
TABLESTYLE
  5
87
102
{ACAD_XDICTIONARY
360
AE1
102
}
102
{ACAD_REACTORS
330
86
102
}
330
86
100
AcDbTableStyle
  3
Standard
 70
     0
 71
     0
 40
0.06
 41
0.06
280
     0
281
     0
  7
Standard
140
0.18
170
     2
 62
     0
 63
     7
283
     0
274
    -2
284
     1
 64
     0
275
    -2
285
     1
 65
     0
276
    -2
286
     1
 66
     0
277
    -2
287
     1
 67
     0
278
    -2
288
     1
 68
     0
279
    -2
289
     1
 69
     0
  7
Standard
140
0.25
170
     5
 62
     0
 63
     7
283
     0
274
    -2
284
     1
 64
     0
275
    -2
285
     1
 65
     0
276
    -2
286
     1
 66
     0
277
    -2
287
     1
 67
     0
278
    -2
288
     1
 68
     0
279
    -2
289
     1
 69
     0
  7
Standard
140
0.18
170
     5
 62
     0
 63
     7
283
     0
274
    -2
284
     1
 64
     0
275
    -2
285
     1
 65
     0
276
    -2
286
     1
 66
     0
277
    -2
287
     1
 67
     0
278
    -2
288
     1
 68
     0
279
    -2
289
     1
 69
     0
  0
TABLESTYLE
  5
D97
102
{ACAD_XDICTIONARY
360
D98
102
}
102
{ACAD_REACTORS
330
86
102
}
330
86
100
AcDbTableStyle
  3
Standard
 70
     1
 71
     0
 40
1.5
 41
0.5
280
     0
281
     0
  7
高3.2
140
0.18
170
     7
 62
     3
 63
     7
283
     0
274
    -2
284
     1
 64
     3
275
    -2
285
     1
 65
     7
276
    -2
286
     1
 66
     3
277
    -2
287
     1
 67
     3
278
    -2
288
     1
 68
     7
279
    -2
289
     1
 69
     3
  7
高3.2
140
0.25
170
     8
 62
     3
 63
     7
283
     0
274
    -2
284
     1
 64
     0
275
    -2
285
     1
 65
     0
276
    -2
286
     1
 66
     0
277
    -2
287
     1
 67
     0
278
    -2
288
     1
 68
     0
279
    -2
289
     1
 69
     0
  7
高3.2
140
0.18
170
     7
 62
     3
 63
     7
283
     0
274
    -2
284
     1
 64
     3
275
    -2
285
     1
 65
     7
276
    -2
286
     1
 66
     3
277
    -2
287
     1
 67
     3
278
    -2
288
     1
 68
     7
279
    -2
289
     1
 69
     3
  0
VISUALSTYLE
  5
9F
102
{ACAD_XDICTIONARY
360
1FA0
102
}
102
{ACAD_REACTORS
330
99
102
}
330
99
100
AcDbVisualStyle
  2

 70
     4
 71
     0
 72
     2
 73
     1
 90
        0
 40
-0.6
 41
-30.0
 62
     5
 63
     7
 74
     1
 91
        4
 64
     7
 65
   257
 75
     1
175
     1
 42
1.0
 92
        0
 66
   257
 43
1.0
 76
     1
 77
     6
 78
     2
 67
     7
 79
     5
170
     0
171
     0
290
     0
174
     0
 93
        1
 44
0.0
173
     0
291
     0
 45
0.0
1001
ACAD
1000
AcDbSavedByObjectVersion
1070
     0
  0
VISUALSTYLE
  5
A1
102
{ACAD_XDICTIONARY
360
1FA4
102
}
102
{ACAD_REACTORS
330
99
102
}
330
99
100
AcDbVisualStyle
  2

 70
     6
 71
     1
 72
     2
 73
     2
 90
        0
 40
-0.6
 41
-30.0
 62
     5
 63
     7
 74
     2
 91
        2
 64
     7
 65
   257
 75
     2
175
     1
 42
40.0
 92
        0
 66
   257
 43
1.0
 76
     1
 77
     6
 78
     2
 67
     7
 79
     3
170
     0
171
     0
290
     0
174
     0
 93
        1
 44
0.0
173
     0
291
     0
 45
0.0
1001
ACAD
1000
AcDbSavedByObjectVersion
1070
     0
  0
VISUALSTYLE
  5
A0
102
{ACAD_XDICTIONARY
360
1FA2
102
}
102
{ACAD_REACTORS
330
99
102
}
330
99
100
AcDbVisualStyle
  2

 70
     5
 71
     0
 72
     2
 73
     1
 90
        0
 40
-0.6
 41
-30.0
 62
     5
 63
     7
 74
     1
 91
        4
 64
     7
 65
   257
 75
     1
175
     1
 42
1.0
 92
        0
 66
   257
 43
1.0
 76
     1
 77
     6
 78
     2
 67
     7
 79
     5
170
     0
171
     0
290
     0
174
     0
 93
        1
 44
0.0
173
     0
291
     0
 45
0.0
1001
ACAD
1000
AcDbSavedByObjectVersion
1070
     0
  0
VISUALSTYLE
  5
9E
102
{ACAD_XDICTIONARY
360
1F9E
102
}
102
{ACAD_REACTORS
330
99
102
}
330
99
100
AcDbVisualStyle
  2

 70
     7
 71
     1
 72
     0
 73
     1
 90
        0
 40
-0.6
 41
-30.0
 62
     5
 63
     7
 74
     0
 91
        4
 64
     7
 65
   257
 75
     1
175
     1
 42
1.0
 92
        8
 66
     7
 43
1.0
 76
     1
 77
     6
 78
     2
 67
     7
 79
     5
170
     0
171
     0
290
     0
174
     0
 93
        1
 44
0.0
173
     0
291
     1
 45
0.0
1001
ACAD
1000
AcDbSavedByObjectVersion
1070
     0
  0
VISUALSTYLE
  5
A5
102
{ACAD_XDICTIONARY
360
1FAC
102
}
102
{ACAD_REACTORS
330
99
102
}
330
99
100
AcDbVisualStyle
  2

 70
    12
 71
     2
 72
     2
 73
     1
 90
        0
 40
-0.6
 41
-30.0
 62
     5
 63
     7
 74
     1
 91
        4
 64
     7
 65
   257
 75
     1
175
     1
 42
1.0
 92
        8
 66
     7
 43
1.0
 76
     1
 77
     6
 78
     2
 67
     7
 79
     5
170
     0
171
     0
290
     0
174
     0
 93
        1
 44
50.0
173
     0
291
     1
 45
0.0
1001
ACAD
1000
AcDbSavedByObjectVersion
1070
     0
  0
VISUALSTYLE
  5
A9
102
{ACAD_XDICTIONARY
360
1FB4
102
}
102
{ACAD_REACTORS
330
99
102
}
330
99
100
AcDbVisualStyle
  2

 70
    16
 71
     2
 72
     2
 73
     3
 90
        0
 40
-0.6
 41
-30.0
 62
     5
 63
     8
 74
     1
 91
        4
 64
     7
 65
   257
 75
     1
175
     1
 42
1.0
 92
        8
 66
     8
 43
1.0
 76
     1
 77
     6
 78
     2
 67
     7
 79
     5
170
     0
171
     0
290
     0
174
     0
 93
        1
 44
0.0
173
     0
291
     1
 45
0.0
1001
ACAD
1000
AcDbSavedByObjectVersion
1070
     0
  0
VISUALSTYLE
  5
A2
102
{ACAD_XDICTIONARY
360
1FA6
102
}
102
{ACAD_REACTORS
330
99
102
}
330
99
100
AcDbVisualStyle
  2

 70
     9
 71
     3
 72
     2
 73
     1
 90
        0
 40
-0.6
 41
-30.0
 62
     5
 63
     7
 74
     2
 91
        2
 64
     7
 65
   257
 75
     1
175
     1
 42
40.0
 92
        8
 66
     7
 43
1.0
 76
     1
 77
     6
 78
     2
 67
     7
 79
     3
170
     0
171
     0
290
     0
174
     0
 93
        1
 44
0.0
173
     0
291
     0
 45
0.0
1001
ACAD
1000
AcDbSavedByObjectVersion
1070
     0
  0
VISUALSTYLE
  5
A4
102
{ACAD_XDICTIONARY
360
1FAA
102
}
102
{ACAD_REACTORS
330
99
102
}
330
99
100
AcDbVisualStyle
  2

 70
    11
 71
     2
 72
     2
 73
     1
 90
        0
 40
-0.6
 41
-30.0
 62
     5
 63
     7
 74
     1
 91
        4
 64
     7
 65
   257
 75
     1
175
     1
 42
1.0
 92
        8
 66
     7
 43
1.0
 76
     1
 77
     6
 78
     2
 67
     7
 79
     5
170
     0
171
     0
290
     0
174
     0
 93
        1
 44
-50.0
173
     0
291
     1
 45
0.0
1001
ACAD
1000
AcDbSavedByObjectVersion
1070
     0
  0
VISUALSTYLE
  5
155
102
{ACAD_XDICTIONARY
360
1FC8
102
}
102
{ACAD_REACTORS
330
99
102
}
330
99
100
AcDbVisualStyle
  2

 70
    22
 71
     2
 72
     2
 73
     0
 90
        0
 40
-0.6
 41
-30.0
 62
     5
 63
     7
 74
     1
 91
        4
 64
     7
 65
   257
 75
     1
175
     1
 42
1.0
 92
        8
 66
     7
 43
1.0
 76
     1
 77
     6
 78
     2
 67
     7
 79
     5
170
     0
171
     0
290
     0
174
     0
 93
        1
 44
0.0
173
     0
291
     1
 45
0.0
1001
ACAD
1000
AcDbSavedByObjectVersion
1070
     0
  0
VISUALSTYLE
  5
A8
102
{ACAD_XDICTIONARY
360
1FB2
102
}
102
{ACAD_REACTORS
330
99
102
}
330
99
100
AcDbVisualStyle
  2

 70
    15
 71
     2
 72
     2
 73
     1
 90
        0
 40
-0.6
 41
-30.0
 62
     5
 63
     7
 74
     1
 91
        4
 64
     7
 65
   257
 75
     1
175
     1
 42
1.0
 92
        8
 66
     7
 43
1.0
 76
     1
 77
     6
 78
     2
 67
     7
 79
     5
170
     0
171
     0
290
     0
174
     0
 93
        1
 44
0.0
173
     0
291
     1
 45
0.0
1001
ACAD
1000
AcDbSavedByObjectVersion
1070
     0
  0
VISUALSTYLE
  5
9A
102
{ACAD_XDICTIONARY
360
1F96
102
}
102
{ACAD_REACTORS
330
99
102
}
330
99
100
AcDbVisualStyle
  2

 70
     0
 71
     2
 72
     1
 73
     1
 90
        2
 40
-0.6
 41
30.0
 62
     5
 63
     7
 74
     0
 91
        4
 64
     7
 65
   257
 75
     1
175
     1
 42
1.0
 92
        8
 66
     7
 43
1.0
 76
     1
 77
     6
 78
     2
 67
     7
 79
     5
170
     0
171
     0
290
     0
174
     0
 93
        1
 44
0.0
173
     0
291
     1
 45
0.0
1001
ACAD
1000
AcDbSavedByObjectVersion
1070
     0
  0
VISUALSTYLE
  5
9B
102
{ACAD_XDICTIONARY
360
1F98
102
}
102
{ACAD_REACTORS
330
99
102
}
330
99
100
AcDbVisualStyle
  2

 70
     1
 71
     2
 72
     1
 73
     1
 90
        2
 40
-0.6
 41
30.0
 62
     5
 63
     7
 74
     1
 91
        4
 64
     7
 65
   257
 75
     1
175
     1
 42
1.0
 92
        0
 66
   257
 43
1.0
 76
     1
 77
     6
 78
     2
 67
     7
 79
     5
170
     0
171
     0
290
     0
174
     0
 93
        1
 44
0.0
173
     0
291
     1
 45
0.0
1001
ACAD
1000
AcDbSavedByObjectVersion
1070
     0
  0
VISUALSTYLE
  5
9C
102
{ACAD_XDICTIONARY
360
1F9A
102
}
102
{ACAD_REACTORS
330
99
102
}
330
99
100
AcDbVisualStyle
  2

 70
     2
 71
     2
 72
     2
 73
     1
 90
        2
 40
-0.6
 41
30.0
 62
     5
 63
     7
 74
     0
 91
        4
 64
     7
 65
   257
 75
     1
175
     1
 42
1.0
 92
        0
 66
     7
 43
1.0
 76
     1
 77
     6
 78
     2
 67
     7
 79
     5
170
     0
171
     0
290
     0
174
     0
 93
        1
 44
0.0
173
     0
291
     1
 45
0.0
1001
ACAD
1000
AcDbSavedByObjectVersion
1070
     0
  0
VISUALSTYLE
  5
9D
102
{ACAD_XDICTIONARY
360
1F9C
102
}
102
{ACAD_REACTORS
330
99
102
}
330
99
100
AcDbVisualStyle
  2

 70
     3
 71
     2
 72
     2
 73
     1
 90
        2
 40
-0.6
 41
30.0
 62
     5
 63
     7
 74
     1
 91
        4
 64
     7
 65
   257
 75
     1
175
     1
 42
1.0
 92
        0
 66
   257
 43
1.0
 76
     1
 77
     6
 78
     2
 67
     7
 79
     5
170
     0
171
     0
290
     0
174
     0
 93
        1
 44
0.0
173
     0
291
     1
 45
0.0
1001
ACAD
1000
AcDbSavedByObjectVersion
1070
     0
  0
VISUALSTYLE
  5
14D
102
{ACAD_XDICTIONARY
360
1FB8
102
}
102
{ACAD_REACTORS
330
99
102
}
330
99
100
AcDbVisualStyle
  2

 70
     6
 71
     1
 72
     2
 73
     2
 90
        0
 40
-0.6
 41
-30.0
 62
     5
 63
     7
 74
     2
 91
        2
 64
     7
 65
   257
 75
     2
175
     1
 42
40.0
 92
        0
 66
   257
 43
1.0
 76
     1
 77
     6
 78
     2
 67
     7
 79
     3
170
     0
171
     0
290
     0
174
     0
 93
        1
 44
0.0
173
     0
291
     0
 45
0.0
1001
ACAD
1000
AcDbSavedByObjectVersion
1070
     0
  0
VISUALSTYLE
  5
153
102
{ACAD_XDICTIONARY
360
1FC4
102
}
102
{ACAD_REACTORS
330
99
102
}
330
99
100
AcDbVisualStyle
  2

 70
    20
 71
     2
 72
     2
 73
     0
 90
        0
 40
-0.6
 41
-30.0
 62
     5
 63
     7
 74
     1
 91
        4
 64
     7
 65
   257
 75
     1
175
     1
 42
1.0
 92
       10
 66
     7
 43
1.0
 76
     1
 77
     6
 78
     2
 67
     7
 79
     5
170
     0
171
     0
290
     0
174
     0
 93
        1
 44
0.0
173
     0
291
     1
 45
0.0
1001
ACAD
1000
AcDbSavedByObjectVersion
1070
     0
  0
VISUALSTYLE
  5
A7
102
{ACAD_XDICTIONARY
360
1FB0
102
}
102
{ACAD_REACTORS
330
99
102
}
330
99
100
AcDbVisualStyle
  2

 70
    14
 71
     2
 72
     2
 73
     1
 90
        0
 40
-0.6
 41
-30.0
 62
     5
 63
     7
 74
     1
 91
        4
 64
     7
 65
   257
 75
     7
175
     7
 42
1.0
 92
        8
 66
     7
 43
1.0
 76
     1
 77
     6
 78
     2
 67
     7
 79
     5
170
     0
171
     0
290
     0
174
     0
 93
        1
 44
0.0
173
     0
291
     1
 45
0.0
1001
ACAD
1000
AcDbSavedByObjectVersion
1070
     0
  0
VISUALSTYLE
  5
154
102
{ACAD_XDICTIONARY
360
1FC6
102
}
102
{ACAD_REACTORS
330
99
102
}
330
99
100
AcDbVisualStyle
  2

 70
    21
 71
     2
 72
     2
 73
     0
 90
        0
 40
-0.6
 41
-30.0
 62
     5
 63
     7
 74
     1
 91
        4
 64
     7
 65
   257
 75
     1
175
     1
 42
1.0
 92
        9
 66
     7
 43
1.0
 76
     1
 77
     6
 78
     2
 67
     7
 79
     5
170
     0
171
     0
290
     0
174
     0
 93
        1
 44
0.0
173
     0
291
     1
 45
0.0
1001
ACAD
1000
AcDbSavedByObjectVersion
1070
     0
  0
VISUALSTYLE
  5
A3
102
{ACAD_XDICTIONARY
360
1FA8
102
}
102
{ACAD_REACTORS
330
99
102
}
330
99
100
AcDbVisualStyle
  2

 70
     8
 71
     2
 72
     2
 73
     1
 90
        0
 40
-0.6
 41
-30.0
 62
     5
 63
     7
 74
     1
 91
        0
 64
     7
 65
   257
 75
     1
175
     1
 42
1.0
 92
        8
 66
     8
 43
1.0
 76
     1
 77
     6
 78
     2
 67
     7
 79
     5
170
     0
171
     0
290
     0
174
     0
 93
       13
 44
0.0
173
     0
291
     0
 45
0.0
1001
ACAD
1000
AcDbSavedByObjectVersion
1070
     0
  0
VISUALSTYLE
  5
152
102
{ACAD_XDICTIONARY
360
1FC2
102
}
102
{ACAD_REACTORS
330
99
102
}
330
99
100
AcDbVisualStyle
  2

 70
    27
 71
     2
 72
     2
 73
     1
 90
        2
 40
-0.6
 41
30.0
 62
     5
 63
     7
 74
     0
 91
        4
 64
     7
 65
   257
 75
     1
175
     1
 42
1.0
 92
        8
 66
   257
 43
1.0
 76
     1
 77
     6
 78
     2
 67
     8
 79
     3
170
     0
171
     0
290
     0
174
     0
 93
        5
 44
0.0
173
     0
291
     0
 45
0.0
1001
ACAD
1000
AcDbSavedByObjectVersion
1070
     0
  0
VISUALSTYLE
  5
151
102
{ACAD_XDICTIONARY
360
1FC0
102
}
102
{ACAD_REACTORS
330
99
102
}
330
99
100
AcDbVisualStyle
  2

 70
    26
 71
     2
 72
     2
 73
     1
 90
        2
 40
-0.6
 41
30.0
 62
     5
 63
     7
 74
     1
 91
       10
 64
     7
 65
   257
 75
     2
175
     1
 42
1.0
 92
        8
 66
   257
 43
1.0
 76
     1
 77
     6
 78
     2
 67
     7
 79
     3
170
     0
171
     0
290
     0
174
     0
 93
        5
 44
0.0
173
     0
291
     0
 45
0.0
1001
ACAD
1000
AcDbSavedByObjectVersion
1070
     0
  0
VISUALSTYLE
  5
14E
102
{ACAD_XDICTIONARY
360
1FBA
102
}
102
{ACAD_REACTORS
330
99
102
}
330
99
100
AcDbVisualStyle
  2

 70
    23
 71
     2
 72
     2
 73
     3
 90
        0
 40
-0.6
 41
-30.0
 62
     5
 63
     7
 74
     2
 91
        2
 64
     7
 65
     7
 75
     1
175
     1
 42
40.0
 92
        8
 66
     7
 43
1.0
 76
     1
 77
     6
 78
     2
 67
     7
 79
     3
170
     0
171
     0
290
     0
174
     0
 93
        1
 44
0.0
173
     0
291
     0
 45
0.0
1001
ACAD
1000
AcDbSavedByObjectVersion
1070
     0
  0
VISUALSTYLE
  5
14F
102
{ACAD_XDICTIONARY
360
1FBC
102
}
102
{ACAD_REACTORS
330
99
102
}
330
99
100
AcDbVisualStyle
  2

 70
    24
 71
     1
 72
     2
 73
     2
 90
        0
 40
-0.6
 41
-30.0
 62
     5
 63
     7
 74
     2
 91
        2
 64
     7
 65
     7
 75
     1
175
     1
 42
40.0
 92
       11
 66
     7
 43
1.0
 76
     1
 77
     6
 78
     2
 67
     7
 79
     6
170
     0
171
     0
290
     0
174
     0
 93
        1
 44
0.0
173
     0
291
     0
 45
0.0
1001
ACAD
1000
AcDbSavedByObjectVersion
1070
     0
  0
VISUALSTYLE
  5
A6
102
{ACAD_XDICTIONARY
360
1FAE
102
}
102
{ACAD_REACTORS
330
99
102
}
330
99
100
AcDbVisualStyle
  2

 70
    13
 71
     2
 72
     2
 73
     1
 90
        0
 40
-0.6
 41
-30.0
 62
     5
 63
     7
 74
     1
 91
        4
 64
     7
 65
   257
 75
     1
175
     1
 42
1.0
 92
       12
 66
     7
 43
1.0
 76
     1
 77
     6
 78
     2
 67
     7
 79
     5
170
     0
171
     0
290
     0
174
     0
 93
        1
 44
0.0
173
     0
291
     1
 45
0.0
1001
ACAD
1000
AcDbSavedByObjectVersion
1070
     0
  0
VISUALSTYLE
  5
14C
102
{ACAD_XDICTIONARY
360
1FB6
102
}
102
{ACAD_REACTORS
330
99
102
}
330
99
100
AcDbVisualStyle
  2

 70
     5
 71
     0
 72
     2
 73
     0
 90
        0
 40
-0.6
 41
-30.0
 62
     5
 63
     7
 74
     1
 91
        4
 64
     7
 65
   257
 75
     1
175
     1
 42
1.0
 92
        0
 66
   257
 43
1.0
 76
     1
 77
     6
 78
     2
 67
     7
 79
     3
170
     0
171
     0
290
     0
174
     0
 93
        1
 44
0.0
173
     0
291
     0
 45
0.0
1001
ACAD
1000
AcDbSavedByObjectVersion
1070
     0
  0
VISUALSTYLE
  5
150
102
{ACAD_XDICTIONARY
360
1FBE
102
}
102
{ACAD_REACTORS
330
99
102
}
330
99
100
AcDbVisualStyle
  2

 70
    25
 71
     2
 72
     2
 73
     1
 90
        1
 40
0.5
 41
-30.0
 62
     5
 63
     7
 74
     1
 91
        0
 64
     7
 65
   257
 75
     1
175
     1
 42
1.0
 92
        8
 66
     7
 43
1.0
 76
     1
 77
     6
 78
     2
 67
     7
 79
     3
170
     0
171
     0
290
     0
174
     0
 93
       13
 44
0.0
173
     0
291
     0
 45
0.0
1001
ACAD
1000
AcDbSavedByObjectVersion
1070
     0
  0
DICTIONARYVAR
  5
24A
102
{ACAD_REACTORS
330
66
102
}
330
66
100
DictionaryVariables
280
     0
  1
1:1
  0
DICTIONARYVAR
  5
248
102
{ACAD_REACTORS
330
66
102
}
330
66
100
DictionaryVariables
280
     0
  1
STANDARD
  0
DICTIONARYVAR
  5
89
102
{ACAD_REACTORS
330
66
102
}
330
66
100
DictionaryVariables
280
     0
  1
STANDARD
  0
DICTIONARYVAR
  5
67
102
{ACAD_REACTORS
330
66
102
}
330
66
100
DictionaryVariables
280
     0
  1
2
  0
DICTIONARYVAR
  5
6B
102
{ACAD_REACTORS
330
66
102
}
330
66
100
DictionaryVariables
280
     0
  1
1
  0
DICTIONARYVAR
  5
B30
102
{ACAD_REACTORS
330
66
102
}
330
66
100
DictionaryVariables
280
     0
  1
0
  0
DICTIONARYVAR
  5
24C
102
{ACAD_REACTORS
330
66
102
}
330
66
100
DictionaryVariables
280
     0
  1
1
  0
DICTIONARYVAR
  5
24D
102
{ACAD_REACTORS
330
66
102
}
330
66
100
DictionaryVariables
280
     0
  1
15
  0
DICTIONARYVAR
  5
24B
102
{ACAD_REACTORS
330
66
102
}
330
66
100
DictionaryVariables
280
     0
  1
0
  0
DICTIONARYVAR
  5
249
102
{ACAD_REACTORS
330
66
102
}
330
66
100
DictionaryVariables
280
     0
  1
0
  0
DICTIONARYVAR
  5
B2F
102
{ACAD_REACTORS
330
66
102
}
330
66
100
DictionaryVariables
280
     0
  1
127
  0
DICTIONARYVAR
  5
1EEC
102
{ACAD_REACTORS
330
66
102
}
330
66
100
DictionaryVariables
280
     0
  1
2
  0
DICTIONARY
  5
1F8F
330
22
100
AcDbDictionary
280
     1
281
     1
  3
ACAD_XREC_ROUNDTRIP
360
1F90
  0
DICTIONARY
  5
1F91
330
59
100
AcDbDictionary
280
     1
281
     1
  3
ACAD_XREC_ROUNDTRIP
360
1F92
  0
DICTIONARY
  5
1F93
330
5E
100
AcDbDictionary
280
     1
281
     1
  3
ACAD_XREC_ROUNDTRIP
360
1F94
  0
DICTIONARY
  5
12F7
330
97
100
AcDbDictionary
280
     1
281
     1
  3
ACAD_XREC_ROUNDTRIP
360
12F8
  0
DICTIONARY
  5
12F5
330
96
100
AcDbDictionary
280
     1
281
     1
  3
ACAD_XREC_ROUNDTRIP
360
12F6
  0
DICTIONARY
  5
12F9
330
98
100
AcDbDictionary
280
     1
281
     1
  3
ACAD_XREC_ROUNDTRIP
360
12FA
  0
DICTIONARY
  5
AE1
330
87
100
AcDbDictionary
280
     1
281
     1
  3
ACAD_ROUNDTRIP_2008_TABLESTYLE_CELLSTYLEMAP
360
1F87
  3
ACAD_XREC_ROUNDTRIP
360
1F95
  0
DICTIONARY
  5
D98
330
D97
100
AcDbDictionary
280
     1
281
     1
  3
ACAD_ROUNDTRIP_2008_TABLESTYLE_CELLSTYLEMAP
360
1F88
  3
ACAD_XREC_ROUNDTRIP
360
1FCA
  0
DICTIONARY
  5
1FA0
330
9F
100
AcDbDictionary
280
     1
281
     1
  3
ACAD_XREC_ROUNDTRIP
360
1FA1
  0
DICTIONARY
  5
1FA4
330
A1
100
AcDbDictionary
280
     1
281
     1
  3
ACAD_XREC_ROUNDTRIP
360
1FA5
  0
DICTIONARY
  5
1FA2
330
A0
100
AcDbDictionary
280
     1
281
     1
  3
ACAD_XREC_ROUNDTRIP
360
1FA3
  0
DICTIONARY
  5
1F9E
330
9E
100
AcDbDictionary
280
     1
281
     1
  3
ACAD_XREC_ROUNDTRIP
360
1F9F
  0
DICTIONARY
  5
1FAC
330
A5
100
AcDbDictionary
280
     1
281
     1
  3
ACAD_XREC_ROUNDTRIP
360
1FAD
  0
DICTIONARY
  5
1FB4
330
A9
100
AcDbDictionary
280
     1
281
     1
  3
ACAD_XREC_ROUNDTRIP
360
1FB5
  0
DICTIONARY
  5
1FA6
330
A2
100
AcDbDictionary
280
     1
281
     1
  3
ACAD_XREC_ROUNDTRIP
360
1FA7
  0
DICTIONARY
  5
1FAA
330
A4
100
AcDbDictionary
280
     1
281
     1
  3
ACAD_XREC_ROUNDTRIP
360
1FAB
  0
DICTIONARY
  5
1FC8
330
155
100
AcDbDictionary
280
     1
281
     1
  3
ACAD_XREC_ROUNDTRIP
360
1FC9
  0
DICTIONARY
  5
1FB2
330
A8
100
AcDbDictionary
280
     1
281
     1
  3
ACAD_XREC_ROUNDTRIP
360
1FB3
  0
DICTIONARY
  5
1F96
330
9A
100
AcDbDictionary
280
     1
281
     1
  3
ACAD_XREC_ROUNDTRIP
360
1F97
  0
DICTIONARY
  5
1F98
330
9B
100
AcDbDictionary
280
     1
281
     1
  3
ACAD_XREC_ROUNDTRIP
360
1F99
  0
DICTIONARY
  5
1F9A
330
9C
100
AcDbDictionary
280
     1
281
     1
  3
ACAD_XREC_ROUNDTRIP
360
1F9B
  0
DICTIONARY
  5
1F9C
330
9D
100
AcDbDictionary
280
     1
281
     1
  3
ACAD_XREC_ROUNDTRIP
360
1F9D
  0
DICTIONARY
  5
1FB8
330
14D
100
AcDbDictionary
280
     1
281
     1
  3
ACAD_XREC_ROUNDTRIP
360
1FB9
  0
DICTIONARY
  5
1FC4
330
153
100
AcDbDictionary
280
     1
281
     1
  3
ACAD_XREC_ROUNDTRIP
360
1FC5
  0
DICTIONARY
  5
1FB0
330
A7
100
AcDbDictionary
280
     1
281
     1
  3
ACAD_XREC_ROUNDTRIP
360
1FB1
  0
DICTIONARY
  5
1FC6
330
154
100
AcDbDictionary
280
     1
281
     1
  3
ACAD_XREC_ROUNDTRIP
360
1FC7
  0
DICTIONARY
  5
1FA8
330
A3
100
AcDbDictionary
280
     1
281
     1
  3
ACAD_XREC_ROUNDTRIP
360
1FA9
  0
DICTIONARY
  5
1FC2
330
152
100
AcDbDictionary
280
     1
281
     1
  3
ACAD_XREC_ROUNDTRIP
360
1FC3
  0
DICTIONARY
  5
1FC0
330
151
100
AcDbDictionary
280
     1
281
     1
  3
ACAD_XREC_ROUNDTRIP
360
1FC1
  0
DICTIONARY
  5
1FBA
330
14E
100
AcDbDictionary
280
     1
281
     1
  3
ACAD_XREC_ROUNDTRIP
360
1FBB
  0
DICTIONARY
  5
1FBC
330
14F
100
AcDbDictionary
280
     1
281
     1
  3
ACAD_XREC_ROUNDTRIP
360
1FBD
  0
DICTIONARY
  5
1FAE
330
A6
100
AcDbDictionary
280
     1
281
     1
  3
ACAD_XREC_ROUNDTRIP
360
1FAF
  0
DICTIONARY
  5
1FB6
330
14C
100
AcDbDictionary
280
     1
281
     1
  3
ACAD_XREC_ROUNDTRIP
360
1FB7
  0
DICTIONARY
  5
1FBE
330
150
100
AcDbDictionary
280
     1
281
     1
  3
ACAD_XREC_ROUNDTRIP
360
1FBF
  0
XRECORD
  5
1F90
102
{ACAD_REACTORS
330
1F8F
102
}
330
1F8F
100
AcDbXrecord
280
     1
102
SHADEPLOT
 70
     0
102
SHADEPLOTRESLEVEL
 70
     2
102
SHADEPLOTCUSTOMDPI
 70
   300
  0
XRECORD
  5
1F92
102
{ACAD_REACTORS
330
1F91
102
}
330
1F91
100
AcDbXrecord
280
     1
102
SHADEPLOT
 70
     0
102
SHADEPLOTRESLEVEL
 70
     2
102
SHADEPLOTCUSTOMDPI
 70
   300
  0
XRECORD
  5
1F94
102
{ACAD_REACTORS
330
1F93
102
}
330
1F93
100
AcDbXrecord
280
     1
102
SHADEPLOT
 70
     0
102
SHADEPLOTRESLEVEL
 70
     2
102
SHADEPLOTCUSTOMDPI
 70
   300
  0
XRECORD
  5
12F8
102
{ACAD_REACTORS
330
12F7
102
}
330
12F7
100
AcDbXrecord
280
     1
102
MATERIAL
148
0.0
149
0.0
149
0.0
 93
        0
 94
      127
282
     0
 72
     1
 77
     1
171
     1
175
     1
179
     1
273
     0
  0
XRECORD
  5
12F6
102
{ACAD_REACTORS
330
12F5
102
}
330
12F5
100
AcDbXrecord
280
     1
102
MATERIAL
148
0.0
149
0.0
149
0.0
 93
        0
 94
      127
282
     0
 72
     1
 77
     1
171
     1
175
     1
179
     1
273
     0
  0
XRECORD
  5
12FA
102
{ACAD_REACTORS
330
12F9
102
}
330
12F9
100
AcDbXrecord
280
     1
102
MATERIAL
148
0.0
149
0.0
149
0.0
 93
        0
 94
      127
282
     0
 72
     1
 77
     1
171
     1
175
     1
179
     1
273
     0
  0
CELLSTYLEMAP
  5
1F87
102
{ACAD_REACTORS
330
AE1
102
}
330
AE1
100
AcDbCellStyleMap
 90
        3
300
CELLSTYLE
  1
TABLEFORMAT_BEGIN
 90
        5
170
     1
 91
        0
 92
    32768
 62
   257
 93
        1
300
CONTENTFORMAT
  1
CONTENTFORMAT_BEGIN
 90
        0
 91
        0
 92
      512
 93
        0
300

 40
0.0
140
1.0
 94
        5
 62
     0
340
11
144
0.25
309
CONTENTFORMAT_END
171
     1
301
MARGIN
  1
CELLMARGIN_BEGIN
 40
0.06
 40
0.06
 40
0.06
 40
0.06
 40
0.18
 40
0.18
309
CELLMARGIN_END
 94
        6
 95
        1
302
GRIDFORMAT
  1
GRIDFORMAT_BEGIN
 90
        0
 91
        1
 62
     0
 92
       -2
340
0
 93
        0
 40
0.045
309
GRIDFORMAT_END
 95
        2
302
GRIDFORMAT
  1
GRIDFORMAT_BEGIN
 90
        0
 91
        1
 62
     0
 92
       -2
340
0
 93
        0
 40
0.045
309
GRIDFORMAT_END
 95
        4
302
GRIDFORMAT
  1
GRIDFORMAT_BEGIN
 90
        0
 91
        1
 62
     0
 92
       -2
340
0
 93
        0
 40
0.045
309
GRIDFORMAT_END
 95
        8
302
GRIDFORMAT
  1
GRIDFORMAT_BEGIN
 90
        0
 91
        1
 62
     0
 92
       -2
340
0
 93
        0
 40
0.045
309
GRIDFORMAT_END
 95
       16
302
GRIDFORMAT
  1
GRIDFORMAT_BEGIN
 90
        0
 91
        1
 62
     0
 92
       -2
340
0
 93
        0
 40
0.045
309
GRIDFORMAT_END
 95
       32
302
GRIDFORMAT
  1
GRIDFORMAT_BEGIN
 90
        0
 91
        1
 62
     0
 92
       -2
340
0
 93
        0
 40
0.045
309
GRIDFORMAT_END
309
TABLEFORMAT_END
  1
CELLSTYLE_BEGIN
 90
        1
 91
        1
300
_TITLE
309
CELLSTYLE_END
300
CELLSTYLE
  1
TABLEFORMAT_BEGIN
 90
        5
170
     1
 91
        0
 92
        0
 62
   257
 93
        1
300
CONTENTFORMAT
  1
CONTENTFORMAT_BEGIN
 90
        0
 91
        0
 92
      512
 93
        0
300

 40
0.0
140
1.0
 94
        5
 62
     0
340
11
144
0.18
309
CONTENTFORMAT_END
171
     1
301
MARGIN
  1
CELLMARGIN_BEGIN
 40
0.06
 40
0.06
 40
0.06
 40
0.06
 40
0.18
 40
0.18
309
CELLMARGIN_END
 94
        6
 95
        1
302
GRIDFORMAT
  1
GRIDFORMAT_BEGIN
 90
        0
 91
        1
 62
     0
 92
       -2
340
0
 93
        0
 40
0.045
309
GRIDFORMAT_END
 95
        2
302
GRIDFORMAT
  1
GRIDFORMAT_BEGIN
 90
        0
 91
        1
 62
     0
 92
       -2
340
0
 93
        0
 40
0.045
309
GRIDFORMAT_END
 95
        4
302
GRIDFORMAT
  1
GRIDFORMAT_BEGIN
 90
        0
 91
        1
 62
     0
 92
       -2
340
0
 93
        0
 40
0.045
309
GRIDFORMAT_END
 95
        8
302
GRIDFORMAT
  1
GRIDFORMAT_BEGIN
 90
        0
 91
        1
 62
     0
 92
       -2
340
0
 93
        0
 40
0.045
309
GRIDFORMAT_END
 95
       16
302
GRIDFORMAT
  1
GRIDFORMAT_BEGIN
 90
        0
 91
        1
 62
     0
 92
       -2
340
0
 93
        0
 40
0.045
309
GRIDFORMAT_END
 95
       32
302
GRIDFORMAT
  1
GRIDFORMAT_BEGIN
 90
        0
 91
        1
 62
     0
 92
       -2
340
0
 93
        0
 40
0.045
309
GRIDFORMAT_END
309
TABLEFORMAT_END
  1
CELLSTYLE_BEGIN
 90
        2
 91
        1
300
_HEADER
309
CELLSTYLE_END
300
CELLSTYLE
  1
TABLEFORMAT_BEGIN
 90
        5
170
     1
 91
        0
 92
        0
 62
   257
 93
        1
300
CONTENTFORMAT
  1
CONTENTFORMAT_BEGIN
 90
        0
 91
        0
 92
      512
 93
        0
300

 40
0.0
140
1.0
 94
        2
 62
     0
340
11
144
0.18
309
CONTENTFORMAT_END
171
     1
301
MARGIN
  1
CELLMARGIN_BEGIN
 40
0.06
 40
0.06
 40
0.06
 40
0.06
 40
0.18
 40
0.18
309
CELLMARGIN_END
 94
        6
 95
        1
302
GRIDFORMAT
  1
GRIDFORMAT_BEGIN
 90
        0
 91
        1
 62
     0
 92
       -2
340
0
 93
        0
 40
0.045
309
GRIDFORMAT_END
 95
        2
302
GRIDFORMAT
  1
GRIDFORMAT_BEGIN
 90
        0
 91
        1
 62
     0
 92
       -2
340
0
 93
        0
 40
0.045
309
GRIDFORMAT_END
 95
        4
302
GRIDFORMAT
  1
GRIDFORMAT_BEGIN
 90
        0
 91
        1
 62
     0
 92
       -2
340
0
 93
        0
 40
0.045
309
GRIDFORMAT_END
 95
        8
302
GRIDFORMAT
  1
GRIDFORMAT_BEGIN
 90
        0
 91
        1
 62
     0
 92
       -2
340
0
 93
        0
 40
0.045
309
GRIDFORMAT_END
 95
       16
302
GRIDFORMAT
  1
GRIDFORMAT_BEGIN
 90
        0
 91
        1
 62
     0
 92
       -2
340
0
 93
        0
 40
0.045
309
GRIDFORMAT_END
 95
       32
302
GRIDFORMAT
  1
GRIDFORMAT_BEGIN
 90
        0
 91
        1
 62
     0
 92
       -2
340
0
 93
        0
 40
0.045
309
GRIDFORMAT_END
309
TABLEFORMAT_END
  1
CELLSTYLE_BEGIN
 90
        3
 91
        2
300
_DATA
309
CELLSTYLE_END
  0
XRECORD
  5
1F95
102
{ACAD_REACTORS
330
AE1
102
}
330
AE1
100
AcDbXrecord
280
     1
102
ACAD_ROUNDTRIP_PRE2007_TABLESTYLE
 90
      512
 91
        0
  1

 92
      512
 93
        0
  2

 94
      512
 95
        0
  3

  0
CELLSTYLEMAP
  5
1F88
102
{ACAD_REACTORS
330
D98
102
}
330
D98
100
AcDbCellStyleMap
 90
        3
300
CELLSTYLE
  1
TABLEFORMAT_BEGIN
 90
        5
170
     1
 91
        0
 92
    32768
 62
   257
 93
        1
300
CONTENTFORMAT
  1
CONTENTFORMAT_BEGIN
 90
        0
 91
        0
 92
      512
 93
        0
300

 40
0.0
140
1.0
 94
        8
 62
     3
340
11D
144
0.25
309
CONTENTFORMAT_END
171
     1
301
MARGIN
  1
CELLMARGIN_BEGIN
 40
0.5
 40
10.0
 40
0.06
 40
0.06
 40
0.18
 40
0.18
309
CELLMARGIN_END
 94
        6
 95
        1
302
GRIDFORMAT
  1
GRIDFORMAT_BEGIN
 90
        0
 91
        1
 62
     0
 92
       -2
340
0
 93
        0
 40
0.045
309
GRIDFORMAT_END
 95
        2
302
GRIDFORMAT
  1
GRIDFORMAT_BEGIN
 90
        0
 91
        1
 62
     0
 92
       -2
340
0
 93
        0
 40
0.045
309
GRIDFORMAT_END
 95
        4
302
GRIDFORMAT
  1
GRIDFORMAT_BEGIN
 90
        0
 91
        1
 62
     0
 92
       -2
340
0
 93
        0
 40
0.045
309
GRIDFORMAT_END
 95
        8
302
GRIDFORMAT
  1
GRIDFORMAT_BEGIN
 90
        0
 91
        1
 62
     0
 92
       -2
340
0
 93
        0
 40
0.045
309
GRIDFORMAT_END
 95
       16
302
GRIDFORMAT
  1
GRIDFORMAT_BEGIN
 90
        0
 91
        1
 62
     0
 92
       -2
340
0
 93
        0
 40
0.045
309
GRIDFORMAT_END
 95
       32
302
GRIDFORMAT
  1
GRIDFORMAT_BEGIN
 90
        0
 91
        1
 62
     0
 92
       -2
340
0
 93
        0
 40
0.045
309
GRIDFORMAT_END
309
TABLEFORMAT_END
  1
CELLSTYLE_BEGIN
 90
        1
 91
        1
300
_TITLE
309
CELLSTYLE_END
300
CELLSTYLE
  1
TABLEFORMAT_BEGIN
 90
        5
170
     1
 91
        0
 92
        0
 62
   257
 93
        1
300
CONTENTFORMAT
  1
CONTENTFORMAT_BEGIN
 90
        0
 91
        0
 92
      512
 93
        0
300

 40
0.0
140
1.0
 94
        7
 62
     3
340
11D
144
0.18
309
CONTENTFORMAT_END
171
     1
301
MARGIN
  1
CELLMARGIN_BEGIN
 40
0.5
 40
1.5
 40
0.06
 40
0.06
 40
0.18
 40
0.18
309
CELLMARGIN_END
 94
        6
 95
        1
302
GRIDFORMAT
  1
GRIDFORMAT_BEGIN
 90
        0
 91
        1
 62
     3
 92
       -2
340
14
 93
        0
 40
0.045
309
GRIDFORMAT_END
 95
        2
302
GRIDFORMAT
  1
GRIDFORMAT_BEGIN
 90
        0
 91
        1
 62
     7
 92
       -2
340
14
 93
        0
 40
0.045
309
GRIDFORMAT_END
 95
        4
302
GRIDFORMAT
  1
GRIDFORMAT_BEGIN
 90
        0
 91
        1
 62
     3
 92
       -2
340
14
 93
        0
 40
0.045
309
GRIDFORMAT_END
 95
        8
302
GRIDFORMAT
  1
GRIDFORMAT_BEGIN
 90
        0
 91
        1
 62
     3
 92
       -2
340
14
 93
        0
 40
0.045
309
GRIDFORMAT_END
 95
       16
302
GRIDFORMAT
  1
GRIDFORMAT_BEGIN
 90
        0
 91
        1
 62
     7
 92
       -2
340
14
 93
        0
 40
0.045
309
GRIDFORMAT_END
 95
       32
302
GRIDFORMAT
  1
GRIDFORMAT_BEGIN
 90
        0
 91
        1
 62
     3
 92
       -2
340
14
 93
        0
 40
0.045
309
GRIDFORMAT_END
309
TABLEFORMAT_END
  1
CELLSTYLE_BEGIN
 90
        2
 91
        1
300
_HEADER
309
CELLSTYLE_END
300
CELLSTYLE
  1
TABLEFORMAT_BEGIN
 90
        5
170
     1
 91
        0
 92
        0
 62
   257
 93
        1
300
CONTENTFORMAT
  1
CONTENTFORMAT_BEGIN
 90
        0
 91
        0
 92
      512
 93
        0
300

 40
0.0
140
1.0
 94
        7
 62
     3
340
11D
144
0.18
309
CONTENTFORMAT_END
171
     1
301
MARGIN
  1
CELLMARGIN_BEGIN
 40
0.5
 40
1.5
 40
0.06
 40
0.06
 40
0.18
 40
0.18
309
CELLMARGIN_END
 94
        6
 95
        1
302
GRIDFORMAT
  1
GRIDFORMAT_BEGIN
 90
        0
 91
        1
 62
     3
 92
       -2
340
14
 93
        0
 40
0.045
309
GRIDFORMAT_END
 95
        2
302
GRIDFORMAT
  1
GRIDFORMAT_BEGIN
 90
        0
 91
        1
 62
     7
 92
       -2
340
14
 93
        0
 40
0.045
309
GRIDFORMAT_END
 95
        4
302
GRIDFORMAT
  1
GRIDFORMAT_BEGIN
 90
        0
 91
        1
 62
     3
 92
       -2
340
14
 93
        0
 40
0.045
309
GRIDFORMAT_END
 95
        8
302
GRIDFORMAT
  1
GRIDFORMAT_BEGIN
 90
        0
 91
        1
 62
     3
 92
       -2
340
14
 93
        0
 40
0.045
309
GRIDFORMAT_END
 95
       16
302
GRIDFORMAT
  1
GRIDFORMAT_BEGIN
 90
        0
 91
        1
 62
     7
 92
       -2
340
14
 93
        0
 40
0.045
309
GRIDFORMAT_END
 95
       32
302
GRIDFORMAT
  1
GRIDFORMAT_BEGIN
 90
        0
 91
        1
 62
     3
 92
       -2
340
14
 93
        0
 40
0.045
309
GRIDFORMAT_END
309
TABLEFORMAT_END
  1
CELLSTYLE_BEGIN
 90
        3
 91
        2
300
_DATA
309
CELLSTYLE_END
  0
XRECORD
  5
1FCA
102
{ACAD_REACTORS
330
D98
102
}
330
D98
100
AcDbXrecord
280
     1
102
ACAD_ROUNDTRIP_PRE2007_TABLESTYLE
 90
      512
 91
        0
  1

 92
      512
 93
        0
  2

 94
      512
 95
        0
  3

  0
XRECORD
  5
1FA1
102
{ACAD_REACTORS
330
1FA0
102
}
330
1FA0
100
AcDbXrecord
280
     1
102
RTVSPropertyOp0
 70
     1
102
RTVSPropertyOp1
 70
     1
102
RTVSPropertyOp2
 70
     1
102
RTVSPropertyOp3
 70
     1
102
RTVSPropertyOp4
 70
     1
102
RTVSPropertyOp5
 70
     1
102
RTVSPropertyOp6
 70
     1
102
RTVSPropertyOp7
 70
     1
102
RTVSPropertyOp8
 70
     1
102
RTVSPropertyOp9
 70
     1
102
RTVSPropertyOp10
 70
     1
102
RTVSPropertyOp11
 70
     1
102
RTVSPropertyOp12
 70
     1
102
RTVSPropertyOp13
 70
     1
102
RTVSPropertyOp14
 70
     1
102
RTVSPropertyOp15
 70
     1
102
RTVSPropertyOp16
 70
     1
102
RTVSPropertyOp17
 70
     1
102
RTVSPropertyOp18
 70
     1
102
RTVSPropertyOp19
 70
     1
102
RTVSPropertyOp20
 70
     1
102
RTVSPropertyOp21
 70
     1
102
RTVSPropertyOp22
 70
     1
102
RTVSPropertyOp23
 70
     1
102
RTVSPropertyOp24
 70
     1
102
RTVSPropertyOp25
 70
     1
102
RTVSPropertyOp26
 70
     1
102
RTVSPropertyOp27
 70
     1
102
RTVSPropertyOp28
 70
     1
102
RTVSPropertyOp29
 70
     1
102
RTVSPropertyOp30
 70
     1
102
RTVSPropertyOp31
 70
     1
102
RTVSPropertyOp32
 70
     1
  0
XRECORD
  5
1FA5
102
{ACAD_REACTORS
330
1FA4
102
}
330
1FA4
100
AcDbXrecord
280
     1
102
RTVSPropertyOp0
 70
     1
102
RTVSPropertyOp1
 70
     1
102
RTVSPropertyOp2
 70
     1
102
RTVSPropertyOp3
 70
     1
102
RTVSPropertyOp4
 70
     1
102
RTVSPropertyOp5
 70
     1
102
RTVSPropertyOp6
 70
     1
102
RTVSPropertyOp7
 70
     1
102
RTVSPropertyOp8
 70
     1
102
RTVSPropertyOp9
 70
     1
102
RTVSPropertyOp10
 70
     1
102
RTVSPropertyOp11
 70
     1
102
RTVSPropertyOp12
 70
     1
102
RTVSPropertyOp13
 70
     1
102
RTVSPropertyOp14
 70
     1
102
RTVSPropertyOp15
 70
     1
102
RTVSPropertyOp16
 70
     1
102
RTVSPropertyOp17
 70
     1
102
RTVSPropertyOp18
 70
     1
102
RTVSPropertyOp19
 70
     1
102
RTVSPropertyOp20
 70
     1
102
RTVSPropertyOp21
 70
     1
102
RTVSPropertyOp22
 70
     1
102
RTVSPropertyOp23
 70
     1
102
RTVSPropertyOp24
 70
     1
102
RTVSPropertyOp25
 70
     1
102
RTVSPropertyOp26
 70
     1
102
RTVSPropertyOp27
 70
     1
102
RTVSPropertyOp28
 70
     1
102
RTVSPropertyOp29
 70
     1
102
RTVSPropertyOp30
 70
     1
102
RTVSPropertyOp31
 70
     1
102
RTVSPropertyOp32
 70
     1
  0
XRECORD
  5
1FA3
102
{ACAD_REACTORS
330
1FA2
102
}
330
1FA2
100
AcDbXrecord
280
     1
102
RTVSPropertyOp0
 70
     1
102
RTVSPropertyOp1
 70
     1
102
RTVSPropertyOp2
 70
     1
102
RTVSPropertyOp3
 70
     1
102
RTVSPropertyOp4
 70
     1
102
RTVSPropertyOp5
 70
     1
102
RTVSPropertyOp6
 70
     1
102
RTVSPropertyOp7
 70
     1
102
RTVSPropertyOp8
 70
     1
102
RTVSPropertyOp9
 70
     1
102
RTVSPropertyOp10
 70
     1
102
RTVSPropertyOp11
 70
     1
102
RTVSPropertyOp12
 70
     1
102
RTVSPropertyOp13
 70
     1
102
RTVSPropertyOp14
 70
     1
102
RTVSPropertyOp15
 70
     1
102
RTVSPropertyOp16
 70
     1
102
RTVSPropertyOp17
 70
     1
102
RTVSPropertyOp18
 70
     1
102
RTVSPropertyOp19
 70
     1
102
RTVSPropertyOp20
 70
     1
102
RTVSPropertyOp21
 70
     1
102
RTVSPropertyOp22
 70
     1
102
RTVSPropertyOp23
 70
     1
102
RTVSPropertyOp24
 70
     1
102
RTVSPropertyOp25
 70
     1
102
RTVSPropertyOp26
 70
     1
102
RTVSPropertyOp27
 70
     1
102
RTVSPropertyOp28
 70
     1
102
RTVSPropertyOp29
 70
     1
102
RTVSPropertyOp30
 70
     1
102
RTVSPropertyOp31
 70
     1
102
RTVSPropertyOp32
 70
     1
  0
XRECORD
  5
1F9F
102
{ACAD_REACTORS
330
1F9E
102
}
330
1F9E
100
AcDbXrecord
280
     1
102
RTVSPropertyOp0
 70
     1
102
RTVSPropertyOp1
 70
     1
102
RTVSPropertyOp2
 70
     1
102
RTVSPropertyOp3
 70
     1
102
RTVSPropertyOp4
 70
     1
102
RTVSPropertyOp5
 70
     1
102
RTVSPropertyOp6
 70
     1
102
RTVSPropertyOp7
 70
     1
102
RTVSPropertyOp8
 70
     1
102
RTVSPropertyOp9
 70
     1
102
RTVSPropertyOp10
 70
     1
102
RTVSPropertyOp11
 70
     1
102
RTVSPropertyOp12
 70
     1
102
RTVSPropertyOp13
 70
     1
102
RTVSPropertyOp14
 70
     1
102
RTVSPropertyOp15
 70
     1
102
RTVSPropertyOp16
 70
     1
102
RTVSPropertyOp17
 70
     1
102
RTVSPropertyOp18
 70
     1
102
RTVSPropertyOp19
 70
     1
102
RTVSPropertyOp20
 70
     1
102
RTVSPropertyOp21
 70
     1
102
RTVSPropertyOp22
 70
     1
102
RTVSPropertyOp23
 70
     1
102
RTVSPropertyOp24
 70
     1
102
RTVSPropertyOp25
 70
     1
102
RTVSPropertyOp26
 70
     1
102
RTVSPropertyOp27
 70
     1
102
RTVSPropertyOp28
 70
     1
102
RTVSPropertyOp29
 70
     1
102
RTVSPropertyOp30
 70
     1
102
RTVSPropertyOp31
 70
     1
102
RTVSPropertyOp32
 70
     1
  0
XRECORD
  5
1FAD
102
{ACAD_REACTORS
330
1FAC
102
}
330
1FAC
100
AcDbXrecord
280
     1
102
RTVSPropertyOp0
 70
     1
102
RTVSPropertyOp1
 70
     1
102
RTVSPropertyOp2
 70
     1
102
RTVSPropertyOp3
 70
     1
102
RTVSPropertyOp4
 70
     1
102
RTVSPropertyOp5
 70
     1
102
RTVSPropertyOp6
 70
     1
102
RTVSPropertyOp7
 70
     1
102
RTVSPropertyOp8
 70
     1
102
RTVSPropertyOp9
 70
     1
102
RTVSPropertyOp10
 70
     1
102
RTVSPropertyOp11
 70
     1
102
RTVSPropertyOp12
 70
     1
102
RTVSPropertyOp13
 70
     1
102
RTVSPropertyOp14
 70
     1
102
RTVSPropertyOp15
 70
     1
102
RTVSPropertyOp16
 70
     1
102
RTVSPropertyOp17
 70
     1
102
RTVSPropertyOp18
 70
     1
102
RTVSPropertyOp19
 70
     1
102
RTVSPropertyOp20
 70
     1
102
RTVSPropertyOp21
 70
     1
102
RTVSPropertyOp22
 70
     1
102
RTVSPropertyOp23
 70
     1
102
RTVSPropertyOp24
 70
     1
102
RTVSPropertyOp25
 70
     1
102
RTVSPropertyOp26
 70
     1
102
RTVSPropertyOp27
 70
     1
102
RTVSPropertyOp28
 70
     1
102
RTVSPropertyOp29
 70
     1
102
RTVSPropertyOp30
 70
     1
102
RTVSPropertyOp31
 70
     1
102
RTVSPropertyOp32
 70
     1
  0
XRECORD
  5
1FB5
102
{ACAD_REACTORS
330
1FB4
102
}
330
1FB4
100
AcDbXrecord
280
     1
102
RTVSPropertyOp0
 70
     1
102
RTVSPropertyOp1
 70
     1
102
RTVSPropertyOp2
 70
     1
102
RTVSPropertyOp3
 70
     1
102
RTVSPropertyOp4
 70
     1
102
RTVSPropertyOp5
 70
     1
102
RTVSPropertyOp6
 70
     1
102
RTVSPropertyOp7
 70
     1
102
RTVSPropertyOp8
 70
     1
102
RTVSPropertyOp9
 70
     1
102
RTVSPropertyOp10
 70
     1
102
RTVSPropertyOp11
 70
     1
102
RTVSPropertyOp12
 70
     1
102
RTVSPropertyOp13
 70
     1
102
RTVSPropertyOp14
 70
     1
102
RTVSPropertyOp15
 70
     1
102
RTVSPropertyOp16
 70
     1
102
RTVSPropertyOp17
 70
     1
102
RTVSPropertyOp18
 70
     1
102
RTVSPropertyOp19
 70
     1
102
RTVSPropertyOp20
 70
     1
102
RTVSPropertyOp21
 70
     1
102
RTVSPropertyOp22
 70
     1
102
RTVSPropertyOp23
 70
     1
102
RTVSPropertyOp24
 70
     1
102
RTVSPropertyOp25
 70
     1
102
RTVSPropertyOp26
 70
     1
102
RTVSPropertyOp27
 70
     1
102
RTVSPropertyOp28
 70
     1
102
RTVSPropertyOp29
 70
     1
102
RTVSPropertyOp30
 70
     1
102
RTVSPropertyOp31
 70
     1
102
RTVSPropertyOp32
 70
     1
  0
XRECORD
  5
1FA7
102
{ACAD_REACTORS
330
1FA6
102
}
330
1FA6
100
AcDbXrecord
280
     1
102
RTVSPropertyOp0
 70
     1
102
RTVSPropertyOp1
 70
     1
102
RTVSPropertyOp2
 70
     1
102
RTVSPropertyOp3
 70
     1
102
RTVSPropertyOp4
 70
     1
102
RTVSPropertyOp5
 70
     1
102
RTVSPropertyOp6
 70
     1
102
RTVSPropertyOp7
 70
     1
102
RTVSPropertyOp8
 70
     1
102
RTVSPropertyOp9
 70
     1
102
RTVSPropertyOp10
 70
     1
102
RTVSPropertyOp11
 70
     1
102
RTVSPropertyOp12
 70
     1
102
RTVSPropertyOp13
 70
     1
102
RTVSPropertyOp14
 70
     1
102
RTVSPropertyOp15
 70
     1
102
RTVSPropertyOp16
 70
     1
102
RTVSPropertyOp17
 70
     1
102
RTVSPropertyOp18
 70
     1
102
RTVSPropertyOp19
 70
     1
102
RTVSPropertyOp20
 70
     1
102
RTVSPropertyOp21
 70
     1
102
RTVSPropertyOp22
 70
     1
102
RTVSPropertyOp23
 70
     1
102
RTVSPropertyOp24
 70
     1
102
RTVSPropertyOp25
 70
     1
102
RTVSPropertyOp26
 70
     1
102
RTVSPropertyOp27
 70
     1
102
RTVSPropertyOp28
 70
     1
102
RTVSPropertyOp29
 70
     1
102
RTVSPropertyOp30
 70
     1
102
RTVSPropertyOp31
 70
     1
102
RTVSPropertyOp32
 70
     1
  0
XRECORD
  5
1FAB
102
{ACAD_REACTORS
330
1FAA
102
}
330
1FAA
100
AcDbXrecord
280
     1
102
RTVSPropertyOp0
 70
     1
102
RTVSPropertyOp1
 70
     1
102
RTVSPropertyOp2
 70
     1
102
RTVSPropertyOp3
 70
     1
102
RTVSPropertyOp4
 70
     1
102
RTVSPropertyOp5
 70
     1
102
RTVSPropertyOp6
 70
     1
102
RTVSPropertyOp7
 70
     1
102
RTVSPropertyOp8
 70
     1
102
RTVSPropertyOp9
 70
     1
102
RTVSPropertyOp10
 70
     1
102
RTVSPropertyOp11
 70
     1
102
RTVSPropertyOp12
 70
     1
102
RTVSPropertyOp13
 70
     1
102
RTVSPropertyOp14
 70
     1
102
RTVSPropertyOp15
 70
     1
102
RTVSPropertyOp16
 70
     1
102
RTVSPropertyOp17
 70
     1
102
RTVSPropertyOp18
 70
     1
102
RTVSPropertyOp19
 70
     1
102
RTVSPropertyOp20
 70
     1
102
RTVSPropertyOp21
 70
     1
102
RTVSPropertyOp22
 70
     1
102
RTVSPropertyOp23
 70
     1
102
RTVSPropertyOp24
 70
     1
102
RTVSPropertyOp25
 70
     1
102
RTVSPropertyOp26
 70
     1
102
RTVSPropertyOp27
 70
     1
102
RTVSPropertyOp28
 70
     1
102
RTVSPropertyOp29
 70
     1
102
RTVSPropertyOp30
 70
     1
102
RTVSPropertyOp31
 70
     1
102
RTVSPropertyOp32
 70
     1
  0
XRECORD
  5
1FC9
102
{ACAD_REACTORS
330
1FC8
102
}
330
1FC8
100
AcDbXrecord
280
     1
102
RTVSPropertyOp0
 70
     0
102
RTVSPropertyOp1
 70
     0
102
RTVSPropertyOp2
 70
     0
102
RTVSPropertyOp3
 70
     0
102
RTVSPropertyOp4
 70
     0
102
RTVSPropertyOp5
 70
     0
102
RTVSPropertyOp6
 70
     0
102
RTVSPropertyOp7
 70
     0
102
RTVSPropertyOp8
 70
     0
102
RTVSPropertyOp9
 70
     0
102
RTVSPropertyOp10
 70
     0
102
RTVSPropertyOp11
 70
     0
102
RTVSPropertyOp12
 70
     0
102
RTVSPropertyOp13
 70
     0
102
RTVSPropertyOp14
 70
     2
102
RTVSPropertyOp15
 70
     0
102
RTVSPropertyOp16
 70
     0
102
RTVSPropertyOp17
 70
     0
102
RTVSPropertyOp18
 70
     0
102
RTVSPropertyOp19
 70
     0
102
RTVSPropertyOp20
 70
     0
102
RTVSPropertyOp21
 70
     0
102
RTVSPropertyOp22
 70
     0
102
RTVSPropertyOp23
 70
     0
102
RTVSPropertyOp24
 70
     0
102
RTVSPropertyOp25
 70
     0
102
RTVSPropertyOp26
 70
     0
102
RTVSPropertyOp27
 70
     0
102
RTVSPropertyOp28
 70
     1
102
RTVSPropertyOp29
 70
     1
102
RTVSPropertyOp30
 70
     1
102
RTVSPropertyOp31
 70
     1
102
RTVSPropertyOp32
 70
     1
  0
XRECORD
  5
1FB3
102
{ACAD_REACTORS
330
1FB2
102
}
330
1FB2
100
AcDbXrecord
280
     1
102
RTVSPropertyOp0
 70
     1
102
RTVSPropertyOp1
 70
     1
102
RTVSPropertyOp2
 70
     1
102
RTVSPropertyOp3
 70
     1
102
RTVSPropertyOp4
 70
     1
102
RTVSPropertyOp5
 70
     1
102
RTVSPropertyOp6
 70
     1
102
RTVSPropertyOp7
 70
     1
102
RTVSPropertyOp8
 70
     1
102
RTVSPropertyOp9
 70
     1
102
RTVSPropertyOp10
 70
     1
102
RTVSPropertyOp11
 70
     1
102
RTVSPropertyOp12
 70
     1
102
RTVSPropertyOp13
 70
     1
102
RTVSPropertyOp14
 70
     1
102
RTVSPropertyOp15
 70
     1
102
RTVSPropertyOp16
 70
     1
102
RTVSPropertyOp17
 70
     1
102
RTVSPropertyOp18
 70
     1
102
RTVSPropertyOp19
 70
     1
102
RTVSPropertyOp20
 70
     1
102
RTVSPropertyOp21
 70
     1
102
RTVSPropertyOp22
 70
     1
102
RTVSPropertyOp23
 70
     1
102
RTVSPropertyOp24
 70
     1
102
RTVSPropertyOp25
 70
     1
102
RTVSPropertyOp26
 70
     1
102
RTVSPropertyOp27
 70
     1
102
RTVSPropertyOp28
 70
     1
102
RTVSPropertyOp29
 70
     1
102
RTVSPropertyOp30
 70
     1
102
RTVSPropertyOp31
 70
     1
102
RTVSPropertyOp32
 70
     1
  0
XRECORD
  5
1F97
102
{ACAD_REACTORS
330
1F96
102
}
330
1F96
100
AcDbXrecord
280
     1
102
RTVSPropertyOp0
 70
     1
102
RTVSPropertyOp1
 70
     1
102
RTVSPropertyOp2
 70
     1
102
RTVSPropertyOp3
 70
     1
102
RTVSPropertyOp4
 70
     1
102
RTVSPropertyOp5
 70
     1
102
RTVSPropertyOp6
 70
     1
102
RTVSPropertyOp7
 70
     1
102
RTVSPropertyOp8
 70
     1
102
RTVSPropertyOp9
 70
     1
102
RTVSPropertyOp10
 70
     1
102
RTVSPropertyOp11
 70
     1
102
RTVSPropertyOp12
 70
     1
102
RTVSPropertyOp13
 70
     1
102
RTVSPropertyOp14
 70
     1
102
RTVSPropertyOp15
 70
     1
102
RTVSPropertyOp16
 70
     1
102
RTVSPropertyOp17
 70
     1
102
RTVSPropertyOp18
 70
     1
102
RTVSPropertyOp19
 70
     1
102
RTVSPropertyOp20
 70
     1
102
RTVSPropertyOp21
 70
     1
102
RTVSPropertyOp22
 70
     1
102
RTVSPropertyOp23
 70
     1
102
RTVSPropertyOp24
 70
     1
102
RTVSPropertyOp25
 70
     1
102
RTVSPropertyOp26
 70
     1
102
RTVSPropertyOp27
 70
     1
102
RTVSPropertyOp28
 70
     1
102
RTVSPropertyOp29
 70
     1
102
RTVSPropertyOp30
 70
     1
102
RTVSPropertyOp31
 70
     1
102
RTVSPropertyOp32
 70
     1
  0
XRECORD
  5
1F99
102
{ACAD_REACTORS
330
1F98
102
}
330
1F98
100
AcDbXrecord
280
     1
102
RTVSPropertyOp0
 70
     1
102
RTVSPropertyOp1
 70
     1
102
RTVSPropertyOp2
 70
     1
102
RTVSPropertyOp3
 70
     1
102
RTVSPropertyOp4
 70
     1
102
RTVSPropertyOp5
 70
     1
102
RTVSPropertyOp6
 70
     1
102
RTVSPropertyOp7
 70
     1
102
RTVSPropertyOp8
 70
     1
102
RTVSPropertyOp9
 70
     1
102
RTVSPropertyOp10
 70
     1
102
RTVSPropertyOp11
 70
     1
102
RTVSPropertyOp12
 70
     1
102
RTVSPropertyOp13
 70
     1
102
RTVSPropertyOp14
 70
     1
102
RTVSPropertyOp15
 70
     1
102
RTVSPropertyOp16
 70
     1
102
RTVSPropertyOp17
 70
     1
102
RTVSPropertyOp18
 70
     1
102
RTVSPropertyOp19
 70
     1
102
RTVSPropertyOp20
 70
     1
102
RTVSPropertyOp21
 70
     1
102
RTVSPropertyOp22
 70
     1
102
RTVSPropertyOp23
 70
     1
102
RTVSPropertyOp24
 70
     1
102
RTVSPropertyOp25
 70
     1
102
RTVSPropertyOp26
 70
     1
102
RTVSPropertyOp27
 70
     1
102
RTVSPropertyOp28
 70
     1
102
RTVSPropertyOp29
 70
     1
102
RTVSPropertyOp30
 70
     1
102
RTVSPropertyOp31
 70
     1
102
RTVSPropertyOp32
 70
     1
  0
XRECORD
  5
1F9B
102
{ACAD_REACTORS
330
1F9A
102
}
330
1F9A
100
AcDbXrecord
280
     1
102
RTVSPropertyOp0
 70
     1
102
RTVSPropertyOp1
 70
     1
102
RTVSPropertyOp2
 70
     1
102
RTVSPropertyOp3
 70
     1
102
RTVSPropertyOp4
 70
     1
102
RTVSPropertyOp5
 70
     1
102
RTVSPropertyOp6
 70
     1
102
RTVSPropertyOp7
 70
     1
102
RTVSPropertyOp8
 70
     1
102
RTVSPropertyOp9
 70
     1
102
RTVSPropertyOp10
 70
     1
102
RTVSPropertyOp11
 70
     1
102
RTVSPropertyOp12
 70
     1
102
RTVSPropertyOp13
 70
     1
102
RTVSPropertyOp14
 70
     1
102
RTVSPropertyOp15
 70
     1
102
RTVSPropertyOp16
 70
     1
102
RTVSPropertyOp17
 70
     1
102
RTVSPropertyOp18
 70
     1
102
RTVSPropertyOp19
 70
     1
102
RTVSPropertyOp20
 70
     1
102
RTVSPropertyOp21
 70
     1
102
RTVSPropertyOp22
 70
     1
102
RTVSPropertyOp23
 70
     1
102
RTVSPropertyOp24
 70
     1
102
RTVSPropertyOp25
 70
     1
102
RTVSPropertyOp26
 70
     1
102
RTVSPropertyOp27
 70
     1
102
RTVSPropertyOp28
 70
     1
102
RTVSPropertyOp29
 70
     1
102
RTVSPropertyOp30
 70
     1
102
RTVSPropertyOp31
 70
     1
102
RTVSPropertyOp32
 70
     1
  0
XRECORD
  5
1F9D
102
{ACAD_REACTORS
330
1F9C
102
}
330
1F9C
100
AcDbXrecord
280
     1
102
RTVSPropertyOp0
 70
     1
102
RTVSPropertyOp1
 70
     1
102
RTVSPropertyOp2
 70
     1
102
RTVSPropertyOp3
 70
     1
102
RTVSPropertyOp4
 70
     1
102
RTVSPropertyOp5
 70
     1
102
RTVSPropertyOp6
 70
     1
102
RTVSPropertyOp7
 70
     1
102
RTVSPropertyOp8
 70
     1
102
RTVSPropertyOp9
 70
     1
102
RTVSPropertyOp10
 70
     1
102
RTVSPropertyOp11
 70
     1
102
RTVSPropertyOp12
 70
     1
102
RTVSPropertyOp13
 70
     1
102
RTVSPropertyOp14
 70
     1
102
RTVSPropertyOp15
 70
     1
102
RTVSPropertyOp16
 70
     1
102
RTVSPropertyOp17
 70
     1
102
RTVSPropertyOp18
 70
     1
102
RTVSPropertyOp19
 70
     1
102
RTVSPropertyOp20
 70
     1
102
RTVSPropertyOp21
 70
     1
102
RTVSPropertyOp22
 70
     1
102
RTVSPropertyOp23
 70
     1
102
RTVSPropertyOp24
 70
     1
102
RTVSPropertyOp25
 70
     1
102
RTVSPropertyOp26
 70
     1
102
RTVSPropertyOp27
 70
     1
102
RTVSPropertyOp28
 70
     1
102
RTVSPropertyOp29
 70
     1
102
RTVSPropertyOp30
 70
     1
102
RTVSPropertyOp31
 70
     1
102
RTVSPropertyOp32
 70
     1
  0
XRECORD
  5
1FB9
102
{ACAD_REACTORS
330
1FB8
102
}
330
1FB8
100
AcDbXrecord
280
     1
102
RTVSPropertyOp0
 70
     1
102
RTVSPropertyOp1
 70
     1
102
RTVSPropertyOp2
 70
     1
102
RTVSPropertyOp3
 70
     1
102
RTVSPropertyOp4
 70
     1
102
RTVSPropertyOp5
 70
     1
102
RTVSPropertyOp6
 70
     1
102
RTVSPropertyOp7
 70
     1
102
RTVSPropertyOp8
 70
     1
102
RTVSPropertyOp9
 70
     1
102
RTVSPropertyOp10
 70
     1
102
RTVSPropertyOp11
 70
     1
102
RTVSPropertyOp12
 70
     1
102
RTVSPropertyOp13
 70
     1
102
RTVSPropertyOp14
 70
     1
102
RTVSPropertyOp15
 70
     1
102
RTVSPropertyOp16
 70
     1
102
RTVSPropertyOp17
 70
     1
102
RTVSPropertyOp18
 70
     1
102
RTVSPropertyOp19
 70
     1
102
RTVSPropertyOp20
 70
     1
102
RTVSPropertyOp21
 70
     1
102
RTVSPropertyOp22
 70
     1
102
RTVSPropertyOp23
 70
     1
102
RTVSPropertyOp24
 70
     1
102
RTVSPropertyOp25
 70
     1
102
RTVSPropertyOp26
 70
     1
102
RTVSPropertyOp27
 70
     1
102
RTVSPropertyOp28
 70
     1
102
RTVSPropertyOp29
 70
     1
102
RTVSPropertyOp30
 70
     1
102
RTVSPropertyOp31
 70
     1
102
RTVSPropertyOp32
 70
     1
  0
XRECORD
  5
1FC5
102
{ACAD_REACTORS
330
1FC4
102
}
330
1FC4
100
AcDbXrecord
280
     1
102
RTVSPropertyOp0
 70
     0
102
RTVSPropertyOp1
 70
     0
102
RTVSPropertyOp2
 70
     0
102
RTVSPropertyOp3
 70
     0
102
RTVSPropertyOp4
 70
     0
102
RTVSPropertyOp5
 70
     0
102
RTVSPropertyOp6
 70
     0
102
RTVSPropertyOp7
 70
     0
102
RTVSPropertyOp8
 70
     0
102
RTVSPropertyOp9
 70
     0
102
RTVSPropertyOp10
 70
     0
102
RTVSPropertyOp11
 70
     0
102
RTVSPropertyOp12
 70
     0
102
RTVSPropertyOp13
 70
     0
102
RTVSPropertyOp14
 70
     2
102
RTVSPropertyOp15
 70
     0
102
RTVSPropertyOp16
 70
     0
102
RTVSPropertyOp17
 70
     0
102
RTVSPropertyOp18
 70
     0
102
RTVSPropertyOp19
 70
     0
102
RTVSPropertyOp20
 70
     0
102
RTVSPropertyOp21
 70
     0
102
RTVSPropertyOp22
 70
     0
102
RTVSPropertyOp23
 70
     0
102
RTVSPropertyOp24
 70
     0
102
RTVSPropertyOp25
 70
     0
102
RTVSPropertyOp26
 70
     0
102
RTVSPropertyOp27
 70
     0
102
RTVSPropertyOp28
 70
     1
102
RTVSPropertyOp29
 70
     1
102
RTVSPropertyOp30
 70
     1
102
RTVSPropertyOp31
 70
     1
102
RTVSPropertyOp32
 70
     1
  0
XRECORD
  5
1FB1
102
{ACAD_REACTORS
330
1FB0
102
}
330
1FB0
100
AcDbXrecord
280
     1
102
RTVSPropertyOp0
 70
     1
102
RTVSPropertyOp1
 70
     1
102
RTVSPropertyOp2
 70
     1
102
RTVSPropertyOp3
 70
     1
102
RTVSPropertyOp4
 70
     1
102
RTVSPropertyOp5
 70
     1
102
RTVSPropertyOp6
 70
     1
102
RTVSPropertyOp7
 70
     1
102
RTVSPropertyOp8
 70
     1
102
RTVSPropertyOp9
 70
     1
102
RTVSPropertyOp10
 70
     1
102
RTVSPropertyOp11
 70
     1
102
RTVSPropertyOp12
 70
     1
102
RTVSPropertyOp13
 70
     1
102
RTVSPropertyOp14
 70
     1
102
RTVSPropertyOp15
 70
     1
102
RTVSPropertyOp16
 70
     1
102
RTVSPropertyOp17
 70
     1
102
RTVSPropertyOp18
 70
     1
102
RTVSPropertyOp19
 70
     1
102
RTVSPropertyOp20
 70
     1
102
RTVSPropertyOp21
 70
     1
102
RTVSPropertyOp22
 70
     1
102
RTVSPropertyOp23
 70
     1
102
RTVSPropertyOp24
 70
     1
102
RTVSPropertyOp25
 70
     1
102
RTVSPropertyOp26
 70
     1
102
RTVSPropertyOp27
 70
     1
102
RTVSPropertyOp28
 70
     1
102
RTVSPropertyOp29
 70
     1
102
RTVSPropertyOp30
 70
     1
102
RTVSPropertyOp31
 70
     1
102
RTVSPropertyOp32
 70
     1
  0
XRECORD
  5
1FC7
102
{ACAD_REACTORS
330
1FC6
102
}
330
1FC6
100
AcDbXrecord
280
     1
102
RTVSPropertyOp0
 70
     0
102
RTVSPropertyOp1
 70
     0
102
RTVSPropertyOp2
 70
     0
102
RTVSPropertyOp3
 70
     0
102
RTVSPropertyOp4
 70
     0
102
RTVSPropertyOp5
 70
     0
102
RTVSPropertyOp6
 70
     0
102
RTVSPropertyOp7
 70
     0
102
RTVSPropertyOp8
 70
     0
102
RTVSPropertyOp9
 70
     0
102
RTVSPropertyOp10
 70
     0
102
RTVSPropertyOp11
 70
     0
102
RTVSPropertyOp12
 70
     0
102
RTVSPropertyOp13
 70
     0
102
RTVSPropertyOp14
 70
     2
102
RTVSPropertyOp15
 70
     0
102
RTVSPropertyOp16
 70
     0
102
RTVSPropertyOp17
 70
     0
102
RTVSPropertyOp18
 70
     0
102
RTVSPropertyOp19
 70
     0
102
RTVSPropertyOp20
 70
     0
102
RTVSPropertyOp21
 70
     0
102
RTVSPropertyOp22
 70
     0
102
RTVSPropertyOp23
 70
     0
102
RTVSPropertyOp24
 70
     0
102
RTVSPropertyOp25
 70
     0
102
RTVSPropertyOp26
 70
     0
102
RTVSPropertyOp27
 70
     0
102
RTVSPropertyOp28
 70
     1
102
RTVSPropertyOp29
 70
     1
102
RTVSPropertyOp30
 70
     1
102
RTVSPropertyOp31
 70
     1
102
RTVSPropertyOp32
 70
     1
  0
XRECORD
  5
1FA9
102
{ACAD_REACTORS
330
1FA8
102
}
330
1FA8
100
AcDbXrecord
280
     1
102
RTVSPropertyOp0
 70
     1
102
RTVSPropertyOp1
 70
     1
102
RTVSPropertyOp2
 70
     1
102
RTVSPropertyOp3
 70
     1
102
RTVSPropertyOp4
 70
     1
102
RTVSPropertyOp5
 70
     1
102
RTVSPropertyOp6
 70
     1
102
RTVSPropertyOp7
 70
     1
102
RTVSPropertyOp8
 70
     1
102
RTVSPropertyOp9
 70
     1
102
RTVSPropertyOp10
 70
     1
102
RTVSPropertyOp11
 70
     1
102
RTVSPropertyOp12
 70
     1
102
RTVSPropertyOp13
 70
     1
102
RTVSPropertyOp14
 70
     1
102
RTVSPropertyOp15
 70
     1
102
RTVSPropertyOp16
 70
     1
102
RTVSPropertyOp17
 70
     1
102
RTVSPropertyOp18
 70
     1
102
RTVSPropertyOp19
 70
     1
102
RTVSPropertyOp20
 70
     1
102
RTVSPropertyOp21
 70
     1
102
RTVSPropertyOp22
 70
     1
102
RTVSPropertyOp23
 70
     1
102
RTVSPropertyOp24
 70
     1
102
RTVSPropertyOp25
 70
     1
102
RTVSPropertyOp26
 70
     1
102
RTVSPropertyOp27
 70
     1
102
RTVSPropertyOp28
 70
     1
102
RTVSPropertyOp29
 70
     1
102
RTVSPropertyOp30
 70
     1
102
RTVSPropertyOp31
 70
     1
102
RTVSPropertyOp32
 70
     1
  0
XRECORD
  5
1FC3
102
{ACAD_REACTORS
330
1FC2
102
}
330
1FC2
100
AcDbXrecord
280
     1
102
RTVSPropertyOp0
 70
     1
102
RTVSPropertyOp1
 70
     1
102
RTVSPropertyOp2
 70
     1
102
RTVSPropertyOp3
 70
     1
102
RTVSPropertyOp4
 70
     1
102
RTVSPropertyOp5
 70
     1
102
RTVSPropertyOp6
 70
     1
102
RTVSPropertyOp7
 70
     1
102
RTVSPropertyOp8
 70
     1
102
RTVSPropertyOp9
 70
     1
102
RTVSPropertyOp10
 70
     1
102
RTVSPropertyOp11
 70
     1
102
RTVSPropertyOp12
 70
     1
102
RTVSPropertyOp13
 70
     1
102
RTVSPropertyOp14
 70
     1
102
RTVSPropertyOp15
 70
     1
102
RTVSPropertyOp16
 70
     1
102
RTVSPropertyOp17
 70
     1
102
RTVSPropertyOp18
 70
     1
102
RTVSPropertyOp19
 70
     1
102
RTVSPropertyOp20
 70
     1
102
RTVSPropertyOp21
 70
     1
102
RTVSPropertyOp22
 70
     1
102
RTVSPropertyOp23
 70
     1
102
RTVSPropertyOp24
 70
     1
102
RTVSPropertyOp25
 70
     1
102
RTVSPropertyOp26
 70
     1
102
RTVSPropertyOp27
 70
     1
102
RTVSPropertyOp28
 70
     1
102
RTVSPropertyOp29
 70
     1
102
RTVSPropertyOp30
 70
     1
102
RTVSPropertyOp31
 70
     1
102
RTVSPropertyOp32
 70
     1
  0
XRECORD
  5
1FC1
102
{ACAD_REACTORS
330
1FC0
102
}
330
1FC0
100
AcDbXrecord
280
     1
102
RTVSPropertyOp0
 70
     1
102
RTVSPropertyOp1
 70
     1
102
RTVSPropertyOp2
 70
     1
102
RTVSPropertyOp3
 70
     1
102
RTVSPropertyOp4
 70
     1
102
RTVSPropertyOp5
 70
     1
102
RTVSPropertyOp6
 70
     1
102
RTVSPropertyOp7
 70
     1
102
RTVSPropertyOp8
 70
     1
102
RTVSPropertyOp9
 70
     1
102
RTVSPropertyOp10
 70
     1
102
RTVSPropertyOp11
 70
     1
102
RTVSPropertyOp12
 70
     1
102
RTVSPropertyOp13
 70
     1
102
RTVSPropertyOp14
 70
     1
102
RTVSPropertyOp15
 70
     1
102
RTVSPropertyOp16
 70
     1
102
RTVSPropertyOp17
 70
     1
102
RTVSPropertyOp18
 70
     1
102
RTVSPropertyOp19
 70
     1
102
RTVSPropertyOp20
 70
     1
102
RTVSPropertyOp21
 70
     1
102
RTVSPropertyOp22
 70
     1
102
RTVSPropertyOp23
 70
     1
102
RTVSPropertyOp24
 70
     1
102
RTVSPropertyOp25
 70
     1
102
RTVSPropertyOp26
 70
     1
102
RTVSPropertyOp27
 70
     1
102
RTVSPropertyOp28
 70
     1
102
RTVSPropertyOp29
 70
     1
102
RTVSPropertyOp30
 70
     1
102
RTVSPropertyOp31
 70
     1
102
RTVSPropertyOp32
 70
     1
  0
XRECORD
  5
1FBB
102
{ACAD_REACTORS
330
1FBA
102
}
330
1FBA
100
AcDbXrecord
280
     1
102
RTVSPropertyOp0
 70
     1
102
RTVSPropertyOp1
 70
     1
102
RTVSPropertyOp2
 70
     1
102
RTVSPropertyOp3
 70
     1
102
RTVSPropertyOp4
 70
     1
102
RTVSPropertyOp5
 70
     1
102
RTVSPropertyOp6
 70
     1
102
RTVSPropertyOp7
 70
     1
102
RTVSPropertyOp8
 70
     1
102
RTVSPropertyOp9
 70
     1
102
RTVSPropertyOp10
 70
     1
102
RTVSPropertyOp11
 70
     1
102
RTVSPropertyOp12
 70
     1
102
RTVSPropertyOp13
 70
     1
102
RTVSPropertyOp14
 70
     1
102
RTVSPropertyOp15
 70
     1
102
RTVSPropertyOp16
 70
     1
102
RTVSPropertyOp17
 70
     1
102
RTVSPropertyOp18
 70
     1
102
RTVSPropertyOp19
 70
     1
102
RTVSPropertyOp20
 70
     1
102
RTVSPropertyOp21
 70
     1
102
RTVSPropertyOp22
 70
     1
102
RTVSPropertyOp23
 70
     1
102
RTVSPropertyOp24
 70
     1
102
RTVSPropertyOp25
 70
     1
102
RTVSPropertyOp26
 70
     1
102
RTVSPropertyOp27
 70
     1
102
RTVSPropertyOp28
 70
     1
102
RTVSPropertyOp29
 70
     1
102
RTVSPropertyOp30
 70
     1
102
RTVSPropertyOp31
 70
     1
102
RTVSPropertyOp32
 70
     1
  0
XRECORD
  5
1FBD
102
{ACAD_REACTORS
330
1FBC
102
}
330
1FBC
100
AcDbXrecord
280
     1
102
RTVSPropertyOp0
 70
     1
102
RTVSPropertyOp1
 70
     1
102
RTVSPropertyOp2
 70
     1
102
RTVSPropertyOp3
 70
     1
102
RTVSPropertyOp4
 70
     1
102
RTVSPropertyOp5
 70
     1
102
RTVSPropertyOp6
 70
     1
102
RTVSPropertyOp7
 70
     1
102
RTVSPropertyOp8
 70
     1
102
RTVSPropertyOp9
 70
     1
102
RTVSPropertyOp10
 70
     1
102
RTVSPropertyOp11
 70
     1
102
RTVSPropertyOp12
 70
     1
102
RTVSPropertyOp13
 70
     1
102
RTVSPropertyOp14
 70
     1
102
RTVSPropertyOp15
 70
     1
102
RTVSPropertyOp16
 70
     1
102
RTVSPropertyOp17
 70
     1
102
RTVSPropertyOp18
 70
     1
102
RTVSPropertyOp19
 70
     1
102
RTVSPropertyOp20
 70
     1
102
RTVSPropertyOp21
 70
     1
102
RTVSPropertyOp22
 70
     1
102
RTVSPropertyOp23
 70
     1
102
RTVSPropertyOp24
 70
     1
102
RTVSPropertyOp25
 70
     1
102
RTVSPropertyOp26
 70
     1
102
RTVSPropertyOp27
 70
     1
102
RTVSPropertyOp28
 70
     1
102
RTVSPropertyOp29
 70
     1
102
RTVSPropertyOp30
 70
     1
102
RTVSPropertyOp31
 70
     1
102
RTVSPropertyOp32
 70
     1
  0
XRECORD
  5
1FAF
102
{ACAD_REACTORS
330
1FAE
102
}
330
1FAE
100
AcDbXrecord
280
     1
102
RTVSPropertyOp0
 70
     1
102
RTVSPropertyOp1
 70
     1
102
RTVSPropertyOp2
 70
     1
102
RTVSPropertyOp3
 70
     1
102
RTVSPropertyOp4
 70
     1
102
RTVSPropertyOp5
 70
     1
102
RTVSPropertyOp6
 70
     1
102
RTVSPropertyOp7
 70
     1
102
RTVSPropertyOp8
 70
     1
102
RTVSPropertyOp9
 70
     1
102
RTVSPropertyOp10
 70
     1
102
RTVSPropertyOp11
 70
     1
102
RTVSPropertyOp12
 70
     1
102
RTVSPropertyOp13
 70
     1
102
RTVSPropertyOp14
 70
     1
102
RTVSPropertyOp15
 70
     1
102
RTVSPropertyOp16
 70
     1
102
RTVSPropertyOp17
 70
     1
102
RTVSPropertyOp18
 70
     1
102
RTVSPropertyOp19
 70
     1
102
RTVSPropertyOp20
 70
     1
102
RTVSPropertyOp21
 70
     1
102
RTVSPropertyOp22
 70
     1
102
RTVSPropertyOp23
 70
     1
102
RTVSPropertyOp24
 70
     1
102
RTVSPropertyOp25
 70
     1
102
RTVSPropertyOp26
 70
     1
102
RTVSPropertyOp27
 70
     1
102
RTVSPropertyOp28
 70
     1
102
RTVSPropertyOp29
 70
     1
102
RTVSPropertyOp30
 70
     1
102
RTVSPropertyOp31
 70
     1
102
RTVSPropertyOp32
 70
     1
  0
XRECORD
  5
1FB7
102
{ACAD_REACTORS
330
1FB6
102
}
330
1FB6
100
AcDbXrecord
280
     1
102
RTVSPropertyOp0
 70
     1
102
RTVSPropertyOp1
 70
     1
102
RTVSPropertyOp2
 70
     1
102
RTVSPropertyOp3
 70
     1
102
RTVSPropertyOp4
 70
     1
102
RTVSPropertyOp5
 70
     1
102
RTVSPropertyOp6
 70
     1
102
RTVSPropertyOp7
 70
     1
102
RTVSPropertyOp8
 70
     1
102
RTVSPropertyOp9
 70
     1
102
RTVSPropertyOp10
 70
     1
102
RTVSPropertyOp11
 70
     1
102
RTVSPropertyOp12
 70
     1
102
RTVSPropertyOp13
 70
     1
102
RTVSPropertyOp14
 70
     1
102
RTVSPropertyOp15
 70
     1
102
RTVSPropertyOp16
 70
     1
102
RTVSPropertyOp17
 70
     1
102
RTVSPropertyOp18
 70
     1
102
RTVSPropertyOp19
 70
     1
102
RTVSPropertyOp20
 70
     1
102
RTVSPropertyOp21
 70
     1
102
RTVSPropertyOp22
 70
     1
102
RTVSPropertyOp23
 70
     1
102
RTVSPropertyOp24
 70
     1
102
RTVSPropertyOp25
 70
     1
102
RTVSPropertyOp26
 70
     1
102
RTVSPropertyOp27
 70
     1
102
RTVSPropertyOp28
 70
     1
102
RTVSPropertyOp29
 70
     1
102
RTVSPropertyOp30
 70
     1
102
RTVSPropertyOp31
 70
     1
102
RTVSPropertyOp32
 70
     1
  0
XRECORD
  5
1FBF
102
{ACAD_REACTORS
330
1FBE
102
}
330
1FBE
100
AcDbXrecord
280
     1
102
RTVSPropertyOp0
 70
     1
102
RTVSPropertyOp1
 70
     1
102
RTVSPropertyOp2
 70
     1
102
RTVSPropertyOp3
 70
     1
102
RTVSPropertyOp4
 70
     1
102
RTVSPropertyOp5
 70
     1
102
RTVSPropertyOp6
 70
     1
102
RTVSPropertyOp7
 70
     1
102
RTVSPropertyOp8
 70
     1
102
RTVSPropertyOp9
 70
     1
102
RTVSPropertyOp10
 70
     1
102
RTVSPropertyOp11
 70
     1
102
RTVSPropertyOp12
 70
     1
102
RTVSPropertyOp13
 70
     1
102
RTVSPropertyOp14
 70
     1
102
RTVSPropertyOp15
 70
     1
102
RTVSPropertyOp16
 70
     1
102
RTVSPropertyOp17
 70
     1
102
RTVSPropertyOp18
 70
     1
102
RTVSPropertyOp19
 70
     1
102
RTVSPropertyOp20
 70
     1
102
RTVSPropertyOp21
 70
     1
102
RTVSPropertyOp22
 70
     1
102
RTVSPropertyOp23
 70
     1
102
RTVSPropertyOp24
 70
     1
102
RTVSPropertyOp25
 70
     1
102
RTVSPropertyOp26
 70
     1
102
RTVSPropertyOp27
 70
     1
102
RTVSPropertyOp28
 70
     1
102
RTVSPropertyOp29
 70
     1
102
RTVSPropertyOp30
 70
     1
102
RTVSPropertyOp31
 70
     1
102
RTVSPropertyOp32
 70
     1
  0
ENDSEC
  0
EOF
