  0
SECTION
  2
HEADER
  9
$ACADVER
  1
AC1015
  9
$ACADMAINTVER
 70
    20
  9
$DWGCODEPAGE
  3
ANSI_932
  9
$INSBASE
 10
0.0
 20
0.0
 30
0.0
  9
$EXTMIN
 10
-95.14400100000001
 20
-470.40507
 30
0.0
  9
$EXTMAX
 10
628.4537092989511
 20
-147.7522359731722
 30
0.0
  9
$LIMMIN
 10
-95.145005
 20
-470.40606
  9
$LIMMAX
 10
309.8828660000001
 20
-196.348716
  9
$ORTHOMODE
 70
     1
  9
$REGENMODE
 70
     1
  9
$FILLMODE
 70
     1
  9
$QTEXTMODE
 70
     0
  9
$MIRRTEXT
 70
     0
  9
$LTSCALE
 40
6.750430999999997
  9
$ATTMODE
 70
     1
  9
$TEXTSIZE
 40
0.2
  9
$TRACEWID
 40
0.05
  9
$TEXTSTYLE
  7
STANDARD
  9
$CLAYER
  8
0
  9
$CELTYPE
  6
CONTINUOUS
  9
$CECOLOR
 62
   256
  9
$CELTSCALE
 40
1.0
  9
$DISPSILH
 70
     0
  9
$DIMSCALE
 40
1.0
  9
$DIMASZ
 40
2.5
  9
$DIMEXO
 40
0.25
  9
$DIMDLI
 40
0.2
  9
$DIMRND
 40
0.0
  9
$DIMDLE
 40
0.0
  9
$DIMEXE
 40
1.25
  9
$DIMTP
 40
0.0
  9
$DIMTM
 40
0.0
  9
$DIMTXT
 40
3.0
  9
$DIMCEN
 40
0.0
  9
$DIMTSZ
 40
0.0
  9
$DIMTOL
 70
     0
  9
$DIMLIM
 70
     0
  9
$DIMTIH
 70
     0
  9
$DIMTOH
 70
     0
  9
$DIMSE1
 70
     0
  9
$DIMSE2
 70
     0
  9
$DIMTAD
 70
     3
  9
$DIMZIN
 70
     8
  9
$DIMBLK
  1
Open30
  9
$DIMASO
 70
     1
  9
$DIMSHO
 70
     1
  9
$DIMPOST
  1

  9
$DIMAPOST
  1

  9
$DIMALT
 70
     0
  9
$DIMALTD
 70
     3
  9
$DIMALTF
 40
0.03937007874016
  9
$DIMLFAC
 40
1.0
  9
$DIMTOFL
 70
     1
  9
$DIMTVP
 40
0.0
  9
$DIMTIX
 70
     0
  9
$DIMSOXD
 70
     0
  9
$DIMSAH
 70
     0
  9
$DIMBLK1
  1

  9
$DIMBLK2
  1

  9
$DIMSTYLE
  2
1：1
  9
$DIMCLRD
 70
     0
  9
$DIMCLRE
 70
     0
  9
$DIMCLRT
 70
     4
  9
$DIMTFAC
 40
1.0
  9
$DIMGAP
 40
0.625
  9
$DIMJUST
 70
     0
  9
$DIMSD1
 70
     0
  9
$DIMSD2
 70
     0
  9
$DIMTOLJ
 70
     0
  9
$DIMTZIN
 70
     8
  9
$DIMALTZ
 70
     0
  9
$DIMALTTZ
 70
     0
  9
$DIMUPT
 70
     1
  9
$DIMDEC
 70
     2
  9
$DIMTDEC
 70
     2
  9
$DIMALTU
 70
     2
  9
$DIMALTTD
 70
     3
  9
$DIMTXSTY
  7
STANDARD
  9
$DIMAUNIT
 70
     0
  9
$DIMADEC
 70
     1
  9
$DIMALTRND
 40
0.0
  9
$DIMAZIN
 70
     2
  9
$DIMDSEP
 70
    46
  9
$DIMATFIT
 70
     0
  9
$DIMFRAC
 70
     0
  9
$DIMLDRBLK
  1
Open30
  9
$DIMLUNIT
 70
     2
  9
$DIMLWD
 70
    -2
  9
$DIMLWE
 70
    -2
  9
$DIMTMOVE
 70
     0
  9
$LUNITS
 70
     2
  9
$LUPREC
 70
     4
  9
$SKETCHINC
 40
0.1
  9
$FILLETRAD
 40
2.0
  9
$AUNITS
 70
     0
  9
$AUPREC
 70
     0
  9
$MENU
  1
.
  9
$ELEVATION
 40
0.0
  9
$PELEVATION
 40
0.0
  9
$THICKNESS
 40
0.0
  9
$LIMCHECK
 70
     0
  9
$CHAMFERA
 40
1.5
  9
$CHAMFERB
 40
1.5
  9
$CHAMFERC
 40
0.0
  9
$CHAMFERD
 40
0.0
  9
$SKPOLY
 70
     0
  9
$TDCREATE
 40
2455575.375372535
  9
$TDUCREATE
 40
2455575.000372535
  9
$TDUPDATE
 40
2456856.800253391
  9
$TDUUPDATE
 40
2456856.425253391
  9
$TDINDWG
 40
0.1797619676
  9
$TDUSRTIMER
 40
0.1797520255
  9
$USRTIMER
 70
     1
  9
$ANGBASE
 50
0.0
  9
$ANGDIR
 70
     0
  9
$PDMODE
 70
     0
  9
$PDSIZE
 40
0.0
  9
$PLINEWID
 40
0.0
  9
$SPLFRAME
 70
     0
  9
$SPLINETYPE
 70
     6
  9
$SPLINESEGS
 70
     8
  9
$HANDSEED
  5
188A
  9
$SURFTAB1
 70
     6
  9
$SURFTAB2
 70
     6
  9
$SURFTYPE
 70
     6
  9
$SURFU
 70
     6
  9
$SURFV
 70
     6
  9
$UCSBASE
  2

  9
$UCSNAME
  2

  9
$UCSORG
 10
0.0
 20
0.0
 30
0.0
  9
$UCSXDIR
 10
1.0
 20
0.0
 30
0.0
  9
$UCSYDIR
 10
0.0
 20
1.0
 30
0.0
  9
$UCSORTHOREF
  2

  9
$UCSORTHOVIEW
 70
     0
  9
$UCSORGTOP
 10
0.0
 20
0.0
 30
0.0
  9
$UCSORGBOTTOM
 10
0.0
 20
0.0
 30
0.0
  9
$UCSORGLEFT
 10
0.0
 20
0.0
 30
0.0
  9
$UCSORGRIGHT
 10
0.0
 20
0.0
 30
0.0
  9
$UCSORGFRONT
 10
0.0
 20
0.0
 30
0.0
  9
$UCSORGBACK
 10
0.0
 20
0.0
 30
0.0
  9
$PUCSBASE
  2

  9
$PUCSNAME
  2

  9
$PUCSORG
 10
0.0
 20
0.0
 30
0.0
  9
$PUCSXDIR
 10
1.0
 20
0.0
 30
0.0
  9
$PUCSYDIR
 10
0.0
 20
1.0
 30
0.0
  9
$PUCSORTHOREF
  2

  9
$PUCSORTHOVIEW
 70
     0
  9
$PUCSORGTOP
 10
0.0
 20
0.0
 30
0.0
  9
$PUCSORGBOTTOM
 10
0.0
 20
0.0
 30
0.0
  9
$PUCSORGLEFT
 10
0.0
 20
0.0
 30
0.0
  9
$PUCSORGRIGHT
 10
0.0
 20
0.0
 30
0.0
  9
$PUCSORGFRONT
 10
0.0
 20
0.0
 30
0.0
  9
$PUCSORGBACK
 10
0.0
 20
0.0
 30
0.0
  9
$USERI1
 70
     0
  9
$USERI2
 70
     0
  9
$USERI3
 70
     0
  9
$USERI4
 70
     0
  9
$USERI5
 70
     0
  9
$USERR1
 40
0.0
  9
$USERR2
 40
0.0
  9
$USERR3
 40
0.0
  9
$USERR4
 40
0.0
  9
$USERR5
 40
0.0
  9
$WORLDVIEW
 70
     1
  9
$SHADEDGE
 70
     3
  9
$SHADEDIF
 70
    70
  9
$TILEMODE
 70
     1
  9
$MAXACTVP
 70
    64
  9
$PINSBASE
 10
0.0
 20
0.0
 30
0.0
  9
$PLIMCHECK
 70
     0
  9
$PEXTMIN
 10
1.000000000000000E+20
 20
1.000000000000000E+20
 30
1.000000000000000E+20
  9
$PEXTMAX
 10
-1.000000000000000E+20
 20
-1.000000000000000E+20
 30
-1.000000000000000E+20
  9
$PLIMMIN
 10
0.0
 20
0.0
  9
$PLIMMAX
 10
12.0
 20
9.0
  9
$UNITMODE
 70
     0
  9
$VISRETAIN
 70
     1
  9
$PLINEGEN
 70
     0
  9
$PSLTSCALE
 70
     1
  9
$TREEDEPTH
 70
  3020
  9
$CMLSTYLE
  2
Standard
  9
$CMLJUST
 70
     0
  9
$CMLSCALE
 40
1.0
  9
$PROXYGRAPHICS
 70
     1
  9
$MEASUREMENT
 70
     0
  9
$CELWEIGHT
370
    -1
  9
$ENDCAPS
280
     0
  9
$JOINSTYLE
280
     0
  9
$LWDISPLAY
290
     0
  9
$INSUNITS
 70
     0
  9
$HYPERLINKBASE
  1

  9
$STYLESHEET
  1
N-PLOT.CTB
  9
$XEDIT
290
     1
  9
$CEPSNTYPE
380
     0
  9
$PSTYLEMODE
290
     1
  9
$FINGERPRINTGUID
  2
{2A3F7B22-A626-4F2D-A715-4CD5CF4FB3F8}
  9
$VERSIONGUID
  2
{6B6A58C7-B57B-47B2-8E41-E231759CFBA2}
  9
$EXTNAMES
290
     1
  9
$PSVPSCALE
 40
0.0
  9
$OLESTARTUP
290
     0
  0
ENDSEC
  0
SECTION
  2
CLASSES
  0
CLASS
  1
ACDBDICTIONARYWDFLT
  2
AcDbDictionaryWithDefault
  3
ObjectDBX Classes
 90
        0
280
     0
281
     0
  0
CLASS
  1
MATERIAL
  2
AcDbMaterial
  3
ObjectDBX Classes
 90
     1153
280
     0
281
     0
  0
CLASS
  1
VISUALSTYLE
  2
AcDbVisualStyle
  3
ObjectDBX Classes
 90
     4095
280
     0
281
     0
  0
CLASS
  1
TABLESTYLE
  2
AcDbTableStyle
  3
ObjectDBX Classes
 90
     4095
280
     0
281
     0
  0
CLASS
  1
DICTIONARYVAR
  2
AcDbDictionaryVar
  3
ObjectDBX Classes
 90
        0
280
     0
281
     0
  0
CLASS
  1
SORTENTSTABLE
  2
AcDbSortentsTable
  3
ObjectDBX Classes
 90
        0
280
     0
281
     0
  0
CLASS
  1
ACDBPLACEHOLDER
  2
AcDbPlaceHolder
  3
ObjectDBX Classes
 90
        0
280
     0
281
     0
  0
CLASS
  1
LAYOUT
  2
AcDbLayout
  3
ObjectDBX Classes
 90
        0
280
     0
281
     0
  0
CLASS
  1
SCALE
  2
AcDbScale
  3
ObjectDBX Classes
 90
     1153
280
     0
281
     0
  0
CLASS
  1
MLEADERSTYLE
  2
AcDbMLeaderStyle
  3
ACDB_MLEADERSTYLE_CLASS
 90
     4095
280
     0
281
     0
  0
CLASS
  1
CELLSTYLEMAP
  2
AcDbCellStyleMap
  3
ObjectDBX Classes
 90
     1152
280
     0
281
     0
  0
ENDSEC
  0
SECTION
  2
TABLES
  0
TABLE
  2
VPORT
  5
8
330
0
100
AcDbSymbolTable
 70
     1
  0
VPORT
  5
5A
330
8
100
AcDbSymbolTableRecord
100
AcDbViewportTableRecord
  2
*Active
 70
     0
 10
0.0
 20
0.0
 11
1.0
 21
1.0
 12
290.1271852309043
 22
-369.5442205879952
 13
0.0
 23
0.0
 14
1.0
 24
1.0
 15
0.0
 25
0.0
 16
0.0
 26
0.0
 36
1.0
 17
0.0
 27
0.0
 37
0.0
 40
500.7632760703784
 41
2.289370078740157
 42
50.0
 43
0.0
 44
0.0
 50
0.0
 51
0.0
 71
     0
 72
  1000
 73
     1
 74
     1
 75
     0
 76
     0
 77
     0
 78
     0
281
     0
 65
     1
110
0.0
120
0.0
130
0.0
111
1.0
121
0.0
131
0.0
112
0.0
122
1.0
132
0.0
 79
     0
146
0.0
  0
ENDTAB
  0
TABLE
  2
LTYPE
  5
5
330
0
100
AcDbSymbolTable
 70
    25
  0
LTYPE
  5
28
330
5
100
AcDbSymbolTableRecord
100
AcDbLinetypeTableRecord
  2
ByBlock
 70
     0
  3

 72
    65
 73
     0
 40
0.0
  0
LTYPE
  5
29
330
5
100
AcDbSymbolTableRecord
100
AcDbLinetypeTableRecord
  2
ByLayer
 70
     0
  3

 72
    65
 73
     0
 40
0.0
  0
LTYPE
  5
2A
330
5
100
AcDbSymbolTableRecord
100
AcDbLinetypeTableRecord
  2
CONTINUOUS
 70
     0
  3
Solid-line
 72
    65
 73
     0
 40
0.0
  0
ENDTAB
  0
TABLE
  2
LAYER
  5
2
102
{ACAD_XDICTIONARY
360
967
102
}
330
0
100
AcDbSymbolTable
 70
     7
  0
LAYER
  5
25
102
{ACAD_XDICTIONARY
360
F74
102
}
330
2
100
AcDbSymbolTableRecord
100
AcDbLayerTableRecord
  2
0
 70
     0
 62
     7
  6
CONTINUOUS
370
    -3
390
F
  0
LAYER
  5
95F
330
2
100
AcDbSymbolTableRecord
100
AcDbLayerTableRecord
  2
Defpoints
 70
     0
 62
     7
  6
CONTINUOUS
290
     0
370
    -3
390
F
  0
ENDTAB
  0
TABLE
  2
STYLE
  5
3
330
0
100
AcDbSymbolTable
 70
     7
  0
STYLE
  5
26
330
3
100
AcDbSymbolTableRecord
100
AcDbTextStyleTableRecord
  2
STANDARD
 70
     0
 40
0.0
 41
1.0
 50
0.0
 71
     0
 42
0.2
  3
TXT
  4
BIGFONT
  0
STYLE
  5
1170
330
3
100
AcDbSymbolTableRecord
100
AcDbTextStyleTableRecord
  2
高3.2
 70
     0
 40
3.2
 41
1.0
 50
0.0
 71
     0
 42
3.2
  3
txt.shx
  4
bigfont.shx
  0
STYLE
  5
1171
330
3
100
AcDbSymbolTableRecord
100
AcDbTextStyleTableRecord
  2
高6.3
 70
     0
 40
6.299999999999998
 41
1.0
 50
0.0
 71
     0
 42
6.299999999999998
  3
txt.shx
  4
bigfont.shx
  0
STYLE
  5
1172
330
3
100
AcDbSymbolTableRecord
100
AcDbTextStyleTableRecord
  2
高2.5
 70
     0
 40
2.5
 41
1.0
 50
0.0
 71
     0
 42
0.2
  3
txt.shx
  4
bigfont.shx
  0
STYLE
  5
1173
330
3
100
AcDbSymbolTableRecord
100
AcDbTextStyleTableRecord
  2
高4.5
 70
     0
 40
4.5
 41
1.0
 50
0.0
 71
     0
 42
6.299999999999998
  3
txt.shx
  4
bigfont.shx
  0
STYLE
  5
1174
330
3
100
AcDbSymbolTableRecord
100
AcDbTextStyleTableRecord
  2
高2
 70
     0
 40
2.0
 41
1.0
 50
0.0
 71
     0
 42
6.299999999999998
  3
txt.shx
  4
bigfont.shx
  0
ENDTAB
  0
TABLE
  2
VIEW
  5
6
330
0
100
AcDbSymbolTable
 70
     0
  0
ENDTAB
  0
TABLE
  2
UCS
  5
7
330
0
100
AcDbSymbolTable
 70
     0
  0
ENDTAB
  0
TABLE
  2
APPID
  5
9
330
0
100
AcDbSymbolTable
 70
    10
  0
APPID
  5
27
330
9
100
AcDbSymbolTableRecord
100
AcDbRegAppTableRecord
  2
ACAD
 70
     0
  0
APPID
  5
966
330
9
100
AcDbSymbolTableRecord
100
AcDbRegAppTableRecord
  2
ACAD_DSTYLE_DIMJOGGED_JOGANGLE_SYMBOL
 70
     0
  0
APPID
  5
CAC
330
9
100
AcDbSymbolTableRecord
100
AcDbRegAppTableRecord
  2
ACAD_EXEMPT_FROM_CAD_STANDARDS
 70
     0
  0
APPID
  5
DFC
330
9
100
AcDbSymbolTableRecord
100
AcDbRegAppTableRecord
  2
ACAD_PSEXT
 70
     0
  0
APPID
  5
E92
330
9
100
AcDbSymbolTableRecord
100
AcDbRegAppTableRecord
  2
ACAD_DSTYLE_DIMARC_LENGTH_SYMBOL
 70
     0
  0
APPID
  5
E93
330
9
100
AcDbSymbolTableRecord
100
AcDbRegAppTableRecord
  2
ACAD_DSTYLE_DIMEXT_LENGTH
 70
     0
  0
APPID
  5
FC4
330
9
100
AcDbSymbolTableRecord
100
AcDbRegAppTableRecord
  2
ACAD_MLEADERVER
 70
     0
  0
APPID
  5
1179
330
9
100
AcDbSymbolTableRecord
100
AcDbRegAppTableRecord
  2
ACAD_DSTYLE_DIMJAG
 70
     0
  0
APPID
  5
117A
330
9
100
AcDbSymbolTableRecord
100
AcDbRegAppTableRecord
  2
ACAD_DSTYLE_DIMBREAK
 70
     0
  0
APPID
  5
117B
330
9
100
AcDbSymbolTableRecord
100
AcDbRegAppTableRecord
  2
ACAD_DSTYLE_DIMTALN
 70
     0
  0
ENDTAB
  0
TABLE
  2
DIMSTYLE
  5
A
330
0
100
AcDbSymbolTable
 70
    11
100
AcDbDimStyleTable
 71
     2
340
960
340
923
  0
DIMSTYLE
105
923
330
A
100
AcDbSymbolTableRecord
100
AcDbDimStyleTableRecord
  2
Standard
 70
     0
340
26
  0
DIMSTYLE
105
960
330
A
100
AcDbSymbolTableRecord
100
AcDbDimStyleTableRecord
  2
1：1
 70
     0
 41
2.5
 42
0.25
 43
0.2
 44
1.25
 73
     0
 74
     0
 77
     3
 78
     8
 79
     2
140
3.0
141
0.0
143
0.03937007874016
147
0.625
171
     3
172
     1
178
     4
179
     1
271
     2
272
     2
274
     3
283
     0
284
     8
288
     1
289
     0
340
26
341
94D
342
94D
1001
ACAD_DSTYLE_DIMARC_LENGTH_SYMBOL
1070
   379
1070
     2
1001
ACAD_DSTYLE_DIMEXT_LENGTH
1070
   378
1040
1.25
1001
ACAD_DSTYLE_DIMJOGGED_JOGANGLE_SYMBOL
1070
   384
1040
1.570796326794896
  0
DIMSTYLE
105
961
330
A
100
AcDbSymbolTableRecord
100
AcDbDimStyleTableRecord
  2
2：1
 70
     0
 41
2.5
 42
0.25
 43
0.2
 44
1.25
 73
     0
 74
     0
 77
     3
 78
     8
 79
     2
140
3.0
141
0.0
143
0.03937007874016
144
0.5
147
0.625
171
     3
172
     1
178
     4
179
     1
271
     2
272
     2
274
     3
283
     0
284
     8
288
     1
289
     0
340
26
341
94D
342
94D
1001
ACAD_DSTYLE_DIMARC_LENGTH_SYMBOL
1070
   379
1070
     2
1001
ACAD_DSTYLE_DIMEXT_LENGTH
1070
   378
1040
1.25
1001
ACAD_DSTYLE_DIMJOGGED_JOGANGLE_SYMBOL
1070
   384
1040
1.570796326794896
  0
DIMSTYLE
105
962
330
A
100
AcDbSymbolTableRecord
100
AcDbDimStyleTableRecord
  2
5：1
 70
     0
 41
2.5
 42
0.25
 43
0.2
 44
1.25
 73
     0
 74
     0
 77
     3
 78
     8
 79
     2
140
3.0
141
0.0
143
0.03937007874016
144
0.2
147
0.625
171
     3
178
     4
179
     1
271
     2
272
     2
274
     3
283
     0
284
     8
288
     1
289
     0
340
26
341
94D
342
94D
1001
ACAD_DSTYLE_DIMARC_LENGTH_SYMBOL
1070
   379
1070
     2
1001
ACAD_DSTYLE_DIMEXT_LENGTH
1070
   378
1040
1.25
1001
ACAD_DSTYLE_DIMJOGGED_JOGANGLE_SYMBOL
1070
   384
1040
1.570796326794896
  0
DIMSTYLE
105
963
330
A
100
AcDbSymbolTableRecord
100
AcDbDimStyleTableRecord
  2
1／2
 70
     0
 41
2.5
 42
0.25
 43
0.2
 44
1.25
 73
     0
 74
     0
 77
     3
 78
     8
 79
     2
140
3.0
141
0.0
143
0.03937007874016
144
2.0
147
0.625
171
     3
172
     1
178
     4
179
     1
271
     2
272
     2
274
     3
283
     0
284
     8
288
     1
289
     0
340
26
341
94D
342
94D
1001
ACAD_DSTYLE_DIMARC_LENGTH_SYMBOL
1070
   379
1070
     2
1001
ACAD_DSTYLE_DIMEXT_LENGTH
1070
   378
1040
1.25
1001
ACAD_DSTYLE_DIMJOGGED_JOGANGLE_SYMBOL
1070
   384
1040
1.570796326794896
  0
DIMSTYLE
105
964
330
A
100
AcDbSymbolTableRecord
100
AcDbDimStyleTableRecord
  2
1／5
 70
     0
 41
2.5
 42
0.25
 43
0.2
 44
1.25
 73
     0
 74
     0
 77
     3
 78
     8
 79
     2
140
3.0
141
0.0
143
0.03937007874016
144
5.0
147
0.625
171
     3
172
     1
178
     4
179
     1
271
     2
272
     2
274
     3
283
     0
284
     8
288
     1
289
     0
340
26
341
94D
342
94D
1001
ACAD_DSTYLE_DIMARC_LENGTH_SYMBOL
1070
   379
1070
     2
1001
ACAD_DSTYLE_DIMEXT_LENGTH
1070
   378
1040
1.25
1001
ACAD_DSTYLE_DIMJOGGED_JOGANGLE_SYMBOL
1070
   384
1040
1.570796326794896
  0
DIMSTYLE
105
965
330
A
100
AcDbSymbolTableRecord
100
AcDbDimStyleTableRecord
  2
1／10
 70
     0
 41
2.5
 42
0.25
 43
0.2
 44
1.25
 73
     0
 74
     0
 77
     3
 78
     8
 79
     2
140
3.0
141
0.0
143
0.03937007874016
144
10.0
147
0.625
171
     3
172
     1
178
     4
179
     1
271
     2
272
     2
274
     3
283
     0
284
     8
288
     1
289
     0
340
26
341
94D
342
94D
1001
ACAD_DSTYLE_DIMARC_LENGTH_SYMBOL
1070
   379
1070
     2
1001
ACAD_DSTYLE_DIMEXT_LENGTH
1070
   378
1040
1.25
1001
ACAD_DSTYLE_DIMJOGGED_JOGANGLE_SYMBOL
1070
   384
1040
1.570796326794896
  0
DIMSTYLE
105
1175
330
A
100
AcDbSymbolTableRecord
100
AcDbDimStyleTableRecord
  2
10：1
 70
     0
 41
2.5
 42
0.25
 43
0.2
 44
1.25
 73
     0
 74
     0
 77
     3
 78
     8
 79
     2
140
3.0
141
0.0
143
0.03937007874016
144
0.1
147
0.625
171
     3
172
     1
178
     4
179
     1
271
     2
272
     2
274
     3
283
     0
284
     8
288
     1
289
     0
340
26
341
94D
342
94D
1001
ACAD_DSTYLE_DIMARC_LENGTH_SYMBOL
1070
   379
1070
     2
1001
ACAD_DSTYLE_DIMEXT_LENGTH
1070
   378
1040
1.25
1001
ACAD_DSTYLE_DIMJOGGED_JOGANGLE_SYMBOL
1070
   384
1040
1.570796326794896
  0
DIMSTYLE
105
1176
330
A
100
AcDbSymbolTableRecord
100
AcDbDimStyleTableRecord
  2
1／4
 70
     0
 41
2.5
 42
0.25
 43
0.2
 44
1.25
 73
     0
 74
     0
 77
     3
 78
     8
 79
     2
140
3.0
141
0.0
143
0.03937007874016
144
4.0
147
0.625
171
     3
172
     1
178
     4
179
     1
271
     2
272
     2
274
     3
283
     0
284
     8
288
     1
289
     0
340
26
341
94D
342
94D
1001
ACAD_DSTYLE_DIMARC_LENGTH_SYMBOL
1070
   379
1070
     2
1001
ACAD_DSTYLE_DIMEXT_LENGTH
1070
   378
1040
1.25
1001
ACAD_DSTYLE_DIMJOGGED_JOGANGLE_SYMBOL
1070
   384
1040
1.570796326794896
  0
DIMSTYLE
105
1177
330
A
100
AcDbSymbolTableRecord
100
AcDbDimStyleTableRecord
  2
1／3
 70
     0
 41
2.5
 42
0.25
 43
0.2
 44
1.25
 73
     0
 74
     0
 77
     3
 78
     8
 79
     2
140
3.0
141
0.0
143
0.03937007874016
144
3.0
147
0.625
171
     3
172
     1
178
     4
179
     1
271
     2
272
     2
274
     3
283
     0
284
     8
288
     1
289
     0
340
26
341
94D
342
94D
1001
ACAD_DSTYLE_DIMARC_LENGTH_SYMBOL
1070
   379
1070
     2
1001
ACAD_DSTYLE_DIMEXT_LENGTH
1070
   378
1040
1.25
1001
ACAD_DSTYLE_DIMJOGGED_JOGANGLE_SYMBOL
1070
   384
1040
1.570796326794896
  0
DIMSTYLE
105
1178
330
A
100
AcDbSymbolTableRecord
100
AcDbDimStyleTableRecord
  2
FREE
 70
     0
 41
2.5
 42
0.25
 43
0.2
 44
1.25
 73
     0
 74
     0
 77
     3
 78
     8
 79
     2
140
3.0
141
0.0
143
0.03937007874016
147
0.625
171
     3
172
     1
178
     4
179
     1
271
     2
272
     2
274
     3
283
     0
284
     8
288
     1
289
     0
340
26
341
94D
342
94D
1001
ACAD_DSTYLE_DIMBREAK
1070
   391
1040
3.75
1001
ACAD_DSTYLE_DIMJAG
1070
   388
1040
1.5
1001
ACAD_DSTYLE_DIMTALN
1070
   392
1070
     0
1001
ACAD_DSTYLE_DIMARC_LENGTH_SYMBOL
1070
   379
1070
     2
1001
ACAD_DSTYLE_DIMEXT_LENGTH
1070
   378
1040
1.25
1001
ACAD_DSTYLE_DIMJOGGED_JOGANGLE_SYMBOL
1070
   384
1040
1.570796326794896
  0
ENDTAB
  0
TABLE
  2
BLOCK_RECORD
  5
1
330
0
100
AcDbSymbolTable
 70
    50
  0
BLOCK_RECORD
  5
36
102
{ACAD_XDICTIONARY
360
92F
102
}
330
1
100
AcDbSymbolTableRecord
100
AcDbBlockTableRecord
  2
*Model_Space
340
39
  0
BLOCK_RECORD
  5
32
330
1
100
AcDbSymbolTableRecord
100
AcDbBlockTableRecord
  2
*Paper_Space
340
35
  0
BLOCK_RECORD
  5
94D
330
1
100
AcDbSymbolTableRecord
100
AcDbBlockTableRecord
  2
_Open30
340
0
102
{BLKREFS
331
15A2
331
15A3
331
15AA
331
15AB
331
15B3
331
15B4
331
15BC
331
15BD
331
15C7
331
15C8
331
15D0
331
15D1
331
15D9
331
15DA
331
1742
331
1743
331
174D
331
174E
331
1758
331
1759
331
1763
331
1764
331
176E
331
176F
331
1779
331
177A
331
1783
331
1784
331
178E
331
178F
331
1799
331
179A
331
17A2
331
17A3
102
}
  0
BLOCK_RECORD
  5
D3A
330
1
100
AcDbSymbolTableRecord
100
AcDbBlockTableRecord
  2
*D2
340
0
  0
BLOCK_RECORD
  5
D4A
330
1
100
AcDbSymbolTableRecord
100
AcDbBlockTableRecord
  2
*D3
340
0
  0
BLOCK_RECORD
  5
D64
330
1
100
AcDbSymbolTableRecord
100
AcDbBlockTableRecord
  2
*D4
340
0
  0
BLOCK_RECORD
  5
D81
330
1
100
AcDbSymbolTableRecord
100
AcDbBlockTableRecord
  2
*D5
340
0
  0
BLOCK_RECORD
  5
DB7
330
1
100
AcDbSymbolTableRecord
100
AcDbBlockTableRecord
  2
*D6
340
0
  0
BLOCK_RECORD
  5
DD1
330
1
100
AcDbSymbolTableRecord
100
AcDbBlockTableRecord
  2
*D7
340
0
  0
BLOCK_RECORD
  5
E1C
330
1
100
AcDbSymbolTableRecord
100
AcDbBlockTableRecord
  2
*D8
340
0
  0
BLOCK_RECORD
  5
16B4
330
1
100
AcDbSymbolTableRecord
100
AcDbBlockTableRecord
  2
*D40
340
0
  0
BLOCK_RECORD
  5
16C2
330
1
100
AcDbSymbolTableRecord
100
AcDbBlockTableRecord
  2
*D41
340
0
  0
BLOCK_RECORD
  5
16D0
330
1
100
AcDbSymbolTableRecord
100
AcDbBlockTableRecord
  2
*D42
340
0
  0
BLOCK_RECORD
  5
16DE
330
1
100
AcDbSymbolTableRecord
100
AcDbBlockTableRecord
  2
*D43
340
0
  0
BLOCK_RECORD
  5
16EC
330
1
100
AcDbSymbolTableRecord
100
AcDbBlockTableRecord
  2
*D44
340
0
  0
BLOCK_RECORD
  5
16FA
330
1
100
AcDbSymbolTableRecord
100
AcDbBlockTableRecord
  2
*D45
340
0
  0
BLOCK_RECORD
  5
1708
330
1
100
AcDbSymbolTableRecord
100
AcDbBlockTableRecord
  2
*D46
340
0
  0
BLOCK_RECORD
  5
1715
330
1
100
AcDbSymbolTableRecord
100
AcDbBlockTableRecord
  2
*D47
340
0
  0
BLOCK_RECORD
  5
1723
330
1
100
AcDbSymbolTableRecord
100
AcDbBlockTableRecord
  2
*D48
340
0
  0
BLOCK_RECORD
  5
1731
330
1
100
AcDbSymbolTableRecord
100
AcDbBlockTableRecord
  2
*D49
340
0
  0
ENDTAB
  0
ENDSEC
  0
SECTION
  2
BLOCKS
  0
BLOCK
  5
37
330
36
100
AcDbEntity
  8
0
100
AcDbBlockBegin
  2
*Model_Space
 70
     0
 10
0.0
 20
0.0
 30
0.0
  3
*Model_Space
  1

  0
ENDBLK
  5
38
330
36
100
AcDbEntity
  8
0
100
AcDbBlockEnd
  0
BLOCK
  5
33
330
32
100
AcDbEntity
 67
     1
  8
0
100
AcDbBlockBegin
  2
*Paper_Space
 70
     0
 10
0.0
 20
0.0
 30
0.0
  3
*Paper_Space
  1

  0
ENDBLK
  5
34
330
32
100
AcDbEntity
 67
     1
  8
0
100
AcDbBlockEnd
  0
BLOCK
  5
94E
330
94D
100
AcDbEntity
  8
0
100
AcDbBlockBegin
  2
_Open30
 70
     0
 10
0.0
 20
0.0
 30
0.0
  3
_Open30
  1

  0
LINE
  5
94F
330
94D
100
AcDbEntity
  8
0
  6
ByBlock
 62
     0
370
    -2
100
AcDbLine
 10
-1.0
 20
0.267949
 30
0.0
 11
0.0
 21
0.0
 31
0.0
  0
LINE
  5
950
330
94D
100
AcDbEntity
  8
0
  6
ByBlock
 62
     0
370
    -2
100
AcDbLine
 10
0.0
 20
0.0
 30
0.0
 11
-1.0
 21
-0.267949
 31
0.0
  0
LINE
  5
951
330
94D
100
AcDbEntity
  8
0
  6
ByBlock
 62
     0
370
    -2
100
AcDbLine
 10
0.0
 20
0.0
 30
0.0
 11
-1.0
 21
0.0
 31
0.0
  0
ENDBLK
  5
952
330
94D
100
AcDbEntity
  8
0
100
AcDbBlockEnd
  0
BLOCK
  5
D41
330
D3A
100
AcDbEntity
  8
0
100
AcDbBlockBegin
  2
*D2
 70
     1
 10
0.0
 20
0.0
 30
0.0
  3
*D2
  1

  0
LINE
  5
15A1
330
D3A
100
AcDbEntity
  8
0
  6
Continuous
 62
     0
370
    -2
100
AcDbLine
 10
44.91044446536145
 20
-423.9792672383301
 30
0.0
 11
124.7725347188095
 21
-369.7958989628751
 31
0.0
  0
INSERT
  5
15A2
330
D3A
100
AcDbEntity
  8
0
  6
Continuous
 62
     0
370
    -2
100
AcDbBlockReference
  2
_Open30
 10
42.84164954676813
 20
-425.3828653235392
 30
0.0
 41
2.5
 42
2.5
 43
2.5
 50
214.1553889157514
  0
INSERT
  5
15A3
330
D3A
100
AcDbEntity
  8
0
  6
Continuous
 62
     0
370
    -2
100
AcDbBlockReference
  2
_Open30
 10
126.8413296374027
 20
-368.392300877666
 30
0.0
 41
2.5
 42
2.5
 43
2.5
 50
34.15538891575141
  0
MTEXT
  5
15A4
330
D3A
100
AcDbEntity
  8
0
  6
Continuous
 62
     4
100
AcDbMText
 10
91.27858338680546
 20
-389.9523415280181
 30
0.0
 40
3.0
 41
0.0
 71
     5
 72
     1
  1
MAX%%C350
 11
0.8275179674373248
 21
0.5614392340836174
 31
0.0
 73
     1
 44
1.0
1001
ACAD
1000
MTEXTBEGIN
1070
    73
1070
     1
1070
    44
1040
1.0
1070
    74
1070
     0
1000
MTEXTEND
  0
POINT
  5
15A5
330
D3A
100
AcDbEntity
  8
Defpoints
  6
Continuous
 62
     0
100
AcDbPoint
 10
126.8413296374027
 20
-368.392300877666
 30
0.0
  0
POINT
  5
15A6
330
D3A
100
AcDbEntity
  8
Defpoints
  6
Continuous
 62
     0
100
AcDbPoint
 10
42.84164954676813
 20
-425.3828653235392
 30
0.0
  0
ENDBLK
  5
D42
330
D3A
100
AcDbEntity
  8
0
100
AcDbBlockEnd
  0
BLOCK
  5
D54
330
D4A
100
AcDbEntity
  8
0
100
AcDbBlockBegin
  2
*D3
 70
     1
 10
0.0
 20
0.0
 30
0.0
  3
*D3
  1

  0
LINE
  5
15A7
330
D4A
100
AcDbEntity
  8
0
  6
Continuous
 62
     0
370
    -2
100
AcDbLine
 10
191.2275219710136
 20
-293.4142660567485
 30
0.0
 11
211.3159042825555
 21
-293.4142660567485
 31
0.0
  0
LINE
  5
15A8
330
D4A
100
AcDbEntity
  8
0
  6
Continuous
 62
     0
370
    -2
100
AcDbLine
 10
195.062433082066
 20
-323.4142660567485
 30
0.0
 11
211.3159042825554
 21
-323.4142660567485
 31
0.0
  0
LINE
  5
15A9
330
D4A
100
AcDbEntity
  8
0
  6
Continuous
 62
     0
370
    -2
100
AcDbLine
 10
210.0659042825554
 20
-295.9142660567485
 30
0.0
 11
210.0659042825554
 21
-320.9142660567485
 31
0.0
  0
INSERT
  5
15AA
330
D4A
100
AcDbEntity
  8
0
  6
Continuous
 62
     0
370
    -2
100
AcDbBlockReference
  2
_Open30
 10
210.0659042825554
 20
-293.4142660567485
 30
0.0
 41
2.5
 42
2.5
 43
2.5
 50
90.0
  0
INSERT
  5
15AB
330
D4A
100
AcDbEntity
  8
0
  6
Continuous
 62
     0
370
    -2
100
AcDbBlockReference
  2
_Open30
 10
210.0659042825554
 20
-323.4142660567485
 30
0.0
 41
2.5
 42
2.5
 43
2.5
 50
270.0
  0
MTEXT
  5
15AC
330
D4A
100
AcDbEntity
  8
0
  6
Continuous
 62
     4
100
AcDbMText
 10
207.9409042825555
 20
-309.7365348816488
 30
0.0
 40
3.0
 41
0.0
 71
     5
 72
     1
  1
30
 11
0.0000000000000001
 21
1.0
 31
0.0
 73
     1
 44
1.0
1001
ACAD
1000
MTEXTBEGIN
1070
    73
1070
     1
1070
    44
1040
1.0
1070
    74
1070
     0
1000
MTEXTEND
  0
POINT
  5
15AD
330
D4A
100
AcDbEntity
  8
Defpoints
  6
Continuous
 62
     0
100
AcDbPoint
 10
190.9775219710136
 20
-293.4142660567485
 30
0.0
  0
POINT
  5
15AE
330
D4A
100
AcDbEntity
  8
Defpoints
  6
Continuous
 62
     0
100
AcDbPoint
 10
194.812433082066
 20
-323.4142660567485
 30
0.0
  0
POINT
  5
15AF
330
D4A
100
AcDbEntity
  8
Defpoints
  6
Continuous
 62
     0
100
AcDbPoint
 10
210.0659042825554
 20
-323.4142660567485
 30
0.0
  0
ENDBLK
  5
D55
330
D4A
100
AcDbEntity
  8
0
100
AcDbBlockEnd
  0
BLOCK
  5
D6E
330
D64
100
AcDbEntity
  8
0
100
AcDbBlockBegin
  2
*D4
 70
     1
 10
0.0
 20
0.0
 30
0.0
  3
*D4
  1

  0
LINE
  5
15B0
330
D64
100
AcDbEntity
  8
0
  6
Continuous
 62
     0
370
    -2
100
AcDbLine
 10
-16.58585296182866
 20
-302.4142660567485
 30
0.0
 11
-28.07363245980349
 21
-302.4142660567485
 31
0.0
  0
LINE
  5
15B1
330
D64
100
AcDbEntity
  8
0
  6
Continuous
 62
     0
370
    -2
100
AcDbLine
 10
-11.30234765247741
 20
-314.4142660567485
 30
0.0
 11
-28.07363245980349
 21
-314.4142660567485
 31
0.0
  0
LINE
  5
15B2
330
D64
100
AcDbEntity
  8
0
  6
Continuous
 62
     0
370
    -2
100
AcDbLine
 10
-26.82363245980349
 20
-304.9142660567485
 30
0.0
 11
-26.82363245980349
 21
-311.9142660567485
 31
0.0
  0
INSERT
  5
15B3
330
D64
100
AcDbEntity
  8
0
  6
Continuous
 62
     0
370
    -2
100
AcDbBlockReference
  2
_Open30
 10
-26.82363245980349
 20
-302.4142660567485
 30
0.0
 41
2.5
 42
2.5
 43
2.5
 50
90.0
  0
INSERT
  5
15B4
330
D64
100
AcDbEntity
  8
0
  6
Continuous
 62
     0
370
    -2
100
AcDbBlockReference
  2
_Open30
 10
-26.82363245980349
 20
-314.4142660567485
 30
0.0
 41
2.5
 42
2.5
 43
2.5
 50
270.0
  0
MTEXT
  5
15B5
330
D64
100
AcDbEntity
  8
0
  6
Continuous
 62
     4
100
AcDbMText
 10
-28.94863245980344
 20
-308.2834752731652
 30
0.0
 40
3.0
 41
0.0
 71
     5
 72
     1
  1
12
 11
0.0000000000000001
 21
1.0
 31
0.0
 73
     1
 44
1.0
1001
ACAD
1000
MTEXTBEGIN
1070
    73
1070
     1
1070
    44
1040
1.0
1070
    74
1070
     0
1000
MTEXTEND
  0
POINT
  5
15B6
330
D64
100
AcDbEntity
  8
Defpoints
  6
Continuous
 62
     0
100
AcDbPoint
 10
-16.33585296182866
 20
-302.4142660567485
 30
0.0
  0
POINT
  5
15B7
330
D64
100
AcDbEntity
  8
Defpoints
  6
Continuous
 62
     0
100
AcDbPoint
 10
-11.05234765247741
 20
-314.4142660567485
 30
0.0
  0
POINT
  5
15B8
330
D64
100
AcDbEntity
  8
Defpoints
  6
Continuous
 62
     0
100
AcDbPoint
 10
-26.82363245980349
 20
-314.4142660567485
 30
0.0
  0
ENDBLK
  5
D6F
330
D64
100
AcDbEntity
  8
0
100
AcDbBlockEnd
  0
BLOCK
  5
D8B
330
D81
100
AcDbEntity
  8
0
100
AcDbBlockBegin
  2
*D5
 70
     1
 10
0.0
 20
0.0
 30
0.0
  3
*D5
  1

  0
LINE
  5
15B9
330
D81
100
AcDbEntity
  8
0
  6
Continuous
 62
     0
370
    -2
100
AcDbLine
 10
56.7486907458815
 20
-256.2548757208462
 30
0.0
 11
42.73195740404737
 21
-256.2548757208462
 31
0.0
  0
LINE
  5
15BA
330
D81
100
AcDbEntity
  8
0
  6
Continuous
 62
     0
370
    -2
100
AcDbLine
 10
56.74869074588165
 20
-266.2548757069322
 30
0.0
 11
42.73195740404737
 21
-266.2548757069322
 31
0.0
  0
LINE
  5
15BB
330
D81
100
AcDbEntity
  8
0
  6
Continuous
 62
     0
370
    -2
100
AcDbLine
 10
43.98195740404737
 20
-258.7548757208462
 30
0.0
 11
43.98195740404737
 21
-263.7548757069322
 31
0.0
  0
INSERT
  5
15BC
330
D81
100
AcDbEntity
  8
0
  6
Continuous
 62
     0
370
    -2
100
AcDbBlockReference
  2
_Open30
 10
43.98195740404737
 20
-256.2548757208462
 30
0.0
 41
2.5
 42
2.5
 43
2.5
 50
90.0
  0
INSERT
  5
15BD
330
D81
100
AcDbEntity
  8
0
  6
Continuous
 62
     0
370
    -2
100
AcDbBlockReference
  2
_Open30
 10
43.98195740404737
 20
-266.2548757069322
 30
0.0
 41
2.5
 42
2.5
 43
2.5
 50
270.0
  0
MTEXT
  5
15BE
330
D81
100
AcDbEntity
  8
0
  6
Continuous
 62
     4
100
AcDbMText
 10
41.85695740404741
 20
-260.9820804965415
 30
0.0
 40
3.0
 41
0.0
 71
     5
 72
     1
  1
Ｍ10
 11
0.0000000000000001
 21
1.0
 31
0.0
 73
     1
 44
1.0
1001
ACAD
1000
MTEXTBEGIN
1070
    73
1070
     1
1070
    44
1040
1.0
1070
    74
1070
     0
1000
MTEXTEND
  0
POINT
  5
15BF
330
D81
100
AcDbEntity
  8
Defpoints
  6
Continuous
 62
     0
100
AcDbPoint
 10
56.9986907458815
 20
-256.2548757208462
 30
0.0
  0
POINT
  5
15C0
330
D81
100
AcDbEntity
  8
Defpoints
  6
Continuous
 62
     0
100
AcDbPoint
 10
56.99869074588164
 20
-266.2548757069322
 30
0.0
  0
POINT
  5
15C1
330
D81
100
AcDbEntity
  8
Defpoints
  6
Continuous
 62
     0
100
AcDbPoint
 10
43.98195740404737
 20
-266.2548757069322
 30
0.0
  0
ENDBLK
  5
D8C
330
D81
100
AcDbEntity
  8
0
100
AcDbBlockEnd
  0
BLOCK
  5
DC3
330
DB7
100
AcDbEntity
  8
0
100
AcDbBlockBegin
  2
*D6
 70
     1
 10
0.0
 20
0.0
 30
0.0
  3
*D6
  1

  0
LINE
  5
15C2
330
DB7
100
AcDbEntity
  8
0
  6
Continuous
 62
     0
370
    -2
100
AcDbLine
 10
190.9516892588988
 20
-234.2906161282592
 30
0.0
 11
203.8139412605317
 21
-234.2906161282592
 31
0.0
  0
LINE
  5
15C3
330
DB7
100
AcDbEntity
  8
0
  6
Continuous
 62
     0
370
    -2
100
AcDbLine
 10
190.2807092500344
 20
-235.9001999201827
 30
0.0
 11
203.8139412605317
 21
-235.9001999201827
 31
0.0
  0
LINE
  5
15C4
330
DB7
100
AcDbEntity
  8
0
  6
Continuous
 62
     0
370
    -2
100
AcDbLine
 10
202.5639412605316
 20
-231.7906161282592
 30
0.0
 11
202.5639412605316
 21
-229.2906161282592
 31
0.0
  0
LINE
  5
15C5
330
DB7
100
AcDbEntity
  8
0
  6
Continuous
 62
     0
370
    -2
100
AcDbLine
 10
202.5639412605316
 20
-238.4001999201827
 30
0.0
 11
202.5639412605316
 21
-250.1501999201827
 31
0.0
  0
LINE
  5
15C6
330
DB7
100
AcDbEntity
  8
0
  6
Continuous
 62
     0
370
    -2
100
AcDbLine
 10
202.5639412605316
 20
-234.2906161282592
 30
0.0
 11
202.5639412605316
 21
-235.9001999201827
 31
0.0
  0
INSERT
  5
15C7
330
DB7
100
AcDbEntity
  8
0
  6
Continuous
 62
     0
370
    -2
100
AcDbBlockReference
  2
_Open30
 10
202.5639412605316
 20
-234.2906161282592
 30
0.0
 41
2.5
 42
2.5
 43
2.5
 50
270.0
  0
INSERT
  5
15C8
330
DB7
100
AcDbEntity
  8
0
  6
Continuous
 62
     0
370
    -2
100
AcDbBlockReference
  2
_Open30
 10
202.5639412605316
 20
-235.9001999201827
 30
0.0
 41
2.5
 42
2.5
 43
2.5
 50
90.0
  0
MTEXT
  5
15C9
330
DB7
100
AcDbEntity
  8
0
  6
Continuous
 62
     4
100
AcDbMText
 10
200.4389412605317
 20
-245.5251999201827
 30
0.0
 40
3.0
 41
0.0
 71
     5
 72
     1
  1
1.6t
 11
0.0000000000000001
 21
1.0
 31
0.0
 73
     1
 44
1.0
1001
ACAD
1000
MTEXTBEGIN
1070
    73
1070
     1
1070
    44
1040
1.0
1070
    74
1070
     0
1000
MTEXTEND
  0
POINT
  5
15CA
330
DB7
100
AcDbEntity
  8
Defpoints
  6
Continuous
 62
     0
100
AcDbPoint
 10
190.7016892588988
 20
-234.2906161282592
 30
0.0
  0
POINT
  5
15CB
330
DB7
100
AcDbEntity
  8
Defpoints
  6
Continuous
 62
     0
100
AcDbPoint
 10
190.0307092500344
 20
-235.9001999201827
 30
0.0
  0
POINT
  5
15CC
330
DB7
100
AcDbEntity
  8
Defpoints
  6
Continuous
 62
     0
100
AcDbPoint
 10
202.5639412605316
 20
-235.9001999201827
 30
0.0
  0
ENDBLK
  5
DC4
330
DB7
100
AcDbEntity
  8
0
100
AcDbBlockEnd
  0
BLOCK
  5
DDB
330
DD1
100
AcDbEntity
  8
0
100
AcDbBlockBegin
  2
*D7
 70
     1
 10
0.0
 20
0.0
 30
0.0
  3
*D7
  1

  0
LINE
  5
15CD
330
DD1
100
AcDbEntity
  8
0
  6
Continuous
 62
     0
370
    -2
100
AcDbLine
 10
-9.052347652477408
 20
-304.1642660567485
 30
0.0
 11
-9.052347652477406
 21
-285.385609176776
 31
0.0
  0
LINE
  5
15CE
330
DD1
100
AcDbEntity
  8
0
  6
Continuous
 62
     0
370
    -2
100
AcDbLine
 10
15.94765234752258
 20
-304.1642660567485
 30
0.0
 11
15.94765234752258
 21
-285.385609176776
 31
0.0
  0
LINE
  5
15CF
330
DD1
100
AcDbEntity
  8
0
  6
Continuous
 62
     0
370
    -2
100
AcDbLine
 10
-6.552347652477406
 20
-286.635609176776
 30
0.0
 11
13.44765234752258
 21
-286.635609176776
 31
0.0
  0
INSERT
  5
15D0
330
DD1
100
AcDbEntity
  8
0
  6
Continuous
 62
     0
370
    -2
100
AcDbBlockReference
  2
_Open30
 10
-9.052347652477406
 20
-286.635609176776
 30
0.0
 41
2.5
 42
2.5
 43
2.5
 50
180.0
  0
INSERT
  5
15D1
330
DD1
100
AcDbEntity
  8
0
  6
Continuous
 62
     0
370
    -2
100
AcDbBlockReference
  2
_Open30
 10
15.94765234752258
 20
-286.635609176776
 30
0.0
 41
2.5
 42
2.5
 43
2.5
  0
MTEXT
  5
15D2
330
DD1
100
AcDbEntity
  8
0
  6
Continuous
 62
     4
100
AcDbMText
 10
3.112782409124406
 20
-284.510609176776
 30
0.0
 40
3.0
 41
0.0
 71
     5
 72
     1
  1
ピッチ25
 73
     1
 44
1.0
1001
ACAD
1000
MTEXTBEGIN
1070
    73
1070
     1
1070
    44
1040
1.0
1070
    74
1070
     0
1000
MTEXTEND
  0
POINT
  5
15D3
330
DD1
100
AcDbEntity
  8
Defpoints
  6
Continuous
 62
     0
100
AcDbPoint
 10
-9.052347652477408
 20
-304.4142660567485
 30
0.0
  0
POINT
  5
15D4
330
DD1
100
AcDbEntity
  8
Defpoints
  6
Continuous
 62
     0
100
AcDbPoint
 10
15.94765234752258
 20
-304.4142660567485
 30
0.0
  0
POINT
  5
15D5
330
DD1
100
AcDbEntity
  8
Defpoints
  6
Continuous
 62
     0
100
AcDbPoint
 10
15.94765234752258
 20
-286.635609176776
 30
0.0
  0
ENDBLK
  5
DDC
330
DD1
100
AcDbEntity
  8
0
100
AcDbBlockEnd
  0
BLOCK
  5
E26
330
E1C
100
AcDbEntity
  8
0
100
AcDbBlockBegin
  2
*D8
 70
     1
 10
0.0
 20
0.0
 30
0.0
  3
*D8
  1

  0
LINE
  5
15D6
330
E1C
100
AcDbEntity
  8
0
  6
Continuous
 62
     0
370
    -2
100
AcDbLine
 10
67.2074960853661
 20
-271.004875674357
 30
0.0
 11
67.2074960853661
 21
-285.1532793907927
 31
0.0
  0
LINE
  5
15D7
330
E1C
100
AcDbEntity
  8
0
  6
Continuous
 62
     0
370
    -2
100
AcDbLine
 10
120.6406701619416
 20
-265.004875674357
 30
0.0
 11
120.6406701619416
 21
-285.1532793907927
 31
0.0
  0
LINE
  5
15D8
330
E1C
100
AcDbEntity
  8
0
  6
Continuous
 62
     0
370
    -2
100
AcDbLine
 10
69.7074960853661
 20
-283.9032793907927
 30
0.0
 11
118.1406701619416
 21
-283.9032793907927
 31
0.0
  0
INSERT
  5
15D9
330
E1C
100
AcDbEntity
  8
0
  6
Continuous
 62
     0
370
    -2
100
AcDbBlockReference
  2
_Open30
 10
67.2074960853661
 20
-283.9032793907927
 30
0.0
 41
2.5
 42
2.5
 43
2.5
 50
180.0
  0
INSERT
  5
15DA
330
E1C
100
AcDbEntity
  8
0
  6
Continuous
 62
     0
370
    -2
100
AcDbBlockReference
  2
_Open30
 10
120.6406701619416
 20
-283.9032793907927
 30
0.0
 41
2.5
 42
2.5
 43
2.5
  0
MTEXT
  5
15DB
330
E1C
100
AcDbEntity
  8
0
  6
Continuous
 62
     4
100
AcDbMText
 10
92.65047635142762
 20
-281.7782793907927
 30
0.0
 40
3.0
 41
0.0
 71
     5
 72
     1
  1
締付け量55
 73
     1
 44
1.0
1001
ACAD
1000
MTEXTBEGIN
1070
    73
1070
     1
1070
    44
1040
1.0
1070
    74
1070
     0
1000
MTEXTEND
  0
POINT
  5
15DC
330
E1C
100
AcDbEntity
  8
Defpoints
  6
Continuous
 62
     0
100
AcDbPoint
 10
67.2074960853661
 20
-270.754875674357
 30
0.0
  0
POINT
  5
15DD
330
E1C
100
AcDbEntity
  8
Defpoints
  6
Continuous
 62
     0
100
AcDbPoint
 10
120.6406701619416
 20
-264.754875674357
 30
0.0
  0
POINT
  5
15DE
330
E1C
100
AcDbEntity
  8
Defpoints
  6
Continuous
 62
     0
100
AcDbPoint
 10
120.6406701619416
 20
-283.9032793907927
 30
0.0
  0
ENDBLK
  5
E27
330
E1C
100
AcDbEntity
  8
0
100
AcDbBlockEnd
  0
BLOCK
  5
16B5
330
16B4
100
AcDbEntity
  8
0
100
AcDbBlockBegin
  2
*D40
 70
     1
 10
0.0
 20
0.0
 30
0.0
  3
*D40
  1

  0
LINE
  5
173D
330
16B4
100
AcDbEntity
  8
0
 62
     0
370
    -2
100
AcDbLine
 10
595.3325667046385
 20
-208.8628188076236
 30
0.0
 11
595.3325667046385
 21
-211.7724502296324
 31
0.0
  0
LINE
  5
173E
330
16B4
100
AcDbEntity
  8
0
 62
     0
370
    -2
100
AcDbLine
 10
592.8753796505183
 20
-208.8628188076236
 30
0.0
 11
592.8753796505183
 21
-211.7724502296324
 31
0.0
  0
LINE
  5
173F
330
16B4
100
AcDbEntity
  8
0
 62
     0
370
    -2
100
AcDbLine
 10
597.8325667046386
 20
-210.5224502296325
 30
0.0
 11
600.3325667046385
 21
-210.5224502296325
 31
0.0
  0
LINE
  5
1740
330
16B4
100
AcDbEntity
  8
0
 62
     0
370
    -2
100
AcDbLine
 10
590.3753796505183
 20
-210.5224502296325
 30
0.0
 11
577.6253796505183
 21
-210.5224502296325
 31
0.0
  0
LINE
  5
1741
330
16B4
100
AcDbEntity
  8
0
 62
     0
370
    -2
100
AcDbLine
 10
595.3325667046385
 20
-210.5224502296325
 30
0.0
 11
592.8753796505183
 21
-210.5224502296325
 31
0.0
  0
INSERT
  5
1742
330
16B4
100
AcDbEntity
  8
0
 62
     0
370
    -2
100
AcDbBlockReference
  2
_Open30
 10
595.3325667046385
 20
-210.5224502296325
 30
0.0
 41
2.5
 42
2.5
 43
2.5
 50
180.0
  0
INSERT
  5
1743
330
16B4
100
AcDbEntity
  8
0
 62
     0
370
    -2
100
AcDbBlockReference
  2
_Open30
 10
592.8753796505183
 20
-210.5224502296325
 30
0.0
 41
2.5
 42
2.5
 43
2.5
  0
MTEXT
  5
1744
330
16B4
100
AcDbEntity
  8
0
 62
     4
100
AcDbMText
 10
582.7503796505182
 20
-208.3974502296324
 30
0.0
 40
3.0
 41
0.0
 71
     5
 72
     1
  1
2.46
 73
     1
 44
1.0
1001
ACAD
1000
MTEXTBEGIN
1070
    73
1070
     1
1070
    44
1040
1.0
1070
    74
1070
     0
1000
MTEXTEND
  0
POINT
  5
1745
330
16B4
100
AcDbEntity
  8
Defpoints
 62
     0
100
AcDbPoint
 10
595.3325667046385
 20
-208.6128188076236
 30
0.0
  0
POINT
  5
1746
330
16B4
100
AcDbEntity
  8
Defpoints
 62
     0
100
AcDbPoint
 10
592.8753796505183
 20
-208.6128188076236
 30
0.0
  0
POINT
  5
1747
330
16B4
100
AcDbEntity
  8
Defpoints
 62
     0
100
AcDbPoint
 10
592.8753796505183
 20
-210.5224502296325
 30
0.0
  0
ENDBLK
  5
16B6
330
16B4
100
AcDbEntity
  8
0
100
AcDbBlockEnd
  0
BLOCK
  5
16C3
330
16C2
100
AcDbEntity
  8
0
100
AcDbBlockBegin
  2
*D41
 70
     1
 10
0.0
 20
0.0
 30
0.0
  3
*D41
  1

  0
LINE
  5
1748
330
16C2
100
AcDbEntity
  8
0
 62
     0
370
    -2
100
AcDbLine
 10
596.9706916107118
 20
-214.318908380386
 30
0.0
 11
596.9706916107118
 21
-216.8648004498493
 31
0.0
  0
LINE
  5
1749
330
16C2
100
AcDbEntity
  8
0
 62
     0
370
    -2
100
AcDbLine
 10
593.8764558125689
 20
-214.318908380386
 30
0.0
 11
593.8764558125689
 21
-216.8648004498493
 31
0.0
  0
LINE
  5
174A
330
16C2
100
AcDbEntity
  8
0
 62
     0
370
    -2
100
AcDbLine
 10
599.4706916107118
 20
-215.6148004498493
 30
0.0
 11
601.9706916107118
 21
-215.6148004498493
 31
0.0
  0
LINE
  5
174B
330
16C2
100
AcDbEntity
  8
0
 62
     0
370
    -2
100
AcDbLine
 10
591.3764558125689
 20
-215.6148004498493
 30
0.0
 11
577.5431224792356
 21
-215.6148004498493
 31
0.0
  0
LINE
  5
174C
330
16C2
100
AcDbEntity
  8
0
 62
     0
370
    -2
100
AcDbLine
 10
596.9706916107118
 20
-215.6148004498493
 30
0.0
 11
593.8764558125689
 21
-215.6148004498493
 31
0.0
  0
INSERT
  5
174D
330
16C2
100
AcDbEntity
  8
0
 62
     0
370
    -2
100
AcDbBlockReference
  2
_Open30
 10
596.9706916107118
 20
-215.6148004498493
 30
0.0
 41
2.5
 42
2.5
 43
2.5
 50
180.0
  0
INSERT
  5
174E
330
16C2
100
AcDbEntity
  8
0
 62
     0
370
    -2
100
AcDbBlockReference
  2
_Open30
 10
593.8764558125689
 20
-215.6148004498493
 30
0.0
 41
2.5
 42
2.5
 43
2.5
  0
MTEXT
  5
174F
330
16C2
100
AcDbEntity
  8
0
 62
     4
100
AcDbMText
 10
582.7514558125689
 20
-213.7398004498493
 30
0.0
 40
2.5
 41
0.0
 71
     5
 72
     1
  1
15.47
  7
高2.5
 73
     1
 44
1.0
1001
ACAD
1000
MTEXTBEGIN
1070
    73
1070
     1
1070
    44
1040
1.0
1070
    74
1070
     0
1000
MTEXTEND
  0
POINT
  5
1750
330
16C2
100
AcDbEntity
  8
Defpoints
 62
     0
100
AcDbPoint
 10
596.9706916107118
 20
-214.068908380386
 30
0.0
  0
POINT
  5
1751
330
16C2
100
AcDbEntity
  8
Defpoints
 62
     0
100
AcDbPoint
 10
593.8764558125689
 20
-214.068908380386
 30
0.0
  0
POINT
  5
1752
330
16C2
100
AcDbEntity
  8
Defpoints
 62
     0
100
AcDbPoint
 10
593.8764558125689
 20
-215.6148004498493
 30
0.0
  0
ENDBLK
  5
16C4
330
16C2
100
AcDbEntity
  8
0
100
AcDbBlockEnd
  0
BLOCK
  5
16D1
330
16D0
100
AcDbEntity
  8
0
100
AcDbBlockBegin
  2
*D42
 70
     1
 10
0.0
 20
0.0
 30
0.0
  3
*D42
  1

  0
LINE
  5
1753
330
16D0
100
AcDbEntity
  8
0
 62
     0
370
    -2
100
AcDbLine
 10
598.6998232187972
 20
-219.7749980962325
 30
0.0
 11
598.6998232187972
 21
-222.0480857585998
 31
0.0
  0
LINE
  5
1754
330
16D0
100
AcDbEntity
  8
0
 62
     0
370
    -2
100
AcDbLine
 10
594.6955182656053
 20
-219.7749980962325
 30
0.0
 11
594.6955182656053
 21
-222.0480857585998
 31
0.0
  0
LINE
  5
1755
330
16D0
100
AcDbEntity
  8
0
 62
     0
370
    -2
100
AcDbLine
 10
601.1998232187973
 20
-220.7980857585998
 30
0.0
 11
603.6998232187973
 21
-220.7980857585998
 31
0.0
  0
LINE
  5
1756
330
16D0
100
AcDbEntity
  8
0
 62
     0
370
    -2
100
AcDbLine
 10
592.1955182656054
 20
-220.7980857585998
 30
0.0
 11
580.4455182656054
 21
-220.7980857585998
 31
0.0
  0
LINE
  5
1757
330
16D0
100
AcDbEntity
  8
0
 62
     0
370
    -2
100
AcDbLine
 10
598.6998232187972
 20
-220.7980857585998
 30
0.0
 11
594.6955182656053
 21
-220.7980857585998
 31
0.0
  0
INSERT
  5
1758
330
16D0
100
AcDbEntity
  8
0
 62
     0
370
    -2
100
AcDbBlockReference
  2
_Open30
 10
598.6998232187972
 20
-220.7980857585998
 30
0.0
 41
2.5
 42
2.5
 43
2.5
 50
180.0
  0
INSERT
  5
1759
330
16D0
100
AcDbEntity
  8
0
 62
     0
370
    -2
100
AcDbBlockReference
  2
_Open30
 10
594.6955182656053
 20
-220.7980857585998
 30
0.0
 41
2.5
 42
2.5
 43
2.5
  0
MTEXT
  5
175A
330
16D0
100
AcDbEntity
  8
0
 62
     4
100
AcDbMText
 10
585.0705182656054
 20
-218.5730857585998
 30
0.0
 40
3.2
 41
0.0
 71
     5
 72
     1
  1
8.01
  7
高3.2
 73
     1
 44
1.0
1001
ACAD
1000
MTEXTBEGIN
1070
    73
1070
     1
1070
    44
1040
1.0
1070
    74
1070
     0
1000
MTEXTEND
  0
POINT
  5
175B
330
16D0
100
AcDbEntity
  8
Defpoints
 62
     0
100
AcDbPoint
 10
598.6998232187972
 20
-219.5249980962325
 30
0.0
  0
POINT
  5
175C
330
16D0
100
AcDbEntity
  8
Defpoints
 62
     0
100
AcDbPoint
 10
594.6955182656053
 20
-219.5249980962325
 30
0.0
  0
POINT
  5
175D
330
16D0
100
AcDbEntity
  8
Defpoints
 62
     0
100
AcDbPoint
 10
594.6955182656053
 20
-220.7980857585998
 30
0.0
  0
ENDBLK
  5
16D2
330
16D0
100
AcDbEntity
  8
0
100
AcDbBlockEnd
  0
BLOCK
  5
16DF
330
16DE
100
AcDbEntity
  8
0
100
AcDbBlockBegin
  2
*D43
 70
     1
 10
0.0
 20
0.0
 30
0.0
  3
*D43
  1

  0
LINE
  5
175E
330
16DE
100
AcDbEntity
  8
0
 62
     0
370
    -2
100
AcDbLine
 10
598.608816516785
 20
-225.0492180642641
 30
0.0
 11
598.608816516785
 21
-226.8676315717205
 31
0.0
  0
LINE
  5
175F
330
16DE
100
AcDbEntity
  8
0
 62
     0
370
    -2
100
AcDbLine
 10
593.8764558125689
 20
-225.0492180642641
 30
0.0
 11
593.8764558125689
 21
-226.8676315717205
 31
0.0
  0
LINE
  5
1760
330
16DE
100
AcDbEntity
  8
0
 62
     0
370
    -2
100
AcDbLine
 10
601.108816516785
 20
-225.6176315717205
 30
0.0
 11
603.608816516785
 21
-225.6176315717205
 31
0.0
  0
LINE
  5
1761
330
16DE
100
AcDbEntity
  8
0
 62
     0
370
    -2
100
AcDbLine
 10
591.3764558125689
 20
-225.6176315717205
 30
0.0
 11
569.6264558125688
 21
-225.6176315717205
 31
0.0
  0
LINE
  5
1762
330
16DE
100
AcDbEntity
  8
0
 62
     0
370
    -2
100
AcDbLine
 10
598.608816516785
 20
-225.6176315717205
 30
0.0
 11
593.8764558125689
 21
-225.6176315717205
 31
0.0
  0
INSERT
  5
1763
330
16DE
100
AcDbEntity
  8
0
 62
     0
370
    -2
100
AcDbBlockReference
  2
_Open30
 10
598.608816516785
 20
-225.6176315717205
 30
0.0
 41
2.5
 42
2.5
 43
2.5
 50
180.0
  0
INSERT
  5
1764
330
16DE
100
AcDbEntity
  8
0
 62
     0
370
    -2
100
AcDbBlockReference
  2
_Open30
 10
593.8764558125689
 20
-225.6176315717205
 30
0.0
 41
2.5
 42
2.5
 43
2.5
  0
MTEXT
  5
1765
330
16DE
100
AcDbEntity
  8
0
 62
     4
100
AcDbMText
 10
579.2514558125689
 20
-222.7426315717205
 30
0.0
 40
4.5
 41
0.0
 71
     5
 72
     1
  1
47.32
  7
高4.5
 73
     1
 44
1.0
1001
ACAD
1000
MTEXTBEGIN
1070
    73
1070
     1
1070
    44
1040
1.0
1070
    74
1070
     0
1000
MTEXTEND
  0
POINT
  5
1766
330
16DE
100
AcDbEntity
  8
Defpoints
 62
     0
100
AcDbPoint
 10
598.608816516785
 20
-224.7992180642641
 30
0.0
  0
POINT
  5
1767
330
16DE
100
AcDbEntity
  8
Defpoints
 62
     0
100
AcDbPoint
 10
593.8764558125689
 20
-224.7992180642641
 30
0.0
  0
POINT
  5
1768
330
16DE
100
AcDbEntity
  8
Defpoints
 62
     0
100
AcDbPoint
 10
593.8764558125689
 20
-225.6176315717205
 30
0.0
  0
ENDBLK
  5
16E0
330
16DE
100
AcDbEntity
  8
0
100
AcDbBlockEnd
  0
BLOCK
  5
16ED
330
16EC
100
AcDbEntity
  8
0
100
AcDbBlockBegin
  2
*D44
 70
     1
 10
0.0
 20
0.0
 30
0.0
  3
*D44
  1

  0
LINE
  5
1769
330
16EC
100
AcDbEntity
  8
0
 62
     0
370
    -2
100
AcDbLine
 10
620.0864527847925
 20
-208.8628188076236
 30
0.0
 11
620.0864527847925
 21
-211.7724502296324
 31
0.0
  0
LINE
  5
176A
330
16EC
100
AcDbEntity
  8
0
 62
     0
370
    -2
100
AcDbLine
 10
617.6292657306722
 20
-208.8628188076236
 30
0.0
 11
617.6292657306722
 21
-211.7724502296324
 31
0.0
  0
LINE
  5
176B
330
16EC
100
AcDbEntity
  8
0
 62
     0
370
    -2
100
AcDbLine
 10
622.5864527847924
 20
-210.5224502296325
 30
0.0
 11
625.0864527847925
 21
-210.5224502296325
 31
0.0
  0
LINE
  5
176C
330
16EC
100
AcDbEntity
  8
0
 62
     0
370
    -2
100
AcDbLine
 10
615.1292657306721
 20
-210.5224502296325
 30
0.0
 11
593.5292657306721
 21
-210.5224502296325
 31
0.0
  0
LINE
  5
176D
330
16EC
100
AcDbEntity
  8
0
 62
     0
370
    -2
100
AcDbLine
 10
620.0864527847925
 20
-210.5224502296325
 30
0.0
 11
617.6292657306722
 21
-210.5224502296325
 31
0.0
  0
INSERT
  5
176E
330
16EC
100
AcDbEntity
  8
0
 62
     0
370
    -2
100
AcDbBlockReference
  2
_Open30
 10
620.0864527847925
 20
-210.5224502296325
 30
0.0
 41
2.5
 42
2.5
 43
2.5
 50
180.0
  0
INSERT
  5
176F
330
16EC
100
AcDbEntity
  8
0
 62
     0
370
    -2
100
AcDbBlockReference
  2
_Open30
 10
617.6292657306722
 20
-210.5224502296325
 30
0.0
 41
2.5
 42
2.5
 43
2.5
  0
MTEXT
  5
1770
330
16EC
100
AcDbEntity
  8
0
 62
     4
100
AcDbMText
 10
603.0792657306721
 20
-206.7474502296324
 30
0.0
 40
6.299999999999998
 41
0.0
 71
     5
 72
     1
  1
0.25
  7
高6.3
 73
     1
 44
1.0
1001
ACAD
1000
MTEXTBEGIN
1070
    73
1070
     1
1070
    44
1040
1.0
1070
    74
1070
     0
1000
MTEXTEND
  0
POINT
  5
1771
330
16EC
100
AcDbEntity
  8
Defpoints
 62
     0
100
AcDbPoint
 10
620.0864527847925
 20
-208.6128188076236
 30
0.0
  0
POINT
  5
1772
330
16EC
100
AcDbEntity
  8
Defpoints
 62
     0
100
AcDbPoint
 10
617.6292657306722
 20
-208.6128188076236
 30
0.0
  0
POINT
  5
1773
330
16EC
100
AcDbEntity
  8
Defpoints
 62
     0
100
AcDbPoint
 10
617.6292657306722
 20
-210.5224502296325
 30
0.0
  0
ENDBLK
  5
16EE
330
16EC
100
AcDbEntity
  8
0
100
AcDbBlockEnd
  0
BLOCK
  5
16FB
330
16FA
100
AcDbEntity
  8
0
100
AcDbBlockBegin
  2
*D45
 70
     1
 10
0.0
 20
0.0
 30
0.0
  3
*D45
  1

  0
LINE
  5
1774
330
16FA
100
AcDbEntity
  8
0
 62
     0
370
    -2
100
AcDbLine
 10
621.7245776908656
 20
-214.318908380386
 30
0.0
 11
621.7245776908656
 21
-216.8648004498493
 31
0.0
  0
LINE
  5
1775
330
16FA
100
AcDbEntity
  8
0
 62
     0
370
    -2
100
AcDbLine
 10
618.6303418927227
 20
-214.318908380386
 30
0.0
 11
618.6303418927227
 21
-216.8648004498493
 31
0.0
  0
LINE
  5
1776
330
16FA
100
AcDbEntity
  8
0
 62
     0
370
    -2
100
AcDbLine
 10
624.2245776908657
 20
-215.6148004498493
 30
0.0
 11
626.7245776908656
 21
-215.6148004498493
 31
0.0
  0
LINE
  5
1777
330
16FA
100
AcDbEntity
  8
0
 62
     0
370
    -2
100
AcDbLine
 10
616.1303418927227
 20
-215.6148004498493
 30
0.0
 11
604.1303418927228
 21
-215.6148004498493
 31
0.0
  0
LINE
  5
1778
330
16FA
100
AcDbEntity
  8
0
 62
     0
370
    -2
100
AcDbLine
 10
621.7245776908656
 20
-215.6148004498493
 30
0.0
 11
618.6303418927227
 21
-215.6148004498493
 31
0.0
  0
INSERT
  5
1779
330
16FA
100
AcDbEntity
  8
0
 62
     0
370
    -2
100
AcDbBlockReference
  2
_Open30
 10
621.7245776908656
 20
-215.6148004498493
 30
0.0
 41
2.5
 42
2.5
 43
2.5
 50
180.0
  0
INSERT
  5
177A
330
16FA
100
AcDbEntity
  8
0
 62
     0
370
    -2
100
AcDbBlockReference
  2
_Open30
 10
618.6303418927227
 20
-215.6148004498493
 30
0.0
 41
2.5
 42
2.5
 43
2.5
  0
MTEXT
  5
177B
330
16FA
100
AcDbEntity
  8
0
 62
     4
100
AcDbMText
 10
608.7553418927227
 20
-213.4898004498493
 30
0.0
 40
3.0
 41
0.0
 71
     5
 72
     1
  1
1.55
 73
     1
 44
1.0
1001
ACAD
1000
MTEXTBEGIN
1070
    73
1070
     1
1070
    44
1040
1.0
1070
    74
1070
     0
1000
MTEXTEND
  0
POINT
  5
177C
330
16FA
100
AcDbEntity
  8
Defpoints
 62
     0
100
AcDbPoint
 10
621.7245776908656
 20
-214.068908380386
 30
0.0
  0
POINT
  5
177D
330
16FA
100
AcDbEntity
  8
Defpoints
 62
     0
100
AcDbPoint
 10
618.6303418927227
 20
-214.068908380386
 30
0.0
  0
POINT
  5
177E
330
16FA
100
AcDbEntity
  8
Defpoints
 62
     0
100
AcDbPoint
 10
618.6303418927227
 20
-215.6148004498493
 30
0.0
  0
ENDBLK
  5
16FC
330
16FA
100
AcDbEntity
  8
0
100
AcDbBlockEnd
  0
BLOCK
  5
1709
330
1708
100
AcDbEntity
  8
0
100
AcDbBlockBegin
  2
*D46
 70
     1
 10
0.0
 20
0.0
 30
0.0
  3
*D46
  1

  0
LINE
  5
177F
330
1708
100
AcDbEntity
  8
0
 62
     0
370
    -2
100
AcDbLine
 10
623.4537092989511
 20
-219.7749980962325
 30
0.0
 11
623.4537092989511
 21
-222.0480857585998
 31
0.0
  0
LINE
  5
1780
330
1708
100
AcDbEntity
  8
0
 62
     0
370
    -2
100
AcDbLine
 10
619.4494043457593
 20
-219.7749980962325
 30
0.0
 11
619.4494043457593
 21
-222.0480857585998
 31
0.0
  0
LINE
  5
1781
330
1708
100
AcDbEntity
  8
0
 62
     0
370
    -2
100
AcDbLine
 10
625.9537092989511
 20
-220.7980857585998
 30
0.0
 11
628.4537092989511
 21
-220.7980857585998
 31
0.0
  0
LINE
  5
1782
330
1708
100
AcDbEntity
  8
0
 62
     0
370
    -2
100
AcDbLine
 10
616.9494043457594
 20
-220.7980857585998
 30
0.0
 11
608.6160710124261
 21
-220.7980857585998
 31
0.0
  0
INSERT
  5
1783
330
1708
100
AcDbEntity
  8
0
 62
     0
370
    -2
100
AcDbBlockReference
  2
_Open30
 10
623.4537092989511
 20
-220.7980857585998
 30
0.0
 41
2.5
 42
2.5
 43
2.5
 50
180.0
  0
INSERT
  5
1784
330
1708
100
AcDbEntity
  8
0
 62
     0
370
    -2
100
AcDbBlockReference
  2
_Open30
 10
619.4494043457593
 20
-220.7980857585998
 30
0.0
 41
2.5
 42
2.5
 43
2.5
  0
MTEXT
  5
1785
330
1708
100
AcDbEntity
  8
0
 62
     4
100
AcDbMText
 10
611.0744043457593
 20
-219.1730857585998
 30
0.0
 40
2.0
 41
0.0
 71
     5
 72
     1
  1
0.8
  7
高2
 73
     1
 44
1.0
1001
ACAD
1000
MTEXTBEGIN
1070
    73
1070
     1
1070
    44
1040
1.0
1070
    74
1070
     0
1000
MTEXTEND
  0
POINT
  5
1786
330
1708
100
AcDbEntity
  8
Defpoints
 62
     0
100
AcDbPoint
 10
623.4537092989511
 20
-219.5249980962325
 30
0.0
  0
POINT
  5
1787
330
1708
100
AcDbEntity
  8
Defpoints
 62
     0
100
AcDbPoint
 10
619.4494043457593
 20
-219.5249980962325
 30
0.0
  0
POINT
  5
1788
330
1708
100
AcDbEntity
  8
Defpoints
 62
     0
100
AcDbPoint
 10
619.4494043457593
 20
-220.7980857585998
 30
0.0
  0
ENDBLK
  5
170A
330
1708
100
AcDbEntity
  8
0
100
AcDbBlockEnd
  0
BLOCK
  5
1716
330
1715
100
AcDbEntity
  8
0
100
AcDbBlockBegin
  2
*D47
 70
     1
 10
0.0
 20
0.0
 30
0.0
  3
*D47
  1

  0
LINE
  5
1789
330
1715
100
AcDbEntity
  8
0
 62
     0
370
    -2
100
AcDbLine
 10
623.3627025969387
 20
-225.0492180642641
 30
0.0
 11
623.3627025969387
 21
-226.8676315717205
 31
0.0
  0
LINE
  5
178A
330
1715
100
AcDbEntity
  8
0
 62
     0
370
    -2
100
AcDbLine
 10
618.6303418927227
 20
-225.0492180642641
 30
0.0
 11
618.6303418927227
 21
-226.8676315717205
 31
0.0
  0
LINE
  5
178B
330
1715
100
AcDbEntity
  8
0
 62
     0
370
    -2
100
AcDbLine
 10
625.8627025969388
 20
-225.6176315717205
 30
0.0
 11
628.3627025969387
 21
-225.6176315717205
 31
0.0
  0
LINE
  5
178C
330
1715
100
AcDbEntity
  8
0
 62
     0
370
    -2
100
AcDbLine
 10
616.1303418927227
 20
-225.6176315717205
 30
0.0
 11
601.3803418927227
 21
-225.6176315717205
 31
0.0
  0
LINE
  5
178D
330
1715
100
AcDbEntity
  8
0
 62
     0
370
    -2
100
AcDbLine
 10
623.3627025969387
 20
-225.6176315717205
 30
0.0
 11
618.6303418927227
 21
-225.6176315717205
 31
0.0
  0
INSERT
  5
178E
330
1715
100
AcDbEntity
  8
0
 62
     0
370
    -2
100
AcDbBlockReference
  2
_Open30
 10
623.3627025969387
 20
-225.6176315717205
 30
0.0
 41
2.5
 42
2.5
 43
2.5
 50
180.0
  0
INSERT
  5
178F
330
1715
100
AcDbEntity
  8
0
 62
     0
370
    -2
100
AcDbBlockReference
  2
_Open30
 10
618.6303418927227
 20
-225.6176315717205
 30
0.0
 41
2.5
 42
2.5
 43
2.5
  0
MTEXT
  5
1790
330
1715
100
AcDbEntity
  8
0
 62
     4
100
AcDbMText
 10
607.5053418927227
 20
-223.4926315717205
 30
0.0
 40
3.0
 41
0.0
 71
     5
 72
     1
  1
18.93
 73
     1
 44
1.0
1001
ACAD
1000
MTEXTBEGIN
1070
    73
1070
     1
1070
    44
1040
1.0
1070
    74
1070
     0
1000
MTEXTEND
  0
POINT
  5
1791
330
1715
100
AcDbEntity
  8
Defpoints
 62
     0
100
AcDbPoint
 10
623.3627025969387
 20
-224.7992180642641
 30
0.0
  0
POINT
  5
1792
330
1715
100
AcDbEntity
  8
Defpoints
 62
     0
100
AcDbPoint
 10
618.6303418927227
 20
-224.7992180642641
 30
0.0
  0
POINT
  5
1793
330
1715
100
AcDbEntity
  8
Defpoints
 62
     0
100
AcDbPoint
 10
618.6303418927227
 20
-225.6176315717205
 30
0.0
  0
ENDBLK
  5
1717
330
1715
100
AcDbEntity
  8
0
100
AcDbBlockEnd
  0
BLOCK
  5
1724
330
1723
100
AcDbEntity
  8
0
100
AcDbBlockBegin
  2
*D48
 70
     1
 10
0.0
 20
0.0
 30
0.0
  3
*D48
  1

  0
LINE
  5
1794
330
1723
100
AcDbEntity
  8
0
 62
     0
370
    -2
100
AcDbLine
 10
620.5582757458005
 20
-230.1050582708539
 30
0.0
 11
620.5582757458005
 21
-232.4149793477294
 31
0.0
  0
LINE
  5
1795
330
1723
100
AcDbEntity
  8
0
 62
     0
370
    -2
100
AcDbLine
 10
615.9696005436526
 20
-230.1050582708539
 30
0.0
 11
615.9696005436526
 21
-232.4149793477294
 31
0.0
  0
LINE
  5
1796
330
1723
100
AcDbEntity
  8
0
 62
     0
370
    -2
100
AcDbLine
 10
623.0582757458005
 20
-231.1649793477294
 30
0.0
 11
625.5582757458005
 21
-231.1649793477294
 31
0.0
  0
LINE
  5
1797
330
1723
100
AcDbEntity
  8
0
 62
     0
370
    -2
100
AcDbLine
 10
613.4696005436526
 20
-231.1649793477294
 30
0.0
 11
598.7196005436526
 21
-231.1649793477294
 31
0.0
  0
LINE
  5
1798
330
1723
100
AcDbEntity
  8
0
 62
     0
370
    -2
100
AcDbLine
 10
620.5582757458005
 20
-231.1649793477294
 30
0.0
 11
615.9696005436526
 21
-231.1649793477294
 31
0.0
  0
INSERT
  5
1799
330
1723
100
AcDbEntity
  8
0
 62
     0
370
    -2
100
AcDbBlockReference
  2
_Open30
 10
620.5582757458005
 20
-231.1649793477294
 30
0.0
 41
2.5
 42
2.5
 43
2.5
 50
180.0
  0
INSERT
  5
179A
330
1723
100
AcDbEntity
  8
0
 62
     0
370
    -2
100
AcDbBlockReference
  2
_Open30
 10
615.9696005436526
 20
-231.1649793477294
 30
0.0
 41
2.5
 42
2.5
 43
2.5
  0
MTEXT
  5
179B
330
1723
100
AcDbEntity
  8
0
 62
     4
100
AcDbMText
 10
604.8446005436526
 20
-229.0399793477294
 30
0.0
 40
3.0
 41
0.0
 71
     5
 72
     1
  1
13.77
 73
     1
 44
1.0
1001
ACAD
1000
MTEXTBEGIN
1070
    73
1070
     1
1070
    44
1040
1.0
1070
    74
1070
     0
1000
MTEXTEND
  0
POINT
  5
179C
330
1723
100
AcDbEntity
  8
Defpoints
 62
     0
100
AcDbPoint
 10
620.5582757458005
 20
-229.8550582708539
 30
0.0
  0
POINT
  5
179D
330
1723
100
AcDbEntity
  8
Defpoints
 62
     0
100
AcDbPoint
 10
615.9696005436526
 20
-229.8550582708539
 30
0.0
  0
POINT
  5
179E
330
1723
100
AcDbEntity
  8
Defpoints
 62
     0
100
AcDbPoint
 10
615.9696005436526
 20
-231.1649793477294
 30
0.0
  0
ENDBLK
  5
1725
330
1723
100
AcDbEntity
  8
0
100
AcDbBlockEnd
  0
BLOCK
  5
1732
330
1731
100
AcDbEntity
  8
0
100
AcDbBlockBegin
  2
*D49
 70
     1
 10
0.0
 20
0.0
 30
0.0
  3
*D49
  1

  0
LINE
  5
179F
330
1731
100
AcDbEntity
  8
0
 62
     0
370
    -2
100
AcDbLine
 10
613.4619929126501
 20
-199.1755669525795
 30
0.0
 11
613.4619929126501
 21
-191.7790334746418
 31
0.0
  0
LINE
  5
17A0
330
1731
100
AcDbEntity
  8
0
 62
     0
370
    -2
100
AcDbLine
 10
603.5235185431602
 20
-199.1755669525795
 30
0.0
 11
603.5235185431602
 21
-191.7790334746418
 31
0.0
  0
LINE
  5
17A1
330
1731
100
AcDbEntity
  8
0
 62
     0
370
    -2
100
AcDbLine
 10
610.9619929126502
 20
-193.0290334746418
 30
0.0
 11
606.0235185431602
 21
-193.0290334746418
 31
0.0
  0
INSERT
  5
17A2
330
1731
100
AcDbEntity
  8
0
 62
     0
370
    -2
100
AcDbBlockReference
  2
_Open30
 10
613.4619929126501
 20
-193.0290334746418
 30
0.0
 41
2.5
 42
2.5
 43
2.5
  0
INSERT
  5
17A3
330
1731
100
AcDbEntity
  8
0
 62
     0
370
    -2
100
AcDbBlockReference
  2
_Open30
 10
603.5235185431602
 20
-193.0290334746418
 30
0.0
 41
2.5
 42
2.5
 43
2.5
 50
180.0
  0
MTEXT
  5
17A4
330
1731
100
AcDbEntity
  8
0
 62
     4
100
AcDbMText
 10
608.4927557279051
 20
-189.9540334746418
 30
0.0
 40
3.0
 41
0.0
 71
     5
 72
     1
  1
9.94\H0.7X;\S+0^ -0.02;
 73
     1
 44
1.0
1001
ACAD
1000
MTEXTBEGIN
1070
    73
1070
     1
1070
    44
1040
1.0
1070
    74
1070
     0
1000
MTEXTEND
  0
POINT
  5
17A5
330
1731
100
AcDbEntity
  8
Defpoints
 62
     0
100
AcDbPoint
 10
613.4619929126501
 20
-199.4255669525795
 30
0.0
  0
POINT
  5
17A6
330
1731
100
AcDbEntity
  8
Defpoints
 62
     0
100
AcDbPoint
 10
603.5235185431602
 20
-199.4255669525795
 30
0.0
  0
POINT
  5
17A7
330
1731
100
AcDbEntity
  8
Defpoints
 62
     0
100
AcDbPoint
 10
603.5235185431602
 20
-193.0290334746418
 30
0.0
  0
ENDBLK
  5
1733
330
1731
100
AcDbEntity
  8
0
100
AcDbBlockEnd
  0
ENDSEC
  0
SECTION
  2
ENTITIES
  0
LINE
  5
423
330
36
100
AcDbEntity
  8
0
 62
     3
100
AcDbLine
 10
284.156635
 20
-453.739348
 30
0.0
 11
284.156635
 21
-430.739348
 31
0.0
  0
LINE
  5
425
330
36
100
AcDbEntity
  8
0
 62
     3
100
AcDbLine
 10
231.103026
 20
-453.9648589999996
 30
0.0
 11
231.103026
 21
-446.7393480000001
 31
0.0
  0
LINE
  5
427
330
36
100
AcDbEntity
  8
0
 62
     3
100
AcDbLine
 10
231.103026
 20
-453.739348
 30
0.0
 11
231.103026
 21
-460.739348
 31
0.0
  0
TEXT
  5
428
330
36
100
AcDbEntity
  8
0
 62
     3
100
AcDbText
 10
260.166953
 20
-434.534232
 30
0.0
 40
2.0
  1
A
 41
0.7
100
AcDbText
  0
TEXT
  5
429
330
36
100
AcDbEntity
  8
0
 62
     3
100
AcDbText
 10
262.702239
 20
-434.534232
 30
0.0
 40
2.0
  1
P
 41
0.7
100
AcDbText
  0
TEXT
  5
42A
330
36
100
AcDbEntity
  8
0
 62
     3
100
AcDbText
 10
265.237526
 20
-434.534232
 30
0.0
 40
2.0
  1
P
 41
0.7
100
AcDbText
  0
TEXT
  5
42B
330
36
100
AcDbEntity
  8
0
 62
     3
100
AcDbText
 10
267.772812
 20
-434.534232
 30
0.0
 40
2.0
  1
D
 41
0.7
100
AcDbText
  0
TEXT
  5
42C
330
36
100
AcDbEntity
  8
0
 62
     3
100
AcDbText
 10
273.141495
 20
-434.534232
 30
0.0
 40
2.0
  1
C
 41
0.7
100
AcDbText
  0
TEXT
  5
42D
330
36
100
AcDbEntity
  8
0
 62
     3
100
AcDbText
 10
275.676781
 20
-434.534232
 30
0.0
 40
2.0
  1
H
 41
0.7
100
AcDbText
  0
TEXT
  5
42E
330
36
100
AcDbEntity
  8
0
 62
     3
100
AcDbText
 10
278.212067
 20
-434.534232
 30
0.0
 40
2.0
  1
C
 41
0.7
100
AcDbText
  0
TEXT
  5
42F
330
36
100
AcDbEntity
  8
0
 62
     3
100
AcDbText
 10
280.747354
 20
-434.534232
 30
0.0
 40
2.0
  1
K
 41
0.7
100
AcDbText
  0
TEXT
  5
430
330
36
100
AcDbEntity
  8
0
 62
     3
100
AcDbText
 10
286.42132
 20
-434.534232
 30
0.0
 40
2.0
  1
DESN
 41
1.216762999999998
100
AcDbText
  0
TEXT
  5
431
330
36
100
AcDbEntity
  8
0
 62
     3
100
AcDbText
 10
201.414961
 20
-463.8807299999998
 30
0.0
 40
2.0
  1
NICHIDO IND.CO.LTD
 41
1.274876
100
AcDbText
  0
LINE
  5
435
330
36
100
AcDbEntity
  8
0
 62
     3
100
AcDbLine
 10
211.797991
 20
-430.7393479999999
 30
0.0
 11
211.797991
 21
-453.739348
 31
0.0
  0
LINE
  5
436
330
36
100
AcDbEntity
  8
0
 62
     3
100
AcDbLine
 10
258.156635
 20
-430.739348
 30
0.0
 11
258.156635
 21
-470.40507
 31
0.0
  0
LINE
  5
43B
330
36
100
AcDbEntity
  8
0
 62
     3
100
AcDbLine
 10
271.156635
 20
-430.739348
 30
0.0
 11
271.156635
 21
-460.739348
 31
0.0
  0
TEXT
  5
43C
330
36
100
AcDbEntity
  8
0
 62
     3
100
AcDbText
 10
259.435118
 20
-459.034091
 30
0.0
 40
3.2
  1
作成日
 41
1.017225999999997
100
AcDbText
  0
LINE
  5
43D
330
36
100
AcDbEntity
  8
0
 62
     3
100
AcDbLine
 10
309.855999
 20
-430.739348
 30
0.0
 11
198.552556
 21
-430.739348
 31
0.0
  0
LINE
  5
43E
330
36
100
AcDbEntity
  8
0
 62
     3
100
AcDbLine
 10
297.156635
 20
-453.739348
 30
0.0
 11
297.156635
 21
-430.739348
 31
0.0
  0
TEXT
  5
43F
330
36
100
AcDbEntity
  8
0
 62
     3
100
AcDbText
 10
300.480438
 20
-434.448413
 30
0.0
 40
1.8
  1
D
 41
0.666667
100
AcDbText
  0
TEXT
  5
440
330
36
100
AcDbEntity
  8
0
 62
     3
100
AcDbText
 10
303.297067
 20
-434.448413
 30
0.0
 40
1.8
  1
E
 41
0.666667
100
AcDbText
  0
TEXT
  5
441
330
36
100
AcDbEntity
  8
0
 62
     3
100
AcDbText
 10
306.113695
 20
-434.448413
 30
0.0
 40
1.8
  1
F
 41
0.666667
100
AcDbText
  0
TEXT
  5
442
330
36
100
AcDbEntity
  8
0
 62
     3
100
AcDbText
 10
300.480438
 20
-438.440967
 30
0.0
 40
3.2
  1
製図
 41
1.076369
100
AcDbText
  0
LINE
  5
443
330
36
100
AcDbEntity
  8
0
 62
     3
100
AcDbLine
 10
198.552556
 20
-430.739348
 30
0.0
 11
198.552556
 21
-470.40507
 31
0.0
  0
TEXT
  5
444
330
36
100
AcDbEntity
  8
0
 62
     3
100
AcDbText
 10
199.929209
 20
-470.0726049999998
 30
0.0
 40
5.0
  1
日動工業株式会社
 41
0.833333
100
AcDbText
  0
LINE
  5
445
330
36
100
AcDbEntity
  8
0
 62
     3
100
AcDbLine
 10
241.43496
 20
-446.7393480000001
 30
0.0
 11
241.43496
 21
-470.40507
 31
0.0
  0
LINE
  5
446
330
36
100
AcDbEntity
  8
0
 62
     3
100
AcDbLine
 10
241.43496
 20
-465.572209
 30
0.0
 11
258.156635
 21
-465.572209
 31
0.0
  0
TEXT
  5
447
330
36
100
AcDbEntity
  8
0
 62
     3
100
AcDbText
 10
242.021562
 20
-464.755779
 30
0.0
 40
3.2
  1
出図コード
 41
0.8356860000000001
100
AcDbText
  0
TEXT
  5
448
330
36
100
AcDbEntity
  8
0
 62
     3
100
AcDbText
 10
242.021562
 20
-469.58864
 30
0.0
 40
3.2
  1
HM-A3
 41
0.999426
100
AcDbText
  0
LINE
  5
44A
330
36
100
AcDbEntity
  8
0
 62
     3
100
AcDbLine
 10
198.552556
 20
-460.7393480000001
 30
0.0
 11
309.855999
 21
-460.739348
 31
0.0
  0
LINE
  5
44C
330
36
100
AcDbEntity
  8
0
 62
     3
100
AcDbLine
 10
198.552556
 20
-439.7393480000001
 30
0.0
 11
309.855999
 21
-439.739348
 31
0.0
  0
LINE
  5
452
330
36
100
AcDbEntity
  8
0
 62
     3
100
AcDbLine
 10
198.552556
 20
-446.7393480000001
 30
0.0
 11
258.156635
 21
-446.7393480000001
 31
0.0
  0
LINE
  5
458
330
36
100
AcDbEntity
  8
0
 62
     3
100
AcDbLine
 10
198.552556
 20
-453.7393480000001
 30
0.0
 11
309.855999
 21
-453.739348
 31
0.0
  0
TEXT
  5
459
330
36
100
AcDbEntity
  8
0
 62
     3
100
AcDbText
 10
244.753612
 20
-459.4272636704086
 30
0.0
 40
3.2
  1
1/1
  7
高3.2
100
AcDbText
  0
TEXT
  5
45B
330
36
100
AcDbEntity
  8
0
 62
     3
100
AcDbText
 10
216.3447740997447
 20
-446.1299667858021
 30
0.0
 40
4.5
  1
LMF-B370
  7
高4.5
100
AcDbText
  0
TEXT
  5
47C
330
36
100
AcDbEntity
  8
0
 62
     3
100
AcDbText
 10
260.3716762307197
 20
-468.9507742895433
 30
0.0
 40
6.299999999999998
  1
LMF-B370
  7
高6.3
100
AcDbText
  0
TEXT
  5
47D
330
36
100
AcDbEntity
  8
0
 62
     3
100
AcDbText
 10
274.740184
 20
-459.2745265006157
 30
0.0
 40
3.2
  1
2011.1.18
  7
高3.2
100
AcDbText
  0
TEXT
  5
47E
330
36
100
AcDbEntity
  8
0
 62
     3
100
AcDbText
 10
213.2746220555482
 20
-437.9479247723625
 30
0.0
 40
4.5
  1
電柱用バンドIBT-312
 41
0.7
  7
高4.5
100
AcDbText
  0
LINE
  5
73B
330
36
100
AcDbEntity
  8
0
 62
     3
100
AcDbLine
 10
-92.54592499999999
 20
-329.90507
 30
0.0
 11
-95.14400100000001
 21
-331.40507
 31
0.0
  0
LINE
  5
73C
330
36
100
AcDbEntity
  8
0
 62
     3
100
AcDbLine
 10
-92.54592499999999
 20
-329.90507
 30
0.0
 11
-95.14400100000001
 21
-328.40507
 31
0.0
  0
LINE
  5
73D
330
36
100
AcDbEntity
  8
0
 62
     3
100
AcDbLine
 10
-95.14400100000001
 20
-331.40507
 30
0.0
 11
-95.14400100000001
 21
-328.40507
 31
0.0
  0
TEXT
  5
906
330
36
100
AcDbEntity
  8
0
 62
     3
100
AcDbText
 10
200.369953
 20
-434.569822
 30
0.0
 40
2.0
  1
CONPONENTS
 41
0.5331600000000001
100
AcDbText
  0
TEXT
  5
907
330
36
100
AcDbEntity
  8
0
 62
     3
100
AcDbText
 10
200.020226
 20
-453.501999
 30
0.0
 40
3.0
  1
材
 41
0.833333
100
AcDbText
  0
TEXT
  5
908
330
36
100
AcDbEntity
  8
0
 62
     3
100
AcDbText
 10
207.555869
 20
-453.501999
 30
0.0
 40
3.0
  1
質
 41
0.833333
100
AcDbText
  0
TEXT
  5
909
330
36
100
AcDbEntity
  8
0
 62
     3
100
AcDbText
 10
200.108297
 20
-442.877474
 30
0.0
 40
2.0
  1
MODEL
 41
1.031072999999999
100
AcDbText
  0
TEXT
  5
90A
330
36
100
AcDbEntity
  8
0
 62
     3
100
AcDbText
 10
200.020226
 20
-449.819691
 30
0.0
 40
2.0
  1
MATERIAL
 41
0.659278
100
AcDbText
  0
TEXT
  5
90B
330
36
100
AcDbEntity
  8
0
 62
     3
100
AcDbText
 10
231.327507
 20
-453.501999
 30
0.0
 40
3.0
  1
備
 41
0.833333
100
AcDbText
  0
TEXT
  5
90C
330
36
100
AcDbEntity
  8
0
 62
     3
100
AcDbText
 10
238.060508
 20
-453.501999
 30
0.0
 40
3.0
  1
考
 41
0.833333
100
AcDbText
  0
TEXT
  5
90D
330
36
100
AcDbEntity
  8
0
 62
     3
100
AcDbText
 10
231.7213372079041
 20
-449.8594104176726
 30
0.0
 40
2.0
  1
REMARKS
 41
0.675794
100
AcDbText
  0
TEXT
  5
90E
330
36
100
AcDbEntity
  8
0
 62
     3
100
AcDbText
 10
201.609955
 20
-456.739811
 30
0.0
 40
2.0
  1
3AD
 41
1.42614
100
AcDbText
  0
TEXT
  5
90F
330
36
100
AcDbEntity
  8
0
 62
     3
100
AcDbText
 10
210.920935
 20
-456.574078
 30
0.0
 40
2.0
  1
ANGLE
 41
1.669883999999995
100
AcDbText
  0
TEXT
  5
910
330
36
100
AcDbEntity
  8
0
 62
     3
100
AcDbText
 10
231.854822
 20
-456.950919
 30
0.0
 40
2.0
  1
SCALE
 41
0.7719630000000001
100
AcDbText
  0
TEXT
  5
911
330
36
100
AcDbEntity
  8
0
 62
     3
100
AcDbText
 10
201.296085
 20
-460.739348
 30
0.0
 40
3.0
  1
第
 41
0.833333
100
AcDbText
  0
TEXT
  5
912
330
36
100
AcDbEntity
  8
0
 62
     3
100
AcDbText
 10
209.082935
 20
-460.739348
 30
0.0
 40
3.0
  1
三
 41
0.833333
100
AcDbText
  0
TEXT
  5
913
330
36
100
AcDbEntity
  8
0
 62
     3
100
AcDbText
 10
216.869785
 20
-460.739348
 30
0.0
 40
3.0
  1
角
 41
0.833333
100
AcDbText
  0
TEXT
  5
914
330
36
100
AcDbEntity
  8
0
 62
     3
100
AcDbText
 10
224.656635
 20
-460.739348
 30
0.0
 40
3.0
  1
法
 41
0.833333
100
AcDbText
  0
TEXT
  5
915
330
36
100
AcDbEntity
  8
0
 62
     3
100
AcDbText
 10
231.718027
 20
-460.450919
 30
0.0
 40
3.0
  1
尺
 41
0.833333
100
AcDbText
  0
TEXT
  5
916
330
36
100
AcDbEntity
  8
0
 62
     3
100
AcDbText
 10
238.451029
 20
-460.450919
 30
0.0
 40
3.0
  1
度
 41
0.833333
100
AcDbText
  0
TEXT
  5
917
330
36
100
AcDbEntity
  8
0
 62
     3
100
AcDbText
 10
261.034299
 20
-438.281619
 30
0.0
 40
3.0
  1
承認
 41
1.089472999999999
100
AcDbText
  0
TEXT
  5
918
330
36
100
AcDbEntity
  8
0
 62
     3
100
AcDbText
 10
274.277179
 20
-438.339348
 30
0.0
 40
3.0
  1
検図
 41
0.931761
100
AcDbText
  0
TEXT
  5
919
330
36
100
AcDbEntity
  8
0
 62
     3
100
AcDbText
 10
287.277576
 20
-438.339348
 30
0.0
 40
3.0
  1
設
 41
0.833333
100
AcDbText
  0
TEXT
  5
91A
330
36
100
AcDbEntity
  8
0
 62
     3
100
AcDbText
 10
291.767444
 20
-438.339348
 30
0.0
 40
3.0
  1
計
 41
0.833333
100
AcDbText
  0
TEXT
  5
91B
330
36
100
AcDbEntity
  8
0
 62
     3
100
AcDbText
 10
200.440059
 20
-438.1667959999998
 30
0.0
 40
3.0
  1
品
 41
0.833333
100
AcDbText
  0
TEXT
  5
91C
330
36
100
AcDbEntity
  8
0
 62
     3
100
AcDbText
 10
207.975702
 20
-438.1667959999998
 30
0.0
 40
3.0
  1
名
 41
0.833333
100
AcDbText
  0
TEXT
  5
91D
330
36
100
AcDbEntity
  8
0
 62
     3
100
AcDbText
 10
200.108297
 20
-446.4234244643956
 30
0.0
 40
3.0
  1
型
 41
0.833333
100
AcDbText
  0
TEXT
  5
91E
330
36
100
AcDbEntity
  8
0
 62
     3
100
AcDbText
 10
207.656387
 20
-446.4234244643956
 30
0.0
 40
3.0
  1
式
 41
0.833333
100
AcDbText
  0
LINE
  5
91F
330
36
100
AcDbEntity
  8
0
 62
     3
100
AcDbLine
 10
309.855999
 20
-470.40507
 30
0.0
 11
309.855999
 21
-196.40507
 31
0.0
  0
LINE
  5
920
330
36
100
AcDbEntity
  8
0
 62
     3
100
AcDbLine
 10
-80.14400100000001
 20
-196.40507
 30
0.0
 11
-80.14400100000001
 21
-470.40507
 31
0.0
  0
LINE
  5
921
330
36
100
AcDbEntity
  8
0
 62
     3
100
AcDbLine
 10
-80.14400100000001
 20
-196.40507
 30
0.0
 11
309.855999
 21
-196.40507
 31
0.0
  0
LINE
  5
922
330
36
100
AcDbEntity
  8
0
 62
     3
100
AcDbLine
 10
-80.14400100000001
 20
-470.40507
 30
0.0
 11
309.855999
 21
-470.40507
 31
0.0
  0
LINE
  5
92D
330
36
100
AcDbEntity
  8
0
  6
Continuous
 62
     3
100
AcDbLine
 10
86.94765234752255
 20
-239.2548756743571
 30
0.0
 11
97.24765234752251
 21
-239.2548756743571
 31
0.0
  0
LINE
  5
932
330
36
100
AcDbEntity
  8
0
  6
Continuous
 62
     3
100
AcDbLine
 10
71.77012859568886
 20
-239.2720850470526
 30
0.0
 11
59.47525858874067
 21
-238.1964233019198
 31
0.0
  0
LINE
  5
93A
330
36
100
AcDbEntity
  8
0
  6
Continuous
100
AcDbLine
 10
86.94765234752255
 20
-242.454875674357
 30
0.0
 11
97.24765234752254
 21
-242.4548756743569
 31
0.0
  0
LINE
  5
93B
330
36
100
AcDbEntity
  8
0
  6
Continuous
 62
     3
100
AcDbLine
 10
71.49123021889636
 20
-242.4599080809461
 30
0.0
 11
59.19636021194818
 21
-241.3842463358133
 31
0.0
  0
LINE
  5
93C
330
36
100
AcDbEntity
  8
0
  6
Continuous
 62
     3
100
AcDbLine
 10
86.94765234752251
 20
-239.2548756743571
 30
0.0
 11
86.94765234752251
 21
-242.454875674357
 31
0.0
  0
LINE
  5
93D
330
36
100
AcDbEntity
  8
0
  6
Continuous
 62
     3
100
AcDbLine
 10
59.4752585887407
 20
-238.1964233019198
 30
0.0
 11
59.19636021194818
 21
-241.3842463358133
 31
0.0
  0
ARC
  5
940
330
36
100
AcDbEntity
  8
0
  6
Continuous
100
AcDbCircle
 10
97.24765234752254
 20
-242.9548756743569
 30
0.0
 40
0.5
100
AcDbArc
 50
0.0
 51
90.00000000000039
  0
ARC
  5
941
330
36
100
AcDbEntity
  8
0
  6
Continuous
100
AcDbCircle
 10
71.44765234752253
 20
-242.9580054299919
 30
0.0
 40
0.5
100
AcDbArc
 50
0.0
 51
85.00000000000019
  0
ARC
  5
942
330
36
100
AcDbEntity
  8
0
  6
Continuous
 62
     3
100
AcDbCircle
 10
97.24765234752251
 20
-242.954875674357
 30
0.0
 40
3.7
100
AcDbArc
 50
0.0
 51
90.0
  0
ARC
  5
943
330
36
100
AcDbEntity
  8
0
  6
Continuous
 62
     3
100
AcDbCircle
 10
71.44765234752253
 20
-242.9580054299921
 30
0.0
 40
3.7
100
AcDbArc
 50
0.0
 51
85.00000000000019
  0
LINE
  5
944
330
36
100
AcDbEntity
  8
0
  6
Continuous
 62
     3
100
AcDbLine
 10
71.49123021889636
 20
-242.4599080809461
 30
0.0
 11
54.51547713044829
 21
-241.110329191609
 31
0.0
  0
LINE
  5
946
330
36
100
AcDbEntity
  8
0
  6
Continuous
 62
     3
100
AcDbLine
 10
71.3644296827417
 20
-244.054875674357
 30
0.0
 11
54.51547713044829
 21
-242.7153774763365
 31
0.0
  0
LINE
  5
947
330
36
100
AcDbEntity
  8
0
  6
Continuous
100
AcDbLine
 10
71.3644296827417
 20
-244.054875674357
 30
0.0
 11
71.49123021889626
 21
-242.4599080809461
 31
0.0
  0
LINE
  5
948
330
36
100
AcDbEntity
  8
0
  6
Continuous
 62
     3
100
AcDbLine
 10
54.51547713044829
 20
-241.110329191609
 30
0.0
 11
27.18578581975898
 21
-237.4946776425063
 31
0.0
  0
LINE
  5
949
330
36
100
AcDbEntity
  8
0
  6
Continuous
 62
     3
100
AcDbLine
 10
54.30496740170632
 20
-242.7015129177738
 30
0.0
 11
26.97527609101704
 21
-239.085861368671
 31
0.0
  0
LINE
  5
94A
330
36
100
AcDbEntity
  8
0
  6
Continuous
 62
     3
100
AcDbLine
 10
97.24765234752254
 20
-242.454875674357
 30
0.0
 11
75.11328468710525
 21
-242.454875674357
 31
0.0
  0
LINE
  5
94B
330
36
100
AcDbEntity
  8
0
  6
Continuous
 62
     3
100
AcDbLine
 10
96.41129493318182
 20
-244.054875674357
 30
0.0
 11
75.14765234752251
 21
-244.054875674357
 31
0.0
  0
LINE
  5
94C
330
36
100
AcDbEntity
  8
0
  6
Continuous
100
AcDbLine
 10
96.41129493318182
 20
-242.454875674357
 30
0.0
 11
96.41129493318182
 21
-244.054875674357
 31
0.0
  0
LINE
  5
9B1
330
36
100
AcDbEntity
  8
0
  6
Continuous
 62
     3
100
AcDbLine
 10
100.9476523475225
 20
-242.954875674357
 30
0.0
 11
100.9476523475225
 21
-261.754875674357
 31
0.0
  0
LINE
  5
9B2
330
36
100
AcDbEntity
  8
0
  6
Continuous
 62
     3
100
AcDbLine
 10
71.94765234752253
 20
-242.9580054299919
 30
0.0
 11
71.94765234752255
 21
-261.754875674357
 31
0.0
  0
ARC
  5
9B4
330
36
100
AcDbEntity
  8
0
  6
Continuous
 62
     3
100
AcDbCircle
 10
86.44765234752251
 20
-261.754875674357
 30
0.0
 40
14.5
100
AcDbArc
 50
180.0
 51
0.0
  0
LINE
  5
9B5
330
36
100
AcDbEntity
  8
0
  6
Continuous
 62
     3
100
AcDbLine
 10
97.74765234752251
 20
-242.954875674357
 30
0.0
 11
97.74765234752251
 21
-261.754875674357
 31
0.0
  0
ARC
  5
9B6
330
36
100
AcDbEntity
  8
0
  6
Continuous
 62
     3
100
AcDbCircle
 10
86.44765234752251
 20
-261.754875674357
 30
0.0
 40
11.3
100
AcDbArc
 50
180.0
 51
0.0
  0
LINE
  5
9B7
330
36
100
AcDbEntity
  8
0
  6
Continuous
 62
     3
100
AcDbLine
 10
75.14765234752253
 20
-242.9580054299919
 30
0.0
 11
75.14765234752255
 21
-261.754875674357
 31
0.0
  0
LINE
  5
9B9
330
36
100
AcDbEntity
  8
0
  6
Continuous
 62
     3
100
AcDbLine
 10
60.74572290782889
 20
-256.254875674357
 30
0.0
 11
71.94765234752255
 21
-256.254875674357
 31
0.0
  0
LINE
  5
9BA
330
36
100
AcDbEntity
  8
0
  6
Continuous
 62
     3
100
AcDbLine
 10
60.74572290782889
 20
-266.2548756743571
 30
0.0
 11
72.66360359543231
 21
-266.2548756743571
 31
0.0
  0
LINE
  5
9BD
330
36
100
AcDbEntity
  8
0
  6
Continuous
 62
     3
100
AcDbLine
 10
60.74572290782889
 20
-251.7548756743571
 30
0.0
 11
67.2074960853661
 21
-251.7548756743571
 31
0.0
  0
LINE
  5
9BE
330
36
100
AcDbEntity
  8
0
  6
Continuous
 62
     3
100
AcDbLine
 10
60.74572290782889
 20
-270.754875674357
 30
0.0
 11
67.2074960853661
 21
-270.754875674357
 31
0.0
  0
LINE
  5
9BF
330
36
100
AcDbEntity
  8
0
  6
Continuous
100
AcDbLine
 10
67.2074960853661
 20
-254.368281773746
 30
0.0
 11
67.2074960853661
 21
-269.0110755102196
 31
0.0
  0
LINE
  5
9C0
330
36
100
AcDbEntity
  8
0
  6
Continuous
 62
     3
100
AcDbLine
 10
67.2074960853661
 20
-270.754875674357
 30
0.0
 11
67.2074960853661
 21
-251.7548756743571
 31
0.0
  0
LINE
  5
9C2
330
36
100
AcDbEntity
  8
0
  6
Continuous
 62
     3
100
AcDbLine
 10
59.2074960853661
 20
-268.8682817737464
 30
0.0
 11
59.2074960853661
 21
-253.6414695749684
 31
0.0
  0
ARC
  5
9C5
330
36
100
AcDbEntity
  8
0
  6
Continuous
 62
     3
100
AcDbCircle
 10
61.57924570568175
 20
-254.004875674357
 30
0.0
 40
2.399429151806784
100
AcDbArc
 50
110.3273794004146
 51
249.6726205995863
  0
ARC
  5
9C6
330
36
100
AcDbEntity
  8
0
  6
Continuous
 62
     3
100
AcDbCircle
 10
68.10284927961399
 20
-261.2548756743571
 30
0.0
 40
8.895353194247912
100
AcDbArc
 50
145.7994561849023
 51
214.2005438150975
  0
ARC
  5
9C7
330
36
100
AcDbEntity
  8
0
  6
Continuous
 62
     3
100
AcDbCircle
 10
61.57924570568162
 20
-268.5048756743571
 30
0.0
 40
2.399429151806784
100
AcDbArc
 50
110.3273794004124
 51
249.672620599585
  0
LINE
  5
9C8
330
36
100
AcDbEntity
  8
0
  6
Continuous
 62
     3
100
AcDbLine
 10
60.7457228762342
 20
-256.2548757208462
 30
0.0
 11
56.9986907458815
 21
-256.2548757208462
 31
0.0
  0
LINE
  5
9C9
330
36
100
AcDbEntity
  8
0
  6
Continuous
 62
     3
100
AcDbLine
 10
60.74572281989644
 20
-266.254875706932
 30
0.0
 11
56.9986907458815
 21
-266.2548757069321
 31
0.0
  0
LINE
  5
9CA
330
36
100
AcDbEntity
  8
0
  6
Continuous
 62
     3
100
AcDbLine
 10
55.4986907458815
 20
-257.7548757208462
 30
0.0
 11
55.4986907458815
 21
-264.7548757069321
 31
0.0
  0
LINE
  5
9CB
330
36
100
AcDbEntity
  8
0
  6
Continuous
100
AcDbLine
 10
56.9986907458815
 20
-256.2548757208462
 30
0.0
 11
55.4986907458815
 21
-257.7548757208462
 31
0.0
  0
LINE
  5
9CC
330
36
100
AcDbEntity
  8
0
  6
Continuous
100
AcDbLine
 10
55.4986907458815
 20
-264.7548757069321
 30
0.0
 11
56.9986907458815
 21
-266.2548757069321
 31
0.0
  0
LINE
  5
9CD
330
36
100
AcDbEntity
  8
0
  6
Continuous
100
AcDbLine
 10
56.9986907458815
 20
-256.2548757208462
 30
0.0
 11
56.99869074588164
 21
-266.2548757069321
 31
0.0
  0
LINE
  5
9CE
330
36
100
AcDbEntity
  8
0
  6
Continuous
100
AcDbLine
 10
121.9986907458815
 20
-256.2548757208453
 30
0.0
 11
121.9986907458816
 21
-266.2548757069312
 31
0.0
  0
LINE
  5
9CF
330
36
100
AcDbEntity
  8
0
  6
Continuous
100
AcDbLine
 10
67.2074960853661
 20
-257.754875674357
 30
0.0
 11
71.94765234752255
 21
-257.7548756743569
 31
0.0
  0
LINE
  5
9D0
330
36
100
AcDbEntity
  8
0
  6
Continuous
100
AcDbLine
 10
67.2074960853661
 20
-264.754875674357
 30
0.0
 11
72.26139138841142
 21
-264.754875674357
 31
0.0
  0
LINE
  5
9D1
330
36
100
AcDbEntity
  8
0
  6
Continuous
100
AcDbLine
 10
100.6339133066336
 20
-264.754875674357
 30
0.0
 11
120.6406701619416
 21
-264.754875674357
 31
0.0
  0
LINE
  5
9D2
330
36
100
AcDbEntity
  8
0
  6
Continuous
100
AcDbLine
 10
75.14765234752253
 20
-257.7548756743569
 30
0.0
 11
97.74765234752251
 21
-257.7548756743567
 31
0.0
  0
LINE
  5
9D3
330
36
100
AcDbEntity
  8
0
  6
Continuous
100
AcDbLine
 10
75.55315832531113
 20
-264.7548756743571
 30
0.0
 11
97.34214636973392
 21
-264.754875674357
 31
0.0
  0
LINE
  5
9D4
330
36
100
AcDbEntity
  8
0
  6
Continuous
 62
     3
100
AcDbLine
 10
100.2317010996127
 20
-266.2548756743571
 30
0.0
 11
132.8799216692693
 21
-266.2548756743571
 31
0.0
  0
LINE
  5
9D5
330
36
100
AcDbEntity
  8
0
  6
Continuous
 62
     3
100
AcDbLine
 10
76.0823255316426
 20
-266.2548756743571
 30
0.0
 11
96.81297916340245
 21
-266.2548756743571
 31
0.0
  0
LINE
  5
9D6
330
36
100
AcDbEntity
  8
0
  6
Continuous
100
AcDbLine
 10
100.9476523475225
 20
-257.7548756743567
 30
0.0
 11
120.6406701619416
 21
-257.7548756743564
 31
0.0
  0
LINE
  5
9D7
330
36
100
AcDbEntity
  8
0
  6
Continuous
 62
     3
100
AcDbLine
 10
100.9476523475225
 20
-256.254875674357
 30
0.0
 11
132.724765051874
 21
-256.254875674357
 31
0.0
  0
LINE
  5
9D8
330
36
100
AcDbEntity
  8
0
  6
Continuous
 62
     3
100
AcDbLine
 10
75.14765234752253
 20
-256.254875674357
 30
0.0
 11
97.74765234752251
 21
-256.254875674357
 31
0.0
  0
LINE
  5
9D9
330
36
100
AcDbEntity
  8
0
  6
Continuous
100
AcDbLine
 10
120.6406701619417
 20
-257.7548756743564
 30
0.0
 11
120.6406701619416
 21
-264.754875674357
 31
0.0
  0
LINE
  5
9DA
330
36
100
AcDbEntity
  8
0
  6
Continuous
100
AcDbLine
 10
121.9986907458815
 20
-256.2548757208453
 30
0.0
 11
120.6406701619416
 21
-257.7548756743563
 31
0.0
  0
LINE
  5
9DB
330
36
100
AcDbEntity
  8
0
  6
Continuous
100
AcDbLine
 10
121.9986907458816
 20
-266.2548757069312
 30
0.0
 11
120.6406701619416
 21
-264.754875674357
 31
0.0
  0
LINE
  5
9E0
330
36
100
AcDbEntity
  8
0
  6
Continuous
 62
     3
100
AcDbLine
 10
163.2009844788186
 20
-232.4707865774412
 30
0.0
 11
153.4986907458815
 21
-232.4707865774412
 31
0.0
  0
LINE
  5
9E3
330
36
100
AcDbEntity
  8
0
  6
Continuous
 62
     3
100
AcDbLine
 10
153.4986907458815
 20
-232.4707865774412
 30
0.0
 11
155.9012173127348
 21
-234.2906161282593
 31
0.0
  0
ARC
  5
9EC
330
36
100
AcDbEntity
  8
0
  6
Continuous
 62
     3
100
AcDbCircle
 10
162.0222768674979
 20
-238.2253566557084
 30
0.0
 40
5.874047022170758
100
AcDbArc
 50
42.05562185880402
 51
78.42423088701277
  0
ARC
  5
9ED
330
36
100
AcDbEntity
  8
0
  6
Continuous
 62
     3
100
AcDbCircle
 10
162.7639924744639
 20
-237.3210374501436
 30
0.0
 40
1.707129155841763
100
AcDbArc
 50
316.6740319606463
 51
56.61097059768596
  0
ARC
  5
9EE
330
36
100
AcDbEntity
  8
0
  6
Continuous
 62
     3
100
AcDbCircle
 10
158.2207540282595
 20
-241.5901954940451
 30
0.0
 40
10.94558492367081
100
AcDbArc
 50
313.2190143064371
 51
31.34957736002763
  0
ARC
  5
9F0
330
36
100
AcDbEntity
  8
0
  6
Continuous
 62
     3
100
AcDbCircle
 10
132.1399021591895
 20
-239.619739707436
 30
0.0
 40
26.64541418052395
100
AcDbArc
 50
268.4085273722356
 51
305.7116646583819
  0
ARC
  5
9F1
330
36
100
AcDbEntity
  8
0
  6
Continuous
 62
     3
100
AcDbCircle
 10
132.1399021591895
 20
-239.619739707436
 30
0.0
 40
16.64541418052395
100
AcDbArc
 50
268.4085273722356
 51
305.7116646583819
  0
LINE
  5
9F2
330
36
100
AcDbEntity
  8
0
  6
Continuous
 62
     3
100
AcDbLine
 10
187.8497108756173
 20
-234.2906161282592
 30
0.0
 11
57.14336479957864
 21
-234.2906161282593
 31
0.0
  0
LINE
  5
9F3
330
36
100
AcDbEntity
  8
0
  6
Continuous
 62
     3
100
AcDbLine
 10
187.8497108756173
 20
-235.8956644129867
 30
0.0
 11
57.14336479957864
 21
-235.8956644129867
 31
0.0
  0
LINE
  5
9F4
330
36
100
AcDbEntity
  8
0
  6
Continuous
100
AcDbLine
 10
162.8497108756173
 20
-235.8956644129867
 30
0.0
 11
162.8497108756173
 21
-237.2906161282593
 31
0.0
  0
LINE
  5
9F5
330
36
100
AcDbEntity
  8
0
  6
Continuous
100
AcDbLine
 10
151.8497108756173
 20
-235.8956644129867
 30
0.0
 11
151.8497108756173
 21
-237.2906161282593
 31
0.0
  0
LINE
  5
9F7
330
36
100
AcDbEntity
  8
0
  6
Continuous
100
AcDbLine
 10
137.8497108756173
 20
-235.8956644129867
 30
0.0
 11
137.8497108756173
 21
-237.2906161282593
 31
0.0
  0
LINE
  5
9F8
330
36
100
AcDbEntity
  8
0
  6
Continuous
100
AcDbLine
 10
176.8497108756173
 20
-235.8956644129867
 30
0.0
 11
176.8497108756173
 21
-237.2906161282593
 31
0.0
  0
LINE
  5
9FA
330
36
100
AcDbEntity
  8
0
  6
Continuous
100
AcDbLine
 10
187.8497108756173
 20
-235.8956644129867
 30
0.0
 11
187.8497108756173
 21
-237.2906161282593
 31
0.0
  0
LINE
  5
A0A
330
36
100
AcDbEntity
  8
0
  6
Continuous
100
AcDbLine
 10
187.8497108756173
 20
-237.2906161282593
 30
0.0
 11
176.8497108756173
 21
-237.2906161282593
 31
0.0
  0
LINE
  5
A3F
330
36
100
AcDbEntity
  8
0
  6
Continuous
100
AcDbLine
 10
162.8497108756173
 20
-237.2906161282593
 30
0.0
 11
151.8497108756174
 21
-237.2906161282593
 31
0.0
  0
LINE
  5
A40
330
36
100
AcDbEntity
  8
0
  6
Continuous
100
AcDbLine
 10
137.8497108756173
 20
-237.2906161282593
 30
0.0
 11
126.8497108756173
 21
-237.2906161282593
 31
0.0
  0
LINE
  5
A41
330
36
100
AcDbEntity
  8
0
  6
Continuous
100
AcDbLine
 10
126.8497108756173
 20
-235.8956644129867
 30
0.0
 11
126.8497108756173
 21
-237.2906161282593
 31
0.0
  0
LINE
  5
A7E
330
36
100
AcDbEntity
  8
0
  6
Continuous
100
AcDbLine
 10
126.8497108756173
 20
-235.8956644129867
 30
0.0
 11
126.8497108756173
 21
-237.2906161282593
 31
0.0
  0
LINE
  5
A84
330
36
100
AcDbEntity
  8
0
  6
Continuous
100
AcDbLine
 10
126.8497108756173
 20
-235.8956644129867
 30
0.0
 11
126.8497108756173
 21
-237.2906161282593
 31
0.0
  0
LINE
  5
AA2
330
36
100
AcDbEntity
  8
0
  6
Continuous
100
AcDbLine
 10
112.8497108756173
 20
-237.2906161282593
 30
0.0
 11
101.8497108756173
 21
-237.2906161282593
 31
0.0
  0
LINE
  5
AA3
330
36
100
AcDbEntity
  8
0
  6
Continuous
100
AcDbLine
 10
112.8497108756173
 20
-235.8956644129867
 30
0.0
 11
112.8497108756173
 21
-237.2906161282593
 31
0.0
  0
LINE
  5
AA4
330
36
100
AcDbEntity
  8
0
  6
Continuous
100
AcDbLine
 10
101.8497108756173
 20
-235.8956644129867
 30
0.0
 11
101.8497108756173
 21
-237.2906161282593
 31
0.0
  0
LINE
  5
AA5
330
36
100
AcDbEntity
  8
0
  6
Continuous
100
AcDbLine
 10
101.8497108756173
 20
-235.8956644129867
 30
0.0
 11
101.8497108756173
 21
-237.2906161282593
 31
0.0
  0
LINE
  5
AA6
330
36
100
AcDbEntity
  8
0
  6
Continuous
100
AcDbLine
 10
101.8497108756173
 20
-235.8956644129867
 30
0.0
 11
101.8497108756173
 21
-237.2906161282593
 31
0.0
  0
LINE
  5
AA7
330
36
100
AcDbEntity
  8
0
  6
Continuous
100
AcDbLine
 10
112.8497108756173
 20
-237.2906161282593
 30
0.0
 11
101.8497108756173
 21
-237.2906161282593
 31
0.0
  0
LINE
  5
AA8
330
36
100
AcDbEntity
  8
0
  6
Continuous
100
AcDbLine
 10
112.8497108756173
 20
-235.8956644129867
 30
0.0
 11
112.8497108756173
 21
-237.2906161282593
 31
0.0
  0
LINE
  5
AA9
330
36
100
AcDbEntity
  8
0
  6
Continuous
100
AcDbLine
 10
101.8497108756173
 20
-235.8956644129867
 30
0.0
 11
101.8497108756173
 21
-237.2906161282593
 31
0.0
  0
LINE
  5
AAA
330
36
100
AcDbEntity
  8
0
  6
Continuous
100
AcDbLine
 10
101.8497108756173
 20
-235.8956644129867
 30
0.0
 11
101.8497108756173
 21
-237.2906161282593
 31
0.0
  0
LINE
  5
AAB
330
36
100
AcDbEntity
  8
0
  6
Continuous
100
AcDbLine
 10
101.8497108756173
 20
-235.8956644129867
 30
0.0
 11
101.8497108756173
 21
-237.2906161282593
 31
0.0
  0
LINE
  5
ADA
330
36
100
AcDbEntity
  8
0
  6
Continuous
 62
     3
100
AcDbLine
 10
27.18578581975898
 20
-237.4946776425063
 30
0.0
 11
-10.85153008577158
 21
-232.4624334574522
 31
0.0
  0
LINE
  5
ADB
330
36
100
AcDbEntity
  8
0
  6
Continuous
100
AcDbLine
 10
20.0337734401726
 20
-239.5746239200954
 30
0.0
 11
15.88734056637063
 21
-239.0260609570901
 31
0.0
  0
LINE
  5
ADC
330
36
100
AcDbEntity
  8
0
  6
Continuous
100
AcDbLine
 10
2.008273887645044
 20
-237.1898942632713
 30
0.0
 11
-8.896707074210743
 21
-235.7471918609852
 31
0.0
  0
LINE
  5
ADE
330
36
100
AcDbEntity
  8
0
  6
Continuous
 62
     3
100
AcDbLine
 10
26.97527609101703
 20
-239.0858613686711
 30
0.0
 11
-11.91808475822548
 21
-233.9403645240224
 31
0.0
  0
LINE
  5
ADF
330
36
100
AcDbEntity
  8
0
  6
Continuous
100
AcDbLine
 10
2.191228450435676
 20
-235.8069922725663
 30
0.0
 11
2.008273887645044
 21
-237.1898942632713
 31
0.0
  0
LINE
  5
AE0
330
36
100
AcDbEntity
  8
0
  6
Continuous
100
AcDbLine
 10
16.07029512916126
 20
-237.643158966385
 30
0.0
 11
15.88734056637063
 21
-239.0260609570901
 31
0.0
  0
LINE
  5
AE2
330
36
100
AcDbEntity
  8
0
  6
Continuous
100
AcDbLine
 10
-8.713752511420139
 20
-234.3642898702802
 30
0.0
 11
-8.896707074210773
 21
-235.7471918609852
 31
0.0
  0
LINE
  5
B5F
330
36
100
AcDbEntity
  8
0
  6
Continuous
100
AcDbLine
 10
87.84971087561734
 20
-237.2906161282593
 30
0.0
 11
76.84971087561732
 21
-237.2906161282593
 31
0.0
  0
LINE
  5
B60
330
36
100
AcDbEntity
  8
0
  6
Continuous
100
AcDbLine
 10
87.84971087561734
 20
-235.8956644129867
 30
0.0
 11
87.84971087561734
 21
-237.2906161282593
 31
0.0
  0
LINE
  5
B61
330
36
100
AcDbEntity
  8
0
  6
Continuous
100
AcDbLine
 10
76.84971087561734
 20
-235.8956644129867
 30
0.0
 11
76.84971087561734
 21
-237.2906161282593
 31
0.0
  0
LINE
  5
B62
330
36
100
AcDbEntity
  8
0
  6
Continuous
100
AcDbLine
 10
76.84971087561734
 20
-235.8956644129867
 30
0.0
 11
76.84971087561734
 21
-237.2906161282593
 31
0.0
  0
LINE
  5
B63
330
36
100
AcDbEntity
  8
0
  6
Continuous
100
AcDbLine
 10
76.84971087561734
 20
-235.8956644129867
 30
0.0
 11
76.84971087561734
 21
-237.2906161282593
 31
0.0
  0
LINE
  5
B64
330
36
100
AcDbEntity
  8
0
  6
Continuous
100
AcDbLine
 10
87.84971087561734
 20
-237.2906161282593
 30
0.0
 11
76.84971087561732
 21
-237.2906161282593
 31
0.0
  0
LINE
  5
B65
330
36
100
AcDbEntity
  8
0
  6
Continuous
100
AcDbLine
 10
87.84971087561734
 20
-235.8956644129867
 30
0.0
 11
87.84971087561734
 21
-237.2906161282593
 31
0.0
  0
LINE
  5
B66
330
36
100
AcDbEntity
  8
0
  6
Continuous
100
AcDbLine
 10
76.84971087561734
 20
-235.8956644129867
 30
0.0
 11
76.84971087561734
 21
-237.2906161282593
 31
0.0
  0
LINE
  5
B67
330
36
100
AcDbEntity
  8
0
  6
Continuous
100
AcDbLine
 10
76.84971087561734
 20
-235.8956644129867
 30
0.0
 11
76.84971087561734
 21
-237.2906161282593
 31
0.0
  0
LINE
  5
B68
330
36
100
AcDbEntity
  8
0
  6
Continuous
100
AcDbLine
 10
76.84971087561734
 20
-235.8956644129867
 30
0.0
 11
76.84971087561734
 21
-237.2906161282593
 31
0.0
  0
LINE
  5
B69
330
36
100
AcDbEntity
  8
0
  6
Continuous
100
AcDbLine
 10
87.84971087561734
 20
-237.2906161282593
 30
0.0
 11
76.84971087561732
 21
-237.2906161282593
 31
0.0
  0
LINE
  5
B6A
330
36
100
AcDbEntity
  8
0
  6
Continuous
100
AcDbLine
 10
87.84971087561734
 20
-235.8956644129867
 30
0.0
 11
87.84971087561734
 21
-237.2906161282593
 31
0.0
  0
LINE
  5
B6B
330
36
100
AcDbEntity
  8
0
  6
Continuous
100
AcDbLine
 10
76.84971087561734
 20
-235.8956644129867
 30
0.0
 11
76.84971087561734
 21
-237.2906161282593
 31
0.0
  0
LINE
  5
B6C
330
36
100
AcDbEntity
  8
0
  6
Continuous
100
AcDbLine
 10
76.84971087561734
 20
-235.8956644129867
 30
0.0
 11
76.84971087561734
 21
-237.2906161282593
 31
0.0
  0
LINE
  5
B6D
330
36
100
AcDbEntity
  8
0
  6
Continuous
100
AcDbLine
 10
76.84971087561734
 20
-235.8956644129867
 30
0.0
 11
76.84971087561734
 21
-237.2906161282593
 31
0.0
  0
LINE
  5
B6E
330
36
100
AcDbEntity
  8
0
  6
Continuous
100
AcDbLine
 10
87.84971087561734
 20
-237.2906161282593
 30
0.0
 11
76.84971087561732
 21
-237.2906161282593
 31
0.0
  0
LINE
  5
B6F
330
36
100
AcDbEntity
  8
0
  6
Continuous
100
AcDbLine
 10
87.84971087561734
 20
-235.8956644129867
 30
0.0
 11
87.84971087561734
 21
-237.2906161282593
 31
0.0
  0
LINE
  5
B70
330
36
100
AcDbEntity
  8
0
  6
Continuous
100
AcDbLine
 10
76.84971087561734
 20
-235.8956644129867
 30
0.0
 11
76.84971087561734
 21
-237.2906161282593
 31
0.0
  0
LINE
  5
B71
330
36
100
AcDbEntity
  8
0
  6
Continuous
100
AcDbLine
 10
76.84971087561734
 20
-235.8956644129867
 30
0.0
 11
76.84971087561734
 21
-237.2906161282593
 31
0.0
  0
LINE
  5
B72
330
36
100
AcDbEntity
  8
0
  6
Continuous
100
AcDbLine
 10
76.84971087561734
 20
-235.8956644129867
 30
0.0
 11
76.84971087561734
 21
-237.2906161282593
 31
0.0
  0
LINE
  5
B73
330
36
100
AcDbEntity
  8
0
  6
Continuous
 62
     3
100
AcDbLine
 10
60.16000197056178
 20
-237.2906161282593
 30
0.0
 11
52.23728495129686
 21
-237.2906161282594
 31
0.0
  0
LINE
  5
B74
330
36
100
AcDbEntity
  8
0
  6
Continuous
100
AcDbLine
 10
60.16000197056178
 20
-235.8956644129867
 30
0.0
 11
60.16000197056178
 21
-237.2906161282593
 31
0.0
  0
LINE
  5
B78
330
36
100
AcDbEntity
  8
0
  6
Continuous
 62
     3
100
AcDbLine
 10
60.16000197056178
 20
-237.2906161282593
 30
0.0
 11
52.23728495129686
 21
-237.2906161282594
 31
0.0
  0
LINE
  5
B7D
330
36
100
AcDbEntity
  8
0
  6
Continuous
 62
     3
100
AcDbLine
 10
52.2372849512967
 20
-237.2906161282593
 30
0.0
 11
49.16000197056177
 21
-235.8956644129867
 31
0.0
  0
LINE
  5
B7E
330
36
100
AcDbEntity
  8
0
  6
Continuous
100
AcDbLine
 10
49.16000197056177
 20
-235.8956644129867
 30
0.0
 11
49.16000197056177
 21
-234.2906161282593
 31
0.0
  0
LINE
  5
B80
330
36
100
AcDbEntity
  8
0
  6
Continuous
 62
     3
100
AcDbLine
 10
57.14336479957864
 20
-234.2906161282593
 30
0.0
 11
49.16000197056177
 21
-234.2906161282592
 31
0.0
  0
LINE
  5
B81
330
36
100
AcDbEntity
  8
0
  6
Continuous
 62
     3
100
AcDbLine
 10
57.14336479957864
 20
-235.8956644129867
 30
0.0
 11
49.16000197056177
 21
-235.8956644129868
 31
0.0
  0
LINE
  5
BDE
330
36
100
AcDbEntity
  8
0
  6
Continuous
 62
     3
100
AcDbLine
 10
164.005863810044
 20
-238.4923809269212
 30
0.0
 11
141.8559390886611
 21
-253.1352285859906
 31
0.0
  0
LINE
  5
BDF
330
36
100
AcDbEntity
  8
0
  6
Continuous
 62
     3
100
AcDbLine
 10
165.7161700227424
 20
-249.5666965058258
 30
0.0
 11
147.6930043752912
 21
-261.254875674357
 31
0.0
  0
LINE
  5
BE0
330
36
100
AcDbEntity
  8
0
  6
Continuous
100
AcDbLine
 10
-3.098333516663918
 20
-221.7187834874549
 30
0.0
 11
-17.77100785612162
 21
-242.0507943969936
 31
0.0
  0
LINE
  5
BE1
330
36
100
AcDbEntity
  8
0
  6
Continuous
100
AcDbLine
 10
194.7199026336618
 20
-224.6515046270781
 30
0.0
 11
185.341515866407
 21
-247.1488952132873
 31
0.0
  0
LINE
  5
BE2
330
36
100
AcDbEntity
  8
0
  6
Continuous
 62
     3
100
AcDbLine
 10
187.8497108756173
 20
-234.2906161282592
 30
0.0
 11
190.7016892588988
 21
-234.2906161282592
 31
0.0
  0
LINE
  5
BE3
330
36
100
AcDbEntity
  8
0
  6
Continuous
 62
     3
100
AcDbLine
 10
187.8497108756173
 20
-235.8956644129867
 30
0.0
 11
190.0325999466691
 21
-235.8956644129867
 31
0.0
  0
LINE
  5
BE4
330
36
100
AcDbEntity
  8
0
  6
Continuous
 62
     3
100
AcDbLine
 10
-15.70475925967278
 20
-293.4142660567485
 30
0.0
 11
190.9775219710136
 21
-293.4142660567485
 31
0.0
  0
LINE
  5
BE5
330
36
100
AcDbEntity
  8
0
  6
Continuous
 62
     3
100
AcDbLine
 10
-11.86984814862026
 20
-323.4142660567485
 30
0.0
 11
194.812433082066
 21
-323.4142660567485
 31
0.0
  0
LINE
  5
BE6
330
36
100
AcDbEntity
  8
0
  6
Continuous
 62
     3
100
AcDbLine
 10
71.94765234752255
 20
-293.4142660567485
 30
0.0
 11
71.94765234752255
 21
-323.4142660567485
 31
0.0
  0
LINE
  5
BE7
330
36
100
AcDbEntity
  8
0
  6
Continuous
 62
     3
100
AcDbLine
 10
100.9476523475225
 20
-293.4142660567485
 30
0.0
 11
100.9476523475225
 21
-323.4142660567485
 31
0.0
  0
LINE
  5
BEB
330
36
100
AcDbEntity
  8
0
  6
Continuous
 62
     3
100
AcDbLine
 10
60.74572290782889
 20
-317.9142660172173
 30
0.0
 11
67.2074960853661
 21
-317.9142660172173
 31
0.0
  0
LINE
  5
BEC
330
36
100
AcDbEntity
  8
0
  6
Continuous
 62
     3
100
AcDbLine
 10
60.74572290782889
 20
-298.9142660172174
 30
0.0
 11
67.2074960853661
 21
-298.9142660172174
 31
0.0
  0
LINE
  5
BED
330
36
100
AcDbEntity
  8
0
  6
Continuous
 62
     3
100
AcDbLine
 10
60.74572290782889
 20
-313.4142660172174
 30
0.0
 11
71.94765234752255
 21
-313.4142660172172
 31
0.0
  0
LINE
  5
BEE
330
36
100
AcDbEntity
  8
0
  6
Continuous
 62
     3
100
AcDbLine
 10
100.9476523475225
 20
-313.4142660172174
 30
0.0
 11
132.8799216692693
 21
-313.4142660172174
 31
0.0
  0
LINE
  5
BEF
330
36
100
AcDbEntity
  8
0
  6
Continuous
 62
     7
100
AcDbLine
 10
67.2074960853661
 20
-311.9142660172173
 30
0.0
 11
71.94765234752255
 21
-311.9142660172173
 31
0.0
  0
LINE
  5
BF0
330
36
100
AcDbEntity
  8
0
  6
Continuous
100
AcDbLine
 10
100.9476523475225
 20
-311.9142660172173
 30
0.0
 11
120.6406701619416
 21
-311.9142660172173
 31
0.0
  0
LINE
  5
BF1
330
36
100
AcDbEntity
  8
0
  6
Continuous
 62
     3
100
AcDbLine
 10
60.74572290782889
 20
-303.4142660172173
 30
0.0
 11
71.94765234752255
 21
-303.4142660172173
 31
0.0
  0
LINE
  5
BF2
330
36
100
AcDbEntity
  8
0
  6
Continuous
 62
     3
100
AcDbLine
 10
100.9476523475225
 20
-303.4142660172173
 30
0.0
 11
132.724765051874
 21
-303.4142660172173
 31
0.0
  0
LINE
  5
BF3
330
36
100
AcDbEntity
  8
0
  6
Continuous
 62
     7
100
AcDbLine
 10
67.2074960853661
 20
-304.9142660172172
 30
0.0
 11
71.94765234752255
 21
-304.9142660172171
 31
0.0
  0
LINE
  5
BF4
330
36
100
AcDbEntity
  8
0
  6
Continuous
 62
     3
100
AcDbLine
 10
67.2074960853661
 20
-301.5276721166062
 30
0.0
 11
67.2074960853661
 21
-316.1704658530798
 31
0.0
  0
LINE
  5
BF5
330
36
100
AcDbEntity
  8
0
  6
Continuous
 62
     3
100
AcDbLine
 10
67.2074960853661
 20
-317.9142660172173
 30
0.0
 11
67.2074960853661
 21
-298.9142660172174
 31
0.0
  0
LINE
  5
BF6
330
36
100
AcDbEntity
  8
0
  6
Continuous
 62
     3
100
AcDbLine
 10
59.2074960853661
 20
-316.0276721166066
 30
0.0
 11
59.2074960853661
 21
-300.8008599178286
 31
0.0
  0
ARC
  5
BF7
330
36
100
AcDbEntity
  8
0
  6
Continuous
 62
     3
100
AcDbCircle
 10
61.57924570568175
 20
-301.1642660172172
 30
0.0
 40
2.399429151806784
100
AcDbArc
 50
110.327379400415
 51
249.6726205995863
  0
ARC
  5
BF8
330
36
100
AcDbEntity
  8
0
  6
Continuous
 62
     3
100
AcDbCircle
 10
68.10284927961399
 20
-308.4142660172174
 30
0.0
 40
8.895353194247912
100
AcDbArc
 50
145.7994561849023
 51
214.2005438150968
  0
ARC
  5
BF9
330
36
100
AcDbEntity
  8
0
  6
Continuous
 62
     3
100
AcDbCircle
 10
61.57924570568162
 20
-315.6642660172173
 30
0.0
 40
2.399429151806784
100
AcDbArc
 50
110.3273794004124
 51
249.672620599585
  0
LINE
  5
BFA
330
36
100
AcDbEntity
  8
0
  6
Continuous
 62
     3
100
AcDbLine
 10
60.7457228762342
 20
-303.4142660637063
 30
0.0
 11
56.9986907458815
 21
-303.4142660637063
 31
0.0
  0
LINE
  5
BFB
330
36
100
AcDbEntity
  8
0
  6
Continuous
 62
     3
100
AcDbLine
 10
60.74572281989644
 20
-313.4142660497922
 30
0.0
 11
56.9986907458815
 21
-313.4142660497923
 31
0.0
  0
LINE
  5
BFC
330
36
100
AcDbEntity
  8
0
  6
Continuous
 62
     3
100
AcDbLine
 10
55.4986907458815
 20
-311.9142660497923
 30
0.0
 11
56.9986907458815
 21
-313.4142660497923
 31
0.0
  0
LINE
  5
BFD
330
36
100
AcDbEntity
  8
0
  6
Continuous
 62
     3
100
AcDbLine
 10
55.4986907458815
 20
-304.9142660637063
 30
0.0
 11
55.4986907458815
 21
-311.9142660497923
 31
0.0
  0
LINE
  5
BFE
330
36
100
AcDbEntity
  8
0
  6
Continuous
 62
     3
100
AcDbLine
 10
56.9986907458815
 20
-303.4142660637063
 30
0.0
 11
55.4986907458815
 21
-304.9142660637063
 31
0.0
  0
LINE
  5
BFF
330
36
100
AcDbEntity
  8
0
  6
Continuous
 62
     7
100
AcDbLine
 10
56.9986907458815
 20
-303.4142660637063
 30
0.0
 11
56.99869074588164
 21
-313.4142660497923
 31
0.0
  0
LINE
  5
C00
330
36
100
AcDbEntity
  8
0
  6
Continuous
100
AcDbLine
 10
121.9986907458815
 20
-303.4142660637055
 30
0.0
 11
121.9986907458816
 21
-313.4142660497914
 31
0.0
  0
LINE
  5
C01
330
36
100
AcDbEntity
  8
0
  6
Continuous
100
AcDbLine
 10
100.9476523475225
 20
-304.9142660172169
 30
0.0
 11
120.6406701619416
 21
-304.9142660172166
 31
0.0
  0
LINE
  5
C02
330
36
100
AcDbEntity
  8
0
  6
Continuous
100
AcDbLine
 10
120.6406701619417
 20
-304.9142660172166
 30
0.0
 11
120.6406701619416
 21
-311.9142660172173
 31
0.0
  0
LINE
  5
C03
330
36
100
AcDbEntity
  8
0
  6
Continuous
100
AcDbLine
 10
121.9986907458815
 20
-303.4142660637055
 30
0.0
 11
120.6406701619416
 21
-304.9142660172166
 31
0.0
  0
LINE
  5
C04
330
36
100
AcDbEntity
  8
0
  6
Continuous
100
AcDbLine
 10
121.9986907458816
 20
-313.4142660497914
 30
0.0
 11
120.6406701619416
 21
-311.9142660172173
 31
0.0
  0
LINE
  5
C08
330
36
100
AcDbEntity
  8
0
  6
Continuous
 62
     3
100
AcDbLine
 10
132.724765051874
 20
-303.4142660172173
 30
0.0
 11
164.144887258423
 21
-303.4142660172173
 31
0.0
  0
LINE
  5
C09
330
36
100
AcDbEntity
  8
0
  6
Continuous
 62
     3
100
AcDbLine
 10
132.8799216692693
 20
-313.4142660172174
 30
0.0
 11
164.144887258423
 21
-313.4142660172174
 31
0.0
  0
ARC
  5
C0A
330
36
100
AcDbEntity
  8
0
  6
Continuous
 62
     3
100
AcDbCircle
 10
164.144887258423
 20
-308.4142660172172
 30
0.0
 40
4.999999999999958
100
AcDbArc
 50
270.0
 51
90.0
  0
LINE
  5
C67
330
36
100
AcDbEntity
  8
0
  6
Continuous
 62
     3
100
AcDbLine
 10
176.8497108756173
 20
-304.4142660567485
 30
0.0
 11
176.8497108756173
 21
-312.4142660567484
 31
0.0
  0
LINE
  5
C69
330
36
100
AcDbEntity
  8
0
  6
Continuous
 62
     3
100
AcDbLine
 10
164.7639924744639
 20
-302.4142660567485
 30
0.0
 11
174.8497108756173
 21
-302.4142660567485
 31
0.0
  0
LINE
  5
C6A
330
36
100
AcDbEntity
  8
0
  6
Continuous
 62
     3
100
AcDbLine
 10
164.7639924744639
 20
-314.4142660567484
 30
0.0
 11
174.8497108756173
 21
-314.4142660567484
 31
0.0
  0
ARC
  5
C6B
330
36
100
AcDbEntity
  8
0
  6
Continuous
 62
     3
100
AcDbCircle
 10
174.8497108756173
 20
-304.4142660567485
 30
0.0
 40
2.0
100
AcDbArc
 50
0.0
 51
90.0
  0
ARC
  5
C6C
330
36
100
AcDbEntity
  8
0
  6
Continuous
 62
     3
100
AcDbCircle
 10
174.8497108756173
 20
-312.4142660567484
 30
0.0
 40
2.0
100
AcDbArc
 50
270.0
 51
0.0
  0
ARC
  5
C6D
330
36
100
AcDbEntity
  8
0
  6
Continuous
 62
     3
100
AcDbCircle
 10
164.7639924744639
 20
-312.4142660567484
 30
0.0
 40
2.0
100
AcDbArc
 50
209.9999986923189
 51
270.0
  0
ARC
  5
C6E
330
36
100
AcDbEntity
  8
0
  6
Continuous
 62
     3
100
AcDbCircle
 10
164.7639924744639
 20
-304.4142660567485
 30
0.0
 40
2.0
100
AcDbArc
 50
90.0
 51
149.9999986923152
  0
LINE
  5
C71
330
36
100
AcDbEntity
  8
0
  6
Continuous
 62
     3
100
AcDbLine
 10
139.7639924744639
 20
-302.4142660567485
 30
0.0
 11
149.8497108756173
 21
-302.4142660567485
 31
0.0
  0
ARC
  5
C72
330
36
100
AcDbEntity
  8
0
  6
Continuous
 62
     3
100
AcDbCircle
 10
139.7639924744639
 20
-304.4142660567485
 30
0.0
 40
2.0
100
AcDbArc
 50
90.0
 51
149.9999986923152
  0
LINE
  5
C73
330
36
100
AcDbEntity
  8
0
  6
Continuous
 62
     3
100
AcDbLine
 10
139.7639924744639
 20
-314.4142660567484
 30
0.0
 11
149.8497108756173
 21
-314.4142660567484
 31
0.0
  0
ARC
  5
C74
330
36
100
AcDbEntity
  8
0
  6
Continuous
 62
     3
100
AcDbCircle
 10
149.8497108756173
 20
-312.4142660567484
 30
0.0
 40
2.0
100
AcDbArc
 50
270.0
 51
330.0000013076811
  0
ARC
  5
C76
330
36
100
AcDbEntity
  8
0
  6
Continuous
 62
     3
100
AcDbCircle
 10
149.8497108756173
 20
-304.4142660567485
 30
0.0
 40
2.0
100
AcDbArc
 50
30.0000013076848
 51
90.0
  0
ARC
  5
C78
330
36
100
AcDbEntity
  8
0
  6
Continuous
 62
     3
100
AcDbCircle
 10
139.7639924744639
 20
-312.4142660567484
 30
0.0
 40
2.0
100
AcDbArc
 50
209.999998692317
 51
270.0
  0
LINE
  5
C79
330
36
100
AcDbEntity
  8
0
  6
Continuous
 62
     3
100
AcDbLine
 10
114.7639924744638
 20
-302.4142660567485
 30
0.0
 11
124.8497108756173
 21
-302.4142660567485
 31
0.0
  0
ARC
  5
C7A
330
36
100
AcDbEntity
  8
0
  6
Continuous
 62
     3
100
AcDbCircle
 10
114.7639924744638
 20
-304.4142660567485
 30
0.0
 40
2.0
100
AcDbArc
 50
90.0
 51
149.9999986923188
  0
LINE
  5
C7B
330
36
100
AcDbEntity
  8
0
  6
Continuous
 62
     3
100
AcDbLine
 10
114.7639924744639
 20
-314.4142660567484
 30
0.0
 11
124.8497108756173
 21
-314.4142660567484
 31
0.0
  0
ARC
  5
C7C
330
36
100
AcDbEntity
  8
0
  6
Continuous
 62
     3
100
AcDbCircle
 10
124.8497108756173
 20
-312.4142660567484
 30
0.0
 40
2.0
100
AcDbArc
 50
270.0
 51
330.000001307683
  0
ARC
  5
C7E
330
36
100
AcDbEntity
  8
0
  6
Continuous
 62
     3
100
AcDbCircle
 10
124.8497108756173
 20
-304.4142660567485
 30
0.0
 40
2.0
100
AcDbArc
 50
30.00000130768115
 51
90.0
  0
ARC
  5
C80
330
36
100
AcDbEntity
  8
0
  6
Continuous
 62
     3
100
AcDbCircle
 10
114.7639924744639
 20
-312.4142660567484
 30
0.0
 40
2.0
100
AcDbArc
 50
209.999998692317
 51
270.0
  0
LINE
  5
C82
330
36
100
AcDbEntity
  8
0
  6
Continuous
 62
     3
100
AcDbLine
 10
1.94765234752259
 20
-304.4142660567485
 30
0.0
 11
1.94765234752259
 21
-312.4142660567485
 31
0.0
  0
LINE
  5
C83
330
36
100
AcDbEntity
  8
0
  6
Continuous
 62
     3
100
AcDbLine
 10
15.94765234752258
 20
-304.4142660567485
 30
0.0
 11
15.94765234752259
 21
-312.4142660567484
 31
0.0
  0
LINE
  5
C84
330
36
100
AcDbEntity
  8
0
  6
Continuous
 62
     3
100
AcDbLine
 10
-9.052347652477408
 20
-304.4142660567485
 30
0.0
 11
-9.052347652477408
 21
-312.4142660567485
 31
0.0
  0
LINE
  5
C85
330
36
100
AcDbEntity
  8
0
  6
Continuous
 62
     3
100
AcDbLine
 10
-13.11604660651176
 20
-302.4142660567485
 30
0.0
 11
-11.05234765247741
 21
-302.4142660567485
 31
0.0
  0
ARC
  5
C87
330
36
100
AcDbEntity
  8
0
  6
Continuous
 62
     3
100
AcDbCircle
 10
13.94765234752258
 20
-304.4142660567485
 30
0.0
 40
2.0
100
AcDbArc
 50
0.0
 51
90.0
  0
ARC
  5
C88
330
36
100
AcDbEntity
  8
0
  6
Continuous
 62
     3
100
AcDbCircle
 10
-11.05234765247741
 20
-304.4142660567485
 30
0.0
 40
2.0
100
AcDbArc
 50
0.0
 51
90.0
  0
ARC
  5
C89
330
36
100
AcDbEntity
  8
0
  6
Continuous
 62
     3
100
AcDbCircle
 10
-11.05234765247741
 20
-312.4142660567485
 30
0.0
 40
2.0
100
AcDbArc
 50
270.0
 51
0.0
  0
LINE
  5
C8A
330
36
100
AcDbEntity
  8
0
  6
Continuous
 62
     3
100
AcDbLine
 10
3.947652347522591
 20
-314.4142660567485
 30
0.0
 11
13.94765234752259
 21
-314.4142660567484
 31
0.0
  0
LINE
  5
C8B
330
36
100
AcDbEntity
  8
0
  6
Continuous
 62
     3
100
AcDbLine
 10
13.94765234752258
 20
-302.4142660567485
 30
0.0
 11
3.947652347522591
 21
-302.4142660567485
 31
0.0
  0
ARC
  5
C8C
330
36
100
AcDbEntity
  8
0
  6
Continuous
 62
     3
100
AcDbCircle
 10
3.947652347522591
 20
-304.4142660567485
 30
0.0
 40
2.0
100
AcDbArc
 50
90.0
 51
180.0
  0
ARC
  5
C8D
330
36
100
AcDbEntity
  8
0
  6
Continuous
 62
     3
100
AcDbCircle
 10
3.947652347522591
 20
-312.4142660567485
 30
0.0
 40
2.0
100
AcDbArc
 50
180.0
 51
270.0
  0
ARC
  5
C8E
330
36
100
AcDbEntity
  8
0
  6
Continuous
 62
     3
100
AcDbCircle
 10
13.94765234752259
 20
-312.4142660567484
 30
0.0
 40
2.0
100
AcDbArc
 50
270.0
 51
0.0
  0
LINE
  5
C90
330
36
100
AcDbEntity
  8
0
  6
Continuous
 62
     3
100
AcDbLine
 10
-13.11604660651176
 20
-302.4142660567485
 30
0.0
 11
-16.33585296182866
 21
-302.4142660567485
 31
0.0
  0
LINE
  5
C91
330
36
100
AcDbEntity
  8
0
  6
Continuous
 62
     3
100
AcDbLine
 10
187.8497108756173
 20
-304.4142660567485
 30
0.0
 11
187.8497108756173
 21
-312.4142660567485
 31
0.0
  0
LINE
  5
C92
330
36
100
AcDbEntity
  8
0
  6
Continuous
 62
     3
100
AcDbLine
 10
189.8497108756173
 20
-302.4142660567485
 30
0.0
 11
190.3464282688577
 21
-302.4142660567485
 31
0.0
  0
LINE
  5
C93
330
36
100
AcDbEntity
  8
0
  6
Continuous
 62
     3
100
AcDbLine
 10
189.8497108756173
 20
-314.4142660567485
 30
0.0
 11
194.956228950501
 21
-314.4142660567485
 31
0.0
  0
ARC
  5
C94
330
36
100
AcDbEntity
  8
0
  6
Continuous
 62
     3
100
AcDbCircle
 10
189.8497108756173
 20
-304.4142660567485
 30
0.0
 40
2.0
100
AcDbArc
 50
90.0
 51
180.0
  0
ARC
  5
C95
330
36
100
AcDbEntity
  8
0
  6
Continuous
 62
     3
100
AcDbCircle
 10
189.8497108756173
 20
-312.4142660567485
 30
0.0
 40
2.0
100
AcDbArc
 50
180.0
 51
270.0
  0
LINE
  5
C97
330
36
100
AcDbEntity
  8
0
  6
Continuous
100
AcDbLine
 10
176.8497108756173
 20
-302.8142660567485
 30
0.0
 11
187.8497108756173
 21
-302.8142660567485
 31
0.0
  0
LINE
  5
C98
330
36
100
AcDbEntity
  8
0
  6
Continuous
100
AcDbLine
 10
176.8497108756173
 20
-314.0142660567484
 30
0.0
 11
187.8497108756173
 21
-314.0142660567485
 31
0.0
  0
LINE
  5
C9D
330
36
100
AcDbEntity
  8
0
  6
Continuous
100
AcDbLine
 10
151.7679912763451
 20
-302.8142660567485
 30
0.0
 11
162.7679912763451
 21
-302.8142660567485
 31
0.0
  0
LINE
  5
C9E
330
36
100
AcDbEntity
  8
0
  6
Continuous
100
AcDbLine
 10
151.7679912763452
 20
-314.0142660567484
 30
0.0
 11
162.7679912763451
 21
-314.0142660567485
 31
0.0
  0
LINE
  5
C9F
330
36
100
AcDbEntity
  8
0
  6
Continuous
100
AcDbLine
 10
127.1629446975649
 20
-302.8142660567485
 30
0.0
 11
138.1629446975648
 21
-302.8142660567485
 31
0.0
  0
LINE
  5
CA0
330
36
100
AcDbEntity
  8
0
  6
Continuous
100
AcDbLine
 10
127.1629446975649
 20
-314.0142660567484
 30
0.0
 11
138.1629446975648
 21
-314.0142660567485
 31
0.0
  0
LINE
  5
CA1
330
36
100
AcDbEntity
  8
0
  6
Continuous
100
AcDbLine
 10
101.6915237101925
 20
-302.8142660567485
 30
0.0
 11
112.6915237101925
 21
-302.8142660567485
 31
0.0
  0
LINE
  5
CA2
330
36
100
AcDbEntity
  8
0
  6
Continuous
100
AcDbLine
 10
101.6915237101926
 20
-314.0142660567484
 30
0.0
 11
112.6915237101925
 21
-314.0142660567485
 31
0.0
  0
LINE
  5
CA3
330
36
100
AcDbEntity
  8
0
  6
Continuous
100
AcDbLine
 10
-8.943903071104585
 20
-302.8142660567485
 30
0.0
 11
2.056096928895378
 21
-302.8142660567485
 31
0.0
  0
LINE
  5
CA4
330
36
100
AcDbEntity
  8
0
  6
Continuous
100
AcDbLine
 10
-8.943903071104555
 20
-314.0142660567484
 30
0.0
 11
2.056096928895378
 21
-314.0142660567485
 31
0.0
  0
LINE
  5
CA5
330
36
100
AcDbEntity
  8
0
  6
Continuous
100
AcDbLine
 10
16.81702769722462
 20
-302.8142660567485
 30
0.0
 11
19.93331227173255
 21
-302.8142660567484
 31
0.0
  0
LINE
  5
CA6
330
36
100
AcDbEntity
  8
0
  6
Continuous
100
AcDbLine
 10
16.81702769722464
 20
-314.0142660567484
 30
0.0
 11
19.93331227173253
 21
-314.0142660567485
 31
0.0
  0
LINE
  5
CA7
330
36
100
AcDbEntity
  8
0
  6
Continuous
100
AcDbLine
 10
20.03377344017267
 20
-239.5746239200954
 30
0.0
 11
22.0042503580388
 21
-238.4282067801964
 31
0.0
  0
LINE
  5
CA8
330
36
100
AcDbEntity
  8
0
  6
Continuous
100
AcDbLine
 10
21.93331227173255
 20
-304.8142660567484
 30
0.0
 11
21.93331227173254
 21
-312.0142660567485
 31
0.0
  0
ARC
  5
CA9
330
36
100
AcDbEntity
  8
0
  6
Continuous
100
AcDbCircle
 10
19.93331227173255
 20
-304.8142660567484
 30
0.0
 40
2.0
100
AcDbArc
 50
0.0
 51
89.9999999999996
  0
ARC
  5
CAA
330
36
100
AcDbEntity
  8
0
  6
Continuous
100
AcDbCircle
 10
19.93331227173254
 20
-312.0142660567485
 30
0.0
 40
2.0
100
AcDbArc
 50
269.9999999999996
 51
0.0
  0
ARC
  5
CB7
330
36
100
AcDbEntity
  8
0
  6
Continuous
100
AcDbCircle
 10
84.84148959208551
 20
-396.8875831006028
 30
0.0
 40
50.46291645178621
100
AcDbArc
 50
290.5437689503537
 51
267.8268718811566
  0
ARC
  5
CB8
330
36
100
AcDbEntity
  8
0
  6
Continuous
100
AcDbCircle
 10
82.92058333572162
 20
-447.3947191547131
 30
0.0
 40
0.125
100
AcDbArc
 50
0.0
 51
85.0
  0
ARC
  5
CB9
330
36
100
AcDbEntity
  8
0
  6
Continuous
 62
     3
100
AcDbCircle
 10
82.92058333572162
 20
-447.3947191547131
 30
0.0
 40
0.925
100
AcDbArc
 50
0.0
 51
85.0
  0
LINE
  5
CBA
330
36
100
AcDbEntity
  8
0
  6
Continuous
 62
     3
100
AcDbLine
 10
79.92748489602617
 20
-446.204323622695
 30
0.0
 11
79.85776030182805
 21
-447.0012793811682
 31
0.0
  0
ARC
  5
CBB
330
36
100
AcDbEntity
  8
0
  6
Continuous
 62
     3
100
AcDbCircle
 10
89.37058333572162
 20
-447.3939367158043
 30
0.0
 40
0.925
100
AcDbArc
 50
0.0
 51
90.0
  0
LINE
  5
CBC
330
36
100
AcDbEntity
  8
0
  6
Continuous
 62
     3
100
AcDbLine
 10
86.79558333572163
 20
-446.4689367158043
 30
0.0
 11
86.79558333572163
 21
-447.2689367158042
 31
0.0
  0
ARC
  5
CBD
330
36
100
AcDbEntity
  8
0
  6
Continuous
100
AcDbCircle
 10
89.37058333572165
 20
-447.3939367158043
 30
0.0
 40
0.125
100
AcDbArc
 50
0.0
 51
90.0
  0
LINE
  5
CBE
330
36
100
AcDbEntity
  8
0
  6
Continuous
 62
     3
100
AcDbLine
 10
86.79558333572163
 20
-446.4689367158043
 30
0.0
 11
89.37058333572162
 21
-446.4689367158043
 31
0.0
  0
LINE
  5
CBF
330
36
100
AcDbEntity
  8
0
  6
Continuous
100
AcDbLine
 10
86.79558333572163
 20
-447.2689367158042
 30
0.0
 11
89.37058333572165
 21
-447.2689367158042
 31
0.0
  0
LINE
  5
CC0
330
36
100
AcDbEntity
  8
0
  6
Continuous
 62
     3
100
AcDbLine
 10
83.00120239776321
 20
-446.4732390589782
 30
0.0
 11
79.92748489602615
 21
-446.204323622695
 31
0.0
  0
LINE
  5
CC1
330
36
100
AcDbEntity
  8
0
  6
Continuous
 62
     3
100
AcDbLine
 10
82.93147780356509
 20
-447.2701948174516
 30
0.0
 11
79.85776030182805
 21
-447.0012793811682
 31
0.0
  0
LINE
  5
CC4
330
36
100
AcDbEntity
  8
0
  6
Continuous
100
AcDbLine
 10
82.89977766952643
 20
-447.6689367158042
 30
0.0
 11
82.93147780356504
 21
-447.2701948174516
 31
0.0
  0
LINE
  5
CC7
330
36
100
AcDbEntity
  8
0
  6
Continuous
 62
     7
100
AcDbLine
 10
89.37058333572165
 20
-447.2689367158042
 30
0.0
 11
83.83699142061731
 21
-447.2689367158042
 31
0.0
  0
LINE
  5
CC8
330
36
100
AcDbEntity
  8
0
  6
Continuous
 62
     7
100
AcDbLine
 10
89.16149398213645
 20
-447.6689367158042
 30
0.0
 11
83.84558333572163
 21
-447.6689367158042
 31
0.0
  0
LINE
  5
CC9
330
36
100
AcDbEntity
  8
0
  6
Continuous
100
AcDbLine
 10
89.16149398213645
 20
-447.2689367158042
 30
0.0
 11
89.16149398213645
 21
-447.6689367158042
 31
0.0
  0
LINE
  5
CCA
330
36
100
AcDbEntity
  8
0
  6
Continuous
 62
     3
100
AcDbLine
 10
90.29558333572165
 20
-447.3939367158043
 30
0.0
 11
90.29558333572165
 21
-452.0939367158042
 31
0.0
  0
LINE
  5
CCB
330
36
100
AcDbEntity
  8
0
  6
Continuous
 62
     3
100
AcDbLine
 10
89.49558333572161
 20
-447.3939367158043
 30
0.0
 11
89.49558333572161
 21
-452.0939367158042
 31
0.0
  0
LINE
  5
CCC
330
36
100
AcDbEntity
  8
0
  6
Continuous
 62
     3
100
AcDbLine
 10
83.04558333572163
 20
-447.3947191547131
 30
0.0
 11
83.04558333572163
 21
-452.0939367158042
 31
0.0
  0
LINE
  5
CCD
330
36
100
AcDbEntity
  8
0
  6
Continuous
 62
     3
100
AcDbLine
 10
83.84558333572163
 20
-447.3947191547131
 30
0.0
 11
83.84558333572163
 21
-452.0939367158042
 31
0.0
  0
ARC
  5
CCE
330
36
100
AcDbEntity
  8
0
  6
Continuous
 62
     3
100
AcDbCircle
 10
86.67058333572162
 20
-452.0939367158042
 30
0.0
 40
3.625
100
AcDbArc
 50
180.0
 51
0.0
  0
ARC
  5
CCF
330
36
100
AcDbEntity
  8
0
  6
Continuous
 62
     3
100
AcDbCircle
 10
86.67058333572162
 20
-452.0939367158042
 30
0.0
 40
2.825000000000001
100
AcDbArc
 50
180.0
 51
0.0
  0
LINE
  5
CD0
330
36
100
AcDbEntity
  8
0
  6
Continuous
 62
     3
100
AcDbLine
 10
104.2105885882568
 20
-443.1192264598695
 30
0.0
 11
101.8558004282767
 21
-443.7009301659168
 31
0.0
  0
LINE
  5
CD1
330
36
100
AcDbEntity
  8
0
  6
Continuous
 62
     3
100
AcDbLine
 10
80.2451009757982
 20
-454.3439367158041
 30
0.0
 11
81.86054427018252
 21
-454.3439367158041
 31
0.0
  0
LINE
  5
CD2
330
36
100
AcDbEntity
  8
0
  6
Continuous
 62
     3
100
AcDbLine
 10
80.2451009757982
 20
-449.5939367158043
 30
0.0
 11
81.86054427018252
 21
-449.5939367158043
 31
0.0
  0
LINE
  5
CD3
330
36
100
AcDbEntity
  8
0
  6
Continuous
 62
     3
100
AcDbLine
 10
80.2451009757982
 20
-453.2189367158044
 30
0.0
 11
83.22457114769909
 21
-453.2189367158044
 31
0.0
  0
LINE
  5
CD4
330
36
100
AcDbEntity
  8
0
  6
Continuous
 62
     3
100
AcDbLine
 10
84.07925163175164
 20
-453.2189367158044
 30
0.0
 11
89.26191503969162
 21
-453.2189367158044
 31
0.0
  0
LINE
  5
CD5
330
36
100
AcDbEntity
  8
0
  6
Continuous
 62
     3
100
AcDbLine
 10
90.11659552374418
 20
-453.2189367158044
 30
0.0
 11
98.27865066615832
 21
-453.2189367158044
 31
0.0
  0
LINE
  5
CD6
330
36
100
AcDbEntity
  8
0
  6
Continuous
100
AcDbLine
 10
81.86054427018252
 20
-452.8439367158044
 30
0.0
 11
83.12401809594383
 21
-452.8439367158044
 31
0.0
  0
LINE
  5
CD7
330
36
100
AcDbEntity
  8
0
  6
Continuous
100
AcDbLine
 10
90.21714857549941
 20
-452.8439367158044
 30
0.0
 11
95.2188377893264
 21
-452.8439367158044
 31
0.0
  0
LINE
  5
CD8
330
36
100
AcDbEntity
  8
0
  6
Continuous
 62
     3
100
AcDbLine
 10
80.2451009757982
 20
-450.7189367158042
 30
0.0
 11
83.04558333572163
 21
-450.7189367158042
 31
0.0
  0
LINE
  5
CD9
330
36
100
AcDbEntity
  8
0
  6
Continuous
 62
     3
100
AcDbLine
 10
83.84558333572163
 20
-450.7189367158042
 30
0.0
 11
89.49558333572161
 21
-450.7189367158042
 31
0.0
  0
LINE
  5
CDA
330
36
100
AcDbEntity
  8
0
  6
Continuous
 62
     3
100
AcDbLine
 10
90.29558333572165
 20
-450.7189367158042
 30
0.0
 11
98.23986151180953
 21
-450.7189367158042
 31
0.0
  0
LINE
  5
CDB
330
36
100
AcDbEntity
  8
0
  6
Continuous
100
AcDbLine
 10
81.86054427018252
 20
-451.0939367158043
 30
0.0
 11
83.04558333572163
 21
-451.0939367158043
 31
0.0
  0
LINE
  5
CDC
330
36
100
AcDbEntity
  8
0
  6
Continuous
100
AcDbLine
 10
81.86054427018252
 20
-450.2472882406516
 30
0.0
 11
81.86054427018252
 21
-453.9079866747699
 31
0.0
  0
LINE
  5
CDD
330
36
100
AcDbEntity
  8
0
  6
Continuous
 62
     3
100
AcDbLine
 10
81.86054427018252
 20
-454.3439367158041
 30
0.0
 11
81.86054427018252
 21
-449.5939367158043
 31
0.0
  0
LINE
  5
CDE
330
36
100
AcDbEntity
  8
0
  6
Continuous
 62
     3
100
AcDbLine
 10
79.86054427018252
 20
-453.8722882406516
 30
0.0
 11
79.86054427018252
 21
-450.0655851909571
 31
0.0
  0
ARC
  5
CDF
330
36
100
AcDbEntity
  8
0
  6
Continuous
 62
     3
100
AcDbCircle
 10
80.45348167526141
 20
-450.1564367158043
 30
0.0
 40
0.5998572879516967
100
AcDbArc
 50
110.3273794004133
 51
249.6726205995873
  0
ARC
  5
CE0
330
36
100
AcDbEntity
  8
0
  6
Continuous
 62
     3
100
AcDbCircle
 10
82.08438256874449
 20
-451.9689367158044
 30
0.0
 40
2.223838298561978
100
AcDbArc
 50
145.7994561848995
 51
214.2005438151005
  0
ARC
  5
CE1
330
36
100
AcDbEntity
  8
0
  6
Continuous
 62
     3
100
AcDbCircle
 10
80.45348167526141
 20
-453.7814367158043
 30
0.0
 40
0.5998572879516967
100
AcDbArc
 50
110.3273794004119
 51
249.6726205995867
  0
LINE
  5
CE2
330
36
100
AcDbEntity
  8
0
  6
Continuous
 62
     3
100
AcDbLine
 10
80.24510096789956
 20
-450.7189367274267
 30
0.0
 11
79.30834293531138
 21
-450.7189367274267
 31
0.0
  0
LINE
  5
CE3
330
36
100
AcDbEntity
  8
0
  6
Continuous
 62
     3
100
AcDbLine
 10
80.24510095381511
 20
-453.2189367239481
 30
0.0
 11
79.30834293531138
 21
-453.2189367239481
 31
0.0
  0
LINE
  5
CE4
330
36
100
AcDbEntity
  8
0
  6
Continuous
100
AcDbLine
 10
78.93334293531137
 20
-452.8439367239482
 30
0.0
 11
79.30834293531138
 21
-453.2189367239481
 31
0.0
  0
LINE
  5
CE5
330
36
100
AcDbEntity
  8
0
  6
Continuous
 62
     3
100
AcDbLine
 10
78.93334293531137
 20
-451.0939367274267
 30
0.0
 11
78.93334293531137
 21
-452.8439367239482
 31
0.0
  0
LINE
  5
CE6
330
36
100
AcDbEntity
  8
0
  6
Continuous
100
AcDbLine
 10
79.30834293531138
 20
-450.7189367274267
 30
0.0
 11
78.93334293531137
 21
-451.0939367274267
 31
0.0
  0
LINE
  5
CE7
330
36
100
AcDbEntity
  8
0
  6
Continuous
100
AcDbLine
 10
79.30834293531138
 20
-450.7189367274267
 30
0.0
 11
79.3083429353114
 21
-453.2189367239481
 31
0.0
  0
LINE
  5
CE8
330
36
100
AcDbEntity
  8
0
  6
Continuous
100
AcDbLine
 10
95.55834293531138
 20
-450.7189367274262
 30
0.0
 11
95.55834293531141
 21
-453.2189367239478
 31
0.0
  0
LINE
  5
CE9
330
36
100
AcDbEntity
  8
0
  6
Continuous
100
AcDbLine
 10
83.84558333572163
 20
-451.0939367158043
 30
0.0
 11
89.49558333572161
 21
-451.0939367158043
 31
0.0
  0
LINE
  5
CEA
330
36
100
AcDbEntity
  8
0
  6
Continuous
100
AcDbLine
 10
90.29558333572165
 20
-451.0939367158043
 30
0.0
 11
95.2188377893264
 21
-451.0939367158043
 31
0.0
  0
LINE
  5
CEB
330
36
100
AcDbEntity
  8
0
  6
Continuous
100
AcDbLine
 10
83.94695983016879
 20
-452.8439367158044
 30
0.0
 11
89.39420684127446
 21
-452.8439367158044
 31
0.0
  0
LINE
  5
CEC
330
36
100
AcDbEntity
  8
0
  6
Continuous
100
AcDbLine
 10
95.2188377893264
 20
-451.0939367158043
 30
0.0
 11
95.2188377893264
 21
-452.8439367158044
 31
0.0
  0
LINE
  5
CED
330
36
100
AcDbEntity
  8
0
  6
Continuous
100
AcDbLine
 10
95.55834293531138
 20
-450.7189367274262
 30
0.0
 11
95.2188377893264
 21
-451.0939367158041
 31
0.0
  0
LINE
  5
CEE
330
36
100
AcDbEntity
  8
0
  6
Continuous
100
AcDbLine
 10
95.55834293531141
 20
-453.2189367239478
 30
0.0
 11
95.2188377893264
 21
-452.8439367158044
 31
0.0
  0
LINE
  5
CEF
330
36
100
AcDbEntity
  8
0
  6
Continuous
 62
     3
100
AcDbLine
 10
101.8558004282767
 20
-443.7009301659168
 30
0.0
 11
102.5480122796814
 21
-443.9985664312287
 31
0.0
  0
ARC
  5
CF0
330
36
100
AcDbEntity
  8
0
  6
Continuous
 62
     3
100
AcDbCircle
 10
104.3953268944127
 20
-444.3226030549093
 30
0.0
 40
0.4267822889604408
100
AcDbArc
 50
330.5500141624886
 51
70.48695279953133
  0
ARC
  5
CF1
330
36
100
AcDbEntity
  8
0
  6
Continuous
 62
     3
100
AcDbCircle
 10
104.2695280545069
 20
-444.5865549559757
 30
0.0
 40
1.468511755542689
100
AcDbArc
 50
55.93160406065017
 51
92.3002130888573
  0
ARC
  5
CF2
330
36
100
AcDbEntity
  8
0
  6
Continuous
 62
     3
100
AcDbCircle
 10
103.5486220562194
 20
-445.6311370785058
 30
0.0
 40
2.736396230917701
100
AcDbArc
 50
327.0949965082809
 51
45.22555956186731
  0
ARC
  5
CF3
330
36
100
AcDbEntity
  8
0
  6
Continuous
 62
     3
100
AcDbCircle
 10
97.10054860686856
 20
-446.7165837288466
 30
0.0
 40
6.661353545130982
100
AcDbArc
 50
282.2845095740795
 51
319.5876468602262
  0
ARC
  5
CF4
330
36
100
AcDbEntity
  8
0
  6
Continuous
 62
     3
100
AcDbCircle
 10
97.10054860686856
 20
-446.7165837288466
 30
0.0
 40
4.161353545130986
100
AcDbArc
 50
285.8895742924326
 51
319.5876468602262
  0
LINE
  5
D2E
330
36
100
AcDbEntity
  8
0
  6
Continuous
 62
     3
100
AcDbLine
 10
104.7669625980915
 20
-444.5324363838195
 30
0.0
 11
100.2689971757658
 21
-449.4143229663984
 31
0.0
  0
LINE
  5
D2F
330
36
100
AcDbEntity
  8
0
  6
Continuous
 62
     3
100
AcDbLine
 10
105.8460248819149
 20
-447.1176782279758
 30
0.0
 11
102.1724935589345
 21
-451.0350331561806
 31
0.0
  0
ARC
  5
D38
330
36
100
AcDbEntity
  8
0
  6
Continuous
100
AcDbCircle
 10
84.84148959208551
 20
-396.8875831006028
 30
0.0
 40
50.75399169323596
100
AcDbArc
 50
290.5323749073811
 51
267.8132586995224
  0
TEXT
  5
D7D
330
36
100
AcDbEntity
  8
0
 62
     3
100
AcDbText
 10
-21.54193767732727
 20
-342.9698425823718
 30
0.0
 40
3.2
  1
掛かり穴
 41
1.017225999999997
100
AcDbText
  0
LINE
  5
D7E
330
36
100
AcDbEntity
  8
0
  6
Continuous
100
AcDbLine
 10
-23.76414879755646
 20
-344.5792850889454
 30
0.0
 11
-3.530467749245417
 21
-344.5792850889454
 31
0.0
  0
ARC
  5
D96
330
36
100
AcDbEntity
  8
0
  6
Continuous
100
AcDbCircle
 10
88.15717088543033
 20
-395.7744504404276
 30
0.0
 40
50.46291645178621
100
AcDbArc
 50
257.9528615512871
 51
286.5718506316235
  0
ARC
  5
D97
330
36
100
AcDbEntity
  8
0
  6
Continuous
100
AcDbCircle
 10
88.15717088543033
 20
-395.7744504404276
 30
0.0
 40
50.75399169323596
100
AcDbArc
 50
257.9515808406635
 51
286.583244674596
  0
LINE
  5
D98
330
36
100
AcDbEntity
  8
0
  6
Continuous
100
AcDbLine
 10
77.62473449391058
 20
-445.1259825390216
 30
0.0
 11
77.56287283188027
 21
-445.4104104044457
 31
0.0
  0
ARC
  5
D99
330
36
100
AcDbEntity
  8
0
  6
Continuous
100
AcDbCircle
 10
88.15717088543033
 20
-395.7744504404276
 30
0.0
 40
50.75399169323596
100
AcDbArc
 50
110.5323749073812
 51
115.3021890856047
  0
ARC
  5
D9A
330
36
100
AcDbEntity
  8
0
  6
Continuous
100
AcDbCircle
 10
88.15717088543033
 20
-395.7744504404276
 30
0.0
 40
50.46291645178621
100
AcDbArc
 50
105.7601937940491
 51
110.5437689503537
  0
LINE
  5
D9B
330
36
100
AcDbEntity
  8
0
  6
Continuous
100
AcDbLine
 10
98.27865066615832
 20
-453.2189367158044
 30
0.0
 11
98.51785965733236
 21
-453.2254131504448
 31
0.0
  0
TEXT
  5
D9C
330
36
100
AcDbEntity
  8
0
 62
     3
100
AcDbText
 10
212.3860154488489
 20
-452.3465175762047
 30
0.0
 40
3.2
  1
SS400
  7
高3.2
100
AcDbText
  0
TEXT
  5
D9D
330
36
100
AcDbEntity
  8
0
 62
     3
100
AcDbText
 10
218.1081069235824
 20
-365.4220437078075
 30
0.0
 40
4.5
  1
主　　仕　　様
  7
高4.5
100
AcDbText
  0
LINE
  5
D9E
330
36
100
AcDbEntity
  8
0
  6
Continuous
 62
     3
100
AcDbLine
 10
197.760458007971
 20
-369.0348569869602
 30
0.0
 11
197.760458007971
 21
-404.0348569869602
 31
0.0
  0
LINE
  5
D9F
330
36
100
AcDbEntity
  8
0
  6
Continuous
100
AcDbLine
 10
215.8980986624945
 20
-366.8443748275625
 30
0.0
 11
257.3568303389136
 21
-366.8443748275625
 31
0.0
  0
TEXT
  5
DA0
330
36
100
AcDbEntity
  8
0
 62
     3
100
AcDbText
 10
199.260458007971
 20
-375.0348569869602
 30
0.0
 40
4.5
  1
適応柱径
  7
高4.5
100
AcDbText
  0
TEXT
  5
DA1
330
36
100
AcDbEntity
  8
0
 62
     3
100
AcDbText
 10
199.260458007971
 20
-382.0348569869602
 30
0.0
 40
4.5
  1
締付トルク
  7
高4.5
100
AcDbText
  0
TEXT
  5
DA4
330
36
100
AcDbEntity
  8
0
 62
     3
100
AcDbText
 10
199.260458007971
 20
-403.0348569869602
 30
0.0
 40
4.5
  1
表面処理
  7
高4.5
100
AcDbText
  0
TEXT
  5
DA5
330
36
100
AcDbEntity
  8
0
 62
     3
100
AcDbText
 10
233.0915018677444
 20
-375.0348569869602
 30
0.0
 40
4.5
  1
%%C195～%%C350
  7
高4.5
100
AcDbText
  0
TEXT
  5
DA6
330
36
100
AcDbEntity
  8
0
 62
     3
100
AcDbText
 10
233.0915018677444
 20
-382.0348569869602
 30
0.0
 40
4.5
  1
35N･m
  7
高4.5
100
AcDbText
  0
TEXT
  5
DA7
330
36
100
AcDbEntity
  8
0
 62
     3
100
AcDbText
 10
233.0915018677444
 20
-389.0348569869602
 30
0.0
 40
4.5
  1
鋼板
  7
高4.5
100
AcDbText
  0
TEXT
  5
DA8
330
36
100
AcDbEntity
  8
0
 62
     3
100
AcDbText
 10
233.0915018677444
 20
-396.0348569869602
 30
0.0
 40
4.5
  1
SS400
  7
高4.5
100
AcDbText
  0
TEXT
  5
DA9
330
36
100
AcDbEntity
  8
0
 62
     3
100
AcDbText
 10
233.0915018677444
 20
-403.0348569869602
 30
0.0
 40
4.5
  1
溶融亜鉛めっき
  7
高4.5
100
AcDbText
  0
TEXT
  5
DAB
330
36
100
AcDbEntity
  8
0
 62
     3
100
AcDbText
 10
199.260458007971
 20
-389.0348569869602
 30
0.0
 40
4.5
  1
バンド材質
  7
高4.5
100
AcDbText
  0
TEXT
  5
DAC
330
36
100
AcDbEntity
  8
0
 62
     3
100
AcDbText
 10
199.260458007971
 20
-396.0348569869602
 30
0.0
 40
4.5
  1
ボルト材質
  7
高4.5
100
AcDbText
  0
LINE
  5
DAD
330
36
100
AcDbEntity
  8
0
  6
Continuous
 62
     3
100
AcDbLine
 10
197.760458007971
 20
-369.0348569869602
 30
0.0
 11
283.7979208476534
 21
-369.0348569869602
 31
0.0
  0
LINE
  5
DAF
330
36
100
AcDbEntity
  8
0
  6
Continuous
100
AcDbLine
 10
197.760458007971
 20
-376.0348569869602
 30
0.0
 11
283.7979208476534
 21
-376.0348569869602
 31
0.0
  0
LINE
  5
DB0
330
36
100
AcDbEntity
  8
0
  6
Continuous
100
AcDbLine
 10
197.760458007971
 20
-383.0348569869602
 30
0.0
 11
283.7979208476534
 21
-383.0348569869602
 31
0.0
  0
LINE
  5
DB1
330
36
100
AcDbEntity
  8
0
  6
Continuous
100
AcDbLine
 10
197.760458007971
 20
-390.0348569869602
 30
0.0
 11
283.7979208476534
 21
-390.0348569869602
 31
0.0
  0
LINE
  5
DB2
330
36
100
AcDbEntity
  8
0
  6
Continuous
100
AcDbLine
 10
197.760458007971
 20
-397.0348569869602
 30
0.0
 11
283.7979208476534
 21
-397.0348569869602
 31
0.0
  0
LINE
  5
DB3
330
36
100
AcDbEntity
  8
0
  6
Continuous
 62
     3
100
AcDbLine
 10
197.760458007971
 20
-404.0348569869602
 30
0.0
 11
283.7979208476534
 21
-404.0348569869602
 31
0.0
  0
LINE
  5
DB4
330
36
100
AcDbEntity
  8
0
  6
Continuous
100
AcDbLine
 10
231.5915018677444
 20
-369.0348569869602
 30
0.0
 11
231.5915018677444
 21
-404.0348569869602
 31
0.0
  0
LINE
  5
DB5
330
36
100
AcDbEntity
  8
0
  6
Continuous
 62
     3
100
AcDbLine
 10
283.7979208476534
 20
-369.0348569869602
 30
0.0
 11
283.7979208476534
 21
-404.0348569869602
 31
0.0
  0
TEXT
  5
E7C
330
36
100
AcDbEntity
  8
0
 62
     3
100
AcDbText
 10
125.0078361642802
 20
-447.6786333519918
 30
0.0
 40
4.5
  1
巻付参考図
  7
高4.5
100
AcDbText
  0
LINE
  5
E7D
330
36
100
AcDbEntity
  8
0
  6
Continuous
100
AcDbLine
 10
122.7984716437669
 20
-449.0343352815206
 30
0.0
 11
153.6161728726139
 21
-449.0343352815206
 31
0.0
  0
ARC
  5
F33
330
36
100
AcDbEntity
  8
0
  6
Continuous
100
AcDbCircle
 10
210.8567212220983
 20
-299.3303523991609
 30
0.0
 40
20.74084473870838
100
AcDbArc
 50
142.8824234340724
 51
210.9616842117666
  0
ARC
  5
F3A
330
36
100
AcDbEntity
  8
0
  6
Continuous
100
AcDbCircle
 10
178.9085703061207
 20
-318.6590162361679
 30
0.0
 40
16.5995557787621
100
AcDbArc
 50
308.7887745382097
 51
31.43924213654427
  0
ARC
  5
F60
330
36
100
AcDbEntity
  8
0
  6
Continuous
100
AcDbCircle
 10
4.174439991411957
 20
-299.3303523991609
 30
0.0
 40
20.74084473870838
100
AcDbArc
 50
142.8824234340724
 51
210.9616842117667
  0
ARC
  5
F61
330
36
100
AcDbEntity
  8
0
  6
Continuous
100
AcDbCircle
 10
-27.77371092456568
 20
-318.6590162361679
 30
0.0
 40
16.5995557787621
100
AcDbArc
 50
308.7887745382094
 51
31.43924213654458
  0
LINE
  5
1008
330
36
100
AcDbEntity
  8
0
  6
Continuous
 62
     3
100
AcDbLine
 10
258.156635
 20
-430.739348
 30
0.0
 11
258.156635
 21
-424.1872372509992
 31
0.0
  0
LINE
  5
1009
330
36
100
AcDbEntity
  8
0
  6
Continuous
 62
     3
100
AcDbLine
 10
258.156635
 20
-424.1872372509992
 30
0.0
 11
309.855999
 21
-424.1872372509992
 31
0.0
  0
TEXT
  5
100B
330
36
100
AcDbEntity
  8
0
 62
     3
100
AcDbText
 10
264.8375492268451
 20
-429.9417711900408
 30
0.0
 40
4.5
  1
コード
  7
高4.5
100
AcDbText
  0
TEXT
  5
100C
330
36
100
AcDbEntity
  8
0
 62
     3
100
AcDbText
 10
286.4795038305629
 20
-429.8279837602088
 30
0.0
 40
4.5
  1
54527
  7
高4.5
100
AcDbText
  0
LINE
  5
10E5
330
36
100
AcDbEntity
  8
0
  6
Continuous
 62
     3
100
AcDbLine
 10
284.156635
 20
-430.739348
 30
0.0
 11
284.156635
 21
-424.1872372509992
 31
0.0
  0
TEXT
  5
169F
330
36
100
AcDbEntity
  8
0
 62
     3
100
AcDbText
 10
297.3559989999999
 20
-205.90507
 30
0.0
 40
3.2
  1
担　当
  7
高3.2
100
AcDbText
  0
TEXT
  5
16A0
330
36
100
AcDbEntity
  8
0
 62
     3
100
AcDbText
 10
253.3559989999999
 20
-205.90507
 30
0.0
 40
3.2
  1
変更・追記内容
  7
高3.2
100
AcDbText
  0
TEXT
  5
16A1
330
36
100
AcDbEntity
  8
0
 62
     3
100
AcDbText
 10
228.4695140003391
 20
-210.5756085099083
 30
0.0
 40
2.0
  1
1
  7
高2
100
AcDbText
  0
TEXT
  5
16A2
330
36
100
AcDbEntity
  8
0
 62
     3
100
AcDbText
 10
228.1610025235818
 20
-215.7454252221812
 30
0.0
 40
2.0
  1
2
  7
高2
100
AcDbText
  0
TEXT
  5
16A3
330
36
100
AcDbEntity
  8
0
 62
     3
100
AcDbText
 10
235.3559989999999
 20
-205.90507
 30
0.0
 40
3.2
  1
日　付
  7
高3.2
100
AcDbText
  0
TEXT
  5
16A4
330
36
100
AcDbEntity
  8
0
 62
     3
100
AcDbText
 10
235.3559989999999
 20
-200.90507
 30
0.0
 40
3.2
  1
図　　　　面　　　　略　　　　歴
  7
高3.2
100
AcDbText
  0
TEXT
  5
16A5
330
36
100
AcDbEntity
  8
0
 62
     3
100
AcDbText
 10
225.3559989999999
 20
-205.90507
 30
0.0
 40
3.2
  1
記号
  7
高3.2
100
AcDbText
  0
LINE
  5
16A6
330
36
100
AcDbEntity
  8
0
 62
     7
100
AcDbLine
 10
228.8559989999999
 20
-212.6141739999999
 30
0.0
 11
226.9559989999999
 21
-215.90507
 31
0.0
  0
LINE
  5
16A7
330
36
100
AcDbEntity
  8
0
 62
     7
100
AcDbLine
 10
228.8559989999999
 20
-212.6141739999999
 30
0.0
 11
230.7559989999999
 21
-215.90507
 31
0.0
  0
LINE
  5
16A8
330
36
100
AcDbEntity
  8
0
 62
     7
100
AcDbLine
 10
226.9559989999999
 20
-215.90507
 30
0.0
 11
230.7559989999999
 21
-215.90507
 31
0.0
  0
LINE
  5
16A9
330
36
100
AcDbEntity
  8
0
 62
     7
100
AcDbLine
 10
228.8559989999999
 20
-207.6141729999999
 30
0.0
 11
226.9559989999999
 21
-210.90507
 31
0.0
  0
LINE
  5
16AA
330
36
100
AcDbEntity
  8
0
 62
     7
100
AcDbLine
 10
228.8559989999999
 20
-207.6141729999999
 30
0.0
 11
230.7559989999999
 21
-210.90507
 31
0.0
  0
LINE
  5
16AB
330
36
100
AcDbEntity
  8
0
 62
     7
100
AcDbLine
 10
226.9559989999999
 20
-210.90507
 30
0.0
 11
230.7559989999999
 21
-210.90507
 31
0.0
  0
LINE
  5
16AC
330
36
100
AcDbEntity
  8
0
 62
     3
100
AcDbLine
 10
223.8559989999999
 20
-201.40507
 30
0.0
 11
309.8559989999999
 21
-201.40507
 31
0.0
  0
LINE
  5
16AD
330
36
100
AcDbEntity
  8
0
 62
     3
100
AcDbLine
 10
223.8559989999999
 20
-206.40507
 30
0.0
 11
309.8559989999999
 21
-206.40507
 31
0.0
  0
LINE
  5
16AE
330
36
100
AcDbEntity
  8
0
 62
     7
100
AcDbLine
 10
223.8559989999999
 20
-211.40507
 30
0.0
 11
309.8559989999999
 21
-211.40507
 31
0.0
  0
LINE
  5
16AF
330
36
100
AcDbEntity
  8
0
 62
     3
100
AcDbLine
 10
223.8559989999999
 20
-216.40507
 30
0.0
 11
309.8559989999999
 21
-216.40507
 31
0.0
  0
LINE
  5
16B0
330
36
100
AcDbEntity
  8
0
 62
     7
100
AcDbLine
 10
295.8559989999998
 20
-216.40507
 30
0.0
 11
295.8559989999999
 21
-201.40507
 31
0.0
  0
LINE
  5
16B1
330
36
100
AcDbEntity
  8
0
 62
     7
100
AcDbLine
 10
251.8559989999999
 20
-216.40507
 30
0.0
 11
251.8559989999999
 21
-201.40507
 31
0.0
  0
LINE
  5
16B2
330
36
100
AcDbEntity
  8
0
 62
     7
100
AcDbLine
 10
233.8559989999999
 20
-216.40507
 30
0.0
 11
233.8559989999999
 21
-201.40507
 31
0.0
  0
LINE
  5
16B3
330
36
100
AcDbEntity
  8
0
 62
     3
100
AcDbLine
 10
223.8559989999999
 20
-216.40507
 30
0.0
 11
223.8559989999999
 21
-196.40507
 31
0.0
  0
LINE
  5
17E9
330
36
100
AcDbEntity
  8
0
  6
Continuous
100
AcDbLine
 10
67.2074960853661
 20
-271.004875674357
 30
0.0
 11
67.2074960853661
 21
-285.1532793907927
 31
0.0
  0
LINE
  5
17EA
330
36
100
AcDbEntity
  8
0
  6
Continuous
100
AcDbLine
 10
120.6406701619416
 20
-265.004875674357
 30
0.0
 11
120.6406701619416
 21
-285.1532793907927
 31
0.0
  0
LINE
  5
17EB
330
36
100
AcDbEntity
  8
0
  6
Continuous
100
AcDbLine
 10
69.7074960853661
 20
-283.9032793907927
 30
0.0
 11
118.1406701619416
 21
-283.9032793907927
 31
0.0
  0
LINE
  5
17EF
330
36
100
AcDbEntity
  8
0
  6
Continuous
100
AcDbLine
 10
-9.052347652477408
 20
-304.1642660567485
 30
0.0
 11
-9.052347652477406
 21
-285.385609176776
 31
0.0
  0
LINE
  5
17F0
330
36
100
AcDbEntity
  8
0
  6
Continuous
100
AcDbLine
 10
15.94765234752258
 20
-304.1642660567485
 30
0.0
 11
15.94765234752258
 21
-285.385609176776
 31
0.0
  0
LINE
  5
17F1
330
36
100
AcDbEntity
  8
0
  6
Continuous
100
AcDbLine
 10
-6.552347652477406
 20
-286.635609176776
 30
0.0
 11
13.44765234752258
 21
-286.635609176776
 31
0.0
  0
LINE
  5
17F5
330
36
100
AcDbEntity
  8
0
  6
Continuous
100
AcDbLine
 10
190.9516892588988
 20
-234.2906161282592
 30
0.0
 11
203.8139412605317
 21
-234.2906161282592
 31
0.0
  0
LINE
  5
17F6
330
36
100
AcDbEntity
  8
0
  6
Continuous
100
AcDbLine
 10
190.2807092500344
 20
-235.9001999201827
 30
0.0
 11
203.8139412605317
 21
-235.9001999201827
 31
0.0
  0
LINE
  5
17F7
330
36
100
AcDbEntity
  8
0
  6
Continuous
100
AcDbLine
 10
202.5639412605316
 20
-231.7906161282592
 30
0.0
 11
202.5639412605316
 21
-229.2906161282592
 31
0.0
  0
LINE
  5
17F8
330
36
100
AcDbEntity
  8
0
  6
Continuous
100
AcDbLine
 10
202.5639412605316
 20
-238.4001999201827
 30
0.0
 11
202.5639412605316
 21
-250.1501999201827
 31
0.0
  0
LINE
  5
17F9
330
36
100
AcDbEntity
  8
0
  6
Continuous
100
AcDbLine
 10
202.5639412605316
 20
-234.2906161282592
 30
0.0
 11
202.5639412605316
 21
-235.9001999201827
 31
0.0
  0
LINE
  5
17FD
330
36
100
AcDbEntity
  8
0
  6
Continuous
100
AcDbLine
 10
56.7486907458815
 20
-256.2548757208462
 30
0.0
 11
42.73195740404737
 21
-256.2548757208462
 31
0.0
  0
LINE
  5
17FE
330
36
100
AcDbEntity
  8
0
  6
Continuous
100
AcDbLine
 10
56.74869074588165
 20
-266.2548757069322
 30
0.0
 11
42.73195740404737
 21
-266.2548757069322
 31
0.0
  0
LINE
  5
17FF
330
36
100
AcDbEntity
  8
0
  6
Continuous
100
AcDbLine
 10
43.98195740404737
 20
-258.7548757208462
 30
0.0
 11
43.98195740404737
 21
-263.7548757069322
 31
0.0
  0
LINE
  5
1805
330
36
100
AcDbEntity
  8
0
  6
Continuous
100
AcDbLine
 10
-16.58585296182866
 20
-302.4142660567485
 30
0.0
 11
-28.07363245980349
 21
-302.4142660567485
 31
0.0
  0
LINE
  5
1806
330
36
100
AcDbEntity
  8
0
  6
Continuous
100
AcDbLine
 10
-11.30234765247741
 20
-314.4142660567485
 30
0.0
 11
-28.07363245980349
 21
-314.4142660567485
 31
0.0
  0
LINE
  5
1807
330
36
100
AcDbEntity
  8
0
  6
Continuous
100
AcDbLine
 10
-26.82363245980349
 20
-304.9142660567485
 30
0.0
 11
-26.82363245980349
 21
-311.9142660567485
 31
0.0
  0
LINE
  5
180B
330
36
100
AcDbEntity
  8
0
  6
Continuous
100
AcDbLine
 10
191.2275219710136
 20
-293.4142660567485
 30
0.0
 11
211.3159042825555
 21
-293.4142660567485
 31
0.0
  0
LINE
  5
180C
330
36
100
AcDbEntity
  8
0
  6
Continuous
100
AcDbLine
 10
195.062433082066
 20
-323.4142660567485
 30
0.0
 11
211.3159042825554
 21
-323.4142660567485
 31
0.0
  0
LINE
  5
180D
330
36
100
AcDbEntity
  8
0
  6
Continuous
100
AcDbLine
 10
210.0659042825554
 20
-295.9142660567485
 30
0.0
 11
210.0659042825554
 21
-320.9142660567485
 31
0.0
  0
LINE
  5
1811
330
36
100
AcDbEntity
  8
0
  6
Continuous
100
AcDbLine
 10
44.91044446536145
 20
-423.9792672383301
 30
0.0
 11
124.7725347188095
 21
-369.7958989628751
 31
0.0
  0
TEXT
  5
1815
330
36
100
AcDbEntity
  8
0
  6
Continuous
 62
     4
100
AcDbText
 10
82.95047635142763
 20
-283.2782793907927
 30
0.0
 40
3.0
  1
締付け量55
100
AcDbText
  0
LINE
  5
1816
330
36
100
AcDbEntity
  8
0
  6
ByBlock
 62
     0
370
    -2
100
AcDbLine
 10
118.1406701619416
 20
-283.2334068907927
 30
0.0
 11
120.6406701619416
 21
-283.9032793907927
 31
0.0
  0
LINE
  5
1817
330
36
100
AcDbEntity
  8
0
  6
ByBlock
 62
     0
370
    -2
100
AcDbLine
 10
120.6406701619416
 20
-283.9032793907927
 30
0.0
 11
118.1406701619416
 21
-284.5731518907927
 31
0.0
  0
LINE
  5
1818
330
36
100
AcDbEntity
  8
0
  6
ByBlock
 62
     0
370
    -2
100
AcDbLine
 10
120.6406701619416
 20
-283.9032793907927
 30
0.0
 11
118.1406701619416
 21
-283.9032793907927
 31
0.0
  0
LINE
  5
1819
330
36
100
AcDbEntity
  8
0
  6
ByBlock
 62
     0
370
    -2
100
AcDbLine
 10
69.7074960853661
 20
-284.5731518907927
 30
0.0
 11
67.2074960853661
 21
-283.9032793907927
 31
0.0
  0
LINE
  5
181A
330
36
100
AcDbEntity
  8
0
  6
ByBlock
 62
     0
370
    -2
100
AcDbLine
 10
67.2074960853661
 20
-283.9032793907927
 30
0.0
 11
69.7074960853661
 21
-283.2334068907927
 31
0.0
  0
LINE
  5
181B
330
36
100
AcDbEntity
  8
0
  6
ByBlock
 62
     0
370
    -2
100
AcDbLine
 10
67.2074960853661
 20
-283.9032793907927
 30
0.0
 11
69.7074960853661
 21
-283.9032793907927
 31
0.0
  0
TEXT
  5
181C
330
36
100
AcDbEntity
  8
0
  6
Continuous
 62
     4
100
AcDbText
 10
-4.987217590875594
 20
-286.0106091767761
 30
0.0
 40
3.0
  1
ピッチ25
100
AcDbText
  0
LINE
  5
181D
330
36
100
AcDbEntity
  8
0
  6
ByBlock
 62
     0
370
    -2
100
AcDbLine
 10
13.44765234752258
 20
-285.9657366767761
 30
0.0
 11
15.94765234752258
 21
-286.635609176776
 31
0.0
  0
LINE
  5
181E
330
36
100
AcDbEntity
  8
0
  6
ByBlock
 62
     0
370
    -2
100
AcDbLine
 10
15.94765234752258
 20
-286.635609176776
 30
0.0
 11
13.44765234752258
 21
-287.305481676776
 31
0.0
  0
LINE
  5
181F
330
36
100
AcDbEntity
  8
0
  6
ByBlock
 62
     0
370
    -2
100
AcDbLine
 10
15.94765234752258
 20
-286.635609176776
 30
0.0
 11
13.44765234752258
 21
-286.635609176776
 31
0.0
  0
LINE
  5
1820
330
36
100
AcDbEntity
  8
0
  6
ByBlock
 62
     0
370
    -2
100
AcDbLine
 10
-6.552347652477406
 20
-287.305481676776
 30
0.0
 11
-9.052347652477406
 21
-286.635609176776
 31
0.0
  0
LINE
  5
1821
330
36
100
AcDbEntity
  8
0
  6
ByBlock
 62
     0
370
    -2
100
AcDbLine
 10
-9.052347652477406
 20
-286.635609176776
 30
0.0
 11
-6.552347652477406
 21
-285.9657366767761
 31
0.0
  0
LINE
  5
1822
330
36
100
AcDbEntity
  8
0
  6
ByBlock
 62
     0
370
    -2
100
AcDbLine
 10
-9.052347652477406
 20
-286.635609176776
 30
0.0
 11
-6.552347652477406
 21
-286.635609176776
 31
0.0
  0
TEXT
  5
1823
330
36
100
AcDbEntity
  8
0
  6
Continuous
 62
     4
100
AcDbText
 10
201.9389412605317
 20
-249.5251999201827
 30
0.0
 40
3.0
  1
1.6t
 50
90.0
100
AcDbText
  0
LINE
  5
1824
330
36
100
AcDbEntity
  8
0
  6
ByBlock
 62
     0
370
    -2
100
AcDbLine
 10
201.8940687605317
 20
-238.4001999201827
 30
0.0
 11
202.5639412605316
 21
-235.9001999201827
 31
0.0
  0
LINE
  5
1825
330
36
100
AcDbEntity
  8
0
  6
ByBlock
 62
     0
370
    -2
100
AcDbLine
 10
202.5639412605316
 20
-235.9001999201827
 30
0.0
 11
203.2338137605317
 21
-238.4001999201827
 31
0.0
  0
LINE
  5
1826
330
36
100
AcDbEntity
  8
0
  6
ByBlock
 62
     0
370
    -2
100
AcDbLine
 10
202.5639412605316
 20
-235.9001999201827
 30
0.0
 11
202.5639412605316
 21
-238.4001999201827
 31
0.0
  0
LINE
  5
1827
330
36
100
AcDbEntity
  8
0
  6
ByBlock
 62
     0
370
    -2
100
AcDbLine
 10
203.2338137605317
 20
-231.7906161282592
 30
0.0
 11
202.5639412605316
 21
-234.2906161282592
 31
0.0
  0
LINE
  5
1828
330
36
100
AcDbEntity
  8
0
  6
ByBlock
 62
     0
370
    -2
100
AcDbLine
 10
202.5639412605316
 20
-234.2906161282592
 30
0.0
 11
201.8940687605317
 21
-231.7906161282592
 31
0.0
  0
LINE
  5
1829
330
36
100
AcDbEntity
  8
0
  6
ByBlock
 62
     0
370
    -2
100
AcDbLine
 10
202.5639412605316
 20
-234.2906161282592
 30
0.0
 11
202.5639412605316
 21
-231.7906161282592
 31
0.0
  0
TEXT
  5
182A
330
36
100
AcDbEntity
  8
0
  6
Continuous
 62
     4
100
AcDbText
 10
43.35695740404742
 20
-264.5320804965415
 30
0.0
 40
3.0
  1
Ｍ10
 50
90.0
100
AcDbText
  0
LINE
  5
182B
330
36
100
AcDbEntity
  8
0
  6
ByBlock
 62
     0
370
    -2
100
AcDbLine
 10
44.65182990404738
 20
-263.7548757069322
 30
0.0
 11
43.98195740404737
 21
-266.2548757069322
 31
0.0
  0
LINE
  5
182C
330
36
100
AcDbEntity
  8
0
  6
ByBlock
 62
     0
370
    -2
100
AcDbLine
 10
43.98195740404737
 20
-266.2548757069322
 30
0.0
 11
43.31208490404738
 21
-263.7548757069322
 31
0.0
  0
LINE
  5
182D
330
36
100
AcDbEntity
  8
0
  6
ByBlock
 62
     0
370
    -2
100
AcDbLine
 10
43.98195740404737
 20
-266.2548757069322
 30
0.0
 11
43.98195740404737
 21
-263.7548757069322
 31
0.0
  0
LINE
  5
182E
330
36
100
AcDbEntity
  8
0
  6
ByBlock
 62
     0
370
    -2
100
AcDbLine
 10
43.31208490404738
 20
-258.7548757208462
 30
0.0
 11
43.98195740404737
 21
-256.2548757208462
 31
0.0
  0
LINE
  5
182F
330
36
100
AcDbEntity
  8
0
  6
ByBlock
 62
     0
370
    -2
100
AcDbLine
 10
43.98195740404737
 20
-256.2548757208462
 30
0.0
 11
44.65182990404737
 21
-258.7548757208462
 31
0.0
  0
LINE
  5
1830
330
36
100
AcDbEntity
  8
0
  6
ByBlock
 62
     0
370
    -2
100
AcDbLine
 10
43.98195740404737
 20
-256.2548757208462
 30
0.0
 11
43.98195740404737
 21
-258.7548757208462
 31
0.0
  0
LINE
  5
1831
330
36
100
AcDbEntity
  8
0
  6
Continuous
100
AcDbLine
 10
8.333910878798235
 20
-313.5012662693001
 30
0.0
 11
-3.530467749245417
 21
-344.5792850889454
 31
0.0
1001
ACAD
1000
DSTYLE
1002
{
1070
   147
1040
0.625
1070
    77
1070
     0
1002
}
  0
LINE
  5
1832
330
36
100
AcDbEntity
  8
0
  6
ByBlock
 62
     0
370
    -2
100
AcDbLine
 10
7.70809176933355
 20
-313.2623528781202
 30
0.0
 11
9.225548433631047
 21
-311.1656758790964
 31
0.0
  0
LINE
  5
1833
330
36
100
AcDbEntity
  8
0
  6
ByBlock
 62
     0
370
    -2
100
AcDbLine
 10
9.225548433631047
 20
-311.1656758790964
 30
0.0
 11
8.959729988262919
 21
-313.74017966048
 31
0.0
  0
LINE
  5
1834
330
36
100
AcDbEntity
  8
0
  6
ByBlock
 62
     0
370
    -2
100
AcDbLine
 10
9.225548433631047
 20
-311.1656758790964
 30
0.0
 11
8.333910878798235
 21
-313.5012662693001
 31
0.0
  0
TEXT
  5
1835
330
36
100
AcDbEntity
  8
0
  6
Continuous
 62
     4
100
AcDbText
 10
-27.44863245980344
 20
-310.2834752731652
 30
0.0
 40
3.0
  1
12
 50
90.0
100
AcDbText
  0
LINE
  5
1836
330
36
100
AcDbEntity
  8
0
  6
ByBlock
 62
     0
370
    -2
100
AcDbLine
 10
-26.15375995980349
 20
-311.9142660567485
 30
0.0
 11
-26.82363245980349
 21
-314.4142660567485
 31
0.0
  0
LINE
  5
1837
330
36
100
AcDbEntity
  8
0
  6
ByBlock
 62
     0
370
    -2
100
AcDbLine
 10
-26.82363245980349
 20
-314.4142660567485
 30
0.0
 11
-27.4935049598035
 21
-311.9142660567485
 31
0.0
  0
LINE
  5
1838
330
36
100
AcDbEntity
  8
0
  6
ByBlock
 62
     0
370
    -2
100
AcDbLine
 10
-26.82363245980349
 20
-314.4142660567485
 30
0.0
 11
-26.82363245980349
 21
-311.9142660567485
 31
0.0
  0
LINE
  5
1839
330
36
100
AcDbEntity
  8
0
  6
ByBlock
 62
     0
370
    -2
100
AcDbLine
 10
-27.49350495980349
 20
-304.9142660567485
 30
0.0
 11
-26.82363245980349
 21
-302.4142660567485
 31
0.0
  0
LINE
  5
183A
330
36
100
AcDbEntity
  8
0
  6
ByBlock
 62
     0
370
    -2
100
AcDbLine
 10
-26.82363245980349
 20
-302.4142660567485
 30
0.0
 11
-26.15375995980349
 21
-304.9142660567485
 31
0.0
  0
LINE
  5
183B
330
36
100
AcDbEntity
  8
0
  6
ByBlock
 62
     0
370
    -2
100
AcDbLine
 10
-26.82363245980349
 20
-302.4142660567485
 30
0.0
 11
-26.82363245980349
 21
-304.9142660567485
 31
0.0
  0
TEXT
  5
183C
330
36
100
AcDbEntity
  8
0
  6
Continuous
 62
     4
100
AcDbText
 10
209.4409042825555
 20
-311.9865348816488
 30
0.0
 40
3.0
  1
30
 50
90.0
100
AcDbText
  0
LINE
  5
183D
330
36
100
AcDbEntity
  8
0
  6
ByBlock
 62
     0
370
    -2
100
AcDbLine
 10
210.7357767825554
 20
-320.9142660567485
 30
0.0
 11
210.0659042825554
 21
-323.4142660567485
 31
0.0
  0
LINE
  5
183E
330
36
100
AcDbEntity
  8
0
  6
ByBlock
 62
     0
370
    -2
100
AcDbLine
 10
210.0659042825554
 20
-323.4142660567485
 30
0.0
 11
209.3960317825554
 21
-320.9142660567485
 31
0.0
  0
LINE
  5
183F
330
36
100
AcDbEntity
  8
0
  6
ByBlock
 62
     0
370
    -2
100
AcDbLine
 10
210.0659042825554
 20
-323.4142660567485
 30
0.0
 11
210.0659042825554
 21
-320.9142660567485
 31
0.0
  0
LINE
  5
1840
330
36
100
AcDbEntity
  8
0
  6
ByBlock
 62
     0
370
    -2
100
AcDbLine
 10
209.3960317825555
 20
-295.9142660567485
 30
0.0
 11
210.0659042825554
 21
-293.4142660567485
 31
0.0
  0
LINE
  5
1841
330
36
100
AcDbEntity
  8
0
  6
ByBlock
 62
     0
370
    -2
100
AcDbLine
 10
210.0659042825554
 20
-293.4142660567485
 30
0.0
 11
210.7357767825555
 21
-295.9142660567485
 31
0.0
  0
LINE
  5
1842
330
36
100
AcDbEntity
  8
0
  6
ByBlock
 62
     0
370
    -2
100
AcDbLine
 10
210.0659042825554
 20
-293.4142660567485
 30
0.0
 11
210.0659042825554
 21
-295.9142660567485
 31
0.0
  0
TEXT
  5
1843
330
36
100
AcDbEntity
  8
0
  6
Continuous
 62
     4
100
AcDbText
 10
84.05244205541697
 20
-396.6676510114893
 30
0.0
 40
3.0
  1
MAX\U+2205350
 50
34.15538891575141
100
AcDbText
  0
LINE
  5
1844
330
36
100
AcDbEntity
  8
0
  6
ByBlock
 62
     0
370
    -2
100
AcDbLine
 10
124.3964420154757
 20
-369.2415674332329
 30
0.0
 11
126.8413296374027
 21
-368.392300877666
 31
0.0
  0
LINE
  5
1845
330
36
100
AcDbEntity
  8
0
  6
ByBlock
 62
     0
370
    -2
100
AcDbLine
 10
126.8413296374027
 20
-368.392300877666
 30
0.0
 11
125.1486274221431
 21
-370.3502304925172
 31
0.0
  0
LINE
  5
1846
330
36
100
AcDbEntity
  8
0
  6
ByBlock
 62
     0
370
    -2
100
AcDbLine
 10
126.8413296374027
 20
-368.392300877666
 30
0.0
 11
124.7725347188094
 21
-369.7958989628751
 31
0.0
  0
LINE
  5
1847
330
36
100
AcDbEntity
  8
0
  6
ByBlock
 62
     0
370
    -2
100
AcDbLine
 10
45.28653716869512
 20
-424.5335987679722
 30
0.0
 11
42.84164954676813
 21
-425.3828653235392
 31
0.0
  0
LINE
  5
1848
330
36
100
AcDbEntity
  8
0
  6
ByBlock
 62
     0
370
    -2
100
AcDbLine
 10
42.84164954676813
 20
-425.3828653235392
 30
0.0
 11
44.53435176202777
 21
-423.424935708688
 31
0.0
  0
LINE
  5
1849
330
36
100
AcDbEntity
  8
0
  6
ByBlock
 62
     0
370
    -2
100
AcDbLine
 10
42.84164954676813
 20
-425.3828653235392
 30
0.0
 11
44.91044446536145
 21
-423.9792672383301
 31
0.0
  0
ENDSEC
  0
SECTION
  2
OBJECTS
  0
DICTIONARY
  5
C
330
0
100
AcDbDictionary
281
     1
  3
ACAD_2007HEADERVARS_RT
350
184D
  3
ACAD_COLOR
350
2F
  3
ACAD_GROUP
350
D
  3
ACAD_LAYOUT
350
2E
  3
ACAD_MATERIAL
350
10
  3
ACAD_MLEADERSTYLE
350
EB4
  3
ACAD_MLINESTYLE
350
2B
  3
ACAD_PLOTSETTINGS
350
2D
  3
ACAD_PLOTSTYLENAME
350
E
  3
ACAD_SCALELIST
350
EA2
  3
ACAD_TABLESTYLE
350
30
  3
ACAD_VISUALSTYLE
350
14
  3
ACDB_RECOMPOSE_DATA
350
184B
  3
AcDbVariableDictionary
350
925
  3
DWGPROPS
350
184C
  0
DICTIONARY
  5
967
330
2
100
AcDbDictionary
280
     1
281
     1
  3
ACAD_LAYERSTATES
360
968
  0
DICTIONARY
  5
F74
330
25
100
AcDbDictionary
280
     1
281
     1
  3
ADSK_XREC_LAYER_RECONCILED
360
F75
  0
DICTIONARY
  5
92F
330
36
100
AcDbDictionary
280
     1
281
     1
  3
ACAD_SORTENTS
360
930
  0
DICTIONARY
  5
184D
102
{ACAD_REACTORS
330
C
102
}
330
C
100
AcDbDictionary
281
     1
  3
DIMARCSYM
350
184F
  3
DIMFXL
350
184E
  3
DIMJOGANG
350
1850
  0
DICTIONARY
  5
2F
102
{ACAD_REACTORS
330
C
102
}
330
C
100
AcDbDictionary
281
     1
  0
DICTIONARY
  5
D
102
{ACAD_REACTORS
330
C
102
}
330
C
100
AcDbDictionary
281
     1
  0
DICTIONARY
  5
2E
102
{ACAD_REACTORS
330
C
102
}
330
C
100
AcDbDictionary
281
     1
  3
Model
350
39
  3
レイアウト1
350
35
  0
DICTIONARY
  5
10
102
{ACAD_REACTORS
330
C
102
}
330
C
100
AcDbDictionary
281
     1
  3
ByBlock
350
12
  3
ByLayer
350
11
  3
Global
350
13
  0
DICTIONARY
  5
EB4
102
{ACAD_REACTORS
330
C
102
}
330
C
100
AcDbDictionary
281
     1
  3
Standard
350
EB5
  0
DICTIONARY
  5
2B
102
{ACAD_REACTORS
330
C
102
}
330
C
100
AcDbDictionary
281
     1
  3
Standard
350
2C
  0
DICTIONARY
  5
2D
102
{ACAD_REACTORS
330
C
102
}
330
C
100
AcDbDictionary
281
     1
  0
ACDBDICTIONARYWDFLT
  5
E
102
{ACAD_REACTORS
330
C
102
}
330
C
100
AcDbDictionary
281
     1
  3
Normal
350
F
100
AcDbDictionaryWithDefault
340
F
  0
DICTIONARY
  5
EA2
102
{ACAD_REACTORS
330
C
102
}
330
C
100
AcDbDictionary
281
     1
  3
A0
350
EA3
  3
A1
350
EA4
  3
A2
350
EA5
  3
A3
350
EA6
  3
A4
350
EA7
  3
A5
350
EA8
  3
A6
350
EA9
  3
A7
350
EAA
  3
A8
350
EAB
  3
A9
350
EAC
  3
B0
350
EAD
  3
B1
350
EAE
  3
B2
350
EAF
  3
B3
350
EB0
  3
B4
350
EB1
  3
B5
350
EB2
  3
B6
350
EB3
  0
DICTIONARY
  5
30
102
{ACAD_REACTORS
330
C
102
}
330
C
100
AcDbDictionary
281
     1
  3
Standard
350
31
  0
DICTIONARY
  5
14
102
{ACAD_REACTORS
330
C
102
}
330
C
100
AcDbDictionary
281
     1
  3
2dWireframe
350
1A
  3
3D Hidden
350
1C
  3
3dWireframe
350
1B
  3
Basic
350
19
  3
Brighten
350
20
  3
ColorChange
350
24
  3
Conceptual
350
1D
  3
Dim
350
1F
  3
EdgeColorOff
350
EA1
  3
Facepattern
350
23
  3
Flat
350
15
  3
FlatWithEdges
350
16
  3
Gouraud
350
17
  3
GouraudWithEdges
350
18
  3
Hidden
350
E99
  3
JitterOff
350
E9F
  3
Linepattern
350
22
  3
OverhangOff
350
EA0
  3
Realistic
350
1E
  3
Shaded
350
E9E
  3
Shaded with edges
350
E9D
  3
Shades of Gray
350
E9A
  3
Sketchy
350
E9B
  3
Thicken
350
21
  3
Wireframe
350
E98
  3
X-Ray
350
E9C
  0
XRECORD
  5
184B
102
{ACAD_REACTORS
330
C
102
}
330
C
100
AcDbXrecord
280
     1
 90
        1
330
31
  0
DICTIONARY
  5
925
102
{ACAD_REACTORS
330
C
102
}
330
C
100
AcDbDictionary
281
     1
  3
CANNOSCALE
350
F81
  3
CMLEADERSTYLE
350
F80
  3
CTABLESTYLE
350
926
  3
DIMASSOC
350
E80
  3
INDEXCTL
350
E7F
  3
SORTENTS
350
E7E
  3
XCLIPFRAME
350
17A8
  0
XRECORD
  5
184C
102
{ACAD_REACTORS
330
C
102
}
330
C
100
AcDbXrecord
280
     1
  1
DWGPROPS COOKIE
  2

  3

  4

  6

  7

  8
imamura
  9

300
=
301
=
302
=
303
=
304
=
305
=
306
=
307
=
308
=
309
=
 40
0.1797617939814815
 41
2455575.375372535
 42
2456856.800253391
  1

 90
        0
  0
DICTIONARY
  5
968
102
{ACAD_REACTORS
330
967
102
}
330
967
100
AcDbDictionary
281
     1
  0
XRECORD
  5
F75
102
{ACAD_REACTORS
330
F74
102
}
330
F74
100
AcDbXrecord
280
     1
290
     1
  0
SORTENTSTABLE
  5
930
102
{ACAD_REACTORS
330
92F
102
}
330
92F
100
AcDbSortentsTable
330
36
331
C67
  5
C76
331
CE5
  5
CE5
331
CE1
  5
CE1
331
9C6
  5
9D0
331
C9E
  5
CA0
331
DA4
  5
17FA
331
CDD
  5
CDD
331
ADC
  5
ADC
331
9C2
  5
9CE
331
DA0
  5
17F8
331
CD9
  5
CD9
331
45B
  5
45B
331
9BE
  5
9BD
331
9BA
  5
9C0
331
90E
  5
90E
331
90A
  5
90A
331
AA8
  5
AA9
331
16AC
  5
1842
331
16A8
  5
183E
331
1817
  5
1827
331
16A4
  5
183A
331
16A0
  5
1836
331
180B
  5
DA7
331
D9C
  5
17F1
331
C03
  5
C69
331
C92
  5
C98
331
CD5
  5
CD5
331
94C
  5
984
331
D98
  5
17EF
331
100B
  5
1832
331
CD1
  5
CD1
331
BFF
  5
C13
331
9B6
  5
9B9
331
9F5
  5
A0B
331
C8E
  5
C91
331
921
  5
921
331
C8A
  5
C90
331
948
  5
949
331
CCD
  5
CCD
331
BFB
  5
C0C
331
AA4
  5
AA5
331
906
  5
906
331
9B2
  5
9B4
331
9F1
  5
9F2
331
9ED
  5
9ED
331
CC9
  5
CC9
331
946
  5
946
331
942
  5
937
331
447
  5
447
331
A84
  5
AA2
331
B73
  5
B73
331
443
  5
443
331
1807
  5
F60
331
1846
  5
DA0
331
1842
  5
DB3
331
17FF
  5
16A8
331
183E
  5
DB5
331
183A
  5
1008
331
BF7
  5
C08
331
BF3
  5
C01
331
C82
  5
C89
331
BEF
  5
BFD
331
C7E
  5
C87
331
B6F
  5
B6F
331
CC1
  5
CC1
331
C7A
  5
C83
331
CBD
  5
CBD
331
47E
  5
47E
331
B6B
  5
B6B
331
93A
  5
93D
331
BEB
  5
BF9
331
43F
  5
43F
331
F33
  5
182C
331
CB9
  5
CB9
331
43B
  5
43B
331
B67
  5
B67
331
932
  5
941
331
9D9
  5
9DD
331
B63
  5
B63
331
A40
  5
9F8
331
17F7
  5
180C
331
1836
  5
100B
331
1832
  5
16A2
331
17EF
  5
1816
331
182E
  5
16A9
331
17EB
  5
1822
331
182A
  5
16AF
331
DB4
  5
1808
331
BE7
  5
BF8
331
C76
  5
C80
331
DB0
  5
1804
331
BE3
  5
BE3
331
C72
  5
C7B
331
CF4
  5
CF4
331
CF0
  5
CF0
331
BDF
  5
BDF
331
91E
  5
91E
331
9D5
  5
9C1
331
C6E
  5
BF0
331
B5F
  5
B5F
331
C6A
  5
BF5
331
10E5
  5
1834
331
DAF
  5
1803
331
CA5
  5
CA7
331
CEC
  5
CEC
331
91A
  5
91A
331
9D1
  5
9C7
331
42F
  5
42F
331
DAB
  5
1800
331
CA1
  5
CA3
331
CE8
  5
CE8
331
42B
  5
42B
331
916
  5
916
331
9CD
  5
9D8
331
9C9
  5
9D4
331
427
  5
427
331
912
  5
912
331
423
  5
423
331
1826
  5
1814
331
16B3
  5
1849
331
1822
  5
181B
331
181E
  5
181D
331
181A
  5
1824
331
CE4
  5
CE4
331
DA7
  5
17FD
331
C9D
  5
C9F
331
CE0
  5
CE0
331
9C5
  5
9CF
331
ADF
  5
ADF
331
ADB
  5
ADB
331
CDC
  5
CDC
331
C0A
  5
C6E
331
CD8
  5
CD8
331
9BD
  5
9BF
331
9B9
  5
9C8
331
9F8
  5
9FB
331
AAB
  5
AD8
331
90D
  5
90D
331
909
  5
909
331
452
  5
452
331
16AF
  5
1845
331
16AB
  5
1841
331
16A7
  5
183D
331
1816
  5
1826
331
16A3
  5
1839
331
1849
  5
D9A
331
D9F
  5
17F7
331
C95
  5
C9E
331
D38
  5
D38
331
D9B
  5
17F0
331
CAA
  5
CA9
331
C02
  5
C68
331
C91
  5
C95
331
CD4
  5
CD4
331
94B
  5
94C
331
D97
  5
17EA
331
CD0
  5
CD0
331
BFE
  5
C0F
331
B7E
  5
B7E
331
9B5
  5
9B2
331
9F4
  5
9FA
331
AA7
  5
AA8
331
C8D
  5
C92
331
920
  5
920
331
C89
  5
BF4
331
CCC
  5
CCC
331
BFA
  5
C0B
331
AA3
  5
AA4
331
9B1
  5
9B1
331
9F0
  5
9F1
331
9EC
  5
9EE
331
44A
  5
44A
331
CC8
  5
CC8
331
941
  5
931
331
446
  5
446
331
73D
  5
73D
331
B72
  5
B72
331
442
  5
442
331
169F
  5
1835
331
1806
  5
F3A
331
1845
  5
D9F
331
1841
  5
DB2
331
17FE
  5
16A7
331
183D
  5
DB4
331
1839
  5
F61
331
BF6
  5
C04
331
C85
  5
BEE
331
BF2
  5
C00
331
CC4
  5
CC4
331
F3A
  5
182D
331
CC0
  5
CC0
331
D2F
  5
D2F
331
B6E
  5
B6E
331
93D
  5
935
331
BEE
  5
BFC
331
C79
  5
C82
331
CBC
  5
CBC
331
47D
  5
47D
331
B6A
  5
B6A
331
9E0
  5
9BA
331
43E
  5
43E
331
CB8
  5
CB8
331
B66
  5
B66
331
9D8
  5
9C9
331
436
  5
436
331
B62
  5
B62
331
17F6
  5
180B
331
1835
  5
169F
331
1831
  5
16A5
331
182D
  5
16AE
331
17EA
  5
1821
331
1829
  5
1811
331
DB3
  5
1807
331
BE6
  5
BF7
331
CF3
  5
CF3
331
BE2
  5
BE2
331
C71
  5
C7A
331
CEF
  5
CEF
331
BDE
  5
BDE
331
91D
  5
91D
331
9D4
  5
9C5
331
A3F
  5
9F5
331
C6D
  5
C79
331
C69
  5
BEF
331
CA4
  5
CA6
331
CEB
  5
CEB
331
919
  5
919
331
9D0
  5
9C6
331
42E
  5
42E
331
9CC
  5
9D5
331
CA0
  5
CA2
331
42A
  5
42A
331
915
  5
915
331
911
  5
911
331
9C8
  5
9D2
331
AE2
  5
AE2
331
1825
  5
1813
331
16B2
  5
1848
331
1821
  5
181A
331
181D
  5
181C
331
1819
  5
1823
331
CE7
  5
CE7
331
CE3
  5
CE3
331
DA6
  5
17FC
331
CDF
  5
CDF
331
ADE
  5
ADE
331
C09
  5
C6C
331
C98
  5
BF3
331
CDB
  5
CDB
331
ADA
  5
ADA
331
9C0
  5
9CD
331
459
  5
459
331
AAA
  5
AAB
331
90C
  5
90C
331
B81
  5
B81
331
908
  5
908
331
16AE
  5
1844
331
16AA
  5
1840
331
16A6
  5
183C
331
1815
  5
1829
331
16A2
  5
1838
331
1811
  5
D7D
331
180D
  5
DAC
331
1848
  5
D99
331
D9E
  5
17F6
331
C94
  5
C97
331
CD7
  5
CD7
331
D9A
  5
17E9
331
CA9
  5
CB3
331
C01
  5
C67
331
C90
  5
C94
331
9F7
  5
A25
331
CD3
  5
CD3
331
C8C
  5
C8A
331
94A
  5
94B
331
D96
  5
16B0
331
1009
  5
1831
331
CCF
  5
CCF
331
BFD
  5
C0E
331
B7D
  5
B7D
331
9B4
  5
9B7
331
9F3
  5
9F9
331
AA6
  5
AA7
331
C88
  5
C8E
331
AA2
  5
AA3
331
CCB
  5
CCB
331
BF9
  5
C0A
331
F61
  5
182F
331
944
  5
945
331
940
  5
93A
331
445
  5
445
331
73C
  5
73C
331
B71
  5
B71
331
441
  5
441
331
1805
  5
F33
331
1844
  5
D9E
331
1840
  5
DAD
331
17FD
  5
16A6
331
183C
  5
E7D
331
17F9
  5
180E
331
1838
  5
10E5
331
D7E
  5
16A1
331
BF5
  5
C03
331
C84
  5
C8D
331
CC7
  5
CC7
331
BF1
  5
BFF
331
C80
  5
C88
331
CBF
  5
CBF
331
D2E
  5
D2E
331
BED
  5
BFB
331
B6D
  5
B6D
331
93C
  5
938
331
9E3
  5
9E4
331
A7E
  5
A84
331
C7C
  5
C86
331
C78
  5
C81
331
CBB
  5
CBB
331
43D
  5
43D
331
47C
  5
47C
331
B69
  5
B69
331
9DB
  5
9E3
331
B65
  5
B65
331
435
  5
435
331
B61
  5
B61
331
431
  5
431
331
17F5
  5
180A
331
1834
  5
16A4
331
17F1
  5
1818
331
1830
  5
16AB
331
182C
  5
16AD
331
17E9
  5
1820
331
1828
  5
1810
331
DB2
  5
1806
331
BE5
  5
BF2
331
C74
  5
C7E
331
CB7
  5
CB7
331
E7D
  5
182B
331
CF2
  5
CF2
331
BE1
  5
BE1
331
9D7
  5
9CA
331
CA7
  5
CAA
331
CEE
  5
CEE
331
91C
  5
91C
331
9D3
  5
9DC
331
C6C
  5
BF6
331
DAD
  5
1802
331
CA3
  5
CA5
331
CEA
  5
CEA
331
918
  5
918
331
9CF
  5
9CB
331
42D
  5
42D
331
DA9
  5
17FF
331
9CB
  5
9D7
331
429
  5
429
331
914
  5
914
331
910
  5
910
331
A0A
  5
9F4
331
425
  5
425
331
1824
  5
1812
331
16B1
  5
1847
331
1820
  5
1819
331
181C
  5
181F
331
1818
  5
1828
331
CE6
  5
CE6
331
CE2
  5
CE2
331
9C7
  5
9D1
331
C9F
  5
CA1
331
DA5
  5
17FB
331
CDE
  5
CDE
331
DA1
  5
17F9
331
C08
  5
C6B
331
CDA
  5
CDA
331
9BF
  5
9CC
331
9FA
  5
A0A
331
458
  5
458
331
90F
  5
90F
331
B80
  5
B80
331
AA9
  5
AAA
331
90B
  5
90B
331
16AD
  5
1843
331
16A9
  5
183F
331
16A5
  5
183B
331
16A1
  5
1837
331
180C
  5
DAB
331
C97
  5
BE7
331
92D
  5
93B
331
D9D
  5
17F5
331
C04
  5
C6A
331
C93
  5
C9D
331
CD6
  5
CD6
331
D99
  5
17EB
331
CA8
  5
CB2
331
C00
  5
C14
331
100C
  5
1833
331
9B7
  5
9B6
331
CD2
  5
CD2
331
922
  5
922
331
C8B
  5
C93
331
949
  5
94A
331
1008
  5
1830
331
CCE
  5
CCE
331
BFC
  5
C0D
331
9F2
  5
9F3
331
907
  5
907
331
AA5
  5
AA6
331
BF8
  5
C09
331
9EE
  5
9F0
331
CCA
  5
CCA
331
44C
  5
44C
331
B78
  5
B78
331
947
  5
948
331
F60
  5
182E
331
943
  5
933
331
448
  5
448
331
B74
  5
B74
331
444
  5
444
331
73B
  5
73B
331
B70
  5
B70
331
440
  5
440
331
1847
  5
D98
331
1843
  5
DA6
331
183F
  5
E7C
331
183B
  5
1009
331
17F8
  5
180D
331
C87
  5
C8C
331
D7D
  5
16A0
331
BF4
  5
C02
331
C83
  5
C8B
331
BF0
  5
BFE
331
C7B
  5
C85
331
CBE
  5
CBE
331
B6C
  5
B6C
331
93B
  5
942
331
BEC
  5
BFA
331
CBA
  5
CBA
331
43C
  5
43C
331
B68
  5
B68
331
9DA
  5
9DE
331
B64
  5
B64
331
A41
  5
A32
331
B60
  5
B60
331
430
  5
430
331
1837
  5
100C
331
1833
  5
16A3
331
17F0
  5
1817
331
182F
  5
16AA
331
182B
  5
16AC
331
DB5
  5
1809
331
DB1
  5
1805
331
BE4
  5
BE4
331
C73
  5
C7C
331
E7C
  5
182A
331
CF1
  5
CF1
331
BE0
  5
BE0
331
91F
  5
91F
331
9D6
  5
9DB
331
CA6
  5
CA8
331
CED
  5
CED
331
91B
  5
91B
331
9D2
  5
9DA
331
C6B
  5
C78
331
DAC
  5
1801
331
CA2
  5
CA4
331
CE9
  5
CE9
331
42C
  5
42C
331
917
  5
917
331
9CE
  5
9D9
331
DA8
  5
17FE
331
9CA
  5
9D6
331
428
  5
428
331
913
  5
913
331
AE0
  5
AE0
331
1827
  5
180F
331
1823
  5
1815
331
16B0
  5
1846
331
181F
  5
181E
331
181B
  5
1825
  0
XRECORD
  5
184F
102
{ACAD_REACTORS
330
184D
102
}
330
184D
100
AcDbXrecord
280
     1
 70
     2
  0
XRECORD
  5
184E
102
{ACAD_REACTORS
330
184D
102
}
330
184D
100
AcDbXrecord
280
     1
 40
1.25
  0
XRECORD
  5
1850
102
{ACAD_REACTORS
330
184D
102
}
330
184D
100
AcDbXrecord
280
     1
 40
1.570796326794896
  0
LAYOUT
  5
39
102
{ACAD_XDICTIONARY
360
1874
102
}
102
{ACAD_REACTORS
330
2E
102
}
330
2E
100
AcDbPlotSettings
  1

  2
PDF Complete
  4
A4
  6

 40
3.174999952316281
 41
3.174999952316281
 42
3.175003051757812
 43
3.17498779296875
 44
209.9733276367186
 45
297.0106506347656
 46
0.0
 47
0.0
 48
0.0
 49
0.0
140
0.0
141
0.0
142
1.0
143
37.76169930726879
 70
 11952
 72
     0
 73
     1
 74
     0
  7

 75
     0
147
0.0264818590885689
148
2760.749417589055
149
11976.15126859685
100
AcDbLayout
  1
Model
 70
     1
 71
     0
 10
0.0
 20
0.0
 11
12.0
 21
9.0
 12
0.0
 22
0.0
 32
0.0
 14
0.0
 24
0.0
 34
0.0
 15
0.0
 25
0.0
 35
0.0
146
0.0
 13
0.0
 23
0.0
 33
0.0
 16
1.0
 26
0.0
 36
0.0
 17
0.0
 27
1.0
 37
0.0
 76
     0
330
36
331
5A
1001
ACAD_PSEXT
1000
PDF Complete
1000
PDF Complete Converter
1000
PDFC
1000
PDF Document Creator
1070
     0
  0
LAYOUT
  5
35
102
{ACAD_XDICTIONARY
360
1872
102
}
102
{ACAD_REACTORS
330
2E
102
}
330
2E
100
AcDbPlotSettings
  1

  2
PDF Complete
  4

  6

 40
0.0
 41
0.0
 42
0.0
 43
0.0
 44
0.0
 45
0.0
 46
0.0
 47
0.0
 48
0.0
 49
0.0
140
0.0
141
0.0
142
1.0
143
1.0
 70
   688
 72
     0
 73
     0
 74
     5
  7

 75
    16
147
1.0
148
0.0
149
0.0
100
AcDbLayout
  1
レイアウト1
 70
     1
 71
     1
 10
0.0
 20
0.0
 11
12.0
 21
9.0
 12
0.0
 22
0.0
 32
0.0
 14
1.000000000000000E+20
 24
1.000000000000000E+20
 34
1.000000000000000E+20
 15
-1.000000000000000E+20
 25
-1.000000000000000E+20
 35
-1.000000000000000E+20
146
0.0
 13
0.0
 23
0.0
 33
0.0
 16
1.0
 26
0.0
 36
0.0
 17
0.0
 27
1.0
 37
0.0
 76
     0
330
32
  0
MATERIAL
  5
12
102
{ACAD_XDICTIONARY
360
E88
102
}
102
{ACAD_REACTORS
330
10
102
}
330
10
100
AcDbMaterial
  1
ByBlock
  0
MATERIAL
  5
11
102
{ACAD_XDICTIONARY
360
E86
102
}
102
{ACAD_REACTORS
330
10
102
}
330
10
100
AcDbMaterial
  1
ByLayer
  0
MATERIAL
  5
13
102
{ACAD_XDICTIONARY
360
E8A
102
}
102
{ACAD_REACTORS
330
10
102
}
330
10
100
AcDbMaterial
  1
Global
  0
MLEADERSTYLE
  5
EB5
102
{ACAD_REACTORS
330
EB4
102
}
330
EB4
100
AcDbMLeaderStyle
170
     2
171
     1
172
     0
 90
        2
 40
0.0
 41
0.0
173
     1
 91
-1056964608
340
28
 92
       -2
290
     1
 42
0.09
291
     1
 43
0.36
  3
Standard
 44
0.18
300

342
26
174
     1
178
     6
175
     1
176
     0
 93
-1056964608
 45
0.18
292
     0
297
     0
 46
0.18
 94
-1056964608
 47
1.0
 49
1.0
140
1.0
293
     1
141
0.0
294
     1
177
     0
142
1.0
295
     0
296
     0
143
0.125
1001
ACAD
1000
AcRTDxfName
1000
MLEADERSTYLE
1001
ACAD_MLEADERVER
1070
     2
  0
MLINESTYLE
  5
2C
102
{ACAD_REACTORS
330
2B
102
}
330
2B
100
AcDbMlineStyle
  2
STANDARD
 70
     0
  3

 62
   256
 51
90.0
 52
90.0
 71
     2
 49
0.5
 62
   256
  6
BYLAYER
 49
-0.5
 62
   256
  6
BYLAYER
  0
ACDBPLACEHOLDER
  5
F
102
{ACAD_REACTORS
330
E
102
}
330
E
  0
SCALE
  5
EA3
102
{ACAD_REACTORS
330
EA2
102
}
330
EA2
100
AcDbScale
 70
     0
300
1:1
140
1.0
141
1.0
290
     1
1001
ACAD
1000
AcRTDxfName
1000
SCALE
  0
SCALE
  5
EA4
102
{ACAD_REACTORS
330
EA2
102
}
330
EA2
100
AcDbScale
 70
     0
300
1/128" = 1'-0"
140
0.0078125
141
12.0
290
     0
1001
ACAD
1000
AcRTDxfName
1000
SCALE
  0
SCALE
  5
EA5
102
{ACAD_REACTORS
330
EA2
102
}
330
EA2
100
AcDbScale
 70
     0
300
1/64" = 1'-0"
140
0.015625
141
12.0
290
     0
1001
ACAD
1000
AcRTDxfName
1000
SCALE
  0
SCALE
  5
EA6
102
{ACAD_REACTORS
330
EA2
102
}
330
EA2
100
AcDbScale
 70
     0
300
1/32" = 1'-0"
140
0.03125
141
12.0
290
     0
1001
ACAD
1000
AcRTDxfName
1000
SCALE
  0
SCALE
  5
EA7
102
{ACAD_REACTORS
330
EA2
102
}
330
EA2
100
AcDbScale
 70
     0
300
1/16" = 1'-0"
140
0.0625
141
12.0
290
     0
1001
ACAD
1000
AcRTDxfName
1000
SCALE
  0
SCALE
  5
EA8
102
{ACAD_REACTORS
330
EA2
102
}
330
EA2
100
AcDbScale
 70
     0
300
3/32" = 1'-0"
140
0.09375
141
12.0
290
     0
1001
ACAD
1000
AcRTDxfName
1000
SCALE
  0
SCALE
  5
EA9
102
{ACAD_REACTORS
330
EA2
102
}
330
EA2
100
AcDbScale
 70
     0
300
1/8" = 1'-0"
140
0.125
141
12.0
290
     0
1001
ACAD
1000
AcRTDxfName
1000
SCALE
  0
SCALE
  5
EAA
102
{ACAD_REACTORS
330
EA2
102
}
330
EA2
100
AcDbScale
 70
     0
300
3/16" = 1'-0"
140
0.1875
141
12.0
290
     0
1001
ACAD
1000
AcRTDxfName
1000
SCALE
  0
SCALE
  5
EAB
102
{ACAD_REACTORS
330
EA2
102
}
330
EA2
100
AcDbScale
 70
     0
300
1/4" = 1'-0"
140
0.25
141
12.0
290
     0
1001
ACAD
1000
AcRTDxfName
1000
SCALE
  0
SCALE
  5
EAC
102
{ACAD_REACTORS
330
EA2
102
}
330
EA2
100
AcDbScale
 70
     0
300
3/8" = 1'-0"
140
0.375
141
12.0
290
     0
1001
ACAD
1000
AcRTDxfName
1000
SCALE
  0
SCALE
  5
EAD
102
{ACAD_REACTORS
330
EA2
102
}
330
EA2
100
AcDbScale
 70
     0
300
1/2" = 1'-0"
140
0.5
141
12.0
290
     0
1001
ACAD
1000
AcRTDxfName
1000
SCALE
  0
SCALE
  5
EAE
102
{ACAD_REACTORS
330
EA2
102
}
330
EA2
100
AcDbScale
 70
     0
300
3/4" = 1'-0"
140
0.75
141
12.0
290
     0
1001
ACAD
1000
AcRTDxfName
1000
SCALE
  0
SCALE
  5
EAF
102
{ACAD_REACTORS
330
EA2
102
}
330
EA2
100
AcDbScale
 70
     0
300
1" = 1'-0"
140
1.0
141
12.0
290
     0
1001
ACAD
1000
AcRTDxfName
1000
SCALE
  0
SCALE
  5
EB0
102
{ACAD_REACTORS
330
EA2
102
}
330
EA2
100
AcDbScale
 70
     0
300
1-1/2" = 1'-0"
140
1.5
141
12.0
290
     0
1001
ACAD
1000
AcRTDxfName
1000
SCALE
  0
SCALE
  5
EB1
102
{ACAD_REACTORS
330
EA2
102
}
330
EA2
100
AcDbScale
 70
     0
300
3" = 1'-0"
140
3.0
141
12.0
290
     0
1001
ACAD
1000
AcRTDxfName
1000
SCALE
  0
SCALE
  5
EB2
102
{ACAD_REACTORS
330
EA2
102
}
330
EA2
100
AcDbScale
 70
     0
300
6" = 1'-0"
140
6.0
141
12.0
290
     0
1001
ACAD
1000
AcRTDxfName
1000
SCALE
  0
SCALE
  5
EB3
102
{ACAD_REACTORS
330
EA2
102
}
330
EA2
100
AcDbScale
 70
     0
300
1'-0" = 1'-0"
140
12.0
141
12.0
290
     0
1001
ACAD
1000
AcRTDxfName
1000
SCALE
  0
TABLESTYLE
  5
31
102
{ACAD_XDICTIONARY
360
F83
102
}
102
{ACAD_REACTORS
330
30
102
}
330
30
100
AcDbTableStyle
  3
Standard
 70
     0
 71
     0
 40
0.06
 41
0.06
280
     0
281
     0
  7
STANDARD
140
0.18
170
     2
 62
     0
 63
     7
283
     0
274
    -2
284
     1
 64
     0
275
    -2
285
     1
 65
     0
276
    -2
286
     1
 66
     0
277
    -2
287
     1
 67
     0
278
    -2
288
     1
 68
     0
279
    -2
289
     1
 69
     0
  7
STANDARD
140
0.25
170
     5
 62
     0
 63
     7
283
     0
274
    -2
284
     1
 64
     0
275
    -2
285
     1
 65
     0
276
    -2
286
     1
 66
     0
277
    -2
287
     1
 67
     0
278
    -2
288
     1
 68
     0
279
    -2
289
     1
 69
     0
  7
STANDARD
140
0.18
170
     5
 62
     0
 63
     7
283
     0
274
    -2
284
     1
 64
     0
275
    -2
285
     1
 65
     0
276
    -2
286
     1
 66
     0
277
    -2
287
     1
 67
     0
278
    -2
288
     1
 68
     0
279
    -2
289
     1
 69
     0
  0
VISUALSTYLE
  5
1A
102
{ACAD_XDICTIONARY
360
185B
102
}
102
{ACAD_REACTORS
330
14
102
}
330
14
100
AcDbVisualStyle
  2

 70
     4
 71
     0
 72
     2
 73
     0
 90
        0
 40
-0.6
 41
-30.0
 62
     5
 63
     7
 74
     1
 91
        4
 64
     7
 65
   257
 75
     1
175
     1
 42
1.0
 92
        0
 66
   257
 43
1.0
 76
     1
 77
     6
 78
     2
 67
     7
 79
     5
170
     0
171
     0
290
     0
174
     0
 93
        1
 44
0.0
173
     0
291
     0
 45
0.0
1001
ACAD
1000
AcDbSavedByObjectVersion
1070
     0
  0
VISUALSTYLE
  5
1C
102
{ACAD_XDICTIONARY
360
185F
102
}
102
{ACAD_REACTORS
330
14
102
}
330
14
100
AcDbVisualStyle
  2

 70
     6
 71
     1
 72
     2
 73
     2
 90
        0
 40
-0.6
 41
-30.0
 62
     5
 63
     7
 74
     2
 91
        2
 64
     7
 65
   257
 75
     2
175
     1
 42
40.0
 92
        0
 66
   257
 43
1.0
 76
     1
 77
     6
 78
     2
 67
     7
 79
     3
170
     0
171
     0
290
     0
174
     0
 93
        1
 44
0.0
173
     0
291
     0
 45
0.0
1001
ACAD
1000
AcDbSavedByObjectVersion
1070
     0
  0
VISUALSTYLE
  5
1B
102
{ACAD_XDICTIONARY
360
185D
102
}
102
{ACAD_REACTORS
330
14
102
}
330
14
100
AcDbVisualStyle
  2

 70
     5
 71
     0
 72
     2
 73
     0
 90
        0
 40
-0.6
 41
-30.0
 62
     5
 63
     7
 74
     1
 91
        4
 64
     7
 65
   257
 75
     1
175
     1
 42
1.0
 92
        0
 66
   257
 43
1.0
 76
     1
 77
     6
 78
     2
 67
     7
 79
     5
170
     0
171
     0
290
     0
174
     0
 93
        1
 44
0.0
173
     0
291
     0
 45
0.0
1001
ACAD
1000
AcDbSavedByObjectVersion
1070
     0
  0
VISUALSTYLE
  5
19
102
{ACAD_XDICTIONARY
360
1859
102
}
102
{ACAD_REACTORS
330
14
102
}
330
14
100
AcDbVisualStyle
  2

 70
     7
 71
     1
 72
     0
 73
     1
 90
        0
 40
-0.6
 41
-30.0
 62
     5
 63
     7
 74
     0
 91
        4
 64
     7
 65
   257
 75
     1
175
     1
 42
1.0
 92
        8
 66
     7
 43
1.0
 76
     1
 77
     6
 78
     2
 67
     7
 79
     5
170
     0
171
     0
290
     0
174
     0
 93
        1
 44
0.0
173
     0
291
     1
 45
0.0
1001
ACAD
1000
AcDbSavedByObjectVersion
1070
     0
  0
VISUALSTYLE
  5
20
102
{ACAD_XDICTIONARY
360
1867
102
}
102
{ACAD_REACTORS
330
14
102
}
330
14
100
AcDbVisualStyle
  2

 70
    12
 71
     2
 72
     2
 73
     0
 90
        0
 40
-0.6
 41
-30.0
 62
     5
 63
     7
 74
     1
 91
        4
 64
     7
 65
   257
 75
     1
175
     1
 42
1.0
 92
        8
 66
     7
 43
1.0
 76
     1
 77
     6
 78
     2
 67
     7
 79
     5
170
     0
171
     0
290
     0
174
     0
 93
        1
 44
50.0
173
     0
291
     1
 45
0.0
1001
ACAD
1000
AcDbSavedByObjectVersion
1070
     0
  0
VISUALSTYLE
  5
24
102
{ACAD_XDICTIONARY
360
186F
102
}
102
{ACAD_REACTORS
330
14
102
}
330
14
100
AcDbVisualStyle
  2

 70
    16
 71
     2
 72
     2
 73
     3
 90
        0
 40
-0.6
 41
-30.0
 62
     5
 63
     8
 74
     1
 91
        4
 64
     7
 65
   257
 75
     1
175
     1
 42
1.0
 92
        8
 66
     8
 43
1.0
 76
     1
 77
     6
 78
     2
 67
     7
 79
     5
170
     0
171
     0
290
     0
174
     0
 93
        1
 44
0.0
173
     0
291
     1
 45
0.0
1001
ACAD
1000
AcDbSavedByObjectVersion
1070
     0
  0
VISUALSTYLE
  5
1D
102
{ACAD_XDICTIONARY
360
1861
102
}
102
{ACAD_REACTORS
330
14
102
}
330
14
100
AcDbVisualStyle
  2

 70
     9
 71
     3
 72
     2
 73
     0
 90
        0
 40
-0.6
 41
-30.0
 62
     5
 63
     7
 74
     2
 91
        2
 64
     7
 65
   257
 75
     1
175
     1
 42
40.0
 92
        8
 66
     7
 43
1.0
 76
     1
 77
     6
 78
     2
 67
     7
 79
     3
170
     0
171
     0
290
     0
174
     0
 93
        1
 44
0.0
173
     0
291
     0
 45
0.0
1001
ACAD
1000
AcDbSavedByObjectVersion
1070
     0
  0
VISUALSTYLE
  5
1F
102
{ACAD_XDICTIONARY
360
1865
102
}
102
{ACAD_REACTORS
330
14
102
}
330
14
100
AcDbVisualStyle
  2

 70
    11
 71
     2
 72
     2
 73
     0
 90
        0
 40
-0.6
 41
-30.0
 62
     5
 63
     7
 74
     1
 91
        4
 64
     7
 65
   257
 75
     1
175
     1
 42
1.0
 92
        8
 66
     7
 43
1.0
 76
     1
 77
     6
 78
     2
 67
     7
 79
     5
170
     0
171
     0
290
     0
174
     0
 93
        1
 44
-50.0
173
     0
291
     1
 45
0.0
1001
ACAD
1000
AcDbSavedByObjectVersion
1070
     0
  0
VISUALSTYLE
  5
EA1
102
{ACAD_XDICTIONARY
360
1888
102
}
102
{ACAD_REACTORS
330
14
102
}
330
14
100
AcDbVisualStyle
  2

 70
    22
 71
     2
 72
     2
 73
     0
 90
        0
 40
-0.6
 41
-30.0
 62
     5
 63
     7
 74
     1
 91
        4
 64
     7
 65
   257
 75
     1
175
     1
 42
1.0
 92
        8
 66
     7
 43
1.0
 76
     1
 77
     6
 78
     2
 67
     7
 79
     5
170
     0
171
     0
290
     0
174
     0
 93
        1
 44
0.0
173
     0
291
     1
 45
0.0
1001
ACAD
1000
AcDbSavedByObjectVersion
1070
     0
  0
VISUALSTYLE
  5
23
102
{ACAD_XDICTIONARY
360
186D
102
}
102
{ACAD_REACTORS
330
14
102
}
330
14
100
AcDbVisualStyle
  2

 70
    15
 71
     2
 72
     2
 73
     0
 90
        0
 40
-0.6
 41
-30.0
 62
     5
 63
     7
 74
     1
 91
        4
 64
     7
 65
   257
 75
     1
175
     1
 42
1.0
 92
        8
 66
     7
 43
1.0
 76
     1
 77
     6
 78
     2
 67
     7
 79
     5
170
     0
171
     0
290
     0
174
     0
 93
        1
 44
0.0
173
     0
291
     1
 45
0.0
1001
ACAD
1000
AcDbSavedByObjectVersion
1070
     0
  0
VISUALSTYLE
  5
15
102
{ACAD_XDICTIONARY
360
1851
102
}
102
{ACAD_REACTORS
330
14
102
}
330
14
100
AcDbVisualStyle
  2

 70
     0
 71
     2
 72
     1
 73
     1
 90
        2
 40
-0.6
 41
30.0
 62
     5
 63
     7
 74
     0
 91
        4
 64
     7
 65
   257
 75
     1
175
     1
 42
1.0
 92
        8
 66
     7
 43
1.0
 76
     1
 77
     6
 78
     2
 67
     7
 79
     5
170
     0
171
     0
290
     0
174
     0
 93
       13
 44
0.0
173
     0
291
     1
 45
0.0
1001
ACAD
1000
AcDbSavedByObjectVersion
1070
     0
  0
VISUALSTYLE
  5
16
102
{ACAD_XDICTIONARY
360
1853
102
}
102
{ACAD_REACTORS
330
14
102
}
330
14
100
AcDbVisualStyle
  2

 70
     1
 71
     2
 72
     1
 73
     1
 90
        2
 40
-0.6
 41
30.0
 62
     5
 63
     7
 74
     1
 91
        4
 64
     7
 65
   257
 75
     1
175
     1
 42
1.0
 92
        0
 66
   257
 43
1.0
 76
     1
 77
     6
 78
     2
 67
     7
 79
     5
170
     0
171
     0
290
     0
174
     0
 93
       13
 44
0.0
173
     0
291
     1
 45
0.0
1001
ACAD
1000
AcDbSavedByObjectVersion
1070
     0
  0
VISUALSTYLE
  5
17
102
{ACAD_XDICTIONARY
360
1855
102
}
102
{ACAD_REACTORS
330
14
102
}
330
14
100
AcDbVisualStyle
  2

 70
     2
 71
     2
 72
     2
 73
     1
 90
        2
 40
-0.6
 41
30.0
 62
     5
 63
     7
 74
     0
 91
        4
 64
     7
 65
   257
 75
     1
175
     1
 42
1.0
 92
        0
 66
     7
 43
1.0
 76
     1
 77
     6
 78
     2
 67
     7
 79
     5
170
     0
171
     0
290
     0
174
     0
 93
       13
 44
0.0
173
     0
291
     1
 45
0.0
1001
ACAD
1000
AcDbSavedByObjectVersion
1070
     0
  0
VISUALSTYLE
  5
18
102
{ACAD_XDICTIONARY
360
1857
102
}
102
{ACAD_REACTORS
330
14
102
}
330
14
100
AcDbVisualStyle
  2

 70
     3
 71
     2
 72
     2
 73
     1
 90
        2
 40
-0.6
 41
30.0
 62
     5
 63
     7
 74
     1
 91
        4
 64
     7
 65
   257
 75
     1
175
     1
 42
1.0
 92
        0
 66
   257
 43
1.0
 76
     1
 77
     6
 78
     2
 67
     7
 79
     5
170
     0
171
     0
290
     0
174
     0
 93
       13
 44
0.0
173
     0
291
     1
 45
0.0
1001
ACAD
1000
AcDbSavedByObjectVersion
1070
     0
  0
VISUALSTYLE
  5
E99
102
{ACAD_XDICTIONARY
360
1878
102
}
102
{ACAD_REACTORS
330
14
102
}
330
14
100
AcDbVisualStyle
  2

 70
     6
 71
     1
 72
     2
 73
     2
 90
        0
 40
-0.6
 41
-30.0
 62
     5
 63
     7
 74
     2
 91
        2
 64
     7
 65
   257
 75
     2
175
     1
 42
40.0
 92
        0
 66
   257
 43
1.0
 76
     1
 77
     6
 78
     2
 67
     7
 79
     3
170
     0
171
     0
290
     0
174
     0
 93
        1
 44
0.0
173
     0
291
     0
 45
0.0
1001
ACAD
1000
AcDbSavedByObjectVersion
1070
     0
  0
VISUALSTYLE
  5
E9F
102
{ACAD_XDICTIONARY
360
1884
102
}
102
{ACAD_REACTORS
330
14
102
}
330
14
100
AcDbVisualStyle
  2

 70
    20
 71
     2
 72
     2
 73
     0
 90
        0
 40
-0.6
 41
-30.0
 62
     5
 63
     7
 74
     1
 91
        4
 64
     7
 65
   257
 75
     1
175
     1
 42
1.0
 92
       10
 66
     7
 43
1.0
 76
     1
 77
     6
 78
     2
 67
     7
 79
     5
170
     0
171
     0
290
     0
174
     0
 93
        1
 44
0.0
173
     0
291
     1
 45
0.0
1001
ACAD
1000
AcDbSavedByObjectVersion
1070
     0
  0
VISUALSTYLE
  5
22
102
{ACAD_XDICTIONARY
360
186B
102
}
102
{ACAD_REACTORS
330
14
102
}
330
14
100
AcDbVisualStyle
  2

 70
    14
 71
     2
 72
     2
 73
     0
 90
        0
 40
-0.6
 41
-30.0
 62
     5
 63
     7
 74
     1
 91
        4
 64
     7
 65
   257
 75
     7
175
     7
 42
1.0
 92
        8
 66
     7
 43
1.0
 76
     1
 77
     6
 78
     2
 67
     7
 79
     5
170
     0
171
     0
290
     0
174
     0
 93
        1
 44
0.0
173
     0
291
     1
 45
0.0
1001
ACAD
1000
AcDbSavedByObjectVersion
1070
     0
  0
VISUALSTYLE
  5
EA0
102
{ACAD_XDICTIONARY
360
1886
102
}
102
{ACAD_REACTORS
330
14
102
}
330
14
100
AcDbVisualStyle
  2

 70
    21
 71
     2
 72
     2
 73
     0
 90
        0
 40
-0.6
 41
-30.0
 62
     5
 63
     7
 74
     1
 91
        4
 64
     7
 65
   257
 75
     1
175
     1
 42
1.0
 92
        9
 66
     7
 43
1.0
 76
     1
 77
     6
 78
     2
 67
     7
 79
     5
170
     0
171
     0
290
     0
174
     0
 93
        1
 44
0.0
173
     0
291
     1
 45
0.0
1001
ACAD
1000
AcDbSavedByObjectVersion
1070
     0
  0
VISUALSTYLE
  5
1E
102
{ACAD_XDICTIONARY
360
1863
102
}
102
{ACAD_REACTORS
330
14
102
}
330
14
100
AcDbVisualStyle
  2

 70
     8
 71
     2
 72
     2
 73
     0
 90
        0
 40
-0.6
 41
-30.0
 62
     5
 63
     7
 74
     1
 91
        0
 64
     7
 65
   257
 75
     1
175
     1
 42
1.0
 92
        8
 66
     8
 43
1.0
 76
     1
 77
     6
 78
     2
 67
     7
 79
     5
170
     0
171
     0
290
     0
174
     0
 93
       13
 44
0.0
173
     0
291
     0
 45
0.0
1001
ACAD
1000
AcDbSavedByObjectVersion
1070
     0
  0
VISUALSTYLE
  5
E9E
102
{ACAD_XDICTIONARY
360
1882
102
}
102
{ACAD_REACTORS
330
14
102
}
330
14
100
AcDbVisualStyle
  2

 70
    27
 71
     2
 72
     2
 73
     1
 90
        2
 40
-0.6
 41
30.0
 62
     5
 63
     7
 74
     0
 91
        4
 64
     7
 65
   257
 75
     1
175
     1
 42
1.0
 92
        8
 66
   257
 43
1.0
 76
     1
 77
     6
 78
     2
 67
     8
 79
     3
170
     0
171
     0
290
     0
174
     0
 93
        5
 44
0.0
173
     0
291
     0
 45
0.0
1001
ACAD
1000
AcDbSavedByObjectVersion
1070
     0
  0
VISUALSTYLE
  5
E9D
102
{ACAD_XDICTIONARY
360
1880
102
}
102
{ACAD_REACTORS
330
14
102
}
330
14
100
AcDbVisualStyle
  2

 70
    26
 71
     2
 72
     2
 73
     1
 90
        2
 40
-0.6
 41
30.0
 62
     5
 63
     7
 74
     1
 91
       10
 64
     7
 65
   257
 75
     2
175
     1
 42
1.0
 92
        8
 66
   257
 43
1.0
 76
     1
 77
     6
 78
     2
 67
     7
 79
     3
170
     0
171
     0
290
     0
174
     0
 93
        5
 44
0.0
173
     0
291
     0
 45
0.0
1001
ACAD
1000
AcDbSavedByObjectVersion
1070
     0
  0
VISUALSTYLE
  5
E9A
102
{ACAD_XDICTIONARY
360
187A
102
}
102
{ACAD_REACTORS
330
14
102
}
330
14
100
AcDbVisualStyle
  2

 70
    23
 71
     2
 72
     2
 73
     3
 90
        0
 40
-0.6
 41
-30.0
 62
     5
 63
     7
 74
     2
 91
        2
 64
     7
 65
     7
 75
     1
175
     1
 42
40.0
 92
        8
 66
     7
 43
1.0
 76
     1
 77
     6
 78
     2
 67
     7
 79
     3
170
     0
171
     0
290
     0
174
     0
 93
        1
 44
0.0
173
     0
291
     0
 45
0.0
1001
ACAD
1000
AcDbSavedByObjectVersion
1070
     0
  0
VISUALSTYLE
  5
E9B
102
{ACAD_XDICTIONARY
360
187C
102
}
102
{ACAD_REACTORS
330
14
102
}
330
14
100
AcDbVisualStyle
  2

 70
    24
 71
     1
 72
     2
 73
     2
 90
        0
 40
-0.6
 41
-30.0
 62
     5
 63
     7
 74
     2
 91
        2
 64
     7
 65
     7
 75
     1
175
     1
 42
40.0
 92
       11
 66
     7
 43
1.0
 76
     1
 77
     6
 78
     2
 67
     7
 79
     6
170
     0
171
     0
290
     0
174
     0
 93
        1
 44
0.0
173
     0
291
     0
 45
0.0
1001
ACAD
1000
AcDbSavedByObjectVersion
1070
     0
  0
VISUALSTYLE
  5
21
102
{ACAD_XDICTIONARY
360
1869
102
}
102
{ACAD_REACTORS
330
14
102
}
330
14
100
AcDbVisualStyle
  2

 70
    13
 71
     2
 72
     2
 73
     0
 90
        0
 40
-0.6
 41
-30.0
 62
     5
 63
     7
 74
     1
 91
        4
 64
     7
 65
   257
 75
     1
175
     1
 42
1.0
 92
       12
 66
     7
 43
1.0
 76
     1
 77
     6
 78
     2
 67
     7
 79
     5
170
     0
171
     0
290
     0
174
     0
 93
        1
 44
0.0
173
     0
291
     1
 45
0.0
1001
ACAD
1000
AcDbSavedByObjectVersion
1070
     0
  0
VISUALSTYLE
  5
E98
102
{ACAD_XDICTIONARY
360
1876
102
}
102
{ACAD_REACTORS
330
14
102
}
330
14
100
AcDbVisualStyle
  2

 70
     5
 71
     0
 72
     2
 73
     0
 90
        0
 40
-0.6
 41
-30.0
 62
     5
 63
     7
 74
     1
 91
        4
 64
     7
 65
   257
 75
     1
175
     1
 42
1.0
 92
        0
 66
   257
 43
1.0
 76
     1
 77
     6
 78
     2
 67
     7
 79
     3
170
     0
171
     0
290
     0
174
     0
 93
        1
 44
0.0
173
     0
291
     0
 45
0.0
1001
ACAD
1000
AcDbSavedByObjectVersion
1070
     0
  0
VISUALSTYLE
  5
E9C
102
{ACAD_XDICTIONARY
360
187E
102
}
102
{ACAD_REACTORS
330
14
102
}
330
14
100
AcDbVisualStyle
  2

 70
    25
 71
     2
 72
     2
 73
     1
 90
        1
 40
0.5
 41
-30.0
 62
     5
 63
     7
 74
     1
 91
        0
 64
     7
 65
   257
 75
     1
175
     1
 42
1.0
 92
        8
 66
     7
 43
1.0
 76
     1
 77
     6
 78
     2
 67
     7
 79
     3
170
     0
171
     0
290
     0
174
     0
 93
       13
 44
0.0
173
     0
291
     0
 45
0.0
1001
ACAD
1000
AcDbSavedByObjectVersion
1070
     0
  0
DICTIONARYVAR
  5
F81
102
{ACAD_REACTORS
330
925
102
}
330
925
100
DictionaryVariables
280
     0
  1
1:1
  0
DICTIONARYVAR
  5
F80
102
{ACAD_REACTORS
330
925
102
}
330
925
100
DictionaryVariables
280
     0
  1
STANDARD
  0
DICTIONARYVAR
  5
926
102
{ACAD_REACTORS
330
925
102
}
330
925
100
DictionaryVariables
280
     0
  1
STANDARD
  0
DICTIONARYVAR
  5
E80
102
{ACAD_REACTORS
330
925
102
}
330
925
100
DictionaryVariables
280
     0
  1
1
  0
DICTIONARYVAR
  5
E7F
102
{ACAD_REACTORS
330
925
102
}
330
925
100
DictionaryVariables
280
     0
  1
0
  0
DICTIONARYVAR
  5
E7E
102
{ACAD_REACTORS
330
925
102
}
330
925
100
DictionaryVariables
280
     0
  1
127
  0
DICTIONARYVAR
  5
17A8
102
{ACAD_REACTORS
330
925
102
}
330
925
100
DictionaryVariables
280
     0
  1
2
  0
DICTIONARY
  5
1874
330
39
100
AcDbDictionary
280
     1
281
     1
  3
ACAD_XREC_ROUNDTRIP
360
1875
  0
DICTIONARY
  5
1872
330
35
100
AcDbDictionary
280
     1
281
     1
  3
ACAD_XREC_ROUNDTRIP
360
1873
  0
DICTIONARY
  5
E88
330
12
100
AcDbDictionary
280
     1
281
     1
  3
ACAD_XREC_ROUNDTRIP
360
E89
  0
DICTIONARY
  5
E86
330
11
100
AcDbDictionary
280
     1
281
     1
  3
ACAD_XREC_ROUNDTRIP
360
E87
  0
DICTIONARY
  5
E8A
330
13
100
AcDbDictionary
280
     1
281
     1
  3
ACAD_XREC_ROUNDTRIP
360
E8B
  0
DICTIONARY
  5
F83
330
31
100
AcDbDictionary
280
     1
281
     1
  3
ACAD_ROUNDTRIP_2008_TABLESTYLE_CELLSTYLEMAP
360
184A
  3
ACAD_XREC_ROUNDTRIP
360
1871
  0
DICTIONARY
  5
185B
330
1A
100
AcDbDictionary
280
     1
281
     1
  3
ACAD_XREC_ROUNDTRIP
360
185C
  0
DICTIONARY
  5
185F
330
1C
100
AcDbDictionary
280
     1
281
     1
  3
ACAD_XREC_ROUNDTRIP
360
1860
  0
DICTIONARY
  5
185D
330
1B
100
AcDbDictionary
280
     1
281
     1
  3
ACAD_XREC_ROUNDTRIP
360
185E
  0
DICTIONARY
  5
1859
330
19
100
AcDbDictionary
280
     1
281
     1
  3
ACAD_XREC_ROUNDTRIP
360
185A
  0
DICTIONARY
  5
1867
330
20
100
AcDbDictionary
280
     1
281
     1
  3
ACAD_XREC_ROUNDTRIP
360
1868
  0
DICTIONARY
  5
186F
330
24
100
AcDbDictionary
280
     1
281
     1
  3
ACAD_XREC_ROUNDTRIP
360
1870
  0
DICTIONARY
  5
1861
330
1D
100
AcDbDictionary
280
     1
281
     1
  3
ACAD_XREC_ROUNDTRIP
360
1862
  0
DICTIONARY
  5
1865
330
1F
100
AcDbDictionary
280
     1
281
     1
  3
ACAD_XREC_ROUNDTRIP
360
1866
  0
DICTIONARY
  5
1888
330
EA1
100
AcDbDictionary
280
     1
281
     1
  3
ACAD_XREC_ROUNDTRIP
360
1889
  0
DICTIONARY
  5
186D
330
23
100
AcDbDictionary
280
     1
281
     1
  3
ACAD_XREC_ROUNDTRIP
360
186E
  0
DICTIONARY
  5
1851
330
15
100
AcDbDictionary
280
     1
281
     1
  3
ACAD_XREC_ROUNDTRIP
360
1852
  0
DICTIONARY
  5
1853
330
16
100
AcDbDictionary
280
     1
281
     1
  3
ACAD_XREC_ROUNDTRIP
360
1854
  0
DICTIONARY
  5
1855
330
17
100
AcDbDictionary
280
     1
281
     1
  3
ACAD_XREC_ROUNDTRIP
360
1856
  0
DICTIONARY
  5
1857
330
18
100
AcDbDictionary
280
     1
281
     1
  3
ACAD_XREC_ROUNDTRIP
360
1858
  0
DICTIONARY
  5
1878
330
E99
100
AcDbDictionary
280
     1
281
     1
  3
ACAD_XREC_ROUNDTRIP
360
1879
  0
DICTIONARY
  5
1884
330
E9F
100
AcDbDictionary
280
     1
281
     1
  3
ACAD_XREC_ROUNDTRIP
360
1885
  0
DICTIONARY
  5
186B
330
22
100
AcDbDictionary
280
     1
281
     1
  3
ACAD_XREC_ROUNDTRIP
360
186C
  0
DICTIONARY
  5
1886
330
EA0
100
AcDbDictionary
280
     1
281
     1
  3
ACAD_XREC_ROUNDTRIP
360
1887
  0
DICTIONARY
  5
1863
330
1E
100
AcDbDictionary
280
     1
281
     1
  3
ACAD_XREC_ROUNDTRIP
360
1864
  0
DICTIONARY
  5
1882
330
E9E
100
AcDbDictionary
280
     1
281
     1
  3
ACAD_XREC_ROUNDTRIP
360
1883
  0
DICTIONARY
  5
1880
330
E9D
100
AcDbDictionary
280
     1
281
     1
  3
ACAD_XREC_ROUNDTRIP
360
1881
  0
DICTIONARY
  5
187A
330
E9A
100
AcDbDictionary
280
     1
281
     1
  3
ACAD_XREC_ROUNDTRIP
360
187B
  0
DICTIONARY
  5
187C
330
E9B
100
AcDbDictionary
280
     1
281
     1
  3
ACAD_XREC_ROUNDTRIP
360
187D
  0
DICTIONARY
  5
1869
330
21
100
AcDbDictionary
280
     1
281
     1
  3
ACAD_XREC_ROUNDTRIP
360
186A
  0
DICTIONARY
  5
1876
330
E98
100
AcDbDictionary
280
     1
281
     1
  3
ACAD_XREC_ROUNDTRIP
360
1877
  0
DICTIONARY
  5
187E
330
E9C
100
AcDbDictionary
280
     1
281
     1
  3
ACAD_XREC_ROUNDTRIP
360
187F
  0
XRECORD
  5
1875
102
{ACAD_REACTORS
330
1874
102
}
330
1874
100
AcDbXrecord
280
     1
102
SHADEPLOT
 70
     0
102
SHADEPLOTRESLEVEL
 70
     2
102
SHADEPLOTCUSTOMDPI
 70
   300
  0
XRECORD
  5
1873
102
{ACAD_REACTORS
330
1872
102
}
330
1872
100
AcDbXrecord
280
     1
102
SHADEPLOT
 70
     0
102
SHADEPLOTRESLEVEL
 70
     2
102
SHADEPLOTCUSTOMDPI
 70
   300
  0
XRECORD
  5
E89
102
{ACAD_REACTORS
330
E88
102
}
330
E88
100
AcDbXrecord
280
     1
102
MATERIAL
148
0.0
149
0.0
149
0.0
 93
        0
 94
      127
282
     0
 72
     1
 77
     1
171
     1
175
     1
179
     1
273
     0
  0
XRECORD
  5
E87
102
{ACAD_REACTORS
330
E86
102
}
330
E86
100
AcDbXrecord
280
     1
102
MATERIAL
148
0.0
149
0.0
149
0.0
 93
        0
 94
      127
282
     0
 72
     1
 77
     1
171
     1
175
     1
179
     1
273
     0
  0
XRECORD
  5
E8B
102
{ACAD_REACTORS
330
E8A
102
}
330
E8A
100
AcDbXrecord
280
     1
102
MATERIAL
148
0.0
149
0.0
149
0.0
 93
        0
 94
      127
282
     0
 72
     1
 77
     1
171
     1
175
     1
179
     1
273
     0
  0
CELLSTYLEMAP
  5
184A
102
{ACAD_REACTORS
330
F83
102
}
330
F83
100
AcDbCellStyleMap
 90
        3
300
CELLSTYLE
  1
TABLEFORMAT_BEGIN
 90
        5
170
     1
 91
        0
 92
    32768
 62
   257
 93
        1
300
CONTENTFORMAT
  1
CONTENTFORMAT_BEGIN
 90
        0
 91
        0
 92
      512
 93
        0
300

 40
0.0
140
1.0
 94
        5
 62
     0
340
26
144
0.25
309
CONTENTFORMAT_END
171
     1
301
MARGIN
  1
CELLMARGIN_BEGIN
 40
0.06
 40
0.06
 40
0.06
 40
0.06
 40
0.18
 40
0.18
309
CELLMARGIN_END
 94
        6
 95
        1
302
GRIDFORMAT
  1
GRIDFORMAT_BEGIN
 90
        0
 91
        1
 62
     0
 92
       -2
340
0
 93
        0
 40
0.045
309
GRIDFORMAT_END
 95
        2
302
GRIDFORMAT
  1
GRIDFORMAT_BEGIN
 90
        0
 91
        1
 62
     0
 92
       -2
340
0
 93
        0
 40
0.045
309
GRIDFORMAT_END
 95
        4
302
GRIDFORMAT
  1
GRIDFORMAT_BEGIN
 90
        0
 91
        1
 62
     0
 92
       -2
340
0
 93
        0
 40
0.045
309
GRIDFORMAT_END
 95
        8
302
GRIDFORMAT
  1
GRIDFORMAT_BEGIN
 90
        0
 91
        1
 62
     0
 92
       -2
340
0
 93
        0
 40
0.045
309
GRIDFORMAT_END
 95
       16
302
GRIDFORMAT
  1
GRIDFORMAT_BEGIN
 90
        0
 91
        1
 62
     0
 92
       -2
340
0
 93
        0
 40
0.045
309
GRIDFORMAT_END
 95
       32
302
GRIDFORMAT
  1
GRIDFORMAT_BEGIN
 90
        0
 91
        1
 62
     0
 92
       -2
340
0
 93
        0
 40
0.045
309
GRIDFORMAT_END
309
TABLEFORMAT_END
  1
CELLSTYLE_BEGIN
 90
        1
 91
        1
300
_TITLE
309
CELLSTYLE_END
300
CELLSTYLE
  1
TABLEFORMAT_BEGIN
 90
        5
170
     1
 91
        0
 92
        0
 62
   257
 93
        1
300
CONTENTFORMAT
  1
CONTENTFORMAT_BEGIN
 90
        0
 91
        0
 92
      512
 93
        0
300

 40
0.0
140
1.0
 94
        5
 62
     0
340
26
144
0.18
309
CONTENTFORMAT_END
171
     1
301
MARGIN
  1
CELLMARGIN_BEGIN
 40
0.06
 40
0.06
 40
0.06
 40
0.06
 40
0.18
 40
0.18
309
CELLMARGIN_END
 94
        6
 95
        1
302
GRIDFORMAT
  1
GRIDFORMAT_BEGIN
 90
        0
 91
        1
 62
     0
 92
       -2
340
0
 93
        0
 40
0.045
309
GRIDFORMAT_END
 95
        2
302
GRIDFORMAT
  1
GRIDFORMAT_BEGIN
 90
        0
 91
        1
 62
     0
 92
       -2
340
0
 93
        0
 40
0.045
309
GRIDFORMAT_END
 95
        4
302
GRIDFORMAT
  1
GRIDFORMAT_BEGIN
 90
        0
 91
        1
 62
     0
 92
       -2
340
0
 93
        0
 40
0.045
309
GRIDFORMAT_END
 95
        8
302
GRIDFORMAT
  1
GRIDFORMAT_BEGIN
 90
        0
 91
        1
 62
     0
 92
       -2
340
0
 93
        0
 40
0.045
309
GRIDFORMAT_END
 95
       16
302
GRIDFORMAT
  1
GRIDFORMAT_BEGIN
 90
        0
 91
        1
 62
     0
 92
       -2
340
0
 93
        0
 40
0.045
309
GRIDFORMAT_END
 95
       32
302
GRIDFORMAT
  1
GRIDFORMAT_BEGIN
 90
        0
 91
        1
 62
     0
 92
       -2
340
0
 93
        0
 40
0.045
309
GRIDFORMAT_END
309
TABLEFORMAT_END
  1
CELLSTYLE_BEGIN
 90
        2
 91
        1
300
_HEADER
309
CELLSTYLE_END
300
CELLSTYLE
  1
TABLEFORMAT_BEGIN
 90
        5
170
     1
 91
        0
 92
        0
 62
   257
 93
        1
300
CONTENTFORMAT
  1
CONTENTFORMAT_BEGIN
 90
        0
 91
        0
 92
      512
 93
        0
300

 40
0.0
140
1.0
 94
        2
 62
     0
340
26
144
0.18
309
CONTENTFORMAT_END
171
     1
301
MARGIN
  1
CELLMARGIN_BEGIN
 40
0.06
 40
0.06
 40
0.06
 40
0.06
 40
0.18
 40
0.18
309
CELLMARGIN_END
 94
        6
 95
        1
302
GRIDFORMAT
  1
GRIDFORMAT_BEGIN
 90
        0
 91
        1
 62
     0
 92
       -2
340
0
 93
        0
 40
0.045
309
GRIDFORMAT_END
 95
        2
302
GRIDFORMAT
  1
GRIDFORMAT_BEGIN
 90
        0
 91
        1
 62
     0
 92
       -2
340
0
 93
        0
 40
0.045
309
GRIDFORMAT_END
 95
        4
302
GRIDFORMAT
  1
GRIDFORMAT_BEGIN
 90
        0
 91
        1
 62
     0
 92
       -2
340
0
 93
        0
 40
0.045
309
GRIDFORMAT_END
 95
        8
302
GRIDFORMAT
  1
GRIDFORMAT_BEGIN
 90
        0
 91
        1
 62
     0
 92
       -2
340
0
 93
        0
 40
0.045
309
GRIDFORMAT_END
 95
       16
302
GRIDFORMAT
  1
GRIDFORMAT_BEGIN
 90
        0
 91
        1
 62
     0
 92
       -2
340
0
 93
        0
 40
0.045
309
GRIDFORMAT_END
 95
       32
302
GRIDFORMAT
  1
GRIDFORMAT_BEGIN
 90
        0
 91
        1
 62
     0
 92
       -2
340
0
 93
        0
 40
0.045
309
GRIDFORMAT_END
309
TABLEFORMAT_END
  1
CELLSTYLE_BEGIN
 90
        3
 91
        2
300
_DATA
309
CELLSTYLE_END
  0
XRECORD
  5
1871
102
{ACAD_REACTORS
330
F83
102
}
330
F83
100
AcDbXrecord
280
     1
102
ACAD_ROUNDTRIP_PRE2007_TABLESTYLE
 90
      512
 91
        0
  1

 92
      512
 93
        0
  2

 94
      512
 95
        0
  3

  0
XRECORD
  5
185C
102
{ACAD_REACTORS
330
185B
102
}
330
185B
100
AcDbXrecord
280
     1
102
RTVSPropertyOp0
 70
     1
102
RTVSPropertyOp1
 70
     1
102
RTVSPropertyOp2
 70
     1
102
RTVSPropertyOp3
 70
     1
102
RTVSPropertyOp4
 70
     1
102
RTVSPropertyOp5
 70
     1
102
RTVSPropertyOp6
 70
     1
102
RTVSPropertyOp7
 70
     1
102
RTVSPropertyOp8
 70
     1
102
RTVSPropertyOp9
 70
     1
102
RTVSPropertyOp10
 70
     1
102
RTVSPropertyOp11
 70
     1
102
RTVSPropertyOp12
 70
     1
102
RTVSPropertyOp13
 70
     1
102
RTVSPropertyOp14
 70
     1
102
RTVSPropertyOp15
 70
     1
102
RTVSPropertyOp16
 70
     1
102
RTVSPropertyOp17
 70
     1
102
RTVSPropertyOp18
 70
     1
102
RTVSPropertyOp19
 70
     1
102
RTVSPropertyOp20
 70
     1
102
RTVSPropertyOp21
 70
     1
102
RTVSPropertyOp22
 70
     1
102
RTVSPropertyOp23
 70
     1
102
RTVSPropertyOp24
 70
     1
102
RTVSPropertyOp25
 70
     1
102
RTVSPropertyOp26
 70
     1
102
RTVSPropertyOp27
 70
     1
102
RTVSPropertyOp28
 70
     1
102
RTVSPropertyOp29
 70
     1
102
RTVSPropertyOp30
 70
     1
102
RTVSPropertyOp31
 70
     1
102
RTVSPropertyOp32
 70
     1
  0
XRECORD
  5
1860
102
{ACAD_REACTORS
330
185F
102
}
330
185F
100
AcDbXrecord
280
     1
102
RTVSPropertyOp0
 70
     1
102
RTVSPropertyOp1
 70
     1
102
RTVSPropertyOp2
 70
     1
102
RTVSPropertyOp3
 70
     1
102
RTVSPropertyOp4
 70
     1
102
RTVSPropertyOp5
 70
     1
102
RTVSPropertyOp6
 70
     1
102
RTVSPropertyOp7
 70
     1
102
RTVSPropertyOp8
 70
     1
102
RTVSPropertyOp9
 70
     1
102
RTVSPropertyOp10
 70
     1
102
RTVSPropertyOp11
 70
     1
102
RTVSPropertyOp12
 70
     1
102
RTVSPropertyOp13
 70
     1
102
RTVSPropertyOp14
 70
     1
102
RTVSPropertyOp15
 70
     1
102
RTVSPropertyOp16
 70
     1
102
RTVSPropertyOp17
 70
     1
102
RTVSPropertyOp18
 70
     1
102
RTVSPropertyOp19
 70
     1
102
RTVSPropertyOp20
 70
     1
102
RTVSPropertyOp21
 70
     1
102
RTVSPropertyOp22
 70
     1
102
RTVSPropertyOp23
 70
     1
102
RTVSPropertyOp24
 70
     1
102
RTVSPropertyOp25
 70
     1
102
RTVSPropertyOp26
 70
     1
102
RTVSPropertyOp27
 70
     1
102
RTVSPropertyOp28
 70
     1
102
RTVSPropertyOp29
 70
     1
102
RTVSPropertyOp30
 70
     1
102
RTVSPropertyOp31
 70
     1
102
RTVSPropertyOp32
 70
     1
  0
XRECORD
  5
185E
102
{ACAD_REACTORS
330
185D
102
}
330
185D
100
AcDbXrecord
280
     1
102
RTVSPropertyOp0
 70
     1
102
RTVSPropertyOp1
 70
     1
102
RTVSPropertyOp2
 70
     1
102
RTVSPropertyOp3
 70
     1
102
RTVSPropertyOp4
 70
     1
102
RTVSPropertyOp5
 70
     1
102
RTVSPropertyOp6
 70
     1
102
RTVSPropertyOp7
 70
     1
102
RTVSPropertyOp8
 70
     1
102
RTVSPropertyOp9
 70
     1
102
RTVSPropertyOp10
 70
     1
102
RTVSPropertyOp11
 70
     1
102
RTVSPropertyOp12
 70
     1
102
RTVSPropertyOp13
 70
     1
102
RTVSPropertyOp14
 70
     1
102
RTVSPropertyOp15
 70
     1
102
RTVSPropertyOp16
 70
     1
102
RTVSPropertyOp17
 70
     1
102
RTVSPropertyOp18
 70
     1
102
RTVSPropertyOp19
 70
     1
102
RTVSPropertyOp20
 70
     1
102
RTVSPropertyOp21
 70
     1
102
RTVSPropertyOp22
 70
     1
102
RTVSPropertyOp23
 70
     1
102
RTVSPropertyOp24
 70
     1
102
RTVSPropertyOp25
 70
     1
102
RTVSPropertyOp26
 70
     1
102
RTVSPropertyOp27
 70
     1
102
RTVSPropertyOp28
 70
     1
102
RTVSPropertyOp29
 70
     1
102
RTVSPropertyOp30
 70
     1
102
RTVSPropertyOp31
 70
     1
102
RTVSPropertyOp32
 70
     1
  0
XRECORD
  5
185A
102
{ACAD_REACTORS
330
1859
102
}
330
1859
100
AcDbXrecord
280
     1
102
RTVSPropertyOp0
 70
     1
102
RTVSPropertyOp1
 70
     1
102
RTVSPropertyOp2
 70
     1
102
RTVSPropertyOp3
 70
     1
102
RTVSPropertyOp4
 70
     1
102
RTVSPropertyOp5
 70
     1
102
RTVSPropertyOp6
 70
     1
102
RTVSPropertyOp7
 70
     1
102
RTVSPropertyOp8
 70
     1
102
RTVSPropertyOp9
 70
     1
102
RTVSPropertyOp10
 70
     1
102
RTVSPropertyOp11
 70
     1
102
RTVSPropertyOp12
 70
     1
102
RTVSPropertyOp13
 70
     1
102
RTVSPropertyOp14
 70
     1
102
RTVSPropertyOp15
 70
     1
102
RTVSPropertyOp16
 70
     1
102
RTVSPropertyOp17
 70
     1
102
RTVSPropertyOp18
 70
     1
102
RTVSPropertyOp19
 70
     1
102
RTVSPropertyOp20
 70
     1
102
RTVSPropertyOp21
 70
     1
102
RTVSPropertyOp22
 70
     1
102
RTVSPropertyOp23
 70
     1
102
RTVSPropertyOp24
 70
     1
102
RTVSPropertyOp25
 70
     1
102
RTVSPropertyOp26
 70
     1
102
RTVSPropertyOp27
 70
     1
102
RTVSPropertyOp28
 70
     1
102
RTVSPropertyOp29
 70
     1
102
RTVSPropertyOp30
 70
     1
102
RTVSPropertyOp31
 70
     1
102
RTVSPropertyOp32
 70
     1
  0
XRECORD
  5
1868
102
{ACAD_REACTORS
330
1867
102
}
330
1867
100
AcDbXrecord
280
     1
102
RTVSPropertyOp0
 70
     1
102
RTVSPropertyOp1
 70
     1
102
RTVSPropertyOp2
 70
     1
102
RTVSPropertyOp3
 70
     1
102
RTVSPropertyOp4
 70
     1
102
RTVSPropertyOp5
 70
     1
102
RTVSPropertyOp6
 70
     1
102
RTVSPropertyOp7
 70
     1
102
RTVSPropertyOp8
 70
     1
102
RTVSPropertyOp9
 70
     1
102
RTVSPropertyOp10
 70
     1
102
RTVSPropertyOp11
 70
     1
102
RTVSPropertyOp12
 70
     1
102
RTVSPropertyOp13
 70
     1
102
RTVSPropertyOp14
 70
     1
102
RTVSPropertyOp15
 70
     1
102
RTVSPropertyOp16
 70
     1
102
RTVSPropertyOp17
 70
     1
102
RTVSPropertyOp18
 70
     1
102
RTVSPropertyOp19
 70
     1
102
RTVSPropertyOp20
 70
     1
102
RTVSPropertyOp21
 70
     1
102
RTVSPropertyOp22
 70
     1
102
RTVSPropertyOp23
 70
     1
102
RTVSPropertyOp24
 70
     1
102
RTVSPropertyOp25
 70
     1
102
RTVSPropertyOp26
 70
     1
102
RTVSPropertyOp27
 70
     1
102
RTVSPropertyOp28
 70
     1
102
RTVSPropertyOp29
 70
     1
102
RTVSPropertyOp30
 70
     1
102
RTVSPropertyOp31
 70
     1
102
RTVSPropertyOp32
 70
     1
  0
XRECORD
  5
1870
102
{ACAD_REACTORS
330
186F
102
}
330
186F
100
AcDbXrecord
280
     1
102
RTVSPropertyOp0
 70
     1
102
RTVSPropertyOp1
 70
     1
102
RTVSPropertyOp2
 70
     1
102
RTVSPropertyOp3
 70
     1
102
RTVSPropertyOp4
 70
     1
102
RTVSPropertyOp5
 70
     1
102
RTVSPropertyOp6
 70
     1
102
RTVSPropertyOp7
 70
     1
102
RTVSPropertyOp8
 70
     1
102
RTVSPropertyOp9
 70
     1
102
RTVSPropertyOp10
 70
     1
102
RTVSPropertyOp11
 70
     1
102
RTVSPropertyOp12
 70
     1
102
RTVSPropertyOp13
 70
     1
102
RTVSPropertyOp14
 70
     1
102
RTVSPropertyOp15
 70
     1
102
RTVSPropertyOp16
 70
     1
102
RTVSPropertyOp17
 70
     1
102
RTVSPropertyOp18
 70
     1
102
RTVSPropertyOp19
 70
     1
102
RTVSPropertyOp20
 70
     1
102
RTVSPropertyOp21
 70
     1
102
RTVSPropertyOp22
 70
     1
102
RTVSPropertyOp23
 70
     1
102
RTVSPropertyOp24
 70
     1
102
RTVSPropertyOp25
 70
     1
102
RTVSPropertyOp26
 70
     1
102
RTVSPropertyOp27
 70
     1
102
RTVSPropertyOp28
 70
     1
102
RTVSPropertyOp29
 70
     1
102
RTVSPropertyOp30
 70
     1
102
RTVSPropertyOp31
 70
     1
102
RTVSPropertyOp32
 70
     1
  0
XRECORD
  5
1862
102
{ACAD_REACTORS
330
1861
102
}
330
1861
100
AcDbXrecord
280
     1
102
RTVSPropertyOp0
 70
     1
102
RTVSPropertyOp1
 70
     1
102
RTVSPropertyOp2
 70
     1
102
RTVSPropertyOp3
 70
     1
102
RTVSPropertyOp4
 70
     1
102
RTVSPropertyOp5
 70
     1
102
RTVSPropertyOp6
 70
     1
102
RTVSPropertyOp7
 70
     1
102
RTVSPropertyOp8
 70
     1
102
RTVSPropertyOp9
 70
     1
102
RTVSPropertyOp10
 70
     1
102
RTVSPropertyOp11
 70
     1
102
RTVSPropertyOp12
 70
     1
102
RTVSPropertyOp13
 70
     1
102
RTVSPropertyOp14
 70
     1
102
RTVSPropertyOp15
 70
     1
102
RTVSPropertyOp16
 70
     1
102
RTVSPropertyOp17
 70
     1
102
RTVSPropertyOp18
 70
     1
102
RTVSPropertyOp19
 70
     1
102
RTVSPropertyOp20
 70
     1
102
RTVSPropertyOp21
 70
     1
102
RTVSPropertyOp22
 70
     1
102
RTVSPropertyOp23
 70
     1
102
RTVSPropertyOp24
 70
     1
102
RTVSPropertyOp25
 70
     1
102
RTVSPropertyOp26
 70
     1
102
RTVSPropertyOp27
 70
     1
102
RTVSPropertyOp28
 70
     1
102
RTVSPropertyOp29
 70
     1
102
RTVSPropertyOp30
 70
     1
102
RTVSPropertyOp31
 70
     1
102
RTVSPropertyOp32
 70
     1
  0
XRECORD
  5
1866
102
{ACAD_REACTORS
330
1865
102
}
330
1865
100
AcDbXrecord
280
     1
102
RTVSPropertyOp0
 70
     1
102
RTVSPropertyOp1
 70
     1
102
RTVSPropertyOp2
 70
     1
102
RTVSPropertyOp3
 70
     1
102
RTVSPropertyOp4
 70
     1
102
RTVSPropertyOp5
 70
     1
102
RTVSPropertyOp6
 70
     1
102
RTVSPropertyOp7
 70
     1
102
RTVSPropertyOp8
 70
     1
102
RTVSPropertyOp9
 70
     1
102
RTVSPropertyOp10
 70
     1
102
RTVSPropertyOp11
 70
     1
102
RTVSPropertyOp12
 70
     1
102
RTVSPropertyOp13
 70
     1
102
RTVSPropertyOp14
 70
     1
102
RTVSPropertyOp15
 70
     1
102
RTVSPropertyOp16
 70
     1
102
RTVSPropertyOp17
 70
     1
102
RTVSPropertyOp18
 70
     1
102
RTVSPropertyOp19
 70
     1
102
RTVSPropertyOp20
 70
     1
102
RTVSPropertyOp21
 70
     1
102
RTVSPropertyOp22
 70
     1
102
RTVSPropertyOp23
 70
     1
102
RTVSPropertyOp24
 70
     1
102
RTVSPropertyOp25
 70
     1
102
RTVSPropertyOp26
 70
     1
102
RTVSPropertyOp27
 70
     1
102
RTVSPropertyOp28
 70
     1
102
RTVSPropertyOp29
 70
     1
102
RTVSPropertyOp30
 70
     1
102
RTVSPropertyOp31
 70
     1
102
RTVSPropertyOp32
 70
     1
  0
XRECORD
  5
1889
102
{ACAD_REACTORS
330
1888
102
}
330
1888
100
AcDbXrecord
280
     1
102
RTVSPropertyOp0
 70
     0
102
RTVSPropertyOp1
 70
     0
102
RTVSPropertyOp2
 70
     0
102
RTVSPropertyOp3
 70
     0
102
RTVSPropertyOp4
 70
     0
102
RTVSPropertyOp5
 70
     0
102
RTVSPropertyOp6
 70
     0
102
RTVSPropertyOp7
 70
     0
102
RTVSPropertyOp8
 70
     0
102
RTVSPropertyOp9
 70
     0
102
RTVSPropertyOp10
 70
     0
102
RTVSPropertyOp11
 70
     0
102
RTVSPropertyOp12
 70
     0
102
RTVSPropertyOp13
 70
     0
102
RTVSPropertyOp14
 70
     2
102
RTVSPropertyOp15
 70
     0
102
RTVSPropertyOp16
 70
     0
102
RTVSPropertyOp17
 70
     0
102
RTVSPropertyOp18
 70
     0
102
RTVSPropertyOp19
 70
     0
102
RTVSPropertyOp20
 70
     0
102
RTVSPropertyOp21
 70
     0
102
RTVSPropertyOp22
 70
     0
102
RTVSPropertyOp23
 70
     0
102
RTVSPropertyOp24
 70
     0
102
RTVSPropertyOp25
 70
     0
102
RTVSPropertyOp26
 70
     0
102
RTVSPropertyOp27
 70
     0
102
RTVSPropertyOp28
 70
     0
102
RTVSPropertyOp29
 70
     0
102
RTVSPropertyOp30
 70
     0
102
RTVSPropertyOp31
 70
     0
102
RTVSPropertyOp32
 70
     0
  0
XRECORD
  5
186E
102
{ACAD_REACTORS
330
186D
102
}
330
186D
100
AcDbXrecord
280
     1
102
RTVSPropertyOp0
 70
     1
102
RTVSPropertyOp1
 70
     1
102
RTVSPropertyOp2
 70
     1
102
RTVSPropertyOp3
 70
     1
102
RTVSPropertyOp4
 70
     1
102
RTVSPropertyOp5
 70
     1
102
RTVSPropertyOp6
 70
     1
102
RTVSPropertyOp7
 70
     1
102
RTVSPropertyOp8
 70
     1
102
RTVSPropertyOp9
 70
     1
102
RTVSPropertyOp10
 70
     1
102
RTVSPropertyOp11
 70
     1
102
RTVSPropertyOp12
 70
     1
102
RTVSPropertyOp13
 70
     1
102
RTVSPropertyOp14
 70
     1
102
RTVSPropertyOp15
 70
     1
102
RTVSPropertyOp16
 70
     1
102
RTVSPropertyOp17
 70
     1
102
RTVSPropertyOp18
 70
     1
102
RTVSPropertyOp19
 70
     1
102
RTVSPropertyOp20
 70
     1
102
RTVSPropertyOp21
 70
     1
102
RTVSPropertyOp22
 70
     1
102
RTVSPropertyOp23
 70
     1
102
RTVSPropertyOp24
 70
     1
102
RTVSPropertyOp25
 70
     1
102
RTVSPropertyOp26
 70
     1
102
RTVSPropertyOp27
 70
     1
102
RTVSPropertyOp28
 70
     1
102
RTVSPropertyOp29
 70
     1
102
RTVSPropertyOp30
 70
     1
102
RTVSPropertyOp31
 70
     1
102
RTVSPropertyOp32
 70
     1
  0
XRECORD
  5
1852
102
{ACAD_REACTORS
330
1851
102
}
330
1851
100
AcDbXrecord
280
     1
102
RTVSPropertyOp0
 70
     1
102
RTVSPropertyOp1
 70
     1
102
RTVSPropertyOp2
 70
     1
102
RTVSPropertyOp3
 70
     1
102
RTVSPropertyOp4
 70
     1
102
RTVSPropertyOp5
 70
     1
102
RTVSPropertyOp6
 70
     1
102
RTVSPropertyOp7
 70
     1
102
RTVSPropertyOp8
 70
     1
102
RTVSPropertyOp9
 70
     1
102
RTVSPropertyOp10
 70
     1
102
RTVSPropertyOp11
 70
     1
102
RTVSPropertyOp12
 70
     1
102
RTVSPropertyOp13
 70
     1
102
RTVSPropertyOp14
 70
     1
102
RTVSPropertyOp15
 70
     1
102
RTVSPropertyOp16
 70
     1
102
RTVSPropertyOp17
 70
     1
102
RTVSPropertyOp18
 70
     1
102
RTVSPropertyOp19
 70
     1
102
RTVSPropertyOp20
 70
     1
102
RTVSPropertyOp21
 70
     1
102
RTVSPropertyOp22
 70
     1
102
RTVSPropertyOp23
 70
     1
102
RTVSPropertyOp24
 70
     1
102
RTVSPropertyOp25
 70
     1
102
RTVSPropertyOp26
 70
     1
102
RTVSPropertyOp27
 70
     1
102
RTVSPropertyOp28
 70
     1
102
RTVSPropertyOp29
 70
     1
102
RTVSPropertyOp30
 70
     1
102
RTVSPropertyOp31
 70
     1
102
RTVSPropertyOp32
 70
     1
  0
XRECORD
  5
1854
102
{ACAD_REACTORS
330
1853
102
}
330
1853
100
AcDbXrecord
280
     1
102
RTVSPropertyOp0
 70
     1
102
RTVSPropertyOp1
 70
     1
102
RTVSPropertyOp2
 70
     1
102
RTVSPropertyOp3
 70
     1
102
RTVSPropertyOp4
 70
     1
102
RTVSPropertyOp5
 70
     1
102
RTVSPropertyOp6
 70
     1
102
RTVSPropertyOp7
 70
     1
102
RTVSPropertyOp8
 70
     1
102
RTVSPropertyOp9
 70
     1
102
RTVSPropertyOp10
 70
     1
102
RTVSPropertyOp11
 70
     1
102
RTVSPropertyOp12
 70
     1
102
RTVSPropertyOp13
 70
     1
102
RTVSPropertyOp14
 70
     1
102
RTVSPropertyOp15
 70
     1
102
RTVSPropertyOp16
 70
     1
102
RTVSPropertyOp17
 70
     1
102
RTVSPropertyOp18
 70
     1
102
RTVSPropertyOp19
 70
     1
102
RTVSPropertyOp20
 70
     1
102
RTVSPropertyOp21
 70
     1
102
RTVSPropertyOp22
 70
     1
102
RTVSPropertyOp23
 70
     1
102
RTVSPropertyOp24
 70
     1
102
RTVSPropertyOp25
 70
     1
102
RTVSPropertyOp26
 70
     1
102
RTVSPropertyOp27
 70
     1
102
RTVSPropertyOp28
 70
     1
102
RTVSPropertyOp29
 70
     1
102
RTVSPropertyOp30
 70
     1
102
RTVSPropertyOp31
 70
     1
102
RTVSPropertyOp32
 70
     1
  0
XRECORD
  5
1856
102
{ACAD_REACTORS
330
1855
102
}
330
1855
100
AcDbXrecord
280
     1
102
RTVSPropertyOp0
 70
     1
102
RTVSPropertyOp1
 70
     1
102
RTVSPropertyOp2
 70
     1
102
RTVSPropertyOp3
 70
     1
102
RTVSPropertyOp4
 70
     1
102
RTVSPropertyOp5
 70
     1
102
RTVSPropertyOp6
 70
     1
102
RTVSPropertyOp7
 70
     1
102
RTVSPropertyOp8
 70
     1
102
RTVSPropertyOp9
 70
     1
102
RTVSPropertyOp10
 70
     1
102
RTVSPropertyOp11
 70
     1
102
RTVSPropertyOp12
 70
     1
102
RTVSPropertyOp13
 70
     1
102
RTVSPropertyOp14
 70
     1
102
RTVSPropertyOp15
 70
     1
102
RTVSPropertyOp16
 70
     1
102
RTVSPropertyOp17
 70
     1
102
RTVSPropertyOp18
 70
     1
102
RTVSPropertyOp19
 70
     1
102
RTVSPropertyOp20
 70
     1
102
RTVSPropertyOp21
 70
     1
102
RTVSPropertyOp22
 70
     1
102
RTVSPropertyOp23
 70
     1
102
RTVSPropertyOp24
 70
     1
102
RTVSPropertyOp25
 70
     1
102
RTVSPropertyOp26
 70
     1
102
RTVSPropertyOp27
 70
     1
102
RTVSPropertyOp28
 70
     1
102
RTVSPropertyOp29
 70
     1
102
RTVSPropertyOp30
 70
     1
102
RTVSPropertyOp31
 70
     1
102
RTVSPropertyOp32
 70
     1
  0
XRECORD
  5
1858
102
{ACAD_REACTORS
330
1857
102
}
330
1857
100
AcDbXrecord
280
     1
102
RTVSPropertyOp0
 70
     1
102
RTVSPropertyOp1
 70
     1
102
RTVSPropertyOp2
 70
     1
102
RTVSPropertyOp3
 70
     1
102
RTVSPropertyOp4
 70
     1
102
RTVSPropertyOp5
 70
     1
102
RTVSPropertyOp6
 70
     1
102
RTVSPropertyOp7
 70
     1
102
RTVSPropertyOp8
 70
     1
102
RTVSPropertyOp9
 70
     1
102
RTVSPropertyOp10
 70
     1
102
RTVSPropertyOp11
 70
     1
102
RTVSPropertyOp12
 70
     1
102
RTVSPropertyOp13
 70
     1
102
RTVSPropertyOp14
 70
     1
102
RTVSPropertyOp15
 70
     1
102
RTVSPropertyOp16
 70
     1
102
RTVSPropertyOp17
 70
     1
102
RTVSPropertyOp18
 70
     1
102
RTVSPropertyOp19
 70
     1
102
RTVSPropertyOp20
 70
     1
102
RTVSPropertyOp21
 70
     1
102
RTVSPropertyOp22
 70
     1
102
RTVSPropertyOp23
 70
     1
102
RTVSPropertyOp24
 70
     1
102
RTVSPropertyOp25
 70
     1
102
RTVSPropertyOp26
 70
     1
102
RTVSPropertyOp27
 70
     1
102
RTVSPropertyOp28
 70
     1
102
RTVSPropertyOp29
 70
     1
102
RTVSPropertyOp30
 70
     1
102
RTVSPropertyOp31
 70
     1
102
RTVSPropertyOp32
 70
     1
  0
XRECORD
  5
1879
102
{ACAD_REACTORS
330
1878
102
}
330
1878
100
AcDbXrecord
280
     1
102
RTVSPropertyOp0
 70
     1
102
RTVSPropertyOp1
 70
     1
102
RTVSPropertyOp2
 70
     1
102
RTVSPropertyOp3
 70
     1
102
RTVSPropertyOp4
 70
     1
102
RTVSPropertyOp5
 70
     1
102
RTVSPropertyOp6
 70
     1
102
RTVSPropertyOp7
 70
     1
102
RTVSPropertyOp8
 70
     1
102
RTVSPropertyOp9
 70
     1
102
RTVSPropertyOp10
 70
     1
102
RTVSPropertyOp11
 70
     1
102
RTVSPropertyOp12
 70
     1
102
RTVSPropertyOp13
 70
     1
102
RTVSPropertyOp14
 70
     1
102
RTVSPropertyOp15
 70
     1
102
RTVSPropertyOp16
 70
     1
102
RTVSPropertyOp17
 70
     1
102
RTVSPropertyOp18
 70
     1
102
RTVSPropertyOp19
 70
     1
102
RTVSPropertyOp20
 70
     1
102
RTVSPropertyOp21
 70
     1
102
RTVSPropertyOp22
 70
     1
102
RTVSPropertyOp23
 70
     1
102
RTVSPropertyOp24
 70
     1
102
RTVSPropertyOp25
 70
     1
102
RTVSPropertyOp26
 70
     1
102
RTVSPropertyOp27
 70
     1
102
RTVSPropertyOp28
 70
     1
102
RTVSPropertyOp29
 70
     1
102
RTVSPropertyOp30
 70
     1
102
RTVSPropertyOp31
 70
     1
102
RTVSPropertyOp32
 70
     1
  0
XRECORD
  5
1885
102
{ACAD_REACTORS
330
1884
102
}
330
1884
100
AcDbXrecord
280
     1
102
RTVSPropertyOp0
 70
     0
102
RTVSPropertyOp1
 70
     0
102
RTVSPropertyOp2
 70
     0
102
RTVSPropertyOp3
 70
     0
102
RTVSPropertyOp4
 70
     0
102
RTVSPropertyOp5
 70
     0
102
RTVSPropertyOp6
 70
     0
102
RTVSPropertyOp7
 70
     0
102
RTVSPropertyOp8
 70
     0
102
RTVSPropertyOp9
 70
     0
102
RTVSPropertyOp10
 70
     0
102
RTVSPropertyOp11
 70
     0
102
RTVSPropertyOp12
 70
     0
102
RTVSPropertyOp13
 70
     0
102
RTVSPropertyOp14
 70
     2
102
RTVSPropertyOp15
 70
     0
102
RTVSPropertyOp16
 70
     0
102
RTVSPropertyOp17
 70
     0
102
RTVSPropertyOp18
 70
     0
102
RTVSPropertyOp19
 70
     0
102
RTVSPropertyOp20
 70
     0
102
RTVSPropertyOp21
 70
     0
102
RTVSPropertyOp22
 70
     0
102
RTVSPropertyOp23
 70
     0
102
RTVSPropertyOp24
 70
     0
102
RTVSPropertyOp25
 70
     0
102
RTVSPropertyOp26
 70
     0
102
RTVSPropertyOp27
 70
     0
102
RTVSPropertyOp28
 70
     0
102
RTVSPropertyOp29
 70
     0
102
RTVSPropertyOp30
 70
     0
102
RTVSPropertyOp31
 70
     0
102
RTVSPropertyOp32
 70
     0
  0
XRECORD
  5
186C
102
{ACAD_REACTORS
330
186B
102
}
330
186B
100
AcDbXrecord
280
     1
102
RTVSPropertyOp0
 70
     1
102
RTVSPropertyOp1
 70
     1
102
RTVSPropertyOp2
 70
     1
102
RTVSPropertyOp3
 70
     1
102
RTVSPropertyOp4
 70
     1
102
RTVSPropertyOp5
 70
     1
102
RTVSPropertyOp6
 70
     1
102
RTVSPropertyOp7
 70
     1
102
RTVSPropertyOp8
 70
     1
102
RTVSPropertyOp9
 70
     1
102
RTVSPropertyOp10
 70
     1
102
RTVSPropertyOp11
 70
     1
102
RTVSPropertyOp12
 70
     1
102
RTVSPropertyOp13
 70
     1
102
RTVSPropertyOp14
 70
     1
102
RTVSPropertyOp15
 70
     1
102
RTVSPropertyOp16
 70
     1
102
RTVSPropertyOp17
 70
     1
102
RTVSPropertyOp18
 70
     1
102
RTVSPropertyOp19
 70
     1
102
RTVSPropertyOp20
 70
     1
102
RTVSPropertyOp21
 70
     1
102
RTVSPropertyOp22
 70
     1
102
RTVSPropertyOp23
 70
     1
102
RTVSPropertyOp24
 70
     1
102
RTVSPropertyOp25
 70
     1
102
RTVSPropertyOp26
 70
     1
102
RTVSPropertyOp27
 70
     1
102
RTVSPropertyOp28
 70
     1
102
RTVSPropertyOp29
 70
     1
102
RTVSPropertyOp30
 70
     1
102
RTVSPropertyOp31
 70
     1
102
RTVSPropertyOp32
 70
     1
  0
XRECORD
  5
1887
102
{ACAD_REACTORS
330
1886
102
}
330
1886
100
AcDbXrecord
280
     1
102
RTVSPropertyOp0
 70
     0
102
RTVSPropertyOp1
 70
     0
102
RTVSPropertyOp2
 70
     0
102
RTVSPropertyOp3
 70
     0
102
RTVSPropertyOp4
 70
     0
102
RTVSPropertyOp5
 70
     0
102
RTVSPropertyOp6
 70
     0
102
RTVSPropertyOp7
 70
     0
102
RTVSPropertyOp8
 70
     0
102
RTVSPropertyOp9
 70
     0
102
RTVSPropertyOp10
 70
     0
102
RTVSPropertyOp11
 70
     0
102
RTVSPropertyOp12
 70
     0
102
RTVSPropertyOp13
 70
     0
102
RTVSPropertyOp14
 70
     2
102
RTVSPropertyOp15
 70
     0
102
RTVSPropertyOp16
 70
     0
102
RTVSPropertyOp17
 70
     0
102
RTVSPropertyOp18
 70
     0
102
RTVSPropertyOp19
 70
     0
102
RTVSPropertyOp20
 70
     0
102
RTVSPropertyOp21
 70
     0
102
RTVSPropertyOp22
 70
     0
102
RTVSPropertyOp23
 70
     0
102
RTVSPropertyOp24
 70
     0
102
RTVSPropertyOp25
 70
     0
102
RTVSPropertyOp26
 70
     0
102
RTVSPropertyOp27
 70
     0
102
RTVSPropertyOp28
 70
     0
102
RTVSPropertyOp29
 70
     0
102
RTVSPropertyOp30
 70
     0
102
RTVSPropertyOp31
 70
     0
102
RTVSPropertyOp32
 70
     0
  0
XRECORD
  5
1864
102
{ACAD_REACTORS
330
1863
102
}
330
1863
100
AcDbXrecord
280
     1
102
RTVSPropertyOp0
 70
     1
102
RTVSPropertyOp1
 70
     1
102
RTVSPropertyOp2
 70
     1
102
RTVSPropertyOp3
 70
     1
102
RTVSPropertyOp4
 70
     1
102
RTVSPropertyOp5
 70
     1
102
RTVSPropertyOp6
 70
     1
102
RTVSPropertyOp7
 70
     1
102
RTVSPropertyOp8
 70
     1
102
RTVSPropertyOp9
 70
     1
102
RTVSPropertyOp10
 70
     1
102
RTVSPropertyOp11
 70
     1
102
RTVSPropertyOp12
 70
     1
102
RTVSPropertyOp13
 70
     1
102
RTVSPropertyOp14
 70
     1
102
RTVSPropertyOp15
 70
     1
102
RTVSPropertyOp16
 70
     1
102
RTVSPropertyOp17
 70
     1
102
RTVSPropertyOp18
 70
     1
102
RTVSPropertyOp19
 70
     1
102
RTVSPropertyOp20
 70
     1
102
RTVSPropertyOp21
 70
     1
102
RTVSPropertyOp22
 70
     1
102
RTVSPropertyOp23
 70
     1
102
RTVSPropertyOp24
 70
     1
102
RTVSPropertyOp25
 70
     1
102
RTVSPropertyOp26
 70
     1
102
RTVSPropertyOp27
 70
     1
102
RTVSPropertyOp28
 70
     1
102
RTVSPropertyOp29
 70
     1
102
RTVSPropertyOp30
 70
     1
102
RTVSPropertyOp31
 70
     1
102
RTVSPropertyOp32
 70
     1
  0
XRECORD
  5
1883
102
{ACAD_REACTORS
330
1882
102
}
330
1882
100
AcDbXrecord
280
     1
102
RTVSPropertyOp0
 70
     1
102
RTVSPropertyOp1
 70
     1
102
RTVSPropertyOp2
 70
     1
102
RTVSPropertyOp3
 70
     1
102
RTVSPropertyOp4
 70
     1
102
RTVSPropertyOp5
 70
     1
102
RTVSPropertyOp6
 70
     1
102
RTVSPropertyOp7
 70
     1
102
RTVSPropertyOp8
 70
     1
102
RTVSPropertyOp9
 70
     1
102
RTVSPropertyOp10
 70
     1
102
RTVSPropertyOp11
 70
     1
102
RTVSPropertyOp12
 70
     1
102
RTVSPropertyOp13
 70
     1
102
RTVSPropertyOp14
 70
     1
102
RTVSPropertyOp15
 70
     1
102
RTVSPropertyOp16
 70
     1
102
RTVSPropertyOp17
 70
     1
102
RTVSPropertyOp18
 70
     1
102
RTVSPropertyOp19
 70
     1
102
RTVSPropertyOp20
 70
     1
102
RTVSPropertyOp21
 70
     1
102
RTVSPropertyOp22
 70
     1
102
RTVSPropertyOp23
 70
     1
102
RTVSPropertyOp24
 70
     1
102
RTVSPropertyOp25
 70
     1
102
RTVSPropertyOp26
 70
     1
102
RTVSPropertyOp27
 70
     1
102
RTVSPropertyOp28
 70
     1
102
RTVSPropertyOp29
 70
     1
102
RTVSPropertyOp30
 70
     1
102
RTVSPropertyOp31
 70
     1
102
RTVSPropertyOp32
 70
     1
  0
XRECORD
  5
1881
102
{ACAD_REACTORS
330
1880
102
}
330
1880
100
AcDbXrecord
280
     1
102
RTVSPropertyOp0
 70
     1
102
RTVSPropertyOp1
 70
     1
102
RTVSPropertyOp2
 70
     1
102
RTVSPropertyOp3
 70
     1
102
RTVSPropertyOp4
 70
     1
102
RTVSPropertyOp5
 70
     1
102
RTVSPropertyOp6
 70
     1
102
RTVSPropertyOp7
 70
     1
102
RTVSPropertyOp8
 70
     1
102
RTVSPropertyOp9
 70
     1
102
RTVSPropertyOp10
 70
     1
102
RTVSPropertyOp11
 70
     1
102
RTVSPropertyOp12
 70
     1
102
RTVSPropertyOp13
 70
     1
102
RTVSPropertyOp14
 70
     1
102
RTVSPropertyOp15
 70
     1
102
RTVSPropertyOp16
 70
     1
102
RTVSPropertyOp17
 70
     1
102
RTVSPropertyOp18
 70
     1
102
RTVSPropertyOp19
 70
     1
102
RTVSPropertyOp20
 70
     1
102
RTVSPropertyOp21
 70
     1
102
RTVSPropertyOp22
 70
     1
102
RTVSPropertyOp23
 70
     1
102
RTVSPropertyOp24
 70
     1
102
RTVSPropertyOp25
 70
     1
102
RTVSPropertyOp26
 70
     1
102
RTVSPropertyOp27
 70
     1
102
RTVSPropertyOp28
 70
     1
102
RTVSPropertyOp29
 70
     1
102
RTVSPropertyOp30
 70
     1
102
RTVSPropertyOp31
 70
     1
102
RTVSPropertyOp32
 70
     1
  0
XRECORD
  5
187B
102
{ACAD_REACTORS
330
187A
102
}
330
187A
100
AcDbXrecord
280
     1
102
RTVSPropertyOp0
 70
     1
102
RTVSPropertyOp1
 70
     1
102
RTVSPropertyOp2
 70
     1
102
RTVSPropertyOp3
 70
     1
102
RTVSPropertyOp4
 70
     1
102
RTVSPropertyOp5
 70
     1
102
RTVSPropertyOp6
 70
     1
102
RTVSPropertyOp7
 70
     1
102
RTVSPropertyOp8
 70
     1
102
RTVSPropertyOp9
 70
     1
102
RTVSPropertyOp10
 70
     1
102
RTVSPropertyOp11
 70
     1
102
RTVSPropertyOp12
 70
     1
102
RTVSPropertyOp13
 70
     1
102
RTVSPropertyOp14
 70
     1
102
RTVSPropertyOp15
 70
     1
102
RTVSPropertyOp16
 70
     1
102
RTVSPropertyOp17
 70
     1
102
RTVSPropertyOp18
 70
     1
102
RTVSPropertyOp19
 70
     1
102
RTVSPropertyOp20
 70
     1
102
RTVSPropertyOp21
 70
     1
102
RTVSPropertyOp22
 70
     1
102
RTVSPropertyOp23
 70
     1
102
RTVSPropertyOp24
 70
     1
102
RTVSPropertyOp25
 70
     1
102
RTVSPropertyOp26
 70
     1
102
RTVSPropertyOp27
 70
     1
102
RTVSPropertyOp28
 70
     1
102
RTVSPropertyOp29
 70
     1
102
RTVSPropertyOp30
 70
     1
102
RTVSPropertyOp31
 70
     1
102
RTVSPropertyOp32
 70
     1
  0
XRECORD
  5
187D
102
{ACAD_REACTORS
330
187C
102
}
330
187C
100
AcDbXrecord
280
     1
102
RTVSPropertyOp0
 70
     1
102
RTVSPropertyOp1
 70
     1
102
RTVSPropertyOp2
 70
     1
102
RTVSPropertyOp3
 70
     1
102
RTVSPropertyOp4
 70
     1
102
RTVSPropertyOp5
 70
     1
102
RTVSPropertyOp6
 70
     1
102
RTVSPropertyOp7
 70
     1
102
RTVSPropertyOp8
 70
     1
102
RTVSPropertyOp9
 70
     1
102
RTVSPropertyOp10
 70
     1
102
RTVSPropertyOp11
 70
     1
102
RTVSPropertyOp12
 70
     1
102
RTVSPropertyOp13
 70
     1
102
RTVSPropertyOp14
 70
     1
102
RTVSPropertyOp15
 70
     1
102
RTVSPropertyOp16
 70
     1
102
RTVSPropertyOp17
 70
     1
102
RTVSPropertyOp18
 70
     1
102
RTVSPropertyOp19
 70
     1
102
RTVSPropertyOp20
 70
     1
102
RTVSPropertyOp21
 70
     1
102
RTVSPropertyOp22
 70
     1
102
RTVSPropertyOp23
 70
     1
102
RTVSPropertyOp24
 70
     1
102
RTVSPropertyOp25
 70
     1
102
RTVSPropertyOp26
 70
     1
102
RTVSPropertyOp27
 70
     1
102
RTVSPropertyOp28
 70
     1
102
RTVSPropertyOp29
 70
     1
102
RTVSPropertyOp30
 70
     1
102
RTVSPropertyOp31
 70
     1
102
RTVSPropertyOp32
 70
     1
  0
XRECORD
  5
186A
102
{ACAD_REACTORS
330
1869
102
}
330
1869
100
AcDbXrecord
280
     1
102
RTVSPropertyOp0
 70
     1
102
RTVSPropertyOp1
 70
     1
102
RTVSPropertyOp2
 70
     1
102
RTVSPropertyOp3
 70
     1
102
RTVSPropertyOp4
 70
     1
102
RTVSPropertyOp5
 70
     1
102
RTVSPropertyOp6
 70
     1
102
RTVSPropertyOp7
 70
     1
102
RTVSPropertyOp8
 70
     1
102
RTVSPropertyOp9
 70
     1
102
RTVSPropertyOp10
 70
     1
102
RTVSPropertyOp11
 70
     1
102
RTVSPropertyOp12
 70
     1
102
RTVSPropertyOp13
 70
     1
102
RTVSPropertyOp14
 70
     1
102
RTVSPropertyOp15
 70
     1
102
RTVSPropertyOp16
 70
     1
102
RTVSPropertyOp17
 70
     1
102
RTVSPropertyOp18
 70
     1
102
RTVSPropertyOp19
 70
     1
102
RTVSPropertyOp20
 70
     1
102
RTVSPropertyOp21
 70
     1
102
RTVSPropertyOp22
 70
     1
102
RTVSPropertyOp23
 70
     1
102
RTVSPropertyOp24
 70
     1
102
RTVSPropertyOp25
 70
     1
102
RTVSPropertyOp26
 70
     1
102
RTVSPropertyOp27
 70
     1
102
RTVSPropertyOp28
 70
     1
102
RTVSPropertyOp29
 70
     1
102
RTVSPropertyOp30
 70
     1
102
RTVSPropertyOp31
 70
     1
102
RTVSPropertyOp32
 70
     1
  0
XRECORD
  5
1877
102
{ACAD_REACTORS
330
1876
102
}
330
1876
100
AcDbXrecord
280
     1
102
RTVSPropertyOp0
 70
     1
102
RTVSPropertyOp1
 70
     1
102
RTVSPropertyOp2
 70
     1
102
RTVSPropertyOp3
 70
     1
102
RTVSPropertyOp4
 70
     1
102
RTVSPropertyOp5
 70
     1
102
RTVSPropertyOp6
 70
     1
102
RTVSPropertyOp7
 70
     1
102
RTVSPropertyOp8
 70
     1
102
RTVSPropertyOp9
 70
     1
102
RTVSPropertyOp10
 70
     1
102
RTVSPropertyOp11
 70
     1
102
RTVSPropertyOp12
 70
     1
102
RTVSPropertyOp13
 70
     1
102
RTVSPropertyOp14
 70
     1
102
RTVSPropertyOp15
 70
     1
102
RTVSPropertyOp16
 70
     1
102
RTVSPropertyOp17
 70
     1
102
RTVSPropertyOp18
 70
     1
102
RTVSPropertyOp19
 70
     1
102
RTVSPropertyOp20
 70
     1
102
RTVSPropertyOp21
 70
     1
102
RTVSPropertyOp22
 70
     1
102
RTVSPropertyOp23
 70
     1
102
RTVSPropertyOp24
 70
     1
102
RTVSPropertyOp25
 70
     1
102
RTVSPropertyOp26
 70
     1
102
RTVSPropertyOp27
 70
     1
102
RTVSPropertyOp28
 70
     1
102
RTVSPropertyOp29
 70
     1
102
RTVSPropertyOp30
 70
     1
102
RTVSPropertyOp31
 70
     1
102
RTVSPropertyOp32
 70
     1
  0
XRECORD
  5
187F
102
{ACAD_REACTORS
330
187E
102
}
330
187E
100
AcDbXrecord
280
     1
102
RTVSPropertyOp0
 70
     1
102
RTVSPropertyOp1
 70
     1
102
RTVSPropertyOp2
 70
     1
102
RTVSPropertyOp3
 70
     1
102
RTVSPropertyOp4
 70
     1
102
RTVSPropertyOp5
 70
     1
102
RTVSPropertyOp6
 70
     1
102
RTVSPropertyOp7
 70
     1
102
RTVSPropertyOp8
 70
     1
102
RTVSPropertyOp9
 70
     1
102
RTVSPropertyOp10
 70
     1
102
RTVSPropertyOp11
 70
     1
102
RTVSPropertyOp12
 70
     1
102
RTVSPropertyOp13
 70
     1
102
RTVSPropertyOp14
 70
     1
102
RTVSPropertyOp15
 70
     1
102
RTVSPropertyOp16
 70
     1
102
RTVSPropertyOp17
 70
     1
102
RTVSPropertyOp18
 70
     1
102
RTVSPropertyOp19
 70
     1
102
RTVSPropertyOp20
 70
     1
102
RTVSPropertyOp21
 70
     1
102
RTVSPropertyOp22
 70
     1
102
RTVSPropertyOp23
 70
     1
102
RTVSPropertyOp24
 70
     1
102
RTVSPropertyOp25
 70
     1
102
RTVSPropertyOp26
 70
     1
102
RTVSPropertyOp27
 70
     1
102
RTVSPropertyOp28
 70
     1
102
RTVSPropertyOp29
 70
     1
102
RTVSPropertyOp30
 70
     1
102
RTVSPropertyOp31
 70
     1
102
RTVSPropertyOp32
 70
     1
  0
ENDSEC
  0
EOF
