  0
SECTION
  2
HEADER
  9
$ACADVER
  1
AC1015
  9
$ACADMAINTVER
 70
    20
  9
$DWGCODEPAGE
  3
ANSI_932
  9
$INSBASE
 10
0.0
 20
0.0
 30
0.0
  9
$EXTMIN
 10
-95.14400100000001
 20
-470.40507
 30
0.0
  9
$EXTMAX
 10
635.2786061815412
 20
-148.6367135304318
 30
0.0
  9
$LIMMIN
 10
-95.145005
 20
-470.40606
  9
$LIMMAX
 10
309.8828660000001
 20
-196.348716
  9
$ORTHOMODE
 70
     1
  9
$REGENMODE
 70
     1
  9
$FILLMODE
 70
     1
  9
$QTEXTMODE
 70
     0
  9
$MIRRTEXT
 70
     0
  9
$LTSCALE
 40
6.750430999999997
  9
$ATTMODE
 70
     1
  9
$TEXTSIZE
 40
0.2
  9
$TRACEWID
 40
0.05
  9
$TEXTSTYLE
  7
STANDARD
  9
$CLAYER
  8
0
  9
$CELTYPE
  6
CONTINUOUS
  9
$CECOLOR
 62
   256
  9
$CELTSCALE
 40
1.0
  9
$DISPSILH
 70
     0
  9
$DIMSCALE
 40
1.0
  9
$DIMASZ
 40
2.5
  9
$DIMEXO
 40
0.25
  9
$DIMDLI
 40
0.2
  9
$DIMRND
 40
0.0
  9
$DIMDLE
 40
0.0
  9
$DIMEXE
 40
1.25
  9
$DIMTP
 40
0.0
  9
$DIMTM
 40
0.0
  9
$DIMTXT
 40
3.0
  9
$DIMCEN
 40
0.0
  9
$DIMTSZ
 40
0.0
  9
$DIMTOL
 70
     0
  9
$DIMLIM
 70
     0
  9
$DIMTIH
 70
     0
  9
$DIMTOH
 70
     0
  9
$DIMSE1
 70
     0
  9
$DIMSE2
 70
     0
  9
$DIMTAD
 70
     3
  9
$DIMZIN
 70
     8
  9
$DIMBLK
  1
Open30
  9
$DIMASO
 70
     1
  9
$DIMSHO
 70
     1
  9
$DIMPOST
  1

  9
$DIMAPOST
  1

  9
$DIMALT
 70
     0
  9
$DIMALTD
 70
     3
  9
$DIMALTF
 40
0.03937007874016
  9
$DIMLFAC
 40
1.0
  9
$DIMTOFL
 70
     1
  9
$DIMTVP
 40
0.0
  9
$DIMTIX
 70
     0
  9
$DIMSOXD
 70
     0
  9
$DIMSAH
 70
     0
  9
$DIMBLK1
  1

  9
$DIMBLK2
  1

  9
$DIMSTYLE
  2
1：1
  9
$DIMCLRD
 70
     0
  9
$DIMCLRE
 70
     0
  9
$DIMCLRT
 70
     4
  9
$DIMTFAC
 40
1.0
  9
$DIMGAP
 40
0.625
  9
$DIMJUST
 70
     0
  9
$DIMSD1
 70
     0
  9
$DIMSD2
 70
     0
  9
$DIMTOLJ
 70
     0
  9
$DIMTZIN
 70
     8
  9
$DIMALTZ
 70
     0
  9
$DIMALTTZ
 70
     0
  9
$DIMUPT
 70
     1
  9
$DIMDEC
 70
     2
  9
$DIMTDEC
 70
     2
  9
$DIMALTU
 70
     2
  9
$DIMALTTD
 70
     3
  9
$DIMTXSTY
  7
STANDARD
  9
$DIMAUNIT
 70
     0
  9
$DIMADEC
 70
     1
  9
$DIMALTRND
 40
0.0
  9
$DIMAZIN
 70
     2
  9
$DIMDSEP
 70
    46
  9
$DIMATFIT
 70
     0
  9
$DIMFRAC
 70
     0
  9
$DIMLDRBLK
  1
Open30
  9
$DIMLUNIT
 70
     2
  9
$DIMLWD
 70
    -2
  9
$DIMLWE
 70
    -2
  9
$DIMTMOVE
 70
     0
  9
$LUNITS
 70
     2
  9
$LUPREC
 70
     4
  9
$SKETCHINC
 40
0.1
  9
$FILLETRAD
 40
0.0
  9
$AUNITS
 70
     0
  9
$AUPREC
 70
     0
  9
$MENU
  1
.
  9
$ELEVATION
 40
0.0
  9
$PELEVATION
 40
0.0
  9
$THICKNESS
 40
0.0
  9
$LIMCHECK
 70
     0
  9
$CHAMFERA
 40
1.5
  9
$CHAMFERB
 40
1.5
  9
$CHAMFERC
 40
0.0
  9
$CHAMFERD
 40
0.0
  9
$SKPOLY
 70
     0
  9
$TDCREATE
 40
2455575.375372535
  9
$TDUCREATE
 40
2455575.000372535
  9
$TDUPDATE
 40
2456856.800557986
  9
$TDUUPDATE
 40
2456856.425557986
  9
$TDINDWG
 40
0.2481070255
  9
$TDUSRTIMER
 40
0.2480967361
  9
$USRTIMER
 70
     1
  9
$ANGBASE
 50
0.0
  9
$ANGDIR
 70
     0
  9
$PDMODE
 70
     0
  9
$PDSIZE
 40
0.0
  9
$PLINEWID
 40
0.0
  9
$SPLFRAME
 70
     0
  9
$SPLINETYPE
 70
     6
  9
$SPLINESEGS
 70
     8
  9
$HANDSEED
  5
1B54
  9
$SURFTAB1
 70
     6
  9
$SURFTAB2
 70
     6
  9
$SURFTYPE
 70
     6
  9
$SURFU
 70
     6
  9
$SURFV
 70
     6
  9
$UCSBASE
  2

  9
$UCSNAME
  2

  9
$UCSORG
 10
0.0
 20
0.0
 30
0.0
  9
$UCSXDIR
 10
1.0
 20
0.0
 30
0.0
  9
$UCSYDIR
 10
0.0
 20
1.0
 30
0.0
  9
$UCSORTHOREF
  2

  9
$UCSORTHOVIEW
 70
     0
  9
$UCSORGTOP
 10
0.0
 20
0.0
 30
0.0
  9
$UCSORGBOTTOM
 10
0.0
 20
0.0
 30
0.0
  9
$UCSORGLEFT
 10
0.0
 20
0.0
 30
0.0
  9
$UCSORGRIGHT
 10
0.0
 20
0.0
 30
0.0
  9
$UCSORGFRONT
 10
0.0
 20
0.0
 30
0.0
  9
$UCSORGBACK
 10
0.0
 20
0.0
 30
0.0
  9
$PUCSBASE
  2

  9
$PUCSNAME
  2

  9
$PUCSORG
 10
0.0
 20
0.0
 30
0.0
  9
$PUCSXDIR
 10
1.0
 20
0.0
 30
0.0
  9
$PUCSYDIR
 10
0.0
 20
1.0
 30
0.0
  9
$PUCSORTHOREF
  2

  9
$PUCSORTHOVIEW
 70
     0
  9
$PUCSORGTOP
 10
0.0
 20
0.0
 30
0.0
  9
$PUCSORGBOTTOM
 10
0.0
 20
0.0
 30
0.0
  9
$PUCSORGLEFT
 10
0.0
 20
0.0
 30
0.0
  9
$PUCSORGRIGHT
 10
0.0
 20
0.0
 30
0.0
  9
$PUCSORGFRONT
 10
0.0
 20
0.0
 30
0.0
  9
$PUCSORGBACK
 10
0.0
 20
0.0
 30
0.0
  9
$USERI1
 70
     0
  9
$USERI2
 70
     0
  9
$USERI3
 70
     0
  9
$USERI4
 70
     0
  9
$USERI5
 70
     0
  9
$USERR1
 40
0.0
  9
$USERR2
 40
0.0
  9
$USERR3
 40
0.0
  9
$USERR4
 40
0.0
  9
$USERR5
 40
0.0
  9
$WORLDVIEW
 70
     1
  9
$SHADEDGE
 70
     3
  9
$SHADEDIF
 70
    70
  9
$TILEMODE
 70
     1
  9
$MAXACTVP
 70
    64
  9
$PINSBASE
 10
0.0
 20
0.0
 30
0.0
  9
$PLIMCHECK
 70
     0
  9
$PEXTMIN
 10
1.000000000000000E+20
 20
1.000000000000000E+20
 30
1.000000000000000E+20
  9
$PEXTMAX
 10
-1.000000000000000E+20
 20
-1.000000000000000E+20
 30
-1.000000000000000E+20
  9
$PLIMMIN
 10
0.0
 20
0.0
  9
$PLIMMAX
 10
12.0
 20
9.0
  9
$UNITMODE
 70
     0
  9
$VISRETAIN
 70
     1
  9
$PLINEGEN
 70
     0
  9
$PSLTSCALE
 70
     1
  9
$TREEDEPTH
 70
  3020
  9
$CMLSTYLE
  2
Standard
  9
$CMLJUST
 70
     0
  9
$CMLSCALE
 40
1.0
  9
$PROXYGRAPHICS
 70
     1
  9
$MEASUREMENT
 70
     0
  9
$CELWEIGHT
370
    -1
  9
$ENDCAPS
280
     0
  9
$JOINSTYLE
280
     0
  9
$LWDISPLAY
290
     0
  9
$INSUNITS
 70
     0
  9
$HYPERLINKBASE
  1

  9
$STYLESHEET
  1
N-PLOT.CTB
  9
$XEDIT
290
     1
  9
$CEPSNTYPE
380
     0
  9
$PSTYLEMODE
290
     1
  9
$FINGERPRINTGUID
  2
{2A3F7B22-A626-4F2D-A715-4CD5CF4FB3F8}
  9
$VERSIONGUID
  2
{05EC3321-D16F-4723-A488-11D252749840}
  9
$EXTNAMES
290
     1
  9
$PSVPSCALE
 40
0.0
  9
$OLESTARTUP
290
     0
  0
ENDSEC
  0
SECTION
  2
CLASSES
  0
CLASS
  1
ACDBDICTIONARYWDFLT
  2
AcDbDictionaryWithDefault
  3
ObjectDBX Classes
 90
        0
280
     0
281
     0
  0
CLASS
  1
MATERIAL
  2
AcDbMaterial
  3
ObjectDBX Classes
 90
     1153
280
     0
281
     0
  0
CLASS
  1
VISUALSTYLE
  2
AcDbVisualStyle
  3
ObjectDBX Classes
 90
     4095
280
     0
281
     0
  0
CLASS
  1
TABLESTYLE
  2
AcDbTableStyle
  3
ObjectDBX Classes
 90
     4095
280
     0
281
     0
  0
CLASS
  1
DICTIONARYVAR
  2
AcDbDictionaryVar
  3
ObjectDBX Classes
 90
        0
280
     0
281
     0
  0
CLASS
  1
SORTENTSTABLE
  2
AcDbSortentsTable
  3
ObjectDBX Classes
 90
        0
280
     0
281
     0
  0
CLASS
  1
ACDBPLACEHOLDER
  2
AcDbPlaceHolder
  3
ObjectDBX Classes
 90
        0
280
     0
281
     0
  0
CLASS
  1
LAYOUT
  2
AcDbLayout
  3
ObjectDBX Classes
 90
        0
280
     0
281
     0
  0
CLASS
  1
SCALE
  2
AcDbScale
  3
ObjectDBX Classes
 90
     1153
280
     0
281
     0
  0
CLASS
  1
MLEADERSTYLE
  2
AcDbMLeaderStyle
  3
ACDB_MLEADERSTYLE_CLASS
 90
     4095
280
     0
281
     0
  0
CLASS
  1
CELLSTYLEMAP
  2
AcDbCellStyleMap
  3
ObjectDBX Classes
 90
     1152
280
     0
281
     0
  0
ENDSEC
  0
SECTION
  2
TABLES
  0
TABLE
  2
VPORT
  5
8
330
0
100
AcDbSymbolTable
 70
     1
  0
VPORT
  5
5A
330
8
100
AcDbSymbolTableRecord
100
AcDbViewportTableRecord
  2
*Active
 70
     0
 10
0.0
 20
0.0
 11
1.0
 21
1.0
 12
362.529357309224
 22
-319.9661763671069
 13
0.0
 23
0.0
 14
1.0
 24
1.0
 15
0.0
 25
0.0
 16
0.0
 26
0.0
 36
1.0
 17
0.0
 27
0.0
 37
0.0
 40
780.5275776950135
 41
2.22889305816135
 42
50.0
 43
0.0
 44
0.0
 50
0.0
 51
0.0
 71
     0
 72
  1000
 73
     1
 74
     1
 75
     0
 76
     0
 77
     0
 78
     0
281
     0
 65
     1
110
0.0
120
0.0
130
0.0
111
1.0
121
0.0
131
0.0
112
0.0
122
1.0
132
0.0
 79
     0
146
0.0
  0
ENDTAB
  0
TABLE
  2
LTYPE
  5
5
330
0
100
AcDbSymbolTable
 70
    25
  0
LTYPE
  5
28
330
5
100
AcDbSymbolTableRecord
100
AcDbLinetypeTableRecord
  2
ByBlock
 70
     0
  3

 72
    65
 73
     0
 40
0.0
  0
LTYPE
  5
29
330
5
100
AcDbSymbolTableRecord
100
AcDbLinetypeTableRecord
  2
ByLayer
 70
     0
  3

 72
    65
 73
     0
 40
0.0
  0
LTYPE
  5
2A
330
5
100
AcDbSymbolTableRecord
100
AcDbLinetypeTableRecord
  2
CONTINUOUS
 70
     0
  3
Solid-line
 72
    65
 73
     0
 40
0.0
  0
LTYPE
  5
3D
330
5
100
AcDbSymbolTableRecord
100
AcDbLinetypeTableRecord
  2
CENTER
 70
     0
  3
CENTER
 72
    65
 73
     4
 40
2.0
 49
1.25
 74
     0
 49
-0.25
 74
     0
 49
0.25
 74
     0
 49
-0.25
 74
     0
  0
LTYPE
  5
4C
330
5
100
AcDbSymbolTableRecord
100
AcDbLinetypeTableRecord
  2
HIDDEN
 70
     0
  3
HIDDEN
 72
    65
 73
     2
 40
0.375
 49
0.25
 74
     0
 49
-0.125
 74
     0
  0
ENDTAB
  0
TABLE
  2
LAYER
  5
2
102
{ACAD_XDICTIONARY
360
967
102
}
330
0
100
AcDbSymbolTable
 70
     7
  0
LAYER
  5
25
102
{ACAD_XDICTIONARY
360
F74
102
}
330
2
100
AcDbSymbolTableRecord
100
AcDbLayerTableRecord
  2
0
 70
     0
 62
     7
  6
CONTINUOUS
370
    -3
390
F
  0
LAYER
  5
95F
330
2
100
AcDbSymbolTableRecord
100
AcDbLayerTableRecord
  2
Defpoints
 70
     0
 62
     7
  6
CONTINUOUS
290
     0
370
    -3
390
F
  0
ENDTAB
  0
TABLE
  2
STYLE
  5
3
330
0
100
AcDbSymbolTable
 70
     7
  0
STYLE
  5
26
330
3
100
AcDbSymbolTableRecord
100
AcDbTextStyleTableRecord
  2
STANDARD
 70
     0
 40
0.0
 41
1.0
 50
0.0
 71
     0
 42
0.2
  3
TXT
  4
BIGFONT
  0
STYLE
  5
1170
330
3
100
AcDbSymbolTableRecord
100
AcDbTextStyleTableRecord
  2
高3.2
 70
     0
 40
3.2
 41
1.0
 50
0.0
 71
     0
 42
3.2
  3
txt.shx
  4
bigfont.shx
  0
STYLE
  5
1171
330
3
100
AcDbSymbolTableRecord
100
AcDbTextStyleTableRecord
  2
高6.3
 70
     0
 40
6.299999999999998
 41
1.0
 50
0.0
 71
     0
 42
6.299999999999998
  3
txt.shx
  4
bigfont.shx
  0
STYLE
  5
1172
330
3
100
AcDbSymbolTableRecord
100
AcDbTextStyleTableRecord
  2
高2.5
 70
     0
 40
2.5
 41
1.0
 50
0.0
 71
     0
 42
0.2
  3
txt.shx
  4
bigfont.shx
  0
STYLE
  5
1173
330
3
100
AcDbSymbolTableRecord
100
AcDbTextStyleTableRecord
  2
高4.5
 70
     0
 40
4.5
 41
1.0
 50
0.0
 71
     0
 42
6.299999999999998
  3
txt.shx
  4
bigfont.shx
  0
STYLE
  5
1174
330
3
100
AcDbSymbolTableRecord
100
AcDbTextStyleTableRecord
  2
高2
 70
     0
 40
2.0
 41
1.0
 50
0.0
 71
     0
 42
6.299999999999998
  3
txt.shx
  4
bigfont.shx
  0
ENDTAB
  0
TABLE
  2
VIEW
  5
6
330
0
100
AcDbSymbolTable
 70
     0
  0
ENDTAB
  0
TABLE
  2
UCS
  5
7
330
0
100
AcDbSymbolTable
 70
     0
  0
ENDTAB
  0
TABLE
  2
APPID
  5
9
330
0
100
AcDbSymbolTable
 70
    11
  0
APPID
  5
27
330
9
100
AcDbSymbolTableRecord
100
AcDbRegAppTableRecord
  2
ACAD
 70
     0
  0
APPID
  5
966
330
9
100
AcDbSymbolTableRecord
100
AcDbRegAppTableRecord
  2
ACAD_DSTYLE_DIMJOGGED_JOGANGLE_SYMBOL
 70
     0
  0
APPID
  5
CAC
330
9
100
AcDbSymbolTableRecord
100
AcDbRegAppTableRecord
  2
ACAD_EXEMPT_FROM_CAD_STANDARDS
 70
     0
  0
APPID
  5
DFC
330
9
100
AcDbSymbolTableRecord
100
AcDbRegAppTableRecord
  2
ACAD_PSEXT
 70
     0
  0
APPID
  5
E92
330
9
100
AcDbSymbolTableRecord
100
AcDbRegAppTableRecord
  2
ACAD_DSTYLE_DIMARC_LENGTH_SYMBOL
 70
     0
  0
APPID
  5
E93
330
9
100
AcDbSymbolTableRecord
100
AcDbRegAppTableRecord
  2
ACAD_DSTYLE_DIMEXT_LENGTH
 70
     0
  0
APPID
  5
FC4
330
9
100
AcDbSymbolTableRecord
100
AcDbRegAppTableRecord
  2
ACAD_MLEADERVER
 70
     0
  0
APPID
  5
1179
330
9
100
AcDbSymbolTableRecord
100
AcDbRegAppTableRecord
  2
ACAD_DSTYLE_DIMJAG
 70
     0
  0
APPID
  5
117A
330
9
100
AcDbSymbolTableRecord
100
AcDbRegAppTableRecord
  2
ACAD_DSTYLE_DIMBREAK
 70
     0
  0
APPID
  5
117B
330
9
100
AcDbSymbolTableRecord
100
AcDbRegAppTableRecord
  2
ACAD_DSTYLE_DIMTALN
 70
     0
  0
APPID
  5
1494
330
9
100
AcDbSymbolTableRecord
100
AcDbRegAppTableRecord
  2
ACAD_DSTYLE_DIMRADIAL_EXTENSION
 70
     0
  0
ENDTAB
  0
TABLE
  2
DIMSTYLE
  5
A
330
0
100
AcDbSymbolTable
 70
    11
100
AcDbDimStyleTable
 71
     3
340
960
340
963
340
923
  0
DIMSTYLE
105
923
330
A
100
AcDbSymbolTableRecord
100
AcDbDimStyleTableRecord
  2
Standard
 70
     0
340
26
  0
DIMSTYLE
105
960
330
A
100
AcDbSymbolTableRecord
100
AcDbDimStyleTableRecord
  2
1：1
 70
     0
 41
2.5
 42
0.25
 43
0.2
 44
1.25
 73
     0
 74
     0
 77
     3
 78
     8
 79
     2
140
3.0
141
0.0
143
0.03937007874016
147
0.625
171
     3
172
     1
178
     4
179
     1
271
     2
272
     2
274
     3
283
     0
284
     8
288
     1
289
     0
340
26
341
94D
342
94D
1001
ACAD_DSTYLE_DIMARC_LENGTH_SYMBOL
1070
   379
1070
     2
1001
ACAD_DSTYLE_DIMEXT_LENGTH
1070
   378
1040
1.25
1001
ACAD_DSTYLE_DIMJOGGED_JOGANGLE_SYMBOL
1070
   384
1040
1.570796326794896
  0
DIMSTYLE
105
961
330
A
100
AcDbSymbolTableRecord
100
AcDbDimStyleTableRecord
  2
2：1
 70
     0
 41
2.5
 42
0.25
 43
0.2
 44
1.25
 73
     0
 74
     0
 77
     3
 78
     8
 79
     2
140
3.0
141
0.0
143
0.03937007874016
144
0.5
147
0.625
171
     3
172
     1
178
     4
179
     1
271
     2
272
     2
274
     3
283
     0
284
     8
288
     1
289
     0
340
26
341
94D
342
94D
1001
ACAD_DSTYLE_DIMARC_LENGTH_SYMBOL
1070
   379
1070
     2
1001
ACAD_DSTYLE_DIMEXT_LENGTH
1070
   378
1040
1.25
1001
ACAD_DSTYLE_DIMJOGGED_JOGANGLE_SYMBOL
1070
   384
1040
1.570796326794896
  0
DIMSTYLE
105
962
330
A
100
AcDbSymbolTableRecord
100
AcDbDimStyleTableRecord
  2
5：1
 70
     0
 41
2.5
 42
0.25
 43
0.2
 44
1.25
 73
     0
 74
     0
 77
     3
 78
     8
 79
     2
140
3.0
141
0.0
143
0.03937007874016
144
0.2
147
0.625
171
     3
178
     4
179
     1
271
     2
272
     2
274
     3
283
     0
284
     8
288
     1
289
     0
340
26
341
94D
342
94D
1001
ACAD_DSTYLE_DIMARC_LENGTH_SYMBOL
1070
   379
1070
     2
1001
ACAD_DSTYLE_DIMEXT_LENGTH
1070
   378
1040
1.25
1001
ACAD_DSTYLE_DIMJOGGED_JOGANGLE_SYMBOL
1070
   384
1040
1.570796326794896
  0
DIMSTYLE
105
963
330
A
100
AcDbSymbolTableRecord
100
AcDbDimStyleTableRecord
  2
1／2
 70
     0
 41
2.5
 42
0.25
 43
0.2
 44
1.25
 73
     0
 74
     0
 77
     3
 78
     8
 79
     2
140
3.0
141
0.0
143
0.03937007874016
144
2.0
147
0.625
171
     3
172
     1
178
     4
179
     1
271
     2
272
     2
274
     3
283
     0
284
     8
288
     1
289
     0
340
26
341
94D
342
94D
1001
ACAD_DSTYLE_DIMARC_LENGTH_SYMBOL
1070
   379
1070
     2
1001
ACAD_DSTYLE_DIMEXT_LENGTH
1070
   378
1040
1.25
1001
ACAD_DSTYLE_DIMJOGGED_JOGANGLE_SYMBOL
1070
   384
1040
1.570796326794896
  0
DIMSTYLE
105
964
330
A
100
AcDbSymbolTableRecord
100
AcDbDimStyleTableRecord
  2
1／5
 70
     0
 41
2.5
 42
0.25
 43
0.2
 44
1.25
 73
     0
 74
     0
 77
     3
 78
     8
 79
     2
140
3.0
141
0.0
143
0.03937007874016
144
5.0
147
0.625
171
     3
172
     1
178
     4
179
     1
271
     2
272
     2
274
     3
283
     0
284
     8
288
     1
289
     0
340
26
341
94D
342
94D
1001
ACAD_DSTYLE_DIMARC_LENGTH_SYMBOL
1070
   379
1070
     2
1001
ACAD_DSTYLE_DIMEXT_LENGTH
1070
   378
1040
1.25
1001
ACAD_DSTYLE_DIMJOGGED_JOGANGLE_SYMBOL
1070
   384
1040
1.570796326794896
  0
DIMSTYLE
105
965
330
A
100
AcDbSymbolTableRecord
100
AcDbDimStyleTableRecord
  2
1／10
 70
     0
 41
2.5
 42
0.25
 43
0.2
 44
1.25
 73
     0
 74
     0
 77
     3
 78
     8
 79
     2
140
3.0
141
0.0
143
0.03937007874016
144
10.0
147
0.625
171
     3
172
     1
178
     4
179
     1
271
     2
272
     2
274
     3
283
     0
284
     8
288
     1
289
     0
340
26
341
94D
342
94D
1001
ACAD_DSTYLE_DIMARC_LENGTH_SYMBOL
1070
   379
1070
     2
1001
ACAD_DSTYLE_DIMEXT_LENGTH
1070
   378
1040
1.25
1001
ACAD_DSTYLE_DIMJOGGED_JOGANGLE_SYMBOL
1070
   384
1040
1.570796326794896
  0
DIMSTYLE
105
1175
330
A
100
AcDbSymbolTableRecord
100
AcDbDimStyleTableRecord
  2
10：1
 70
     0
 41
2.5
 42
0.25
 43
0.2
 44
1.25
 73
     0
 74
     0
 77
     3
 78
     8
 79
     2
140
3.0
141
0.0
143
0.03937007874016
144
0.1
147
0.625
171
     3
172
     1
178
     4
179
     1
271
     2
272
     2
274
     3
283
     0
284
     8
288
     1
289
     0
340
26
341
94D
342
94D
1001
ACAD_DSTYLE_DIMARC_LENGTH_SYMBOL
1070
   379
1070
     2
1001
ACAD_DSTYLE_DIMEXT_LENGTH
1070
   378
1040
1.25
1001
ACAD_DSTYLE_DIMJOGGED_JOGANGLE_SYMBOL
1070
   384
1040
1.570796326794896
  0
DIMSTYLE
105
1176
330
A
100
AcDbSymbolTableRecord
100
AcDbDimStyleTableRecord
  2
1／4
 70
     0
 41
2.5
 42
0.25
 43
0.2
 44
1.25
 73
     0
 74
     0
 77
     3
 78
     8
 79
     2
140
3.0
141
0.0
143
0.03937007874016
144
4.0
147
0.625
171
     3
172
     1
178
     4
179
     1
271
     2
272
     2
274
     3
283
     0
284
     8
288
     1
289
     0
340
26
341
94D
342
94D
1001
ACAD_DSTYLE_DIMARC_LENGTH_SYMBOL
1070
   379
1070
     2
1001
ACAD_DSTYLE_DIMEXT_LENGTH
1070
   378
1040
1.25
1001
ACAD_DSTYLE_DIMJOGGED_JOGANGLE_SYMBOL
1070
   384
1040
1.570796326794896
  0
DIMSTYLE
105
1177
330
A
100
AcDbSymbolTableRecord
100
AcDbDimStyleTableRecord
  2
1／3
 70
     0
 41
2.5
 42
0.25
 43
0.2
 44
1.25
 73
     0
 74
     0
 77
     3
 78
     8
 79
     2
140
3.0
141
0.0
143
0.03937007874016
144
3.0
147
0.625
171
     3
172
     1
178
     4
179
     1
271
     2
272
     2
274
     3
283
     0
284
     8
288
     1
289
     0
340
26
341
94D
342
94D
1001
ACAD_DSTYLE_DIMARC_LENGTH_SYMBOL
1070
   379
1070
     2
1001
ACAD_DSTYLE_DIMEXT_LENGTH
1070
   378
1040
1.25
1001
ACAD_DSTYLE_DIMJOGGED_JOGANGLE_SYMBOL
1070
   384
1040
1.570796326794896
  0
DIMSTYLE
105
1178
330
A
100
AcDbSymbolTableRecord
100
AcDbDimStyleTableRecord
  2
FREE
 70
     0
 41
2.5
 42
0.25
 43
0.2
 44
1.25
 73
     0
 74
     0
 77
     3
 78
     8
 79
     2
140
3.0
141
0.0
143
0.03937007874016
147
0.625
171
     3
172
     1
178
     4
179
     1
271
     2
272
     2
274
     3
283
     0
284
     8
288
     1
289
     0
340
26
341
94D
342
94D
1001
ACAD_DSTYLE_DIMBREAK
1070
   391
1040
3.75
1001
ACAD_DSTYLE_DIMJAG
1070
   388
1040
1.5
1001
ACAD_DSTYLE_DIMTALN
1070
   392
1070
     0
1001
ACAD_DSTYLE_DIMARC_LENGTH_SYMBOL
1070
   379
1070
     2
1001
ACAD_DSTYLE_DIMEXT_LENGTH
1070
   378
1040
1.25
1001
ACAD_DSTYLE_DIMJOGGED_JOGANGLE_SYMBOL
1070
   384
1040
1.570796326794896
  0
ENDTAB
  0
TABLE
  2
BLOCK_RECORD
  5
1
330
0
100
AcDbSymbolTable
 70
    55
  0
BLOCK_RECORD
  5
36
102
{ACAD_XDICTIONARY
360
92F
102
}
330
1
100
AcDbSymbolTableRecord
100
AcDbBlockTableRecord
  2
*Model_Space
340
39
  0
BLOCK_RECORD
  5
32
330
1
100
AcDbSymbolTableRecord
100
AcDbBlockTableRecord
  2
*Paper_Space
340
35
  0
BLOCK_RECORD
  5
94D
330
1
100
AcDbSymbolTableRecord
100
AcDbBlockTableRecord
  2
_Open30
340
0
102
{BLKREFS
331
188E
331
188F
331
1898
331
1899
331
18A3
331
18A4
331
18AE
331
18AF
331
18B7
331
18B8
331
1A20
331
1A21
331
1A2B
331
1A2C
331
1A36
331
1A37
331
1A41
331
1A42
331
1A4C
331
1A4D
331
1A57
331
1A58
331
1A61
331
1A62
331
1A6C
331
1A6D
331
1A77
331
1A78
331
1A80
331
1A81
102
}
  0
BLOCK_RECORD
  5
155B
330
1
100
AcDbSymbolTableRecord
100
AcDbBlockTableRecord
  2
*D29
340
0
  0
BLOCK_RECORD
  5
1572
330
1
100
AcDbSymbolTableRecord
100
AcDbBlockTableRecord
  2
*D30
340
0
  0
BLOCK_RECORD
  5
1581
330
1
100
AcDbSymbolTableRecord
100
AcDbBlockTableRecord
  2
*D31
340
0
  0
BLOCK_RECORD
  5
1590
330
1
100
AcDbSymbolTableRecord
100
AcDbBlockTableRecord
  2
*D32
340
0
  0
BLOCK_RECORD
  5
15B6
330
1
100
AcDbSymbolTableRecord
100
AcDbBlockTableRecord
  2
*D33
340
0
  0
BLOCK_RECORD
  5
1992
330
1
100
AcDbSymbolTableRecord
100
AcDbBlockTableRecord
  2
*D45
340
0
  0
BLOCK_RECORD
  5
19A0
330
1
100
AcDbSymbolTableRecord
100
AcDbBlockTableRecord
  2
*D46
340
0
  0
BLOCK_RECORD
  5
19AE
330
1
100
AcDbSymbolTableRecord
100
AcDbBlockTableRecord
  2
*D47
340
0
  0
BLOCK_RECORD
  5
19BC
330
1
100
AcDbSymbolTableRecord
100
AcDbBlockTableRecord
  2
*D48
340
0
  0
BLOCK_RECORD
  5
19CA
330
1
100
AcDbSymbolTableRecord
100
AcDbBlockTableRecord
  2
*D49
340
0
  0
BLOCK_RECORD
  5
19D8
330
1
100
AcDbSymbolTableRecord
100
AcDbBlockTableRecord
  2
*D50
340
0
  0
BLOCK_RECORD
  5
19E6
330
1
100
AcDbSymbolTableRecord
100
AcDbBlockTableRecord
  2
*D51
340
0
  0
BLOCK_RECORD
  5
19F3
330
1
100
AcDbSymbolTableRecord
100
AcDbBlockTableRecord
  2
*D52
340
0
  0
BLOCK_RECORD
  5
1A01
330
1
100
AcDbSymbolTableRecord
100
AcDbBlockTableRecord
  2
*D53
340
0
  0
BLOCK_RECORD
  5
1A0F
330
1
100
AcDbSymbolTableRecord
100
AcDbBlockTableRecord
  2
*D54
340
0
  0
ENDTAB
  0
ENDSEC
  0
SECTION
  2
BLOCKS
  0
BLOCK
  5
37
330
36
100
AcDbEntity
  8
0
100
AcDbBlockBegin
  2
*Model_Space
 70
     0
 10
0.0
 20
0.0
 30
0.0
  3
*Model_Space
  1

  0
ENDBLK
  5
38
330
36
100
AcDbEntity
  8
0
100
AcDbBlockEnd
  0
BLOCK
  5
33
330
32
100
AcDbEntity
 67
     1
  8
0
100
AcDbBlockBegin
  2
*Paper_Space
 70
     0
 10
0.0
 20
0.0
 30
0.0
  3
*Paper_Space
  1

  0
ENDBLK
  5
34
330
32
100
AcDbEntity
 67
     1
  8
0
100
AcDbBlockEnd
  0
BLOCK
  5
94E
330
94D
100
AcDbEntity
  8
0
100
AcDbBlockBegin
  2
_Open30
 70
     0
 10
0.0
 20
0.0
 30
0.0
  3
_Open30
  1

  0
LINE
  5
94F
330
94D
100
AcDbEntity
  8
0
  6
ByBlock
 62
     0
370
    -2
100
AcDbLine
 10
-1.0
 20
0.267949
 30
0.0
 11
0.0
 21
0.0
 31
0.0
  0
LINE
  5
950
330
94D
100
AcDbEntity
  8
0
  6
ByBlock
 62
     0
370
    -2
100
AcDbLine
 10
0.0
 20
0.0
 30
0.0
 11
-1.0
 21
-0.267949
 31
0.0
  0
LINE
  5
951
330
94D
100
AcDbEntity
  8
0
  6
ByBlock
 62
     0
370
    -2
100
AcDbLine
 10
0.0
 20
0.0
 30
0.0
 11
-1.0
 21
0.0
 31
0.0
  0
ENDBLK
  5
952
330
94D
100
AcDbEntity
  8
0
100
AcDbBlockEnd
  0
BLOCK
  5
155C
330
155B
100
AcDbEntity
  8
0
100
AcDbBlockBegin
  2
*D29
 70
     1
 10
0.0
 20
0.0
 30
0.0
  3
*D29
  1

  0
LINE
  5
188D
330
155B
100
AcDbEntity
  8
0
  6
Continuous
 62
     0
370
    -2
100
AcDbLine
 10
47.55323822795392
 20
-432.7098052130534
 30
0.0
 11
114.7071958239446
 21
-399.3130092709896
 31
0.0
  0
INSERT
  5
188E
330
155B
100
AcDbEntity
  8
0
  6
Continuous
 62
     0
370
    -2
100
AcDbBlockReference
  2
_Open30
 10
45.31477297475425
 20
-433.8230317444556
 30
0.0
 41
2.5
 42
2.5
 43
2.5
 50
206.4419335708261
  0
INSERT
  5
188F
330
155B
100
AcDbEntity
  8
0
  6
Continuous
 62
     0
370
    -2
100
AcDbBlockReference
  2
_Open30
 10
116.9456610771442
 20
-398.1997827395874
 30
0.0
 41
2.5
 42
2.5
 43
2.5
 50
26.44193357082613
  0
MTEXT
  5
1890
330
155B
100
AcDbEntity
  8
0
  6
Continuous
 62
     4
100
AcDbMText
 10
90.41708937582043
 20
-409.0196111123965
 30
0.0
 40
3.0
 41
0.0
 71
     5
 72
     1
  1
MAX \U+03C6160
 11
0.895386101279878
 21
0.4452906125608532
 31
0.0
 73
     1
 44
1.0
1001
ACAD
1000
MTEXTBEGIN
1070
    73
1070
     1
1070
    44
1040
1.0
1070
    74
1070
     0
1000
MTEXTEND
  0
POINT
  5
1891
330
155B
100
AcDbEntity
  8
Defpoints
  6
Continuous
 62
     0
100
AcDbPoint
 10
116.9456610771442
 20
-398.1997827395874
 30
0.0
  0
POINT
  5
1892
330
155B
100
AcDbEntity
  8
Defpoints
  6
Continuous
 62
     0
100
AcDbPoint
 10
45.31477297475425
 20
-433.8230317444556
 30
0.0
  0
ENDBLK
  5
155D
330
155B
100
AcDbEntity
  8
0
100
AcDbBlockEnd
  0
BLOCK
  5
1573
330
1572
100
AcDbEntity
  8
0
100
AcDbBlockBegin
  2
*D30
 70
     1
 10
0.0
 20
0.0
 30
0.0
  3
*D30
  1

  0
LINE
  5
1893
330
1572
100
AcDbEntity
  8
0
  6
Continuous
 62
     0
370
    -2
100
AcDbLine
 10
189.0527021274394
 20
-341.2058929570187
 30
0.0
 11
205.0891099262295
 21
-341.2058929570187
 31
0.0
  0
LINE
  5
1894
330
1572
100
AcDbEntity
  8
0
  6
Continuous
 62
     0
370
    -2
100
AcDbLine
 10
190.7355849517699
 20
-321.2058929570188
 30
0.0
 11
205.0891099262295
 21
-321.2058929570188
 31
0.0
  0
LINE
  5
1895
330
1572
100
AcDbEntity
  8
0
  6
Continuous
 62
     0
370
    -2
100
AcDbLine
 10
203.8391099262295
 20
-343.7058929570187
 30
0.0
 11
203.8391099262295
 21
-346.2058929570187
 31
0.0
  0
LINE
  5
1896
330
1572
100
AcDbEntity
  8
0
  6
Continuous
 62
     0
370
    -2
100
AcDbLine
 10
203.8391099262295
 20
-318.7058929570188
 30
0.0
 11
203.8391099262295
 21
-310.4558929570188
 31
0.0
  0
LINE
  5
1897
330
1572
100
AcDbEntity
  8
0
  6
Continuous
 62
     0
370
    -2
100
AcDbLine
 10
203.8391099262295
 20
-341.2058929570187
 30
0.0
 11
203.8391099262295
 21
-321.2058929570188
 31
0.0
  0
INSERT
  5
1898
330
1572
100
AcDbEntity
  8
0
  6
Continuous
 62
     0
370
    -2
100
AcDbBlockReference
  2
_Open30
 10
203.8391099262295
 20
-341.2058929570187
 30
0.0
 41
2.5
 42
2.5
 43
2.5
 50
90.0
  0
INSERT
  5
1899
330
1572
100
AcDbEntity
  8
0
  6
Continuous
 62
     0
370
    -2
100
AcDbBlockReference
  2
_Open30
 10
203.8391099262295
 20
-321.2058929570188
 30
0.0
 41
2.5
 42
2.5
 43
2.5
 50
270.0
  0
MTEXT
  5
189A
330
1572
100
AcDbEntity
  8
0
  6
Continuous
 62
     4
100
AcDbMText
 10
201.7141099262295
 20
-313.3308929570187
 30
0.0
 40
3.0
 41
0.0
 71
     5
 72
     1
  1
20
 11
0.0000000000000001
 21
1.0
 31
0.0
 73
     1
 44
1.0
1001
ACAD
1000
MTEXTBEGIN
1070
    73
1070
     1
1070
    44
1040
1.0
1070
    74
1070
     0
1000
MTEXTEND
  0
POINT
  5
189B
330
1572
100
AcDbEntity
  8
Defpoints
  6
Continuous
 62
     0
100
AcDbPoint
 10
188.8027021274394
 20
-341.2058929570187
 30
0.0
  0
POINT
  5
189C
330
1572
100
AcDbEntity
  8
Defpoints
  6
Continuous
 62
     0
100
AcDbPoint
 10
190.4855849517699
 20
-321.2058929570188
 30
0.0
  0
POINT
  5
189D
330
1572
100
AcDbEntity
  8
Defpoints
  6
Continuous
 62
     0
100
AcDbPoint
 10
203.8391099262295
 20
-321.2058929570188
 30
0.0
  0
ENDBLK
  5
1574
330
1572
100
AcDbEntity
  8
0
100
AcDbBlockEnd
  0
BLOCK
  5
1582
330
1581
100
AcDbEntity
  8
0
100
AcDbBlockBegin
  2
*D31
 70
     1
 10
0.0
 20
0.0
 30
0.0
  3
*D31
  1

  0
LINE
  5
189E
330
1581
100
AcDbEntity
  8
0
  6
Continuous
 62
     0
370
    -2
100
AcDbLine
 10
111.7477719852723
 20
-318.4558929570187
 30
0.0
 11
124.7872644039507
 21
-318.4558929570187
 31
0.0
  0
LINE
  5
189F
330
1581
100
AcDbEntity
  8
0
  6
Continuous
 62
     0
370
    -2
100
AcDbLine
 10
111.7477719852723
 20
-343.9558929570189
 30
0.0
 11
124.7872644039507
 21
-343.9558929570189
 31
0.0
  0
LINE
  5
18A0
330
1581
100
AcDbEntity
  8
0
  6
Continuous
 62
     0
370
    -2
100
AcDbLine
 10
123.5372644039507
 20
-346.4558929570189
 30
0.0
 11
123.5372644039507
 21
-348.9558929570189
 31
0.0
  0
LINE
  5
18A1
330
1581
100
AcDbEntity
  8
0
  6
Continuous
 62
     0
370
    -2
100
AcDbLine
 10
123.5372644039507
 20
-315.9558929570187
 30
0.0
 11
123.5372644039507
 21
-300.8512272505583
 31
0.0
  0
LINE
  5
18A2
330
1581
100
AcDbEntity
  8
0
  6
Continuous
 62
     0
370
    -2
100
AcDbLine
 10
123.5372644039507
 20
-343.9558929570189
 30
0.0
 11
123.5372644039507
 21
-318.4558929570187
 31
0.0
  0
INSERT
  5
18A3
330
1581
100
AcDbEntity
  8
0
  6
Continuous
 62
     0
370
    -2
100
AcDbBlockReference
  2
_Open30
 10
123.5372644039507
 20
-343.9558929570189
 30
0.0
 41
2.5
 42
2.5
 43
2.5
 50
90.0
  0
INSERT
  5
18A4
330
1581
100
AcDbEntity
  8
0
  6
Continuous
 62
     0
370
    -2
100
AcDbBlockReference
  2
_Open30
 10
123.5372644039507
 20
-318.4558929570187
 30
0.0
 41
2.5
 42
2.5
 43
2.5
 50
270.0
  0
MTEXT
  5
18A5
330
1581
100
AcDbEntity
  8
0
  6
Continuous
 62
     4
100
AcDbMText
 10
121.4122644039508
 20
-305.9762272505583
 30
0.0
 40
3.0
 41
0.0
 71
     5
 72
     1
  1
25.5
 11
0.0000000000000001
 21
1.0
 31
0.0
 73
     1
 44
1.0
1001
ACAD
1000
MTEXTBEGIN
1070
    73
1070
     1
1070
    44
1040
1.0
1070
    74
1070
     0
1000
MTEXTEND
  0
POINT
  5
18A6
330
1581
100
AcDbEntity
  8
Defpoints
  6
Continuous
 62
     0
100
AcDbPoint
 10
111.4977719852723
 20
-318.4558929570187
 30
0.0
  0
POINT
  5
18A7
330
1581
100
AcDbEntity
  8
Defpoints
  6
Continuous
 62
     0
100
AcDbPoint
 10
111.4977719852723
 20
-343.9558929570189
 30
0.0
  0
POINT
  5
18A8
330
1581
100
AcDbEntity
  8
Defpoints
  6
Continuous
 62
     0
100
AcDbPoint
 10
123.5372644039507
 20
-343.9558929570189
 30
0.0
  0
ENDBLK
  5
1583
330
1581
100
AcDbEntity
  8
0
100
AcDbBlockEnd
  0
BLOCK
  5
1591
330
1590
100
AcDbEntity
  8
0
100
AcDbBlockBegin
  2
*D32
 70
     1
 10
0.0
 20
0.0
 30
0.0
  3
*D32
  1

  0
LINE
  5
18A9
330
1590
100
AcDbEntity
  8
0
  6
Continuous
 62
     0
370
    -2
100
AcDbLine
 10
65.17988927817782
 20
-317.2058929570188
 30
0.0
 11
50.48628907552444
 21
-317.2058929570188
 31
0.0
  0
LINE
  5
18AA
330
1590
100
AcDbEntity
  8
0
  6
Continuous
 62
     0
370
    -2
100
AcDbLine
 10
66.05107958429994
 20
-346.9556124589777
 30
0.0
 11
50.48628907552443
 21
-346.9556124589777
 31
0.0
  0
LINE
  5
18AB
330
1590
100
AcDbEntity
  8
0
  6
Continuous
 62
     0
370
    -2
100
AcDbLine
 10
51.73628907552444
 20
-314.7058929570188
 30
0.0
 11
51.73628907552444
 21
-312.2058929570188
 31
0.0
  0
LINE
  5
18AC
330
1590
100
AcDbEntity
  8
0
  6
Continuous
 62
     0
370
    -2
100
AcDbLine
 10
51.73628907552443
 20
-349.4556124589777
 30
0.0
 11
51.73628907552443
 21
-361.4556124589777
 31
0.0
  0
LINE
  5
18AD
330
1590
100
AcDbEntity
  8
0
  6
Continuous
 62
     0
370
    -2
100
AcDbLine
 10
51.73628907552444
 20
-317.2058929570188
 30
0.0
 11
51.73628907552443
 21
-346.9556124589777
 31
0.0
  0
INSERT
  5
18AE
330
1590
100
AcDbEntity
  8
0
  6
Continuous
 62
     0
370
    -2
100
AcDbBlockReference
  2
_Open30
 10
51.73628907552444
 20
-317.2058929570188
 30
0.0
 41
2.5
 42
2.5
 43
2.5
 50
270.0
  0
INSERT
  5
18AF
330
1590
100
AcDbEntity
  8
0
  6
Continuous
 62
     0
370
    -2
100
AcDbBlockReference
  2
_Open30
 10
51.73628907552443
 20
-346.9556124589777
 30
0.0
 41
2.5
 42
2.5
 43
2.5
 50
90.0
  0
MTEXT
  5
18B0
330
1590
100
AcDbEntity
  8
0
  6
Continuous
 62
     4
100
AcDbMText
 10
49.61128907552449
 20
-358.5806124589776
 30
0.0
 40
3.0
 41
0.0
 71
     5
 72
     1
  1
30
 11
0.0000000000000001
 21
1.0
 31
0.0
 73
     1
 44
1.0
1001
ACAD
1000
MTEXTBEGIN
1070
    73
1070
     1
1070
    44
1040
1.0
1070
    74
1070
     0
1000
MTEXTEND
  0
POINT
  5
18B1
330
1590
100
AcDbEntity
  8
Defpoints
  6
Continuous
 62
     0
100
AcDbPoint
 10
65.42988927817782
 20
-317.2058929570188
 30
0.0
  0
POINT
  5
18B2
330
1590
100
AcDbEntity
  8
Defpoints
  6
Continuous
 62
     0
100
AcDbPoint
 10
66.30107958429994
 20
-346.9556124589777
 30
0.0
  0
POINT
  5
18B3
330
1590
100
AcDbEntity
  8
Defpoints
  6
Continuous
 62
     0
100
AcDbPoint
 10
51.73628907552443
 20
-346.9556124589777
 30
0.0
  0
ENDBLK
  5
1592
330
1590
100
AcDbEntity
  8
0
100
AcDbBlockEnd
  0
BLOCK
  5
15B7
330
15B6
100
AcDbEntity
  8
0
100
AcDbBlockBegin
  2
*D33
 70
     1
 10
0.0
 20
0.0
 30
0.0
  3
*D33
  1

  0
LINE
  5
18B4
330
15B6
100
AcDbEntity
  8
0
  6
Continuous
 62
     0
370
    -2
100
AcDbLine
 10
111.4977719852723
 20
-260.3425973260733
 30
0.0
 11
111.4977719852723
 21
-275.5234849992879
 31
0.0
  0
LINE
  5
18B5
330
15B6
100
AcDbEntity
  8
0
  6
Continuous
 62
     0
370
    -2
100
AcDbLine
 10
62.99777198527244
 20
-252.3425973260734
 30
0.0
 11
62.99777198527244
 21
-275.5234849992879
 31
0.0
  0
LINE
  5
18B6
330
15B6
100
AcDbEntity
  8
0
  6
Continuous
 62
     0
370
    -2
100
AcDbLine
 10
108.9977719852723
 20
-274.2734849992879
 30
0.0
 11
65.49777198527244
 21
-274.2734849992879
 31
0.0
  0
INSERT
  5
18B7
330
15B6
100
AcDbEntity
  8
0
  6
Continuous
 62
     0
370
    -2
100
AcDbBlockReference
  2
_Open30
 10
111.4977719852723
 20
-274.2734849992879
 30
0.0
 41
2.5
 42
2.5
 43
2.5
  0
INSERT
  5
18B8
330
15B6
100
AcDbEntity
  8
0
  6
Continuous
 62
     0
370
    -2
100
AcDbBlockReference
  2
_Open30
 10
62.99777198527244
 20
-274.2734849992879
 30
0.0
 41
2.5
 42
2.5
 43
2.5
 50
180.0
  0
MTEXT
  5
18B9
330
15B6
100
AcDbEntity
  8
0
  6
Continuous
 62
     4
100
AcDbMText
 10
84.4053456378266
 20
-272.1484849992879
 30
0.0
 40
3.0
 41
0.0
 71
     5
 72
     1
  1
48.5
 73
     1
 44
1.0
1001
ACAD
1000
MTEXTBEGIN
1070
    73
1070
     1
1070
    44
1040
1.0
1070
    74
1070
     0
1000
MTEXTEND
  0
POINT
  5
18BA
330
15B6
100
AcDbEntity
  8
Defpoints
  6
Continuous
 62
     0
100
AcDbPoint
 10
111.4977719852723
 20
-260.0925973260733
 30
0.0
  0
POINT
  5
18BB
330
15B6
100
AcDbEntity
  8
Defpoints
  6
Continuous
 62
     0
100
AcDbPoint
 10
62.99777198527244
 20
-252.0925973260734
 30
0.0
  0
POINT
  5
18BC
330
15B6
100
AcDbEntity
  8
Defpoints
  6
Continuous
 62
     0
100
AcDbPoint
 10
62.99777198527244
 20
-274.2734849992879
 30
0.0
  0
ENDBLK
  5
15B8
330
15B6
100
AcDbEntity
  8
0
100
AcDbBlockEnd
  0
BLOCK
  5
1993
330
1992
100
AcDbEntity
  8
0
100
AcDbBlockBegin
  2
*D45
 70
     1
 10
0.0
 20
0.0
 30
0.0
  3
*D45
  1

  0
LINE
  5
1A1B
330
1992
100
AcDbEntity
  8
0
 62
     0
370
    -2
100
AcDbLine
 10
602.1574635872286
 20
-209.7472963648832
 30
0.0
 11
602.1574635872286
 21
-212.6569277868921
 31
0.0
  0
LINE
  5
1A1C
330
1992
100
AcDbEntity
  8
0
 62
     0
370
    -2
100
AcDbLine
 10
599.7002765331084
 20
-209.7472963648832
 30
0.0
 11
599.7002765331084
 21
-212.6569277868921
 31
0.0
  0
LINE
  5
1A1D
330
1992
100
AcDbEntity
  8
0
 62
     0
370
    -2
100
AcDbLine
 10
604.6574635872286
 20
-211.4069277868921
 30
0.0
 11
607.1574635872287
 21
-211.4069277868921
 31
0.0
  0
LINE
  5
1A1E
330
1992
100
AcDbEntity
  8
0
 62
     0
370
    -2
100
AcDbLine
 10
597.2002765331084
 20
-211.4069277868921
 30
0.0
 11
584.4502765331084
 21
-211.4069277868921
 31
0.0
  0
LINE
  5
1A1F
330
1992
100
AcDbEntity
  8
0
 62
     0
370
    -2
100
AcDbLine
 10
602.1574635872286
 20
-211.4069277868921
 30
0.0
 11
599.7002765331084
 21
-211.4069277868921
 31
0.0
  0
INSERT
  5
1A20
330
1992
100
AcDbEntity
  8
0
 62
     0
370
    -2
100
AcDbBlockReference
  2
_Open30
 10
602.1574635872286
 20
-211.4069277868921
 30
0.0
 41
2.5
 42
2.5
 43
2.5
 50
180.0
  0
INSERT
  5
1A21
330
1992
100
AcDbEntity
  8
0
 62
     0
370
    -2
100
AcDbBlockReference
  2
_Open30
 10
599.7002765331084
 20
-211.4069277868921
 30
0.0
 41
2.5
 42
2.5
 43
2.5
  0
MTEXT
  5
1A22
330
1992
100
AcDbEntity
  8
0
 62
     4
100
AcDbMText
 10
589.5752765331084
 20
-209.2819277868921
 30
0.0
 40
3.0
 41
0.0
 71
     5
 72
     1
  1
2.46
 73
     1
 44
1.0
1001
ACAD
1000
MTEXTBEGIN
1070
    73
1070
     1
1070
    44
1040
1.0
1070
    74
1070
     0
1000
MTEXTEND
  0
POINT
  5
1A23
330
1992
100
AcDbEntity
  8
Defpoints
 62
     0
100
AcDbPoint
 10
602.1574635872286
 20
-209.4972963648833
 30
0.0
  0
POINT
  5
1A24
330
1992
100
AcDbEntity
  8
Defpoints
 62
     0
100
AcDbPoint
 10
599.7002765331084
 20
-209.4972963648833
 30
0.0
  0
POINT
  5
1A25
330
1992
100
AcDbEntity
  8
Defpoints
 62
     0
100
AcDbPoint
 10
599.7002765331084
 20
-211.4069277868921
 30
0.0
  0
ENDBLK
  5
1994
330
1992
100
AcDbEntity
  8
0
100
AcDbBlockEnd
  0
BLOCK
  5
19A1
330
19A0
100
AcDbEntity
  8
0
100
AcDbBlockBegin
  2
*D46
 70
     1
 10
0.0
 20
0.0
 30
0.0
  3
*D46
  1

  0
LINE
  5
1A26
330
19A0
100
AcDbEntity
  8
0
 62
     0
370
    -2
100
AcDbLine
 10
603.7955884933019
 20
-215.2033859376456
 30
0.0
 11
603.7955884933019
 21
-217.7492780071089
 31
0.0
  0
LINE
  5
1A27
330
19A0
100
AcDbEntity
  8
0
 62
     0
370
    -2
100
AcDbLine
 10
600.701352695159
 20
-215.2033859376456
 30
0.0
 11
600.701352695159
 21
-217.7492780071089
 31
0.0
  0
LINE
  5
1A28
330
19A0
100
AcDbEntity
  8
0
 62
     0
370
    -2
100
AcDbLine
 10
606.2955884933018
 20
-216.499278007109
 30
0.0
 11
608.7955884933019
 21
-216.499278007109
 31
0.0
  0
LINE
  5
1A29
330
19A0
100
AcDbEntity
  8
0
 62
     0
370
    -2
100
AcDbLine
 10
598.201352695159
 20
-216.499278007109
 30
0.0
 11
584.3680193618257
 21
-216.499278007109
 31
0.0
  0
LINE
  5
1A2A
330
19A0
100
AcDbEntity
  8
0
 62
     0
370
    -2
100
AcDbLine
 10
603.7955884933019
 20
-216.499278007109
 30
0.0
 11
600.701352695159
 21
-216.499278007109
 31
0.0
  0
INSERT
  5
1A2B
330
19A0
100
AcDbEntity
  8
0
 62
     0
370
    -2
100
AcDbBlockReference
  2
_Open30
 10
603.7955884933019
 20
-216.499278007109
 30
0.0
 41
2.5
 42
2.5
 43
2.5
 50
180.0
  0
INSERT
  5
1A2C
330
19A0
100
AcDbEntity
  8
0
 62
     0
370
    -2
100
AcDbBlockReference
  2
_Open30
 10
600.701352695159
 20
-216.499278007109
 30
0.0
 41
2.5
 42
2.5
 43
2.5
  0
MTEXT
  5
1A2D
330
19A0
100
AcDbEntity
  8
0
 62
     4
100
AcDbMText
 10
589.576352695159
 20
-214.6242780071089
 30
0.0
 40
2.5
 41
0.0
 71
     5
 72
     1
  1
15.47
  7
高2.5
 73
     1
 44
1.0
1001
ACAD
1000
MTEXTBEGIN
1070
    73
1070
     1
1070
    44
1040
1.0
1070
    74
1070
     0
1000
MTEXTEND
  0
POINT
  5
1A2E
330
19A0
100
AcDbEntity
  8
Defpoints
 62
     0
100
AcDbPoint
 10
603.7955884933019
 20
-214.9533859376457
 30
0.0
  0
POINT
  5
1A2F
330
19A0
100
AcDbEntity
  8
Defpoints
 62
     0
100
AcDbPoint
 10
600.701352695159
 20
-214.9533859376457
 30
0.0
  0
POINT
  5
1A30
330
19A0
100
AcDbEntity
  8
Defpoints
 62
     0
100
AcDbPoint
 10
600.701352695159
 20
-216.499278007109
 30
0.0
  0
ENDBLK
  5
19A2
330
19A0
100
AcDbEntity
  8
0
100
AcDbBlockEnd
  0
BLOCK
  5
19AF
330
19AE
100
AcDbEntity
  8
0
100
AcDbBlockBegin
  2
*D47
 70
     1
 10
0.0
 20
0.0
 30
0.0
  3
*D47
  1

  0
LINE
  5
1A31
330
19AE
100
AcDbEntity
  8
0
 62
     0
370
    -2
100
AcDbLine
 10
605.5247201013874
 20
-220.6594756534921
 30
0.0
 11
605.5247201013874
 21
-222.9325633158594
 31
0.0
  0
LINE
  5
1A32
330
19AE
100
AcDbEntity
  8
0
 62
     0
370
    -2
100
AcDbLine
 10
601.5204151481955
 20
-220.6594756534921
 30
0.0
 11
601.5204151481955
 21
-222.9325633158594
 31
0.0
  0
LINE
  5
1A33
330
19AE
100
AcDbEntity
  8
0
 62
     0
370
    -2
100
AcDbLine
 10
608.0247201013873
 20
-221.6825633158594
 30
0.0
 11
610.5247201013874
 21
-221.6825633158594
 31
0.0
  0
LINE
  5
1A34
330
19AE
100
AcDbEntity
  8
0
 62
     0
370
    -2
100
AcDbLine
 10
599.0204151481955
 20
-221.6825633158594
 30
0.0
 11
587.2704151481955
 21
-221.6825633158594
 31
0.0
  0
LINE
  5
1A35
330
19AE
100
AcDbEntity
  8
0
 62
     0
370
    -2
100
AcDbLine
 10
605.5247201013874
 20
-221.6825633158594
 30
0.0
 11
601.5204151481955
 21
-221.6825633158594
 31
0.0
  0
INSERT
  5
1A36
330
19AE
100
AcDbEntity
  8
0
 62
     0
370
    -2
100
AcDbBlockReference
  2
_Open30
 10
605.5247201013874
 20
-221.6825633158594
 30
0.0
 41
2.5
 42
2.5
 43
2.5
 50
180.0
  0
INSERT
  5
1A37
330
19AE
100
AcDbEntity
  8
0
 62
     0
370
    -2
100
AcDbBlockReference
  2
_Open30
 10
601.5204151481955
 20
-221.6825633158594
 30
0.0
 41
2.5
 42
2.5
 43
2.5
  0
MTEXT
  5
1A38
330
19AE
100
AcDbEntity
  8
0
 62
     4
100
AcDbMText
 10
591.8954151481955
 20
-219.4575633158594
 30
0.0
 40
3.2
 41
0.0
 71
     5
 72
     1
  1
8.01
  7
高3.2
 73
     1
 44
1.0
1001
ACAD
1000
MTEXTBEGIN
1070
    73
1070
     1
1070
    44
1040
1.0
1070
    74
1070
     0
1000
MTEXTEND
  0
POINT
  5
1A39
330
19AE
100
AcDbEntity
  8
Defpoints
 62
     0
100
AcDbPoint
 10
605.5247201013874
 20
-220.4094756534921
 30
0.0
  0
POINT
  5
1A3A
330
19AE
100
AcDbEntity
  8
Defpoints
 62
     0
100
AcDbPoint
 10
601.5204151481955
 20
-220.4094756534921
 30
0.0
  0
POINT
  5
1A3B
330
19AE
100
AcDbEntity
  8
Defpoints
 62
     0
100
AcDbPoint
 10
601.5204151481955
 20
-221.6825633158594
 30
0.0
  0
ENDBLK
  5
19B0
330
19AE
100
AcDbEntity
  8
0
100
AcDbBlockEnd
  0
BLOCK
  5
19BD
330
19BC
100
AcDbEntity
  8
0
100
AcDbBlockBegin
  2
*D48
 70
     1
 10
0.0
 20
0.0
 30
0.0
  3
*D48
  1

  0
LINE
  5
1A3C
330
19BC
100
AcDbEntity
  8
0
 62
     0
370
    -2
100
AcDbLine
 10
605.4337133993751
 20
-225.9336956215237
 30
0.0
 11
605.4337133993751
 21
-227.7521091289801
 31
0.0
  0
LINE
  5
1A3D
330
19BC
100
AcDbEntity
  8
0
 62
     0
370
    -2
100
AcDbLine
 10
600.701352695159
 20
-225.9336956215237
 30
0.0
 11
600.701352695159
 21
-227.7521091289801
 31
0.0
  0
LINE
  5
1A3E
330
19BC
100
AcDbEntity
  8
0
 62
     0
370
    -2
100
AcDbLine
 10
607.9337133993751
 20
-226.5021091289801
 30
0.0
 11
610.4337133993752
 21
-226.5021091289801
 31
0.0
  0
LINE
  5
1A3F
330
19BC
100
AcDbEntity
  8
0
 62
     0
370
    -2
100
AcDbLine
 10
598.201352695159
 20
-226.5021091289801
 30
0.0
 11
576.4513526951589
 21
-226.5021091289801
 31
0.0
  0
LINE
  5
1A40
330
19BC
100
AcDbEntity
  8
0
 62
     0
370
    -2
100
AcDbLine
 10
605.4337133993751
 20
-226.5021091289801
 30
0.0
 11
600.701352695159
 21
-226.5021091289801
 31
0.0
  0
INSERT
  5
1A41
330
19BC
100
AcDbEntity
  8
0
 62
     0
370
    -2
100
AcDbBlockReference
  2
_Open30
 10
605.4337133993751
 20
-226.5021091289801
 30
0.0
 41
2.5
 42
2.5
 43
2.5
 50
180.0
  0
INSERT
  5
1A42
330
19BC
100
AcDbEntity
  8
0
 62
     0
370
    -2
100
AcDbBlockReference
  2
_Open30
 10
600.701352695159
 20
-226.5021091289801
 30
0.0
 41
2.5
 42
2.5
 43
2.5
  0
MTEXT
  5
1A43
330
19BC
100
AcDbEntity
  8
0
 62
     4
100
AcDbMText
 10
586.076352695159
 20
-223.6271091289801
 30
0.0
 40
4.5
 41
0.0
 71
     5
 72
     1
  1
47.32
  7
高4.5
 73
     1
 44
1.0
1001
ACAD
1000
MTEXTBEGIN
1070
    73
1070
     1
1070
    44
1040
1.0
1070
    74
1070
     0
1000
MTEXTEND
  0
POINT
  5
1A44
330
19BC
100
AcDbEntity
  8
Defpoints
 62
     0
100
AcDbPoint
 10
605.4337133993751
 20
-225.6836956215237
 30
0.0
  0
POINT
  5
1A45
330
19BC
100
AcDbEntity
  8
Defpoints
 62
     0
100
AcDbPoint
 10
600.701352695159
 20
-225.6836956215237
 30
0.0
  0
POINT
  5
1A46
330
19BC
100
AcDbEntity
  8
Defpoints
 62
     0
100
AcDbPoint
 10
600.701352695159
 20
-226.5021091289801
 30
0.0
  0
ENDBLK
  5
19BE
330
19BC
100
AcDbEntity
  8
0
100
AcDbBlockEnd
  0
BLOCK
  5
19CB
330
19CA
100
AcDbEntity
  8
0
100
AcDbBlockBegin
  2
*D49
 70
     1
 10
0.0
 20
0.0
 30
0.0
  3
*D49
  1

  0
LINE
  5
1A47
330
19CA
100
AcDbEntity
  8
0
 62
     0
370
    -2
100
AcDbLine
 10
626.9113496673826
 20
-209.7472963648832
 30
0.0
 11
626.9113496673826
 21
-212.6569277868921
 31
0.0
  0
LINE
  5
1A48
330
19CA
100
AcDbEntity
  8
0
 62
     0
370
    -2
100
AcDbLine
 10
624.4541626132622
 20
-209.7472963648832
 30
0.0
 11
624.4541626132622
 21
-212.6569277868921
 31
0.0
  0
LINE
  5
1A49
330
19CA
100
AcDbEntity
  8
0
 62
     0
370
    -2
100
AcDbLine
 10
629.4113496673826
 20
-211.4069277868921
 30
0.0
 11
631.9113496673826
 21
-211.4069277868921
 31
0.0
  0
LINE
  5
1A4A
330
19CA
100
AcDbEntity
  8
0
 62
     0
370
    -2
100
AcDbLine
 10
621.9541626132622
 20
-211.4069277868921
 30
0.0
 11
600.3541626132622
 21
-211.4069277868921
 31
0.0
  0
LINE
  5
1A4B
330
19CA
100
AcDbEntity
  8
0
 62
     0
370
    -2
100
AcDbLine
 10
626.9113496673826
 20
-211.4069277868921
 30
0.0
 11
624.4541626132622
 21
-211.4069277868921
 31
0.0
  0
INSERT
  5
1A4C
330
19CA
100
AcDbEntity
  8
0
 62
     0
370
    -2
100
AcDbBlockReference
  2
_Open30
 10
626.9113496673826
 20
-211.4069277868921
 30
0.0
 41
2.5
 42
2.5
 43
2.5
 50
180.0
  0
INSERT
  5
1A4D
330
19CA
100
AcDbEntity
  8
0
 62
     0
370
    -2
100
AcDbBlockReference
  2
_Open30
 10
624.4541626132622
 20
-211.4069277868921
 30
0.0
 41
2.5
 42
2.5
 43
2.5
  0
MTEXT
  5
1A4E
330
19CA
100
AcDbEntity
  8
0
 62
     4
100
AcDbMText
 10
609.9041626132623
 20
-207.6319277868921
 30
0.0
 40
6.299999999999998
 41
0.0
 71
     5
 72
     1
  1
0.25
  7
高6.3
 73
     1
 44
1.0
1001
ACAD
1000
MTEXTBEGIN
1070
    73
1070
     1
1070
    44
1040
1.0
1070
    74
1070
     0
1000
MTEXTEND
  0
POINT
  5
1A4F
330
19CA
100
AcDbEntity
  8
Defpoints
 62
     0
100
AcDbPoint
 10
626.9113496673826
 20
-209.4972963648833
 30
0.0
  0
POINT
  5
1A50
330
19CA
100
AcDbEntity
  8
Defpoints
 62
     0
100
AcDbPoint
 10
624.4541626132622
 20
-209.4972963648833
 30
0.0
  0
POINT
  5
1A51
330
19CA
100
AcDbEntity
  8
Defpoints
 62
     0
100
AcDbPoint
 10
624.4541626132622
 20
-211.4069277868921
 30
0.0
  0
ENDBLK
  5
19CC
330
19CA
100
AcDbEntity
  8
0
100
AcDbBlockEnd
  0
BLOCK
  5
19D9
330
19D8
100
AcDbEntity
  8
0
100
AcDbBlockBegin
  2
*D50
 70
     1
 10
0.0
 20
0.0
 30
0.0
  3
*D50
  1

  0
LINE
  5
1A52
330
19D8
100
AcDbEntity
  8
0
 62
     0
370
    -2
100
AcDbLine
 10
628.5494745734557
 20
-215.2033859376456
 30
0.0
 11
628.5494745734557
 21
-217.7492780071089
 31
0.0
  0
LINE
  5
1A53
330
19D8
100
AcDbEntity
  8
0
 62
     0
370
    -2
100
AcDbLine
 10
625.4552387753128
 20
-215.2033859376456
 30
0.0
 11
625.4552387753128
 21
-217.7492780071089
 31
0.0
  0
LINE
  5
1A54
330
19D8
100
AcDbEntity
  8
0
 62
     0
370
    -2
100
AcDbLine
 10
631.0494745734557
 20
-216.499278007109
 30
0.0
 11
633.5494745734557
 21
-216.499278007109
 31
0.0
  0
LINE
  5
1A55
330
19D8
100
AcDbEntity
  8
0
 62
     0
370
    -2
100
AcDbLine
 10
622.9552387753129
 20
-216.499278007109
 30
0.0
 11
610.9552387753129
 21
-216.499278007109
 31
0.0
  0
LINE
  5
1A56
330
19D8
100
AcDbEntity
  8
0
 62
     0
370
    -2
100
AcDbLine
 10
628.5494745734557
 20
-216.499278007109
 30
0.0
 11
625.4552387753128
 21
-216.499278007109
 31
0.0
  0
INSERT
  5
1A57
330
19D8
100
AcDbEntity
  8
0
 62
     0
370
    -2
100
AcDbBlockReference
  2
_Open30
 10
628.5494745734557
 20
-216.499278007109
 30
0.0
 41
2.5
 42
2.5
 43
2.5
 50
180.0
  0
INSERT
  5
1A58
330
19D8
100
AcDbEntity
  8
0
 62
     0
370
    -2
100
AcDbBlockReference
  2
_Open30
 10
625.4552387753128
 20
-216.499278007109
 30
0.0
 41
2.5
 42
2.5
 43
2.5
  0
MTEXT
  5
1A59
330
19D8
100
AcDbEntity
  8
0
 62
     4
100
AcDbMText
 10
615.5802387753128
 20
-214.3742780071089
 30
0.0
 40
3.0
 41
0.0
 71
     5
 72
     1
  1
1.55
 73
     1
 44
1.0
1001
ACAD
1000
MTEXTBEGIN
1070
    73
1070
     1
1070
    44
1040
1.0
1070
    74
1070
     0
1000
MTEXTEND
  0
POINT
  5
1A5A
330
19D8
100
AcDbEntity
  8
Defpoints
 62
     0
100
AcDbPoint
 10
628.5494745734557
 20
-214.9533859376457
 30
0.0
  0
POINT
  5
1A5B
330
19D8
100
AcDbEntity
  8
Defpoints
 62
     0
100
AcDbPoint
 10
625.4552387753128
 20
-214.9533859376457
 30
0.0
  0
POINT
  5
1A5C
330
19D8
100
AcDbEntity
  8
Defpoints
 62
     0
100
AcDbPoint
 10
625.4552387753128
 20
-216.499278007109
 30
0.0
  0
ENDBLK
  5
19DA
330
19D8
100
AcDbEntity
  8
0
100
AcDbBlockEnd
  0
BLOCK
  5
19E7
330
19E6
100
AcDbEntity
  8
0
100
AcDbBlockBegin
  2
*D51
 70
     1
 10
0.0
 20
0.0
 30
0.0
  3
*D51
  1

  0
LINE
  5
1A5D
330
19E6
100
AcDbEntity
  8
0
 62
     0
370
    -2
100
AcDbLine
 10
630.2786061815412
 20
-220.6594756534921
 30
0.0
 11
630.2786061815412
 21
-222.9325633158594
 31
0.0
  0
LINE
  5
1A5E
330
19E6
100
AcDbEntity
  8
0
 62
     0
370
    -2
100
AcDbLine
 10
626.2743012283494
 20
-220.6594756534921
 30
0.0
 11
626.2743012283494
 21
-222.9325633158594
 31
0.0
  0
LINE
  5
1A5F
330
19E6
100
AcDbEntity
  8
0
 62
     0
370
    -2
100
AcDbLine
 10
632.7786061815412
 20
-221.6825633158594
 30
0.0
 11
635.2786061815412
 21
-221.6825633158594
 31
0.0
  0
LINE
  5
1A60
330
19E6
100
AcDbEntity
  8
0
 62
     0
370
    -2
100
AcDbLine
 10
623.7743012283495
 20
-221.6825633158594
 30
0.0
 11
615.4409678950162
 21
-221.6825633158594
 31
0.0
  0
INSERT
  5
1A61
330
19E6
100
AcDbEntity
  8
0
 62
     0
370
    -2
100
AcDbBlockReference
  2
_Open30
 10
630.2786061815412
 20
-221.6825633158594
 30
0.0
 41
2.5
 42
2.5
 43
2.5
 50
180.0
  0
INSERT
  5
1A62
330
19E6
100
AcDbEntity
  8
0
 62
     0
370
    -2
100
AcDbBlockReference
  2
_Open30
 10
626.2743012283494
 20
-221.6825633158594
 30
0.0
 41
2.5
 42
2.5
 43
2.5
  0
MTEXT
  5
1A63
330
19E6
100
AcDbEntity
  8
0
 62
     4
100
AcDbMText
 10
617.8993012283495
 20
-220.0575633158594
 30
0.0
 40
2.0
 41
0.0
 71
     5
 72
     1
  1
0.8
  7
高2
 73
     1
 44
1.0
1001
ACAD
1000
MTEXTBEGIN
1070
    73
1070
     1
1070
    44
1040
1.0
1070
    74
1070
     0
1000
MTEXTEND
  0
POINT
  5
1A64
330
19E6
100
AcDbEntity
  8
Defpoints
 62
     0
100
AcDbPoint
 10
630.2786061815412
 20
-220.4094756534921
 30
0.0
  0
POINT
  5
1A65
330
19E6
100
AcDbEntity
  8
Defpoints
 62
     0
100
AcDbPoint
 10
626.2743012283494
 20
-220.4094756534921
 30
0.0
  0
POINT
  5
1A66
330
19E6
100
AcDbEntity
  8
Defpoints
 62
     0
100
AcDbPoint
 10
626.2743012283494
 20
-221.6825633158594
 30
0.0
  0
ENDBLK
  5
19E8
330
19E6
100
AcDbEntity
  8
0
100
AcDbBlockEnd
  0
BLOCK
  5
19F4
330
19F3
100
AcDbEntity
  8
0
100
AcDbBlockBegin
  2
*D52
 70
     1
 10
0.0
 20
0.0
 30
0.0
  3
*D52
  1

  0
LINE
  5
1A67
330
19F3
100
AcDbEntity
  8
0
 62
     0
370
    -2
100
AcDbLine
 10
630.1875994795288
 20
-225.9336956215237
 30
0.0
 11
630.1875994795288
 21
-227.7521091289801
 31
0.0
  0
LINE
  5
1A68
330
19F3
100
AcDbEntity
  8
0
 62
     0
370
    -2
100
AcDbLine
 10
625.4552387753128
 20
-225.9336956215237
 30
0.0
 11
625.4552387753128
 21
-227.7521091289801
 31
0.0
  0
LINE
  5
1A69
330
19F3
100
AcDbEntity
  8
0
 62
     0
370
    -2
100
AcDbLine
 10
632.6875994795289
 20
-226.5021091289801
 30
0.0
 11
635.1875994795289
 21
-226.5021091289801
 31
0.0
  0
LINE
  5
1A6A
330
19F3
100
AcDbEntity
  8
0
 62
     0
370
    -2
100
AcDbLine
 10
622.9552387753129
 20
-226.5021091289801
 30
0.0
 11
608.2052387753129
 21
-226.5021091289801
 31
0.0
  0
LINE
  5
1A6B
330
19F3
100
AcDbEntity
  8
0
 62
     0
370
    -2
100
AcDbLine
 10
630.1875994795288
 20
-226.5021091289801
 30
0.0
 11
625.4552387753128
 21
-226.5021091289801
 31
0.0
  0
INSERT
  5
1A6C
330
19F3
100
AcDbEntity
  8
0
 62
     0
370
    -2
100
AcDbBlockReference
  2
_Open30
 10
630.1875994795288
 20
-226.5021091289801
 30
0.0
 41
2.5
 42
2.5
 43
2.5
 50
180.0
  0
INSERT
  5
1A6D
330
19F3
100
AcDbEntity
  8
0
 62
     0
370
    -2
100
AcDbBlockReference
  2
_Open30
 10
625.4552387753128
 20
-226.5021091289801
 30
0.0
 41
2.5
 42
2.5
 43
2.5
  0
MTEXT
  5
1A6E
330
19F3
100
AcDbEntity
  8
0
 62
     4
100
AcDbMText
 10
614.3302387753128
 20
-224.3771091289801
 30
0.0
 40
3.0
 41
0.0
 71
     5
 72
     1
  1
18.93
 73
     1
 44
1.0
1001
ACAD
1000
MTEXTBEGIN
1070
    73
1070
     1
1070
    44
1040
1.0
1070
    74
1070
     0
1000
MTEXTEND
  0
POINT
  5
1A6F
330
19F3
100
AcDbEntity
  8
Defpoints
 62
     0
100
AcDbPoint
 10
630.1875994795288
 20
-225.6836956215237
 30
0.0
  0
POINT
  5
1A70
330
19F3
100
AcDbEntity
  8
Defpoints
 62
     0
100
AcDbPoint
 10
625.4552387753128
 20
-225.6836956215237
 30
0.0
  0
POINT
  5
1A71
330
19F3
100
AcDbEntity
  8
Defpoints
 62
     0
100
AcDbPoint
 10
625.4552387753128
 20
-226.5021091289801
 30
0.0
  0
ENDBLK
  5
19F5
330
19F3
100
AcDbEntity
  8
0
100
AcDbBlockEnd
  0
BLOCK
  5
1A02
330
1A01
100
AcDbEntity
  8
0
100
AcDbBlockBegin
  2
*D53
 70
     1
 10
0.0
 20
0.0
 30
0.0
  3
*D53
  1

  0
LINE
  5
1A72
330
1A01
100
AcDbEntity
  8
0
 62
     0
370
    -2
100
AcDbLine
 10
627.3831726283906
 20
-230.9895358281135
 30
0.0
 11
627.3831726283906
 21
-233.299456904989
 31
0.0
  0
LINE
  5
1A73
330
1A01
100
AcDbEntity
  8
0
 62
     0
370
    -2
100
AcDbLine
 10
622.7944974262427
 20
-230.9895358281135
 30
0.0
 11
622.7944974262427
 21
-233.299456904989
 31
0.0
  0
LINE
  5
1A74
330
1A01
100
AcDbEntity
  8
0
 62
     0
370
    -2
100
AcDbLine
 10
629.8831726283906
 20
-232.049456904989
 30
0.0
 11
632.3831726283906
 21
-232.049456904989
 31
0.0
  0
LINE
  5
1A75
330
1A01
100
AcDbEntity
  8
0
 62
     0
370
    -2
100
AcDbLine
 10
620.2944974262427
 20
-232.049456904989
 30
0.0
 11
605.5444974262427
 21
-232.049456904989
 31
0.0
  0
LINE
  5
1A76
330
1A01
100
AcDbEntity
  8
0
 62
     0
370
    -2
100
AcDbLine
 10
627.3831726283906
 20
-232.049456904989
 30
0.0
 11
622.7944974262427
 21
-232.049456904989
 31
0.0
  0
INSERT
  5
1A77
330
1A01
100
AcDbEntity
  8
0
 62
     0
370
    -2
100
AcDbBlockReference
  2
_Open30
 10
627.3831726283906
 20
-232.049456904989
 30
0.0
 41
2.5
 42
2.5
 43
2.5
 50
180.0
  0
INSERT
  5
1A78
330
1A01
100
AcDbEntity
  8
0
 62
     0
370
    -2
100
AcDbBlockReference
  2
_Open30
 10
622.7944974262427
 20
-232.049456904989
 30
0.0
 41
2.5
 42
2.5
 43
2.5
  0
MTEXT
  5
1A79
330
1A01
100
AcDbEntity
  8
0
 62
     4
100
AcDbMText
 10
611.6694974262427
 20
-229.924456904989
 30
0.0
 40
3.0
 41
0.0
 71
     5
 72
     1
  1
13.77
 73
     1
 44
1.0
1001
ACAD
1000
MTEXTBEGIN
1070
    73
1070
     1
1070
    44
1040
1.0
1070
    74
1070
     0
1000
MTEXTEND
  0
POINT
  5
1A7A
330
1A01
100
AcDbEntity
  8
Defpoints
 62
     0
100
AcDbPoint
 10
627.3831726283906
 20
-230.7395358281135
 30
0.0
  0
POINT
  5
1A7B
330
1A01
100
AcDbEntity
  8
Defpoints
 62
     0
100
AcDbPoint
 10
622.7944974262427
 20
-230.7395358281135
 30
0.0
  0
POINT
  5
1A7C
330
1A01
100
AcDbEntity
  8
Defpoints
 62
     0
100
AcDbPoint
 10
622.7944974262427
 20
-232.049456904989
 30
0.0
  0
ENDBLK
  5
1A03
330
1A01
100
AcDbEntity
  8
0
100
AcDbBlockEnd
  0
BLOCK
  5
1A10
330
1A0F
100
AcDbEntity
  8
0
100
AcDbBlockBegin
  2
*D54
 70
     1
 10
0.0
 20
0.0
 30
0.0
  3
*D54
  1

  0
LINE
  5
1A7D
330
1A0F
100
AcDbEntity
  8
0
 62
     0
370
    -2
100
AcDbLine
 10
620.2868897952403
 20
-200.0600445098391
 30
0.0
 11
620.2868897952403
 21
-192.6635110319014
 31
0.0
  0
LINE
  5
1A7E
330
1A0F
100
AcDbEntity
  8
0
 62
     0
370
    -2
100
AcDbLine
 10
610.3484154257503
 20
-200.0600445098391
 30
0.0
 11
610.3484154257503
 21
-192.6635110319014
 31
0.0
  0
LINE
  5
1A7F
330
1A0F
100
AcDbEntity
  8
0
 62
     0
370
    -2
100
AcDbLine
 10
617.7868897952403
 20
-193.9135110319014
 30
0.0
 11
612.8484154257503
 21
-193.9135110319014
 31
0.0
  0
INSERT
  5
1A80
330
1A0F
100
AcDbEntity
  8
0
 62
     0
370
    -2
100
AcDbBlockReference
  2
_Open30
 10
620.2868897952403
 20
-193.9135110319014
 30
0.0
 41
2.5
 42
2.5
 43
2.5
  0
INSERT
  5
1A81
330
1A0F
100
AcDbEntity
  8
0
 62
     0
370
    -2
100
AcDbBlockReference
  2
_Open30
 10
610.3484154257503
 20
-193.9135110319014
 30
0.0
 41
2.5
 42
2.5
 43
2.5
 50
180.0
  0
MTEXT
  5
1A82
330
1A0F
100
AcDbEntity
  8
0
 62
     4
100
AcDbMText
 10
615.3176526104953
 20
-190.8385110319014
 30
0.0
 40
3.0
 41
0.0
 71
     5
 72
     1
  1
9.94\H0.7X;\S+0^ -0.02;
 73
     1
 44
1.0
1001
ACAD
1000
MTEXTBEGIN
1070
    73
1070
     1
1070
    44
1040
1.0
1070
    74
1070
     0
1000
MTEXTEND
  0
POINT
  5
1A83
330
1A0F
100
AcDbEntity
  8
Defpoints
 62
     0
100
AcDbPoint
 10
620.2868897952403
 20
-200.3100445098391
 30
0.0
  0
POINT
  5
1A84
330
1A0F
100
AcDbEntity
  8
Defpoints
 62
     0
100
AcDbPoint
 10
610.3484154257503
 20
-200.3100445098391
 30
0.0
  0
POINT
  5
1A85
330
1A0F
100
AcDbEntity
  8
Defpoints
 62
     0
100
AcDbPoint
 10
610.3484154257503
 20
-193.9135110319014
 30
0.0
  0
ENDBLK
  5
1A11
330
1A0F
100
AcDbEntity
  8
0
100
AcDbBlockEnd
  0
ENDSEC
  0
SECTION
  2
ENTITIES
  0
LINE
  5
423
330
36
100
AcDbEntity
  8
0
 62
     3
100
AcDbLine
 10
284.156635
 20
-453.739348
 30
0.0
 11
284.156635
 21
-430.739348
 31
0.0
  0
LINE
  5
425
330
36
100
AcDbEntity
  8
0
 62
     3
100
AcDbLine
 10
231.103026
 20
-453.9648589999996
 30
0.0
 11
231.103026
 21
-446.7393480000001
 31
0.0
  0
LINE
  5
427
330
36
100
AcDbEntity
  8
0
 62
     3
100
AcDbLine
 10
231.103026
 20
-453.739348
 30
0.0
 11
231.103026
 21
-460.739348
 31
0.0
  0
TEXT
  5
428
330
36
100
AcDbEntity
  8
0
 62
     3
100
AcDbText
 10
260.166953
 20
-434.534232
 30
0.0
 40
2.0
  1
A
 41
0.7
100
AcDbText
  0
TEXT
  5
429
330
36
100
AcDbEntity
  8
0
 62
     3
100
AcDbText
 10
262.702239
 20
-434.534232
 30
0.0
 40
2.0
  1
P
 41
0.7
100
AcDbText
  0
TEXT
  5
42A
330
36
100
AcDbEntity
  8
0
 62
     3
100
AcDbText
 10
265.237526
 20
-434.534232
 30
0.0
 40
2.0
  1
P
 41
0.7
100
AcDbText
  0
TEXT
  5
42B
330
36
100
AcDbEntity
  8
0
 62
     3
100
AcDbText
 10
267.772812
 20
-434.534232
 30
0.0
 40
2.0
  1
D
 41
0.7
100
AcDbText
  0
TEXT
  5
42C
330
36
100
AcDbEntity
  8
0
 62
     3
100
AcDbText
 10
273.141495
 20
-434.534232
 30
0.0
 40
2.0
  1
C
 41
0.7
100
AcDbText
  0
TEXT
  5
42D
330
36
100
AcDbEntity
  8
0
 62
     3
100
AcDbText
 10
275.676781
 20
-434.534232
 30
0.0
 40
2.0
  1
H
 41
0.7
100
AcDbText
  0
TEXT
  5
42E
330
36
100
AcDbEntity
  8
0
 62
     3
100
AcDbText
 10
278.212067
 20
-434.534232
 30
0.0
 40
2.0
  1
C
 41
0.7
100
AcDbText
  0
TEXT
  5
42F
330
36
100
AcDbEntity
  8
0
 62
     3
100
AcDbText
 10
280.747354
 20
-434.534232
 30
0.0
 40
2.0
  1
K
 41
0.7
100
AcDbText
  0
TEXT
  5
430
330
36
100
AcDbEntity
  8
0
 62
     3
100
AcDbText
 10
286.42132
 20
-434.534232
 30
0.0
 40
2.0
  1
DESN
 41
1.216762999999998
100
AcDbText
  0
TEXT
  5
431
330
36
100
AcDbEntity
  8
0
 62
     3
100
AcDbText
 10
201.414961
 20
-463.8807299999998
 30
0.0
 40
2.0
  1
NICHIDO IND.CO.LTD
 41
1.274876
100
AcDbText
  0
LINE
  5
435
330
36
100
AcDbEntity
  8
0
 62
     3
100
AcDbLine
 10
211.797991
 20
-430.7393479999999
 30
0.0
 11
211.797991
 21
-453.739348
 31
0.0
  0
LINE
  5
436
330
36
100
AcDbEntity
  8
0
 62
     3
100
AcDbLine
 10
258.156635
 20
-430.739348
 30
0.0
 11
258.156635
 21
-470.40507
 31
0.0
  0
LINE
  5
43B
330
36
100
AcDbEntity
  8
0
 62
     3
100
AcDbLine
 10
271.156635
 20
-430.739348
 30
0.0
 11
271.156635
 21
-460.739348
 31
0.0
  0
TEXT
  5
43C
330
36
100
AcDbEntity
  8
0
 62
     3
100
AcDbText
 10
259.435118
 20
-459.034091
 30
0.0
 40
3.2
  1
作成日
 41
1.017225999999997
100
AcDbText
  0
LINE
  5
43D
330
36
100
AcDbEntity
  8
0
 62
     3
100
AcDbLine
 10
309.855999
 20
-430.739348
 30
0.0
 11
198.552556
 21
-430.739348
 31
0.0
  0
LINE
  5
43E
330
36
100
AcDbEntity
  8
0
 62
     3
100
AcDbLine
 10
297.156635
 20
-453.739348
 30
0.0
 11
297.156635
 21
-430.739348
 31
0.0
  0
TEXT
  5
43F
330
36
100
AcDbEntity
  8
0
 62
     3
100
AcDbText
 10
300.480438
 20
-434.448413
 30
0.0
 40
1.8
  1
D
 41
0.666667
100
AcDbText
  0
TEXT
  5
440
330
36
100
AcDbEntity
  8
0
 62
     3
100
AcDbText
 10
303.297067
 20
-434.448413
 30
0.0
 40
1.8
  1
E
 41
0.666667
100
AcDbText
  0
TEXT
  5
441
330
36
100
AcDbEntity
  8
0
 62
     3
100
AcDbText
 10
306.113695
 20
-434.448413
 30
0.0
 40
1.8
  1
F
 41
0.666667
100
AcDbText
  0
TEXT
  5
442
330
36
100
AcDbEntity
  8
0
 62
     3
100
AcDbText
 10
300.480438
 20
-438.440967
 30
0.0
 40
3.2
  1
製図
 41
1.076369
100
AcDbText
  0
LINE
  5
443
330
36
100
AcDbEntity
  8
0
 62
     3
100
AcDbLine
 10
198.552556
 20
-430.739348
 30
0.0
 11
198.552556
 21
-470.40507
 31
0.0
  0
TEXT
  5
444
330
36
100
AcDbEntity
  8
0
 62
     3
100
AcDbText
 10
199.929209
 20
-470.0726049999998
 30
0.0
 40
5.0
  1
日動工業株式会社
 41
0.833333
100
AcDbText
  0
LINE
  5
445
330
36
100
AcDbEntity
  8
0
 62
     3
100
AcDbLine
 10
241.43496
 20
-446.7393480000001
 30
0.0
 11
241.43496
 21
-470.40507
 31
0.0
  0
LINE
  5
446
330
36
100
AcDbEntity
  8
0
 62
     3
100
AcDbLine
 10
241.43496
 20
-465.572209
 30
0.0
 11
258.156635
 21
-465.572209
 31
0.0
  0
TEXT
  5
447
330
36
100
AcDbEntity
  8
0
 62
     3
100
AcDbText
 10
242.021562
 20
-464.755779
 30
0.0
 40
3.2
  1
出図コード
 41
0.8356860000000001
100
AcDbText
  0
TEXT
  5
448
330
36
100
AcDbEntity
  8
0
 62
     3
100
AcDbText
 10
242.021562
 20
-469.58864
 30
0.0
 40
3.2
  1
HM-A3
 41
0.999426
100
AcDbText
  0
LINE
  5
44A
330
36
100
AcDbEntity
  8
0
 62
     3
100
AcDbLine
 10
198.552556
 20
-460.7393480000001
 30
0.0
 11
309.855999
 21
-460.739348
 31
0.0
  0
LINE
  5
44C
330
36
100
AcDbEntity
  8
0
 62
     3
100
AcDbLine
 10
198.552556
 20
-439.7393480000001
 30
0.0
 11
309.855999
 21
-439.739348
 31
0.0
  0
LINE
  5
452
330
36
100
AcDbEntity
  8
0
 62
     3
100
AcDbLine
 10
198.552556
 20
-446.7393480000001
 30
0.0
 11
258.156635
 21
-446.7393480000001
 31
0.0
  0
LINE
  5
458
330
36
100
AcDbEntity
  8
0
 62
     3
100
AcDbLine
 10
198.552556
 20
-453.7393480000001
 30
0.0
 11
309.855999
 21
-453.739348
 31
0.0
  0
TEXT
  5
459
330
36
100
AcDbEntity
  8
0
 62
     3
100
AcDbText
 10
244.753612
 20
-459.4272636704086
 30
0.0
 40
3.2
  1
1/1
  7
高3.2
100
AcDbText
  0
TEXT
  5
45B
330
36
100
AcDbEntity
  8
0
 62
     3
100
AcDbText
 10
216.3447740997447
 20
-446.1299667858021
 30
0.0
 40
4.5
  1
LMF-B160
  7
高4.5
100
AcDbText
  0
TEXT
  5
47C
330
36
100
AcDbEntity
  8
0
 62
     3
100
AcDbText
 10
260.3716762307197
 20
-468.9507742895433
 30
0.0
 40
6.299999999999998
  1
LMF-B160
  7
高6.3
100
AcDbText
  0
TEXT
  5
47D
330
36
100
AcDbEntity
  8
0
 62
     3
100
AcDbText
 10
274.740184
 20
-459.2745265006157
 30
0.0
 40
3.2
  1
2011.06.08
  7
高3.2
100
AcDbText
  0
TEXT
  5
47E
330
36
100
AcDbEntity
  8
0
 62
     3
100
AcDbText
 10
213.2746220555482
 20
-437.9479247723625
 30
0.0
 40
4.5
  1
パイプ用バンドSFT-N206
 41
0.6
  7
高4.5
100
AcDbText
  0
LINE
  5
73B
330
36
100
AcDbEntity
  8
0
 62
     3
100
AcDbLine
 10
-92.54592499999999
 20
-329.90507
 30
0.0
 11
-95.14400100000001
 21
-331.40507
 31
0.0
  0
LINE
  5
73C
330
36
100
AcDbEntity
  8
0
 62
     3
100
AcDbLine
 10
-92.54592499999999
 20
-329.90507
 30
0.0
 11
-95.14400100000001
 21
-328.40507
 31
0.0
  0
LINE
  5
73D
330
36
100
AcDbEntity
  8
0
 62
     3
100
AcDbLine
 10
-95.14400100000001
 20
-331.40507
 30
0.0
 11
-95.14400100000001
 21
-328.40507
 31
0.0
  0
TEXT
  5
906
330
36
100
AcDbEntity
  8
0
 62
     3
100
AcDbText
 10
200.369953
 20
-434.569822
 30
0.0
 40
2.0
  1
CONPONENTS
 41
0.5331600000000001
100
AcDbText
  0
TEXT
  5
907
330
36
100
AcDbEntity
  8
0
 62
     3
100
AcDbText
 10
200.020226
 20
-453.501999
 30
0.0
 40
3.0
  1
材
 41
0.833333
100
AcDbText
  0
TEXT
  5
908
330
36
100
AcDbEntity
  8
0
 62
     3
100
AcDbText
 10
207.555869
 20
-453.501999
 30
0.0
 40
3.0
  1
質
 41
0.833333
100
AcDbText
  0
TEXT
  5
909
330
36
100
AcDbEntity
  8
0
 62
     3
100
AcDbText
 10
200.108297
 20
-442.877474
 30
0.0
 40
2.0
  1
MODEL
 41
1.031072999999999
100
AcDbText
  0
TEXT
  5
90A
330
36
100
AcDbEntity
  8
0
 62
     3
100
AcDbText
 10
200.020226
 20
-449.819691
 30
0.0
 40
2.0
  1
MATERIAL
 41
0.659278
100
AcDbText
  0
TEXT
  5
90B
330
36
100
AcDbEntity
  8
0
 62
     3
100
AcDbText
 10
231.327507
 20
-453.501999
 30
0.0
 40
3.0
  1
備
 41
0.833333
100
AcDbText
  0
TEXT
  5
90C
330
36
100
AcDbEntity
  8
0
 62
     3
100
AcDbText
 10
238.060508
 20
-453.501999
 30
0.0
 40
3.0
  1
考
 41
0.833333
100
AcDbText
  0
TEXT
  5
90D
330
36
100
AcDbEntity
  8
0
 62
     3
100
AcDbText
 10
231.7213372079041
 20
-449.8594104176726
 30
0.0
 40
2.0
  1
REMARKS
 41
0.675794
100
AcDbText
  0
TEXT
  5
90E
330
36
100
AcDbEntity
  8
0
 62
     3
100
AcDbText
 10
201.609955
 20
-456.739811
 30
0.0
 40
2.0
  1
3AD
 41
1.42614
100
AcDbText
  0
TEXT
  5
90F
330
36
100
AcDbEntity
  8
0
 62
     3
100
AcDbText
 10
210.920935
 20
-456.574078
 30
0.0
 40
2.0
  1
ANGLE
 41
1.669883999999995
100
AcDbText
  0
TEXT
  5
910
330
36
100
AcDbEntity
  8
0
 62
     3
100
AcDbText
 10
231.854822
 20
-456.950919
 30
0.0
 40
2.0
  1
SCALE
 41
0.7719630000000001
100
AcDbText
  0
TEXT
  5
911
330
36
100
AcDbEntity
  8
0
 62
     3
100
AcDbText
 10
201.296085
 20
-460.739348
 30
0.0
 40
3.0
  1
第
 41
0.833333
100
AcDbText
  0
TEXT
  5
912
330
36
100
AcDbEntity
  8
0
 62
     3
100
AcDbText
 10
209.082935
 20
-460.739348
 30
0.0
 40
3.0
  1
三
 41
0.833333
100
AcDbText
  0
TEXT
  5
913
330
36
100
AcDbEntity
  8
0
 62
     3
100
AcDbText
 10
216.869785
 20
-460.739348
 30
0.0
 40
3.0
  1
角
 41
0.833333
100
AcDbText
  0
TEXT
  5
914
330
36
100
AcDbEntity
  8
0
 62
     3
100
AcDbText
 10
224.656635
 20
-460.739348
 30
0.0
 40
3.0
  1
法
 41
0.833333
100
AcDbText
  0
TEXT
  5
915
330
36
100
AcDbEntity
  8
0
 62
     3
100
AcDbText
 10
231.718027
 20
-460.450919
 30
0.0
 40
3.0
  1
尺
 41
0.833333
100
AcDbText
  0
TEXT
  5
916
330
36
100
AcDbEntity
  8
0
 62
     3
100
AcDbText
 10
238.451029
 20
-460.450919
 30
0.0
 40
3.0
  1
度
 41
0.833333
100
AcDbText
  0
TEXT
  5
917
330
36
100
AcDbEntity
  8
0
 62
     3
100
AcDbText
 10
261.034299
 20
-438.281619
 30
0.0
 40
3.0
  1
承認
 41
1.089472999999999
100
AcDbText
  0
TEXT
  5
918
330
36
100
AcDbEntity
  8
0
 62
     3
100
AcDbText
 10
274.277179
 20
-438.339348
 30
0.0
 40
3.0
  1
検図
 41
0.931761
100
AcDbText
  0
TEXT
  5
919
330
36
100
AcDbEntity
  8
0
 62
     3
100
AcDbText
 10
287.277576
 20
-438.339348
 30
0.0
 40
3.0
  1
設
 41
0.833333
100
AcDbText
  0
TEXT
  5
91A
330
36
100
AcDbEntity
  8
0
 62
     3
100
AcDbText
 10
291.767444
 20
-438.339348
 30
0.0
 40
3.0
  1
計
 41
0.833333
100
AcDbText
  0
TEXT
  5
91B
330
36
100
AcDbEntity
  8
0
 62
     3
100
AcDbText
 10
200.440059
 20
-438.1667959999998
 30
0.0
 40
3.0
  1
品
 41
0.833333
100
AcDbText
  0
TEXT
  5
91C
330
36
100
AcDbEntity
  8
0
 62
     3
100
AcDbText
 10
207.975702
 20
-438.1667959999998
 30
0.0
 40
3.0
  1
名
 41
0.833333
100
AcDbText
  0
TEXT
  5
91D
330
36
100
AcDbEntity
  8
0
 62
     3
100
AcDbText
 10
200.108297
 20
-446.4023249902918
 30
0.0
 40
3.0
  1
型
 41
0.833333
100
AcDbText
  0
TEXT
  5
91E
330
36
100
AcDbEntity
  8
0
 62
     3
100
AcDbText
 10
207.656387
 20
-446.4023249902918
 30
0.0
 40
3.0
  1
式
 41
0.833333
100
AcDbText
  0
LINE
  5
91F
330
36
100
AcDbEntity
  8
0
 62
     3
100
AcDbLine
 10
309.855999
 20
-470.40507
 30
0.0
 11
309.855999
 21
-196.40507
 31
0.0
  0
LINE
  5
920
330
36
100
AcDbEntity
  8
0
 62
     3
100
AcDbLine
 10
-80.14400100000001
 20
-196.40507
 30
0.0
 11
-80.14400100000001
 21
-470.40507
 31
0.0
  0
LINE
  5
921
330
36
100
AcDbEntity
  8
0
 62
     3
100
AcDbLine
 10
-80.14400100000001
 20
-196.40507
 30
0.0
 11
309.855999
 21
-196.40507
 31
0.0
  0
LINE
  5
922
330
36
100
AcDbEntity
  8
0
 62
     3
100
AcDbLine
 10
-80.14400100000001
 20
-470.40507
 30
0.0
 11
309.855999
 21
-470.40507
 31
0.0
  0
TEXT
  5
D9C
330
36
100
AcDbEntity
  8
0
 62
     3
100
AcDbText
 10
212.3860154488489
 20
-452.3465175762047
 30
0.0
 40
3.2
  1
SUS
  7
高3.2
100
AcDbText
  0
TEXT
  5
E7C
330
36
100
AcDbEntity
  8
0
 62
     3
100
AcDbText
 10
125.0078361642802
 20
-447.6786333519918
 30
0.0
 40
4.5
  1
巻付参考図
  7
高4.5
100
AcDbText
  0
LINE
  5
E7D
330
36
100
AcDbEntity
  8
0
  6
Continuous
100
AcDbLine
 10
122.7984716437669
 20
-449.0343352815206
 30
0.0
 11
153.6161728726139
 21
-449.0343352815206
 31
0.0
  0
LINE
  5
1008
330
36
100
AcDbEntity
  8
0
  6
Continuous
 62
     3
100
AcDbLine
 10
258.156635
 20
-430.739348
 30
0.0
 11
258.156635
 21
-424.1872372509992
 31
0.0
  0
LINE
  5
1009
330
36
100
AcDbEntity
  8
0
  6
Continuous
 62
     3
100
AcDbLine
 10
258.156635
 20
-424.1872372509992
 30
0.0
 11
309.855999
 21
-424.1872372509992
 31
0.0
  0
TEXT
  5
100B
330
36
100
AcDbEntity
  8
0
 62
     3
100
AcDbText
 10
264.8375492268451
 20
-429.9417711900408
 30
0.0
 40
4.5
  1
コード
  7
高4.5
100
AcDbText
  0
TEXT
  5
100C
330
36
100
AcDbEntity
  8
0
 62
     3
100
AcDbText
 10
286.4795038305629
 20
-429.8279837602088
 30
0.0
 40
4.5
  1
54629
  7
高4.5
100
AcDbText
  0
LINE
  5
10E5
330
36
100
AcDbEntity
  8
0
  6
Continuous
 62
     3
100
AcDbLine
 10
284.156635
 20
-430.739348
 30
0.0
 11
284.156635
 21
-424.1872372509992
 31
0.0
  0
LINE
  5
1450
330
36
100
AcDbEntity
  8
0
  6
CENTER
100
AcDbLine
 10
-12.42640917922006
 20
-331.2058929570188
 30
0.0
 11
210.2401362564507
 21
-331.2058929570188
 31
0.0
  0
LINE
  5
1454
330
36
100
AcDbEntity
  8
0
 62
     3
100
AcDbLine
 10
111.4977719852723
 20
-318.4558929570187
 30
0.0
 11
111.4977719852723
 21
-343.9558929570189
 31
0.0
  0
LINE
  5
1457
330
36
100
AcDbEntity
  8
0
 62
     3
100
AcDbLine
 10
62.99777198527237
 20
-318.4558929570187
 30
0.0
 11
111.4977719852723
 21
-318.4558929570187
 31
0.0
  0
LINE
  5
1458
330
36
100
AcDbEntity
  8
0
 62
     3
100
AcDbLine
 10
62.99777198527237
 20
-343.9558929570189
 30
0.0
 11
111.4977719852723
 21
-343.9558929570189
 31
0.0
  0
LINE
  5
1459
330
36
100
AcDbEntity
  8
0
 62
     3
100
AcDbLine
 10
62.99777198527244
 20
-318.4558929570188
 30
0.0
 11
62.99777198527237
 21
-320.4558929570188
 31
0.0
  0
LINE
  5
145A
330
36
100
AcDbEntity
  8
0
 62
     3
100
AcDbLine
 10
62.99777198527237
 20
-319.4558929570188
 30
0.0
 11
84.90665416668731
 21
-319.4558929570188
 31
0.0
  0
LINE
  5
145B
330
36
100
AcDbEntity
  8
0
 62
     3
100
AcDbLine
 10
62.99777198527237
 20
-342.9558929570188
 30
0.0
 11
84.90665416668766
 21
-342.9558929570188
 31
0.0
  0
LINE
  5
145C
330
36
100
AcDbEntity
  8
0
 62
     3
100
AcDbLine
 10
62.99777198527237
 20
-341.9558929570188
 30
0.0
 11
62.99777198527237
 21
-343.9558929570189
 31
0.0
  0
LINE
  5
145D
330
36
100
AcDbEntity
  8
0
 62
     3
100
AcDbLine
 10
80.4977719852725
 20
-327.2058929570189
 30
0.0
 11
82.12277198527237
 21
-327.2058929570188
 31
0.0
  0
LINE
  5
145E
330
36
100
AcDbEntity
  8
0
 62
     3
100
AcDbLine
 10
80.4977719852725
 20
-335.2058929570188
 30
0.0
 11
82.12277198527237
 21
-335.2058929570188
 31
0.0
  0
ARC
  5
1461
330
36
100
AcDbEntity
  8
0
 62
     3
100
AcDbCircle
 10
80.4977719852725
 20
-331.2058929570188
 30
0.0
 40
3.999999999999963
100
AcDbArc
 50
90.0
 51
270.0
  0
LINE
  5
1464
330
36
100
AcDbEntity
  8
0
 62
     7
100
AcDbLine
 10
108.4977719852723
 20
-323.4558929570188
 30
0.0
 11
108.4977719852723
 21
-338.9558929570188
 31
0.0
  0
LINE
  5
1465
330
36
100
AcDbEntity
  8
0
 62
     7
100
AcDbLine
 10
106.4977719852723
 20
-323.4558929570188
 30
0.0
 11
106.4977719852723
 21
-338.9558929570188
 31
0.0
  0
LINE
  5
1466
330
36
100
AcDbEntity
  8
0
 62
     7
100
AcDbLine
 10
103.4977719852724
 20
-323.4558929570189
 30
0.0
 11
103.4977719852724
 21
-338.9558929570188
 31
0.0
  0
LINE
  5
1467
330
36
100
AcDbEntity
  8
0
 62
     7
100
AcDbLine
 10
101.4977719852724
 20
-323.4558929570189
 30
0.0
 11
101.4977719852724
 21
-338.9558929570188
 31
0.0
  0
ARC
  5
146A
330
36
100
AcDbEntity
  8
0
 62
     7
100
AcDbCircle
 10
107.4977719852725
 20
-323.4558929570188
 30
0.0
 40
0.9999999999998518
100
AcDbArc
 50
0.0
 51
180.0
  0
ARC
  5
146B
330
36
100
AcDbEntity
  8
0
 62
     7
100
AcDbCircle
 10
102.4977719852724
 20
-323.4558929570189
 30
0.0
 40
0.9999999999999763
100
AcDbArc
 50
0.0
 51
180.0
  0
ARC
  5
146C
330
36
100
AcDbEntity
  8
0
 62
     7
100
AcDbCircle
 10
107.4977719852725
 20
-338.9558929570188
 30
0.0
 40
0.9999999999998518
100
AcDbArc
 50
180.0
 51
0.0
  0
ARC
  5
146D
330
36
100
AcDbEntity
  8
0
 62
     7
100
AcDbCircle
 10
102.4977719852722
 20
-338.9558929570188
 30
0.0
 40
1.000000000000099
100
AcDbArc
 50
180.0
 51
0.0
  0
ARC
  5
146E
330
36
100
AcDbEntity
  8
0
 62
     3
100
AcDbCircle
 10
82.12277198527237
 20
-322.8308929570189
 30
0.0
 40
4.374999999999966
100
AcDbArc
 50
270.0
 51
90.0
  0
ARC
  5
146F
330
36
100
AcDbEntity
  8
0
 62
     3
100
AcDbCircle
 10
82.12277198527237
 20
-339.5808929570189
 30
0.0
 40
4.375000000000073
100
AcDbArc
 50
270.0
 51
90.0
  0
LINE
  5
1470
330
36
100
AcDbEntity
  8
0
 62
     7
100
AcDbLine
 10
65.49777198527237
 20
-317.9558929570188
 30
0.0
 11
68.19586498034175
 21
-317.9558929570188
 31
0.0
  0
LINE
  5
1471
330
36
100
AcDbEntity
  8
0
 62
     7
100
AcDbLine
 10
65.49777198527261
 20
-344.4558929570189
 30
0.0
 11
69.69791452974003
 21
-344.4558929570189
 31
0.0
  0
ARC
  5
1476
330
36
100
AcDbEntity
  8
0
 62
     7
100
AcDbCircle
 10
68.49777198527238
 20
-334.2058929570186
 30
0.0
 40
16.52460286966063
100
AcDbArc
 50
72.38742215707595
 51
77.39444540787173
  0
ARC
  5
1477
330
36
100
AcDbEntity
  8
0
 62
     7
100
AcDbCircle
 10
68.49777198527238
 20
-334.2058929570186
 30
0.0
 40
16.52460286966063
100
AcDbArc
 50
100.4599090929305
 51
107.612577842924
  0
ARC
  5
1478
330
36
100
AcDbEntity
  8
0
 62
     7
100
AcDbCircle
 10
68.49777198527238
 20
-328.2058929570188
 30
0.0
 40
16.5246028696608
100
AcDbArc
 50
252.387422157076
 51
259.5400909070694
  0
ARC
  5
1479
330
36
100
AcDbEntity
  8
0
 62
     7
100
AcDbCircle
 10
68.49777198527238
 20
-328.2058929570188
 30
0.0
 40
16.5246028696608
100
AcDbArc
 50
282.6055545921283
 51
287.6125778429241
  0
LINE
  5
147E
330
36
100
AcDbEntity
  8
0
 62
     3
100
AcDbLine
 10
84.90665416668731
 20
-260.0925973260733
 30
0.0
 11
111.4977719852723
 21
-260.0925973260733
 31
0.0
  0
LINE
  5
147F
330
36
100
AcDbEntity
  8
0
 62
     3
100
AcDbLine
 10
111.4977719852723
 20
-260.0925973260733
 30
0.0
 11
111.4977719852723
 21
-256.8425973260734
 31
0.0
  0
LINE
  5
1480
330
36
100
AcDbEntity
  8
0
 62
     7
100
AcDbLine
 10
102.9977719852721
 20
-259.0925973260734
 30
0.0
 11
107.9977719852725
 21
-259.0925973260734
 31
0.0
  0
LINE
  5
1481
330
36
100
AcDbEntity
  8
0
 62
     3
100
AcDbLine
 10
102.9977719852596
 20
-253.5925973260733
 30
0.0
 11
111.4977719852723
 21
-253.5925973260733
 31
0.0
  0
LINE
  5
1482
330
36
100
AcDbEntity
  8
0
 62
     3
100
AcDbLine
 10
102.9977719852724
 20
-255.1925973260734
 30
0.0
 11
107.9977719852724
 21
-255.1925973260734
 31
0.0
  0
LINE
  5
1483
330
36
100
AcDbEntity
  8
0
 62
     3
100
AcDbLine
 10
107.9977719852724
 20
-260.0925973260733
 30
0.0
 11
107.9977719852724
 21
-255.1925973260734
 31
0.0
  0
LINE
  5
1484
330
36
100
AcDbEntity
  8
0
 62
     3
100
AcDbLine
 10
102.9977719852722
 20
-260.0925973260733
 30
0.0
 11
102.9977719852724
 21
-255.1925973260734
 31
0.0
  0
ARC
  5
148D
330
36
100
AcDbEntity
  8
0
 62
     3
100
AcDbCircle
 10
68.49777198527238
 20
-252.0925973260734
 30
0.0
 40
5.499999999999943
100
AcDbArc
 50
64.17329194896725
 51
261.5436416963527
  0
LINE
  5
148F
330
36
100
AcDbEntity
  8
0
 62
     3
100
AcDbLine
 10
84.90665416668731
 20
-260.0925973260733
 30
0.0
 11
67.68896374572761
 21
-257.5328022148293
 31
0.0
  0
ARC
  5
1497
330
36
100
AcDbEntity
  8
0
 62
     3
100
AcDbCircle
 10
103.322517988144
 20
-168.8626922244002
 30
0.0
 40
84.7305274296397
100
AcDbArc
 50
247.092251909475
 51
269.7804023945498
  0
ARC
  5
1498
330
36
100
AcDbEntity
  8
0
 62
     7
100
AcDbCircle
 10
68.49777198527238
 20
-252.0925973260734
 30
0.0
 40
5.0
100
AcDbArc
 50
74.47751218593028
 51
165.5224878140693
  0
ARC
  5
149A
330
36
100
AcDbEntity
  8
0
 62
     7
100
AcDbCircle
 10
68.49777198527238
 20
-252.0925973260734
 30
0.0
 40
3.0
100
AcDbArc
 50
84.62431835216174
 51
155.3756816478349
  0
LINE
  5
149B
330
36
100
AcDbEntity
  8
0
 62
     3
100
AcDbLine
 10
102.9977719852724
 20
-258.1925973260734
 30
0.0
 11
107.9977719852724
 21
-258.1925973260734
 31
0.0
  0
ARC
  5
149C
330
36
100
AcDbEntity
  8
0
 62
     3
100
AcDbCircle
 10
108.4977719852723
 20
-256.5925973260734
 30
0.0
 40
3.0
100
AcDbArc
 50
0.0
 51
90.0
  0
LINE
  5
14A2
330
36
100
AcDbEntity
  8
0
 62
     7
100
AcDbLine
 10
111.4977719852723
 20
-259.0925973260734
 30
0.0
 11
145.154410075335
 21
-259.0925973260734
 31
0.0
  0
LINE
  5
14A3
330
36
100
AcDbEntity
  8
0
 62
     7
100
AcDbLine
 10
111.4977719852723
 20
-258.4925973260733
 30
0.0
 11
145.154410075335
 21
-258.4925973260733
 31
0.0
  0
LINE
  5
14A4
330
36
100
AcDbEntity
  8
0
 62
     7
100
AcDbLine
 10
145.154410075335
 20
-258.4925973260733
 30
0.0
 11
145.154410075335
 21
-259.0925973260734
 31
0.0
  0
ARC
  5
14A5
330
36
100
AcDbEntity
  8
0
 62
     7
100
AcDbCircle
 10
99.64362821232649
 20
-178.0715574420045
 30
0.0
 40
80.0
100
AcDbArc
 50
278.5212840407211
 51
323.1528466820824
  0
ARC
  5
14A6
330
36
100
AcDbEntity
  8
0
 62
     7
100
AcDbCircle
 10
99.64362821232649
 20
-178.0715574420045
 30
0.0
 40
80.6
100
AcDbArc
 50
278.4573836175717
 51
322.1801308810689
  0
LINE
  5
14A8
330
36
100
AcDbEntity
  8
0
 62
     7
100
AcDbLine
 10
140.154410075335
 20
-259.0925973260734
 30
0.0
 11
140.154410075335
 21
-258.4925973260733
 31
0.0
  0
ARC
  5
14A9
330
36
100
AcDbEntity
  8
0
 62
     3
100
AcDbCircle
 10
132.654410075335
 20
-331.2058929570188
 30
0.0
 40
12.49999999999995
100
AcDbArc
 50
306.869897645845
 51
53.13010235415482
  0
LINE
  5
14AB
330
36
100
AcDbEntity
  8
0
 62
     7
100
AcDbLine
 10
72.1040658127813
 20
-255.8388814623409
 30
0.0
 11
70.36092848980274
 21
-252.8196790543724
 31
0.0
  0
LINE
  5
14AC
330
36
100
AcDbEntity
  8
0
 62
     7
100
AcDbLine
 10
69.93900230332021
 20
-257.0888814623408
 30
0.0
 11
68.19586498034164
 21
-254.0696790543724
 31
0.0
  0
CIRCLE
  5
14AD
330
36
100
AcDbEntity
  8
0
 62
     7
100
AcDbCircle
 10
68.49777198527238
 20
-252.0925973260734
 30
0.0
 40
2.0
  0
ARC
  5
14AE
330
36
100
AcDbEntity
  8
0
 62
     7
100
AcDbCircle
 10
68.49777198527238
 20
-252.0925973260734
 30
0.0
 40
2.75
100
AcDbArc
 50
87.03569178940846
 51
152.9643082105869
  0
ARC
  5
14B1
330
36
100
AcDbEntity
  8
0
 62
     7
100
AcDbCircle
 10
68.49777198527238
 20
-252.0925973260734
 30
0.0
 40
5.2
100
AcDbArc
 50
286.0907582223643
 51
313.9092417776345
  0
ARC
  5
14B4
330
36
100
AcDbEntity
  8
0
 62
     7
100
AcDbCircle
 10
68.49777198527238
 20
-252.0925973260734
 30
0.0
 40
5.199999999999998
100
AcDbArc
 50
46.09075822236148
 51
73.90924177763571
  0
LINE
  5
14B5
330
36
100
AcDbEntity
  8
0
 62
     7
100
AcDbLine
 10
72.10406581278141
 20
-248.3463131898059
 30
0.0
 11
70.36092848980274
 21
-251.3655155977744
 31
0.0
  0
LINE
  5
14B6
330
36
100
AcDbEntity
  8
0
 62
     7
100
AcDbLine
 10
69.93900230332029
 20
-247.0963131898059
 30
0.0
 11
68.19586498034175
 21
-250.1155155977743
 31
0.0
  0
ARC
  5
14B7
330
36
100
AcDbEntity
  8
0
 62
     7
100
AcDbCircle
 10
68.49777198527227
 20
-252.0925973260733
 30
0.0
 40
5.2
100
AcDbArc
 50
166.0907582223643
 51
193.9092417776349
  0
LINE
  5
14B8
330
36
100
AcDbEntity
  8
0
 62
     7
100
AcDbLine
 10
63.45024783971553
 20
-250.8425973260733
 30
0.0
 11
66.93652248567264
 21
-250.8425973260733
 31
0.0
  0
LINE
  5
14B9
330
36
100
AcDbEntity
  8
0
 62
     7
100
AcDbLine
 10
63.45024783971553
 20
-253.3425973260733
 30
0.0
 11
66.93652248567264
 21
-253.3425973260733
 31
0.0
  0
ARC
  5
14BA
330
36
100
AcDbEntity
  8
0
 62
     7
100
AcDbCircle
 10
68.49777198527238
 20
-252.0925973260734
 30
0.0
 40
3.0
100
AcDbArc
 50
324.6243183521638
 51
35.37568164783606
  0
ARC
  5
14BB
330
36
100
AcDbEntity
  8
0
 62
     7
100
AcDbCircle
 10
68.49777198527238
 20
-252.0925973260734
 30
0.0
 40
2.75
100
AcDbArc
 50
327.0356917894125
 51
32.96430821058751
  0
ARC
  5
14BC
330
36
100
AcDbEntity
  8
0
 62
     7
100
AcDbCircle
 10
68.49777198527238
 20
-252.0925973260734
 30
0.0
 40
5.0
100
AcDbArc
 50
314.4775121859291
 51
45.52248781406787
  0
ARC
  5
14BD
330
36
100
AcDbEntity
  8
0
 62
     7
100
AcDbCircle
 10
68.49777198527238
 20
-252.0925973260734
 30
0.0
 40
5.0
100
AcDbArc
 50
194.4775121859301
 51
285.5224878140697
  0
ARC
  5
14BE
330
36
100
AcDbEntity
  8
0
 62
     7
100
AcDbCircle
 10
68.49777198527238
 20
-252.0925973260734
 30
0.0
 40
3.0
100
AcDbArc
 50
204.6243183521627
 51
275.375681647835
  0
ARC
  5
14BF
330
36
100
AcDbEntity
  8
0
 62
     7
100
AcDbCircle
 10
68.49777198527238
 20
-252.0925973260734
 30
0.0
 40
2.75
100
AcDbArc
 50
207.0356917894121
 51
272.964308210585
  0
LINE
  5
14C1
330
36
100
AcDbEntity
  8
0
 62
     7
100
AcDbLine
 10
65.4298892781818
 20
-317.2058929570188
 30
0.0
 11
69.93900230332099
 21
-317.2058929570188
 31
0.0
  0
ARC
  5
14C2
330
36
100
AcDbEntity
  8
0
 62
     7
100
AcDbCircle
 10
70.59101534204319
 20
-344.010069370993
 30
0.0
 40
27.29653999096893
100
AcDbArc
 50
100.8988772229865
 51
105.4968641010915
  0
LINE
  5
14C3
330
36
100
AcDbEntity
  8
0
 62
     7
100
AcDbLine
 10
72.10406581278231
 20
-317.7058929570188
 30
0.0
 11
72.10406581278231
 21
-318.4453255719885
 31
0.0
  0
LINE
  5
14C5
330
36
100
AcDbEntity
  8
0
 62
     7
100
AcDbLine
 10
70.36092848980274
 20
-317.7058929570188
 30
0.0
 11
70.36092848980274
 21
-318.4453255719885
 31
0.0
  0
LINE
  5
14C6
330
36
100
AcDbEntity
  8
0
 62
     7
100
AcDbLine
 10
68.19586498034164
 20
-317.9558929570188
 30
0.0
 11
68.19586498034164
 21
-317.2058929570188
 31
0.0
  0
ARC
  5
14C7
330
36
100
AcDbEntity
  8
0
 62
     7
100
AcDbCircle
 10
68.10298224337396
 20
-323.4001953701926
 30
0.0
 40
5.445094670335558
100
AcDbArc
 50
65.50112998134832
 51
89.02259790499106
  0
ARC
  5
14C8
330
36
100
AcDbEntity
  8
0
 62
     7
100
AcDbCircle
 10
66.00465076776436
 20
-331.6316288231472
 30
0.0
 40
14.59120539930475
100
AcDbArc
 50
72.62916464474827
 51
81.36301146960622
  0
ARC
  5
14CE
330
36
100
AcDbEntity
  8
0
 62
     7
100
AcDbCircle
 10
67.69251774106158
 20
-331.8709564576543
 30
0.0
 40
14.83613090957815
100
AcDbArc
 50
72.7013934182973
 51
81.29078269606166
  0
LINE
  5
14D0
330
36
100
AcDbEntity
  8
0
 62
     7
100
AcDbLine
 10
66.93652248567264
 20
-317.2058929570188
 30
0.0
 11
66.93652248567264
 21
-317.9558929570188
 31
0.0
  0
LINE
  5
14D1
330
36
100
AcDbEntity
  8
0
 62
     7
100
AcDbLine
 10
63.29777201101927
 20
-317.7058929498794
 30
0.0
 11
63.53118203824436
 21
-318.4453255719885
 31
0.0
  0
LINE
  5
14D6
330
36
100
AcDbEntity
  8
0
 62
     7
100
AcDbLine
 10
68.47982980269808
 20
-346.9558929570188
 30
0.0
 11
70.64489331215906
 21
-346.9558929570188
 31
0.0
  0
LINE
  5
14D8
330
36
100
AcDbEntity
  8
0
 62
     7
100
AcDbLine
 10
70.36092848980274
 20
-317.7058929570188
 30
0.0
 11
72.10406581278231
 21
-317.7058929570187
 31
0.0
  0
LINE
  5
14D9
330
36
100
AcDbEntity
  8
0
 62
     7
100
AcDbLine
 10
72.10406581278231
 20
-318.4453255719885
 30
0.0
 11
70.36092848980274
 21
-318.4453255719885
 31
0.0
  0
LINE
  5
14DA
330
36
100
AcDbEntity
  8
0
 62
     7
100
AcDbLine
 10
72.10406581278231
 20
-344.0570916828715
 30
0.0
 11
72.10406581278231
 21
-344.8070916828715
 31
0.0
  0
LINE
  5
14DF
330
36
100
AcDbEntity
  8
0
 62
     7
100
AcDbLine
 10
69.93900230332122
 20
-344.8070916828715
 30
0.0
 11
69.93900230332122
 21
-344.0570916828715
 31
0.0
  0
LINE
  5
14E0
330
36
100
AcDbEntity
  8
0
 62
     7
100
AcDbLine
 10
69.93900230332122
 20
-344.8070916828715
 30
0.0
 11
72.10406581278231
 21
-344.8070916828715
 31
0.0
  0
LINE
  5
14E1
330
36
100
AcDbEntity
  8
0
 62
     7
100
AcDbLine
 10
69.93900230332122
 20
-344.0570916828715
 30
0.0
 11
68.63998510193335
 21
-346.2058929570189
 31
0.0
  0
LINE
  5
14EB
330
36
100
AcDbEntity
  8
0
 62
     7
100
AcDbLine
 10
68.19586498034164
 20
-346.6719281346623
 30
0.0
 11
68.19586498034164
 21
-344.4558929570189
 31
0.0
  0
LINE
  5
14F1
330
36
100
AcDbEntity
  8
0
 62
     7
100
AcDbLine
 10
68.63998510193335
 20
-346.2058929570189
 30
0.0
 11
68.63998510193335
 21
-344.4558929570189
 31
0.0
  0
LINE
  5
14F3
330
36
100
AcDbEntity
  8
0
 62
     7
100
AcDbLine
 10
66.93652248567275
 20
-346.3012888537427
 30
0.0
 11
66.93652248567275
 21
-344.4558929570189
 31
0.0
  0
LINE
  5
14F4
330
36
100
AcDbEntity
  8
0
 62
     7
100
AcDbLine
 10
66.04828224248922
 20
-345.8729312989706
 30
0.0
 11
66.04828224248922
 21
-344.4558929570189
 31
0.0
  0
LINE
  5
14F5
330
36
100
AcDbEntity
  8
0
 62
     7
100
AcDbLine
 10
65.86744439502592
 20
-346.8079621664593
 30
0.0
 11
63.29777198527222
 21
-344.7058929570189
 31
0.0
  0
LINE
  5
14F7
330
36
100
AcDbEntity
  8
0
 62
     7
100
AcDbLine
 10
63.82851091380405
 20
-344.0570916828715
 30
0.0
 11
63.29777198527222
 21
-344.7058929570189
 31
0.0
  0
LINE
  5
14F8
330
36
100
AcDbEntity
  8
0
 62
     7
100
AcDbLine
 10
66.04828224248922
 20
-345.8729312989706
 30
0.0
 11
63.82851091380405
 21
-344.0570916828715
 31
0.0
  0
ARC
  5
14F9
330
36
100
AcDbEntity
  8
0
 62
     7
100
AcDbCircle
 10
66.2819183823965
 20
-346.3012888537427
 30
0.0
 40
0.654604103276256
100
AcDbArc
 50
230.7158028607253
 51
0.0
  0
LINE
  5
14FA
330
36
100
AcDbEntity
  8
0
 62
     7
100
AcDbLine
 10
72.10406581278231
 20
-344.0570916828715
 30
0.0
 11
69.93900230332122
 21
-344.0570916828715
 31
0.0
  0
LINE
  5
14FB
330
36
100
AcDbEntity
  8
0
 62
     7
100
AcDbLine
 10
69.93900230332122
 20
-344.8070916828715
 30
0.0
 11
68.72284050085273
 21
-346.8188356597192
 31
0.0
  0
LINE
  5
14FC
330
36
100
AcDbEntity
  8
0
 62
     7
100
AcDbLine
 10
72.10406581278231
 20
-344.8070916828715
 30
0.0
 11
70.88790401031372
 21
-346.8188356597194
 31
0.0
  0
ARC
  5
14FD
330
36
100
AcDbEntity
  8
0
 62
     7
100
AcDbCircle
 10
70.64489331215906
 20
-346.6719281346624
 30
0.0
 40
0.2839648223565257
100
AcDbArc
 50
270.0
 51
328.8457330939753
  0
ARC
  5
14FE
330
36
100
AcDbEntity
  8
0
 62
     7
100
AcDbCircle
 10
68.47982980269808
 20
-346.6719281346623
 30
0.0
 40
0.2839648223565257
100
AcDbArc
 50
180.0
 51
328.8457330939753
  0
LINE
  5
14FF
330
36
100
AcDbEntity
  8
0
 62
     3
100
AcDbLine
 10
71.24777198527238
 20
-320.4558929570187
 30
0.0
 11
71.24777198527238
 21
-321.2058929570188
 31
0.0
  0
LINE
  5
1500
330
36
100
AcDbEntity
  8
0
 62
     3
100
AcDbLine
 10
65.74777198527238
 20
-320.4558929570187
 30
0.0
 11
65.74777198527238
 21
-341.9558929570188
 31
0.0
  0
LINE
  5
1501
330
36
100
AcDbEntity
  8
0
 62
     3
100
AcDbLine
 10
111.4977719852723
 20
-253.5925973260733
 30
0.0
 11
91.53513401414148
 21
-252.7720787615878
 31
0.0
  0
LINE
  5
1502
330
36
100
AcDbEntity
  8
0
 62
     3
100
AcDbLine
 10
111.4049067173632
 20
-255.851943797444
 30
0.0
 11
111.4977719852723
 21
-253.5925973260733
 31
0.0
  0
LINE
  5
1504
330
36
100
AcDbEntity
  8
0
 62
     3
100
AcDbLine
 10
91.53513401414148
 20
-252.7720787615878
 30
0.0
 11
69.96718090656509
 21
-246.7925183245843
 31
0.0
  0
LINE
  5
1505
330
36
100
AcDbEntity
  8
0
 62
     3
100
AcDbLine
 10
62.99777198527237
 20
-320.4558929570188
 30
0.0
 11
85.79700659944704
 21
-320.4558929570188
 31
0.0
  0
LINE
  5
1506
330
36
100
AcDbEntity
  8
0
 62
     3
100
AcDbLine
 10
62.99777198527237
 20
-341.9558929570188
 30
0.0
 11
85.79700659944727
 21
-341.9558929570188
 31
0.0
  0
ARC
  5
1512
330
36
100
AcDbEntity
  8
0
 62
     3
100
AcDbCircle
 10
79.49777198527238
 20
-321.4558929570188
 30
0.0
 40
2.0
100
AcDbArc
 50
7.180755781457952
 51
30.00000000000197
  0
ARC
  5
1513
330
36
100
AcDbEntity
  8
0
 62
     3
100
AcDbCircle
 10
79.49777198527238
 20
-340.9558929570188
 30
0.0
 40
2.0
100
AcDbArc
 50
329.9999999999991
 51
352.8192442185434
  0
LINE
  5
1515
330
36
100
AcDbEntity
  8
0
 62
     3
100
AcDbLine
 10
65.74777198527238
 20
-321.2058929570188
 30
0.0
 11
11.05239615800258
 21
-321.2058929570188
 31
0.0
  0
LINE
  5
1516
330
36
100
AcDbEntity
  8
0
 62
     3
100
AcDbLine
 10
65.74777198527238
 20
-341.2058929570187
 30
0.0
 11
9.369513333672216
 21
-341.2058929570187
 31
0.0
  0
LINE
  5
1518
330
36
100
AcDbEntity
  8
0
 62
     3
100
AcDbLine
 10
70.53576150842445
 20
-321.2058929570188
 30
0.0
 11
70.53576150842445
 21
-341.2058929570187
 31
0.0
  0
LINE
  5
1519
330
36
100
AcDbEntity
  8
0
 62
     3
100
AcDbLine
 10
70.53576150842445
 20
-321.2058929570188
 30
0.0
 11
86.18479118759035
 21
-321.2058929570188
 31
0.0
  0
LINE
  5
151A
330
36
100
AcDbEntity
  8
0
 62
     3
100
AcDbLine
 10
70.53576150842445
 20
-341.2058929570187
 30
0.0
 11
86.18479118759045
 21
-341.2058929570187
 31
0.0
  0
LINE
  5
151B
330
36
100
AcDbEntity
  8
0
 62
     3
100
AcDbLine
 10
71.24777198527238
 20
-341.2058929570187
 30
0.0
 11
71.24777198527238
 21
-341.9558929570188
 31
0.0
  0
LINE
  5
151C
330
36
100
AcDbEntity
  8
0
 62
     3
100
AcDbLine
 10
111.4977719852723
 20
-341.2058929570187
 30
0.0
 11
188.8027021274394
 21
-341.2058929570187
 31
0.0
  0
LINE
  5
151D
330
36
100
AcDbEntity
  8
0
 62
     3
100
AcDbLine
 10
111.4977719852723
 20
-321.2058929570188
 30
0.0
 11
190.4855849517699
 21
-321.2058929570188
 31
0.0
  0
LINE
  5
151E
330
36
100
AcDbEntity
  8
0
  6
HIDDEN
100
AcDbLine
 10
111.4977719852723
 20
-325.2058929570188
 30
0.0
 11
190.5215651929169
 21
-325.2058929570188
 31
0.0
  0
LINE
  5
151F
330
36
100
AcDbEntity
  8
0
  6
HIDDEN
100
AcDbLine
 10
111.4977719852723
 20
-337.2058929570187
 30
0.0
 11
188.2868621897303
 21
-337.2058929570187
 31
0.0
  0
LINE
  5
1520
330
36
100
AcDbEntity
  8
0
  6
HIDDEN
100
AcDbLine
 10
85.79700659944704
 20
-325.2058929570189
 30
0.0
 11
70.53576150842456
 21
-325.2058929570189
 31
0.0
  0
LINE
  5
1521
330
36
100
AcDbEntity
  8
0
  6
HIDDEN
100
AcDbLine
 10
85.79700659944718
 20
-337.2058929570187
 30
0.0
 11
70.53576150842445
 21
-337.2058929570187
 31
0.0
  0
ARC
  5
1522
330
36
100
AcDbEntity
  8
0
  6
Continuous
100
AcDbCircle
 10
25.44377710087571
 20
-337.0996947967522
 30
0.0
 40
16.59044360434664
100
AcDbArc
 50
159.1910602063814
 51
216.0336490052975
  0
ARC
  5
1523
330
36
100
AcDbEntity
  8
0
  6
Continuous
100
AcDbCircle
 10
-14.32173570666998
 20
-323.4342966250846
 30
0.0
 40
25.47179520162722
100
AcDbArc
 50
342.2354616374763
 51
14.96104778573443
  0
ARC
  5
1528
330
36
100
AcDbEntity
  8
0
  6
Continuous
100
AcDbCircle
 10
204.8769658946432
 20
-337.0996947967522
 30
0.0
 40
16.59044360434664
100
AcDbArc
 50
159.1910602063812
 51
216.0336490052975
  0
ARC
  5
1529
330
36
100
AcDbEntity
  8
0
  6
Continuous
100
AcDbCircle
 10
165.1114530870974
 20
-323.4342966250846
 30
0.0
 40
25.47179520162722
100
AcDbArc
 50
342.2354616374765
 51
14.96104778573443
  0
LINE
  5
152A
330
36
100
AcDbEntity
  8
0
  6
HIDDEN
100
AcDbLine
 10
65.74777198527238
 20
-325.2058929570189
 30
0.0
 11
11.08837639914952
 21
-325.2058929570188
 31
0.0
  0
LINE
  5
152B
330
36
100
AcDbEntity
  8
0
  6
HIDDEN
100
AcDbLine
 10
65.74777198527238
 20
-337.2058929570187
 30
0.0
 11
8.853673395962857
 21
-337.2058929570187
 31
0.0
  0
LINE
  5
152C
330
36
100
AcDbEntity
  8
0
  6
Continuous
100
AcDbLine
 10
165.6694647160303
 20
-217.737571771548
 30
0.0
 11
160.9715873314572
 21
-237.1879003203368
 31
0.0
  0
LINE
  5
152D
330
36
100
AcDbEntity
  8
0
  6
Continuous
100
AcDbLine
 10
31.97667443180933
 20
-210.7433123132243
 30
0.0
 11
24.51434348103646
 21
-225.6596179813159
 31
0.0
  0
LINE
  5
1530
330
36
100
AcDbEntity
  8
0
 62
     3
100
AcDbLine
 10
73.76173000312973
 20
-457.0219271840556
 30
0.0
 11
87.05728891242236
 21
-457.0219271840556
 31
0.0
  0
LINE
  5
1531
330
36
100
AcDbEntity
  8
0
 62
     3
100
AcDbLine
 10
82.80728891241597
 20
-453.7719271840559
 30
0.0
 11
87.05728891242236
 21
-453.7719271840559
 31
0.0
  0
LINE
  5
1532
330
36
100
AcDbEntity
  8
0
 62
     3
100
AcDbLine
 10
82.80728891242233
 20
-454.5719271840559
 30
0.0
 11
85.30728891242233
 21
-454.5719271840559
 31
0.0
  0
LINE
  5
1533
330
36
100
AcDbEntity
  8
0
 62
     3
100
AcDbLine
 10
82.80728891242233
 20
-456.0719271840556
 30
0.0
 11
85.30728891242233
 21
-456.0719271840556
 31
0.0
  0
LINE
  5
1534
330
36
100
AcDbEntity
  8
0
 62
     7
100
AcDbLine
 10
82.80728891242222
 20
-456.5219271840557
 30
0.0
 11
85.30728891242233
 21
-456.5219271840557
 31
0.0
  0
LINE
  5
1535
330
36
100
AcDbEntity
  8
0
 62
     3
100
AcDbLine
 10
87.05728891242236
 20
-457.0219271840556
 30
0.0
 11
87.05728891242236
 21
-455.3969271840558
 31
0.0
  0
ARC
  5
1536
330
36
100
AcDbEntity
  8
0
 62
     3
100
AcDbCircle
 10
85.55728891242234
 20
-455.2719271840556
 30
0.0
 40
1.5
100
AcDbArc
 50
0.0
 51
90.0
  0
LINE
  5
1537
330
36
100
AcDbEntity
  8
0
 62
     3
100
AcDbLine
 10
85.30728891242233
 20
-457.0219271840556
 30
0.0
 11
85.30728891242233
 21
-454.5719271840559
 31
0.0
  0
LINE
  5
1538
330
36
100
AcDbEntity
  8
0
 62
     3
100
AcDbLine
 10
82.80728891242233
 20
-457.0219271840556
 30
0.0
 11
82.80728891242233
 21
-454.5719271840559
 31
0.0
  0
ARC
  5
1539
330
36
100
AcDbEntity
  8
0
 62
     3
100
AcDbCircle
 10
65.55728891242234
 20
-453.0219271840556
 30
0.0
 40
2.74999999999997
100
AcDbArc
 50
64.17329194896405
 51
261.5436416963559
  0
LINE
  5
153A
330
36
100
AcDbEntity
  8
0
 62
     3
100
AcDbLine
 10
73.76173000312973
 20
-457.0219271840556
 30
0.0
 11
65.15288479264995
 21
-455.7420296284338
 31
0.0
  0
ARC
  5
153B
330
36
100
AcDbEntity
  8
0
 62
     3
100
AcDbCircle
 10
82.96966191385809
 20
-411.4069746332194
 30
0.0
 40
42.36526371481985
100
AcDbArc
 50
247.0922519094719
 51
269.7804023945498
  0
ARC
  5
153C
330
36
100
AcDbEntity
  8
0
 62
     7
100
AcDbCircle
 10
65.55728891242234
 20
-453.0219271840556
 30
0.0
 40
2.5
100
AcDbArc
 50
74.47751218593031
 51
165.5224878140701
  0
ARC
  5
153D
330
36
100
AcDbEntity
  8
0
 62
     7
100
AcDbCircle
 10
65.55728891242234
 20
-453.0219271840556
 30
0.0
 40
2.5
100
AcDbArc
 50
194.4775121859299
 51
285.5224878140695
  0
ARC
  5
153E
330
36
100
AcDbEntity
  8
0
 62
     7
100
AcDbCircle
 10
65.55728891242234
 20
-453.0219271840556
 30
0.0
 40
2.5
100
AcDbArc
 50
314.4775121859295
 51
45.52248781406702
  0
ARC
  5
153F
330
36
100
AcDbEntity
  8
0
 62
     7
100
AcDbCircle
 10
65.55728891242234
 20
-453.0219271840556
 30
0.0
 40
2.6
100
AcDbArc
 50
286.0907582223643
 51
313.9092417776375
  0
ARC
  5
1540
330
36
100
AcDbEntity
  8
0
 62
     7
100
AcDbCircle
 10
65.55728891242234
 20
-453.0219271840556
 30
0.0
 40
1.5
100
AcDbArc
 50
84.62431835216174
 51
155.3756816478339
  0
ARC
  5
1541
330
36
100
AcDbEntity
  8
0
 62
     7
100
AcDbCircle
 10
65.55728891242234
 20
-453.0219271840556
 30
0.0
 40
1.5
100
AcDbArc
 50
204.6243183521624
 51
275.3756816478382
  0
ARC
  5
1542
330
36
100
AcDbEntity
  8
0
 62
     7
100
AcDbCircle
 10
65.55728891242234
 20
-453.0219271840556
 30
0.0
 40
1.5
100
AcDbArc
 50
324.6243183521642
 51
35.3756816478359
  0
LINE
  5
1543
330
36
100
AcDbEntity
  8
0
 62
     7
100
AcDbLine
 10
87.05728891242236
 20
-456.5219271840557
 30
0.0
 11
103.8856079574536
 21
-456.5219271840557
 31
0.0
  0
LINE
  5
1544
330
36
100
AcDbEntity
  8
0
 62
     7
100
AcDbLine
 10
87.05728891242236
 20
-456.2219271840556
 30
0.0
 11
103.8856079574536
 21
-456.2219271840556
 31
0.0
  0
LINE
  5
1545
330
36
100
AcDbEntity
  8
0
 62
     7
100
AcDbLine
 10
103.8856079574536
 20
-456.2219271840556
 30
0.0
 11
103.8856079574536
 21
-456.5219271840557
 31
0.0
  0
ARC
  5
1546
330
36
100
AcDbEntity
  8
0
 62
     7
100
AcDbCircle
 10
81.13021702594938
 20
-416.0114072420213
 30
0.0
 40
40.0
100
AcDbArc
 50
278.5212840407211
 51
243.2538856313952
  0
ARC
  5
1547
330
36
100
AcDbEntity
  8
0
 62
     7
100
AcDbCircle
 10
81.13021702594938
 20
-416.0114072420213
 30
0.0
 40
40.3
100
AcDbArc
 50
278.4573836175717
 51
243.2680045485408
  0
LINE
  5
1548
330
36
100
AcDbEntity
  8
0
 62
     7
100
AcDbLine
 10
101.3856079574536
 20
-456.5219271840557
 30
0.0
 11
101.3856079574536
 21
-456.2219271840556
 31
0.0
  0
LINE
  5
1549
330
36
100
AcDbEntity
  8
0
 62
     7
100
AcDbLine
 10
66.2779040714463
 20
-455.5200692521895
 30
0.0
 11
65.40633540995691
 21
-454.0104680482053
 31
0.0
  0
LINE
  5
154A
330
36
100
AcDbEntity
  8
0
 62
     7
100
AcDbLine
 10
67.36043582617686
 20
-454.8950692521897
 30
0.0
 11
66.48886716468746
 21
-453.3854680482053
 31
0.0
  0
CIRCLE
  5
154B
330
36
100
AcDbEntity
  8
0
 62
     7
100
AcDbCircle
 10
65.55728891242234
 20
-453.0219271840556
 30
0.0
 40
1.0
  0
ARC
  5
154C
330
36
100
AcDbEntity
  8
0
 62
     7
100
AcDbCircle
 10
65.55728891242234
 20
-453.0219271840556
 30
0.0
 40
1.375
100
AcDbArc
 50
87.03569178940846
 51
152.9643082105893
  0
ARC
  5
154D
330
36
100
AcDbEntity
  8
0
 62
     7
100
AcDbCircle
 10
65.55728891242234
 20
-453.0219271840556
 30
0.0
 40
1.375
100
AcDbArc
 50
207.0356917894107
 51
272.964308210585
  0
ARC
  5
154E
330
36
100
AcDbEntity
  8
0
 62
     7
100
AcDbCircle
 10
65.55728891242234
 20
-453.0219271840556
 30
0.0
 40
1.375
100
AcDbArc
 50
327.0356917894126
 51
32.96430821058734
  0
ARC
  5
154F
330
36
100
AcDbEntity
  8
0
 62
     7
100
AcDbCircle
 10
65.55728891242234
 20
-453.0219271840556
 30
0.0
 40
2.599999999999999
100
AcDbArc
 50
46.09075822236148
 51
73.90924177763571
  0
LINE
  5
1550
330
36
100
AcDbEntity
  8
0
 62
     7
100
AcDbLine
 10
67.36043582617686
 20
-451.1487851159222
 30
0.0
 11
66.48886716468746
 21
-452.6583863199062
 31
0.0
  0
LINE
  5
1551
330
36
100
AcDbEntity
  8
0
 62
     7
100
AcDbLine
 10
66.2779040714463
 20
-450.523785115922
 30
0.0
 11
65.40633540995703
 21
-452.0333863199064
 31
0.0
  0
ARC
  5
1552
330
36
100
AcDbEntity
  8
0
 62
     7
100
AcDbCircle
 10
65.55728891242234
 20
-453.0219271840556
 30
0.0
 40
2.6
100
AcDbArc
 50
166.0907582223635
 51
193.9092417776324
  0
LINE
  5
1553
330
36
100
AcDbEntity
  8
0
 62
     7
100
AcDbLine
 10
63.03352683964384
 20
-452.3969271840559
 30
0.0
 11
64.77666416262241
 21
-452.3969271840559
 31
0.0
  0
LINE
  5
1554
330
36
100
AcDbEntity
  8
0
 62
     7
100
AcDbLine
 10
63.03352683964384
 20
-453.6469271840558
 30
0.0
 11
64.77666416262241
 21
-453.6469271840558
 31
0.0
  0
LINE
  5
1555
330
36
100
AcDbEntity
  8
0
 62
     3
100
AcDbLine
 10
87.05728891242236
 20
-453.7719271840559
 30
0.0
 11
77.07596992685694
 21
-453.361667901813
 31
0.0
  0
LINE
  5
1556
330
36
100
AcDbEntity
  8
0
 62
     3
100
AcDbLine
 10
87.01085627846783
 20
-454.9016004197413
 30
0.0
 11
87.05728891242236
 21
-453.7719271840559
 31
0.0
  0
LINE
  5
1557
330
36
100
AcDbEntity
  8
0
 62
     3
100
AcDbLine
 10
77.07596992685694
 20
-453.361667901813
 30
0.0
 11
66.29199337306864
 21
-450.3718876833112
 31
0.0
  0
ARC
  5
15C6
330
36
100
AcDbEntity
  8
0
 62
     7
100
AcDbCircle
 10
99.64362821232649
 20
-178.0715574420045
 30
0.0
 40
80.0
100
AcDbArc
 50
208.4112108831609
 51
243.253885631392
  0
ARC
  5
15C7
330
36
100
AcDbEntity
  8
0
 62
     7
100
AcDbCircle
 10
99.64362821232649
 20
-178.0715574420045
 30
0.0
 40
80.6
100
AcDbArc
 50
208.7094416155625
 51
243.268004548544
  0
LINE
  5
1803
330
36
100
AcDbEntity
  8
0
  6
Continuous
 62
     3
100
AcDbLine
 10
204.9517725329556
 20
-398.9727589500533
 30
0.0
 11
204.9517725329557
 21
-405.9727589500533
 31
0.0
  0
TEXT
  5
1805
330
36
100
AcDbEntity
  8
0
 62
     3
100
AcDbText
 10
206.4517725329556
 20
-404.9727589500531
 30
0.0
 40
4.5
  1
適応柱径
  7
高4.5
100
AcDbText
  0
TEXT
  5
1808
330
36
100
AcDbEntity
  8
0
 62
     3
100
AcDbText
 10
240.282816392729
 20
-404.9727589500531
 30
0.0
 40
4.5
  1
%%C60.5～%%C160
  7
高4.5
100
AcDbText
  0
LINE
  5
180F
330
36
100
AcDbEntity
  8
0
  6
Continuous
 62
     3
100
AcDbLine
 10
204.9517725329556
 20
-398.9727589500533
 30
0.0
 11
290.989235372638
 21
-398.9727589500533
 31
0.0
  0
LINE
  5
1810
330
36
100
AcDbEntity
  8
0
  6
Continuous
 62
     3
100
AcDbLine
 10
204.9517725329556
 20
-405.9727589500531
 30
0.0
 11
290.989235372638
 21
-405.9727589500531
 31
0.0
  0
LINE
  5
1815
330
36
100
AcDbEntity
  8
0
  6
Continuous
100
AcDbLine
 10
238.782816392729
 20
-398.9727589500533
 30
0.0
 11
238.782816392729
 21
-405.9727589500533
 31
0.0
  0
LINE
  5
1816
330
36
100
AcDbEntity
  8
0
  6
Continuous
 62
     3
100
AcDbLine
 10
290.989235372638
 20
-398.9727589500533
 30
0.0
 11
290.989235372638
 21
-405.9727589500533
 31
0.0
  0
TEXT
  5
197D
330
36
100
AcDbEntity
  8
0
 62
     3
100
AcDbText
 10
297.355999
 20
-205.90507
 30
0.0
 40
3.2
  1
担　当
  7
高3.2
100
AcDbText
  0
TEXT
  5
197E
330
36
100
AcDbEntity
  8
0
 62
     3
100
AcDbText
 10
253.355999
 20
-205.90507
 30
0.0
 40
3.2
  1
変更・追記内容
  7
高3.2
100
AcDbText
  0
TEXT
  5
197F
330
36
100
AcDbEntity
  8
0
 62
     3
100
AcDbText
 10
228.4695140003393
 20
-210.5756085099083
 30
0.0
 40
2.0
  1
1
  7
高2
100
AcDbText
  0
TEXT
  5
1980
330
36
100
AcDbEntity
  8
0
 62
     3
100
AcDbText
 10
228.1610025235819
 20
-215.7454252221812
 30
0.0
 40
2.0
  1
2
  7
高2
100
AcDbText
  0
TEXT
  5
1981
330
36
100
AcDbEntity
  8
0
 62
     3
100
AcDbText
 10
235.355999
 20
-205.90507
 30
0.0
 40
3.2
  1
日　付
  7
高3.2
100
AcDbText
  0
TEXT
  5
1982
330
36
100
AcDbEntity
  8
0
 62
     3
100
AcDbText
 10
235.355999
 20
-200.90507
 30
0.0
 40
3.2
  1
図　　　　面　　　　略　　　　歴
  7
高3.2
100
AcDbText
  0
TEXT
  5
1983
330
36
100
AcDbEntity
  8
0
 62
     3
100
AcDbText
 10
225.355999
 20
-205.90507
 30
0.0
 40
3.2
  1
記号
  7
高3.2
100
AcDbText
  0
LINE
  5
1984
330
36
100
AcDbEntity
  8
0
 62
     7
100
AcDbLine
 10
228.855999
 20
-212.6141739999999
 30
0.0
 11
226.955999
 21
-215.90507
 31
0.0
  0
LINE
  5
1985
330
36
100
AcDbEntity
  8
0
 62
     7
100
AcDbLine
 10
228.855999
 20
-212.6141739999999
 30
0.0
 11
230.755999
 21
-215.90507
 31
0.0
  0
LINE
  5
1986
330
36
100
AcDbEntity
  8
0
 62
     7
100
AcDbLine
 10
226.955999
 20
-215.90507
 30
0.0
 11
230.755999
 21
-215.90507
 31
0.0
  0
LINE
  5
1987
330
36
100
AcDbEntity
  8
0
 62
     7
100
AcDbLine
 10
228.855999
 20
-207.6141729999999
 30
0.0
 11
226.955999
 21
-210.90507
 31
0.0
  0
LINE
  5
1988
330
36
100
AcDbEntity
  8
0
 62
     7
100
AcDbLine
 10
228.855999
 20
-207.6141729999999
 30
0.0
 11
230.755999
 21
-210.90507
 31
0.0
  0
LINE
  5
1989
330
36
100
AcDbEntity
  8
0
 62
     7
100
AcDbLine
 10
226.955999
 20
-210.90507
 30
0.0
 11
230.755999
 21
-210.90507
 31
0.0
  0
LINE
  5
198A
330
36
100
AcDbEntity
  8
0
 62
     3
100
AcDbLine
 10
223.855999
 20
-201.40507
 30
0.0
 11
309.855999
 21
-201.40507
 31
0.0
  0
LINE
  5
198B
330
36
100
AcDbEntity
  8
0
 62
     3
100
AcDbLine
 10
223.855999
 20
-206.40507
 30
0.0
 11
309.855999
 21
-206.40507
 31
0.0
  0
LINE
  5
198C
330
36
100
AcDbEntity
  8
0
 62
     7
100
AcDbLine
 10
223.855999
 20
-211.40507
 30
0.0
 11
309.855999
 21
-211.40507
 31
0.0
  0
LINE
  5
198D
330
36
100
AcDbEntity
  8
0
 62
     3
100
AcDbLine
 10
223.855999
 20
-216.40507
 30
0.0
 11
309.855999
 21
-216.40507
 31
0.0
  0
LINE
  5
198E
330
36
100
AcDbEntity
  8
0
 62
     7
100
AcDbLine
 10
295.8559989999999
 20
-216.40507
 30
0.0
 11
295.855999
 21
-201.40507
 31
0.0
  0
LINE
  5
198F
330
36
100
AcDbEntity
  8
0
 62
     7
100
AcDbLine
 10
251.855999
 20
-216.40507
 30
0.0
 11
251.855999
 21
-201.40507
 31
0.0
  0
LINE
  5
1990
330
36
100
AcDbEntity
  8
0
 62
     7
100
AcDbLine
 10
233.855999
 20
-216.40507
 30
0.0
 11
233.855999
 21
-201.40507
 31
0.0
  0
LINE
  5
1991
330
36
100
AcDbEntity
  8
0
 62
     3
100
AcDbLine
 10
223.855999
 20
-216.40507
 30
0.0
 11
223.855999
 21
-196.40507
 31
0.0
  0
TEXT
  5
1AC7
330
36
100
AcDbEntity
  8
0
  6
Continuous
 62
     4
100
AcDbText
 10
169.2145646701566
 20
-298.2094068353027
 30
0.0
 40
3.0
  1
板厚0.2t両端密着ヘミング
100
AcDbText
1001
ACAD
1000
MTEXTBEGIN
1070
    73
1070
     1
1070
    44
1040
1.0
1070
    74
1070
     0
1000
MTEXTEND
  0
LINE
  5
1ACA
330
36
100
AcDbEntity
  8
0
  6
Continuous
100
AcDbLine
 10
111.4977719852723
 20
-260.3425973260733
 30
0.0
 11
111.4977719852723
 21
-275.5234849992879
 31
0.0
  0
LINE
  5
1ACB
330
36
100
AcDbEntity
  8
0
  6
Continuous
100
AcDbLine
 10
62.99777198527244
 20
-252.3425973260734
 30
0.0
 11
62.99777198527244
 21
-275.5234849992879
 31
0.0
  0
LINE
  5
1ACC
330
36
100
AcDbEntity
  8
0
  6
Continuous
100
AcDbLine
 10
108.9977719852723
 20
-274.2734849992879
 30
0.0
 11
65.49777198527244
 21
-274.2734849992879
 31
0.0
  0
LINE
  5
1AD0
330
36
100
AcDbEntity
  8
0
  6
Continuous
100
AcDbLine
 10
65.17988927817782
 20
-317.2058929570188
 30
0.0
 11
50.48628907552444
 21
-317.2058929570188
 31
0.0
  0
LINE
  5
1AD1
330
36
100
AcDbEntity
  8
0
  6
Continuous
100
AcDbLine
 10
66.05107958429994
 20
-346.9556124589777
 30
0.0
 11
50.48628907552443
 21
-346.9556124589777
 31
0.0
  0
LINE
  5
1AD2
330
36
100
AcDbEntity
  8
0
  6
Continuous
100
AcDbLine
 10
51.73628907552444
 20
-314.7058929570188
 30
0.0
 11
51.73628907552444
 21
-312.2058929570188
 31
0.0
  0
LINE
  5
1AD3
330
36
100
AcDbEntity
  8
0
  6
Continuous
100
AcDbLine
 10
51.73628907552443
 20
-349.4556124589777
 30
0.0
 11
51.73628907552443
 21
-361.4556124589777
 31
0.0
  0
LINE
  5
1AD4
330
36
100
AcDbEntity
  8
0
  6
Continuous
100
AcDbLine
 10
51.73628907552444
 20
-317.2058929570188
 30
0.0
 11
51.73628907552443
 21
-346.9556124589777
 31
0.0
  0
LINE
  5
1AD8
330
36
100
AcDbEntity
  8
0
  6
Continuous
100
AcDbLine
 10
111.7477719852723
 20
-318.4558929570187
 30
0.0
 11
124.7872644039507
 21
-318.4558929570187
 31
0.0
  0
LINE
  5
1AD9
330
36
100
AcDbEntity
  8
0
  6
Continuous
100
AcDbLine
 10
111.7477719852723
 20
-343.9558929570189
 30
0.0
 11
124.7872644039507
 21
-343.9558929570189
 31
0.0
  0
LINE
  5
1ADA
330
36
100
AcDbEntity
  8
0
  6
Continuous
100
AcDbLine
 10
123.5372644039507
 20
-346.4558929570189
 30
0.0
 11
123.5372644039507
 21
-348.9558929570189
 31
0.0
  0
LINE
  5
1ADB
330
36
100
AcDbEntity
  8
0
  6
Continuous
100
AcDbLine
 10
123.5372644039507
 20
-315.9558929570187
 30
0.0
 11
123.5372644039507
 21
-300.8512272505583
 31
0.0
  0
LINE
  5
1ADC
330
36
100
AcDbEntity
  8
0
  6
Continuous
100
AcDbLine
 10
123.5372644039507
 20
-343.9558929570189
 30
0.0
 11
123.5372644039507
 21
-318.4558929570187
 31
0.0
  0
LINE
  5
1AE0
330
36
100
AcDbEntity
  8
0
  6
Continuous
100
AcDbLine
 10
189.0527021274394
 20
-341.2058929570187
 30
0.0
 11
205.0891099262295
 21
-341.2058929570187
 31
0.0
  0
LINE
  5
1AE1
330
36
100
AcDbEntity
  8
0
  6
Continuous
100
AcDbLine
 10
190.7355849517699
 20
-321.2058929570188
 30
0.0
 11
205.0891099262295
 21
-321.2058929570188
 31
0.0
  0
LINE
  5
1AE2
330
36
100
AcDbEntity
  8
0
  6
Continuous
100
AcDbLine
 10
203.8391099262295
 20
-343.7058929570187
 30
0.0
 11
203.8391099262295
 21
-346.2058929570187
 31
0.0
  0
LINE
  5
1AE3
330
36
100
AcDbEntity
  8
0
  6
Continuous
100
AcDbLine
 10
203.8391099262295
 20
-318.7058929570188
 30
0.0
 11
203.8391099262295
 21
-310.4558929570188
 31
0.0
  0
LINE
  5
1AE4
330
36
100
AcDbEntity
  8
0
  6
Continuous
100
AcDbLine
 10
203.8391099262295
 20
-341.2058929570187
 30
0.0
 11
203.8391099262295
 21
-321.2058929570188
 31
0.0
  0
LINE
  5
1AE8
330
36
100
AcDbEntity
  8
0
  6
Continuous
100
AcDbLine
 10
47.55323822795392
 20
-432.7098052130534
 30
0.0
 11
114.7071958239446
 21
-399.3130092709896
 31
0.0
  0
LINE
  5
1AEC
330
36
100
AcDbEntity
  8
0
  6
Continuous
100
AcDbLine
 10
152.3033789979659
 20
-319.0776444468458
 30
0.0
 11
166.0895646701566
 21
-296.7094068353027
 31
0.0
1001
ACAD
1000
DSTYLE
1002
{
1070
   147
1040
0.625
1070
    77
1070
     0
1002
}
  0
LINE
  5
1AED
330
36
100
AcDbEntity
  8
0
  6
Continuous
100
AcDbLine
 10
166.0895646701566
 20
-296.7094068353027
 30
0.0
 11
168.5895646701566
 21
-296.7094068353027
 31
0.0
1001
ACAD
1000
DSTYLE
1002
{
1070
   147
1040
0.625
1070
    77
1070
     0
1002
}
  0
LINE
  5
1AEE
330
36
100
AcDbEntity
  8
0
  6
ByBlock
 62
     0
370
    -2
100
AcDbLine
 10
152.8736410580183
 20
-319.42911329201
 30
0.0
 11
150.9916784685211
 21
-321.2058929570188
 31
0.0
  0
LINE
  5
1AEF
330
36
100
AcDbEntity
  8
0
  6
ByBlock
 62
     0
370
    -2
100
AcDbLine
 10
150.9916784685211
 20
-321.2058929570188
 30
0.0
 11
151.7331169379135
 21
-318.7261756016815
 31
0.0
  0
LINE
  5
1AF0
330
36
100
AcDbEntity
  8
0
  6
ByBlock
 62
     0
370
    -2
100
AcDbLine
 10
150.9916784685211
 20
-321.2058929570188
 30
0.0
 11
152.3033789979659
 21
-319.0776444468457
 31
0.0
  0
TEXT
  5
1AF1
330
36
100
AcDbEntity
  8
0
  6
Continuous
 62
     4
100
AcDbText
 10
79.90534563782659
 20
-273.6484849992879
 30
0.0
 40
3.0
  1
48.5
100
AcDbText
  0
LINE
  5
1AF2
330
36
100
AcDbEntity
  8
0
  6
ByBlock
 62
     0
370
    -2
100
AcDbLine
 10
65.49777198527244
 20
-274.9433574992879
 30
0.0
 11
62.99777198527244
 21
-274.2734849992879
 31
0.0
  0
LINE
  5
1AF3
330
36
100
AcDbEntity
  8
0
  6
ByBlock
 62
     0
370
    -2
100
AcDbLine
 10
62.99777198527244
 20
-274.2734849992879
 30
0.0
 11
65.49777198527244
 21
-273.6036124992879
 31
0.0
  0
LINE
  5
1AF4
330
36
100
AcDbEntity
  8
0
  6
ByBlock
 62
     0
370
    -2
100
AcDbLine
 10
62.99777198527244
 20
-274.2734849992879
 30
0.0
 11
65.49777198527244
 21
-274.2734849992879
 31
0.0
  0
LINE
  5
1AF5
330
36
100
AcDbEntity
  8
0
  6
ByBlock
 62
     0
370
    -2
100
AcDbLine
 10
108.9977719852723
 20
-273.6036124992879
 30
0.0
 11
111.4977719852723
 21
-274.2734849992879
 31
0.0
  0
LINE
  5
1AF6
330
36
100
AcDbEntity
  8
0
  6
ByBlock
 62
     0
370
    -2
100
AcDbLine
 10
111.4977719852723
 20
-274.2734849992879
 30
0.0
 11
108.9977719852723
 21
-274.9433574992879
 31
0.0
  0
LINE
  5
1AF7
330
36
100
AcDbEntity
  8
0
  6
ByBlock
 62
     0
370
    -2
100
AcDbLine
 10
111.4977719852723
 20
-274.2734849992879
 30
0.0
 11
108.9977719852723
 21
-274.2734849992879
 31
0.0
  0
TEXT
  5
1AF8
330
36
100
AcDbEntity
  8
0
  6
Continuous
 62
     4
100
AcDbText
 10
51.11128907552449
 20
-360.8306124589777
 30
0.0
 40
3.0
  1
30
 50
90.0
100
AcDbText
  0
LINE
  5
1AF9
330
36
100
AcDbEntity
  8
0
  6
ByBlock
 62
     0
370
    -2
100
AcDbLine
 10
51.06641657552444
 20
-349.4556124589777
 30
0.0
 11
51.73628907552443
 21
-346.9556124589777
 31
0.0
  0
LINE
  5
1AFA
330
36
100
AcDbEntity
  8
0
  6
ByBlock
 62
     0
370
    -2
100
AcDbLine
 10
51.73628907552443
 20
-346.9556124589777
 30
0.0
 11
52.40616157552443
 21
-349.4556124589777
 31
0.0
  0
LINE
  5
1AFB
330
36
100
AcDbEntity
  8
0
  6
ByBlock
 62
     0
370
    -2
100
AcDbLine
 10
51.73628907552443
 20
-346.9556124589777
 30
0.0
 11
51.73628907552443
 21
-349.4556124589777
 31
0.0
  0
LINE
  5
1AFC
330
36
100
AcDbEntity
  8
0
  6
ByBlock
 62
     0
370
    -2
100
AcDbLine
 10
52.40616157552445
 20
-314.7058929570188
 30
0.0
 11
51.73628907552444
 21
-317.2058929570188
 31
0.0
  0
LINE
  5
1AFD
330
36
100
AcDbEntity
  8
0
  6
ByBlock
 62
     0
370
    -2
100
AcDbLine
 10
51.73628907552444
 20
-317.2058929570188
 30
0.0
 11
51.06641657552444
 21
-314.7058929570188
 31
0.0
  0
LINE
  5
1AFE
330
36
100
AcDbEntity
  8
0
  6
ByBlock
 62
     0
370
    -2
100
AcDbLine
 10
51.73628907552444
 20
-317.2058929570188
 30
0.0
 11
51.73628907552444
 21
-314.7058929570188
 31
0.0
  0
TEXT
  5
1AFF
330
36
100
AcDbEntity
  8
0
  6
Continuous
 62
     4
100
AcDbText
 10
122.9122644039508
 20
-310.4762272505583
 30
0.0
 40
3.0
  1
25.5
 50
90.0
100
AcDbText
  0
LINE
  5
1B00
330
36
100
AcDbEntity
  8
0
  6
ByBlock
 62
     0
370
    -2
100
AcDbLine
 10
124.2071369039507
 20
-315.9558929570187
 30
0.0
 11
123.5372644039507
 21
-318.4558929570187
 31
0.0
  0
LINE
  5
1B01
330
36
100
AcDbEntity
  8
0
  6
ByBlock
 62
     0
370
    -2
100
AcDbLine
 10
123.5372644039507
 20
-318.4558929570187
 30
0.0
 11
122.8673919039507
 21
-315.9558929570187
 31
0.0
  0
LINE
  5
1B02
330
36
100
AcDbEntity
  8
0
  6
ByBlock
 62
     0
370
    -2
100
AcDbLine
 10
123.5372644039507
 20
-318.4558929570187
 30
0.0
 11
123.5372644039507
 21
-315.9558929570187
 31
0.0
  0
LINE
  5
1B03
330
36
100
AcDbEntity
  8
0
  6
ByBlock
 62
     0
370
    -2
100
AcDbLine
 10
122.8673919039507
 20
-346.4558929570189
 30
0.0
 11
123.5372644039507
 21
-343.9558929570189
 31
0.0
  0
LINE
  5
1B04
330
36
100
AcDbEntity
  8
0
  6
ByBlock
 62
     0
370
    -2
100
AcDbLine
 10
123.5372644039507
 20
-343.9558929570189
 30
0.0
 11
124.2071369039507
 21
-346.4558929570189
 31
0.0
  0
LINE
  5
1B05
330
36
100
AcDbEntity
  8
0
  6
ByBlock
 62
     0
370
    -2
100
AcDbLine
 10
123.5372644039507
 20
-343.9558929570189
 30
0.0
 11
123.5372644039507
 21
-346.4558929570189
 31
0.0
  0
TEXT
  5
1B06
330
36
100
AcDbEntity
  8
0
  6
Continuous
 62
     4
100
AcDbText
 10
203.2141099262295
 20
-315.5808929570187
 30
0.0
 40
3.0
  1
20
 50
90.0
100
AcDbText
  0
LINE
  5
1B07
330
36
100
AcDbEntity
  8
0
  6
ByBlock
 62
     0
370
    -2
100
AcDbLine
 10
204.5089824262295
 20
-318.7058929570188
 30
0.0
 11
203.8391099262295
 21
-321.2058929570188
 31
0.0
  0
LINE
  5
1B08
330
36
100
AcDbEntity
  8
0
  6
ByBlock
 62
     0
370
    -2
100
AcDbLine
 10
203.8391099262295
 20
-321.2058929570188
 30
0.0
 11
203.1692374262294
 21
-318.7058929570188
 31
0.0
  0
LINE
  5
1B09
330
36
100
AcDbEntity
  8
0
  6
ByBlock
 62
     0
370
    -2
100
AcDbLine
 10
203.8391099262295
 20
-321.2058929570188
 30
0.0
 11
203.8391099262295
 21
-318.7058929570188
 31
0.0
  0
LINE
  5
1B0A
330
36
100
AcDbEntity
  8
0
  6
ByBlock
 62
     0
370
    -2
100
AcDbLine
 10
203.1692374262294
 20
-343.7058929570187
 30
0.0
 11
203.8391099262295
 21
-341.2058929570187
 31
0.0
  0
LINE
  5
1B0B
330
36
100
AcDbEntity
  8
0
  6
ByBlock
 62
     0
370
    -2
100
AcDbLine
 10
203.8391099262295
 20
-341.2058929570187
 30
0.0
 11
204.5089824262295
 21
-343.7058929570187
 31
0.0
  0
LINE
  5
1B0C
330
36
100
AcDbEntity
  8
0
  6
ByBlock
 62
     0
370
    -2
100
AcDbLine
 10
203.8391099262295
 20
-341.2058929570187
 30
0.0
 11
203.8391099262295
 21
-343.7058929570187
 31
0.0
  0
TEXT
  5
1B0D
330
36
100
AcDbEntity
  8
0
  6
Continuous
 62
     4
100
AcDbText
 10
81.728240536287
 20
-415.0159771655772
 30
0.0
 40
3.0
  1
MAX \U+03C6160
 50
26.44193357082613
100
AcDbText
  0
LINE
  5
1B0E
330
36
100
AcDbEntity
  8
0
  6
ByBlock
 62
     0
370
    -2
100
AcDbLine
 10
114.4089078880819
 20
-398.7132147448599
 30
0.0
 11
116.9456610771442
 21
-398.1997827395874
 31
0.0
  0
LINE
  5
1B0F
330
36
100
AcDbEntity
  8
0
  6
ByBlock
 62
     0
370
    -2
100
AcDbLine
 10
116.9456610771442
 20
-398.1997827395874
 30
0.0
 11
115.0054837598072
 21
-399.9128037971191
 31
0.0
  0
LINE
  5
1B10
330
36
100
AcDbEntity
  8
0
  6
ByBlock
 62
     0
370
    -2
100
AcDbLine
 10
116.9456610771442
 20
-398.1997827395874
 30
0.0
 11
114.7071958239445
 21
-399.3130092709895
 31
0.0
  0
LINE
  5
1B11
330
36
100
AcDbEntity
  8
0
  6
ByBlock
 62
     0
370
    -2
100
AcDbLine
 10
47.85152616381661
 20
-433.309599739183
 30
0.0
 11
45.31477297475425
 21
-433.8230317444556
 31
0.0
  0
LINE
  5
1B12
330
36
100
AcDbEntity
  8
0
  6
ByBlock
 62
     0
370
    -2
100
AcDbLine
 10
45.31477297475425
 20
-433.8230317444556
 30
0.0
 11
47.25495029209127
 21
-432.1100106869238
 31
0.0
  0
LINE
  5
1B13
330
36
100
AcDbEntity
  8
0
  6
ByBlock
 62
     0
370
    -2
100
AcDbLine
 10
45.31477297475425
 20
-433.8230317444556
 30
0.0
 11
47.55323822795394
 21
-432.7098052130534
 31
0.0
  0
ENDSEC
  0
SECTION
  2
OBJECTS
  0
DICTIONARY
  5
C
330
0
100
AcDbDictionary
281
     1
  3
ACAD_2007HEADERVARS_RT
350
1B17
  3
ACAD_COLOR
350
2F
  3
ACAD_GROUP
350
D
  3
ACAD_LAYOUT
350
2E
  3
ACAD_MATERIAL
350
10
  3
ACAD_MLEADERSTYLE
350
EB4
  3
ACAD_MLINESTYLE
350
2B
  3
ACAD_PLOTSETTINGS
350
2D
  3
ACAD_PLOTSTYLENAME
350
E
  3
ACAD_SCALELIST
350
EA2
  3
ACAD_TABLESTYLE
350
30
  3
ACAD_VISUALSTYLE
350
14
  3
ACDB_RECOMPOSE_DATA
350
1B15
  3
AcDbVariableDictionary
350
925
  3
DWGPROPS
350
1B16
  0
DICTIONARY
  5
967
330
2
100
AcDbDictionary
280
     1
281
     1
  3
ACAD_LAYERSTATES
360
968
  0
DICTIONARY
  5
F74
330
25
100
AcDbDictionary
280
     1
281
     1
  3
ADSK_XREC_LAYER_RECONCILED
360
F75
  0
DICTIONARY
  5
92F
330
36
100
AcDbDictionary
280
     1
281
     1
  3
ACAD_SORTENTS
360
930
  0
DICTIONARY
  5
1B17
102
{ACAD_REACTORS
330
C
102
}
330
C
100
AcDbDictionary
281
     1
  3
DIMARCSYM
350
1B19
  3
DIMFXL
350
1B18
  3
DIMJOGANG
350
1B1A
  0
DICTIONARY
  5
2F
102
{ACAD_REACTORS
330
C
102
}
330
C
100
AcDbDictionary
281
     1
  0
DICTIONARY
  5
D
102
{ACAD_REACTORS
330
C
102
}
330
C
100
AcDbDictionary
281
     1
  0
DICTIONARY
  5
2E
102
{ACAD_REACTORS
330
C
102
}
330
C
100
AcDbDictionary
281
     1
  3
Model
350
39
  3
レイアウト1
350
35
  0
DICTIONARY
  5
10
102
{ACAD_REACTORS
330
C
102
}
330
C
100
AcDbDictionary
281
     1
  3
ByBlock
350
12
  3
ByLayer
350
11
  3
Global
350
13
  0
DICTIONARY
  5
EB4
102
{ACAD_REACTORS
330
C
102
}
330
C
100
AcDbDictionary
281
     1
  3
Standard
350
EB5
  0
DICTIONARY
  5
2B
102
{ACAD_REACTORS
330
C
102
}
330
C
100
AcDbDictionary
281
     1
  3
Standard
350
2C
  0
DICTIONARY
  5
2D
102
{ACAD_REACTORS
330
C
102
}
330
C
100
AcDbDictionary
281
     1
  0
ACDBDICTIONARYWDFLT
  5
E
102
{ACAD_REACTORS
330
C
102
}
330
C
100
AcDbDictionary
281
     1
  3
Normal
350
F
100
AcDbDictionaryWithDefault
340
F
  0
DICTIONARY
  5
EA2
102
{ACAD_REACTORS
330
C
102
}
330
C
100
AcDbDictionary
281
     1
  3
A0
350
EA3
  3
A1
350
EA4
  3
A2
350
EA5
  3
A3
350
EA6
  3
A4
350
EA7
  3
A5
350
EA8
  3
A6
350
EA9
  3
A7
350
EAA
  3
A8
350
EAB
  3
A9
350
EAC
  3
B0
350
EAD
  3
B1
350
EAE
  3
B2
350
EAF
  3
B3
350
EB0
  3
B4
350
EB1
  3
B5
350
EB2
  3
B6
350
EB3
  0
DICTIONARY
  5
30
102
{ACAD_REACTORS
330
C
102
}
330
C
100
AcDbDictionary
281
     1
  3
Standard
350
31
  0
DICTIONARY
  5
14
102
{ACAD_REACTORS
330
C
102
}
330
C
100
AcDbDictionary
281
     1
  3
2dWireframe
350
1A
  3
3D Hidden
350
1C
  3
3dWireframe
350
1B
  3
Basic
350
19
  3
Brighten
350
20
  3
ColorChange
350
24
  3
Conceptual
350
1D
  3
Dim
350
1F
  3
EdgeColorOff
350
EA1
  3
Facepattern
350
23
  3
Flat
350
15
  3
FlatWithEdges
350
16
  3
Gouraud
350
17
  3
GouraudWithEdges
350
18
  3
Hidden
350
E99
  3
JitterOff
350
E9F
  3
Linepattern
350
22
  3
OverhangOff
350
EA0
  3
Realistic
350
1E
  3
Shaded
350
E9E
  3
Shaded with edges
350
E9D
  3
Shades of Gray
350
E9A
  3
Sketchy
350
E9B
  3
Thicken
350
21
  3
Wireframe
350
E98
  3
X-Ray
350
E9C
  0
XRECORD
  5
1B15
102
{ACAD_REACTORS
330
C
102
}
330
C
100
AcDbXrecord
280
     1
 90
        1
330
31
  0
DICTIONARY
  5
925
102
{ACAD_REACTORS
330
C
102
}
330
C
100
AcDbDictionary
281
     1
  3
CANNOSCALE
350
F81
  3
CMLEADERSTYLE
350
F80
  3
CTABLESTYLE
350
926
  3
DIMASSOC
350
E80
  3
INDEXCTL
350
E7F
  3
SORTENTS
350
E7E
  3
XCLIPFRAME
350
1A86
  0
XRECORD
  5
1B16
102
{ACAD_REACTORS
330
C
102
}
330
C
100
AcDbXrecord
280
     1
  1
DWGPROPS COOKIE
  2

  3

  4

  6

  7

  8
imamura
  9

300
=
301
=
302
=
303
=
304
=
305
=
306
=
307
=
308
=
309
=
 40
0.2481068402777778
 41
2455575.375372535
 42
2456856.800557986
  1

 90
        0
  0
DICTIONARY
  5
968
102
{ACAD_REACTORS
330
967
102
}
330
967
100
AcDbDictionary
281
     1
  0
XRECORD
  5
F75
102
{ACAD_REACTORS
330
F74
102
}
330
F74
100
AcDbXrecord
280
     1
290
     1
  0
SORTENTSTABLE
  5
930
102
{ACAD_REACTORS
330
92F
102
}
330
92F
100
AcDbSortentsTable
330
36
331
1AEE
  5
1AF2
331
10E5
  5
10E5
331
14D6
  5
1459
331
1AE2
  5
1986
331
1466
  5
1483
331
458
  5
458
331
90F
  5
90F
331
90B
  5
90B
331
145E
  5
1454
331
151C
  5
1523
331
14A5
  5
14C5
331
145A
  5
146E
331
1986
  5
1B08
331
1518
  5
1529
331
1557
  5
1571
331
1982
  5
1B04
331
1553
  5
1555
331
197E
  5
1B00
331
14CE
  5
14F9
331
1ADA
  5
1AD2
331
14C6
  5
14F5
331
1AD2
  5
1ADE
331
1B11
  5
1810
331
907
  5
907
331
14C2
  5
14A8
331
44C
  5
44C
331
154F
  5
1551
331
448
  5
448
331
148D
  5
14B7
331
1504
  5
1515
331
154B
  5
154D
331
444
  5
444
331
73B
  5
73B
331
1500
  5
1474
331
1547
  5
1549
331
440
  5
440
331
1543
  5
1545
331
1816
  5
1AFE
331
14FC
  5
1510
331
14F8
  5
150B
331
1B0D
  5
1983
331
14BE
  5
14BF
331
1ACA
  5
1AE8
331
1B09
  5
1AC9
331
14BA
  5
14C0
331
1B05
  5
1AD7
331
14B6
  5
14E0
331
1B01
  5
1AD9
331
43C
  5
43C
331
1481
  5
14AC
331
153F
  5
1541
331
14F4
  5
1504
331
153B
  5
153D
331
1479
  5
14AA
331
1537
  5
1539
331
430
  5
430
331
1533
  5
1535
331
1AFD
  5
1AE2
331
14AE
  5
14D4
331
1AF9
  5
1AE4
331
1AF5
  5
1AEB
331
42C
  5
42C
331
91E
  5
91E
331
1471
  5
145A
331
428
  5
428
331
91A
  5
91A
331
146D
  5
149B
331
152B
  5
1521
331
916
  5
916
331
912
  5
912
331
14E0
  5
1457
331
1991
  5
1B13
331
15C6
  5
14C6
331
1523
  5
152B
331
198D
  5
1B0F
331
14D8
  5
1466
331
1989
  5
1B0B
331
1AED
  5
1AF6
331
1AE1
  5
1985
331
14D1
  5
14FB
331
45B
  5
45B
331
1465
  5
1482
331
90E
  5
90E
331
151F
  5
1528
331
1461
  5
148D
331
90A
  5
90A
331
145D
  5
1455
331
151B
  5
1476
331
14A4
  5
14C3
331
1459
  5
148B
331
1985
  5
1B07
331
1556
  5
155A
331
1552
  5
1554
331
1981
  5
1B03
331
1513
  5
1517
331
197D
  5
1AFF
331
922
  5
922
331
1AD9
  5
1AD1
331
14C5
  5
14F4
331
1AD1
  5
1ADD
331
1B10
  5
1982
331
906
  5
906
331
14C1
  5
146D
331
149C
  5
14B4
331
1498
  5
14BA
331
154E
  5
1550
331
447
  5
447
331
154A
  5
154C
331
443
  5
443
331
1009
  5
1009
331
14FF
  5
1475
331
1546
  5
1548
331
1542
  5
1544
331
1815
  5
1AFD
331
14FB
  5
150E
331
1497
  5
14B9
331
1B0C
  5
198E
331
14BD
  5
14BB
331
1B08
  5
1AC8
331
14B9
  5
14F1
331
1B04
  5
1AD6
331
14B5
  5
14DC
331
1B00
  5
1AD8
331
47E
  5
47E
331
14B1
  5
14BD
331
43F
  5
43F
331
43B
  5
43B
331
E7D
  5
E7D
331
1484
  5
14B6
331
1480
  5
14B0
331
14F7
  5
1506
331
153E
  5
1540
331
14F3
  5
1502
331
153A
  5
153C
331
1478
  5
14A9
331
1536
  5
1538
331
1532
  5
1534
331
1805
  5
1AF9
331
14EB
  5
1500
331
1AFC
  5
1AE1
331
14AD
  5
14D2
331
1AF8
  5
1AE7
331
14A9
  5
14CF
331
1AF4
  5
1AF0
331
1AF0
  5
1AF4
331
42F
  5
42F
331
42B
  5
42B
331
91D
  5
91D
331
1470
  5
1467
331
427
  5
427
331
919
  5
919
331
915
  5
915
331
146C
  5
149A
331
152A
  5
151B
331
423
  5
423
331
911
  5
911
331
14DF
  5
14FE
331
1990
  5
1B12
331
1522
  5
152A
331
198C
  5
1B0E
331
1988
  5
1B0A
331
1AEC
  5
1AF5
331
1AE8
  5
1803
331
1AE4
  5
198B
331
1AE0
  5
1984
331
14D0
  5
14FA
331
1464
  5
1480
331
151E
  5
151E
331
90D
  5
90D
331
909
  5
909
331
145C
  5
148C
331
151A
  5
1522
331
14A3
  5
14C2
331
452
  5
452
331
1555
  5
1557
331
1458
  5
1456
331
1984
  5
1B06
331
1516
  5
151F
331
1551
  5
1553
331
1980
  5
1B02
331
1512
  5
1516
331
921
  5
921
331
1ADC
  5
1AD4
331
1AD8
  5
1AD0
331
14C8
  5
14F8
331
1AD4
  5
1AE0
331
1B13
  5
1816
331
1AD0
  5
1ADC
331
149B
  5
14AE
331
44A
  5
44A
331
1454
  5
1477
331
148F
  5
14B8
331
446
  5
446
331
73D
  5
73D
331
1506
  5
1462
331
154D
  5
154F
331
1450
  5
1450
331
100C
  5
100C
331
1502
  5
1514
331
1549
  5
154B
331
442
  5
442
331
1008
  5
1008
331
14FE
  5
1512
331
1545
  5
1547
331
1541
  5
1543
331
14FA
  5
150D
331
1810
  5
1AFC
331
1B0F
  5
197E
331
1ACC
  5
1AEA
331
1B0B
  5
198D
331
14BC
  5
14BC
331
1B07
  5
1AC7
331
14B8
  5
14EB
331
1B03
  5
1AD5
331
14B4
  5
14DA
331
43E
  5
43E
331
47D
  5
47D
331
E7C
  5
E7C
331
1483
  5
14B5
331
147F
  5
14B2
331
153D
  5
153F
331
436
  5
436
331
1539
  5
153B
331
D9C
  5
D9C
331
1808
  5
1AFA
331
1535
  5
1537
331
1531
  5
1533
331
1AFF
  5
1ADB
331
1AFB
  5
1AE6
331
14AC
  5
14D0
331
1AF7
  5
1AED
331
14A8
  5
14CE
331
1AF3
  5
1AEF
331
1477
  5
14A6
331
42E
  5
42E
331
42A
  5
42A
331
91C
  5
91C
331
146F
  5
14A4
331
152D
  5
1531
331
918
  5
918
331
914
  5
914
331
146B
  5
1490
331
1529
  5
152D
331
910
  5
910
331
1521
  5
1520
331
198F
  5
1B11
331
14DA
  5
14FD
331
198B
  5
1B0D
331
1AEF
  5
1AF3
331
1AE3
  5
198A
331
1467
  5
1484
331
459
  5
459
331
151D
  5
151D
331
14A6
  5
14C7
331
90C
  5
90C
331
908
  5
908
331
145B
  5
145B
331
1987
  5
1B09
331
1519
  5
151C
331
14A2
  5
14C1
331
1554
  5
1556
331
1983
  5
1B05
331
1515
  5
1518
331
197F
  5
1B01
331
1550
  5
1552
331
920
  5
920
331
1ADB
  5
1AD3
331
14C7
  5
14F7
331
1AD3
  5
1ADF
331
1B12
  5
1815
331
14C3
  5
14F3
331
1457
  5
1465
331
149A
  5
14BE
331
1505
  5
1472
331
154C
  5
154E
331
445
  5
445
331
73C
  5
73C
331
100B
  5
100B
331
1501
  5
1513
331
1548
  5
154A
331
441
  5
441
331
1544
  5
1546
331
14FD
  5
1511
331
1540
  5
1542
331
14F9
  5
150C
331
1B0E
  5
197D
331
14BF
  5
14D5
331
1ACB
  5
1AE9
331
1B0A
  5
198C
331
14BB
  5
14D9
331
1AC7
  5
1AF7
331
1B06
  5
1ACF
331
14B7
  5
14E1
331
1B02
  5
1ADA
331
43D
  5
43D
331
47C
  5
47C
331
1482
  5
14AD
331
147E
  5
14AB
331
180F
  5
1AFB
331
14F5
  5
1505
331
153C
  5
153E
331
435
  5
435
331
14F1
  5
1501
331
1538
  5
153A
331
431
  5
431
331
1534
  5
1536
331
1803
  5
1AF8
331
1530
  5
1532
331
1AFE
  5
1AE3
331
1AFA
  5
1AE5
331
14AB
  5
14D1
331
1AF6
  5
1AEC
331
1AF2
  5
1AEE
331
42D
  5
42D
331
91F
  5
91F
331
1476
  5
14A5
331
429
  5
429
331
91B
  5
91B
331
146E
  5
14A3
331
425
  5
425
331
152C
  5
1530
331
917
  5
917
331
913
  5
913
331
14E1
  5
14FF
331
1528
  5
152C
331
146A
  5
148E
331
15C7
  5
14C8
331
1520
  5
1519
331
198E
  5
1B10
331
14D9
  5
14FC
331
198A
  5
1B0C
  0
XRECORD
  5
1B19
102
{ACAD_REACTORS
330
1B17
102
}
330
1B17
100
AcDbXrecord
280
     1
 70
     2
  0
XRECORD
  5
1B18
102
{ACAD_REACTORS
330
1B17
102
}
330
1B17
100
AcDbXrecord
280
     1
 40
1.25
  0
XRECORD
  5
1B1A
102
{ACAD_REACTORS
330
1B17
102
}
330
1B17
100
AcDbXrecord
280
     1
 40
1.570796326794896
  0
LAYOUT
  5
39
102
{ACAD_XDICTIONARY
360
1B3E
102
}
102
{ACAD_REACTORS
330
2E
102
}
330
2E
100
AcDbPlotSettings
  1

  2
PDF Complete
  4
A4
  6

 40
3.174999952316281
 41
3.174999952316281
 42
3.175003051757812
 43
3.17498779296875
 44
209.9733276367186
 45
297.0106506347656
 46
0.0
 47
0.0
 48
0.0
 49
0.0
140
0.0
141
0.0
142
1.0
143
37.76169930726879
 70
 11952
 72
     0
 73
     1
 74
     0
  7

 75
     0
147
0.0264818590885689
148
2760.749417589055
149
11976.15126859685
100
AcDbLayout
  1
Model
 70
     1
 71
     0
 10
0.0
 20
0.0
 11
12.0
 21
9.0
 12
0.0
 22
0.0
 32
0.0
 14
0.0
 24
0.0
 34
0.0
 15
0.0
 25
0.0
 35
0.0
146
0.0
 13
0.0
 23
0.0
 33
0.0
 16
1.0
 26
0.0
 36
0.0
 17
0.0
 27
1.0
 37
0.0
 76
     0
330
36
331
5A
1001
ACAD_PSEXT
1000
PDF Complete
1000
PDF Complete Converter
1000
PDFC
1000
PDF Document Creator
1070
     0
  0
LAYOUT
  5
35
102
{ACAD_XDICTIONARY
360
1B3C
102
}
102
{ACAD_REACTORS
330
2E
102
}
330
2E
100
AcDbPlotSettings
  1

  2
PDF Complete
  4

  6

 40
0.0
 41
0.0
 42
0.0
 43
0.0
 44
0.0
 45
0.0
 46
0.0
 47
0.0
 48
0.0
 49
0.0
140
0.0
141
0.0
142
1.0
143
1.0
 70
   688
 72
     0
 73
     0
 74
     5
  7

 75
    16
147
1.0
148
0.0
149
0.0
100
AcDbLayout
  1
レイアウト1
 70
     1
 71
     1
 10
0.0
 20
0.0
 11
12.0
 21
9.0
 12
0.0
 22
0.0
 32
0.0
 14
1.000000000000000E+20
 24
1.000000000000000E+20
 34
1.000000000000000E+20
 15
-1.000000000000000E+20
 25
-1.000000000000000E+20
 35
-1.000000000000000E+20
146
0.0
 13
0.0
 23
0.0
 33
0.0
 16
1.0
 26
0.0
 36
0.0
 17
0.0
 27
1.0
 37
0.0
 76
     0
330
32
  0
MATERIAL
  5
12
102
{ACAD_XDICTIONARY
360
E88
102
}
102
{ACAD_REACTORS
330
10
102
}
330
10
100
AcDbMaterial
  1
ByBlock
  0
MATERIAL
  5
11
102
{ACAD_XDICTIONARY
360
E86
102
}
102
{ACAD_REACTORS
330
10
102
}
330
10
100
AcDbMaterial
  1
ByLayer
  0
MATERIAL
  5
13
102
{ACAD_XDICTIONARY
360
E8A
102
}
102
{ACAD_REACTORS
330
10
102
}
330
10
100
AcDbMaterial
  1
Global
  0
MLEADERSTYLE
  5
EB5
102
{ACAD_REACTORS
330
EB4
102
}
330
EB4
100
AcDbMLeaderStyle
170
     2
171
     1
172
     0
 90
        2
 40
0.0
 41
0.0
173
     1
 91
-1056964608
340
28
 92
       -2
290
     1
 42
0.09
291
     1
 43
0.36
  3
Standard
 44
0.18
300

342
26
174
     1
178
     6
175
     1
176
     0
 93
-1056964608
 45
0.18
292
     0
297
     0
 46
0.18
 94
-1056964608
 47
1.0
 49
1.0
140
1.0
293
     1
141
0.0
294
     1
177
     0
142
1.0
295
     0
296
     0
143
0.125
1001
ACAD
1000
AcRTDxfName
1000
MLEADERSTYLE
1001
ACAD_MLEADERVER
1070
     2
  0
MLINESTYLE
  5
2C
102
{ACAD_REACTORS
330
2B
102
}
330
2B
100
AcDbMlineStyle
  2
STANDARD
 70
     0
  3

 62
   256
 51
90.0
 52
90.0
 71
     2
 49
0.5
 62
   256
  6
BYLAYER
 49
-0.5
 62
   256
  6
BYLAYER
  0
ACDBPLACEHOLDER
  5
F
102
{ACAD_REACTORS
330
E
102
}
330
E
  0
SCALE
  5
EA3
102
{ACAD_REACTORS
330
EA2
102
}
330
EA2
100
AcDbScale
 70
     0
300
1:1
140
1.0
141
1.0
290
     1
1001
ACAD
1000
AcRTDxfName
1000
SCALE
  0
SCALE
  5
EA4
102
{ACAD_REACTORS
330
EA2
102
}
330
EA2
100
AcDbScale
 70
     0
300
1/128" = 1'-0"
140
0.0078125
141
12.0
290
     0
1001
ACAD
1000
AcRTDxfName
1000
SCALE
  0
SCALE
  5
EA5
102
{ACAD_REACTORS
330
EA2
102
}
330
EA2
100
AcDbScale
 70
     0
300
1/64" = 1'-0"
140
0.015625
141
12.0
290
     0
1001
ACAD
1000
AcRTDxfName
1000
SCALE
  0
SCALE
  5
EA6
102
{ACAD_REACTORS
330
EA2
102
}
330
EA2
100
AcDbScale
 70
     0
300
1/32" = 1'-0"
140
0.03125
141
12.0
290
     0
1001
ACAD
1000
AcRTDxfName
1000
SCALE
  0
SCALE
  5
EA7
102
{ACAD_REACTORS
330
EA2
102
}
330
EA2
100
AcDbScale
 70
     0
300
1/16" = 1'-0"
140
0.0625
141
12.0
290
     0
1001
ACAD
1000
AcRTDxfName
1000
SCALE
  0
SCALE
  5
EA8
102
{ACAD_REACTORS
330
EA2
102
}
330
EA2
100
AcDbScale
 70
     0
300
3/32" = 1'-0"
140
0.09375
141
12.0
290
     0
1001
ACAD
1000
AcRTDxfName
1000
SCALE
  0
SCALE
  5
EA9
102
{ACAD_REACTORS
330
EA2
102
}
330
EA2
100
AcDbScale
 70
     0
300
1/8" = 1'-0"
140
0.125
141
12.0
290
     0
1001
ACAD
1000
AcRTDxfName
1000
SCALE
  0
SCALE
  5
EAA
102
{ACAD_REACTORS
330
EA2
102
}
330
EA2
100
AcDbScale
 70
     0
300
3/16" = 1'-0"
140
0.1875
141
12.0
290
     0
1001
ACAD
1000
AcRTDxfName
1000
SCALE
  0
SCALE
  5
EAB
102
{ACAD_REACTORS
330
EA2
102
}
330
EA2
100
AcDbScale
 70
     0
300
1/4" = 1'-0"
140
0.25
141
12.0
290
     0
1001
ACAD
1000
AcRTDxfName
1000
SCALE
  0
SCALE
  5
EAC
102
{ACAD_REACTORS
330
EA2
102
}
330
EA2
100
AcDbScale
 70
     0
300
3/8" = 1'-0"
140
0.375
141
12.0
290
     0
1001
ACAD
1000
AcRTDxfName
1000
SCALE
  0
SCALE
  5
EAD
102
{ACAD_REACTORS
330
EA2
102
}
330
EA2
100
AcDbScale
 70
     0
300
1/2" = 1'-0"
140
0.5
141
12.0
290
     0
1001
ACAD
1000
AcRTDxfName
1000
SCALE
  0
SCALE
  5
EAE
102
{ACAD_REACTORS
330
EA2
102
}
330
EA2
100
AcDbScale
 70
     0
300
3/4" = 1'-0"
140
0.75
141
12.0
290
     0
1001
ACAD
1000
AcRTDxfName
1000
SCALE
  0
SCALE
  5
EAF
102
{ACAD_REACTORS
330
EA2
102
}
330
EA2
100
AcDbScale
 70
     0
300
1" = 1'-0"
140
1.0
141
12.0
290
     0
1001
ACAD
1000
AcRTDxfName
1000
SCALE
  0
SCALE
  5
EB0
102
{ACAD_REACTORS
330
EA2
102
}
330
EA2
100
AcDbScale
 70
     0
300
1-1/2" = 1'-0"
140
1.5
141
12.0
290
     0
1001
ACAD
1000
AcRTDxfName
1000
SCALE
  0
SCALE
  5
EB1
102
{ACAD_REACTORS
330
EA2
102
}
330
EA2
100
AcDbScale
 70
     0
300
3" = 1'-0"
140
3.0
141
12.0
290
     0
1001
ACAD
1000
AcRTDxfName
1000
SCALE
  0
SCALE
  5
EB2
102
{ACAD_REACTORS
330
EA2
102
}
330
EA2
100
AcDbScale
 70
     0
300
6" = 1'-0"
140
6.0
141
12.0
290
     0
1001
ACAD
1000
AcRTDxfName
1000
SCALE
  0
SCALE
  5
EB3
102
{ACAD_REACTORS
330
EA2
102
}
330
EA2
100
AcDbScale
 70
     0
300
1'-0" = 1'-0"
140
12.0
141
12.0
290
     0
1001
ACAD
1000
AcRTDxfName
1000
SCALE
  0
TABLESTYLE
  5
31
102
{ACAD_XDICTIONARY
360
F83
102
}
102
{ACAD_REACTORS
330
30
102
}
330
30
100
AcDbTableStyle
  3
Standard
 70
     0
 71
     0
 40
0.06
 41
0.06
280
     0
281
     0
  7
STANDARD
140
0.18
170
     2
 62
     0
 63
     7
283
     0
274
    -2
284
     1
 64
     0
275
    -2
285
     1
 65
     0
276
    -2
286
     1
 66
     0
277
    -2
287
     1
 67
     0
278
    -2
288
     1
 68
     0
279
    -2
289
     1
 69
     0
  7
STANDARD
140
0.25
170
     5
 62
     0
 63
     7
283
     0
274
    -2
284
     1
 64
     0
275
    -2
285
     1
 65
     0
276
    -2
286
     1
 66
     0
277
    -2
287
     1
 67
     0
278
    -2
288
     1
 68
     0
279
    -2
289
     1
 69
     0
  7
STANDARD
140
0.18
170
     5
 62
     0
 63
     7
283
     0
274
    -2
284
     1
 64
     0
275
    -2
285
     1
 65
     0
276
    -2
286
     1
 66
     0
277
    -2
287
     1
 67
     0
278
    -2
288
     1
 68
     0
279
    -2
289
     1
 69
     0
  0
VISUALSTYLE
  5
1A
102
{ACAD_XDICTIONARY
360
1B25
102
}
102
{ACAD_REACTORS
330
14
102
}
330
14
100
AcDbVisualStyle
  2

 70
     4
 71
     0
 72
     2
 73
     0
 90
        0
 40
-0.6
 41
-30.0
 62
     5
 63
     7
 74
     1
 91
        4
 64
     7
 65
   257
 75
     1
175
     1
 42
1.0
 92
        0
 66
   257
 43
1.0
 76
     1
 77
     6
 78
     2
 67
     7
 79
     5
170
     0
171
     0
290
     0
174
     0
 93
        1
 44
0.0
173
     0
291
     0
 45
0.0
1001
ACAD
1000
AcDbSavedByObjectVersion
1070
     0
  0
VISUALSTYLE
  5
1C
102
{ACAD_XDICTIONARY
360
1B29
102
}
102
{ACAD_REACTORS
330
14
102
}
330
14
100
AcDbVisualStyle
  2

 70
     6
 71
     1
 72
     2
 73
     2
 90
        0
 40
-0.6
 41
-30.0
 62
     5
 63
     7
 74
     2
 91
        2
 64
     7
 65
   257
 75
     2
175
     1
 42
40.0
 92
        0
 66
   257
 43
1.0
 76
     1
 77
     6
 78
     2
 67
     7
 79
     3
170
     0
171
     0
290
     0
174
     0
 93
        1
 44
0.0
173
     0
291
     0
 45
0.0
1001
ACAD
1000
AcDbSavedByObjectVersion
1070
     0
  0
VISUALSTYLE
  5
1B
102
{ACAD_XDICTIONARY
360
1B27
102
}
102
{ACAD_REACTORS
330
14
102
}
330
14
100
AcDbVisualStyle
  2

 70
     5
 71
     0
 72
     2
 73
     0
 90
        0
 40
-0.6
 41
-30.0
 62
     5
 63
     7
 74
     1
 91
        4
 64
     7
 65
   257
 75
     1
175
     1
 42
1.0
 92
        0
 66
   257
 43
1.0
 76
     1
 77
     6
 78
     2
 67
     7
 79
     5
170
     0
171
     0
290
     0
174
     0
 93
        1
 44
0.0
173
     0
291
     0
 45
0.0
1001
ACAD
1000
AcDbSavedByObjectVersion
1070
     0
  0
VISUALSTYLE
  5
19
102
{ACAD_XDICTIONARY
360
1B23
102
}
102
{ACAD_REACTORS
330
14
102
}
330
14
100
AcDbVisualStyle
  2

 70
     7
 71
     1
 72
     0
 73
     1
 90
        0
 40
-0.6
 41
-30.0
 62
     5
 63
     7
 74
     0
 91
        4
 64
     7
 65
   257
 75
     1
175
     1
 42
1.0
 92
        8
 66
     7
 43
1.0
 76
     1
 77
     6
 78
     2
 67
     7
 79
     5
170
     0
171
     0
290
     0
174
     0
 93
        1
 44
0.0
173
     0
291
     1
 45
0.0
1001
ACAD
1000
AcDbSavedByObjectVersion
1070
     0
  0
VISUALSTYLE
  5
20
102
{ACAD_XDICTIONARY
360
1B31
102
}
102
{ACAD_REACTORS
330
14
102
}
330
14
100
AcDbVisualStyle
  2

 70
    12
 71
     2
 72
     2
 73
     0
 90
        0
 40
-0.6
 41
-30.0
 62
     5
 63
     7
 74
     1
 91
        4
 64
     7
 65
   257
 75
     1
175
     1
 42
1.0
 92
        8
 66
     7
 43
1.0
 76
     1
 77
     6
 78
     2
 67
     7
 79
     5
170
     0
171
     0
290
     0
174
     0
 93
        1
 44
50.0
173
     0
291
     1
 45
0.0
1001
ACAD
1000
AcDbSavedByObjectVersion
1070
     0
  0
VISUALSTYLE
  5
24
102
{ACAD_XDICTIONARY
360
1B39
102
}
102
{ACAD_REACTORS
330
14
102
}
330
14
100
AcDbVisualStyle
  2

 70
    16
 71
     2
 72
     2
 73
     3
 90
        0
 40
-0.6
 41
-30.0
 62
     5
 63
     8
 74
     1
 91
        4
 64
     7
 65
   257
 75
     1
175
     1
 42
1.0
 92
        8
 66
     8
 43
1.0
 76
     1
 77
     6
 78
     2
 67
     7
 79
     5
170
     0
171
     0
290
     0
174
     0
 93
        1
 44
0.0
173
     0
291
     1
 45
0.0
1001
ACAD
1000
AcDbSavedByObjectVersion
1070
     0
  0
VISUALSTYLE
  5
1D
102
{ACAD_XDICTIONARY
360
1B2B
102
}
102
{ACAD_REACTORS
330
14
102
}
330
14
100
AcDbVisualStyle
  2

 70
     9
 71
     3
 72
     2
 73
     0
 90
        0
 40
-0.6
 41
-30.0
 62
     5
 63
     7
 74
     2
 91
        2
 64
     7
 65
   257
 75
     1
175
     1
 42
40.0
 92
        8
 66
     7
 43
1.0
 76
     1
 77
     6
 78
     2
 67
     7
 79
     3
170
     0
171
     0
290
     0
174
     0
 93
        1
 44
0.0
173
     0
291
     0
 45
0.0
1001
ACAD
1000
AcDbSavedByObjectVersion
1070
     0
  0
VISUALSTYLE
  5
1F
102
{ACAD_XDICTIONARY
360
1B2F
102
}
102
{ACAD_REACTORS
330
14
102
}
330
14
100
AcDbVisualStyle
  2

 70
    11
 71
     2
 72
     2
 73
     0
 90
        0
 40
-0.6
 41
-30.0
 62
     5
 63
     7
 74
     1
 91
        4
 64
     7
 65
   257
 75
     1
175
     1
 42
1.0
 92
        8
 66
     7
 43
1.0
 76
     1
 77
     6
 78
     2
 67
     7
 79
     5
170
     0
171
     0
290
     0
174
     0
 93
        1
 44
-50.0
173
     0
291
     1
 45
0.0
1001
ACAD
1000
AcDbSavedByObjectVersion
1070
     0
  0
VISUALSTYLE
  5
EA1
102
{ACAD_XDICTIONARY
360
1B52
102
}
102
{ACAD_REACTORS
330
14
102
}
330
14
100
AcDbVisualStyle
  2

 70
    22
 71
     2
 72
     2
 73
     0
 90
        0
 40
-0.6
 41
-30.0
 62
     5
 63
     7
 74
     1
 91
        4
 64
     7
 65
   257
 75
     1
175
     1
 42
1.0
 92
        8
 66
     7
 43
1.0
 76
     1
 77
     6
 78
     2
 67
     7
 79
     5
170
     0
171
     0
290
     0
174
     0
 93
        1
 44
0.0
173
     0
291
     1
 45
0.0
1001
ACAD
1000
AcDbSavedByObjectVersion
1070
     0
  0
VISUALSTYLE
  5
23
102
{ACAD_XDICTIONARY
360
1B37
102
}
102
{ACAD_REACTORS
330
14
102
}
330
14
100
AcDbVisualStyle
  2

 70
    15
 71
     2
 72
     2
 73
     0
 90
        0
 40
-0.6
 41
-30.0
 62
     5
 63
     7
 74
     1
 91
        4
 64
     7
 65
   257
 75
     1
175
     1
 42
1.0
 92
        8
 66
     7
 43
1.0
 76
     1
 77
     6
 78
     2
 67
     7
 79
     5
170
     0
171
     0
290
     0
174
     0
 93
        1
 44
0.0
173
     0
291
     1
 45
0.0
1001
ACAD
1000
AcDbSavedByObjectVersion
1070
     0
  0
VISUALSTYLE
  5
15
102
{ACAD_XDICTIONARY
360
1B1B
102
}
102
{ACAD_REACTORS
330
14
102
}
330
14
100
AcDbVisualStyle
  2

 70
     0
 71
     2
 72
     1
 73
     1
 90
        2
 40
-0.6
 41
30.0
 62
     5
 63
     7
 74
     0
 91
        4
 64
     7
 65
   257
 75
     1
175
     1
 42
1.0
 92
        8
 66
     7
 43
1.0
 76
     1
 77
     6
 78
     2
 67
     7
 79
     5
170
     0
171
     0
290
     0
174
     0
 93
       13
 44
0.0
173
     0
291
     1
 45
0.0
1001
ACAD
1000
AcDbSavedByObjectVersion
1070
     0
  0
VISUALSTYLE
  5
16
102
{ACAD_XDICTIONARY
360
1B1D
102
}
102
{ACAD_REACTORS
330
14
102
}
330
14
100
AcDbVisualStyle
  2

 70
     1
 71
     2
 72
     1
 73
     1
 90
        2
 40
-0.6
 41
30.0
 62
     5
 63
     7
 74
     1
 91
        4
 64
     7
 65
   257
 75
     1
175
     1
 42
1.0
 92
        0
 66
   257
 43
1.0
 76
     1
 77
     6
 78
     2
 67
     7
 79
     5
170
     0
171
     0
290
     0
174
     0
 93
       13
 44
0.0
173
     0
291
     1
 45
0.0
1001
ACAD
1000
AcDbSavedByObjectVersion
1070
     0
  0
VISUALSTYLE
  5
17
102
{ACAD_XDICTIONARY
360
1B1F
102
}
102
{ACAD_REACTORS
330
14
102
}
330
14
100
AcDbVisualStyle
  2

 70
     2
 71
     2
 72
     2
 73
     1
 90
        2
 40
-0.6
 41
30.0
 62
     5
 63
     7
 74
     0
 91
        4
 64
     7
 65
   257
 75
     1
175
     1
 42
1.0
 92
        0
 66
     7
 43
1.0
 76
     1
 77
     6
 78
     2
 67
     7
 79
     5
170
     0
171
     0
290
     0
174
     0
 93
       13
 44
0.0
173
     0
291
     1
 45
0.0
1001
ACAD
1000
AcDbSavedByObjectVersion
1070
     0
  0
VISUALSTYLE
  5
18
102
{ACAD_XDICTIONARY
360
1B21
102
}
102
{ACAD_REACTORS
330
14
102
}
330
14
100
AcDbVisualStyle
  2

 70
     3
 71
     2
 72
     2
 73
     1
 90
        2
 40
-0.6
 41
30.0
 62
     5
 63
     7
 74
     1
 91
        4
 64
     7
 65
   257
 75
     1
175
     1
 42
1.0
 92
        0
 66
   257
 43
1.0
 76
     1
 77
     6
 78
     2
 67
     7
 79
     5
170
     0
171
     0
290
     0
174
     0
 93
       13
 44
0.0
173
     0
291
     1
 45
0.0
1001
ACAD
1000
AcDbSavedByObjectVersion
1070
     0
  0
VISUALSTYLE
  5
E99
102
{ACAD_XDICTIONARY
360
1B42
102
}
102
{ACAD_REACTORS
330
14
102
}
330
14
100
AcDbVisualStyle
  2

 70
     6
 71
     1
 72
     2
 73
     2
 90
        0
 40
-0.6
 41
-30.0
 62
     5
 63
     7
 74
     2
 91
        2
 64
     7
 65
   257
 75
     2
175
     1
 42
40.0
 92
        0
 66
   257
 43
1.0
 76
     1
 77
     6
 78
     2
 67
     7
 79
     3
170
     0
171
     0
290
     0
174
     0
 93
        1
 44
0.0
173
     0
291
     0
 45
0.0
1001
ACAD
1000
AcDbSavedByObjectVersion
1070
     0
  0
VISUALSTYLE
  5
E9F
102
{ACAD_XDICTIONARY
360
1B4E
102
}
102
{ACAD_REACTORS
330
14
102
}
330
14
100
AcDbVisualStyle
  2

 70
    20
 71
     2
 72
     2
 73
     0
 90
        0
 40
-0.6
 41
-30.0
 62
     5
 63
     7
 74
     1
 91
        4
 64
     7
 65
   257
 75
     1
175
     1
 42
1.0
 92
       10
 66
     7
 43
1.0
 76
     1
 77
     6
 78
     2
 67
     7
 79
     5
170
     0
171
     0
290
     0
174
     0
 93
        1
 44
0.0
173
     0
291
     1
 45
0.0
1001
ACAD
1000
AcDbSavedByObjectVersion
1070
     0
  0
VISUALSTYLE
  5
22
102
{ACAD_XDICTIONARY
360
1B35
102
}
102
{ACAD_REACTORS
330
14
102
}
330
14
100
AcDbVisualStyle
  2

 70
    14
 71
     2
 72
     2
 73
     0
 90
        0
 40
-0.6
 41
-30.0
 62
     5
 63
     7
 74
     1
 91
        4
 64
     7
 65
   257
 75
     7
175
     7
 42
1.0
 92
        8
 66
     7
 43
1.0
 76
     1
 77
     6
 78
     2
 67
     7
 79
     5
170
     0
171
     0
290
     0
174
     0
 93
        1
 44
0.0
173
     0
291
     1
 45
0.0
1001
ACAD
1000
AcDbSavedByObjectVersion
1070
     0
  0
VISUALSTYLE
  5
EA0
102
{ACAD_XDICTIONARY
360
1B50
102
}
102
{ACAD_REACTORS
330
14
102
}
330
14
100
AcDbVisualStyle
  2

 70
    21
 71
     2
 72
     2
 73
     0
 90
        0
 40
-0.6
 41
-30.0
 62
     5
 63
     7
 74
     1
 91
        4
 64
     7
 65
   257
 75
     1
175
     1
 42
1.0
 92
        9
 66
     7
 43
1.0
 76
     1
 77
     6
 78
     2
 67
     7
 79
     5
170
     0
171
     0
290
     0
174
     0
 93
        1
 44
0.0
173
     0
291
     1
 45
0.0
1001
ACAD
1000
AcDbSavedByObjectVersion
1070
     0
  0
VISUALSTYLE
  5
1E
102
{ACAD_XDICTIONARY
360
1B2D
102
}
102
{ACAD_REACTORS
330
14
102
}
330
14
100
AcDbVisualStyle
  2

 70
     8
 71
     2
 72
     2
 73
     0
 90
        0
 40
-0.6
 41
-30.0
 62
     5
 63
     7
 74
     1
 91
        0
 64
     7
 65
   257
 75
     1
175
     1
 42
1.0
 92
        8
 66
     8
 43
1.0
 76
     1
 77
     6
 78
     2
 67
     7
 79
     5
170
     0
171
     0
290
     0
174
     0
 93
       13
 44
0.0
173
     0
291
     0
 45
0.0
1001
ACAD
1000
AcDbSavedByObjectVersion
1070
     0
  0
VISUALSTYLE
  5
E9E
102
{ACAD_XDICTIONARY
360
1B4C
102
}
102
{ACAD_REACTORS
330
14
102
}
330
14
100
AcDbVisualStyle
  2

 70
    27
 71
     2
 72
     2
 73
     1
 90
        2
 40
-0.6
 41
30.0
 62
     5
 63
     7
 74
     0
 91
        4
 64
     7
 65
   257
 75
     1
175
     1
 42
1.0
 92
        8
 66
   257
 43
1.0
 76
     1
 77
     6
 78
     2
 67
     8
 79
     3
170
     0
171
     0
290
     0
174
     0
 93
        5
 44
0.0
173
     0
291
     0
 45
0.0
1001
ACAD
1000
AcDbSavedByObjectVersion
1070
     0
  0
VISUALSTYLE
  5
E9D
102
{ACAD_XDICTIONARY
360
1B4A
102
}
102
{ACAD_REACTORS
330
14
102
}
330
14
100
AcDbVisualStyle
  2

 70
    26
 71
     2
 72
     2
 73
     1
 90
        2
 40
-0.6
 41
30.0
 62
     5
 63
     7
 74
     1
 91
       10
 64
     7
 65
   257
 75
     2
175
     1
 42
1.0
 92
        8
 66
   257
 43
1.0
 76
     1
 77
     6
 78
     2
 67
     7
 79
     3
170
     0
171
     0
290
     0
174
     0
 93
        5
 44
0.0
173
     0
291
     0
 45
0.0
1001
ACAD
1000
AcDbSavedByObjectVersion
1070
     0
  0
VISUALSTYLE
  5
E9A
102
{ACAD_XDICTIONARY
360
1B44
102
}
102
{ACAD_REACTORS
330
14
102
}
330
14
100
AcDbVisualStyle
  2

 70
    23
 71
     2
 72
     2
 73
     3
 90
        0
 40
-0.6
 41
-30.0
 62
     5
 63
     7
 74
     2
 91
        2
 64
     7
 65
     7
 75
     1
175
     1
 42
40.0
 92
        8
 66
     7
 43
1.0
 76
     1
 77
     6
 78
     2
 67
     7
 79
     3
170
     0
171
     0
290
     0
174
     0
 93
        1
 44
0.0
173
     0
291
     0
 45
0.0
1001
ACAD
1000
AcDbSavedByObjectVersion
1070
     0
  0
VISUALSTYLE
  5
E9B
102
{ACAD_XDICTIONARY
360
1B46
102
}
102
{ACAD_REACTORS
330
14
102
}
330
14
100
AcDbVisualStyle
  2

 70
    24
 71
     1
 72
     2
 73
     2
 90
        0
 40
-0.6
 41
-30.0
 62
     5
 63
     7
 74
     2
 91
        2
 64
     7
 65
     7
 75
     1
175
     1
 42
40.0
 92
       11
 66
     7
 43
1.0
 76
     1
 77
     6
 78
     2
 67
     7
 79
     6
170
     0
171
     0
290
     0
174
     0
 93
        1
 44
0.0
173
     0
291
     0
 45
0.0
1001
ACAD
1000
AcDbSavedByObjectVersion
1070
     0
  0
VISUALSTYLE
  5
21
102
{ACAD_XDICTIONARY
360
1B33
102
}
102
{ACAD_REACTORS
330
14
102
}
330
14
100
AcDbVisualStyle
  2

 70
    13
 71
     2
 72
     2
 73
     0
 90
        0
 40
-0.6
 41
-30.0
 62
     5
 63
     7
 74
     1
 91
        4
 64
     7
 65
   257
 75
     1
175
     1
 42
1.0
 92
       12
 66
     7
 43
1.0
 76
     1
 77
     6
 78
     2
 67
     7
 79
     5
170
     0
171
     0
290
     0
174
     0
 93
        1
 44
0.0
173
     0
291
     1
 45
0.0
1001
ACAD
1000
AcDbSavedByObjectVersion
1070
     0
  0
VISUALSTYLE
  5
E98
102
{ACAD_XDICTIONARY
360
1B40
102
}
102
{ACAD_REACTORS
330
14
102
}
330
14
100
AcDbVisualStyle
  2

 70
     5
 71
     0
 72
     2
 73
     0
 90
        0
 40
-0.6
 41
-30.0
 62
     5
 63
     7
 74
     1
 91
        4
 64
     7
 65
   257
 75
     1
175
     1
 42
1.0
 92
        0
 66
   257
 43
1.0
 76
     1
 77
     6
 78
     2
 67
     7
 79
     3
170
     0
171
     0
290
     0
174
     0
 93
        1
 44
0.0
173
     0
291
     0
 45
0.0
1001
ACAD
1000
AcDbSavedByObjectVersion
1070
     0
  0
VISUALSTYLE
  5
E9C
102
{ACAD_XDICTIONARY
360
1B48
102
}
102
{ACAD_REACTORS
330
14
102
}
330
14
100
AcDbVisualStyle
  2

 70
    25
 71
     2
 72
     2
 73
     1
 90
        1
 40
0.5
 41
-30.0
 62
     5
 63
     7
 74
     1
 91
        0
 64
     7
 65
   257
 75
     1
175
     1
 42
1.0
 92
        8
 66
     7
 43
1.0
 76
     1
 77
     6
 78
     2
 67
     7
 79
     3
170
     0
171
     0
290
     0
174
     0
 93
       13
 44
0.0
173
     0
291
     0
 45
0.0
1001
ACAD
1000
AcDbSavedByObjectVersion
1070
     0
  0
DICTIONARYVAR
  5
F81
102
{ACAD_REACTORS
330
925
102
}
330
925
100
DictionaryVariables
280
     0
  1
1:1
  0
DICTIONARYVAR
  5
F80
102
{ACAD_REACTORS
330
925
102
}
330
925
100
DictionaryVariables
280
     0
  1
STANDARD
  0
DICTIONARYVAR
  5
926
102
{ACAD_REACTORS
330
925
102
}
330
925
100
DictionaryVariables
280
     0
  1
STANDARD
  0
DICTIONARYVAR
  5
E80
102
{ACAD_REACTORS
330
925
102
}
330
925
100
DictionaryVariables
280
     0
  1
1
  0
DICTIONARYVAR
  5
E7F
102
{ACAD_REACTORS
330
925
102
}
330
925
100
DictionaryVariables
280
     0
  1
0
  0
DICTIONARYVAR
  5
E7E
102
{ACAD_REACTORS
330
925
102
}
330
925
100
DictionaryVariables
280
     0
  1
127
  0
DICTIONARYVAR
  5
1A86
102
{ACAD_REACTORS
330
925
102
}
330
925
100
DictionaryVariables
280
     0
  1
2
  0
DICTIONARY
  5
1B3E
330
39
100
AcDbDictionary
280
     1
281
     1
  3
ACAD_XREC_ROUNDTRIP
360
1B3F
  0
DICTIONARY
  5
1B3C
330
35
100
AcDbDictionary
280
     1
281
     1
  3
ACAD_XREC_ROUNDTRIP
360
1B3D
  0
DICTIONARY
  5
E88
330
12
100
AcDbDictionary
280
     1
281
     1
  3
ACAD_XREC_ROUNDTRIP
360
E89
  0
DICTIONARY
  5
E86
330
11
100
AcDbDictionary
280
     1
281
     1
  3
ACAD_XREC_ROUNDTRIP
360
E87
  0
DICTIONARY
  5
E8A
330
13
100
AcDbDictionary
280
     1
281
     1
  3
ACAD_XREC_ROUNDTRIP
360
E8B
  0
DICTIONARY
  5
F83
330
31
100
AcDbDictionary
280
     1
281
     1
  3
ACAD_ROUNDTRIP_2008_TABLESTYLE_CELLSTYLEMAP
360
1B14
  3
ACAD_XREC_ROUNDTRIP
360
1B3B
  0
DICTIONARY
  5
1B25
330
1A
100
AcDbDictionary
280
     1
281
     1
  3
ACAD_XREC_ROUNDTRIP
360
1B26
  0
DICTIONARY
  5
1B29
330
1C
100
AcDbDictionary
280
     1
281
     1
  3
ACAD_XREC_ROUNDTRIP
360
1B2A
  0
DICTIONARY
  5
1B27
330
1B
100
AcDbDictionary
280
     1
281
     1
  3
ACAD_XREC_ROUNDTRIP
360
1B28
  0
DICTIONARY
  5
1B23
330
19
100
AcDbDictionary
280
     1
281
     1
  3
ACAD_XREC_ROUNDTRIP
360
1B24
  0
DICTIONARY
  5
1B31
330
20
100
AcDbDictionary
280
     1
281
     1
  3
ACAD_XREC_ROUNDTRIP
360
1B32
  0
DICTIONARY
  5
1B39
330
24
100
AcDbDictionary
280
     1
281
     1
  3
ACAD_XREC_ROUNDTRIP
360
1B3A
  0
DICTIONARY
  5
1B2B
330
1D
100
AcDbDictionary
280
     1
281
     1
  3
ACAD_XREC_ROUNDTRIP
360
1B2C
  0
DICTIONARY
  5
1B2F
330
1F
100
AcDbDictionary
280
     1
281
     1
  3
ACAD_XREC_ROUNDTRIP
360
1B30
  0
DICTIONARY
  5
1B52
330
EA1
100
AcDbDictionary
280
     1
281
     1
  3
ACAD_XREC_ROUNDTRIP
360
1B53
  0
DICTIONARY
  5
1B37
330
23
100
AcDbDictionary
280
     1
281
     1
  3
ACAD_XREC_ROUNDTRIP
360
1B38
  0
DICTIONARY
  5
1B1B
330
15
100
AcDbDictionary
280
     1
281
     1
  3
ACAD_XREC_ROUNDTRIP
360
1B1C
  0
DICTIONARY
  5
1B1D
330
16
100
AcDbDictionary
280
     1
281
     1
  3
ACAD_XREC_ROUNDTRIP
360
1B1E
  0
DICTIONARY
  5
1B1F
330
17
100
AcDbDictionary
280
     1
281
     1
  3
ACAD_XREC_ROUNDTRIP
360
1B20
  0
DICTIONARY
  5
1B21
330
18
100
AcDbDictionary
280
     1
281
     1
  3
ACAD_XREC_ROUNDTRIP
360
1B22
  0
DICTIONARY
  5
1B42
330
E99
100
AcDbDictionary
280
     1
281
     1
  3
ACAD_XREC_ROUNDTRIP
360
1B43
  0
DICTIONARY
  5
1B4E
330
E9F
100
AcDbDictionary
280
     1
281
     1
  3
ACAD_XREC_ROUNDTRIP
360
1B4F
  0
DICTIONARY
  5
1B35
330
22
100
AcDbDictionary
280
     1
281
     1
  3
ACAD_XREC_ROUNDTRIP
360
1B36
  0
DICTIONARY
  5
1B50
330
EA0
100
AcDbDictionary
280
     1
281
     1
  3
ACAD_XREC_ROUNDTRIP
360
1B51
  0
DICTIONARY
  5
1B2D
330
1E
100
AcDbDictionary
280
     1
281
     1
  3
ACAD_XREC_ROUNDTRIP
360
1B2E
  0
DICTIONARY
  5
1B4C
330
E9E
100
AcDbDictionary
280
     1
281
     1
  3
ACAD_XREC_ROUNDTRIP
360
1B4D
  0
DICTIONARY
  5
1B4A
330
E9D
100
AcDbDictionary
280
     1
281
     1
  3
ACAD_XREC_ROUNDTRIP
360
1B4B
  0
DICTIONARY
  5
1B44
330
E9A
100
AcDbDictionary
280
     1
281
     1
  3
ACAD_XREC_ROUNDTRIP
360
1B45
  0
DICTIONARY
  5
1B46
330
E9B
100
AcDbDictionary
280
     1
281
     1
  3
ACAD_XREC_ROUNDTRIP
360
1B47
  0
DICTIONARY
  5
1B33
330
21
100
AcDbDictionary
280
     1
281
     1
  3
ACAD_XREC_ROUNDTRIP
360
1B34
  0
DICTIONARY
  5
1B40
330
E98
100
AcDbDictionary
280
     1
281
     1
  3
ACAD_XREC_ROUNDTRIP
360
1B41
  0
DICTIONARY
  5
1B48
330
E9C
100
AcDbDictionary
280
     1
281
     1
  3
ACAD_XREC_ROUNDTRIP
360
1B49
  0
XRECORD
  5
1B3F
102
{ACAD_REACTORS
330
1B3E
102
}
330
1B3E
100
AcDbXrecord
280
     1
102
SHADEPLOT
 70
     0
102
SHADEPLOTRESLEVEL
 70
     2
102
SHADEPLOTCUSTOMDPI
 70
   300
  0
XRECORD
  5
1B3D
102
{ACAD_REACTORS
330
1B3C
102
}
330
1B3C
100
AcDbXrecord
280
     1
102
SHADEPLOT
 70
     0
102
SHADEPLOTRESLEVEL
 70
     2
102
SHADEPLOTCUSTOMDPI
 70
   300
  0
XRECORD
  5
E89
102
{ACAD_REACTORS
330
E88
102
}
330
E88
100
AcDbXrecord
280
     1
102
MATERIAL
148
0.0
149
0.0
149
0.0
 93
        0
 94
      127
282
     0
 72
     1
 77
     1
171
     1
175
     1
179
     1
273
     0
  0
XRECORD
  5
E87
102
{ACAD_REACTORS
330
E86
102
}
330
E86
100
AcDbXrecord
280
     1
102
MATERIAL
148
0.0
149
0.0
149
0.0
 93
        0
 94
      127
282
     0
 72
     1
 77
     1
171
     1
175
     1
179
     1
273
     0
  0
XRECORD
  5
E8B
102
{ACAD_REACTORS
330
E8A
102
}
330
E8A
100
AcDbXrecord
280
     1
102
MATERIAL
148
0.0
149
0.0
149
0.0
 93
        0
 94
      127
282
     0
 72
     1
 77
     1
171
     1
175
     1
179
     1
273
     0
  0
CELLSTYLEMAP
  5
1B14
102
{ACAD_REACTORS
330
F83
102
}
330
F83
100
AcDbCellStyleMap
 90
        3
300
CELLSTYLE
  1
TABLEFORMAT_BEGIN
 90
        5
170
     1
 91
        0
 92
    32768
 62
   257
 93
        1
300
CONTENTFORMAT
  1
CONTENTFORMAT_BEGIN
 90
        0
 91
        0
 92
      512
 93
        0
300

 40
0.0
140
1.0
 94
        5
 62
     0
340
26
144
0.25
309
CONTENTFORMAT_END
171
     1
301
MARGIN
  1
CELLMARGIN_BEGIN
 40
0.06
 40
0.06
 40
0.06
 40
0.06
 40
0.18
 40
0.18
309
CELLMARGIN_END
 94
        6
 95
        1
302
GRIDFORMAT
  1
GRIDFORMAT_BEGIN
 90
        0
 91
        1
 62
     0
 92
       -2
340
0
 93
        0
 40
0.045
309
GRIDFORMAT_END
 95
        2
302
GRIDFORMAT
  1
GRIDFORMAT_BEGIN
 90
        0
 91
        1
 62
     0
 92
       -2
340
0
 93
        0
 40
0.045
309
GRIDFORMAT_END
 95
        4
302
GRIDFORMAT
  1
GRIDFORMAT_BEGIN
 90
        0
 91
        1
 62
     0
 92
       -2
340
0
 93
        0
 40
0.045
309
GRIDFORMAT_END
 95
        8
302
GRIDFORMAT
  1
GRIDFORMAT_BEGIN
 90
        0
 91
        1
 62
     0
 92
       -2
340
0
 93
        0
 40
0.045
309
GRIDFORMAT_END
 95
       16
302
GRIDFORMAT
  1
GRIDFORMAT_BEGIN
 90
        0
 91
        1
 62
     0
 92
       -2
340
0
 93
        0
 40
0.045
309
GRIDFORMAT_END
 95
       32
302
GRIDFORMAT
  1
GRIDFORMAT_BEGIN
 90
        0
 91
        1
 62
     0
 92
       -2
340
0
 93
        0
 40
0.045
309
GRIDFORMAT_END
309
TABLEFORMAT_END
  1
CELLSTYLE_BEGIN
 90
        1
 91
        1
300
_TITLE
309
CELLSTYLE_END
300
CELLSTYLE
  1
TABLEFORMAT_BEGIN
 90
        5
170
     1
 91
        0
 92
        0
 62
   257
 93
        1
300
CONTENTFORMAT
  1
CONTENTFORMAT_BEGIN
 90
        0
 91
        0
 92
      512
 93
        0
300

 40
0.0
140
1.0
 94
        5
 62
     0
340
26
144
0.18
309
CONTENTFORMAT_END
171
     1
301
MARGIN
  1
CELLMARGIN_BEGIN
 40
0.06
 40
0.06
 40
0.06
 40
0.06
 40
0.18
 40
0.18
309
CELLMARGIN_END
 94
        6
 95
        1
302
GRIDFORMAT
  1
GRIDFORMAT_BEGIN
 90
        0
 91
        1
 62
     0
 92
       -2
340
0
 93
        0
 40
0.045
309
GRIDFORMAT_END
 95
        2
302
GRIDFORMAT
  1
GRIDFORMAT_BEGIN
 90
        0
 91
        1
 62
     0
 92
       -2
340
0
 93
        0
 40
0.045
309
GRIDFORMAT_END
 95
        4
302
GRIDFORMAT
  1
GRIDFORMAT_BEGIN
 90
        0
 91
        1
 62
     0
 92
       -2
340
0
 93
        0
 40
0.045
309
GRIDFORMAT_END
 95
        8
302
GRIDFORMAT
  1
GRIDFORMAT_BEGIN
 90
        0
 91
        1
 62
     0
 92
       -2
340
0
 93
        0
 40
0.045
309
GRIDFORMAT_END
 95
       16
302
GRIDFORMAT
  1
GRIDFORMAT_BEGIN
 90
        0
 91
        1
 62
     0
 92
       -2
340
0
 93
        0
 40
0.045
309
GRIDFORMAT_END
 95
       32
302
GRIDFORMAT
  1
GRIDFORMAT_BEGIN
 90
        0
 91
        1
 62
     0
 92
       -2
340
0
 93
        0
 40
0.045
309
GRIDFORMAT_END
309
TABLEFORMAT_END
  1
CELLSTYLE_BEGIN
 90
        2
 91
        1
300
_HEADER
309
CELLSTYLE_END
300
CELLSTYLE
  1
TABLEFORMAT_BEGIN
 90
        5
170
     1
 91
        0
 92
        0
 62
   257
 93
        1
300
CONTENTFORMAT
  1
CONTENTFORMAT_BEGIN
 90
        0
 91
        0
 92
      512
 93
        0
300

 40
0.0
140
1.0
 94
        2
 62
     0
340
26
144
0.18
309
CONTENTFORMAT_END
171
     1
301
MARGIN
  1
CELLMARGIN_BEGIN
 40
0.06
 40
0.06
 40
0.06
 40
0.06
 40
0.18
 40
0.18
309
CELLMARGIN_END
 94
        6
 95
        1
302
GRIDFORMAT
  1
GRIDFORMAT_BEGIN
 90
        0
 91
        1
 62
     0
 92
       -2
340
0
 93
        0
 40
0.045
309
GRIDFORMAT_END
 95
        2
302
GRIDFORMAT
  1
GRIDFORMAT_BEGIN
 90
        0
 91
        1
 62
     0
 92
       -2
340
0
 93
        0
 40
0.045
309
GRIDFORMAT_END
 95
        4
302
GRIDFORMAT
  1
GRIDFORMAT_BEGIN
 90
        0
 91
        1
 62
     0
 92
       -2
340
0
 93
        0
 40
0.045
309
GRIDFORMAT_END
 95
        8
302
GRIDFORMAT
  1
GRIDFORMAT_BEGIN
 90
        0
 91
        1
 62
     0
 92
       -2
340
0
 93
        0
 40
0.045
309
GRIDFORMAT_END
 95
       16
302
GRIDFORMAT
  1
GRIDFORMAT_BEGIN
 90
        0
 91
        1
 62
     0
 92
       -2
340
0
 93
        0
 40
0.045
309
GRIDFORMAT_END
 95
       32
302
GRIDFORMAT
  1
GRIDFORMAT_BEGIN
 90
        0
 91
        1
 62
     0
 92
       -2
340
0
 93
        0
 40
0.045
309
GRIDFORMAT_END
309
TABLEFORMAT_END
  1
CELLSTYLE_BEGIN
 90
        3
 91
        2
300
_DATA
309
CELLSTYLE_END
  0
XRECORD
  5
1B3B
102
{ACAD_REACTORS
330
F83
102
}
330
F83
100
AcDbXrecord
280
     1
102
ACAD_ROUNDTRIP_PRE2007_TABLESTYLE
 90
      512
 91
        0
  1

 92
      512
 93
        0
  2

 94
      512
 95
        0
  3

  0
XRECORD
  5
1B26
102
{ACAD_REACTORS
330
1B25
102
}
330
1B25
100
AcDbXrecord
280
     1
102
RTVSPropertyOp0
 70
     1
102
RTVSPropertyOp1
 70
     1
102
RTVSPropertyOp2
 70
     1
102
RTVSPropertyOp3
 70
     1
102
RTVSPropertyOp4
 70
     1
102
RTVSPropertyOp5
 70
     1
102
RTVSPropertyOp6
 70
     1
102
RTVSPropertyOp7
 70
     1
102
RTVSPropertyOp8
 70
     1
102
RTVSPropertyOp9
 70
     1
102
RTVSPropertyOp10
 70
     1
102
RTVSPropertyOp11
 70
     1
102
RTVSPropertyOp12
 70
     1
102
RTVSPropertyOp13
 70
     1
102
RTVSPropertyOp14
 70
     1
102
RTVSPropertyOp15
 70
     1
102
RTVSPropertyOp16
 70
     1
102
RTVSPropertyOp17
 70
     1
102
RTVSPropertyOp18
 70
     1
102
RTVSPropertyOp19
 70
     1
102
RTVSPropertyOp20
 70
     1
102
RTVSPropertyOp21
 70
     1
102
RTVSPropertyOp22
 70
     1
102
RTVSPropertyOp23
 70
     1
102
RTVSPropertyOp24
 70
     1
102
RTVSPropertyOp25
 70
     1
102
RTVSPropertyOp26
 70
     1
102
RTVSPropertyOp27
 70
     1
102
RTVSPropertyOp28
 70
     1
102
RTVSPropertyOp29
 70
     1
102
RTVSPropertyOp30
 70
     1
102
RTVSPropertyOp31
 70
     1
102
RTVSPropertyOp32
 70
     1
  0
XRECORD
  5
1B2A
102
{ACAD_REACTORS
330
1B29
102
}
330
1B29
100
AcDbXrecord
280
     1
102
RTVSPropertyOp0
 70
     1
102
RTVSPropertyOp1
 70
     1
102
RTVSPropertyOp2
 70
     1
102
RTVSPropertyOp3
 70
     1
102
RTVSPropertyOp4
 70
     1
102
RTVSPropertyOp5
 70
     1
102
RTVSPropertyOp6
 70
     1
102
RTVSPropertyOp7
 70
     1
102
RTVSPropertyOp8
 70
     1
102
RTVSPropertyOp9
 70
     1
102
RTVSPropertyOp10
 70
     1
102
RTVSPropertyOp11
 70
     1
102
RTVSPropertyOp12
 70
     1
102
RTVSPropertyOp13
 70
     1
102
RTVSPropertyOp14
 70
     1
102
RTVSPropertyOp15
 70
     1
102
RTVSPropertyOp16
 70
     1
102
RTVSPropertyOp17
 70
     1
102
RTVSPropertyOp18
 70
     1
102
RTVSPropertyOp19
 70
     1
102
RTVSPropertyOp20
 70
     1
102
RTVSPropertyOp21
 70
     1
102
RTVSPropertyOp22
 70
     1
102
RTVSPropertyOp23
 70
     1
102
RTVSPropertyOp24
 70
     1
102
RTVSPropertyOp25
 70
     1
102
RTVSPropertyOp26
 70
     1
102
RTVSPropertyOp27
 70
     1
102
RTVSPropertyOp28
 70
     1
102
RTVSPropertyOp29
 70
     1
102
RTVSPropertyOp30
 70
     1
102
RTVSPropertyOp31
 70
     1
102
RTVSPropertyOp32
 70
     1
  0
XRECORD
  5
1B28
102
{ACAD_REACTORS
330
1B27
102
}
330
1B27
100
AcDbXrecord
280
     1
102
RTVSPropertyOp0
 70
     1
102
RTVSPropertyOp1
 70
     1
102
RTVSPropertyOp2
 70
     1
102
RTVSPropertyOp3
 70
     1
102
RTVSPropertyOp4
 70
     1
102
RTVSPropertyOp5
 70
     1
102
RTVSPropertyOp6
 70
     1
102
RTVSPropertyOp7
 70
     1
102
RTVSPropertyOp8
 70
     1
102
RTVSPropertyOp9
 70
     1
102
RTVSPropertyOp10
 70
     1
102
RTVSPropertyOp11
 70
     1
102
RTVSPropertyOp12
 70
     1
102
RTVSPropertyOp13
 70
     1
102
RTVSPropertyOp14
 70
     1
102
RTVSPropertyOp15
 70
     1
102
RTVSPropertyOp16
 70
     1
102
RTVSPropertyOp17
 70
     1
102
RTVSPropertyOp18
 70
     1
102
RTVSPropertyOp19
 70
     1
102
RTVSPropertyOp20
 70
     1
102
RTVSPropertyOp21
 70
     1
102
RTVSPropertyOp22
 70
     1
102
RTVSPropertyOp23
 70
     1
102
RTVSPropertyOp24
 70
     1
102
RTVSPropertyOp25
 70
     1
102
RTVSPropertyOp26
 70
     1
102
RTVSPropertyOp27
 70
     1
102
RTVSPropertyOp28
 70
     1
102
RTVSPropertyOp29
 70
     1
102
RTVSPropertyOp30
 70
     1
102
RTVSPropertyOp31
 70
     1
102
RTVSPropertyOp32
 70
     1
  0
XRECORD
  5
1B24
102
{ACAD_REACTORS
330
1B23
102
}
330
1B23
100
AcDbXrecord
280
     1
102
RTVSPropertyOp0
 70
     1
102
RTVSPropertyOp1
 70
     1
102
RTVSPropertyOp2
 70
     1
102
RTVSPropertyOp3
 70
     1
102
RTVSPropertyOp4
 70
     1
102
RTVSPropertyOp5
 70
     1
102
RTVSPropertyOp6
 70
     1
102
RTVSPropertyOp7
 70
     1
102
RTVSPropertyOp8
 70
     1
102
RTVSPropertyOp9
 70
     1
102
RTVSPropertyOp10
 70
     1
102
RTVSPropertyOp11
 70
     1
102
RTVSPropertyOp12
 70
     1
102
RTVSPropertyOp13
 70
     1
102
RTVSPropertyOp14
 70
     1
102
RTVSPropertyOp15
 70
     1
102
RTVSPropertyOp16
 70
     1
102
RTVSPropertyOp17
 70
     1
102
RTVSPropertyOp18
 70
     1
102
RTVSPropertyOp19
 70
     1
102
RTVSPropertyOp20
 70
     1
102
RTVSPropertyOp21
 70
     1
102
RTVSPropertyOp22
 70
     1
102
RTVSPropertyOp23
 70
     1
102
RTVSPropertyOp24
 70
     1
102
RTVSPropertyOp25
 70
     1
102
RTVSPropertyOp26
 70
     1
102
RTVSPropertyOp27
 70
     1
102
RTVSPropertyOp28
 70
     1
102
RTVSPropertyOp29
 70
     1
102
RTVSPropertyOp30
 70
     1
102
RTVSPropertyOp31
 70
     1
102
RTVSPropertyOp32
 70
     1
  0
XRECORD
  5
1B32
102
{ACAD_REACTORS
330
1B31
102
}
330
1B31
100
AcDbXrecord
280
     1
102
RTVSPropertyOp0
 70
     1
102
RTVSPropertyOp1
 70
     1
102
RTVSPropertyOp2
 70
     1
102
RTVSPropertyOp3
 70
     1
102
RTVSPropertyOp4
 70
     1
102
RTVSPropertyOp5
 70
     1
102
RTVSPropertyOp6
 70
     1
102
RTVSPropertyOp7
 70
     1
102
RTVSPropertyOp8
 70
     1
102
RTVSPropertyOp9
 70
     1
102
RTVSPropertyOp10
 70
     1
102
RTVSPropertyOp11
 70
     1
102
RTVSPropertyOp12
 70
     1
102
RTVSPropertyOp13
 70
     1
102
RTVSPropertyOp14
 70
     1
102
RTVSPropertyOp15
 70
     1
102
RTVSPropertyOp16
 70
     1
102
RTVSPropertyOp17
 70
     1
102
RTVSPropertyOp18
 70
     1
102
RTVSPropertyOp19
 70
     1
102
RTVSPropertyOp20
 70
     1
102
RTVSPropertyOp21
 70
     1
102
RTVSPropertyOp22
 70
     1
102
RTVSPropertyOp23
 70
     1
102
RTVSPropertyOp24
 70
     1
102
RTVSPropertyOp25
 70
     1
102
RTVSPropertyOp26
 70
     1
102
RTVSPropertyOp27
 70
     1
102
RTVSPropertyOp28
 70
     1
102
RTVSPropertyOp29
 70
     1
102
RTVSPropertyOp30
 70
     1
102
RTVSPropertyOp31
 70
     1
102
RTVSPropertyOp32
 70
     1
  0
XRECORD
  5
1B3A
102
{ACAD_REACTORS
330
1B39
102
}
330
1B39
100
AcDbXrecord
280
     1
102
RTVSPropertyOp0
 70
     1
102
RTVSPropertyOp1
 70
     1
102
RTVSPropertyOp2
 70
     1
102
RTVSPropertyOp3
 70
     1
102
RTVSPropertyOp4
 70
     1
102
RTVSPropertyOp5
 70
     1
102
RTVSPropertyOp6
 70
     1
102
RTVSPropertyOp7
 70
     1
102
RTVSPropertyOp8
 70
     1
102
RTVSPropertyOp9
 70
     1
102
RTVSPropertyOp10
 70
     1
102
RTVSPropertyOp11
 70
     1
102
RTVSPropertyOp12
 70
     1
102
RTVSPropertyOp13
 70
     1
102
RTVSPropertyOp14
 70
     1
102
RTVSPropertyOp15
 70
     1
102
RTVSPropertyOp16
 70
     1
102
RTVSPropertyOp17
 70
     1
102
RTVSPropertyOp18
 70
     1
102
RTVSPropertyOp19
 70
     1
102
RTVSPropertyOp20
 70
     1
102
RTVSPropertyOp21
 70
     1
102
RTVSPropertyOp22
 70
     1
102
RTVSPropertyOp23
 70
     1
102
RTVSPropertyOp24
 70
     1
102
RTVSPropertyOp25
 70
     1
102
RTVSPropertyOp26
 70
     1
102
RTVSPropertyOp27
 70
     1
102
RTVSPropertyOp28
 70
     1
102
RTVSPropertyOp29
 70
     1
102
RTVSPropertyOp30
 70
     1
102
RTVSPropertyOp31
 70
     1
102
RTVSPropertyOp32
 70
     1
  0
XRECORD
  5
1B2C
102
{ACAD_REACTORS
330
1B2B
102
}
330
1B2B
100
AcDbXrecord
280
     1
102
RTVSPropertyOp0
 70
     1
102
RTVSPropertyOp1
 70
     1
102
RTVSPropertyOp2
 70
     1
102
RTVSPropertyOp3
 70
     1
102
RTVSPropertyOp4
 70
     1
102
RTVSPropertyOp5
 70
     1
102
RTVSPropertyOp6
 70
     1
102
RTVSPropertyOp7
 70
     1
102
RTVSPropertyOp8
 70
     1
102
RTVSPropertyOp9
 70
     1
102
RTVSPropertyOp10
 70
     1
102
RTVSPropertyOp11
 70
     1
102
RTVSPropertyOp12
 70
     1
102
RTVSPropertyOp13
 70
     1
102
RTVSPropertyOp14
 70
     1
102
RTVSPropertyOp15
 70
     1
102
RTVSPropertyOp16
 70
     1
102
RTVSPropertyOp17
 70
     1
102
RTVSPropertyOp18
 70
     1
102
RTVSPropertyOp19
 70
     1
102
RTVSPropertyOp20
 70
     1
102
RTVSPropertyOp21
 70
     1
102
RTVSPropertyOp22
 70
     1
102
RTVSPropertyOp23
 70
     1
102
RTVSPropertyOp24
 70
     1
102
RTVSPropertyOp25
 70
     1
102
RTVSPropertyOp26
 70
     1
102
RTVSPropertyOp27
 70
     1
102
RTVSPropertyOp28
 70
     1
102
RTVSPropertyOp29
 70
     1
102
RTVSPropertyOp30
 70
     1
102
RTVSPropertyOp31
 70
     1
102
RTVSPropertyOp32
 70
     1
  0
XRECORD
  5
1B30
102
{ACAD_REACTORS
330
1B2F
102
}
330
1B2F
100
AcDbXrecord
280
     1
102
RTVSPropertyOp0
 70
     1
102
RTVSPropertyOp1
 70
     1
102
RTVSPropertyOp2
 70
     1
102
RTVSPropertyOp3
 70
     1
102
RTVSPropertyOp4
 70
     1
102
RTVSPropertyOp5
 70
     1
102
RTVSPropertyOp6
 70
     1
102
RTVSPropertyOp7
 70
     1
102
RTVSPropertyOp8
 70
     1
102
RTVSPropertyOp9
 70
     1
102
RTVSPropertyOp10
 70
     1
102
RTVSPropertyOp11
 70
     1
102
RTVSPropertyOp12
 70
     1
102
RTVSPropertyOp13
 70
     1
102
RTVSPropertyOp14
 70
     1
102
RTVSPropertyOp15
 70
     1
102
RTVSPropertyOp16
 70
     1
102
RTVSPropertyOp17
 70
     1
102
RTVSPropertyOp18
 70
     1
102
RTVSPropertyOp19
 70
     1
102
RTVSPropertyOp20
 70
     1
102
RTVSPropertyOp21
 70
     1
102
RTVSPropertyOp22
 70
     1
102
RTVSPropertyOp23
 70
     1
102
RTVSPropertyOp24
 70
     1
102
RTVSPropertyOp25
 70
     1
102
RTVSPropertyOp26
 70
     1
102
RTVSPropertyOp27
 70
     1
102
RTVSPropertyOp28
 70
     1
102
RTVSPropertyOp29
 70
     1
102
RTVSPropertyOp30
 70
     1
102
RTVSPropertyOp31
 70
     1
102
RTVSPropertyOp32
 70
     1
  0
XRECORD
  5
1B53
102
{ACAD_REACTORS
330
1B52
102
}
330
1B52
100
AcDbXrecord
280
     1
102
RTVSPropertyOp0
 70
     0
102
RTVSPropertyOp1
 70
     0
102
RTVSPropertyOp2
 70
     0
102
RTVSPropertyOp3
 70
     0
102
RTVSPropertyOp4
 70
     0
102
RTVSPropertyOp5
 70
     0
102
RTVSPropertyOp6
 70
     0
102
RTVSPropertyOp7
 70
     0
102
RTVSPropertyOp8
 70
     0
102
RTVSPropertyOp9
 70
     0
102
RTVSPropertyOp10
 70
     0
102
RTVSPropertyOp11
 70
     0
102
RTVSPropertyOp12
 70
     0
102
RTVSPropertyOp13
 70
     0
102
RTVSPropertyOp14
 70
     2
102
RTVSPropertyOp15
 70
     0
102
RTVSPropertyOp16
 70
     0
102
RTVSPropertyOp17
 70
     0
102
RTVSPropertyOp18
 70
     0
102
RTVSPropertyOp19
 70
     0
102
RTVSPropertyOp20
 70
     0
102
RTVSPropertyOp21
 70
     0
102
RTVSPropertyOp22
 70
     0
102
RTVSPropertyOp23
 70
     0
102
RTVSPropertyOp24
 70
     0
102
RTVSPropertyOp25
 70
     0
102
RTVSPropertyOp26
 70
     0
102
RTVSPropertyOp27
 70
     0
102
RTVSPropertyOp28
 70
     0
102
RTVSPropertyOp29
 70
     0
102
RTVSPropertyOp30
 70
     0
102
RTVSPropertyOp31
 70
     0
102
RTVSPropertyOp32
 70
     0
  0
XRECORD
  5
1B38
102
{ACAD_REACTORS
330
1B37
102
}
330
1B37
100
AcDbXrecord
280
     1
102
RTVSPropertyOp0
 70
     1
102
RTVSPropertyOp1
 70
     1
102
RTVSPropertyOp2
 70
     1
102
RTVSPropertyOp3
 70
     1
102
RTVSPropertyOp4
 70
     1
102
RTVSPropertyOp5
 70
     1
102
RTVSPropertyOp6
 70
     1
102
RTVSPropertyOp7
 70
     1
102
RTVSPropertyOp8
 70
     1
102
RTVSPropertyOp9
 70
     1
102
RTVSPropertyOp10
 70
     1
102
RTVSPropertyOp11
 70
     1
102
RTVSPropertyOp12
 70
     1
102
RTVSPropertyOp13
 70
     1
102
RTVSPropertyOp14
 70
     1
102
RTVSPropertyOp15
 70
     1
102
RTVSPropertyOp16
 70
     1
102
RTVSPropertyOp17
 70
     1
102
RTVSPropertyOp18
 70
     1
102
RTVSPropertyOp19
 70
     1
102
RTVSPropertyOp20
 70
     1
102
RTVSPropertyOp21
 70
     1
102
RTVSPropertyOp22
 70
     1
102
RTVSPropertyOp23
 70
     1
102
RTVSPropertyOp24
 70
     1
102
RTVSPropertyOp25
 70
     1
102
RTVSPropertyOp26
 70
     1
102
RTVSPropertyOp27
 70
     1
102
RTVSPropertyOp28
 70
     1
102
RTVSPropertyOp29
 70
     1
102
RTVSPropertyOp30
 70
     1
102
RTVSPropertyOp31
 70
     1
102
RTVSPropertyOp32
 70
     1
  0
XRECORD
  5
1B1C
102
{ACAD_REACTORS
330
1B1B
102
}
330
1B1B
100
AcDbXrecord
280
     1
102
RTVSPropertyOp0
 70
     1
102
RTVSPropertyOp1
 70
     1
102
RTVSPropertyOp2
 70
     1
102
RTVSPropertyOp3
 70
     1
102
RTVSPropertyOp4
 70
     1
102
RTVSPropertyOp5
 70
     1
102
RTVSPropertyOp6
 70
     1
102
RTVSPropertyOp7
 70
     1
102
RTVSPropertyOp8
 70
     1
102
RTVSPropertyOp9
 70
     1
102
RTVSPropertyOp10
 70
     1
102
RTVSPropertyOp11
 70
     1
102
RTVSPropertyOp12
 70
     1
102
RTVSPropertyOp13
 70
     1
102
RTVSPropertyOp14
 70
     1
102
RTVSPropertyOp15
 70
     1
102
RTVSPropertyOp16
 70
     1
102
RTVSPropertyOp17
 70
     1
102
RTVSPropertyOp18
 70
     1
102
RTVSPropertyOp19
 70
     1
102
RTVSPropertyOp20
 70
     1
102
RTVSPropertyOp21
 70
     1
102
RTVSPropertyOp22
 70
     1
102
RTVSPropertyOp23
 70
     1
102
RTVSPropertyOp24
 70
     1
102
RTVSPropertyOp25
 70
     1
102
RTVSPropertyOp26
 70
     1
102
RTVSPropertyOp27
 70
     1
102
RTVSPropertyOp28
 70
     1
102
RTVSPropertyOp29
 70
     1
102
RTVSPropertyOp30
 70
     1
102
RTVSPropertyOp31
 70
     1
102
RTVSPropertyOp32
 70
     1
  0
XRECORD
  5
1B1E
102
{ACAD_REACTORS
330
1B1D
102
}
330
1B1D
100
AcDbXrecord
280
     1
102
RTVSPropertyOp0
 70
     1
102
RTVSPropertyOp1
 70
     1
102
RTVSPropertyOp2
 70
     1
102
RTVSPropertyOp3
 70
     1
102
RTVSPropertyOp4
 70
     1
102
RTVSPropertyOp5
 70
     1
102
RTVSPropertyOp6
 70
     1
102
RTVSPropertyOp7
 70
     1
102
RTVSPropertyOp8
 70
     1
102
RTVSPropertyOp9
 70
     1
102
RTVSPropertyOp10
 70
     1
102
RTVSPropertyOp11
 70
     1
102
RTVSPropertyOp12
 70
     1
102
RTVSPropertyOp13
 70
     1
102
RTVSPropertyOp14
 70
     1
102
RTVSPropertyOp15
 70
     1
102
RTVSPropertyOp16
 70
     1
102
RTVSPropertyOp17
 70
     1
102
RTVSPropertyOp18
 70
     1
102
RTVSPropertyOp19
 70
     1
102
RTVSPropertyOp20
 70
     1
102
RTVSPropertyOp21
 70
     1
102
RTVSPropertyOp22
 70
     1
102
RTVSPropertyOp23
 70
     1
102
RTVSPropertyOp24
 70
     1
102
RTVSPropertyOp25
 70
     1
102
RTVSPropertyOp26
 70
     1
102
RTVSPropertyOp27
 70
     1
102
RTVSPropertyOp28
 70
     1
102
RTVSPropertyOp29
 70
     1
102
RTVSPropertyOp30
 70
     1
102
RTVSPropertyOp31
 70
     1
102
RTVSPropertyOp32
 70
     1
  0
XRECORD
  5
1B20
102
{ACAD_REACTORS
330
1B1F
102
}
330
1B1F
100
AcDbXrecord
280
     1
102
RTVSPropertyOp0
 70
     1
102
RTVSPropertyOp1
 70
     1
102
RTVSPropertyOp2
 70
     1
102
RTVSPropertyOp3
 70
     1
102
RTVSPropertyOp4
 70
     1
102
RTVSPropertyOp5
 70
     1
102
RTVSPropertyOp6
 70
     1
102
RTVSPropertyOp7
 70
     1
102
RTVSPropertyOp8
 70
     1
102
RTVSPropertyOp9
 70
     1
102
RTVSPropertyOp10
 70
     1
102
RTVSPropertyOp11
 70
     1
102
RTVSPropertyOp12
 70
     1
102
RTVSPropertyOp13
 70
     1
102
RTVSPropertyOp14
 70
     1
102
RTVSPropertyOp15
 70
     1
102
RTVSPropertyOp16
 70
     1
102
RTVSPropertyOp17
 70
     1
102
RTVSPropertyOp18
 70
     1
102
RTVSPropertyOp19
 70
     1
102
RTVSPropertyOp20
 70
     1
102
RTVSPropertyOp21
 70
     1
102
RTVSPropertyOp22
 70
     1
102
RTVSPropertyOp23
 70
     1
102
RTVSPropertyOp24
 70
     1
102
RTVSPropertyOp25
 70
     1
102
RTVSPropertyOp26
 70
     1
102
RTVSPropertyOp27
 70
     1
102
RTVSPropertyOp28
 70
     1
102
RTVSPropertyOp29
 70
     1
102
RTVSPropertyOp30
 70
     1
102
RTVSPropertyOp31
 70
     1
102
RTVSPropertyOp32
 70
     1
  0
XRECORD
  5
1B22
102
{ACAD_REACTORS
330
1B21
102
}
330
1B21
100
AcDbXrecord
280
     1
102
RTVSPropertyOp0
 70
     1
102
RTVSPropertyOp1
 70
     1
102
RTVSPropertyOp2
 70
     1
102
RTVSPropertyOp3
 70
     1
102
RTVSPropertyOp4
 70
     1
102
RTVSPropertyOp5
 70
     1
102
RTVSPropertyOp6
 70
     1
102
RTVSPropertyOp7
 70
     1
102
RTVSPropertyOp8
 70
     1
102
RTVSPropertyOp9
 70
     1
102
RTVSPropertyOp10
 70
     1
102
RTVSPropertyOp11
 70
     1
102
RTVSPropertyOp12
 70
     1
102
RTVSPropertyOp13
 70
     1
102
RTVSPropertyOp14
 70
     1
102
RTVSPropertyOp15
 70
     1
102
RTVSPropertyOp16
 70
     1
102
RTVSPropertyOp17
 70
     1
102
RTVSPropertyOp18
 70
     1
102
RTVSPropertyOp19
 70
     1
102
RTVSPropertyOp20
 70
     1
102
RTVSPropertyOp21
 70
     1
102
RTVSPropertyOp22
 70
     1
102
RTVSPropertyOp23
 70
     1
102
RTVSPropertyOp24
 70
     1
102
RTVSPropertyOp25
 70
     1
102
RTVSPropertyOp26
 70
     1
102
RTVSPropertyOp27
 70
     1
102
RTVSPropertyOp28
 70
     1
102
RTVSPropertyOp29
 70
     1
102
RTVSPropertyOp30
 70
     1
102
RTVSPropertyOp31
 70
     1
102
RTVSPropertyOp32
 70
     1
  0
XRECORD
  5
1B43
102
{ACAD_REACTORS
330
1B42
102
}
330
1B42
100
AcDbXrecord
280
     1
102
RTVSPropertyOp0
 70
     1
102
RTVSPropertyOp1
 70
     1
102
RTVSPropertyOp2
 70
     1
102
RTVSPropertyOp3
 70
     1
102
RTVSPropertyOp4
 70
     1
102
RTVSPropertyOp5
 70
     1
102
RTVSPropertyOp6
 70
     1
102
RTVSPropertyOp7
 70
     1
102
RTVSPropertyOp8
 70
     1
102
RTVSPropertyOp9
 70
     1
102
RTVSPropertyOp10
 70
     1
102
RTVSPropertyOp11
 70
     1
102
RTVSPropertyOp12
 70
     1
102
RTVSPropertyOp13
 70
     1
102
RTVSPropertyOp14
 70
     1
102
RTVSPropertyOp15
 70
     1
102
RTVSPropertyOp16
 70
     1
102
RTVSPropertyOp17
 70
     1
102
RTVSPropertyOp18
 70
     1
102
RTVSPropertyOp19
 70
     1
102
RTVSPropertyOp20
 70
     1
102
RTVSPropertyOp21
 70
     1
102
RTVSPropertyOp22
 70
     1
102
RTVSPropertyOp23
 70
     1
102
RTVSPropertyOp24
 70
     1
102
RTVSPropertyOp25
 70
     1
102
RTVSPropertyOp26
 70
     1
102
RTVSPropertyOp27
 70
     1
102
RTVSPropertyOp28
 70
     1
102
RTVSPropertyOp29
 70
     1
102
RTVSPropertyOp30
 70
     1
102
RTVSPropertyOp31
 70
     1
102
RTVSPropertyOp32
 70
     1
  0
XRECORD
  5
1B4F
102
{ACAD_REACTORS
330
1B4E
102
}
330
1B4E
100
AcDbXrecord
280
     1
102
RTVSPropertyOp0
 70
     0
102
RTVSPropertyOp1
 70
     0
102
RTVSPropertyOp2
 70
     0
102
RTVSPropertyOp3
 70
     0
102
RTVSPropertyOp4
 70
     0
102
RTVSPropertyOp5
 70
     0
102
RTVSPropertyOp6
 70
     0
102
RTVSPropertyOp7
 70
     0
102
RTVSPropertyOp8
 70
     0
102
RTVSPropertyOp9
 70
     0
102
RTVSPropertyOp10
 70
     0
102
RTVSPropertyOp11
 70
     0
102
RTVSPropertyOp12
 70
     0
102
RTVSPropertyOp13
 70
     0
102
RTVSPropertyOp14
 70
     2
102
RTVSPropertyOp15
 70
     0
102
RTVSPropertyOp16
 70
     0
102
RTVSPropertyOp17
 70
     0
102
RTVSPropertyOp18
 70
     0
102
RTVSPropertyOp19
 70
     0
102
RTVSPropertyOp20
 70
     0
102
RTVSPropertyOp21
 70
     0
102
RTVSPropertyOp22
 70
     0
102
RTVSPropertyOp23
 70
     0
102
RTVSPropertyOp24
 70
     0
102
RTVSPropertyOp25
 70
     0
102
RTVSPropertyOp26
 70
     0
102
RTVSPropertyOp27
 70
     0
102
RTVSPropertyOp28
 70
     0
102
RTVSPropertyOp29
 70
     0
102
RTVSPropertyOp30
 70
     0
102
RTVSPropertyOp31
 70
     0
102
RTVSPropertyOp32
 70
     0
  0
XRECORD
  5
1B36
102
{ACAD_REACTORS
330
1B35
102
}
330
1B35
100
AcDbXrecord
280
     1
102
RTVSPropertyOp0
 70
     1
102
RTVSPropertyOp1
 70
     1
102
RTVSPropertyOp2
 70
     1
102
RTVSPropertyOp3
 70
     1
102
RTVSPropertyOp4
 70
     1
102
RTVSPropertyOp5
 70
     1
102
RTVSPropertyOp6
 70
     1
102
RTVSPropertyOp7
 70
     1
102
RTVSPropertyOp8
 70
     1
102
RTVSPropertyOp9
 70
     1
102
RTVSPropertyOp10
 70
     1
102
RTVSPropertyOp11
 70
     1
102
RTVSPropertyOp12
 70
     1
102
RTVSPropertyOp13
 70
     1
102
RTVSPropertyOp14
 70
     1
102
RTVSPropertyOp15
 70
     1
102
RTVSPropertyOp16
 70
     1
102
RTVSPropertyOp17
 70
     1
102
RTVSPropertyOp18
 70
     1
102
RTVSPropertyOp19
 70
     1
102
RTVSPropertyOp20
 70
     1
102
RTVSPropertyOp21
 70
     1
102
RTVSPropertyOp22
 70
     1
102
RTVSPropertyOp23
 70
     1
102
RTVSPropertyOp24
 70
     1
102
RTVSPropertyOp25
 70
     1
102
RTVSPropertyOp26
 70
     1
102
RTVSPropertyOp27
 70
     1
102
RTVSPropertyOp28
 70
     1
102
RTVSPropertyOp29
 70
     1
102
RTVSPropertyOp30
 70
     1
102
RTVSPropertyOp31
 70
     1
102
RTVSPropertyOp32
 70
     1
  0
XRECORD
  5
1B51
102
{ACAD_REACTORS
330
1B50
102
}
330
1B50
100
AcDbXrecord
280
     1
102
RTVSPropertyOp0
 70
     0
102
RTVSPropertyOp1
 70
     0
102
RTVSPropertyOp2
 70
     0
102
RTVSPropertyOp3
 70
     0
102
RTVSPropertyOp4
 70
     0
102
RTVSPropertyOp5
 70
     0
102
RTVSPropertyOp6
 70
     0
102
RTVSPropertyOp7
 70
     0
102
RTVSPropertyOp8
 70
     0
102
RTVSPropertyOp9
 70
     0
102
RTVSPropertyOp10
 70
     0
102
RTVSPropertyOp11
 70
     0
102
RTVSPropertyOp12
 70
     0
102
RTVSPropertyOp13
 70
     0
102
RTVSPropertyOp14
 70
     2
102
RTVSPropertyOp15
 70
     0
102
RTVSPropertyOp16
 70
     0
102
RTVSPropertyOp17
 70
     0
102
RTVSPropertyOp18
 70
     0
102
RTVSPropertyOp19
 70
     0
102
RTVSPropertyOp20
 70
     0
102
RTVSPropertyOp21
 70
     0
102
RTVSPropertyOp22
 70
     0
102
RTVSPropertyOp23
 70
     0
102
RTVSPropertyOp24
 70
     0
102
RTVSPropertyOp25
 70
     0
102
RTVSPropertyOp26
 70
     0
102
RTVSPropertyOp27
 70
     0
102
RTVSPropertyOp28
 70
     0
102
RTVSPropertyOp29
 70
     0
102
RTVSPropertyOp30
 70
     0
102
RTVSPropertyOp31
 70
     0
102
RTVSPropertyOp32
 70
     0
  0
XRECORD
  5
1B2E
102
{ACAD_REACTORS
330
1B2D
102
}
330
1B2D
100
AcDbXrecord
280
     1
102
RTVSPropertyOp0
 70
     1
102
RTVSPropertyOp1
 70
     1
102
RTVSPropertyOp2
 70
     1
102
RTVSPropertyOp3
 70
     1
102
RTVSPropertyOp4
 70
     1
102
RTVSPropertyOp5
 70
     1
102
RTVSPropertyOp6
 70
     1
102
RTVSPropertyOp7
 70
     1
102
RTVSPropertyOp8
 70
     1
102
RTVSPropertyOp9
 70
     1
102
RTVSPropertyOp10
 70
     1
102
RTVSPropertyOp11
 70
     1
102
RTVSPropertyOp12
 70
     1
102
RTVSPropertyOp13
 70
     1
102
RTVSPropertyOp14
 70
     1
102
RTVSPropertyOp15
 70
     1
102
RTVSPropertyOp16
 70
     1
102
RTVSPropertyOp17
 70
     1
102
RTVSPropertyOp18
 70
     1
102
RTVSPropertyOp19
 70
     1
102
RTVSPropertyOp20
 70
     1
102
RTVSPropertyOp21
 70
     1
102
RTVSPropertyOp22
 70
     1
102
RTVSPropertyOp23
 70
     1
102
RTVSPropertyOp24
 70
     1
102
RTVSPropertyOp25
 70
     1
102
RTVSPropertyOp26
 70
     1
102
RTVSPropertyOp27
 70
     1
102
RTVSPropertyOp28
 70
     1
102
RTVSPropertyOp29
 70
     1
102
RTVSPropertyOp30
 70
     1
102
RTVSPropertyOp31
 70
     1
102
RTVSPropertyOp32
 70
     1
  0
XRECORD
  5
1B4D
102
{ACAD_REACTORS
330
1B4C
102
}
330
1B4C
100
AcDbXrecord
280
     1
102
RTVSPropertyOp0
 70
     1
102
RTVSPropertyOp1
 70
     1
102
RTVSPropertyOp2
 70
     1
102
RTVSPropertyOp3
 70
     1
102
RTVSPropertyOp4
 70
     1
102
RTVSPropertyOp5
 70
     1
102
RTVSPropertyOp6
 70
     1
102
RTVSPropertyOp7
 70
     1
102
RTVSPropertyOp8
 70
     1
102
RTVSPropertyOp9
 70
     1
102
RTVSPropertyOp10
 70
     1
102
RTVSPropertyOp11
 70
     1
102
RTVSPropertyOp12
 70
     1
102
RTVSPropertyOp13
 70
     1
102
RTVSPropertyOp14
 70
     1
102
RTVSPropertyOp15
 70
     1
102
RTVSPropertyOp16
 70
     1
102
RTVSPropertyOp17
 70
     1
102
RTVSPropertyOp18
 70
     1
102
RTVSPropertyOp19
 70
     1
102
RTVSPropertyOp20
 70
     1
102
RTVSPropertyOp21
 70
     1
102
RTVSPropertyOp22
 70
     1
102
RTVSPropertyOp23
 70
     1
102
RTVSPropertyOp24
 70
     1
102
RTVSPropertyOp25
 70
     1
102
RTVSPropertyOp26
 70
     1
102
RTVSPropertyOp27
 70
     1
102
RTVSPropertyOp28
 70
     1
102
RTVSPropertyOp29
 70
     1
102
RTVSPropertyOp30
 70
     1
102
RTVSPropertyOp31
 70
     1
102
RTVSPropertyOp32
 70
     1
  0
XRECORD
  5
1B4B
102
{ACAD_REACTORS
330
1B4A
102
}
330
1B4A
100
AcDbXrecord
280
     1
102
RTVSPropertyOp0
 70
     1
102
RTVSPropertyOp1
 70
     1
102
RTVSPropertyOp2
 70
     1
102
RTVSPropertyOp3
 70
     1
102
RTVSPropertyOp4
 70
     1
102
RTVSPropertyOp5
 70
     1
102
RTVSPropertyOp6
 70
     1
102
RTVSPropertyOp7
 70
     1
102
RTVSPropertyOp8
 70
     1
102
RTVSPropertyOp9
 70
     1
102
RTVSPropertyOp10
 70
     1
102
RTVSPropertyOp11
 70
     1
102
RTVSPropertyOp12
 70
     1
102
RTVSPropertyOp13
 70
     1
102
RTVSPropertyOp14
 70
     1
102
RTVSPropertyOp15
 70
     1
102
RTVSPropertyOp16
 70
     1
102
RTVSPropertyOp17
 70
     1
102
RTVSPropertyOp18
 70
     1
102
RTVSPropertyOp19
 70
     1
102
RTVSPropertyOp20
 70
     1
102
RTVSPropertyOp21
 70
     1
102
RTVSPropertyOp22
 70
     1
102
RTVSPropertyOp23
 70
     1
102
RTVSPropertyOp24
 70
     1
102
RTVSPropertyOp25
 70
     1
102
RTVSPropertyOp26
 70
     1
102
RTVSPropertyOp27
 70
     1
102
RTVSPropertyOp28
 70
     1
102
RTVSPropertyOp29
 70
     1
102
RTVSPropertyOp30
 70
     1
102
RTVSPropertyOp31
 70
     1
102
RTVSPropertyOp32
 70
     1
  0
XRECORD
  5
1B45
102
{ACAD_REACTORS
330
1B44
102
}
330
1B44
100
AcDbXrecord
280
     1
102
RTVSPropertyOp0
 70
     1
102
RTVSPropertyOp1
 70
     1
102
RTVSPropertyOp2
 70
     1
102
RTVSPropertyOp3
 70
     1
102
RTVSPropertyOp4
 70
     1
102
RTVSPropertyOp5
 70
     1
102
RTVSPropertyOp6
 70
     1
102
RTVSPropertyOp7
 70
     1
102
RTVSPropertyOp8
 70
     1
102
RTVSPropertyOp9
 70
     1
102
RTVSPropertyOp10
 70
     1
102
RTVSPropertyOp11
 70
     1
102
RTVSPropertyOp12
 70
     1
102
RTVSPropertyOp13
 70
     1
102
RTVSPropertyOp14
 70
     1
102
RTVSPropertyOp15
 70
     1
102
RTVSPropertyOp16
 70
     1
102
RTVSPropertyOp17
 70
     1
102
RTVSPropertyOp18
 70
     1
102
RTVSPropertyOp19
 70
     1
102
RTVSPropertyOp20
 70
     1
102
RTVSPropertyOp21
 70
     1
102
RTVSPropertyOp22
 70
     1
102
RTVSPropertyOp23
 70
     1
102
RTVSPropertyOp24
 70
     1
102
RTVSPropertyOp25
 70
     1
102
RTVSPropertyOp26
 70
     1
102
RTVSPropertyOp27
 70
     1
102
RTVSPropertyOp28
 70
     1
102
RTVSPropertyOp29
 70
     1
102
RTVSPropertyOp30
 70
     1
102
RTVSPropertyOp31
 70
     1
102
RTVSPropertyOp32
 70
     1
  0
XRECORD
  5
1B47
102
{ACAD_REACTORS
330
1B46
102
}
330
1B46
100
AcDbXrecord
280
     1
102
RTVSPropertyOp0
 70
     1
102
RTVSPropertyOp1
 70
     1
102
RTVSPropertyOp2
 70
     1
102
RTVSPropertyOp3
 70
     1
102
RTVSPropertyOp4
 70
     1
102
RTVSPropertyOp5
 70
     1
102
RTVSPropertyOp6
 70
     1
102
RTVSPropertyOp7
 70
     1
102
RTVSPropertyOp8
 70
     1
102
RTVSPropertyOp9
 70
     1
102
RTVSPropertyOp10
 70
     1
102
RTVSPropertyOp11
 70
     1
102
RTVSPropertyOp12
 70
     1
102
RTVSPropertyOp13
 70
     1
102
RTVSPropertyOp14
 70
     1
102
RTVSPropertyOp15
 70
     1
102
RTVSPropertyOp16
 70
     1
102
RTVSPropertyOp17
 70
     1
102
RTVSPropertyOp18
 70
     1
102
RTVSPropertyOp19
 70
     1
102
RTVSPropertyOp20
 70
     1
102
RTVSPropertyOp21
 70
     1
102
RTVSPropertyOp22
 70
     1
102
RTVSPropertyOp23
 70
     1
102
RTVSPropertyOp24
 70
     1
102
RTVSPropertyOp25
 70
     1
102
RTVSPropertyOp26
 70
     1
102
RTVSPropertyOp27
 70
     1
102
RTVSPropertyOp28
 70
     1
102
RTVSPropertyOp29
 70
     1
102
RTVSPropertyOp30
 70
     1
102
RTVSPropertyOp31
 70
     1
102
RTVSPropertyOp32
 70
     1
  0
XRECORD
  5
1B34
102
{ACAD_REACTORS
330
1B33
102
}
330
1B33
100
AcDbXrecord
280
     1
102
RTVSPropertyOp0
 70
     1
102
RTVSPropertyOp1
 70
     1
102
RTVSPropertyOp2
 70
     1
102
RTVSPropertyOp3
 70
     1
102
RTVSPropertyOp4
 70
     1
102
RTVSPropertyOp5
 70
     1
102
RTVSPropertyOp6
 70
     1
102
RTVSPropertyOp7
 70
     1
102
RTVSPropertyOp8
 70
     1
102
RTVSPropertyOp9
 70
     1
102
RTVSPropertyOp10
 70
     1
102
RTVSPropertyOp11
 70
     1
102
RTVSPropertyOp12
 70
     1
102
RTVSPropertyOp13
 70
     1
102
RTVSPropertyOp14
 70
     1
102
RTVSPropertyOp15
 70
     1
102
RTVSPropertyOp16
 70
     1
102
RTVSPropertyOp17
 70
     1
102
RTVSPropertyOp18
 70
     1
102
RTVSPropertyOp19
 70
     1
102
RTVSPropertyOp20
 70
     1
102
RTVSPropertyOp21
 70
     1
102
RTVSPropertyOp22
 70
     1
102
RTVSPropertyOp23
 70
     1
102
RTVSPropertyOp24
 70
     1
102
RTVSPropertyOp25
 70
     1
102
RTVSPropertyOp26
 70
     1
102
RTVSPropertyOp27
 70
     1
102
RTVSPropertyOp28
 70
     1
102
RTVSPropertyOp29
 70
     1
102
RTVSPropertyOp30
 70
     1
102
RTVSPropertyOp31
 70
     1
102
RTVSPropertyOp32
 70
     1
  0
XRECORD
  5
1B41
102
{ACAD_REACTORS
330
1B40
102
}
330
1B40
100
AcDbXrecord
280
     1
102
RTVSPropertyOp0
 70
     1
102
RTVSPropertyOp1
 70
     1
102
RTVSPropertyOp2
 70
     1
102
RTVSPropertyOp3
 70
     1
102
RTVSPropertyOp4
 70
     1
102
RTVSPropertyOp5
 70
     1
102
RTVSPropertyOp6
 70
     1
102
RTVSPropertyOp7
 70
     1
102
RTVSPropertyOp8
 70
     1
102
RTVSPropertyOp9
 70
     1
102
RTVSPropertyOp10
 70
     1
102
RTVSPropertyOp11
 70
     1
102
RTVSPropertyOp12
 70
     1
102
RTVSPropertyOp13
 70
     1
102
RTVSPropertyOp14
 70
     1
102
RTVSPropertyOp15
 70
     1
102
RTVSPropertyOp16
 70
     1
102
RTVSPropertyOp17
 70
     1
102
RTVSPropertyOp18
 70
     1
102
RTVSPropertyOp19
 70
     1
102
RTVSPropertyOp20
 70
     1
102
RTVSPropertyOp21
 70
     1
102
RTVSPropertyOp22
 70
     1
102
RTVSPropertyOp23
 70
     1
102
RTVSPropertyOp24
 70
     1
102
RTVSPropertyOp25
 70
     1
102
RTVSPropertyOp26
 70
     1
102
RTVSPropertyOp27
 70
     1
102
RTVSPropertyOp28
 70
     1
102
RTVSPropertyOp29
 70
     1
102
RTVSPropertyOp30
 70
     1
102
RTVSPropertyOp31
 70
     1
102
RTVSPropertyOp32
 70
     1
  0
XRECORD
  5
1B49
102
{ACAD_REACTORS
330
1B48
102
}
330
1B48
100
AcDbXrecord
280
     1
102
RTVSPropertyOp0
 70
     1
102
RTVSPropertyOp1
 70
     1
102
RTVSPropertyOp2
 70
     1
102
RTVSPropertyOp3
 70
     1
102
RTVSPropertyOp4
 70
     1
102
RTVSPropertyOp5
 70
     1
102
RTVSPropertyOp6
 70
     1
102
RTVSPropertyOp7
 70
     1
102
RTVSPropertyOp8
 70
     1
102
RTVSPropertyOp9
 70
     1
102
RTVSPropertyOp10
 70
     1
102
RTVSPropertyOp11
 70
     1
102
RTVSPropertyOp12
 70
     1
102
RTVSPropertyOp13
 70
     1
102
RTVSPropertyOp14
 70
     1
102
RTVSPropertyOp15
 70
     1
102
RTVSPropertyOp16
 70
     1
102
RTVSPropertyOp17
 70
     1
102
RTVSPropertyOp18
 70
     1
102
RTVSPropertyOp19
 70
     1
102
RTVSPropertyOp20
 70
     1
102
RTVSPropertyOp21
 70
     1
102
RTVSPropertyOp22
 70
     1
102
RTVSPropertyOp23
 70
     1
102
RTVSPropertyOp24
 70
     1
102
RTVSPropertyOp25
 70
     1
102
RTVSPropertyOp26
 70
     1
102
RTVSPropertyOp27
 70
     1
102
RTVSPropertyOp28
 70
     1
102
RTVSPropertyOp29
 70
     1
102
RTVSPropertyOp30
 70
     1
102
RTVSPropertyOp31
 70
     1
102
RTVSPropertyOp32
 70
     1
  0
ENDSEC
  0
EOF
