  0
SECTION
  2
HEADER
  9
$ACADVER
  1
AC1015
  9
$ACADMAINTVER
 70
    20
  9
$DWGCODEPAGE
  3
ANSI_932
  9
$INSBASE
 10
0.0
 20
0.0
 30
0.0
  9
$EXTMIN
 10
1141.878385455605
 20
6.740120359848786
 30
0.0
  9
$EXTMAX
 10
1336.552130866389
 20
287.0864725062528
 30
0.0
  9
$LIMMIN
 10
0.0
 20
0.0
  9
$LIMMAX
 10
12.0
 20
9.0
  9
$ORTHOMODE
 70
     1
  9
$REGENMODE
 70
     1
  9
$FILLMODE
 70
     1
  9
$QTEXTMODE
 70
     0
  9
$MIRRTEXT
 70
     0
  9
$LTSCALE
 40
0.5
  9
$ATTMODE
 70
     1
  9
$TEXTSIZE
 40
3.2
  9
$TRACEWID
 40
0.05
  9
$TEXTSTYLE
  7
高3.2
  9
$CLAYER
  8
0
  9
$CELTYPE
  6
ByLayer
  9
$CECOLOR
 62
   256
  9
$CELTSCALE
 40
1.0
  9
$DISPSILH
 70
     0
  9
$DIMSCALE
 40
1.0
  9
$DIMASZ
 40
2.5
  9
$DIMEXO
 40
0.25
  9
$DIMDLI
 40
0.2
  9
$DIMRND
 40
0.0
  9
$DIMDLE
 40
0.0
  9
$DIMEXE
 40
1.25
  9
$DIMTP
 40
0.0
  9
$DIMTM
 40
0.0
  9
$DIMTXT
 40
3.0
  9
$DIMCEN
 40
0.0
  9
$DIMTSZ
 40
0.0
  9
$DIMTOL
 70
     0
  9
$DIMLIM
 70
     0
  9
$DIMTIH
 70
     0
  9
$DIMTOH
 70
     0
  9
$DIMSE1
 70
     0
  9
$DIMSE2
 70
     0
  9
$DIMTAD
 70
     3
  9
$DIMZIN
 70
     8
  9
$DIMBLK
  1
Open30
  9
$DIMASO
 70
     1
  9
$DIMSHO
 70
     1
  9
$DIMPOST
  1

  9
$DIMAPOST
  1

  9
$DIMALT
 70
     0
  9
$DIMALTD
 70
     3
  9
$DIMALTF
 40
0.03937007874016
  9
$DIMLFAC
 40
1.0
  9
$DIMTOFL
 70
     1
  9
$DIMTVP
 40
0.0
  9
$DIMTIX
 70
     0
  9
$DIMSOXD
 70
     0
  9
$DIMSAH
 70
     0
  9
$DIMBLK1
  1

  9
$DIMBLK2
  1

  9
$DIMSTYLE
  2
1：1
  9
$DIMCLRD
 70
     0
  9
$DIMCLRE
 70
     0
  9
$DIMCLRT
 70
     4
  9
$DIMTFAC
 40
1.0
  9
$DIMGAP
 40
0.625
  9
$DIMJUST
 70
     0
  9
$DIMSD1
 70
     0
  9
$DIMSD2
 70
     0
  9
$DIMTOLJ
 70
     0
  9
$DIMTZIN
 70
     8
  9
$DIMALTZ
 70
     0
  9
$DIMALTTZ
 70
     0
  9
$DIMUPT
 70
     1
  9
$DIMDEC
 70
     2
  9
$DIMTDEC
 70
     2
  9
$DIMALTU
 70
     2
  9
$DIMALTTD
 70
     3
  9
$DIMTXSTY
  7
Standard
  9
$DIMAUNIT
 70
     0
  9
$DIMADEC
 70
     1
  9
$DIMALTRND
 40
0.0
  9
$DIMAZIN
 70
     2
  9
$DIMDSEP
 70
    46
  9
$DIMATFIT
 70
     0
  9
$DIMFRAC
 70
     0
  9
$DIMLDRBLK
  1
Open30
  9
$DIMLUNIT
 70
     2
  9
$DIMLWD
 70
    -2
  9
$DIMLWE
 70
    -2
  9
$DIMTMOVE
 70
     0
  9
$LUNITS
 70
     2
  9
$LUPREC
 70
     4
  9
$SKETCHINC
 40
0.1
  9
$FILLETRAD
 40
0.0
  9
$AUNITS
 70
     0
  9
$AUPREC
 70
     0
  9
$MENU
  1
.
  9
$ELEVATION
 40
0.0
  9
$PELEVATION
 40
0.0
  9
$THICKNESS
 40
0.0
  9
$LIMCHECK
 70
     0
  9
$CHAMFERA
 40
0.0
  9
$CHAMFERB
 40
0.0
  9
$CHAMFERC
 40
0.0
  9
$CHAMFERD
 40
0.0
  9
$SKPOLY
 70
     0
  9
$TDCREATE
 40
2459543.579464456
  9
$TDUCREATE
 40
2459543.204464456
  9
$TDUPDATE
 40
2459543.666659687
  9
$TDUUPDATE
 40
2459543.291659688
  9
$TDINDWG
 40
0.0870346412
  9
$TDUSRTIMER
 40
0.0870344444
  9
$USRTIMER
 70
     1
  9
$ANGBASE
 50
0.0
  9
$ANGDIR
 70
     0
  9
$PDMODE
 70
     0
  9
$PDSIZE
 40
0.0
  9
$PLINEWID
 40
0.0
  9
$SPLFRAME
 70
     0
  9
$SPLINETYPE
 70
     6
  9
$SPLINESEGS
 70
     8
  9
$HANDSEED
  5
1986
  9
$SURFTAB1
 70
     6
  9
$SURFTAB2
 70
     6
  9
$SURFTYPE
 70
     6
  9
$SURFU
 70
     6
  9
$SURFV
 70
     6
  9
$UCSBASE
  2

  9
$UCSNAME
  2

  9
$UCSORG
 10
0.0
 20
0.0
 30
0.0
  9
$UCSXDIR
 10
1.0
 20
0.0
 30
0.0
  9
$UCSYDIR
 10
0.0
 20
1.0
 30
0.0
  9
$UCSORTHOREF
  2

  9
$UCSORTHOVIEW
 70
     0
  9
$UCSORGTOP
 10
0.0
 20
0.0
 30
0.0
  9
$UCSORGBOTTOM
 10
0.0
 20
0.0
 30
0.0
  9
$UCSORGLEFT
 10
0.0
 20
0.0
 30
0.0
  9
$UCSORGRIGHT
 10
0.0
 20
0.0
 30
0.0
  9
$UCSORGFRONT
 10
0.0
 20
0.0
 30
0.0
  9
$UCSORGBACK
 10
0.0
 20
0.0
 30
0.0
  9
$PUCSBASE
  2

  9
$PUCSNAME
  2

  9
$PUCSORG
 10
0.0
 20
0.0
 30
0.0
  9
$PUCSXDIR
 10
1.0
 20
0.0
 30
0.0
  9
$PUCSYDIR
 10
0.0
 20
1.0
 30
0.0
  9
$PUCSORTHOREF
  2

  9
$PUCSORTHOVIEW
 70
     0
  9
$PUCSORGTOP
 10
0.0
 20
0.0
 30
0.0
  9
$PUCSORGBOTTOM
 10
0.0
 20
0.0
 30
0.0
  9
$PUCSORGLEFT
 10
0.0
 20
0.0
 30
0.0
  9
$PUCSORGRIGHT
 10
0.0
 20
0.0
 30
0.0
  9
$PUCSORGFRONT
 10
0.0
 20
0.0
 30
0.0
  9
$PUCSORGBACK
 10
0.0
 20
0.0
 30
0.0
  9
$USERI1
 70
     0
  9
$USERI2
 70
     0
  9
$USERI3
 70
     0
  9
$USERI4
 70
     0
  9
$USERI5
 70
     0
  9
$USERR1
 40
0.0
  9
$USERR2
 40
0.0
  9
$USERR3
 40
0.0
  9
$USERR4
 40
0.0
  9
$USERR5
 40
0.0
  9
$WORLDVIEW
 70
     1
  9
$SHADEDGE
 70
     3
  9
$SHADEDIF
 70
    70
  9
$TILEMODE
 70
     1
  9
$MAXACTVP
 70
    64
  9
$PINSBASE
 10
0.0
 20
0.0
 30
0.0
  9
$PLIMCHECK
 70
     0
  9
$PEXTMIN
 10
0.0
 20
0.0
 30
0.0
  9
$PEXTMAX
 10
0.0
 20
0.0
 30
0.0
  9
$PLIMMIN
 10
0.0
 20
0.0
  9
$PLIMMAX
 10
12.0
 20
9.0
  9
$UNITMODE
 70
     0
  9
$VISRETAIN
 70
     1
  9
$PLINEGEN
 70
     0
  9
$PSLTSCALE
 70
     1
  9
$TREEDEPTH
 70
  3020
  9
$CMLSTYLE
  2
Standard
  9
$CMLJUST
 70
     0
  9
$CMLSCALE
 40
1.0
  9
$PROXYGRAPHICS
 70
     1
  9
$MEASUREMENT
 70
     1
  9
$CELWEIGHT
370
    -1
  9
$ENDCAPS
280
     0
  9
$JOINSTYLE
280
     0
  9
$LWDISPLAY
290
     0
  9
$INSUNITS
 70
     1
  9
$HYPERLINKBASE
  1

  9
$STYLESHEET
  1

  9
$XEDIT
290
     1
  9
$CEPSNTYPE
380
     0
  9
$PSTYLEMODE
290
     1
  9
$FINGERPRINTGUID
  2
{B962060C-2E64-47F3-B77F-D65991D3B971}
  9
$VERSIONGUID
  2
{10DC0878-8809-4BCF-8B40-6D4074766712}
  9
$EXTNAMES
290
     1
  9
$PSVPSCALE
 40
0.0
  9
$OLESTARTUP
290
     0
  0
ENDSEC
  0
SECTION
  2
CLASSES
  0
CLASS
  1
ACDBDICTIONARYWDFLT
  2
AcDbDictionaryWithDefault
  3
ObjectDBX Classes
 90
        0
280
     0
281
     0
  0
CLASS
  1
ACDBPLACEHOLDER
  2
AcDbPlaceHolder
  3
ObjectDBX Classes
 90
        0
280
     0
281
     0
  0
CLASS
  1
LAYOUT
  2
AcDbLayout
  3
ObjectDBX Classes
 90
        0
280
     0
281
     0
  0
CLASS
  1
DICTIONARYVAR
  2
AcDbDictionaryVar
  3
ObjectDBX Classes
 90
        0
280
     0
281
     0
  0
CLASS
  1
TABLESTYLE
  2
AcDbTableStyle
  3
ObjectDBX Classes
 90
     4095
280
     0
281
     0
  0
CLASS
  1
MATERIAL
  2
AcDbMaterial
  3
ObjectDBX Classes
 90
     1153
280
     0
281
     0
  0
CLASS
  1
VISUALSTYLE
  2
AcDbVisualStyle
  3
ObjectDBX Classes
 90
     4095
280
     0
281
     0
  0
CLASS
  1
SORTENTSTABLE
  2
AcDbSortentsTable
  3
ObjectDBX Classes
 90
        0
280
     0
281
     0
  0
CLASS
  1
DIMASSOC
  2
AcDbDimAssoc
  3
"AcDbDimAssoc|Product Desc:     AcDim ARX App For Dimension|Company:          Autodesk, Inc.|WEB Address:      www.autodesk.com"
 90
    32768
280
     0
281
     0
  0
CLASS
  1
SCALE
  2
AcDbScale
  3
ObjectDBX Classes
 90
     1153
280
     0
281
     0
  0
CLASS
  1
MLEADERSTYLE
  2
AcDbMLeaderStyle
  3
ACDB_MLEADERSTYLE_CLASS
 90
     4095
280
     0
281
     0
  0
CLASS
  1
CELLSTYLEMAP
  2
AcDbCellStyleMap
  3
ObjectDBX Classes
 90
     1152
280
     0
281
     0
  0
CLASS
  1
AEC_REFEDIT_STATUS_TRACKER
  2
AecDbRefEditStatusTracker
  3
AecArchBase60|Product Desc: Autodesk Architectural Desktop 2007 |Company: Autodesk,Inc. |WEB Address: www.autodesk.com
 90
      129
280
     0
281
     0
  0
CLASS
  1
NPOCOLLECTION
  2
AcDbImpNonPersistentObjectsCollection
  3
ObjectDBX Classes
 90
     1153
280
     0
281
     0
  0
ENDSEC
  0
SECTION
  2
TABLES
  0
TABLE
  2
VPORT
  5
8
102
{ACAD_XDICTIONARY
360
829
102
}
330
0
100
AcDbSymbolTable
 70
     1
  0
VPORT
  5
94
330
8
100
AcDbSymbolTableRecord
100
AcDbViewportTableRecord
  2
*Active
 70
     0
 10
0.0
 20
0.0
 11
1.0
 21
1.0
 12
1208.270878451674
 22
127.0563948026695
 13
0.0
 23
0.0
 14
0.5
 24
0.5
 15
0.5
 25
0.5
 16
0.0
 26
0.0
 36
1.0
 17
0.0
 27
0.0
 37
0.0
 40
449.993482669201
 41
1.077743902439024
 42
50.0
 43
0.0
 44
0.0
 50
0.0
 51
0.0
 71
     0
 72
  1000
 73
     1
 74
     2
 75
     0
 76
     0
 77
     0
 78
     0
281
     0
 65
     1
110
0.0
120
0.0
130
0.0
111
1.0
121
0.0
131
0.0
112
0.0
122
1.0
132
0.0
 79
     0
146
0.0
  0
ENDTAB
  0
TABLE
  2
LTYPE
  5
5
330
0
100
AcDbSymbolTable
 70
     5
  0
LTYPE
  5
14
330
5
100
AcDbSymbolTableRecord
100
AcDbLinetypeTableRecord
  2
ByBlock
 70
     0
  3

 72
    65
 73
     0
 40
0.0
  0
LTYPE
  5
15
330
5
100
AcDbSymbolTableRecord
100
AcDbLinetypeTableRecord
  2
ByLayer
 70
     0
  3

 72
    65
 73
     0
 40
0.0
  0
LTYPE
  5
16
330
5
100
AcDbSymbolTableRecord
100
AcDbLinetypeTableRecord
  2
Continuous
 70
     0
  3
Solid line
 72
    65
 73
     0
 40
0.0
  0
LTYPE
  5
148
330
5
100
AcDbSymbolTableRecord
100
AcDbLinetypeTableRecord
  2
CENTER
 70
     0
  3
Center ____ _ ____ _ ____ _ ____ _ ____ _ ____
 72
    65
 73
     4
 40
50.8
 49
31.75
 74
     0
 49
-6.349999999999998
 74
     0
 49
6.349999999999998
 74
     0
 49
-6.349999999999998
 74
     0
  0
LTYPE
  5
149
330
5
100
AcDbSymbolTableRecord
100
AcDbLinetypeTableRecord
  2
HIDDEN
 70
     0
  3
Hidden __ __ __ __ __ __ __ __ __ __ __ __ __ __
 72
    65
 73
     2
 40
9.524999999999996
 49
6.349999999999998
 74
     0
 49
-3.174999999999998
 74
     0
  0
LTYPE
  5
14A
330
5
100
AcDbSymbolTableRecord
100
AcDbLinetypeTableRecord
  2
PHANTOM
 70
     0
  3
Phantom ______  __  __  ______  __  __  ______
 72
    65
 73
     6
 40
63.5
 49
31.75
 74
     0
 49
-6.349999999999998
 74
     0
 49
6.349999999999998
 74
     0
 49
-6.349999999999998
 74
     0
 49
6.349999999999998
 74
     0
 49
-6.349999999999998
 74
     0
  0
ENDTAB
  0
TABLE
  2
LAYER
  5
2
102
{ACAD_XDICTIONARY
360
DD
102
}
330
0
100
AcDbSymbolTable
 70
     2
  0
LAYER
  5
10
102
{ACAD_XDICTIONARY
360
81D
102
}
330
2
100
AcDbSymbolTableRecord
100
AcDbLayerTableRecord
  2
0
 70
     0
 62
     7
  6
Continuous
370
    -3
390
F
  0
LAYER
  5
D8
330
2
100
AcDbSymbolTableRecord
100
AcDbLayerTableRecord
  2
Defpoints
 70
     0
 62
     7
  6
Continuous
290
     0
370
    -3
390
F
  0
ENDTAB
  0
TABLE
  2
STYLE
  5
3
330
0
100
AcDbSymbolTable
 70
     6
  0
STYLE
  5
11
330
3
100
AcDbSymbolTableRecord
100
AcDbTextStyleTableRecord
  2
Standard
 70
     0
 40
0.0
 41
1.0
 50
0.0
 71
     0
 42
0.2
  3
txt.shx
  4
bigfont.shx
  0
STYLE
  5
11D
330
3
100
AcDbSymbolTableRecord
100
AcDbTextStyleTableRecord
  2
高3.2
 70
     0
 40
3.2
 41
1.0
 50
0.0
 71
     0
 42
3.2
  3
txt.shx
  4
bigfont.shx
  0
STYLE
  5
11E
330
3
100
AcDbSymbolTableRecord
100
AcDbTextStyleTableRecord
  2
高6.3
 70
     0
 40
6.299999999999998
 41
1.0
 50
0.0
 71
     0
 42
6.299999999999998
  3
txt.shx
  4
bigfont.shx
  0
STYLE
  5
11F
330
3
100
AcDbSymbolTableRecord
100
AcDbTextStyleTableRecord
  2
高2.5
 70
     0
 40
2.5
 41
1.0
 50
0.0
 71
     0
 42
0.2
  3
txt.shx
  4
bigfont.shx
  0
STYLE
  5
146
330
3
100
AcDbSymbolTableRecord
100
AcDbTextStyleTableRecord
  2
高4.5
 70
     0
 40
4.5
 41
1.0
 50
0.0
 71
     0
 42
6.299999999999998
  3
txt.shx
  4
bigfont.shx
  0
STYLE
  5
171
330
3
100
AcDbSymbolTableRecord
100
AcDbTextStyleTableRecord
  2
高2
 70
     0
 40
2.0
 41
1.0
 50
0.0
 71
     0
 42
6.299999999999998
  3
txt.shx
  4
bigfont.shx
  0
ENDTAB
  0
TABLE
  2
VIEW
  5
6
330
0
100
AcDbSymbolTable
 70
     0
  0
ENDTAB
  0
TABLE
  2
UCS
  5
7
330
0
100
AcDbSymbolTable
 70
     0
  0
ENDTAB
  0
TABLE
  2
APPID
  5
9
330
0
100
AcDbSymbolTable
 70
    10
  0
APPID
  5
12
330
9
100
AcDbSymbolTableRecord
100
AcDbRegAppTableRecord
  2
ACAD
 70
     0
  0
APPID
  5
DC
330
9
100
AcDbSymbolTableRecord
100
AcDbRegAppTableRecord
  2
ACAD_DSTYLE_DIMJOGGED_JOGANGLE_SYMBOL
 70
     0
  0
APPID
  5
566
330
9
100
AcDbSymbolTableRecord
100
AcDbRegAppTableRecord
  2
ACAD_EXEMPT_FROM_CAD_STANDARDS
 70
     0
  0
APPID
  5
647
330
9
100
AcDbSymbolTableRecord
100
AcDbRegAppTableRecord
  2
ACAD_DSTYLE_DIMJAG
 70
     0
  0
APPID
  5
648
330
9
100
AcDbSymbolTableRecord
100
AcDbRegAppTableRecord
  2
ACAD_DSTYLE_DIMBREAK
 70
     0
  0
APPID
  5
649
330
9
100
AcDbSymbolTableRecord
100
AcDbRegAppTableRecord
  2
ACAD_DSTYLE_DIMTALN
 70
     0
  0
APPID
  5
858
330
9
100
AcDbSymbolTableRecord
100
AcDbRegAppTableRecord
  2
ACAD_DSTYLE_DIMARC_LENGTH_SYMBOL
 70
     0
  0
APPID
  5
859
330
9
100
AcDbSymbolTableRecord
100
AcDbRegAppTableRecord
  2
ACAD_DSTYLE_DIMEXT_LENGTH
 70
     0
  0
APPID
  5
86E
330
9
100
AcDbSymbolTableRecord
100
AcDbRegAppTableRecord
  2
ACAD_MLEADERVER
 70
     0
  0
APPID
  5
C1C
330
9
100
AcDbSymbolTableRecord
100
AcDbRegAppTableRecord
  2
ACAD_PSEXT
 70
     0
  0
ENDTAB
  0
TABLE
  2
DIMSTYLE
  5
A
330
0
100
AcDbSymbolTable
 70
    12
100
AcDbDimStyleTable
 71
     5
340
D9
340
DB
340
DA
340
127
340
129
  0
DIMSTYLE
105
D9
330
A
100
AcDbSymbolTableRecord
100
AcDbDimStyleTableRecord
  2
1：1
 70
     0
 41
2.5
 42
0.25
 43
0.2
 44
1.25
 73
     0
 74
     0
 77
     3
 78
     8
 79
     2
140
3.0
141
0.0
143
0.03937007874016
147
0.625
171
     3
172
     1
178
     4
179
     1
271
     2
272
     2
274
     3
283
     0
284
     8
288
     1
289
     0
340
11
341
C6
342
C6
1001
ACAD_DSTYLE_DIMARC_LENGTH_SYMBOL
1070
   379
1070
     2
1001
ACAD_DSTYLE_DIMEXT_LENGTH
1070
   378
1040
1.25
1001
ACAD_DSTYLE_DIMJOGGED_JOGANGLE_SYMBOL
1070
   384
1040
1.570796326794896
  0
DIMSTYLE
105
DA
330
A
100
AcDbSymbolTableRecord
100
AcDbDimStyleTableRecord
  2
2：1
 70
     0
 41
2.5
 42
0.25
 43
0.2
 44
1.25
 73
     0
 74
     0
 77
     3
 78
     8
 79
     2
140
3.0
141
0.0
143
0.03937007874016
144
0.5
147
0.625
171
     3
172
     1
178
     4
179
     1
271
     2
272
     2
274
     3
283
     0
284
     8
288
     1
289
     0
340
11
341
C6
342
C6
1001
ACAD_DSTYLE_DIMARC_LENGTH_SYMBOL
1070
   379
1070
     2
1001
ACAD_DSTYLE_DIMEXT_LENGTH
1070
   378
1040
1.25
1001
ACAD_DSTYLE_DIMJOGGED_JOGANGLE_SYMBOL
1070
   384
1040
1.570796326794896
  0
DIMSTYLE
105
DB
330
A
100
AcDbSymbolTableRecord
100
AcDbDimStyleTableRecord
  2
5：1
 70
     0
 41
2.5
 42
0.25
 43
0.2
 44
1.25
 73
     0
 74
     0
 77
     3
 78
     8
 79
     2
140
3.0
141
0.0
143
0.03937007874016
144
0.2
147
0.625
171
     3
172
     1
178
     4
179
     1
271
     2
272
     2
274
     3
283
     0
284
     8
288
     1
289
     0
340
11
341
C6
342
C6
1001
ACAD_DSTYLE_DIMARC_LENGTH_SYMBOL
1070
   379
1070
     2
1001
ACAD_DSTYLE_DIMEXT_LENGTH
1070
   378
1040
1.25
1001
ACAD_DSTYLE_DIMJOGGED_JOGANGLE_SYMBOL
1070
   384
1040
1.570796326794896
  0
DIMSTYLE
105
127
330
A
100
AcDbSymbolTableRecord
100
AcDbDimStyleTableRecord
  2
10：1
 70
     0
 41
2.5
 42
0.25
 43
0.2
 44
1.25
 73
     0
 74
     0
 77
     3
 78
     8
 79
     2
140
3.0
141
0.0
143
0.03937007874016
144
0.1
147
0.625
171
     3
172
     1
178
     4
179
     1
271
     2
272
     2
274
     3
283
     0
284
     8
288
     1
289
     0
340
11
341
C6
342
C6
1001
ACAD_DSTYLE_DIMARC_LENGTH_SYMBOL
1070
   379
1070
     2
1001
ACAD_DSTYLE_DIMEXT_LENGTH
1070
   378
1040
1.25
1001
ACAD_DSTYLE_DIMJOGGED_JOGANGLE_SYMBOL
1070
   384
1040
1.570796326794896
  0
DIMSTYLE
105
128
330
A
100
AcDbSymbolTableRecord
100
AcDbDimStyleTableRecord
  2
1／2
 70
     0
 41
2.5
 42
0.25
 43
0.2
 44
1.25
 73
     0
 74
     0
 77
     3
 78
     8
 79
     2
140
3.0
141
0.0
143
0.03937007874016
144
2.0
147
0.625
171
     3
172
     1
178
     4
179
     1
271
     2
272
     2
274
     3
283
     0
284
     8
288
     1
289
     0
340
11
341
C6
342
C6
1001
ACAD_DSTYLE_DIMARC_LENGTH_SYMBOL
1070
   379
1070
     2
1001
ACAD_DSTYLE_DIMEXT_LENGTH
1070
   378
1040
1.25
1001
ACAD_DSTYLE_DIMJOGGED_JOGANGLE_SYMBOL
1070
   384
1040
1.570796326794896
  0
DIMSTYLE
105
129
330
A
100
AcDbSymbolTableRecord
100
AcDbDimStyleTableRecord
  2
1／5
 70
     0
 41
2.5
 42
0.25
 43
0.2
 44
1.25
 73
     0
 74
     0
 77
     3
 78
     8
 79
     2
140
3.0
141
0.0
143
0.03937007874016
144
5.0
147
0.625
171
     3
172
     1
178
     4
179
     1
271
     2
272
     2
274
     3
283
     0
284
     8
288
     1
289
     0
340
11
341
C6
342
C6
1001
ACAD_DSTYLE_DIMARC_LENGTH_SYMBOL
1070
   379
1070
     2
1001
ACAD_DSTYLE_DIMEXT_LENGTH
1070
   378
1040
1.25
1001
ACAD_DSTYLE_DIMJOGGED_JOGANGLE_SYMBOL
1070
   384
1040
1.570796326794896
  0
DIMSTYLE
105
12A
330
A
100
AcDbSymbolTableRecord
100
AcDbDimStyleTableRecord
  2
1／10
 70
     0
 41
2.5
 42
0.25
 43
0.2
 44
1.25
 73
     0
 74
     0
 77
     3
 78
     8
 79
     2
140
3.0
141
0.0
143
0.03937007874016
144
10.0
147
0.625
171
     3
172
     1
178
     4
179
     1
271
     2
272
     2
274
     3
283
     0
284
     8
288
     1
289
     0
340
11
341
C6
342
C6
1001
ACAD_DSTYLE_DIMARC_LENGTH_SYMBOL
1070
   379
1070
     2
1001
ACAD_DSTYLE_DIMEXT_LENGTH
1070
   378
1040
1.25
1001
ACAD_DSTYLE_DIMJOGGED_JOGANGLE_SYMBOL
1070
   384
1040
1.570796326794896
  0
DIMSTYLE
105
644
330
A
100
AcDbSymbolTableRecord
100
AcDbDimStyleTableRecord
  2
1／4
 70
     0
 41
2.5
 42
0.25
 43
0.2
 44
1.25
 73
     0
 74
     0
 77
     3
 78
     8
 79
     2
140
3.0
141
0.0
143
0.03937007874016
144
4.0
147
0.625
171
     3
172
     1
178
     4
179
     1
271
     2
272
     2
274
     3
283
     0
284
     8
288
     1
289
     0
340
11
341
C6
342
C6
1001
ACAD_DSTYLE_DIMARC_LENGTH_SYMBOL
1070
   379
1070
     2
1001
ACAD_DSTYLE_DIMEXT_LENGTH
1070
   378
1040
1.25
1001
ACAD_DSTYLE_DIMJOGGED_JOGANGLE_SYMBOL
1070
   384
1040
1.570796326794896
  0
DIMSTYLE
105
645
330
A
100
AcDbSymbolTableRecord
100
AcDbDimStyleTableRecord
  2
1／3
 70
     0
 41
2.5
 42
0.25
 43
0.2
 44
1.25
 73
     0
 74
     0
 77
     3
 78
     8
 79
     2
140
3.0
141
0.0
143
0.03937007874016
144
3.0
147
0.625
171
     3
172
     1
178
     4
179
     1
271
     2
272
     2
274
     3
283
     0
284
     8
288
     1
289
     0
340
11
341
C6
342
C6
1001
ACAD_DSTYLE_DIMARC_LENGTH_SYMBOL
1070
   379
1070
     2
1001
ACAD_DSTYLE_DIMEXT_LENGTH
1070
   378
1040
1.25
1001
ACAD_DSTYLE_DIMJOGGED_JOGANGLE_SYMBOL
1070
   384
1040
1.570796326794896
  0
DIMSTYLE
105
646
330
A
100
AcDbSymbolTableRecord
100
AcDbDimStyleTableRecord
  2
FREE
 70
     0
 41
2.5
 42
0.25
 43
0.2
 44
1.25
 73
     0
 74
     0
 77
     3
 78
     8
 79
     2
140
3.0
141
0.0
143
0.03937007874016
147
0.625
171
     3
172
     1
178
     4
179
     1
271
     2
272
     2
274
     3
283
     0
284
     8
288
     1
289
     0
340
11
341
C6
342
C6
1001
ACAD_DSTYLE_DIMBREAK
1070
   391
1040
3.75
1001
ACAD_DSTYLE_DIMJAG
1070
   388
1040
1.5
1001
ACAD_DSTYLE_DIMTALN
1070
   392
1070
     0
1001
ACAD_DSTYLE_DIMARC_LENGTH_SYMBOL
1070
   379
1070
     2
1001
ACAD_DSTYLE_DIMEXT_LENGTH
1070
   378
1040
1.25
1001
ACAD_DSTYLE_DIMJOGGED_JOGANGLE_SYMBOL
1070
   384
1040
1.570796326794896
  0
DIMSTYLE
105
C1B
330
A
100
AcDbSymbolTableRecord
100
AcDbDimStyleTableRecord
  2
Standard
 70
     0
340
11
  0
DIMSTYLE
105
1438
330
A
100
AcDbSymbolTableRecord
100
AcDbDimStyleTableRecord
  2
ISO-25
 70
     0
 41
2.5
 42
0.625
 43
3.75
 44
1.25
 73
     0
 74
     0
 77
     1
 78
     8
140
2.5
141
2.5
143
0.03937007874016
147
0.625
171
     3
172
     1
271
     2
272
     2
274
     3
278
    44
283
     0
284
     8
340
11
  0
ENDTAB
  0
TABLE
  2
BLOCK_RECORD
  5
1
330
0
100
AcDbSymbolTable
 70
    12
  0
BLOCK_RECORD
  5
1F
102
{ACAD_XDICTIONARY
360
31A
102
}
330
1
100
AcDbSymbolTableRecord
100
AcDbBlockTableRecord
  2
*Model_Space
340
22
  0
BLOCK_RECORD
  5
58
330
1
100
AcDbSymbolTableRecord
100
AcDbBlockTableRecord
  2
*Paper_Space
340
59
  0
BLOCK_RECORD
  5
5D
330
1
100
AcDbSymbolTableRecord
100
AcDbBlockTableRecord
  2
*Paper_Space0
340
5E
  0
BLOCK_RECORD
  5
C6
330
1
100
AcDbSymbolTableRecord
100
AcDbBlockTableRecord
  2
_Open30
340
0
102
{BLKREFS
331
13DC
331
13DD
331
13F8
331
13F9
331
141A
331
141B
331
1431
331
1432
331
168F
331
1690
331
1814
331
1815
331
181D
331
181E
331
1826
331
1827
331
182F
331
1830
331
1838
331
1839
102
}
  0
BLOCK_RECORD
  5
FC8
330
1
100
AcDbSymbolTableRecord
100
AcDbBlockTableRecord
  2
*D2
340
0
  0
BLOCK_RECORD
  5
FD4
330
1
100
AcDbSymbolTableRecord
100
AcDbBlockTableRecord
  2
*D3
340
0
  0
BLOCK_RECORD
  5
FE0
330
1
100
AcDbSymbolTableRecord
100
AcDbBlockTableRecord
  2
*D4
340
0
  0
BLOCK_RECORD
  5
FEC
330
1
100
AcDbSymbolTableRecord
100
AcDbBlockTableRecord
  2
*D5
340
0
  0
BLOCK_RECORD
  5
FF8
330
1
100
AcDbSymbolTableRecord
100
AcDbBlockTableRecord
  2
*D6
340
0
  0
BLOCK_RECORD
  5
13CC
330
1
100
AcDbSymbolTableRecord
100
AcDbBlockTableRecord
  2
*D7
340
0
  0
BLOCK_RECORD
  5
13E4
330
1
100
AcDbSymbolTableRecord
100
AcDbBlockTableRecord
  2
*D8
340
0
  0
BLOCK_RECORD
  5
1400
330
1
100
AcDbSymbolTableRecord
100
AcDbBlockTableRecord
  2
*D9
340
0
  0
BLOCK_RECORD
  5
1421
330
1
100
AcDbSymbolTableRecord
100
AcDbBlockTableRecord
  2
*D10
340
0
  0
BLOCK_RECORD
  5
166A
330
1
100
AcDbSymbolTableRecord
100
AcDbBlockTableRecord
  2
*D11
340
0
  0
ENDTAB
  0
ENDSEC
  0
SECTION
  2
BLOCKS
  0
BLOCK
  5
20
330
1F
100
AcDbEntity
  8
0
100
AcDbBlockBegin
  2
*Model_Space
 70
     0
 10
0.0
 20
0.0
 30
0.0
  3
*Model_Space
  1

  0
ENDBLK
  5
21
330
1F
100
AcDbEntity
  8
0
100
AcDbBlockEnd
  0
BLOCK
  5
5A
330
58
100
AcDbEntity
 67
     1
  8
0
100
AcDbBlockBegin
  2
*Paper_Space
 70
     0
 10
0.0
 20
0.0
 30
0.0
  3
*Paper_Space
  1

  0
ENDBLK
  5
5B
330
58
100
AcDbEntity
 67
     1
  8
0
100
AcDbBlockEnd
  0
BLOCK
  5
5F
330
5D
100
AcDbEntity
 67
     1
  8
0
100
AcDbBlockBegin
  2
*Paper_Space0
 70
     0
 10
0.0
 20
0.0
 30
0.0
  3
*Paper_Space0
  1

  0
ENDBLK
  5
60
330
5D
100
AcDbEntity
 67
     1
  8
0
100
AcDbBlockEnd
  0
BLOCK
  5
C7
330
C6
100
AcDbEntity
  8
0
100
AcDbBlockBegin
  2
_Open30
 70
     0
 10
0.0
 20
0.0
 30
0.0
  3
_Open30
  1

  0
LINE
  5
C8
330
C6
100
AcDbEntity
  8
0
  6
ByBlock
 62
     0
370
    -2
100
AcDbLine
 10
-1.0
 20
0.267949
 30
0.0
 11
0.0
 21
0.0
 31
0.0
  0
LINE
  5
C9
330
C6
100
AcDbEntity
  8
0
  6
ByBlock
 62
     0
370
    -2
100
AcDbLine
 10
0.0
 20
0.0
 30
0.0
 11
-1.0
 21
-0.267949
 31
0.0
  0
LINE
  5
CA
330
C6
100
AcDbEntity
  8
0
  6
ByBlock
 62
     0
370
    -2
100
AcDbLine
 10
0.0
 20
0.0
 30
0.0
 11
-1.0
 21
0.0
 31
0.0
  0
ENDBLK
  5
CB
330
C6
100
AcDbEntity
  8
0
100
AcDbBlockEnd
  0
BLOCK
  5
FC9
330
FC8
100
AcDbEntity
  8
0
100
AcDbBlockBegin
  2
*D2
 70
     1
 10
0.0
 20
0.0
 30
0.0
  3
*D2
  1

  0
LINE
  5
1835
330
FC8
100
AcDbEntity
  8
0
 62
     0
370
    -2
100
AcDbLine
 10
1210.076915345592
 20
88.14204535984869
 30
0.0
 11
1166.023533607393
 21
88.1420453598487
 31
0.0
  0
LINE
  5
1836
330
FC8
100
AcDbEntity
  8
0
 62
     0
370
    -2
100
AcDbLine
 10
1187.776915345592
 20
233.6420453598487
 30
0.0
 11
1166.023533607393
 21
233.6420453598487
 31
0.0
  0
LINE
  5
1837
330
FC8
100
AcDbEntity
  8
0
 62
     0
370
    -2
100
AcDbLine
 10
1167.273533607393
 20
90.6420453598487
 30
0.0
 11
1167.273533607393
 21
231.1420453598487
 31
0.0
  0
INSERT
  5
1838
330
FC8
100
AcDbEntity
  8
0
 62
     0
370
    -2
100
AcDbBlockReference
  2
_Open30
 10
1167.273533607393
 20
88.1420453598487
 30
0.0
 41
2.5
 42
2.5
 43
2.5
 50
270.0
  0
INSERT
  5
1839
330
FC8
100
AcDbEntity
  8
0
 62
     0
370
    -2
100
AcDbBlockReference
  2
_Open30
 10
1167.273533607393
 20
233.6420453598487
 30
0.0
 41
2.5
 42
2.5
 43
2.5
 50
90.0
  0
MTEXT
  5
183A
330
FC8
100
AcDbEntity
  8
0
 62
     4
100
AcDbMText
 10
1165.148533607393
 20
154.8920453598487
 30
0.0
 40
3.0
 41
0.0
 71
     5
 72
     1
  1
145.5
 11
0.0000000000000001
 21
1.0
 31
0.0
 73
     1
 44
1.0
1001
ACAD
1000
MTEXTBEGIN
1070
    73
1070
     1
1070
    44
1040
1.0
1070
    74
1070
     0
1000
MTEXTEND
  0
POINT
  5
183B
330
FC8
100
AcDbEntity
  8
Defpoints
 62
     0
100
AcDbPoint
 10
1210.326915345592
 20
88.14204535984869
 30
0.0
  0
POINT
  5
183C
330
FC8
100
AcDbEntity
  8
Defpoints
 62
     0
100
AcDbPoint
 10
1188.026915345592
 20
233.6420453598487
 30
0.0
  0
POINT
  5
183D
330
FC8
100
AcDbEntity
  8
Defpoints
 62
     0
100
AcDbPoint
 10
1167.273533607393
 20
233.6420453598487
 30
0.0
  0
ENDBLK
  5
FCA
330
FC8
100
AcDbEntity
  8
0
100
AcDbBlockEnd
  0
BLOCK
  5
FD5
330
FD4
100
AcDbEntity
  8
0
100
AcDbBlockBegin
  2
*D3
 70
     1
 10
0.0
 20
0.0
 30
0.0
  3
*D3
  1

  0
LINE
  5
182C
330
FD4
100
AcDbEntity
  8
0
 62
     0
370
    -2
100
AcDbLine
 10
1183.776915345592
 20
179.6420453598487
 30
0.0
 11
1174.193930526046
 21
179.6420453598487
 31
0.0
  0
LINE
  5
182D
330
FD4
100
AcDbEntity
  8
0
 62
     0
370
    -2
100
AcDbLine
 10
1210.076915345592
 20
88.14204535984869
 30
0.0
 11
1174.193930526046
 21
88.1420453598487
 31
0.0
  0
LINE
  5
182E
330
FD4
100
AcDbEntity
  8
0
 62
     0
370
    -2
100
AcDbLine
 10
1175.443930526046
 20
177.1420453598486
 30
0.0
 11
1175.443930526046
 21
90.6420453598487
 31
0.0
  0
INSERT
  5
182F
330
FD4
100
AcDbEntity
  8
0
 62
     0
370
    -2
100
AcDbBlockReference
  2
_Open30
 10
1175.443930526046
 20
179.6420453598487
 30
0.0
 41
2.5
 42
2.5
 43
2.5
 50
90.0
  0
INSERT
  5
1830
330
FD4
100
AcDbEntity
  8
0
 62
     0
370
    -2
100
AcDbBlockReference
  2
_Open30
 10
1175.443930526046
 20
88.1420453598487
 30
0.0
 41
2.5
 42
2.5
 43
2.5
 50
270.0
  0
MTEXT
  5
1831
330
FD4
100
AcDbEntity
  8
0
 62
     4
100
AcDbMText
 10
1173.318930526046
 20
130.5170453598487
 30
0.0
 40
3.0
 41
0.0
 71
     5
 72
     1
  1
91.5
 11
0.0000000000000001
 21
1.0
 31
0.0
 73
     1
 44
1.0
1001
ACAD
1000
MTEXTBEGIN
1070
    73
1070
     1
1070
    44
1040
1.0
1070
    74
1070
     0
1000
MTEXTEND
  0
POINT
  5
1832
330
FD4
100
AcDbEntity
  8
Defpoints
 62
     0
100
AcDbPoint
 10
1184.026915345592
 20
179.6420453598487
 30
0.0
  0
POINT
  5
1833
330
FD4
100
AcDbEntity
  8
Defpoints
 62
     0
100
AcDbPoint
 10
1210.326915345592
 20
88.14204535984869
 30
0.0
  0
POINT
  5
1834
330
FD4
100
AcDbEntity
  8
Defpoints
 62
     0
100
AcDbPoint
 10
1175.443930526046
 20
88.1420453598487
 30
0.0
  0
ENDBLK
  5
FD6
330
FD4
100
AcDbEntity
  8
0
100
AcDbBlockEnd
  0
BLOCK
  5
FE1
330
FE0
100
AcDbEntity
  8
0
100
AcDbBlockBegin
  2
*D4
 70
     1
 10
0.0
 20
0.0
 30
0.0
  3
*D4
  1

  0
LINE
  5
1823
330
FE0
100
AcDbEntity
  8
0
 62
     0
370
    -2
100
AcDbLine
 10
1184.826915345592
 20
179.8920453598487
 30
0.0
 11
1184.826915345592
 21
252.8376668640644
 31
0.0
  0
LINE
  5
1824
330
FE0
100
AcDbEntity
  8
0
 62
     0
370
    -2
100
AcDbLine
 10
1235.826915345592
 20
179.8920453598487
 30
0.0
 11
1235.826915345592
 21
252.8376668640644
 31
0.0
  0
LINE
  5
1825
330
FE0
100
AcDbEntity
  8
0
 62
     0
370
    -2
100
AcDbLine
 10
1187.326915345592
 20
251.5876668640644
 30
0.0
 11
1233.326915345592
 21
251.5876668640644
 31
0.0
  0
INSERT
  5
1826
330
FE0
100
AcDbEntity
  8
0
 62
     0
370
    -2
100
AcDbBlockReference
  2
_Open30
 10
1184.826915345592
 20
251.5876668640644
 30
0.0
 41
2.5
 42
2.5
 43
2.5
 50
180.0
  0
INSERT
  5
1827
330
FE0
100
AcDbEntity
  8
0
 62
     0
370
    -2
100
AcDbBlockReference
  2
_Open30
 10
1235.826915345592
 20
251.5876668640644
 30
0.0
 41
2.5
 42
2.5
 43
2.5
  0
MTEXT
  5
1828
330
FE0
100
AcDbEntity
  8
0
 62
     4
100
AcDbMText
 10
1210.326915345592
 20
253.7126668640644
 30
0.0
 40
3.0
 41
0.0
 71
     5
 72
     1
  1
%%C51
 73
     1
 44
1.0
1001
ACAD
1000
MTEXTBEGIN
1070
    73
1070
     1
1070
    44
1040
1.0
1070
    74
1070
     0
1000
MTEXTEND
  0
POINT
  5
1829
330
FE0
100
AcDbEntity
  8
Defpoints
 62
     0
100
AcDbPoint
 10
1184.826915345592
 20
179.6420453598487
 30
0.0
  0
POINT
  5
182A
330
FE0
100
AcDbEntity
  8
Defpoints
 62
     0
100
AcDbPoint
 10
1235.826915345592
 20
179.6420453598487
 30
0.0
  0
POINT
  5
182B
330
FE0
100
AcDbEntity
  8
Defpoints
 62
     0
100
AcDbPoint
 10
1235.826915345592
 20
251.5876668640644
 30
0.0
  0
ENDBLK
  5
FE2
330
FE0
100
AcDbEntity
  8
0
100
AcDbBlockEnd
  0
BLOCK
  5
FED
330
FEC
100
AcDbEntity
  8
0
100
AcDbBlockBegin
  2
*D5
 70
     1
 10
0.0
 20
0.0
 30
0.0
  3
*D5
  1

  0
LINE
  5
181A
330
FEC
100
AcDbEntity
  8
0
 62
     0
370
    -2
100
AcDbLine
 10
1197.332933845592
 20
98.27242835984907
 30
0.0
 11
1197.332933845592
 21
74.03923784131018
 31
0.0
  0
LINE
  5
181B
330
FEC
100
AcDbEntity
  8
0
 62
     0
370
    -2
100
AcDbLine
 10
1223.325301845592
 20
96.27242835984896
 30
0.0
 11
1223.325301845592
 21
74.03923784131018
 31
0.0
  0
LINE
  5
181C
330
FEC
100
AcDbEntity
  8
0
 62
     0
370
    -2
100
AcDbLine
 10
1199.832933845592
 20
75.28923784131018
 30
0.0
 11
1220.825301845592
 21
75.28923784131018
 31
0.0
  0
INSERT
  5
181D
330
FEC
100
AcDbEntity
  8
0
 62
     0
370
    -2
100
AcDbBlockReference
  2
_Open30
 10
1197.332933845592
 20
75.28923784131018
 30
0.0
 41
2.5
 42
2.5
 43
2.5
 50
180.0
  0
INSERT
  5
181E
330
FEC
100
AcDbEntity
  8
0
 62
     0
370
    -2
100
AcDbBlockReference
  2
_Open30
 10
1223.325301845592
 20
75.28923784131018
 30
0.0
 41
2.5
 42
2.5
 43
2.5
  0
MTEXT
  5
181F
330
FEC
100
AcDbEntity
  8
0
 62
     4
100
AcDbMText
 10
1210.329117845592
 20
77.41423784131018
 30
0.0
 40
3.0
 41
0.0
 71
     5
 72
     1
  1
E26
 73
     1
 44
1.0
1001
ACAD
1000
MTEXTBEGIN
1070
    73
1070
     1
1070
    44
1040
1.0
1070
    74
1070
     0
1000
MTEXTEND
  0
POINT
  5
1820
330
FEC
100
AcDbEntity
  8
Defpoints
 62
     0
100
AcDbPoint
 10
1197.332933845592
 20
98.52242835984908
 30
0.0
  0
POINT
  5
1821
330
FEC
100
AcDbEntity
  8
Defpoints
 62
     0
100
AcDbPoint
 10
1223.325301845592
 20
96.52242835984896
 30
0.0
  0
POINT
  5
1822
330
FEC
100
AcDbEntity
  8
Defpoints
 62
     0
100
AcDbPoint
 10
1223.325301845592
 20
75.28923784131018
 30
0.0
  0
ENDBLK
  5
FEE
330
FEC
100
AcDbEntity
  8
0
100
AcDbBlockEnd
  0
BLOCK
  5
FF9
330
FF8
100
AcDbEntity
  8
0
100
AcDbBlockBegin
  2
*D6
 70
     1
 10
0.0
 20
0.0
 30
0.0
  3
*D6
  1

  0
LINE
  5
1811
330
FF8
100
AcDbEntity
  8
0
 62
     0
370
    -2
100
AcDbLine
 10
1184.026915345592
 20
177.3920453598487
 30
0.0
 11
1184.026915345592
 21
66.86651291972101
 31
0.0
  0
LINE
  5
1812
330
FF8
100
AcDbEntity
  8
0
 62
     0
370
    -2
100
AcDbLine
 10
1236.626915345592
 20
177.3920453598487
 30
0.0
 11
1236.626915345592
 21
66.86651291972101
 31
0.0
  0
LINE
  5
1813
330
FF8
100
AcDbEntity
  8
0
 62
     0
370
    -2
100
AcDbLine
 10
1186.526915345592
 20
68.11651291972101
 30
0.0
 11
1234.126915345592
 21
68.11651291972101
 31
0.0
  0
INSERT
  5
1814
330
FF8
100
AcDbEntity
  8
0
 62
     0
370
    -2
100
AcDbBlockReference
  2
_Open30
 10
1184.026915345592
 20
68.11651291972101
 30
0.0
 41
2.5
 42
2.5
 43
2.5
 50
180.0
  0
INSERT
  5
1815
330
FF8
100
AcDbEntity
  8
0
 62
     0
370
    -2
100
AcDbBlockReference
  2
_Open30
 10
1236.626915345592
 20
68.11651291972101
 30
0.0
 41
2.5
 42
2.5
 43
2.5
  0
MTEXT
  5
1816
330
FF8
100
AcDbEntity
  8
0
 62
     4
100
AcDbMText
 10
1210.326915345592
 20
70.24151291972102
 30
0.0
 40
3.0
 41
0.0
 71
     5
 72
     1
  1
%%C52.6
 73
     1
 44
1.0
1001
ACAD
1000
MTEXTBEGIN
1070
    73
1070
     1
1070
    44
1040
1.0
1070
    74
1070
     0
1000
MTEXTEND
  0
POINT
  5
1817
330
FF8
100
AcDbEntity
  8
Defpoints
 62
     0
100
AcDbPoint
 10
1184.026915345592
 20
177.6420453598487
 30
0.0
  0
POINT
  5
1818
330
FF8
100
AcDbEntity
  8
Defpoints
 62
     0
100
AcDbPoint
 10
1236.626915345592
 20
177.6420453598487
 30
0.0
  0
POINT
  5
1819
330
FF8
100
AcDbEntity
  8
Defpoints
 62
     0
100
AcDbPoint
 10
1236.626915345592
 20
68.11651291972101
 30
0.0
  0
ENDBLK
  5
FFA
330
FF8
100
AcDbEntity
  8
0
100
AcDbBlockEnd
  0
BLOCK
  5
13CD
330
13CC
100
AcDbEntity
  8
0
100
AcDbBlockBegin
  2
*D7
 70
     1
 10
0.0
 20
0.0
 30
0.0
  3
*D7
  1

  0
LINE
  5
13D9
330
13CC
100
AcDbEntity
  8
0
 62
     0
370
    -2
100
AcDbLine
 10
1224.276915345592
 20
113.6420453598486
 30
0.0
 11
1229.85707834469
 21
113.6420453598486
 31
0.0
  0
LINE
  5
13DA
330
13CC
100
AcDbEntity
  8
0
 62
     0
370
    -2
100
AcDbLine
 10
1210.576915345592
 20
88.1420453598487
 30
0.0
 11
1229.85707834469
 21
88.1420453598487
 31
0.0
  0
LINE
  5
13DB
330
13CC
100
AcDbEntity
  8
0
 62
     0
370
    -2
100
AcDbLine
 10
1228.60707834469
 20
111.1420453598487
 30
0.0
 11
1228.60707834469
 21
90.6420453598487
 31
0.0
  0
INSERT
  5
13DC
330
13CC
100
AcDbEntity
  8
0
 62
     0
370
    -2
100
AcDbBlockReference
  2
_Open30
 10
1228.60707834469
 20
113.6420453598486
 30
0.0
 41
2.5
 42
2.5
 43
2.5
 50
90.0
  0
INSERT
  5
13DD
330
13CC
100
AcDbEntity
  8
0
 62
     0
370
    -2
100
AcDbBlockReference
  2
_Open30
 10
1228.60707834469
 20
88.1420453598487
 30
0.0
 41
2.5
 42
2.5
 43
2.5
 50
270.0
  0
MTEXT
  5
13DE
330
13CC
100
AcDbEntity
  8
0
 62
     4
100
AcDbMText
 10
1226.48207834469
 20
98.46658764748713
 30
0.0
 40
3.0
 41
0.0
 71
     5
 72
     1
  1
25.5
 11
0.0000000000000001
 21
1.0
 31
0.0
 73
     1
 44
1.0
1001
ACAD
1000
MTEXTBEGIN
1070
    73
1070
     1
1070
    44
1040
1.0
1070
    74
1070
     0
1000
MTEXTEND
  0
POINT
  5
13DF
330
13CC
100
AcDbEntity
  8
Defpoints
 62
     0
100
AcDbPoint
 10
1224.026915345592
 20
113.6420453598486
 30
0.0
  0
POINT
  5
13E0
330
13CC
100
AcDbEntity
  8
Defpoints
 62
     0
100
AcDbPoint
 10
1210.326915345592
 20
88.1420453598487
 30
0.0
  0
POINT
  5
13E1
330
13CC
100
AcDbEntity
  8
Defpoints
 62
     0
100
AcDbPoint
 10
1228.60707834469
 20
88.1420453598487
 30
0.0
  0
ENDBLK
  5
13CE
330
13CC
100
AcDbEntity
  8
0
100
AcDbBlockEnd
  0
BLOCK
  5
13E5
330
13E4
100
AcDbEntity
  8
0
100
AcDbBlockBegin
  2
*D8
 70
     1
 10
0.0
 20
0.0
 30
0.0
  3
*D8
  1

  0
LINE
  5
13F3
330
13E4
100
AcDbEntity
  8
0
 62
     0
370
    -2
100
AcDbLine
 10
1223.776915345592
 20
114.1420453598487
 30
0.0
 11
1219.469122304597
 21
114.1420453598487
 31
0.0
  0
LINE
  5
13F4
330
13E4
100
AcDbEntity
  8
0
 62
     0
370
    -2
100
AcDbLine
 10
1223.776915345592
 20
117.1420453598487
 30
0.0
 11
1219.469122304597
 21
117.1420453598487
 31
0.0
  0
LINE
  5
13F5
330
13E4
100
AcDbEntity
  8
0
 62
     0
370
    -2
100
AcDbLine
 10
1220.719122304597
 20
111.6420453598486
 30
0.0
 11
1220.719122304597
 21
109.1420453598487
 31
0.0
  0
LINE
  5
13F6
330
13E4
100
AcDbEntity
  8
0
 62
     0
370
    -2
100
AcDbLine
 10
1220.719122304597
 20
119.6420453598487
 30
0.0
 11
1220.719122304597
 21
125.3920453598487
 31
0.0
  0
LINE
  5
13F7
330
13E4
100
AcDbEntity
  8
0
 62
     0
370
    -2
100
AcDbLine
 10
1220.719122304597
 20
114.1420453598487
 30
0.0
 11
1220.719122304597
 21
117.1420453598487
 31
0.0
  0
INSERT
  5
13F8
330
13E4
100
AcDbEntity
  8
0
 62
     0
370
    -2
100
AcDbBlockReference
  2
_Open30
 10
1220.719122304597
 20
114.1420453598487
 30
0.0
 41
2.5
 42
2.5
 43
2.5
 50
90.0
  0
INSERT
  5
13F9
330
13E4
100
AcDbEntity
  8
0
 62
     0
370
    -2
100
AcDbBlockReference
  2
_Open30
 10
1220.719122304597
 20
117.1420453598487
 30
0.0
 41
2.5
 42
2.5
 43
2.5
 50
270.0
  0
MTEXT
  5
13FA
330
13E4
100
AcDbEntity
  8
0
 62
     4
100
AcDbMText
 10
1218.594122304597
 20
123.7670453598489
 30
0.0
 40
3.0
 41
0.0
 71
     5
 72
     1
  1
3
 11
0.0000000000000001
 21
1.0
 31
0.0
 73
     1
 44
1.0
1001
ACAD
1000
MTEXTBEGIN
1070
    73
1070
     1
1070
    44
1040
1.0
1070
    74
1070
     0
1000
MTEXTEND
  0
POINT
  5
13FB
330
13E4
100
AcDbEntity
  8
Defpoints
 62
     0
100
AcDbPoint
 10
1224.026915345592
 20
114.1420453598487
 30
0.0
  0
POINT
  5
13FC
330
13E4
100
AcDbEntity
  8
Defpoints
 62
     0
100
AcDbPoint
 10
1224.026915345592
 20
117.1420453598487
 30
0.0
  0
POINT
  5
13FD
330
13E4
100
AcDbEntity
  8
Defpoints
 62
     0
100
AcDbPoint
 10
1220.719122304597
 20
117.1420453598487
 30
0.0
  0
ENDBLK
  5
13E6
330
13E4
100
AcDbEntity
  8
0
100
AcDbBlockEnd
  0
BLOCK
  5
1401
330
1400
100
AcDbEntity
  8
0
100
AcDbBlockBegin
  2
*D9
 70
     1
 10
0.0
 20
0.0
 30
0.0
  3
*D9
  1

  0
LINE
  5
1417
330
1400
100
AcDbEntity
  8
0
 62
     0
370
    -2
100
AcDbLine
 10
1227.326915345592
 20
116.8920453598478
 30
0.0
 11
1227.326915345592
 21
114.0008042735483
 31
0.0
  0
LINE
  5
1418
330
1400
100
AcDbEntity
  8
0
 62
     0
370
    -2
100
AcDbLine
 10
1210.326915345592
 20
114.3920453598487
 30
0.0
 11
1210.326915345592
 21
116.5008042735482
 31
0.0
  0
LINE
  5
1419
330
1400
100
AcDbEntity
  8
0
 62
     0
370
    -2
100
AcDbLine
 10
1224.826915345591
 20
115.2508042735483
 30
0.0
 11
1212.826915345592
 21
115.2508042735483
 31
0.0
  0
INSERT
  5
141A
330
1400
100
AcDbEntity
  8
0
 62
     0
370
    -2
100
AcDbBlockReference
  2
_Open30
 10
1227.326915345592
 20
115.2508042735483
 30
0.0
 41
2.5
 42
2.5
 43
2.5
  0
INSERT
  5
141B
330
1400
100
AcDbEntity
  8
0
 62
     0
370
    -2
100
AcDbBlockReference
  2
_Open30
 10
1210.326915345592
 20
115.2508042735483
 30
0.0
 41
2.5
 42
2.5
 43
2.5
 50
180.0
  0
MTEXT
  5
141C
330
1400
100
AcDbEntity
  8
0
 62
     4
100
AcDbMText
 10
1213.060092507335
 20
117.3758042735483
 30
0.0
 40
3.0
 41
0.0
 71
     5
 72
     1
  1
17
 73
     1
 44
1.0
1001
ACAD
1000
MTEXTBEGIN
1070
    73
1070
     1
1070
    44
1040
1.0
1070
    74
1070
     0
1000
MTEXTEND
  0
POINT
  5
141D
330
1400
100
AcDbEntity
  8
Defpoints
 62
     0
100
AcDbPoint
 10
1227.326915345592
 20
117.1420453598478
 30
0.0
  0
POINT
  5
141E
330
1400
100
AcDbEntity
  8
Defpoints
 62
     0
100
AcDbPoint
 10
1210.326915345592
 20
114.1420453598487
 30
0.0
  0
POINT
  5
141F
330
1400
100
AcDbEntity
  8
Defpoints
 62
     0
100
AcDbPoint
 10
1210.326915345592
 20
115.2508042735483
 30
0.0
  0
ENDBLK
  5
1402
330
1400
100
AcDbEntity
  8
0
100
AcDbBlockEnd
  0
BLOCK
  5
1422
330
1421
100
AcDbEntity
  8
0
100
AcDbBlockBegin
  2
*D10
 70
     1
 10
0.0
 20
0.0
 30
0.0
  3
*D10
  1

  0
LINE
  5
142E
330
1421
100
AcDbEntity
  8
0
 62
     0
370
    -2
100
AcDbLine
 10
1227.576915345592
 20
117.1420453598487
 30
0.0
 11
1244.734147950469
 21
117.1420453598487
 31
0.0
  0
LINE
  5
142F
330
1421
100
AcDbEntity
  8
0
 62
     0
370
    -2
100
AcDbLine
 10
1236.876915345592
 20
179.6420453598487
 30
0.0
 11
1244.734147950469
 21
179.6420453598487
 31
0.0
  0
LINE
  5
1430
330
1421
100
AcDbEntity
  8
0
 62
     0
370
    -2
100
AcDbLine
 10
1243.484147950469
 20
119.6420453598487
 30
0.0
 11
1243.484147950469
 21
177.1420453598486
 31
0.0
  0
INSERT
  5
1431
330
1421
100
AcDbEntity
  8
0
 62
     0
370
    -2
100
AcDbBlockReference
  2
_Open30
 10
1243.484147950469
 20
117.1420453598487
 30
0.0
 41
2.5
 42
2.5
 43
2.5
 50
270.0
  0
INSERT
  5
1432
330
1421
100
AcDbEntity
  8
0
 62
     0
370
    -2
100
AcDbBlockReference
  2
_Open30
 10
1243.484147950469
 20
179.6420453598487
 30
0.0
 41
2.5
 42
2.5
 43
2.5
 50
90.0
  0
MTEXT
  5
1433
330
1421
100
AcDbEntity
  8
0
 62
     4
100
AcDbMText
 10
1241.359147950469
 20
169.626274449733
 30
0.0
 40
3.0
 41
0.0
 71
     5
 72
     1
  1
62.5
 11
0.0000000000000001
 21
1.0
 31
0.0
 73
     1
 44
1.0
1001
ACAD
1000
MTEXTBEGIN
1070
    73
1070
     1
1070
    44
1040
1.0
1070
    74
1070
     0
1000
MTEXTEND
  0
POINT
  5
1434
330
1421
100
AcDbEntity
  8
Defpoints
 62
     0
100
AcDbPoint
 10
1227.326915345592
 20
117.1420453598487
 30
0.0
  0
POINT
  5
1435
330
1421
100
AcDbEntity
  8
Defpoints
 62
     0
100
AcDbPoint
 10
1236.626915345592
 20
179.6420453598487
 30
0.0
  0
POINT
  5
1436
330
1421
100
AcDbEntity
  8
Defpoints
 62
     0
100
AcDbPoint
 10
1243.484147950469
 20
179.6420453598487
 30
0.0
  0
ENDBLK
  5
1423
330
1421
100
AcDbEntity
  8
0
100
AcDbBlockEnd
  0
BLOCK
  5
166B
330
166A
100
AcDbEntity
  8
0
100
AcDbBlockBegin
  2
*D11
 70
     1
 10
0.0
 20
0.0
 30
0.0
  3
*D11
  1

  0
LINE
  5
168C
330
166A
100
AcDbEntity
  8
0
 62
     0
370
    -2
100
AcDbLine
 10
1217.826915345592
 20
92.89204535984877
 30
0.0
 11
1217.826915345592
 21
122.8158583371667
 31
0.0
  0
LINE
  5
168D
330
166A
100
AcDbEntity
  8
0
 62
     0
370
    -2
100
AcDbLine
 10
1202.826915345592
 20
92.89204535984877
 30
0.0
 11
1202.826915345592
 21
122.8158583371667
 31
0.0
  0
LINE
  5
168E
330
166A
100
AcDbEntity
  8
0
 62
     0
370
    -2
100
AcDbLine
 10
1215.326915345592
 20
121.5658583371666
 30
0.0
 11
1205.326915345592
 21
121.5658583371666
 31
0.0
  0
INSERT
  5
168F
330
166A
100
AcDbEntity
  8
0
 62
     0
370
    -2
100
AcDbBlockReference
  2
_Open30
 10
1217.826915345592
 20
121.5658583371666
 30
0.0
 41
2.5
 42
2.5
 43
2.5
  0
INSERT
  5
1690
330
166A
100
AcDbEntity
  8
0
 62
     0
370
    -2
100
AcDbBlockReference
  2
_Open30
 10
1202.826915345592
 20
121.5658583371666
 30
0.0
 41
2.5
 42
2.5
 43
2.5
 50
180.0
  0
MTEXT
  5
1691
330
166A
100
AcDbEntity
  8
0
 62
     4
100
AcDbMText
 10
1213.930358109755
 20
123.6908583371667
 30
0.0
 40
3.0
 41
0.0
 71
     5
 72
     1
  1
15
 73
     1
 44
1.0
1001
ACAD
1000
MTEXTBEGIN
1070
    73
1070
     1
1070
    44
1040
1.0
1070
    74
1070
     0
1000
MTEXTEND
  0
POINT
  5
1692
330
166A
100
AcDbEntity
  8
Defpoints
 62
     0
100
AcDbPoint
 10
1217.826915345592
 20
92.6420453598488
 30
0.0
  0
POINT
  5
1693
330
166A
100
AcDbEntity
  8
Defpoints
 62
     0
100
AcDbPoint
 10
1202.826915345592
 20
92.6420453598488
 30
0.0
  0
POINT
  5
1694
330
166A
100
AcDbEntity
  8
Defpoints
 62
     0
100
AcDbPoint
 10
1202.826915345592
 20
121.5658583371666
 30
0.0
  0
ENDBLK
  5
166C
330
166A
100
AcDbEntity
  8
0
100
AcDbBlockEnd
  0
ENDSEC
  0
SECTION
  2
ENTITIES
  0
LINE
  5
ED1
330
1F
100
AcDbEntity
  8
0
 62
     3
100
AcDbLine
 10
1307.878385455606
 20
46.74012035984879
 30
0.0
 11
1307.878385455606
 21
52.74012035984876
 31
0.0
  0
LINE
  5
ED2
330
1F
100
AcDbEntity
  8
0
 62
     3
100
AcDbLine
 10
1281.878385455606
 20
46.74012035984879
 30
0.0
 11
1281.878385455606
 21
52.74012035984876
 31
0.0
  0
LINE
  5
ED3
330
1F
100
AcDbEntity
  8
0
 62
     3
100
AcDbLine
 10
1333.878385455605
 20
52.74012035984876
 30
0.0
 11
1281.878385455606
 21
52.74012035984876
 31
0.0
  0
TEXT
  5
ED4
330
1F
100
AcDbEntity
  8
0
 62
     3
100
AcDbText
 10
1287.873984455606
 20
47.53646935984877
 30
0.0
 40
4.5
  1
コード
  7
高4.5
100
AcDbText
  0
TEXT
  5
ED8
330
1F
100
AcDbEntity
  8
0
 62
     3
100
AcDbText
 10
1312.479863942816
 20
47.38367479354686
 30
0.0
 40
4.5
  1
13115
  7
高4.5
100
AcDbText
  0
TEXT
  5
F2A
330
1F
100
AcDbEntity
  8
0
100
AcDbText
 10
1327.268002109753
 20
28.49477435287858
 30
0.0
 40
3.2
  1
I
  7
高3.2
100
AcDbText
  0
LINE
  5
F73
330
1F
100
AcDbEntity
  8
0
 62
     7
100
AcDbLine
 10
1198.993581845592
 20
104.6972453598491
 30
0.0
 11
1198.993581845592
 21
104.3476103598485
 31
0.0
  0
LINE
  5
F74
330
1F
100
AcDbEntity
  8
0
 62
     7
100
AcDbLine
 10
1198.993581845592
 20
100.6972453598488
 30
0.0
 11
1198.993581845592
 21
100.3476103598485
 31
0.0
  0
LINE
  5
F75
330
1F
100
AcDbEntity
  8
0
 62
     7
100
AcDbLine
 10
1198.993581845592
 20
96.69724535984881
 30
0.0
 11
1198.993581845592
 21
96.34761035984848
 31
0.0
  0
LINE
  5
F76
330
1F
100
AcDbEntity
  8
0
 62
     7
100
AcDbLine
 10
1221.660248845592
 20
106.7692043598491
 30
0.0
 11
1221.660248845592
 21
106.3480223598487
 31
0.0
  0
LINE
  5
F77
330
1F
100
AcDbEntity
  8
0
 62
     7
100
AcDbLine
 10
1221.660248845592
 20
102.6968343598488
 30
0.0
 11
1221.660248845592
 21
102.3480223598487
 31
0.0
  0
LINE
  5
F78
330
1F
100
AcDbEntity
  8
0
 62
     7
100
AcDbLine
 10
1221.660248845592
 20
98.69683435984876
 30
0.0
 11
1221.660248845592
 21
98.34802235984872
 31
0.0
  0
LINE
  5
F79
330
1F
100
AcDbEntity
  8
0
 62
     7
100
AcDbLine
 10
1215.326915345592
 20
89.14204535984881
 30
0.0
 11
1217.826915345592
 21
92.6420453598488
 31
0.0
  0
LINE
  5
F7A
330
1F
100
AcDbEntity
  8
0
 62
     7
100
AcDbLine
 10
1205.326915345592
 20
89.14204535984881
 30
0.0
 11
1202.826915345592
 21
92.6420453598488
 31
0.0
  0
ARC
  5
F7B
330
1F
100
AcDbEntity
  8
0
 62
     7
100
AcDbCircle
 10
1198.666266845592
 20
98.52242835984908
 30
0.0
 40
1.333333
100
AcDbArc
 50
95.40479299998748
 51
264.5952070000126
  0
ARC
  5
F7C
330
1F
100
AcDbEntity
  8
0
 62
     7
100
AcDbCircle
 10
1198.493581845592
 20
96.69724535984881
 30
0.0
 40
0.5
100
AcDbArc
 50
0.0
 51
84.59520700001254
  0
ARC
  5
F7D
330
1F
100
AcDbEntity
  8
0
 62
     7
100
AcDbCircle
 10
1198.493581845592
 20
100.3476103598485
 30
0.0
 40
0.5
100
AcDbArc
 50
275.4047929999874
 51
0.0
  0
ARC
  5
F7E
330
1F
100
AcDbEntity
  8
0
 62
     7
100
AcDbCircle
 10
1221.991968845592
 20
96.52242835984896
 30
0.0
 40
1.333333
100
AcDbArc
 50
270.0
 51
84.73345899998738
  0
ARC
  5
F7F
330
1F
100
AcDbEntity
  8
0
 62
     7
100
AcDbCircle
 10
1222.160248845592
 20
98.34802235984872
 30
0.0
 40
0.5
100
AcDbArc
 50
180.0
 51
264.7334589999874
  0
ARC
  5
F80
330
1F
100
AcDbEntity
  8
0
 62
     7
100
AcDbCircle
 10
1221.991968845592
 20
100.5224283598489
 30
0.0
 40
1.333333
100
AcDbArc
 50
275.2665410000126
 51
84.73345899998738
  0
ARC
  5
F81
330
1F
100
AcDbEntity
  8
0
 62
     7
100
AcDbCircle
 10
1222.160248845592
 20
98.69683435984876
 30
0.0
 40
0.5
100
AcDbArc
 50
95.26654100001259
 51
180.0
  0
ARC
  5
F82
330
1F
100
AcDbEntity
  8
0
 62
     7
100
AcDbCircle
 10
1222.160248845592
 20
102.3480223598487
 30
0.0
 40
0.5
100
AcDbArc
 50
180.0
 51
264.7334589999874
  0
ARC
  5
F83
330
1F
100
AcDbEntity
  8
0
 62
     7
100
AcDbCircle
 10
1221.991968845592
 20
104.5224283598489
 30
0.0
 40
1.333333
100
AcDbArc
 50
275.2665410000126
 51
84.73345899998738
  0
ARC
  5
F84
330
1F
100
AcDbEntity
  8
0
 62
     7
100
AcDbCircle
 10
1222.160248845592
 20
102.6968343598488
 30
0.0
 40
0.5
100
AcDbArc
 50
95.26654100001259
 51
180.0
  0
ARC
  5
F85
330
1F
100
AcDbEntity
  8
0
 62
     7
100
AcDbCircle
 10
1222.160248845592
 20
106.3480223598487
 30
0.0
 40
0.5
100
AcDbArc
 50
180.0
 51
264.7334589999874
  0
ARC
  5
F86
330
1F
100
AcDbEntity
  8
0
 62
     7
100
AcDbCircle
 10
1222.160248845592
 20
106.7692043598491
 30
0.0
 40
0.5
100
AcDbArc
 50
93.18486299999795
 51
180.0
  0
ARC
  5
F87
330
1F
100
AcDbEntity
  8
0
 62
     7
100
AcDbCircle
 10
1198.493581845592
 20
104.6972453598491
 30
0.0
 40
0.5
100
AcDbArc
 50
0.0
 51
84.59520700001254
  0
ARC
  5
F88
330
1F
100
AcDbEntity
  8
0
 62
     7
100
AcDbCircle
 10
1198.666266845592
 20
102.5224283598491
 30
0.0
 40
1.333333
100
AcDbArc
 50
95.40479299998748
 51
264.5952070000126
  0
ARC
  5
F89
330
1F
100
AcDbEntity
  8
0
 62
     7
100
AcDbCircle
 10
1198.493581845592
 20
100.6972453598488
 30
0.0
 40
0.5
100
AcDbArc
 50
0.0
 51
84.59520700001254
  0
ARC
  5
F8A
330
1F
100
AcDbEntity
  8
0
 62
     7
100
AcDbCircle
 10
1198.493581845592
 20
104.3476103598485
 30
0.0
 40
0.5
100
AcDbArc
 50
275.4047929999874
 51
0.0
  0
LINE
  5
F8B
330
1F
100
AcDbEntity
  8
0
 62
     7
100
AcDbLine
 10
1222.110016845592
 20
107.2676463598486
 30
0.0
 11
1198.784314845592
 21
105.1943313598486
 31
0.0
  0
LINE
  5
F8C
330
1F
100
AcDbEntity
  8
0
 62
     7
100
AcDbLine
 10
1221.878063845592
 20
105.8508873598488
 30
0.0
 11
1198.552360845592
 21
103.8508873598488
 31
0.0
  0
LINE
  5
F8D
330
1F
100
AcDbEntity
  8
0
 62
     7
100
AcDbLine
 10
1222.105873845592
 20
103.1939693598486
 30
0.0
 11
1198.780171845593
 21
101.1939693598488
 31
0.0
  0
LINE
  5
F8E
330
1F
100
AcDbEntity
  8
0
 62
     7
100
AcDbLine
 10
1221.878063845592
 20
101.8508873598488
 30
0.0
 11
1198.552360845592
 21
99.85088735984881
 31
0.0
  0
LINE
  5
F8F
330
1F
100
AcDbEntity
  8
0
 62
     7
100
AcDbLine
 10
1222.105873845592
 20
99.1939693598487
 30
0.0
 11
1198.780171845593
 21
97.19396935984878
 31
0.0
  0
LINE
  5
F90
330
1F
100
AcDbEntity
  8
0
 62
     7
100
AcDbLine
 10
1221.878063845592
 20
97.8508873598488
 30
0.0
 11
1198.547149972782
 21
95.8504405675003
 31
0.0
  0
LINE
  5
F91
330
1F
100
AcDbEntity
  8
0
 62
     7
100
AcDbLine
 10
1198.326914845592
 20
113.1420453598487
 30
0.0
 11
1198.326914845592
 21
109.1420453598488
 31
0.0
  0
LINE
  5
F92
330
1F
100
AcDbEntity
  8
0
 62
     7
100
AcDbLine
 10
1222.326914845592
 20
113.1420453598487
 30
0.0
 11
1222.326914845592
 21
109.1420453598488
 31
0.0
  0
ARC
  5
F93
330
1F
100
AcDbEntity
  8
0
 62
     7
100
AcDbCircle
 10
1198.666266845592
 20
106.5587143598491
 30
0.0
 40
1.333333
100
AcDbArc
 50
95.40479299998748
 51
264.5952070000126
  0
LINE
  5
F94
330
1F
100
AcDbEntity
  8
0
 62
     7
100
AcDbLine
 10
1213.1877466331
 20
109.1420453598488
 30
0.0
 11
1198.552360845592
 21
107.8871733598487
 31
0.0
  0
LINE
  5
F95
330
1F
100
AcDbEntity
  8
0
 62
     7
100
AcDbLine
 10
1222.326914845592
 20
109.1420453598488
 30
0.0
 11
1198.326914845592
 21
109.1420453598488
 31
0.0
  0
ARC
  5
F96
330
1F
100
AcDbEntity
  8
0
 62
     7
100
AcDbCircle
 10
1221.93371191635
 20
108.2184415343558
 30
0.0
 40
1.003818992662016
100
AcDbArc
 50
280.3671454662602
 51
66.93924410986361
  0
ARC
  5
F97
330
1F
100
AcDbEntity
  8
0
 62
     7
100
AcDbCircle
 10
1197.912102738606
 20
108.4198342116826
 30
0.0
 40
0.8328613489872696
100
AcDbArc
 50
320.2413360786362
 51
60.12849002510865
  0
LINE
  5
F98
330
1F
100
AcDbEntity
  8
0
 62
     7
100
AcDbLine
 10
1219.779865345592
 20
92.6420453598488
 30
0.0
 11
1200.873965345592
 21
92.6420453598488
 31
0.0
  0
LINE
  5
F99
330
1F
100
AcDbEntity
  8
0
 62
     7
100
AcDbLine
 10
1215.326915345592
 20
89.14204535984881
 30
0.0
 11
1205.326915345592
 21
89.14204535984881
 31
0.0
  0
LINE
  5
F9A
330
1F
100
AcDbEntity
  8
0
 62
     7
100
AcDbLine
 10
1221.991968845592
 20
95.1890953598488
 30
0.0
 11
1198.575450690868
 21
95.1890953598488
 31
0.0
  0
ARC
  5
F9B
330
1F
100
AcDbEntity
  8
0
 62
     7
100
AcDbCircle
 10
1198.493581845592
 20
96.34761035984848
 30
0.0
 40
0.5
100
AcDbArc
 50
275.4047929999874
 51
0.0
  0
ARC
  5
F9C
330
1F
100
AcDbEntity
  8
0
 62
     7
100
AcDbCircle
 10
1198.575450690868
 20
95.52037349512387
 30
0.0
 40
0.3312781352750566
100
AcDbArc
 50
94.90068724745821
 51
270.0
  0
ARC
  5
F9D
330
1F
100
AcDbEntity
  8
0
 62
     7
100
AcDbCircle
 10
1200.873965345592
 20
94.68909535984881
 30
0.0
 40
2.047050000000238
100
AcDbArc
 50
180.0
 51
270.0
  0
ARC
  5
F9E
330
1F
100
AcDbEntity
  8
0
 62
     7
100
AcDbCircle
 10
1219.779865345592
 20
94.68909535984881
 30
0.0
 40
2.047050000000238
100
AcDbArc
 50
270.0
 51
0.0
  0
ARC
  5
F9F
330
1F
100
AcDbEntity
  8
0
 62
     7
100
AcDbCircle
 10
1210.326915345592
 20
101.142045359855
 30
0.0
 40
13.00000000000628
100
AcDbArc
 50
247.3801350519685
 51
292.6198649480316
  0
LINE
  5
FA0
330
1F
100
AcDbEntity
  8
0
  6
CENTER
100
AcDbLine
 10
1210.326915345592
 20
85.0574959389336
 30
0.0
 11
1210.326915345592
 21
245.2835624156012
 31
0.0
  0
LINE
  5
FA1
330
1F
100
AcDbEntity
  8
0
 62
     7
100
AcDbLine
 10
1224.026915345592
 20
113.1420453598487
 30
0.0
 11
1224.026915345592
 21
113.6420453598486
 31
0.0
  0
LINE
  5
FA2
330
1F
100
AcDbEntity
  8
0
 62
     7
100
AcDbLine
 10
1196.626915345592
 20
113.1420453598487
 30
0.0
 11
1196.626915345592
 21
113.6420453598486
 31
0.0
  0
LINE
  5
FA8
330
1F
100
AcDbEntity
  8
0
 62
     7
100
AcDbLine
 10
1221.826915345592
 20
94.68909535984881
 30
0.0
 11
1221.826915345592
 21
95.1890953598488
 31
0.0
  0
LINE
  5
FA9
330
1F
100
AcDbEntity
  8
0
 62
     7
100
AcDbLine
 10
1198.826915345591
 20
94.68909535984881
 30
0.0
 11
1198.826915345591
 21
95.1890953598488
 31
0.0
  0
LINE
  5
FBB
330
1F
100
AcDbEntity
  8
0
 62
     3
100
AcDbLine
 10
1224.026915345592
 20
114.1420453598487
 30
0.0
 11
1196.626915345592
 21
114.1420453598487
 31
0.0
  0
LINE
  5
FBC
330
1F
100
AcDbEntity
  8
0
 62
     3
100
AcDbLine
 10
1224.026915345592
 20
113.6420453598486
 30
0.0
 11
1196.626915345592
 21
113.6420453598486
 31
0.0
  0
LINE
  5
FBD
330
1F
100
AcDbEntity
  8
0
 62
     7
100
AcDbLine
 10
1224.026915345592
 20
113.1420453598487
 30
0.0
 11
1196.626915345592
 21
113.1420453598487
 31
0.0
  0
LINE
  5
FBE
330
1F
100
AcDbEntity
  8
0
 62
     3
100
AcDbLine
 10
1188.026915345592
 20
233.6420453598487
 30
0.0
 11
1232.626915345592
 21
233.6420453598487
 31
0.0
  0
LINE
  5
FBF
330
1F
100
AcDbEntity
  8
0
 62
     3
100
AcDbLine
 10
1227.326915345592
 20
117.1420453598487
 30
0.0
 11
1193.326915345592
 21
117.1420453598487
 31
0.0
  0
LINE
  5
FC0
330
1F
100
AcDbEntity
  8
0
 62
     3
100
AcDbLine
 10
1236.626915345592
 20
179.6420453598487
 30
0.0
 11
1184.026915345592
 21
179.6420453598487
 31
0.0
  0
LINE
  5
FC1
330
1F
100
AcDbEntity
  8
0
 62
     3
100
AcDbLine
 10
1227.326915345592
 20
117.1420453598487
 30
0.0
 11
1224.026915345592
 21
114.1420453598487
 31
0.0
  0
LINE
  5
FC2
330
1F
100
AcDbEntity
  8
0
 62
     3
100
AcDbLine
 10
1193.326915345592
 20
117.1420453598487
 30
0.0
 11
1196.626915345592
 21
114.1420453598487
 31
0.0
  0
ARC
  5
FC3
330
1F
100
AcDbEntity
  8
0
 62
     3
100
AcDbCircle
 10
1188.026915345592
 20
231.1420453598487
 30
0.0
 40
2.5
100
AcDbArc
 50
90.0
 51
179.2215270652406
  0
ARC
  5
FC4
330
1F
100
AcDbEntity
  8
0
 62
     3
100
AcDbCircle
 10
1232.626915345592
 20
231.1420453598486
 30
0.0
 40
2.5
100
AcDbArc
 50
0.7784729347592237
 51
90.0
  0
LINE
  5
FC5
330
1F
100
AcDbEntity
  8
0
 62
     3
100
AcDbLine
 10
1235.826915345592
 20
179.6420453598487
 30
0.0
 11
1235.126684593789
 21
231.1760116043968
 31
0.0
  0
LINE
  5
FC6
330
1F
100
AcDbEntity
  8
0
 62
     3
100
AcDbLine
 10
1184.826915345592
 20
179.6420453598487
 30
0.0
 11
1185.527146097395
 21
231.1760116043968
 31
0.0
  0
ARC
  5
FC7
330
1F
100
AcDbEntity
  8
0
  6
HIDDEN
100
AcDbCircle
 10
1210.326915345592
 20
266.1451222829251
 30
0.0
 40
39.00307692307641
100
AcDbArc
 50
237.4993239324229
 51
302.5006760675772
  0
LINE
  5
109A
330
1F
100
AcDbEntity
  8
0
 62
     3
100
AcDbLine
 10
1236.626915345592
 20
177.6420453598487
 30
0.0
 11
1236.626915345592
 21
179.6420453598487
 31
0.0
  0
LINE
  5
109B
330
1F
100
AcDbEntity
  8
0
 62
     3
100
AcDbLine
 10
1184.026915345592
 20
177.6420453598487
 30
0.0
 11
1184.026915345592
 21
179.6420453598487
 31
0.0
  0
LINE
  5
109C
330
1F
100
AcDbEntity
  8
0
 62
     7
100
AcDbLine
 10
1236.626915345592
 20
177.6420453598487
 30
0.0
 11
1184.026915345592
 21
177.6420453598487
 31
0.0
  0
LINE
  5
109D
330
1F
100
AcDbEntity
  8
0
 62
     3
100
AcDbLine
 10
1184.026915345592
 20
177.6420453598487
 30
0.0
 11
1185.179300738819
 21
144.6420453598555
 31
0.0
  0
LINE
  5
109E
330
1F
100
AcDbEntity
  8
0
 62
     3
100
AcDbLine
 10
1236.626915345592
 20
177.6420453598487
 30
0.0
 11
1235.474529952365
 21
144.6420453598495
 31
0.0
  0
ARC
  5
10A5
330
1F
100
AcDbEntity
  8
0
 62
     3
100
AcDbCircle
 10
1178.246198453874
 20
146.6405027325047
 30
0.0
 40
57.2632147016862
100
AcDbArc
 50
328.9933210660438
 51
357.9999999999996
  0
ARC
  5
10A6
330
1F
100
AcDbEntity
  8
0
 62
     3
100
AcDbCircle
 10
1242.407632237318
 20
146.640502732512
 30
0.0
 40
57.2632147016862
100
AcDbArc
 50
182.0000000000134
 51
211.0066789339752
  0
LINE
  5
10E3
330
1F
100
AcDbEntity
  8
0
 62
     3
100
AcDbLine
 10
1196.626915345592
 20
113.6420453598486
 30
0.0
 11
1196.626915345592
 21
114.1420453598487
 31
0.0
  0
LINE
  5
10E4
330
1F
100
AcDbEntity
  8
0
 62
     3
100
AcDbLine
 10
1224.026915345592
 20
113.6420453598486
 30
0.0
 11
1224.026915345592
 21
114.1420453598487
 31
0.0
  0
LINE
  5
11ED
330
1F
100
AcDbEntity
  8
0
 62
     7
100
AcDbLine
 10
1253.210458008181
 20
109.2606282554856
 30
0.0
 11
1324.110458008181
 21
109.2606282554856
 31
0.0
  0
LINE
  5
11EE
330
1F
100
AcDbEntity
  8
0
 62
     7
100
AcDbLine
 10
1253.210458008181
 20
120.2606282554855
 30
0.0
 11
1324.110458008181
 21
120.2606282554855
 31
0.0
  0
LINE
  5
11EF
330
1F
100
AcDbEntity
  8
0
 62
     7
100
AcDbLine
 10
1263.601448477849
 20
125.7606282554855
 30
0.0
 11
1324.110458008181
 21
125.7606282554855
 31
0.0
  0
LINE
  5
11F0
330
1F
100
AcDbEntity
  8
0
 62
     7
100
AcDbLine
 10
1263.601448477849
 20
131.2606282554855
 30
0.0
 11
1324.110458008181
 21
131.2606282554855
 31
0.0
  0
LINE
  5
11F1
330
1F
100
AcDbEntity
  8
0
 62
     7
100
AcDbLine
 10
1263.601448477849
 20
136.7606282554855
 30
0.0
 11
1324.110458008181
 21
136.7606282554855
 31
0.0
  0
LINE
  5
11F2
330
1F
100
AcDbEntity
  8
0
 62
     7
100
AcDbLine
 10
1263.601448477849
 20
142.2606282554855
 30
0.0
 11
1324.110458008181
 21
142.2606282554855
 31
0.0
  0
LINE
  5
11F3
330
1F
100
AcDbEntity
  8
0
 62
     7
100
AcDbLine
 10
1253.210458008181
 20
147.7606282554856
 30
0.0
 11
1324.110458008181
 21
147.7606282554854
 31
0.0
  0
LINE
  5
11F4
330
1F
100
AcDbEntity
  8
0
 62
     7
100
AcDbLine
 10
1253.210458008181
 20
158.7606282554856
 30
0.0
 11
1324.110458008181
 21
158.7606282554856
 31
0.0
  0
LINE
  5
11F5
330
1F
100
AcDbEntity
  8
0
 62
     7
100
AcDbLine
 10
1253.210458008181
 20
164.2606282554857
 30
0.0
 11
1324.110458008181
 21
164.2606282554856
 31
0.0
  0
LINE
  5
11F6
330
1F
100
AcDbEntity
  8
0
 62
     7
100
AcDbLine
 10
1253.210458008181
 20
169.7606282554856
 30
0.0
 11
1324.110458008181
 21
169.7606282554856
 31
0.0
  0
LINE
  5
11F7
330
1F
100
AcDbEntity
  8
0
 62
     7
100
AcDbLine
 10
1253.210458008181
 20
175.2606282554856
 30
0.0
 11
1324.110458008181
 21
175.2606282554856
 31
0.0
  0
LINE
  5
11F8
330
1F
100
AcDbEntity
  8
0
 62
     7
100
AcDbLine
 10
1253.210458008181
 20
180.7606282554857
 30
0.0
 11
1324.110458008181
 21
180.7606282554856
 31
0.0
  0
LINE
  5
11F9
330
1F
100
AcDbEntity
  8
0
 62
     7
100
AcDbLine
 10
1253.210458008181
 20
186.2606282554856
 30
0.0
 11
1324.110458008181
 21
186.2606282554855
 31
0.0
  0
TEXT
  5
11FA
330
1F
100
AcDbEntity
  8
0
 62
     3
100
AcDbText
 10
1279.638553580944
 20
104.7606282554855
 30
0.0
 40
3.2
  1
162g
 41
0.8
  7
高3.2
100
AcDbText
  0
TEXT
  5
11FB
330
1F
100
AcDbEntity
  8
0
 62
     3
100
AcDbText
 10
1254.710458008181
 20
104.7606282554855
 30
0.0
 40
3.2
  1
質　　　量
  7
高3.2
100
AcDbText
  0
TEXT
  5
11FC
330
1F
100
AcDbEntity
  8
0
 62
     3
100
AcDbText
 10
1254.710458008181
 20
115.7606282554855
 30
0.0
 40
3.2
  1
球　寿　命
  7
高3.2
100
AcDbText
  0
TEXT
  5
11FD
330
1F
100
AcDbEntity
  8
0
 62
     3
100
AcDbText
 10
1254.710458008181
 20
110.2606282554856
 30
0.0
 40
3.2
  1
使用環境温度
  7
高3.2
100
AcDbText
  0
TEXT
  5
11FE
330
1F
100
AcDbEntity
  8
0
 62
     3
100
AcDbText
 10
1254.710458008181
 20
154.2606282554856
 30
0.0
 40
3.2
  1
定格消費電力
  7
高3.2
100
AcDbText
  0
TEXT
  5
11FF
330
1F
100
AcDbEntity
  8
0
 62
     3
100
AcDbText
 10
1254.710458008181
 20
159.7606282554855
 30
0.0
 40
3.2
  1
定格　電流
  7
高3.2
100
AcDbText
  0
TEXT
  5
1200
330
1F
100
AcDbEntity
  8
0
 62
     3
100
AcDbText
 10
1254.710458008181
 20
165.2606282554856
 30
0.0
 40
3.2
  1
入力電圧範囲
 41
0.9
  7
高3.2
100
AcDbText
  0
TEXT
  5
1201
330
1F
100
AcDbEntity
  8
0
 62
     3
100
AcDbText
 10
1254.710458008181
 20
170.7606282554856
 30
0.0
 40
3.2
  1
周　波　数
  7
高3.2
100
AcDbText
  0
TEXT
  5
1202
330
1F
100
AcDbEntity
  8
0
 62
     3
100
AcDbText
 10
1254.710458008181
 20
176.2606282554856
 30
0.0
 40
3.2
  1
定格　電圧
  7
高3.2
100
AcDbText
  0
TEXT
  5
1203
330
1F
100
AcDbEntity
  8
0
 62
     3
100
AcDbText
 10
1254.710458008181
 20
192.7606282554856
 30
0.0
 40
3.2
  1
光源色[色温度]
 41
0.8
  7
高3.2
100
AcDbText
  0
TEXT
  5
1204
330
1F
100
AcDbEntity
  8
0
 62
     3
100
AcDbText
 10
1254.710458008181
 20
198.2606282554856
 30
0.0
 40
3.2
  1
定格　光束
  7
高3.2
100
AcDbText
  0
TEXT
  5
1205
330
1F
100
AcDbEntity
  8
0
 62
     3
100
AcDbText
 10
1254.710458008181
 20
203.7606282554855
 30
0.0
 40
3.2
  1
光　　　源
  7
高3.2
100
AcDbText
  0
TEXT
  5
1206
330
1F
100
AcDbEntity
  8
0
 62
     3
100
AcDbText
 10
1254.710458008181
 20
143.2606282554853
 30
0.0
 40
3.2
  1
照度
  7
高3.2
100
AcDbText
  0
LINE
  5
1207
330
1F
100
AcDbEntity
  8
0
 62
     7
100
AcDbLine
 10
1253.210458008182
 20
197.2606282554855
 30
0.0
 11
1324.110458008182
 21
197.2606282554855
 31
0.0
  0
LINE
  5
1208
330
1F
100
AcDbEntity
  8
0
 62
     7
100
AcDbLine
 10
1253.210458008182
 20
202.7606282554857
 30
0.0
 11
1324.110458008182
 21
202.7606282554858
 31
0.0
  0
LINE
  5
1209
330
1F
100
AcDbEntity
  8
0
 62
     7
100
AcDbLine
 10
1253.210458008182
 20
219.2606282554857
 30
0.0
 11
1324.110458008181
 21
219.2606282554857
 31
0.0
  0
LINE
  5
120A
330
1F
100
AcDbEntity
  8
0
100
AcDbLine
 10
1263.601448477849
 20
147.7606282554856
 30
0.0
 11
1263.601448477849
 21
120.2606282554855
 31
0.0
  0
TEXT
  5
120B
330
1F
100
AcDbEntity
  8
0
 62
     3
100
AcDbText
 10
1265.101448477849
 20
143.2606282554853
 30
0.0
 40
3.2
  1
1m
  7
高3.2
100
AcDbText
  0
TEXT
  5
120C
330
1F
100
AcDbEntity
  8
0
 62
     3
100
AcDbText
 10
1265.101448477849
 20
137.7606282554855
 30
0.0
 40
3.2
  1
2m
  7
高3.2
100
AcDbText
  0
TEXT
  5
120D
330
1F
100
AcDbEntity
  8
0
 62
     3
100
AcDbText
 10
1265.101448477849
 20
132.2606282554855
 30
0.0
 40
3.2
  1
3m
  7
高3.2
100
AcDbText
  0
TEXT
  5
120E
330
1F
100
AcDbEntity
  8
0
 62
     3
100
AcDbText
 10
1265.101448477849
 20
126.7606282554855
 30
0.0
 40
3.2
  1
4m
  7
高3.2
100
AcDbText
  0
TEXT
  5
120F
330
1F
100
AcDbEntity
  8
0
 62
     3
100
AcDbText
 10
1265.101448477849
 20
121.2606282554855
 30
0.0
 40
3.2
  1
5m
  7
高3.2
100
AcDbText
  0
LINE
  5
1210
330
1F
100
AcDbEntity
  8
0
 62
     3
100
AcDbLine
 10
1253.210458008181
 20
103.7606282554855
 30
0.0
 11
1324.110458008181
 21
103.7606282554855
 31
0.0
  0
TEXT
  5
1211
330
1F
100
AcDbEntity
  8
0
 62
     3
100
AcDbText
 10
1279.638553580945
 20
203.7606282554855
 30
0.0
 40
3.2
  1
LED
 41
0.8
  7
高3.2
100
AcDbText
  0
TEXT
  5
1212
330
1F
100
AcDbEntity
  8
0
 62
     3
100
AcDbText
 10
1279.638553580945
 20
198.2606282554856
 30
0.0
 40
3.2
  1
1800Lm
 41
0.8
  7
高3.2
100
AcDbText
  0
TEXT
  5
1213
330
1F
100
AcDbEntity
  8
0
 62
     3
100
AcDbText
 10
1279.638553580945
 20
192.7606282554856
 30
0.0
 40
3.2
  1
昼白色　[5000K]
 41
0.8
  7
高3.2
100
AcDbText
  0
TEXT
  5
1214
330
1F
100
AcDbEntity
  8
0
 62
     3
100
AcDbText
 10
1279.638553580944
 20
176.2606282554856
 30
0.0
 40
3.2
  1
AC100V (200V)
 41
0.8
  7
高3.2
100
AcDbText
  0
TEXT
  5
1215
330
1F
100
AcDbEntity
  8
0
 62
     3
100
AcDbText
 10
1279.638553580944
 20
170.7606282554856
 30
0.0
 40
3.2
  1
50/60Hz
 41
0.8
  7
高3.2
100
AcDbText
  0
TEXT
  5
1216
330
1F
100
AcDbEntity
  8
0
 62
     3
100
AcDbText
 10
1279.638553580944
 20
165.2606282554856
 30
0.0
 40
3.2
  1
AC90～264V
 41
0.8
  7
高3.2
100
AcDbText
  0
TEXT
  5
1217
330
1F
100
AcDbEntity
  8
0
 62
     3
100
AcDbText
 10
1279.638553580944
 20
159.7606282554855
 30
0.0
 40
3.2
  1
0.16A (0.08A)
 41
0.8
  7
高3.2
100
AcDbText
  0
TEXT
  5
1218
330
1F
100
AcDbEntity
  8
0
 62
     3
100
AcDbText
 10
1279.638553580944
 20
154.2606282554856
 30
0.0
 40
3.2
  1
14.9W (15.6W)
 41
0.8
  7
高3.2
100
AcDbText
  0
TEXT
  5
1219
330
1F
100
AcDbEntity
  8
0
 62
     3
100
AcDbText
 10
1279.638553580944
 20
143.2606282554853
 30
0.0
 40
3.2
  1
上:150／横155Lx
 41
0.8
  7
高3.2
100
AcDbText
  0
TEXT
  5
121A
330
1F
100
AcDbEntity
  8
0
 62
     3
100
AcDbText
 10
1279.638553580944
 20
137.7606282554855
 30
0.0
 40
3.2
  1
上:40／横40Lx
 41
0.8
  7
高3.2
100
AcDbText
  0
TEXT
  5
121B
330
1F
100
AcDbEntity
  8
0
 62
     3
100
AcDbText
 10
1279.638553580944
 20
132.2606282554855
 30
0.0
 40
3.2
  1
上:20／横20Lx
 41
0.8
  7
高3.2
100
AcDbText
  0
TEXT
  5
121C
330
1F
100
AcDbEntity
  8
0
 62
     3
100
AcDbText
 10
1279.638553580944
 20
126.7606282554855
 30
0.0
 40
3.2
  1
上:10／横10Lx
 41
0.8
  7
高3.2
100
AcDbText
  0
TEXT
  5
121D
330
1F
100
AcDbEntity
  8
0
 62
     3
100
AcDbText
 10
1279.638553580944
 20
121.2606282554855
 30
0.0
 40
3.2
  1
上:8／横8Lx
 41
0.8
  7
高3.2
100
AcDbText
  0
TEXT
  5
121E
330
1F
100
AcDbEntity
  8
0
 62
     3
100
AcDbText
 10
1279.638553580944
 20
115.7606282554855
 30
0.0
 40
3.2
  1
40000時間
 41
0.8
  7
高3.2
100
AcDbText
  0
TEXT
  5
121F
330
1F
100
AcDbEntity
  8
0
 62
     3
100
AcDbText
 10
1279.638553580944
 20
110.2606282554856
 30
0.0
 40
3.2
  1
-10～40℃
 41
0.8
  7
高3.2
100
AcDbText
  0
LINE
  5
1220
330
1F
100
AcDbEntity
  8
0
 62
     3
100
AcDbLine
 10
1253.210458008182
 20
224.7606282554855
 30
0.0
 11
1253.210458008181
 21
103.7606282554855
 31
0.0
  0
LINE
  5
1221
330
1F
100
AcDbEntity
  8
0
 62
     7
100
AcDbLine
 10
1278.138553580943
 20
103.7606282554855
 30
0.0
 11
1278.138553580945
 21
224.7606282554855
 31
0.0
  0
TEXT
  5
1223
330
1F
100
AcDbEntity
  8
0
 62
     3
100
AcDbText
 10
1270.465262236093
 20
229.4252789446928
 30
0.0
 40
4.5
  1
主　　仕　　様
  7
高4.5
100
AcDbText
  0
LINE
  5
1224
330
1F
100
AcDbEntity
  8
0
100
AcDbLine
 10
1269.364347868338
 20
228.5595258608499
 30
0.0
 11
1307.956568148025
 21
228.5595258608499
 31
0.0
  0
TEXT
  5
1225
330
1F
100
AcDbEntity
  8
0
 62
     7
100
AcDbText
 10
1252.902495312549
 20
88.01291561326832
 30
0.0
 40
2.5
  1
注４）照度は当社実測値の為、使用環境下により異なります。
 41
0.8
  7
高2.5
100
AcDbText
  0
TEXT
  5
1226
330
1F
100
AcDbEntity
  8
0
 62
     7
100
AcDbText
 10
1252.902495312549
 20
85.0129156132683
 30
0.0
 40
2.5
  1
注５）球寿命は光束が70%%%に低下するまでの時間です。
 41
0.8
  7
高2.5
100
AcDbText
  0
TEXT
  5
1227
330
1F
100
AcDbEntity
  8
0
 62
     7
100
AcDbText
 10
1252.902495312549
 20
82.01291561326831
 30
0.0
 40
2.5
  1
　　　表示は設計値であり、製品の寿命を保証するものではありません。
 41
0.8
  7
高2.5
100
AcDbText
  0
TEXT
  5
1228
330
1F
100
AcDbEntity
  8
0
 62
     7
100
AcDbText
 10
1252.902495312549
 20
91.01291561326831
 30
0.0
 40
2.5
  1
注３）()内数値は入力200Vでの値です。
 41
0.8
  7
高2.5
100
AcDbText
  0
TEXT
  5
1229
330
1F
100
AcDbEntity
  8
0
 62
     7
100
AcDbText
 10
1252.902495312549
 20
94.01291561326827
 30
0.0
 40
2.5
  1
注２）LEDの光源色、明るさにはバラツキがあります。
 41
0.8
  7
高2.5
100
AcDbText
  0
TEXT
  5
122A
330
1F
100
AcDbEntity
  8
0
 62
     7
100
AcDbText
 10
1252.902495312549
 20
97.01291561326833
 30
0.0
 40
2.5
  1
注１）当器具のLED素子交換はできません。
 41
0.8
  7
高2.5
100
AcDbText
  0
TEXT
  5
122B
330
1F
100
AcDbEntity
  8
0
 62
     7
100
AcDbText
 10
1252.902495312549
 20
79.0129156132683
 30
0.0
 40
2.5
  1
注６）安全にご使用いただくため、取扱説明書をご参照ください。
 41
0.8
  7
高2.5
100
AcDbText
  0
TEXT
  5
122C
330
1F
100
AcDbEntity
  8
0
 62
     3
100
AcDbText
 10
1254.710458008181
 20
220.2606282554855
 30
0.0
 40
3.2
  1
型　　　式
  7
高3.2
100
AcDbText
  0
LINE
  5
122D
330
1F
100
AcDbEntity
  8
0
 62
     3
100
AcDbLine
 10
1253.210458008182
 20
224.7606282554855
 30
0.0
 11
1324.110458008181
 21
224.7606282554855
 31
0.0
  0
TEXT
  5
122E
330
1F
100
AcDbEntity
  8
0
 62
     3
100
AcDbText
 10
1279.638553580946
 20
220.2606282554855
 30
0.0
 40
3.2
  1
LFC-15W-50K
 41
0.8
  7
高3.2
100
AcDbText
  0
TEXT
  5
122F
330
1F
100
AcDbEntity
  8
0
 62
     7
100
AcDbText
 10
1252.902495312549
 20
76.01291561326821
 30
0.0
 40
2.5
  1
注７）仕様変更は予告なく行う場合があります。予めご了承ください。
 41
0.8
  7
高2.5
100
AcDbText
  0
TEXT
  5
1230
330
1F
100
AcDbEntity
  8
0
 62
     3
100
AcDbText
 10
1254.710458008181
 20
209.2606282554857
 30
0.0
 40
3.2
  1
口金サイズ
  7
高3.2
100
AcDbText
  0
LINE
  5
1231
330
1F
100
AcDbEntity
  8
0
 62
     7
100
AcDbLine
 10
1253.210458008182
 20
208.2606282554857
 30
0.0
 11
1324.110458008182
 21
208.2606282554857
 31
0.0
  0
TEXT
  5
1232
330
1F
100
AcDbEntity
  8
0
 62
     3
100
AcDbText
 10
1279.638553580945
 20
209.2606282554857
 30
0.0
 40
3.2
  1
E26
 41
0.8
  7
高3.2
100
AcDbText
  0
LINE
  5
1233
330
1F
100
AcDbEntity
  8
0
 62
     7
100
AcDbLine
 10
1253.210458008181
 20
114.7606282554855
 30
0.0
 11
1324.110458008181
 21
114.7606282554855
 31
0.0
  0
TEXT
  5
1234
330
1F
100
AcDbEntity
  8
0
 62
     3
100
AcDbText
 10
1254.710458008182
 20
214.7606282554857
 30
0.0
 40
3.2
  1
使用　場所
  7
高3.2
100
AcDbText
  0
TEXT
  5
1235
330
1F
100
AcDbEntity
  8
0
 62
     3
100
AcDbText
 10
1279.638553580946
 20
214.7606282554857
 30
0.0
 40
3.2
  1
屋内型
  7
高3.2
100
AcDbText
  0
LINE
  5
1236
330
1F
100
AcDbEntity
  8
0
 62
     7
100
AcDbLine
 10
1253.210458008182
 20
213.7606282554857
 30
0.0
 11
1324.110458008181
 21
213.7606282554856
 31
0.0
  0
TEXT
  5
1237
330
1F
100
AcDbEntity
  8
0
 62
     3
100
AcDbText
 10
1254.710458008181
 20
181.7606282554855
 30
0.0
 40
3.2
  1
照射　角度
  7
高3.2
100
AcDbText
  0
TEXT
  5
1238
330
1F
100
AcDbEntity
  8
0
 62
     3
100
AcDbText
 10
1279.638553580944
 20
181.7606282554855
 30
0.0
 40
3.2
  1
260\U+00B0
 41
0.8
  7
高3.2
100
AcDbText
  0
TEXT
  5
1239
330
1F
100
AcDbEntity
  8
0
 62
     3
100
AcDbText
 10
1254.710458008181
 20
187.2606282554856
 30
0.0
 40
3.2
  1
平均演色評価数
 41
0.8
  7
高3.2
100
AcDbText
  0
LINE
  5
123A
330
1F
100
AcDbEntity
  8
0
 62
     7
100
AcDbLine
 10
1253.210458008182
 20
191.7606282554856
 30
0.0
 11
1324.110458008181
 21
191.7606282554856
 31
0.0
  0
TEXT
  5
123B
330
1F
100
AcDbEntity
  8
0
 62
     3
100
AcDbText
 10
1279.638553580945
 20
187.2606282554856
 30
0.0
 40
3.2
  1
Ra83
 41
0.8
  7
高3.2
100
AcDbText
  0
LINE
  5
123C
330
1F
100
AcDbEntity
  8
0
 62
     7
100
AcDbLine
 10
1253.210458008181
 20
153.2606282554856
 30
0.0
 11
1324.110458008181
 21
153.2606282554856
 31
0.0
  0
TEXT
  5
123D
330
1F
100
AcDbEntity
  8
0
 62
     3
100
AcDbText
 10
1254.710458008181
 20
148.7606282554856
 30
0.0
 40
3.2
  1
固有エネルギー消費効率
 41
0.5
  7
高3.2
100
AcDbText
  0
TEXT
  5
123E
330
1F
100
AcDbEntity
  8
0
 62
     3
100
AcDbText
 10
1279.638553580944
 20
148.7606282554856
 30
0.0
 40
3.2
  1
120.8Lm/W (115.3Lm/W)
 41
0.7
  7
高3.2
100
AcDbText
  0
LINE
  5
123F
330
1F
100
AcDbEntity
  8
0
 62
     3
100
AcDbLine
 10
1324.110458008181
 20
103.7606282554855
 30
0.0
 11
1324.110458008181
 21
224.7606282554855
 31
0.0
  0
LINE
  5
126E
330
1F
100
AcDbEntity
  8
0
 62
     3
100
AcDbLine
 10
1142.366312285605
 20
145.2401203598488
 30
0.0
 11
1141.878385455605
 21
145.2401203598488
 31
0.0
  0
LINE
  5
126F
330
1F
100
AcDbEntity
  8
0
 62
     3
100
AcDbLine
 10
1153.878385455605
 20
283.7401203598489
 30
0.0
 11
1153.878385455605
 21
6.740120359848786
 31
0.0
  0
LINE
  5
1271
330
1F
100
AcDbEntity
  8
0
 62
     3
100
AcDbLine
 10
1333.878385455605
 20
6.740120359848786
 30
0.0
 11
1333.878385455605
 21
283.7401203598489
 31
0.0
  0
LINE
  5
1272
330
1F
100
AcDbEntity
  8
0
 62
     3
100
AcDbLine
 10
1153.878385455605
 20
6.740120359848786
 30
0.0
 11
1333.878385455605
 21
6.740120359848786
 31
0.0
  0
LINE
  5
1273
330
1F
100
AcDbEntity
  8
0
 62
     3
100
AcDbLine
 10
1219.206048085605
 20
283.7401203598489
 30
0.0
 11
1333.878385455605
 21
283.7401203598489
 31
0.0
  0
LINE
  5
1275
330
1F
100
AcDbEntity
  8
0
 62
     3
100
AcDbLine
 10
1185.793301565605
 20
283.7401203598489
 30
0.0
 11
1153.878385455605
 21
283.7401203598489
 31
0.0
  0
LINE
  5
1276
330
1F
100
AcDbEntity
  8
0
 62
     3
100
AcDbLine
 10
1281.878385455605
 20
6.740120359848786
 30
0.0
 11
1281.878385455605
 21
46.74012035984879
 31
0.0
  0
LINE
  5
1277
330
1F
100
AcDbEntity
  8
0
 62
     3
100
AcDbLine
 10
1294.878385455605
 20
16.74012035984879
 30
0.0
 11
1294.878385455605
 21
44.74012035984879
 31
0.0
  0
LINE
  5
1278
330
1F
100
AcDbEntity
  8
0
 62
     3
100
AcDbLine
 10
1254.878385455605
 20
16.74012035984879
 30
0.0
 11
1254.878385455605
 21
30.74012035984878
 31
0.0
  0
LINE
  5
1279
330
1F
100
AcDbEntity
  8
0
 62
     3
100
AcDbLine
 10
1264.878385455605
 20
30.74012035984878
 30
0.0
 11
1264.878385455605
 21
6.740120359848786
 31
0.0
  0
LINE
  5
127A
330
1F
100
AcDbEntity
  8
0
 62
     3
100
AcDbLine
 10
1235.878385455605
 20
46.74012035984879
 30
0.0
 11
1235.878385455605
 21
23.74012035984879
 31
0.0
  0
LINE
  5
127B
330
1F
100
AcDbEntity
  8
0
 62
     3
100
AcDbLine
 10
1294.878385455605
 20
44.74012035984879
 30
0.0
 11
1294.878385455605
 21
46.74012035984879
 31
0.0
  0
LINE
  5
127C
330
1F
100
AcDbEntity
  8
0
 62
     3
100
AcDbLine
 10
1307.878385455605
 20
23.74012035984879
 30
0.0
 11
1307.878385455605
 21
46.74012035984879
 31
0.0
  0
LINE
  5
127D
330
1F
100
AcDbEntity
  8
0
 62
     3
100
AcDbLine
 10
1333.878385455605
 20
46.74012035984879
 30
0.0
 11
1222.632950815605
 21
46.74012035984879
 31
0.0
  0
LINE
  5
127E
330
1F
100
AcDbEntity
  8
0
 62
     3
100
AcDbLine
 10
1333.878385455605
 20
37.74012035984879
 30
0.0
 11
1222.632950815605
 21
37.7401203598488
 31
0.0
  0
LINE
  5
127F
330
1F
100
AcDbEntity
  8
0
 62
     3
100
AcDbLine
 10
1333.878385455605
 20
23.74012035984879
 30
0.0
 11
1222.632950815605
 21
23.74012035984879
 31
0.0
  0
LINE
  5
1280
330
1F
100
AcDbEntity
  8
0
 62
     3
100
AcDbLine
 10
1333.878385455605
 20
16.74012035984879
 30
0.0
 11
1222.632950815605
 21
16.74012035984879
 31
0.0
  0
LINE
  5
1281
330
1F
100
AcDbEntity
  8
0
 62
     3
100
AcDbLine
 10
1320.878385455605
 20
23.74012035984879
 30
0.0
 11
1320.878385455605
 21
46.74012035984879
 31
0.0
  0
LINE
  5
1282
330
1F
100
AcDbEntity
  8
0
 62
     3
100
AcDbLine
 10
1222.632950815605
 20
46.74012035984879
 30
0.0
 11
1222.632950815605
 21
6.740120359848786
 31
0.0
  0
LINE
  5
1283
330
1F
100
AcDbEntity
  8
0
 62
     3
100
AcDbLine
 10
1281.878385455605
 20
30.74012035984878
 30
0.0
 11
1222.632950815605
 21
30.74012035984877
 31
0.0
  0
LINE
  5
1284
330
1F
100
AcDbEntity
  8
0
 62
     3
100
AcDbLine
 10
1265.156710385605
 20
11.57298161984877
 30
0.0
 11
1281.878385455605
 21
11.57298161984877
 31
0.0
  0
TEXT
  5
1285
330
1F
100
AcDbEntity
  8
0
 62
     3
100
AcDbText
 10
1266.042710868921
 20
25.81321721321414
 30
0.0
 40
2.5
  1
交換球
  7
高2.5
100
AcDbText
  0
TEXT
  5
1286
330
1F
100
AcDbEntity
  8
0
 62
     3
100
AcDbText
 10
1237.074754150857
 20
26.03793476483269
 30
0.0
 40
2.5
  1
PC
  7
高2.5
100
AcDbText
  0
TEXT
  5
1287
330
1F
100
AcDbEntity
  8
0
 62
     3
100
AcDbText
 10
1237.339661905555
 20
39.05236988360668
 30
0.0
 40
4.5
  1
LEDフロスト電球15W
 41
0.7
  7
高4.5
100
AcDbText
1001
ACAD
1000
ACAD_MTEXT_DEFINED_HEIGHT_BEGIN
1070
    46
1040
0.0
1000
ACAD_MTEXT_DEFINED_HEIGHT_END
  0
TEXT
  5
1288
330
1F
100
AcDbEntity
  8
0
 62
     3
100
AcDbText
 10
1323.943974549079
 20
43.25381245855238
 30
0.0
 40
2.0
  1
DEF
  7
高2
100
AcDbText
  0
TEXT
  5
1289
330
1F
100
AcDbEntity
  8
0
 62
     3
100
AcDbText
 10
1310.004876195371
 20
43.25381245855229
 30
0.0
 40
2.0
  1
DESN
  7
高2
100
AcDbText
  0
TEXT
  5
128A
330
1F
100
AcDbEntity
  8
0
 62
     3
100
AcDbText
 10
1283.750509255371
 20
43.25381245855238
 30
0.0
 40
2.0
  1
APPD
  7
高2
100
AcDbText
  0
TEXT
  5
128B
330
1F
100
AcDbEntity
  8
0
 62
     3
100
AcDbText
 10
1296.863245355605
 20
43.25381245855239
 30
0.0
 40
2.0
  1
CHCK
  7
高2
100
AcDbText
  0
TEXT
  5
128C
330
1F
100
AcDbEntity
  8
0
 62
     3
100
AcDbText
 10
1255.805551094758
 20
20.90851918307951
 30
0.0
 40
2.0
  1
SCALE
 41
0.8
  7
高2
100
AcDbText
  0
TEXT
  5
128D
330
1F
100
AcDbEntity
  8
0
 62
     3
100
AcDbText
 10
1224.317529518651
 20
20.90851918307952
 30
0.0
 40
2.0
  1
3AD　ANGLE
 41
1.5
  7
高2
100
AcDbText
  0
TEXT
  5
128E
330
1F
100
AcDbEntity
  8
0
 62
     3
100
AcDbText
 10
1255.074956785607
 20
27.66005725203662
 30
0.0
 40
2.0
  1
REMARKS
 41
0.7
  7
高2
100
AcDbText
  0
TEXT
  5
128F
330
1F
100
AcDbEntity
  8
0
 62
     3
100
AcDbText
 10
1224.100621165605
 20
27.7401203598488
 30
0.0
 40
2.0
  1
MATERIAL
 41
0.7
  7
高2
100
AcDbText
  0
TEXT
  5
1290
330
1F
100
AcDbEntity
  8
0
 62
     3
100
AcDbText
 10
1224.677108368359
 20
34.74012035984877
 30
0.0
 40
2.0
  1
MODEL
  7
高2
100
AcDbText
  0
TEXT
  5
1291
330
1F
100
AcDbEntity
  8
0
 62
     3
100
AcDbText
 10
1224.31402924969
 20
43.44714171044779
 30
0.0
 40
2.0
  1
CONPONENTS
 41
0.5
  7
高2
100
AcDbText
  0
TEXT
  5
1292
330
1F
100
AcDbEntity
  8
0
 62
     3
100
AcDbText
 10
1237.021144720857
 20
31.82760148766074
 30
0.0
 40
4.5
  1
LFC-15W-50K
 41
0.9
  7
高4.5
100
AcDbText
  0
TEXT
  5
1293
330
1F
100
AcDbEntity
  8
0
 62
     3
100
AcDbText
 10
1283.632130866389
 20
7.971982215273101
 30
0.0
 40
6.299999999999998
  1
LFC-15W-50K
 41
0.7
  7
高6.3
100
AcDbText
1001
ACAD
1000
ACAD_MTEXT_DEFINED_HEIGHT_BEGIN
1070
    46
1040
0.0
1000
ACAD_MTEXT_DEFINED_HEIGHT_END
  0
TEXT
  5
1294
330
1F
100
AcDbEntity
  8
0
 62
     3
100
AcDbText
 10
1298.441895205935
 20
17.84100951808179
 30
0.0
 40
3.2
  1
2021.11.24
  7
高3.2
100
AcDbText
1001
ACAD
1000
ACAD_MTEXT_DEFINED_HEIGHT_BEGIN
1070
    46
1040
0.0
1000
ACAD_MTEXT_DEFINED_HEIGHT_END
  0
TEXT
  5
1295
330
1F
100
AcDbEntity
  8
0
 62
     3
100
AcDbText
 10
1268.665983350252
 20
17.84103736241666
 30
0.0
 40
3.2
  1
1/1
  7
高3.2
100
AcDbText
  0
TEXT
  5
1296
330
1F
100
AcDbEntity
  8
0
 62
     3
100
AcDbText
 10
1265.743312325605
 20
7.556998532984748
 30
0.0
 40
3.2
  1
ZK-A4Y
 41
0.8
  7
高3.2
100
AcDbText
  0
TEXT
  5
1297
330
1F
100
AcDbEntity
  8
0
 62
     3
100
AcDbText
 10
1223.463651855605
 20
13.26474078203661
 30
0.0
 40
2.0
  1
NICHIDO IND.CO.LTD
 41
1.3
  7
高2
100
AcDbText
  0
TEXT
  5
1298
330
1F
100
AcDbEntity
  8
0
 62
     3
100
AcDbText
 10
1224.645175120562
 20
38.88064856773372
 30
0.0
 40
3.2
  1
品 名
  7
高3.2
100
AcDbText
1001
ACAD
1000
ACAD_MTEXT_DEFINED_HEIGHT_BEGIN
1070
    46
1040
0.0
1000
ACAD_MTEXT_DEFINED_HEIGHT_END
  0
TEXT
  5
1299
330
1F
100
AcDbEntity
  8
0
 62
     3
100
AcDbText
 10
1224.645175120562
 20
31.24012035984878
 30
0.0
 40
3.2
  1
型 式
  7
高3.2
100
AcDbText
1001
ACAD
1000
ACAD_MTEXT_DEFINED_HEIGHT_BEGIN
1070
    46
1040
3.064735913775954
1000
ACAD_MTEXT_DEFINED_HEIGHT_END
  0
TEXT
  5
129A
330
1F
100
AcDbEntity
  8
0
 62
     3
100
AcDbText
 10
1224.645175120562
 20
24.2401203598488
 30
0.0
 40
3.2
  1
材 質
  7
高3.2
100
AcDbText
1001
ACAD
1000
ACAD_MTEXT_DEFINED_HEIGHT_BEGIN
1070
    46
1040
0.0
1000
ACAD_MTEXT_DEFINED_HEIGHT_END
  0
TEXT
  5
129B
330
1F
100
AcDbEntity
  8
0
 62
     3
100
AcDbText
 10
1224.340140170562
 20
17.20756035209503
 30
0.0
 40
3.2
  1
第 三 角 法
  7
高3.2
100
AcDbText
1001
ACAD
1000
ACAD_MTEXT_DEFINED_HEIGHT_BEGIN
1070
    46
1040
0.0
1000
ACAD_MTEXT_DEFINED_HEIGHT_END
  0
TEXT
  5
129C
330
1F
100
AcDbEntity
  8
0
 62
     3
100
AcDbText
 10
1222.746672778091
 20
7.880648567733723
 30
0.0
 40
3.2
  1
日動工業株式会社
 41
1.199999999999999
  7
高3.2
100
AcDbText
1001
ACAD
1000
ACAD_MTEXT_DEFINED_HEIGHT_BEGIN
1070
    46
1040
0.0
1000
ACAD_MTEXT_DEFINED_HEIGHT_END
  0
TEXT
  5
129D
330
1F
100
AcDbEntity
  8
0
 62
     3
100
AcDbText
 10
1256.38229697757
 20
24.12469889301635
 30
0.0
 40
3.2
  1
備考
  7
高3.2
100
AcDbText
1001
ACAD
1000
ACAD_MTEXT_DEFINED_HEIGHT_BEGIN
1070
    46
1040
0.0
1000
ACAD_MTEXT_DEFINED_HEIGHT_END
  0
TEXT
  5
129E
330
1F
100
AcDbEntity
  8
0
 62
     3
100
AcDbText
 10
1266.031354424605
 20
12.88635038541908
 30
0.0
 40
2.5
  1
出図コード
  7
高2.5
100
AcDbText
1001
ACAD
1000
ACAD_MTEXT_DEFINED_HEIGHT_BEGIN
1070
    46
1040
0.0
1000
ACAD_MTEXT_DEFINED_HEIGHT_END
  0
TEXT
  5
129F
330
1F
100
AcDbEntity
  8
0
 62
     3
100
AcDbText
 10
1256.223530859482
 20
17.1933552702617
 30
0.0
 40
3.2
  1
尺度
  7
高3.2
100
AcDbText
1001
ACAD
1000
ACAD_MTEXT_DEFINED_HEIGHT_BEGIN
1070
    46
1040
0.0
1000
ACAD_MTEXT_DEFINED_HEIGHT_END
  0
TEXT
  5
12A0
330
1F
100
AcDbEntity
  8
0
 62
     3
100
AcDbText
 10
1283.369792341261
 20
18.32483371837919
 30
0.0
 40
3.2
  1
作成日
  7
高3.2
100
AcDbText
1001
ACAD
1000
ACAD_MTEXT_DEFINED_HEIGHT_BEGIN
1070
    46
1040
0.0
1000
ACAD_MTEXT_DEFINED_HEIGHT_END
  0
TEXT
  5
12A1
330
1F
100
AcDbEntity
  8
0
 62
     3
100
AcDbText
 10
1283.264266348125
 20
38.88064856773372
 30
0.0
 40
3.2
  1
承 認
  7
高3.2
100
AcDbText
1001
ACAD
1000
ACAD_MTEXT_DEFINED_HEIGHT_BEGIN
1070
    46
1040
0.0
1000
ACAD_MTEXT_DEFINED_HEIGHT_END
  0
TEXT
  5
12A2
330
1F
100
AcDbEntity
  8
0
 62
     3
100
AcDbText
 10
1296.264266348125
 20
38.88064856773372
 30
0.0
 40
3.2
  1
検 図
  7
高3.2
100
AcDbText
1001
ACAD
1000
ACAD_MTEXT_DEFINED_HEIGHT_BEGIN
1070
    46
1040
0.0
1000
ACAD_MTEXT_DEFINED_HEIGHT_END
  0
TEXT
  5
12A3
330
1F
100
AcDbEntity
  8
0
 62
     3
100
AcDbText
 10
1309.264266348125
 20
38.88064856773372
 30
0.0
 40
3.2
  1
設 計
  7
高3.2
100
AcDbText
1001
ACAD
1000
ACAD_MTEXT_DEFINED_HEIGHT_BEGIN
1070
    46
1040
0.0
1000
ACAD_MTEXT_DEFINED_HEIGHT_END
  0
TEXT
  5
12A4
330
1F
100
AcDbEntity
  8
0
 62
     3
100
AcDbText
 10
1322.564902868125
 20
38.88064856773372
 30
0.0
 40
3.2
  1
製 図
  7
高3.2
100
AcDbText
1001
ACAD
1000
ACAD_MTEXT_DEFINED_HEIGHT_BEGIN
1070
    46
1040
0.0
1000
ACAD_MTEXT_DEFINED_HEIGHT_END
  0
LINE
  5
12A5
330
1F
100
AcDbEntity
  8
0
 62
     3
100
AcDbLine
 10
1193.131319415339
 20
285.1883009535147
 30
0.0
 11
1193.131319415339
 21
282.034952159849
 31
0.0
  0
LINE
  5
12A6
330
1F
100
AcDbEntity
  8
0
 62
     3
100
AcDbLine
 10
1193.774148490438
 20
283.9572291337875
 30
0.0
 11
1193.774148490438
 21
282.034952159849
 31
0.0
  0
LINE
  5
12A7
330
1F
100
AcDbEntity
  8
0
 62
     3
100
AcDbLine
 10
1195.578245378312
 20
285.1883009535147
 30
0.0
 11
1195.578245378312
 21
283.7998340327638
 31
0.0
  0
LINE
  5
12A8
330
1F
100
AcDbEntity
  8
0
 62
     3
100
AcDbLine
 10
1196.221073779556
 20
285.1883009535147
 30
0.0
 11
1196.221073779556
 21
281.6123201612724
 31
0.0
  0
LINE
  5
12A9
330
1F
100
AcDbEntity
  8
0
 62
     3
100
AcDbLine
 10
1197.245019937136
 20
285.1666418491701
 30
0.0
 11
1197.245019937136
 21
282.0133314652622
 31
0.0
  0
LINE
  5
12AA
330
1F
100
AcDbEntity
  8
0
 62
     3
100
AcDbLine
 10
1198.263541591411
 20
285.1666276982068
 30
0.0
 11
1198.263541591411
 21
282.0133173142988
 31
0.0
  0
LINE
  5
12AB
330
1F
100
AcDbEntity
  8
0
 62
     3
100
AcDbLine
 10
1202.034364661838
 20
285.1665805283287
 30
0.0
 11
1202.034309405695
 21
282.0132708182764
 31
0.0
  0
LINE
  5
12AC
330
1F
100
AcDbEntity
  8
0
 62
     3
100
AcDbLine
 10
1205.15022890121
 20
285.1665805283287
 30
0.0
 11
1205.150284157353
 21
282.0132708182764
 31
0.0
  0
LINE
  5
12AD
330
1F
100
AcDbEntity
  8
0
 62
     3
100
AcDbLine
 10
1204.109804251038
 20
283.7927504207049
 30
0.0
 11
1203.074789312011
 21
283.7927504207049
 31
0.0
  0
LINE
  5
12AE
330
1F
100
AcDbEntity
  8
0
 62
     3
100
AcDbLine
 10
1204.109797512484
 20
283.3871945918006
 30
0.0
 11
1203.07479672442
 21
283.3871945918006
 31
0.0
  0
LINE
  5
12AF
330
1F
100
AcDbEntity
  8
0
 62
     3
100
AcDbLine
 10
1204.109828509832
 20
285.1665805283287
 30
0.0
 11
1204.109804251038
 21
283.7927504207049
 31
0.0
  0
LINE
  5
12B0
330
1F
100
AcDbEntity
  8
0
 62
     3
100
AcDbLine
 10
1204.109797512484
 20
283.3871945918006
 30
0.0
 11
1204.109773253689
 21
282.0132708182764
 31
0.0
  0
LINE
  5
12B1
330
1F
100
AcDbEntity
  8
0
 62
     3
100
AcDbLine
 10
1203.074765053216
 20
285.1665805283287
 30
0.0
 11
1203.074789312011
 21
283.7927504207049
 31
0.0
  0
LINE
  5
12B2
330
1F
100
AcDbEntity
  8
0
 62
     3
100
AcDbLine
 10
1203.07479672442
 20
283.3871945918006
 30
0.0
 11
1203.074820309359
 21
282.0132708182764
 31
0.0
  0
LINE
  5
12B3
330
1F
100
AcDbEntity
  8
0
 62
     3
100
AcDbLine
 10
1206.176650038949
 20
285.1665805283287
 30
0.0
 11
1206.176594782806
 21
282.0132708182764
 31
0.0
  0
LINE
  5
12B4
330
1F
100
AcDbEntity
  8
0
 62
     3
100
AcDbLine
 10
1207.195150129851
 20
285.1665805283287
 30
0.0
 11
1207.195204712139
 21
282.0132708182764
 31
0.0
  0
LINE
  5
12B5
330
1F
100
AcDbEntity
  8
0
 62
     3
100
AcDbLine
 10
1208.233395727175
 20
285.1665805283287
 30
0.0
 11
1208.233341144888
 21
282.0132708182764
 31
0.0
  0
ARC
  5
12B6
330
1F
100
AcDbEntity
  8
0
 62
     3
100
AcDbCircle
 10
1200.505323545713
 20
283.5990116025783
 30
0.0
 40
2.008364022758428
100
AcDbArc
 50
97.70152400000611
 51
266.0248408089619
  0
ARC
  5
12B7
330
1F
100
AcDbEntity
  8
0
 62
     3
100
AcDbCircle
 10
1212.625124251123
 20
283.5788377196357
 30
0.0
 40
2.030175374321248
100
AcDbArc
 50
0.3142499999973993
 51
69.00558199999152
  0
ARC
  5
12B8
330
1F
100
AcDbEntity
  8
0
 62
     3
100
AcDbCircle
 10
1213.068593206355
 20
283.5788377196357
 30
0.0
 40
2.030175374321248
100
AcDbArc
 50
110.9944180000084
 51
148.1166110000013
  0
ARC
  5
12B9
330
1F
100
AcDbEntity
  8
0
 62
     3
100
AcDbCircle
 10
1212.625124251123
 20
283.60110729287
 30
0.0
 40
2.030175374321248
100
AcDbArc
 50
290.9944180000085
 51
359.6857499999988
  0
ARC
  5
12BA
330
1F
100
AcDbEntity
  8
0
 62
     3
100
AcDbCircle
 10
1213.068593206355
 20
283.60110729287
 30
0.0
 40
2.030175374321248
100
AcDbArc
 50
211.8833889999975
 51
249.0055819999915
  0
ARC
  5
12BB
330
1F
100
AcDbEntity
  8
0
 62
     3
100
AcDbCircle
 10
1212.846859065667
 20
284.4205525204011
 30
0.0
 40
1.168726044333501
100
AcDbArc
 50
64.36517200000574
 51
115.6348279999942
  0
ARC
  5
12BC
330
1F
100
AcDbEntity
  8
0
 62
     3
100
AcDbCircle
 10
1212.846859065667
 20
282.7593924921046
 30
0.0
 40
1.168726044333501
100
AcDbArc
 50
244.3651720000058
 51
295.6348279999943
  0
ARC
  5
12BD
330
1F
100
AcDbEntity
  8
0
 62
     3
100
AcDbCircle
 10
1212.846859065667
 20
284.4427533603846
 30
0.0
 40
0.5736005406576802
100
AcDbArc
 50
19.48660600000038
 51
160.5133939999995
  0
ARC
  5
12BE
330
1F
100
AcDbEntity
  8
0
 62
     3
100
AcDbCircle
 10
1212.846859065667
 20
282.7371923259764
 30
0.0
 40
0.5736005406576802
100
AcDbArc
 50
199.4866060000004
 51
340.5133939999995
  0
LINE
  5
12BF
330
1F
100
AcDbEntity
  8
0
 62
     3
100
AcDbLine
 10
1207.532353246516
 20
281.5906664477711
 30
0.0
 11
1205.839446922284
 21
281.5906664477711
 31
0.0
  0
LINE
  5
12C0
330
1F
100
AcDbEntity
  8
0
 62
     3
100
AcDbLine
 10
1207.532353246516
 20
281.7943257650854
 30
0.0
 11
1207.532353246516
 21
281.5906664477711
 31
0.0
  0
LINE
  5
12C1
330
1F
100
AcDbEntity
  8
0
 62
     3
100
AcDbLine
 10
1205.487432691731
 20
285.5891835511233
 30
0.0
 11
1203.772625393167
 21
285.5891835511233
 31
0.0
  0
LINE
  5
12C2
330
1F
100
AcDbEntity
  8
0
 62
     3
100
AcDbLine
 10
1205.487432691731
 20
285.5891835511233
 30
0.0
 11
1205.487432691731
 21
285.3856192474202
 31
0.0
  0
LINE
  5
12C3
330
1F
100
AcDbEntity
  8
0
 62
     3
100
AcDbLine
 10
1205.487432691731
 20
281.7943257650854
 30
0.0
 11
1205.487432691731
 21
281.5905714341598
 31
0.0
  0
LINE
  5
12C4
330
1F
100
AcDbEntity
  8
0
 62
     3
100
AcDbLine
 10
1205.487432691731
 20
281.5905714341598
 30
0.0
 11
1203.772625393167
 21
281.5905714341598
 31
0.0
  0
LINE
  5
12C5
330
1F
100
AcDbEntity
  8
0
 62
     3
100
AcDbLine
 10
1207.532353246516
 20
285.5892785647345
 30
0.0
 11
1207.532353246516
 21
285.3856192474202
 31
0.0
  0
LINE
  5
12C6
330
1F
100
AcDbEntity
  8
0
 62
     3
100
AcDbLine
 10
1207.532353246516
 20
285.5892785647345
 30
0.0
 11
1205.839446922284
 21
285.5892785647345
 31
0.0
  0
LINE
  5
12C7
330
1F
100
AcDbEntity
  8
0
 62
     3
100
AcDbLine
 10
1205.839446922284
 20
285.5892785647345
 30
0.0
 11
1205.839446922284
 21
285.3856192474202
 31
0.0
  0
LINE
  5
12C8
330
1F
100
AcDbEntity
  8
0
 62
     3
100
AcDbLine
 10
1207.896192610511
 20
281.7943257650854
 30
0.0
 11
1207.896192610511
 21
281.5906664477711
 31
0.0
  0
LINE
  5
12C9
330
1F
100
AcDbEntity
  8
0
 62
     3
100
AcDbLine
 10
1209.724110770787
 20
281.5906664477711
 30
0.0
 11
1207.896192610511
 21
281.5906664477711
 31
0.0
  0
LINE
  5
12CA
330
1F
100
AcDbEntity
  8
0
 62
     3
100
AcDbLine
 10
1209.251895818078
 20
284.9464501634906
 30
0.0
 11
1209.251895818078
 21
282.233494849015
 31
0.0
  0
LINE
  5
12CB
330
1F
100
AcDbEntity
  8
0
 62
     3
100
AcDbLine
 10
1209.251895818078
 20
282.233494849015
 30
0.0
 11
1209.434846211262
 21
282.233494849015
 31
0.0
  0
ARC
  5
12CC
330
1F
100
AcDbEntity
  8
0
 62
     3
100
AcDbCircle
 10
1208.499356345427
 20
283.5899725062528
 30
0.0
 40
1.647777933922859
100
AcDbArc
 50
304.5919549999955
 51
55.40804500000445
  0
LINE
  5
12CD
330
1F
100
AcDbEntity
  8
0
 62
     3
100
AcDbLine
 10
1209.724110770787
 20
285.5892785647345
 30
0.0
 11
1207.896192610511
 21
285.5892785647345
 31
0.0
  0
LINE
  5
12CE
330
1F
100
AcDbEntity
  8
0
 62
     3
100
AcDbLine
 10
1207.896192610511
 20
285.5892785647345
 30
0.0
 11
1207.896192610511
 21
285.3856192474202
 31
0.0
  0
LINE
  5
12CF
330
1F
100
AcDbEntity
  8
0
 62
     3
100
AcDbLine
 10
1205.839446922284
 20
281.7943257650854
 30
0.0
 11
1205.839446922284
 21
281.5906664477711
 31
0.0
  0
LINE
  5
12D0
330
1F
100
AcDbEntity
  8
0
 62
     3
100
AcDbLine
 10
1209.251895818078
 20
284.9464501634906
 30
0.0
 11
1209.434846211262
 21
284.9464501634906
 31
0.0
  0
LINE
  5
12D1
330
1F
100
AcDbEntity
  8
0
 62
     3
100
AcDbLine
 10
1198.600686082514
 20
281.7943193906693
 30
0.0
 11
1198.600682039381
 21
281.5906412054038
 31
0.0
  0
LINE
  5
12D2
330
1F
100
AcDbEntity
  8
0
 62
     3
100
AcDbLine
 10
1192.794116298674
 20
281.6123201612724
 30
0.0
 11
1194.111351607103
 21
281.6123201612724
 31
0.0
  0
ARC
  5
12D3
330
1F
100
AcDbEntity
  8
0
 62
     3
100
AcDbCircle
 10
1187.5035275529
 20
283.637052761432
 30
0.0
 40
14.16402202796531
100
AcDbArc
 50
353.8660059999994
 51
357.6940340000011
  0
LINE
  5
12D4
330
1F
100
AcDbEntity
  8
0
 62
     3
100
AcDbLine
 10
1200.707801594513
 20
283.07066045198
 30
0.0
 11
1201.65608056197
 21
283.0671516869162
 31
0.0
  0
LINE
  5
12D6
330
1F
100
AcDbEntity
  8
0
 62
     3
100
AcDbLine
 10
1200.711631114747
 20
284.1057164961867
 30
0.0
 11
1201.659910082204
 21
284.1022077311226
 31
0.0
  0
ARC
  5
12D7
330
1F
100
AcDbEntity
  8
0
 62
     3
100
AcDbCircle
 10
1187.5035275529
 20
283.637052761432
 30
0.0
 40
14.16402202796531
100
AcDbArc
 50
1.881965999999369
 51
5.709993999999739
  0
LINE
  5
12D8
330
1F
100
AcDbEntity
  8
0
 62
     3
100
AcDbLine
 10
1198.600752120497
 20
285.5892610579565
 30
0.0
 11
1198.60074875122
 21
285.3856206085934
 31
0.0
  0
LINE
  5
12D9
330
1F
100
AcDbEntity
  8
0
 62
     3
100
AcDbLine
 10
1196.907779758413
 20
281.7943244039122
 30
0.0
 11
1196.907776389136
 21
281.5906839545491
 31
0.0
  0
LINE
  5
12DA
330
1F
100
AcDbEntity
  8
0
 62
     3
100
AcDbLine
 10
1196.907845796242
 20
285.5892967456247
 30
0.0
 11
1196.907842426965
 21
285.3856178865036
 31
0.0
  0
LINE
  5
12DB
330
1F
100
AcDbEntity
  8
0
 62
     3
100
AcDbLine
 10
1194.111351607103
 20
281.8159794785868
 30
0.0
 11
1194.111351607103
 21
281.6123201612724
 31
0.0
  0
LINE
  5
12DC
330
1F
100
AcDbEntity
  8
0
 62
     3
100
AcDbLine
 10
1193.774148490438
 20
283.9572291337875
 30
0.0
 11
1195.23971659826
 21
281.6123201612724
 31
0.0
  0
LINE
  5
12DD
330
1F
100
AcDbEntity
  8
0
 62
     3
100
AcDbLine
 10
1195.23971659826
 20
281.6123201612724
 30
0.0
 11
1196.221073779556
 21
281.6123201612724
 31
0.0
  0
LINE
  5
12DE
330
1F
100
AcDbEntity
  8
0
 62
     3
100
AcDbLine
 10
1196.558276896221
 20
285.6109322782359
 30
0.0
 11
1196.558276896221
 21
285.4072729609216
 31
0.0
  0
LINE
  5
12DF
330
1F
100
AcDbEntity
  8
0
 62
     3
100
AcDbLine
 10
1195.241042261647
 20
285.6109322782359
 30
0.0
 11
1196.558276896221
 21
285.6109322782359
 31
0.0
  0
LINE
  5
12E0
330
1F
100
AcDbEntity
  8
0
 62
     3
100
AcDbLine
 10
1195.241042261647
 20
285.6109322782359
 30
0.0
 11
1195.241042261647
 21
285.4072729609216
 31
0.0
  0
LINE
  5
12E1
330
1F
100
AcDbEntity
  8
0
 62
     3
100
AcDbLine
 10
1195.578245378312
 20
283.7998340327638
 30
0.0
 11
1194.389712028373
 21
285.6109322782359
 31
0.0
  0
LINE
  5
12E2
330
1F
100
AcDbEntity
  8
0
 62
     3
100
AcDbLine
 10
1192.794116298674
 20
285.6109322782359
 30
0.0
 11
1194.389712028373
 21
285.6109322782359
 31
0.0
  0
LINE
  5
12E3
330
1F
100
AcDbEntity
  8
0
 62
     3
100
AcDbLine
 10
1201.697161545173
 20
285.5891835511233
 30
0.0
 11
1203.411968169881
 21
285.5891835511232
 31
0.0
  0
LINE
  5
12E4
330
1F
100
AcDbEntity
  8
0
 62
     3
100
AcDbLine
 10
1201.697161545173
 20
285.3856192474202
 30
0.0
 11
1201.697161545173
 21
285.5891835511233
 31
0.0
  0
LINE
  5
12E5
330
1F
100
AcDbEntity
  8
0
 62
     3
100
AcDbLine
 10
1201.697161545173
 20
281.5905714341598
 30
0.0
 11
1201.697161545173
 21
281.7943257650854
 31
0.0
  0
LINE
  5
12E6
330
1F
100
AcDbEntity
  8
0
 62
     3
100
AcDbLine
 10
1201.697161545173
 20
281.5905714341597
 30
0.0
 11
1203.411968169881
 21
281.5905714341598
 31
0.0
  0
LINE
  5
12E7
330
1F
100
AcDbEntity
  8
0
 62
     3
100
AcDbLine
 10
1203.772625393167
 20
281.7943257650854
 30
0.0
 11
1203.772625393167
 21
281.5905714341598
 31
0.0
  0
LINE
  5
12E8
330
1F
100
AcDbEntity
  8
0
 62
     3
100
AcDbLine
 10
1203.411968169881
 20
281.7943257650854
 30
0.0
 11
1203.411968169881
 21
281.5905714341598
 31
0.0
  0
LINE
  5
12E9
330
1F
100
AcDbEntity
  8
0
 62
     3
100
AcDbLine
 10
1203.411968169881
 20
285.3856192474202
 30
0.0
 11
1203.411968169881
 21
285.5891835511233
 31
0.0
  0
LINE
  5
12EA
330
1F
100
AcDbEntity
  8
0
 62
     3
100
AcDbLine
 10
1203.772625393167
 20
285.3856192474202
 30
0.0
 11
1203.772625393167
 21
285.5891835511233
 31
0.0
  0
LINE
  5
12EB
330
1F
100
AcDbEntity
  8
0
 62
     3
100
AcDbLine
 10
1192.794116298674
 20
281.8159794785868
 30
0.0
 11
1192.794116298674
 21
281.6123201612724
 31
0.0
  0
LINE
  5
12EC
330
1F
100
AcDbEntity
  8
0
 62
     3
100
AcDbLine
 10
1192.794116298674
 20
285.6109322782359
 30
0.0
 11
1192.794116298674
 21
285.4072729609216
 31
0.0
  0
ARC
  5
12ED
330
1F
100
AcDbEntity
  8
0
 62
     3
100
AcDbCircle
 10
1209.895710018521
 20
284.0094454707178
 30
0.0
 40
1.579833094016801
100
AcDbArc
 50
17.30874900000207
 51
23.76507100000099
  0
ARC
  5
12EE
330
1F
100
AcDbEntity
  8
0
 62
     3
100
AcDbCircle
 10
1208.549661621297
 20
283.5899725062528
 30
0.0
 40
2.989728616463745
100
AcDbArc
 50
342.691250999998
 51
17.30856599999842
  0
ARC
  5
12EF
330
1F
100
AcDbEntity
  8
0
 62
     3
100
AcDbCircle
 10
1209.895710018521
 20
283.1704995417879
 30
0.0
 40
1.579833094016801
100
AcDbArc
 50
336.234928999999
 51
342.691250999998
  0
ARC
  5
12F0
330
1F
100
AcDbEntity
  8
0
 62
     3
100
AcDbCircle
 10
1209.724110770787
 20
284.0094454707178
 30
0.0
 40
1.579833094016801
100
AcDbArc
 50
17.30874900000207
 51
90.0
  0
ARC
  5
12F1
330
1F
100
AcDbEntity
  8
0
 62
     3
100
AcDbCircle
 10
1208.378058990896
 20
283.5899815388748
 30
0.0
 40
2.989728616463745
100
AcDbArc
 50
342.691250999998
 51
17.30856599999842
  0
ARC
  5
12F2
330
1F
100
AcDbEntity
  8
0
 62
     3
100
AcDbCircle
 10
1209.724110770787
 20
283.1704995417879
 30
0.0
 40
1.579833094016801
100
AcDbArc
 50
270.0
 51
342.691250999998
  0
ARC
  5
12F3
330
1F
100
AcDbEntity
  8
0
 62
     3
100
AcDbCircle
 10
1200.227453880991
 20
283.5899725062528
 30
0.0
 40
1.999306058481751
100
AcDbArc
 50
46.75287999999759
 51
89.74999799999961
  0
ARC
  5
12F4
330
1F
100
AcDbEntity
  8
0
 62
     3
100
AcDbCircle
 10
1200.227453880991
 20
283.5899725062528
 30
0.0
 40
1.999306058481751
100
AcDbArc
 50
273.9763330000016
 51
312.8231199999973
  0
ARC
  5
12F5
330
1F
100
AcDbEntity
  8
0
 62
     3
100
AcDbCircle
 10
1210.962199395536
 20
283.5591085812565
 30
0.0
 40
2.652957925148358
100
AcDbArc
 50
0.666583999999448
 51
23.90392800000278
  0
ARC
  5
12F6
330
1F
100
AcDbEntity
  8
0
 62
     3
100
AcDbCircle
 10
1214.731518061942
 20
283.5591085812565
 30
0.0
 40
2.652957925148358
100
AcDbArc
 50
156.0960719999972
 51
179.3334160000005
  0
ARC
  5
12F7
330
1F
100
AcDbEntity
  8
0
 62
     3
100
AcDbCircle
 10
1210.962199395536
 20
283.6208364312491
 30
0.0
 40
2.652957925148358
100
AcDbArc
 50
336.0960719999972
 51
359.3334159999979
  0
ARC
  5
12F8
330
1F
100
AcDbEntity
  8
0
 62
     3
100
AcDbCircle
 10
1214.731518061942
 20
283.6208364312491
 30
0.0
 40
2.652957925148358
100
AcDbArc
 50
180.6665839999994
 51
203.9039280000027
  0
LINE
  5
12F9
330
1F
100
AcDbEntity
  8
0
 62
     3
100
AcDbLine
 10
1192.794116298674
 20
285.4072729609216
 30
0.0
 11
1193.131319415339
 21
285.1883009535147
 31
0.0
  0
LINE
  5
12FA
330
1F
100
AcDbEntity
  8
0
 62
     3
100
AcDbLine
 10
1195.241042261647
 20
285.4072729609216
 30
0.0
 11
1195.578245378312
 21
285.1883009535147
 31
0.0
  0
LINE
  5
12FB
330
1F
100
AcDbEntity
  8
0
 62
     3
100
AcDbLine
 10
1196.558276896221
 20
285.4072729609216
 30
0.0
 11
1196.221073779556
 21
285.1883009535147
 31
0.0
  0
LINE
  5
12FC
330
1F
100
AcDbEntity
  8
0
 62
     3
100
AcDbLine
 10
1196.907842426965
 20
285.3856178865036
 30
0.0
 11
1197.245019937136
 21
285.1666418491701
 31
0.0
  0
LINE
  5
12FD
330
1F
100
AcDbEntity
  8
0
 62
     3
100
AcDbLine
 10
1198.60074875122
 20
285.3856206085934
 30
0.0
 11
1198.263541591411
 21
285.1666276982068
 31
0.0
  0
LINE
  5
12FE
330
1F
100
AcDbEntity
  8
0
 62
     3
100
AcDbLine
 10
1201.697161545173
 20
285.3856192474202
 30
0.0
 11
1202.034364661838
 21
285.1665805283287
 31
0.0
  0
LINE
  5
12FF
330
1F
100
AcDbEntity
  8
0
 62
     3
100
AcDbLine
 10
1203.411968169881
 20
285.3856192474202
 30
0.0
 11
1203.074765053216
 21
285.1665805283287
 31
0.0
  0
LINE
  5
1300
330
1F
100
AcDbEntity
  8
0
 62
     3
100
AcDbLine
 10
1203.772625393167
 20
285.3856192474202
 30
0.0
 11
1204.109828509832
 21
285.1665805283287
 31
0.0
  0
LINE
  5
1301
330
1F
100
AcDbEntity
  8
0
 62
     3
100
AcDbLine
 10
1205.487432691731
 20
285.3856192474202
 30
0.0
 11
1205.15022890121
 21
285.1665805283287
 31
0.0
  0
LINE
  5
1302
330
1F
100
AcDbEntity
  8
0
 62
     3
100
AcDbLine
 10
1205.839446922284
 20
285.3856192474202
 30
0.0
 11
1206.176650038949
 21
285.1665805283287
 31
0.0
  0
LINE
  5
1303
330
1F
100
AcDbEntity
  8
0
 62
     3
100
AcDbLine
 10
1207.532353246516
 20
285.3856192474202
 30
0.0
 11
1207.195150129851
 21
285.1665805283287
 31
0.0
  0
LINE
  5
1304
330
1F
100
AcDbEntity
  8
0
 62
     3
100
AcDbLine
 10
1207.896192610511
 20
285.3856192474202
 30
0.0
 11
1208.233395727175
 21
285.1665805283287
 31
0.0
  0
LINE
  5
1305
330
1F
100
AcDbEntity
  8
0
 62
     3
100
AcDbLine
 10
1208.233341144888
 20
282.0132708182764
 30
0.0
 11
1207.896192610511
 21
281.7943257650854
 31
0.0
  0
LINE
  5
1306
330
1F
100
AcDbEntity
  8
0
 62
     3
100
AcDbLine
 10
1207.195204712139
 20
282.0132708182764
 30
0.0
 11
1207.532353246516
 21
281.7943257650854
 31
0.0
  0
LINE
  5
1307
330
1F
100
AcDbEntity
  8
0
 62
     3
100
AcDbLine
 10
1206.176594782806
 20
282.0132708182764
 30
0.0
 11
1205.839446922284
 21
281.7943257650854
 31
0.0
  0
LINE
  5
1308
330
1F
100
AcDbEntity
  8
0
 62
     3
100
AcDbLine
 10
1205.487432691731
 20
281.7943257650854
 30
0.0
 11
1205.150284157353
 21
282.0132708182764
 31
0.0
  0
LINE
  5
1309
330
1F
100
AcDbEntity
  8
0
 62
     3
100
AcDbLine
 10
1203.772625393167
 20
281.7943257650854
 30
0.0
 11
1204.109773253689
 21
282.0132708182764
 31
0.0
  0
LINE
  5
130A
330
1F
100
AcDbEntity
  8
0
 62
     3
100
AcDbLine
 10
1203.411968169881
 20
281.7943257650854
 30
0.0
 11
1203.074820309359
 21
282.0132708182764
 31
0.0
  0
LINE
  5
130B
330
1F
100
AcDbEntity
  8
0
 62
     3
100
AcDbLine
 10
1202.034309405695
 20
282.0132708182764
 30
0.0
 11
1201.697161545173
 21
281.7943257650854
 31
0.0
  0
LINE
  5
130C
330
1F
100
AcDbEntity
  8
0
 62
     3
100
AcDbLine
 10
1198.600686082673
 20
281.7943273981905
 30
0.0
 11
1198.263541591411
 21
282.0133173142988
 31
0.0
  0
LINE
  5
130D
330
1F
100
AcDbEntity
  8
0
 62
     3
100
AcDbLine
 10
1196.907779758413
 20
281.7943244039122
 30
0.0
 11
1197.244953899307
 21
282.0133314652622
 31
0.0
  0
LINE
  5
130E
330
1F
100
AcDbEntity
  8
0
 62
     3
100
AcDbLine
 10
1194.111351607103
 20
281.8159794785868
 30
0.0
 11
1193.774148490438
 21
282.034952159849
 31
0.0
  0
LINE
  5
130F
330
1F
100
AcDbEntity
  8
0
 62
     3
100
AcDbLine
 10
1192.794116298674
 20
281.8159794785868
 30
0.0
 11
1193.131319415339
 21
282.034952159849
 31
0.0
  0
LINE
  5
1310
330
1F
100
AcDbEntity
  8
0
 62
     3
100
AcDbLine
 10
1198.60068203954
 20
281.590649212925
 30
0.0
 11
1196.907776389136
 21
281.5906839545491
 31
0.0
  0
LINE
  5
1311
330
1F
100
AcDbEntity
  8
0
 62
     3
100
AcDbLine
 10
1196.907845796242
 20
285.5892967456247
 30
0.0
 11
1198.600752120497
 21
285.5892610579565
 31
0.0
  0
ARC
  5
1312
330
1F
100
AcDbEntity
  8
0
 62
     3
100
AcDbCircle
 10
1216.122108093343
 20
283.5778261690383
 30
0.0
 40
0.9989999999999998
100
AcDbArc
 50
293.7485430905243
 51
66.25145690947578
  0
ARC
  5
1313
330
1F
100
AcDbEntity
  8
0
 62
     3
100
AcDbCircle
 10
1216.122108093343
 20
283.5778261690383
 30
0.0
 40
1.498499999999999
100
AcDbArc
 50
293.7485430905243
 51
66.25145690947578
  0
ARC
  5
1314
330
1F
100
AcDbEntity
  8
0
 62
     3
100
AcDbCircle
 10
1208.47801494735
 20
266.2041046052689
 30
0.0
 40
19.98
100
AcDbArc
 50
66.25145690947578
 51
81.41597019517911
  0
ARC
  5
1315
330
1F
100
AcDbEntity
  8
0
 62
     3
100
AcDbCircle
 10
1208.47801494735
 20
266.2041046052689
 30
0.0
 40
20.4795
100
AcDbArc
 50
66.25145690947578
 51
81.41597019517911
  0
ARC
  5
1316
330
1F
100
AcDbEntity
  8
0
 62
     3
100
AcDbCircle
 10
1190.09796728649
 20
283.5778261690383
 30
0.0
 40
0.9989999999999998
100
AcDbArc
 50
113.7485430905242
 51
246.2514569094758
  0
ARC
  5
1317
330
1F
100
AcDbEntity
  8
0
 62
     3
100
AcDbCircle
 10
1190.09796728649
 20
283.5778261690383
 30
0.0
 40
1.498499999999999
100
AcDbArc
 50
113.7485430905242
 51
246.2514569094758
  0
ARC
  5
1318
330
1F
100
AcDbEntity
  8
0
 62
     3
100
AcDbCircle
 10
1197.742060432482
 20
266.2041046052689
 30
0.0
 40
19.98
100
AcDbArc
 50
98.5840298048209
 51
113.7485430905242
  0
ARC
  5
1319
330
1F
100
AcDbEntity
  8
0
 62
     3
100
AcDbCircle
 10
1197.742060432482
 20
266.2041046052689
 30
0.0
 40
20.4795
100
AcDbArc
 50
98.5840298048209
 51
113.7485430905242
  0
ARC
  5
131A
330
1F
100
AcDbEntity
  8
0
 62
     3
100
AcDbCircle
 10
1208.47801494735
 20
300.9515477328076
 30
0.0
 40
19.98
100
AcDbArc
 50
278.5840298048209
 51
293.7485430905243
  0
ARC
  5
131B
330
1F
100
AcDbEntity
  8
0
 62
     3
100
AcDbCircle
 10
1208.47801494735
 20
300.9515477328076
 30
0.0
 40
20.4795
100
AcDbArc
 50
278.5840298048209
 51
293.7485430905243
  0
ARC
  5
131C
330
1F
100
AcDbEntity
  8
0
 62
     3
100
AcDbCircle
 10
1197.742060432482
 20
300.9515477328076
 30
0.0
 40
19.98
100
AcDbArc
 50
246.2514569094758
 51
261.4159701951791
  0
ARC
  5
131D
330
1F
100
AcDbEntity
  8
0
 62
     3
100
AcDbCircle
 10
1197.742060432482
 20
300.9515477328076
 30
0.0
 40
20.4795
100
AcDbArc
 50
246.2514569094758
 51
261.4159701951791
  0
ARC
  5
131E
330
1F
100
AcDbEntity
  8
0
 62
     3
100
AcDbCircle
 10
1203.110037689916
 20
230.6429725062538
 30
0.0
 40
56.44349999999903
100
AcDbArc
 50
81.41597019517911
 51
98.5840298048209
  0
ARC
  5
131F
330
1F
100
AcDbEntity
  8
0
 62
     3
100
AcDbCircle
 10
1203.110037689916
 20
230.6429725062546
 30
0.0
 40
55.94399999999822
100
AcDbArc
 50
81.41597019517911
 51
98.5840298048209
  0
ARC
  5
1320
330
1F
100
AcDbEntity
  8
0
 62
     3
100
AcDbCircle
 10
1203.110037689916
 20
336.5126798318228
 30
0.0
 40
56.44349999999903
100
AcDbArc
 50
261.4159701951791
 51
278.5840298048209
  0
ARC
  5
1321
330
1F
100
AcDbEntity
  8
0
 62
     3
100
AcDbCircle
 10
1203.110037689916
 20
336.512679831822
 30
0.0
 40
55.94399999999822
100
AcDbArc
 50
261.4159701951791
 51
278.5840298048209
  0
TEXT
  5
1322
330
1F
100
AcDbEntity
  8
0
 62
     3
100
AcDbText
 10
1321.378385455605
 20
274.2401203598488
 30
0.0
 40
3.2
  1
担　当
  7
高3.2
100
AcDbText
  0
TEXT
  5
1323
330
1F
100
AcDbEntity
  8
0
 62
     3
100
AcDbText
 10
1277.378385455605
 20
274.2401203598488
 30
0.0
 40
3.2
  1
変更・追記内容
  7
高3.2
100
AcDbText
  0
TEXT
  5
1324
330
1F
100
AcDbEntity
  8
0
 62
     3
100
AcDbText
 10
1252.491900455944
 20
269.5695818499405
 30
0.0
 40
2.0
  1
1
  7
高2
100
AcDbText
  0
TEXT
  5
1325
330
1F
100
AcDbEntity
  8
0
 62
     3
100
AcDbText
 10
1252.183388979187
 20
264.3997651376676
 30
0.0
 40
2.0
  1
2
  7
高2
100
AcDbText
  0
TEXT
  5
1326
330
1F
100
AcDbEntity
  8
0
 62
     3
100
AcDbText
 10
1259.378385455605
 20
274.2401203598488
 30
0.0
 40
3.2
  1
日　付
  7
高3.2
100
AcDbText
  0
TEXT
  5
1327
330
1F
100
AcDbEntity
  8
0
 62
     3
100
AcDbText
 10
1259.378385455605
 20
279.2401203598489
 30
0.0
 40
3.2
  1
図　　　　面　　　　略　　　　歴
  7
高3.2
100
AcDbText
  0
TEXT
  5
1328
330
1F
100
AcDbEntity
  8
0
 62
     3
100
AcDbText
 10
1249.378385455605
 20
274.2401203598488
 30
0.0
 40
3.2
  1
記号
  7
高3.2
100
AcDbText
  0
LINE
  5
1329
330
1F
100
AcDbEntity
  8
0
100
AcDbLine
 10
1252.878385455605
 20
267.5310163598489
 30
0.0
 11
1250.978385455605
 21
264.2401203598488
 31
0.0
  0
LINE
  5
132A
330
1F
100
AcDbEntity
  8
0
100
AcDbLine
 10
1252.878385455605
 20
267.5310163598489
 30
0.0
 11
1254.778385455605
 21
264.2401203598488
 31
0.0
  0
LINE
  5
132B
330
1F
100
AcDbEntity
  8
0
100
AcDbLine
 10
1250.978385455605
 20
264.2401203598488
 30
0.0
 11
1254.778385455605
 21
264.2401203598488
 31
0.0
  0
LINE
  5
132C
330
1F
100
AcDbEntity
  8
0
100
AcDbLine
 10
1252.878385455605
 20
272.5310173598489
 30
0.0
 11
1250.978385455605
 21
269.2401203598489
 31
0.0
  0
LINE
  5
132D
330
1F
100
AcDbEntity
  8
0
100
AcDbLine
 10
1252.878385455605
 20
272.5310173598489
 30
0.0
 11
1254.778385455605
 21
269.2401203598489
 31
0.0
  0
LINE
  5
132E
330
1F
100
AcDbEntity
  8
0
100
AcDbLine
 10
1250.978385455605
 20
269.2401203598489
 30
0.0
 11
1254.778385455605
 21
269.2401203598489
 31
0.0
  0
LINE
  5
132F
330
1F
100
AcDbEntity
  8
0
 62
     3
100
AcDbLine
 10
1247.878385455605
 20
278.7401203598488
 30
0.0
 11
1333.878385455605
 21
278.7401203598488
 31
0.0
  0
LINE
  5
1330
330
1F
100
AcDbEntity
  8
0
 62
     3
100
AcDbLine
 10
1247.878385455605
 20
273.7401203598488
 30
0.0
 11
1333.878385455605
 21
273.7401203598488
 31
0.0
  0
LINE
  5
1331
330
1F
100
AcDbEntity
  8
0
 62
     7
100
AcDbLine
 10
1247.878385455605
 20
268.7401203598489
 30
0.0
 11
1333.878385455605
 21
268.7401203598489
 31
0.0
  0
LINE
  5
1332
330
1F
100
AcDbEntity
  8
0
 62
     3
100
AcDbLine
 10
1247.878385455605
 20
263.7401203598488
 30
0.0
 11
1333.878385455605
 21
263.7401203598488
 31
0.0
  0
LINE
  5
1333
330
1F
100
AcDbEntity
  8
0
 62
     7
100
AcDbLine
 10
1319.878385455605
 20
263.7401203598488
 30
0.0
 11
1319.878385455605
 21
278.7401203598488
 31
0.0
  0
LINE
  5
1334
330
1F
100
AcDbEntity
  8
0
 62
     7
100
AcDbLine
 10
1275.878385455605
 20
263.7401203598488
 30
0.0
 11
1275.878385455605
 21
278.7401203598488
 31
0.0
  0
LINE
  5
1335
330
1F
100
AcDbEntity
  8
0
 62
     7
100
AcDbLine
 10
1257.878385455605
 20
263.7401203598488
 30
0.0
 11
1257.878385455605
 21
278.7401203598488
 31
0.0
  0
LINE
  5
1336
330
1F
100
AcDbEntity
  8
0
 62
     3
100
AcDbLine
 10
1247.878385455605
 20
263.7401203598488
 30
0.0
 11
1247.878385455605
 21
283.7401203598489
 31
0.0
  0
LINE
  5
1552
330
1F
100
AcDbEntity
  8
0
 62
     7
100
AcDbLine
 10
1211.226915345592
 20
179.6420453598487
 30
0.0
 11
1210.326915345592
 21
177.6420453598487
 31
0.0
  0
ELLIPSE
  5
1554
330
1F
100
AcDbEntity
  8
0
 62
     7
100
AcDbEllipse
 10
1210.326915345592
 20
177.6420453598487
 30
0.0
 11
-26.25361771552094
 21
58.44023570968866
 31
0.0
210
0.0
220
0.0
230
0.9999999999999998
 40
0.0267156298437148
 41
4.70038786075383
 42
4.734615075558213
  0
ELLIPSE
  5
1557
330
1F
100
AcDbEntity
  8
0
 62
     7
100
AcDbEllipse
 10
1210.326915345592
 20
177.6420453598487
 30
0.0
 11
26.25361771552071
 21
58.44023570968813
 31
0.0
210
0.0
220
0.0
230
1.0
 40
0.0267156298437213
 41
1.548570231621375
 42
1.582797446425757
  0
LINE
  5
1559
330
1F
100
AcDbEntity
  8
0
 62
     7
100
AcDbLine
 10
1210.326915345592
 20
177.6420453598487
 30
0.0
 11
1209.426915345592
 21
179.6420453598487
 31
0.0
  0
ELLIPSE
  5
1584
330
1F
100
AcDbEntity
  8
0
 62
     7
100
AcDbEllipse
 10
1210.326915345592
 20
177.6420453598487
 30
0.0
 11
26.25361771552094
 21
58.44023570968866
 31
0.0
210
0.0
220
0.0
230
0.9999999999999998
 40
0.0267156298437148
 41
4.724390100015547
 42
4.758617314819931
  0
ELLIPSE
  5
1585
330
1F
100
AcDbEntity
  8
0
 62
     7
100
AcDbEllipse
 10
1210.326915345592
 20
177.6420453598487
 30
0.0
 11
25.25538130048289
 21
56.21817351540557
 31
0.0
210
0.0
220
0.0
230
1.0
 40
0.0267156298437143
 41
4.725803568475702
 42
4.759970729471278
  0
ELLIPSE
  5
1588
330
1F
100
AcDbEntity
  8
0
 62
     7
100
AcDbEllipse
 10
1210.326915345592
 20
177.6420453598487
 30
0.0
 11
-26.11421126381868
 21
58.42779990390892
 31
0.0
210
0.0
220
0.0
230
1.0
 40
0.0534090292475655
 41
4.688522433190275
 42
4.722749647994657
  0
ELLIPSE
  5
1589
330
1F
100
AcDbEntity
  8
0
 62
     7
100
AcDbEllipse
 10
1210.326915345592
 20
177.6420453598487
 30
0.0
 11
26.11421126381879
 21
58.42779990390924
 31
0.0
210
0.0
220
0.0
230
0.9999999999999998
 40
0.0534090292475708
 41
1.56043565918493
 42
1.594662873989313
  0
ELLIPSE
  5
158B
330
1F
100
AcDbEntity
  8
0
 62
     7
100
AcDbEllipse
 10
1210.326915345592
 20
177.6420453598487
 30
0.0
 11
-26.25361771552071
 21
58.44023570968813
 31
0.0
210
0.0
220
0.0
230
1.0
 40
0.0267156298437213
 41
1.524567992359652
 42
1.558795207164034
  0
ELLIPSE
  5
158D
330
1F
100
AcDbEntity
  8
0
 62
     7
100
AcDbEllipse
 10
1210.326915345592
 20
177.6420453598487
 30
0.0
 11
-25.25538130048119
 21
56.21817351540205
 31
0.0
210
0.0
220
0.0
230
1.0
 40
0.0267156298437218
 41
1.523214577708303
 42
1.557381738703655
  0
ELLIPSE
  5
158E
330
1F
100
AcDbEntity
  8
0
 62
     7
100
AcDbEllipse
 10
1210.326915345592
 20
177.6420453598487
 30
0.0
 11
26.11421126381868
 21
58.42779990390892
 31
0.0
210
0.0
220
0.0
230
1.0
 40
0.0534090292475655
 41
4.736255527579105
 42
4.770482742383488
  0
ELLIPSE
  5
158F
330
1F
100
AcDbEntity
  8
0
 62
     7
100
AcDbEllipse
 10
1210.326915345592
 20
177.6420453598487
 30
0.0
 11
25.12127547431989
 21
56.20621055395059
 31
0.0
210
0.0
220
0.0
230
0.9999999999999998
 40
0.053409029247565
 41
4.739097010698451
 42
4.771836157034837
  0
ELLIPSE
  5
1592
330
1F
100
AcDbEntity
  8
0
 62
     7
100
AcDbEllipse
 10
1210.326915345592
 20
177.6420453598487
 30
0.0
 11
-25.88099762345223
 21
58.40770658306332
 31
0.0
210
0.0
220
0.0
230
1.0
 40
0.0800560721841971
 41
4.676930259240164
 42
4.711157474044544
  0
ELLIPSE
  5
1593
330
1F
100
AcDbEntity
  8
0
 62
     7
100
AcDbEllipse
 10
1210.326915345592
 20
177.6420453598487
 30
0.0
 11
25.88099762345223
 21
58.40770658306354
 31
0.0
210
0.0
220
0.0
230
1.0
 40
0.0800560721842024
 41
1.572027833135043
 42
1.606255047939425
  0
ELLIPSE
  5
1595
330
1F
100
AcDbEntity
  8
0
 62
     7
100
AcDbEllipse
 10
1210.326915345592
 20
177.6420453598487
 30
0.0
 11
-26.11421126381879
 21
58.42779990390924
 31
0.0
210
0.0
220
0.0
230
0.9999999999999998
 40
0.0534090292475708
 41
1.512702564796096
 42
1.546929779600479
  0
ELLIPSE
  5
1597
330
1F
100
AcDbEntity
  8
0
 62
     7
100
AcDbEllipse
 10
1210.326915345592
 20
177.6420453598487
 30
0.0
 11
-25.12127547431988
 21
56.20621055395051
 31
0.0
210
0.0
220
0.0
230
1.0
 40
0.0534090292475709
 41
1.511349150144746
 42
1.544088296481097
  0
ELLIPSE
  5
1598
330
1F
100
AcDbEntity
  8
0
 62
     7
100
AcDbEllipse
 10
1210.326915345592
 20
177.6420453598487
 30
0.0
 11
25.88099762345223
 21
58.40770658306332
 31
0.0
210
0.0
220
0.0
230
1.0
 40
0.0800560721841971
 41
4.747847701529217
 42
4.782074916333601
  0
ELLIPSE
  5
159A
330
1F
100
AcDbEntity
  8
0
 62
     7
100
AcDbEllipse
 10
1210.326915345592
 20
177.6420453598487
 30
0.0
 11
-25.55265809206151
 21
58.38089907573061
 31
0.0
210
0.0
220
0.0
230
1.0
 40
0.1066287704773951
 41
4.665752615645808
 42
4.699979830450191
  0
ELLIPSE
  5
159B
330
1F
100
AcDbEntity
  8
0
 62
     7
100
AcDbEllipse
 10
1210.326915345592
 20
177.6420453598487
 30
0.0
 11
24.89692927275052
 21
56.18688123769977
 31
0.0
210
0.0
220
0.0
230
1.0
 40
0.0800560721841974
 41
4.75214689695692
 42
4.78342833098495
  0
ELLIPSE
  5
159D
330
1F
100
AcDbEntity
  8
0
 62
     7
100
AcDbEllipse
 10
1210.326915345592
 20
177.6420453598487
 30
0.0
 11
-25.88099762345223
 21
58.40770658306354
 31
0.0
210
0.0
220
0.0
230
1.0
 40
0.0800560721842024
 41
1.501110390845984
 42
1.535337605650366
  0
ELLIPSE
  5
159F
330
1F
100
AcDbEntity
  8
0
 62
     7
100
AcDbEllipse
 10
1210.326915345592
 20
177.6420453598487
 30
0.0
 11
-24.8969292727504
 21
56.18688123769953
 31
0.0
210
0.0
220
0.0
230
0.9999999999999998
 40
0.0800560721842022
 41
1.499756976194635
 42
1.531038410222653
  0
ELLIPSE
  5
15A0
330
1F
100
AcDbEntity
  8
0
 62
     7
100
AcDbEllipse
 10
1210.326915345592
 20
177.6420453598487
 30
0.0
 11
25.55265809206139
 21
58.38089907573049
 31
0.0
210
0.0
220
0.0
230
1.0
 40
0.106628770477401
 41
1.583205476729399
 42
1.617432691533782
  0
ELLIPSE
  5
15C1
330
1F
100
AcDbEntity
  8
0
 62
     7
100
AcDbEllipse
 10
1210.326915345592
 20
177.6420453598487
 30
0.0
 11
25.55265809206151
 21
58.38089907573061
 31
0.0
210
0.0
220
0.0
230
1.0
 40
0.1066287704773951
 41
4.759025345123574
 42
4.793252559927958
  0
ELLIPSE
  5
15C3
330
1F
100
AcDbEntity
  8
0
 62
     7
100
AcDbEllipse
 10
1210.326915345592
 20
177.6420453598487
 30
0.0
 11
-25.12731936859883
 21
58.34868391509513
 31
0.0
210
0.0
220
0.0
230
1.0
 40
0.1330931656782085
 41
4.655136281218106
 42
4.689363496022488
  0
ELLIPSE
  5
15C4
330
1F
100
AcDbEntity
  8
0
 62
     7
100
AcDbEllipse
 10
1210.326915345592
 20
177.6420453598487
 30
0.0
 11
24.5810741341884
 21
56.16109302722367
 31
0.0
210
0.0
220
0.0
230
1.0
 40
0.1066287704773958
 41
4.764828366802976
 42
4.794605974579306
  0
ELLIPSE
  5
15C6
330
1F
100
AcDbEntity
  8
0
 62
     7
100
AcDbEllipse
 10
1210.326915345592
 20
177.6420453598487
 30
0.0
 11
-25.55265809206139
 21
58.38089907573049
 31
0.0
210
0.0
220
0.0
230
1.0
 40
0.106628770477401
 41
1.489932747251627
 42
1.52415996205601
  0
ELLIPSE
  5
15C8
330
1F
100
AcDbEntity
  8
0
 62
     7
100
AcDbEllipse
 10
1210.326915345592
 20
177.6420453598487
 30
0.0
 11
-24.58107413418827
 21
56.16109302722356
 31
0.0
210
0.0
220
0.0
230
0.9999999999999998
 40
0.1066287704774002
 41
1.488579332600279
 42
1.518356940376609
  0
ELLIPSE
  5
15C9
330
1F
100
AcDbEntity
  8
0
 62
     7
100
AcDbEllipse
 10
1210.326915345592
 20
177.6420453598487
 30
0.0
 11
25.12731936859871
 21
58.34868391509525
 31
0.0
210
0.0
220
0.0
230
1.0
 40
0.1330931656782124
 41
1.5938218111571
 42
1.628049025961483
  0
ELLIPSE
  5
15CB
330
1F
100
AcDbEntity
  8
0
 62
     7
100
AcDbEllipse
 10
1210.326915345592
 20
177.6420453598487
 30
0.0
 11
25.12731936859883
 21
58.34868391509513
 31
0.0
210
0.0
220
0.0
230
1.0
 40
0.1330931656782085
 41
4.769641679551276
 42
4.80386889435566
  0
ELLIPSE
  5
15CD
330
1F
100
AcDbEntity
  8
0
 62
     7
100
AcDbEllipse
 10
1210.326915345592
 20
177.6420453598487
 30
0.0
 11
-24.60253062176332
 21
58.31271256609746
 31
0.0
210
0.0
220
0.0
230
1.0
 40
0.1594070104278035
 41
4.645235205542388
 42
4.679462420346771
  0
ELLIPSE
  5
15CE
330
1F
100
AcDbEntity
  8
0
 62
     7
100
AcDbEllipse
 10
1210.326915345592
 20
177.6420453598487
 30
0.0
 11
24.17190798576235
 21
56.13010277763914
 31
0.0
210
0.0
220
0.0
230
1.0
 40
0.1330931656782089
 41
4.777013099366575
 42
4.805222309007008
  0
ELLIPSE
  5
15D0
330
1F
100
AcDbEntity
  8
0
 62
     7
100
AcDbEllipse
 10
1210.326915345592
 20
177.6420453598487
 30
0.0
 11
24.60253062176321
 21
58.31271256609745
 31
0.0
210
0.0
220
0.0
230
0.9999999999999998
 40
0.1594070104278093
 41
1.603722886832818
 42
1.637950101637201
  0
ELLIPSE
  5
15D2
330
1F
100
AcDbEntity
  8
0
 62
     7
100
AcDbEllipse
 10
1210.326915345592
 20
177.6420453598487
 30
0.0
 11
-25.12731936859871
 21
58.34868391509525
 31
0.0
210
0.0
220
0.0
230
1.0
 40
0.1330931656782124
 41
1.479316412823926
 42
1.51354362762831
  0
ELLIPSE
  5
15D4
330
1F
100
AcDbEntity
  8
0
 62
     7
100
AcDbEllipse
 10
1210.326915345592
 20
177.6420453598487
 30
0.0
 11
-24.17190798576235
 21
56.13010277763926
 31
0.0
210
0.0
220
0.0
230
1.0
 40
0.1330931656782128
 41
1.477962998172578
 42
1.506172207813
  0
ELLIPSE
  5
15D5
330
1F
100
AcDbEntity
  8
0
 62
     7
100
AcDbEllipse
 10
1210.326915345592
 20
177.6420453598487
 30
0.0
 11
24.60253062176332
 21
58.31271256609746
 31
0.0
210
0.0
220
0.0
230
1.0
 40
0.1594070104278035
 41
4.779542755226994
 42
4.813769970031376
  0
ELLIPSE
  5
15D7
330
1F
100
AcDbEntity
  8
0
 62
     7
100
AcDbEllipse
 10
1210.326915345592
 20
177.6420453598487
 30
0.0
 11
-23.97524105172602
 21
58.27495167409797
 31
0.0
210
0.0
220
0.0
230
0.9999999999999998
 40
0.1855171751629285
 41
4.636211959851174
 42
4.670439174655558
  0
ELLIPSE
  5
15D8
330
1F
100
AcDbEntity
  8
0
 62
     7
100
AcDbEllipse
 10
1210.326915345592
 20
177.6420453598487
 30
0.0
 11
23.66707318367344
 21
56.09549916054248
 31
0.0
210
0.0
220
0.0
230
1.0
 40
0.1594070104278044
 41
4.788568620728773
 42
4.815123384682727
  0
ELLIPSE
  5
15DA
330
1F
100
AcDbEntity
  8
0
 62
     7
100
AcDbEllipse
 10
1210.326915345592
 20
177.6420453598487
 30
0.0
 11
-24.60253062176321
 21
58.31271256609745
 31
0.0
210
0.0
220
0.0
230
0.9999999999999998
 40
0.1594070104278093
 41
1.469415337148208
 42
1.503642551952591
  0
ELLIPSE
  5
15DC
330
1F
100
AcDbEntity
  8
0
 62
     7
100
AcDbEllipse
 10
1210.326915345592
 20
177.6420453598487
 30
0.0
 11
-23.66707318367332
 21
56.09549916054249
 31
0.0
210
0.0
220
0.0
230
1.0
 40
0.1594070104278087
 41
1.46806192249686
 42
1.494616686450814
  0
ELLIPSE
  5
15DD
330
1F
100
AcDbEntity
  8
0
 62
     7
100
AcDbEllipse
 10
1210.326915345592
 20
177.6420453598487
 30
0.0
 11
23.97524105172592
 21
58.27495167409797
 31
0.0
210
0.0
220
0.0
230
1.0
 40
0.185517175162933
 41
1.612746132524032
 42
1.646973347328414
  0
ELLIPSE
  5
15DF
330
1F
100
AcDbEntity
  8
0
 62
     7
100
AcDbEllipse
 10
1210.326915345592
 20
177.6420453598487
 30
0.0
 11
23.97524105172602
 21
58.27495167409797
 31
0.0
210
0.0
220
0.0
230
0.9999999999999998
 40
0.1855171751629288
 41
4.788566000918208
 42
4.822793215722591
  0
ELLIPSE
  5
15E1
330
1F
100
AcDbEntity
  8
0
 62
     7
100
AcDbEllipse
 10
1210.326915345592
 20
177.6420453598487
 30
0.0
 11
-23.24178521319119
 21
58.23763662679181
 31
0.0
210
0.0
220
0.0
230
0.9999999999999998
 40
0.2113567273271321
 41
4.628238809271786
 42
4.662466024076168
  0
ELLIPSE
  5
15E2
330
1F
100
AcDbEntity
  8
0
 62
     7
100
AcDbEllipse
 10
1210.326915345592
 20
177.6420453598487
 30
0.0
 11
23.06363492808623
 21
56.05917404390407
 31
0.0
210
0.0
220
0.0
230
1.0
 40
0.1855171751629278
 41
4.7993581452497
 42
4.824146630373941
  0
ELLIPSE
  5
15E4
330
1F
100
AcDbEntity
  8
0
 62
     7
100
AcDbEllipse
 10
1210.326915345592
 20
177.6420453598487
 30
0.0
 11
-23.97524105172592
 21
58.27495167409797
 31
0.0
210
0.0
220
0.0
230
1.0
 40
0.185517175162933
 41
1.460392091456995
 42
1.494619306261378
  0
ELLIPSE
  5
15E6
330
1F
100
AcDbEntity
  8
0
 62
     7
100
AcDbEllipse
 10
1210.326915345592
 20
177.6420453598487
 30
0.0
 11
-23.06363492808602
 21
56.05917404390408
 31
0.0
210
0.0
220
0.0
230
1.0
 40
0.1855171751629319
 41
1.459038676805648
 42
1.48382716192989
  0
ELLIPSE
  5
15E7
330
1F
100
AcDbEntity
  8
0
 62
     7
100
AcDbEllipse
 10
1210.326915345592
 20
177.6420453598487
 30
0.0
 11
23.24178521319106
 21
58.23763662679181
 31
0.0
210
0.0
220
0.0
230
1.0
 40
0.2113567273271359
 41
1.620719283103419
 42
1.654946497907803
  0
ELLIPSE
  5
15E9
330
1F
100
AcDbEntity
  8
0
 62
     7
100
AcDbEllipse
 10
1210.326915345592
 20
177.6420453598487
 30
0.0
 11
23.24178521319119
 21
58.23763662679181
 31
0.0
210
0.0
220
0.0
230
0.9999999999999998
 40
0.2113567273271321
 41
4.796539151497597
 42
4.830766366301981
  0
ELLIPSE
  5
15EB
330
1F
100
AcDbEntity
  8
0
 62
     7
100
AcDbEllipse
 10
1210.326915345592
 20
177.6420453598487
 30
0.0
 11
-22.39788739721303
 21
58.20320167650976
 31
0.0
210
0.0
220
0.0
230
1.0
 40
0.236841653344307
 41
4.621498158097292
 42
4.655725372901674
  0
ELLIPSE
  5
15EC
330
1F
100
AcDbEntity
  8
0
 62
     7
100
AcDbEllipse
 10
1210.326915345592
 20
177.6420453598487
 30
0.0
 11
22.35806714424859
 21
56.02327781968956
 31
0.0
210
0.0
220
0.0
230
1.0
 40
0.211356727327132
 41
4.80924128859495
 42
4.83211978095333
  0
ELLIPSE
  5
15EE
330
1F
100
AcDbEntity
  8
0
 62
     7
100
AcDbEllipse
 10
1210.326915345592
 20
177.6420453598487
 30
0.0
 11
22.39788739721292
 21
58.20320167650975
 31
0.0
210
0.0
220
0.0
230
1.0
 40
0.2368416533443113
 41
1.627459934277915
 42
1.661687149082298
  0
ELLIPSE
  5
15F0
330
1F
100
AcDbEntity
  8
0
 62
     7
100
AcDbEllipse
 10
1210.326915345592
 20
177.6420453598487
 30
0.0
 11
-23.24178521319106
 21
58.23763662679181
 31
0.0
210
0.0
220
0.0
230
1.0
 40
0.2113567273271359
 41
1.452418940877606
 42
1.486646155681988
  0
ELLIPSE
  5
15F2
330
1F
100
AcDbEntity
  8
0
 62
     7
100
AcDbEllipse
 10
1210.326915345592
 20
177.6420453598487
 30
0.0
 11
-22.35806714424848
 21
56.02327781968944
 31
0.0
210
0.0
220
0.0
230
1.0
 40
0.2113567273271381
 41
1.451065526226255
 42
1.473944018584634
  0
ELLIPSE
  5
15F3
330
1F
100
AcDbEntity
  8
0
 62
     7
100
AcDbEllipse
 10
1210.326915345592
 20
177.6420453598487
 30
0.0
 11
22.39788739721303
 21
58.20320167650976
 31
0.0
210
0.0
220
0.0
230
1.0
 40
0.236841653344307
 41
4.803279802672093
 42
4.837507017476476
  0
ELLIPSE
  5
15F4
330
1F
100
AcDbEntity
  8
0
 62
     7
100
AcDbEllipse
 10
1210.326915345592
 20
177.6420453598487
 30
0.0
 11
21.54625669769929
 21
55.99015218310633
 31
0.0
210
0.0
220
0.0
230
1.0
 40
0.2368416533443078
 41
4.81807618169341
 42
4.838860432127827
  0
ELLIPSE
  5
15F7
330
1F
100
AcDbEntity
  8
0
 62
     7
100
AcDbEllipse
 10
1210.326915345592
 20
177.6420453598487
 30
0.0
 11
-21.43870204357506
 21
58.17417845445341
 31
0.0
210
0.0
220
0.0
230
1.0
 40
0.2618672363547449
 41
4.61618200054636
 42
4.650409215350743
  0
ELLIPSE
  5
15F8
330
1F
100
AcDbEntity
  8
0
 62
     7
100
AcDbEllipse
 10
1210.326915345592
 20
177.6420453598487
 30
0.0
 11
-22.39788739721292
 21
58.20320167650975
 31
0.0
210
0.0
220
0.0
230
1.0
 40
0.2368416533443113
 41
1.445678289703112
 42
1.479905504507494
  0
ELLIPSE
  5
15FA
330
1F
100
AcDbEntity
  8
0
 62
     7
100
AcDbEllipse
 10
1210.326915345592
 20
177.6420453598487
 30
0.0
 11
-21.54625669769905
 21
55.99015218310632
 31
0.0
210
0.0
220
0.0
230
1.0
 40
0.236841653344312
 41
1.444324875051761
 42
1.465109125486178
  0
ELLIPSE
  5
15FB
330
1F
100
AcDbEntity
  8
0
 62
     7
100
AcDbEllipse
 10
1210.326915345592
 20
177.6420453598487
 30
0.0
 11
21.43870204357483
 21
58.17417845445336
 31
0.0
210
0.0
220
0.0
230
1.0
 40
0.2618672363547488
 41
1.632776091828846
 42
1.667003306633229
  0
ELLIPSE
  5
15FD
330
1F
100
AcDbEntity
  8
0
 62
     7
100
AcDbEllipse
 10
1210.326915345592
 20
177.6420453598487
 30
0.0
 11
21.43870204357506
 21
58.17417845445341
 31
0.0
210
0.0
220
0.0
230
1.0
 40
0.2618672363547449
 41
4.808595960223025
 42
4.842823175027409
  0
ELLIPSE
  5
15FF
330
1F
100
AcDbEntity
  8
0
 62
     7
100
AcDbEllipse
 10
1210.326915345592
 20
177.6420453598487
 30
0.0
 11
-20.35891472173728
 21
58.15305395089313
 31
0.0
210
0.0
220
0.0
230
0.9999999999999998
 40
0.2863041760139968
 41
4.612489857264537
 42
4.64671707206892
  0
ELLIPSE
  5
1600
330
1F
100
AcDbEntity
  8
0
 62
     7
100
AcDbEllipse
 10
1210.326915345592
 20
177.6420453598487
 30
0.0
 11
20.62354227005505
 21
55.96223250561485
 31
0.0
210
0.0
220
0.0
230
1.0
 40
0.2618672363547443
 41
4.825723817702726
 42
4.844176589678757
  0
ELLIPSE
  5
1602
330
1F
100
AcDbEntity
  8
0
 62
     7
100
AcDbEllipse
 10
1210.326915345592
 20
177.6420453598487
 30
0.0
 11
-21.43870204357483
 21
58.17417845445336
 31
0.0
210
0.0
220
0.0
230
1.0
 40
0.2618672363547488
 41
1.44036213215218
 42
1.474589346956563
  0
ELLIPSE
  5
1604
330
1F
100
AcDbEntity
  8
0
 62
     7
100
AcDbEllipse
 10
1210.326915345592
 20
177.6420453598487
 30
0.0
 11
-20.62354227005494
 21
55.96223250561485
 31
0.0
210
0.0
220
0.0
230
0.9999999999999998
 40
0.2618672363547501
 41
1.439008717500829
 42
1.457461489476859
  0
ELLIPSE
  5
1605
330
1F
100
AcDbEntity
  8
0
 62
     7
100
AcDbEllipse
 10
1210.326915345592
 20
177.6420453598487
 30
0.0
 11
20.35891472173693
 21
58.15305395089314
 31
0.0
210
0.0
220
0.0
230
0.9999999999999998
 40
0.2863041760140026
 41
1.636468235110671
 42
1.670695449915053
  0
ELLIPSE
  5
1607
330
1F
100
AcDbEntity
  8
0
 62
     7
100
AcDbEllipse
 10
1210.326915345592
 20
177.6420453598487
 30
0.0
 11
20.35891472173728
 21
58.15305395089313
 31
0.0
210
0.0
220
0.0
230
0.9999999999999998
 40
0.2863041760139968
 41
4.812288103504849
 42
4.846515318309233
  0
ELLIPSE
  5
1609
330
1F
100
AcDbEntity
  8
0
 62
     7
100
AcDbEllipse
 10
1210.326915345592
 20
177.6420453598487
 30
0.0
 11
-19.15293748408896
 21
58.14207991967072
 31
0.0
210
0.0
220
0.0
230
0.9999999999999998
 40
0.3099946541521648
 41
4.610624501554958
 42
4.644851716359339
  0
ELLIPSE
  5
160A
330
1F
100
AcDbEntity
  8
0
 62
     7
100
AcDbEllipse
 10
1210.326915345592
 20
177.6420453598487
 30
0.0
 11
19.58481150037835
 21
55.9419112151177
 31
0.0
210
0.0
220
0.0
230
1.0
 40
0.2863041760139982
 41
4.832055951856455
 42
4.847868732960582
  0
ELLIPSE
  5
160C
330
1F
100
AcDbEntity
  8
0
 62
     7
100
AcDbEllipse
 10
1210.326915345592
 20
177.6420453598487
 30
0.0
 11
-20.35891472173693
 21
58.15305395089314
 31
0.0
210
0.0
220
0.0
230
0.9999999999999998
 40
0.2863041760140026
 41
1.436669988870356
 42
1.470897203674739
  0
ELLIPSE
  5
160E
330
1F
100
AcDbEntity
  8
0
 62
     7
100
AcDbEllipse
 10
1210.326915345592
 20
177.6420453598487
 30
0.0
 11
-19.58481150037812
 21
55.94191121511772
 31
0.0
210
0.0
220
0.0
230
1.0
 40
0.2863041760140043
 41
1.435316574219006
 42
1.451129355323133
  0
ELLIPSE
  5
160F
330
1F
100
AcDbEntity
  8
0
 62
     7
100
AcDbEllipse
 10
1210.326915345592
 20
177.6420453598487
 30
0.0
 11
19.15293748408874
 21
58.14207991967061
 31
0.0
210
0.0
220
0.0
230
0.9999999999999998
 40
0.3099946541521714
 41
1.638333590820251
 42
1.672560805624633
  0
ELLIPSE
  5
1611
330
1F
100
AcDbEntity
  8
0
 62
     7
100
AcDbEllipse
 10
1210.326915345592
 20
177.6420453598487
 30
0.0
 11
18.42468891054955
 21
55.93135444743978
 31
0.0
210
0.0
220
0.0
230
0.9999999999999998
 40
0.3099946541521679
 41
4.836968689955802
 42
4.849734088670164
  0
ELLIPSE
  5
1612
330
1F
100
AcDbEntity
  8
0
 62
     7
100
AcDbEllipse
 10
1210.326915345592
 20
177.6420453598487
 30
0.0
 11
-18.42468891054932
 21
55.93135444743978
 31
0.0
210
0.0
220
0.0
230
1.0
 40
0.3099946541521719
 41
1.433451218509426
 42
1.446216617223784
  0
ELLIPSE
  5
1613
330
1F
100
AcDbEntity
  8
0
 62
     7
100
AcDbEllipse
 10
1210.326915345592
 20
177.6420453598487
 30
0.0
 11
19.15293748408896
 21
58.14207991967072
 31
0.0
210
0.0
220
0.0
230
0.9999999999999998
 40
0.3099946541521648
 41
4.814153459214431
 42
4.848380674018812
  0
ELLIPSE
  5
1616
330
1F
100
AcDbEntity
  8
0
 62
     7
100
AcDbEllipse
 10
1210.326915345592
 20
177.6420453598487
 30
0.0
 11
-17.81524214568731
 21
58.14302978682537
 31
0.0
210
0.0
220
0.0
230
0.9999999999999998
 40
0.3327487258774933
 41
4.610784609864703
 42
4.645011824669086
  0
ELLIPSE
  5
1617
330
1F
100
AcDbEntity
  8
0
 62
     7
100
AcDbEllipse
 10
1210.326915345592
 20
177.6420453598487
 30
0.0
 11
-19.15293748408874
 21
58.14207991967061
 31
0.0
210
0.0
220
0.0
230
0.9999999999999998
 40
0.3099946541521714
 41
1.434804633160775
 42
1.469031847965159
  0
ELLIPSE
  5
1619
330
1F
100
AcDbEntity
  8
0
 62
     7
100
AcDbEllipse
 10
1210.326915345592
 20
177.6420453598487
 30
0.0
 11
17.81524214568707
 21
58.14302978682538
 31
0.0
210
0.0
220
0.0
230
1.0
 40
0.3327487258774989
 41
1.638173482510504
 42
1.672400697314888
  0
ELLIPSE
  5
161D
330
1F
100
AcDbEntity
  8
0
 62
     7
100
AcDbEllipse
 10
1210.326915345592
 20
177.6420453598487
 30
0.0
 11
17.81524214568731
 21
58.14302978682537
 31
0.0
210
0.0
220
0.0
230
0.9999999999999998
 40
0.3327487258774933
 41
4.813993350904684
 42
4.848220565709068
  0
ELLIPSE
  5
1620
330
1F
100
AcDbEntity
  8
0
 62
     7
100
AcDbEllipse
 10
1210.326915345592
 20
177.6420453598487
 30
0.0
 11
-16.34088211140374
 21
58.15690870767486
 31
0.0
210
0.0
220
0.0
230
1.0
 40
0.3543416580251074
 41
4.613153378096302
 42
4.647380592900684
  0
ELLIPSE
  5
1621
330
1F
100
AcDbEntity
  8
0
 62
     7
100
AcDbEllipse
 10
1210.326915345592
 20
177.6420453598487
 30
0.0
 11
16.34088211140341
 21
58.15690870767486
 31
0.0
210
0.0
220
0.0
230
1.0
 40
0.3543416580251113
 41
1.635804714278904
 42
1.670031929083286
  0
ELLIPSE
  5
1623
330
1F
100
AcDbEntity
  8
0
 62
     7
100
AcDbEllipse
 10
1210.326915345592
 20
177.6420453598487
 30
0.0
 11
-17.81524214568707
 21
58.14302978682538
 31
0.0
210
0.0
220
0.0
230
1.0
 40
0.3327487258774989
 41
1.434964741470522
 42
1.469191956274904
  0
ELLIPSE
  5
1627
330
1F
100
AcDbEntity
  8
0
 62
     7
100
AcDbEllipse
 10
1210.326915345592
 20
177.6420453598487
 30
0.0
 11
16.34088211140374
 21
58.15690870767486
 31
0.0
210
0.0
220
0.0
230
1.0
 40
0.3543416580251074
 41
4.811624582673085
 42
4.845851797477467
  0
ELLIPSE
  5
1629
330
1F
100
AcDbEntity
  8
0
 62
     7
100
AcDbEllipse
 10
1210.326915345592
 20
177.6420453598487
 30
0.0
 11
-14.72625147375777
 21
58.18363975775884
 31
0.0
210
0.0
220
0.0
230
0.9999999999999998
 40
0.3745131351344775
 41
4.617882256268886
 42
4.652109471073268
  0
ELLIPSE
  5
162B
330
1F
100
AcDbEntity
  8
0
 62
     7
100
AcDbEllipse
 10
1210.326915345592
 20
177.6420453598487
 30
0.0
 11
14.72625147375731
 21
58.18363975775873
 31
0.0
210
0.0
220
0.0
230
1.0
 40
0.3745131351344821
 41
1.63107583610632
 42
1.665303050910703
  0
ELLIPSE
  5
162D
330
1F
100
AcDbEntity
  8
0
 62
     7
100
AcDbEllipse
 10
1210.326915345592
 20
177.6420453598487
 30
0.0
 11
-16.34088211140341
 21
58.15690870767486
 31
0.0
210
0.0
220
0.0
230
1.0
 40
0.3543416580251113
 41
1.437333509702123
 42
1.471560724506505
  0
ELLIPSE
  5
162F
330
1F
100
AcDbEntity
  8
0
 62
     7
100
AcDbEllipse
 10
1210.326915345592
 20
177.6420453598487
 30
0.0
 11
14.72625147375777
 21
58.18363975775884
 31
0.0
210
0.0
220
0.0
230
0.9999999999999998
 40
0.3745131351344775
 41
4.806895704500503
 42
4.841122919304885
  0
ELLIPSE
  5
1632
330
1F
100
AcDbEntity
  8
0
 62
     7
100
AcDbEllipse
 10
1210.326915345592
 20
177.6420453598487
 30
0.0
 11
-12.97010911656014
 21
58.22177534767916
 31
0.0
210
0.0
220
0.0
230
1.0
 40
0.3929695567554452
 41
4.625069461031148
 42
4.65929667583553
  0
ELLIPSE
  5
1633
330
1F
100
AcDbEntity
  8
0
 62
     7
100
AcDbEllipse
 10
1210.326915345592
 20
177.6420453598487
 30
0.0
 11
-14.72625147375731
 21
58.18363975775873
 31
0.0
210
0.0
220
0.0
230
1.0
 40
0.3745131351344821
 41
1.442062387874706
 42
1.47628960267909
  0
ELLIPSE
  5
1635
330
1F
100
AcDbEntity
  8
0
 62
     7
100
AcDbEllipse
 10
1210.326915345592
 20
177.6420453598487
 30
0.0
 11
12.9701091165598
 21
58.22177534767916
 31
0.0
210
0.0
220
0.0
230
0.9999999999999998
 40
0.3929695567554491
 41
1.623888631344058
 42
1.65811584614844
  0
ELLIPSE
  5
1637
330
1F
100
AcDbEntity
  8
0
 62
     7
100
AcDbEllipse
 10
1210.326915345592
 20
177.6420453598487
 30
0.0
 11
12.97010911656014
 21
58.22177534767916
 31
0.0
210
0.0
220
0.0
230
1.0
 40
0.392969556755447
 41
4.799708499738241
 42
4.833935714542625
  0
ELLIPSE
  5
163A
330
1F
100
AcDbEntity
  8
0
 62
     7
100
AcDbEllipse
 10
1210.326915345592
 20
177.6420453598487
 30
0.0
 11
-11.07484283971871
 21
58.26831455776964
 31
0.0
210
0.0
220
0.0
230
1.0
 40
0.409390842282329
 41
4.634734049858789
 42
4.668961264663169
  0
ELLIPSE
  5
163B
330
1F
100
AcDbEntity
  8
0
 62
     7
100
AcDbEllipse
 10
1210.326915345592
 20
177.6420453598487
 30
0.0
 11
11.07484283971837
 21
58.26831455776965
 31
0.0
210
0.0
220
0.0
230
1.0
 40
0.4093908422823331
 41
1.614224042516418
 42
1.6484512573208
  0
ELLIPSE
  5
163D
330
1F
100
AcDbEntity
  8
0
 62
     7
100
AcDbEllipse
 10
1210.326915345592
 20
177.6420453598487
 30
0.0
 11
-12.9701091165598
 21
58.22177534767916
 31
0.0
210
0.0
220
0.0
230
0.9999999999999998
 40
0.3929695567554491
 41
1.449249592636969
 42
1.48347680744135
  0
ELLIPSE
  5
163F
330
1F
100
AcDbEntity
  8
0
 62
     7
100
AcDbEllipse
 10
1210.326915345592
 20
177.6420453598487
 30
0.0
 11
11.07484283971871
 21
58.26831455776964
 31
0.0
210
0.0
220
0.0
230
1.0
 40
0.409390842282329
 41
4.790043910910601
 42
4.824271125714983
  0
ELLIPSE
  5
1641
330
1F
100
AcDbEntity
  8
0
 62
     7
100
AcDbEllipse
 10
1210.326915345592
 20
177.6420453598487
 30
0.0
 11
-9.047854967675108
 21
58.31873284165525
 31
0.0
210
0.0
220
0.0
230
1.0
 40
0.4234430444188501
 41
4.646788210118172
 42
4.681015424922557
  0
ELLIPSE
  5
1643
330
1F
100
AcDbEntity
  8
0
 62
     7
100
AcDbEllipse
 10
1210.326915345592
 20
177.6420453598487
 30
0.0
 11
-11.07484283971837
 21
58.26831455776965
 31
0.0
210
0.0
220
0.0
230
1.0
 40
0.4093908422823331
 41
1.458914181464608
 42
1.493141396268991
  0
ELLIPSE
  5
1645
330
1F
100
AcDbEntity
  8
0
 62
     7
100
AcDbEllipse
 10
1210.326915345592
 20
177.6420453598487
 30
0.0
 11
9.047854967674652
 21
58.31873284165528
 31
0.0
210
0.0
220
0.0
230
0.9999999999999998
 40
0.4234430444188541
 41
1.602169882257033
 42
1.636397097061415
  0
ELLIPSE
  5
1647
330
1F
100
AcDbEntity
  8
0
 62
     7
100
AcDbEllipse
 10
1210.326915345592
 20
177.6420453598487
 30
0.0
 11
9.047854967675108
 21
58.31873284165525
 31
0.0
210
0.0
220
0.0
230
1.0
 40
0.4234430444188501
 41
4.777989750651216
 42
4.812216965455599
  0
ELLIPSE
  5
1649
330
1F
100
AcDbEntity
  8
0
 62
     7
100
AcDbEllipse
 10
1210.326915345592
 20
177.6420453598487
 30
0.0
 11
-6.90282372345996
 21
58.36732909341487
 31
0.0
210
0.0
220
0.0
230
1.0
 40
0.4347974074007819
 41
4.661012829350565
 42
4.695240044154947
  0
ELLIPSE
  5
164B
330
1F
100
AcDbEntity
  8
0
 62
     7
100
AcDbEllipse
 10
1210.326915345592
 20
177.6420453598487
 30
0.0
 11
-9.047854967674652
 21
58.31873284165528
 31
0.0
210
0.0
220
0.0
230
0.9999999999999998
 40
0.4234430444188541
 41
1.470968341723994
 42
1.505195556528376
  0
ELLIPSE
  5
164D
330
1F
100
AcDbEntity
  8
0
 62
     7
100
AcDbEllipse
 10
1210.326915345592
 20
177.6420453598487
 30
0.0
 11
6.902823723459504
 21
58.36732909341496
 31
0.0
210
0.0
220
0.0
230
1.0
 40
0.4347974074007828
 41
1.58794526302464
 42
1.622172477829023
  0
ELLIPSE
  5
164F
330
1F
100
AcDbEntity
  8
0
 62
     7
100
AcDbEllipse
 10
1210.326915345592
 20
177.6420453598487
 30
0.0
 11
6.90282372345996
 21
58.36732909341487
 31
0.0
210
0.0
220
0.0
230
1.0
 40
0.4347974074007819
 41
4.763765131418826
 42
4.797992346223209
  0
ELLIPSE
  5
1652
330
1F
100
AcDbEntity
  8
0
 62
     7
100
AcDbEllipse
 10
1210.326915345592
 20
177.6420453598487
 30
0.0
 11
-4.66047334036773
 21
58.40794098464639
 31
0.0
210
0.0
220
0.0
230
1.0
 40
0.4431551265221312
 41
4.677043572161324
 42
4.711270786965706
  0
ELLIPSE
  5
1653
330
1F
100
AcDbEntity
  8
0
 62
     7
100
AcDbEllipse
 10
1210.326915345592
 20
177.6420453598487
 30
0.0
 11
-6.902823723459504
 21
58.36732909341496
 31
0.0
210
0.0
220
0.0
230
1.0
 40
0.4347974074007828
 41
1.485192960956386
 42
1.519420175760768
  0
ELLIPSE
  5
1655
330
1F
100
AcDbEntity
  8
0
 62
     7
100
AcDbEllipse
 10
1210.326915345592
 20
177.6420453598487
 30
0.0
 11
4.66047334036716
 21
58.40794098464635
 31
0.0
210
0.0
220
0.0
230
1.0
 40
0.443155126522133
 41
1.57191452021388
 42
1.606141735018263
  0
ELLIPSE
  5
1657
330
1F
100
AcDbEntity
  8
0
 62
     7
100
AcDbEllipse
 10
1210.326915345592
 20
177.6420453598487
 30
0.0
 11
4.66047334036773
 21
58.40794098464639
 31
0.0
210
0.0
220
0.0
230
1.0
 40
0.4431551265221312
 41
4.747734388608066
 42
4.781961603412447
  0
ELLIPSE
  5
165A
330
1F
100
AcDbEntity
  8
0
 62
     7
100
AcDbEllipse
 10
1210.326915345592
 20
177.6420453598487
 30
0.0
 11
-2.348446652338565
 21
58.43496216763668
 31
0.0
210
0.0
220
0.0
230
0.9999999999999998
 40
0.4482750983081887
 41
4.694375170827916
 42
4.728602385632298
  0
ELLIPSE
  5
165B
330
1F
100
AcDbEntity
  8
0
 62
     7
100
AcDbEllipse
 10
1210.326915345592
 20
177.6420453598487
 30
0.0
 11
-4.66047334036716
 21
58.40794098464635
 31
0.0
210
0.0
220
0.0
230
1.0
 40
0.443155126522133
 41
1.501223703767147
 42
1.535450918571529
  0
ELLIPSE
  5
165D
330
1F
100
AcDbEntity
  8
0
 62
     7
100
AcDbEllipse
 10
1210.326915345592
 20
177.6420453598487
 30
0.0
 11
2.34844665233811
 21
58.43496216763668
 31
0.0
210
0.0
220
0.0
230
1.0
 40
0.4482750983081906
 41
1.554582921547289
 42
1.588810136351671
  0
ELLIPSE
  5
165F
330
1F
100
AcDbEntity
  8
0
 62
     7
100
AcDbEllipse
 10
1210.326915345592
 20
177.6420453598487
 30
0.0
 11
2.348446652338565
 21
58.43496216763668
 31
0.0
210
0.0
220
0.0
230
0.9999999999999998
 40
0.4482750983081887
 41
4.730402789941474
 42
4.764630004745858
  0
ELLIPSE
  5
1663
330
1F
100
AcDbEntity
  8
0
 62
     7
100
AcDbEllipse
 10
1210.326915345592
 20
177.6420453598487
 30
0.0
 11
-2.34844665233811
 21
58.43496216763668
 31
0.0
210
0.0
220
0.0
230
1.0
 40
0.4482750983081906
 41
1.518555302433736
 42
1.55278251723812
  0
ELLIPSE
  5
1665
330
1F
100
AcDbEntity
  8
0
 62
     7
100
AcDbEllipse
 10
1210.326915345592
 20
177.6420453598487
 30
0.0
 11
-0.0000000000001137
 21
58.44444444444452
 31
0.0
210
0.0
220
0.0
230
0.9999999999999998
 40
0.4499999999999987
 41
1.536569111990513
 42
1.570796326794894
  0
LINE
  5
18C2
330
1F
100
AcDbEntity
  8
0
100
AcDbLine
 10
1184.026915345592
 20
177.3920453598487
 30
0.0
 11
1184.026915345592
 21
66.86651291972101
 31
0.0
  0
LINE
  5
18C5
330
1F
100
AcDbEntity
  8
0
100
AcDbLine
 10
1236.626915345592
 20
177.3920453598487
 30
0.0
 11
1236.626915345592
 21
66.86651291972101
 31
0.0
  0
LINE
  5
18C6
330
1F
100
AcDbEntity
  8
0
100
AcDbLine
 10
1186.526915345592
 20
68.11651291972101
 30
0.0
 11
1234.126915345592
 21
68.11651291972101
 31
0.0
  0
LINE
  5
18CA
330
1F
100
AcDbEntity
  8
0
100
AcDbLine
 10
1197.332933845592
 20
98.27242835984907
 30
0.0
 11
1197.332933845592
 21
74.03923784131018
 31
0.0
  0
LINE
  5
18CB
330
1F
100
AcDbEntity
  8
0
100
AcDbLine
 10
1223.325301845592
 20
96.27242835984896
 30
0.0
 11
1223.325301845592
 21
74.03923784131018
 31
0.0
  0
LINE
  5
18CC
330
1F
100
AcDbEntity
  8
0
100
AcDbLine
 10
1199.832933845592
 20
75.28923784131018
 30
0.0
 11
1220.825301845592
 21
75.28923784131018
 31
0.0
  0
LINE
  5
18D0
330
1F
100
AcDbEntity
  8
0
100
AcDbLine
 10
1184.826915345592
 20
179.8920453598487
 30
0.0
 11
1184.826915345592
 21
252.8376668640644
 31
0.0
  0
LINE
  5
18D1
330
1F
100
AcDbEntity
  8
0
100
AcDbLine
 10
1235.826915345592
 20
179.8920453598487
 30
0.0
 11
1235.826915345592
 21
252.8376668640644
 31
0.0
  0
LINE
  5
18D2
330
1F
100
AcDbEntity
  8
0
100
AcDbLine
 10
1187.326915345592
 20
251.5876668640644
 30
0.0
 11
1233.326915345592
 21
251.5876668640644
 31
0.0
  0
LINE
  5
18D6
330
1F
100
AcDbEntity
  8
0
100
AcDbLine
 10
1183.776915345592
 20
179.6420453598487
 30
0.0
 11
1174.193930526046
 21
179.6420453598487
 31
0.0
  0
LINE
  5
18D7
330
1F
100
AcDbEntity
  8
0
100
AcDbLine
 10
1210.076915345592
 20
88.14204535984869
 30
0.0
 11
1174.193930526046
 21
88.1420453598487
 31
0.0
  0
LINE
  5
18D8
330
1F
100
AcDbEntity
  8
0
100
AcDbLine
 10
1175.443930526046
 20
177.1420453598486
 30
0.0
 11
1175.443930526046
 21
90.6420453598487
 31
0.0
  0
LINE
  5
18DC
330
1F
100
AcDbEntity
  8
0
100
AcDbLine
 10
1210.076915345592
 20
88.14204535984869
 30
0.0
 11
1166.023533607393
 21
88.1420453598487
 31
0.0
  0
LINE
  5
18DD
330
1F
100
AcDbEntity
  8
0
100
AcDbLine
 10
1187.776915345592
 20
233.6420453598487
 30
0.0
 11
1166.023533607393
 21
233.6420453598487
 31
0.0
  0
LINE
  5
18DE
330
1F
100
AcDbEntity
  8
0
100
AcDbLine
 10
1167.273533607393
 20
90.6420453598487
 30
0.0
 11
1167.273533607393
 21
231.1420453598487
 31
0.0
  0
LINE
  5
18E2
330
1F
100
AcDbEntity
  8
0
 62
     3
100
AcDbLine
 10
1200.711631114747
 20
284.1057164961867
 30
0.0
 11
1200.693699148718
 21
284.220529326821
 31
0.0
  0
LINE
  5
18E3
330
1F
100
AcDbEntity
  8
0
 62
     3
100
AcDbLine
 10
1200.693699148718
 20
284.220529326821
 30
0.0
 11
1200.672163404013
 21
284.3304688352081
 31
0.0
  0
LINE
  5
18E4
330
1F
100
AcDbEntity
  8
0
 62
     3
100
AcDbLine
 10
1200.672163404013
 20
284.3304688352081
 30
0.0
 11
1200.647190996772
 21
284.4346846158341
 31
0.0
  0
LINE
  5
18E5
330
1F
100
AcDbEntity
  8
0
 62
     3
100
AcDbLine
 10
1200.647190996772
 20
284.4346846158341
 30
0.0
 11
1200.618973301929
 21
284.5323707376413
 31
0.0
  0
LINE
  5
18E6
330
1F
100
AcDbEntity
  8
0
 62
     3
100
AcDbLine
 10
1200.618973301929
 20
284.5323707376413
 30
0.0
 11
1200.587729996343
 21
284.6227731564381
 31
0.0
  0
LINE
  5
18E7
330
1F
100
AcDbEntity
  8
0
 62
     3
100
AcDbLine
 10
1200.587729996343
 20
284.6227731564381
 30
0.0
 11
1200.553701646392
 21
284.7051924103198
 31
0.0
  0
LINE
  5
18E8
330
1F
100
AcDbEntity
  8
0
 62
     3
100
AcDbLine
 10
1200.553701646392
 20
284.7051924103198
 30
0.0
 11
1200.517151055681
 21
284.7789910320792
 31
0.0
  0
LINE
  5
18E9
330
1F
100
AcDbEntity
  8
0
 62
     3
100
AcDbLine
 10
1200.517151055681
 20
284.7789910320792
 30
0.0
 11
1200.478361917334
 21
284.8435996139036
 31
0.0
  0
LINE
  5
18EA
330
1F
100
AcDbEntity
  8
0
 62
     3
100
AcDbLine
 10
1200.478361917334
 20
284.8435996139036
 30
0.0
 11
1200.437633423148
 21
284.8985188289423
 31
0.0
  0
LINE
  5
18EB
330
1F
100
AcDbEntity
  8
0
 62
     3
100
AcDbLine
 10
1200.437633423148
 20
284.8985188289423
 30
0.0
 11
1200.395280263595
 21
284.9433228005828
 31
0.0
  0
LINE
  5
18EC
330
1F
100
AcDbEntity
  8
0
 62
     3
100
AcDbLine
 10
1200.395280263595
 20
284.9433228005828
 30
0.0
 11
1200.351629932398
 21
284.9776665148608
 31
0.0
  0
LINE
  5
18ED
330
1F
100
AcDbEntity
  8
0
 62
     3
100
AcDbLine
 10
1200.351629932398
 20
284.9776665148608
 30
0.0
 11
1200.307019357257
 21
285.0012837988936
 31
0.0
  0
LINE
  5
18EE
330
1F
100
AcDbEntity
  8
0
 62
     3
100
AcDbLine
 10
1200.307019357257
 20
285.0012837988936
 30
0.0
 11
1200.261794225992
 21
285.0139927117234
 31
0.0
  0
LINE
  5
18EF
330
1F
100
AcDbEntity
  8
0
 62
     3
100
AcDbLine
 10
1200.261794225992
 20
285.0139927117234
 30
0.0
 11
1200.2163035957
 21
285.0156948704618
 31
0.0
  0
LINE
  5
18F0
330
1F
100
AcDbEntity
  8
0
 62
     3
100
AcDbLine
 10
1200.2163035957
 20
285.0156948704618
 30
0.0
 11
1200.170899218898
 21
285.0063761241456
 31
0.0
  0
LINE
  5
18F1
330
1F
100
AcDbEntity
  8
0
 62
     3
100
AcDbLine
 10
1200.170899218898
 20
285.0063761241456
 30
0.0
 11
1200.125931500396
 21
284.9861099230133
 31
0.0
  0
LINE
  5
18F2
330
1F
100
AcDbEntity
  8
0
 62
     3
100
AcDbLine
 10
1200.125931500396
 20
284.9861099230133
 30
0.0
 11
1200.081748823433
 21
284.9550526015174
 31
0.0
  0
LINE
  5
18F3
330
1F
100
AcDbEntity
  8
0
 62
     3
100
AcDbLine
 10
1200.081748823433
 20
284.9550526015174
 30
0.0
 11
1200.038692832698
 21
284.9134433783247
 31
0.0
  0
LINE
  5
18F4
330
1F
100
AcDbEntity
  8
0
 62
     3
100
AcDbLine
 10
1200.038692832698
 20
284.9134433783247
 30
0.0
 11
1199.997095065047
 21
284.8616043563161
 31
0.0
  0
LINE
  5
18F5
330
1F
100
AcDbEntity
  8
0
 62
     3
100
AcDbLine
 10
1199.997095065047
 20
284.8616043563161
 30
0.0
 11
1199.957278297216
 21
284.799936479454
 31
0.0
  0
LINE
  5
18F6
330
1F
100
AcDbEntity
  8
0
 62
     3
100
AcDbLine
 10
1199.957278297216
 20
284.799936479454
 30
0.0
 11
1199.919549807268
 21
284.7289161635058
 31
0.0
  0
LINE
  5
18F7
330
1F
100
AcDbEntity
  8
0
 62
     3
100
AcDbLine
 10
1199.919549807268
 20
284.7289161635058
 30
0.0
 11
1199.88420137459
 21
284.6490919267663
 31
0.0
  0
LINE
  5
18F8
330
1F
100
AcDbEntity
  8
0
 62
     3
100
AcDbLine
 10
1199.88420137459
 20
284.6490919267663
 30
0.0
 11
1199.851505910618
 21
284.561081694637
 31
0.0
  0
LINE
  5
18F9
330
1F
100
AcDbEntity
  8
0
 62
     3
100
AcDbLine
 10
1199.851505910618
 20
284.561081694637
 30
0.0
 11
1199.821716111129
 21
284.4655653872153
 31
0.0
  0
LINE
  5
18FA
330
1F
100
AcDbEntity
  8
0
 62
     3
100
AcDbLine
 10
1199.821716111129
 20
284.4655653872153
 30
0.0
 11
1199.795063108522
 21
284.3632815500191
 31
0.0
  0
LINE
  5
18FB
330
1F
100
AcDbEntity
  8
0
 62
     3
100
AcDbLine
 10
1199.795063108522
 20
284.3632815500191
 30
0.0
 11
1199.771751754841
 21
284.2550199415761
 31
0.0
  0
LINE
  5
18FC
330
1F
100
AcDbEntity
  8
0
 62
     3
100
AcDbLine
 10
1199.771751754841
 20
284.2550199415761
 30
0.0
 11
1199.751962643331
 21
284.1416174902922
 31
0.0
  0
LINE
  5
18FD
330
1F
100
AcDbEntity
  8
0
 62
     3
100
AcDbLine
 10
1199.751962643331
 20
284.1416174902922
 30
0.0
 11
1199.735849413024
 21
284.0239515558974
 31
0.0
  0
LINE
  5
18FE
330
1F
100
AcDbEntity
  8
0
 62
     3
100
AcDbLine
 10
1199.735849413024
 20
284.0239515558974
 30
0.0
 11
1199.723535379458
 21
283.902931169325
 31
0.0
  0
LINE
  5
18FF
330
1F
100
AcDbEntity
  8
0
 62
     3
100
AcDbLine
 10
1199.723535379458
 20
283.902931169325
 30
0.0
 11
1199.715116903956
 21
283.7794916418694
 31
0.0
  0
LINE
  5
1900
330
1F
100
AcDbEntity
  8
0
 62
     3
100
AcDbLine
 10
1199.715116903956
 20
283.7794916418694
 30
0.0
 11
1199.710658676634
 21
283.6545878266312
 31
0.0
  0
LINE
  5
1901
330
1F
100
AcDbEntity
  8
0
 62
     3
100
AcDbLine
 10
1199.710658676634
 20
283.6545878266312
 30
0.0
 11
1199.710194390264
 21
283.5291840106867
 31
0.0
  0
LINE
  5
1902
330
1F
100
AcDbEntity
  8
0
 62
     3
100
AcDbLine
 10
1199.710194390264
 20
283.5291840106867
 30
0.0
 11
1199.713728761833
 21
283.4042498719556
 31
0.0
  0
LINE
  5
1903
330
1F
100
AcDbEntity
  8
0
 62
     3
100
AcDbLine
 10
1199.713728761833
 20
283.4042498719556
 30
0.0
 11
1199.721233489414
 21
283.2807517190802
 31
0.0
  0
LINE
  5
1904
330
1F
100
AcDbEntity
  8
0
 62
     3
100
AcDbLine
 10
1199.721233489414
 20
283.2807517190802
 30
0.0
 11
1199.732651295299
 21
283.1596430574506
 31
0.0
  0
LINE
  5
1905
330
1F
100
AcDbEntity
  8
0
 62
     3
100
AcDbLine
 10
1199.732651295299
 20
283.1596430574506
 30
0.0
 11
1199.74789390443
 21
283.041861219927
 31
0.0
  0
LINE
  5
1906
330
1F
100
AcDbEntity
  8
0
 62
     3
100
AcDbLine
 10
1199.74789390443
 20
283.041861219927
 30
0.0
 11
1199.766842718257
 21
282.9283159112985
 31
0.0
  0
LINE
  5
1907
330
1F
100
AcDbEntity
  8
0
 62
     3
100
AcDbLine
 10
1199.766842718257
 20
282.9283159112985
 30
0.0
 11
1199.789352184014
 21
282.8198851651503
 31
0.0
  0
LINE
  5
1908
330
1F
100
AcDbEntity
  8
0
 62
     3
100
AcDbLine
 10
1199.789352184014
 20
282.8198851651503
 30
0.0
 11
1199.815247773151
 21
282.7174059098883
 31
0.0
  0
LINE
  5
1909
330
1F
100
AcDbEntity
  8
0
 62
     3
100
AcDbLine
 10
1199.815247773151
 20
282.7174059098883
 30
0.0
 11
1199.844330024472
 21
282.6216719471727
 31
0.0
  0
LINE
  5
190A
330
1F
100
AcDbEntity
  8
0
 62
     3
100
AcDbLine
 10
1199.844330024472
 20
282.6216719471727
 30
0.0
 11
1199.876373196417
 21
282.5334218225211
 31
0.0
  0
LINE
  5
190B
330
1F
100
AcDbEntity
  8
0
 62
     3
100
AcDbLine
 10
1199.876373196417
 20
282.5334218225211
 30
0.0
 11
1199.911129984055
 21
282.4533388253085
 31
0.0
  0
LINE
  5
190C
330
1F
100
AcDbEntity
  8
0
 62
     3
100
AcDbLine
 10
1199.911129984055
 20
282.4533388253085
 30
0.0
 11
1199.948332192936
 21
282.3820415547912
 31
0.0
  0
LINE
  5
190D
330
1F
100
AcDbEntity
  8
0
 62
     3
100
AcDbLine
 10
1199.948332192936
 20
282.3820415547912
 30
0.0
 11
1199.987691412951
 21
282.3200805508303
 31
0.0
  0
LINE
  5
190E
330
1F
100
AcDbEntity
  8
0
 62
     3
100
AcDbLine
 10
1199.987691412951
 20
282.3200805508303
 30
0.0
 11
1200.028903735314
 21
282.267934924615
 31
0.0
  0
LINE
  5
190F
330
1F
100
AcDbEntity
  8
0
 62
     3
100
AcDbLine
 10
1200.028903735314
 20
282.267934924615
 30
0.0
 11
1200.071651100276
 21
282.2260083155293
 31
0.0
  0
LINE
  5
1910
330
1F
100
AcDbEntity
  8
0
 62
     3
100
AcDbLine
 10
1200.071651100276
 20
282.2260083155293
 30
0.0
 11
1200.115602644836
 21
282.1946248480202
 31
0.0
  0
LINE
  5
1911
330
1F
100
AcDbEntity
  8
0
 62
     3
100
AcDbLine
 10
1200.115602644836
 20
282.1946248480202
 30
0.0
 11
1200.160418745874
 21
282.174026436176
 31
0.0
  0
LINE
  5
1912
330
1F
100
AcDbEntity
  8
0
 62
     3
100
AcDbLine
 10
1200.160418745874
 20
282.174026436176
 30
0.0
 11
1200.205753041713
 21
282.164372109871
 31
0.0
  0
LINE
  5
1913
330
1F
100
AcDbEntity
  8
0
 62
     3
100
AcDbLine
 10
1200.205753041713
 20
282.164372109871
 30
0.0
 11
1200.251255127547
 21
282.1657373409099
 31
0.0
  0
LINE
  5
1914
330
1F
100
AcDbEntity
  8
0
 62
     3
100
AcDbLine
 10
1200.251255127547
 20
282.1657373409099
 30
0.0
 11
1200.296573250858
 21
282.1781106737508
 31
0.0
  0
LINE
  5
1915
330
1F
100
AcDbEntity
  8
0
 62
     3
100
AcDbLine
 10
1200.296573250858
 20
282.1781106737508
 30
0.0
 11
1200.341357006836
 21
282.201397768638
 31
0.0
  0
LINE
  5
1916
330
1F
100
AcDbEntity
  8
0
 62
     3
100
AcDbLine
 10
1200.341357006836
 20
282.201397768638
 30
0.0
 11
1200.385260707663
 21
282.235417358469
 31
0.0
  0
LINE
  5
1917
330
1F
100
AcDbEntity
  8
0
 62
     3
100
AcDbLine
 10
1200.385260707663
 20
282.235417358469
 30
0.0
 11
1200.427944056362
 21
282.2799073134935
 31
0.0
  0
LINE
  5
1918
330
1F
100
AcDbEntity
  8
0
 62
     3
100
AcDbLine
 10
1200.427944056362
 20
282.2799073134935
 30
0.0
 11
1200.469078211499
 21
282.334522619747
 31
0.0
  0
LINE
  5
1919
330
1F
100
AcDbEntity
  8
0
 62
     3
100
AcDbLine
 10
1200.469078211499
 20
282.334522619747
 30
0.0
 11
1200.508344439468
 21
282.3988427914605
 31
0.0
  0
LINE
  5
191A
330
1F
100
AcDbEntity
  8
0
 62
     3
100
AcDbLine
 10
1200.508344439468
 20
282.3988427914605
 30
0.0
 11
1200.545439505341
 21
282.4723691756386
 31
0.0
  0
LINE
  5
191B
330
1F
100
AcDbEntity
  8
0
 62
     3
100
AcDbLine
 10
1200.545439505341
 20
282.4723691756386
 30
0.0
 11
1200.580077020573
 21
282.5545343860349
 31
0.0
  0
LINE
  5
191C
330
1F
100
AcDbEntity
  8
0
 62
     3
100
AcDbLine
 10
1200.580077020573
 20
282.5545343860349
 30
0.0
 11
1200.611988790716
 21
282.6447029770081
 31
0.0
  0
LINE
  5
191D
330
1F
100
AcDbEntity
  8
0
 62
     3
100
AcDbLine
 10
1200.611988790716
 20
282.6447029770081
 30
0.0
 11
1200.640928184692
 21
282.7421781820754
 31
0.0
  0
LINE
  5
191E
330
1F
100
AcDbEntity
  8
0
 62
     3
100
AcDbLine
 10
1200.640928184692
 20
282.7421781820754
 30
0.0
 11
1200.666671482509
 21
282.8462059570449
 31
0.0
  0
LINE
  5
191F
330
1F
100
AcDbEntity
  8
0
 62
     3
100
AcDbLine
 10
1200.666671482509
 20
282.8462059570449
 30
0.0
 11
1200.689020570681
 21
282.9559830662809
 31
0.0
  0
LINE
  5
1920
330
1F
100
AcDbEntity
  8
0
 62
     3
100
AcDbLine
 10
1200.689020570681
 20
282.9559830662809
 30
0.0
 11
1200.707801594513
 21
283.07066045198
 31
0.0
  0
TEXT
  5
1921
330
1F
100
AcDbEntity
  8
0
 62
     4
100
AcDbText
 10
1204.326915345592
 20
68.74151291972101
 30
0.0
 40
3.0
  1
\U+220552.6
100
AcDbText
  0
LINE
  5
1922
330
1F
100
AcDbEntity
  8
0
  6
ByBlock
 62
     0
370
    -2
100
AcDbLine
 10
1234.126915345592
 20
68.78638541972101
 30
0.0
 11
1236.626915345592
 21
68.11651291972101
 31
0.0
  0
LINE
  5
1923
330
1F
100
AcDbEntity
  8
0
  6
ByBlock
 62
     0
370
    -2
100
AcDbLine
 10
1236.626915345592
 20
68.11651291972101
 30
0.0
 11
1234.126915345592
 21
67.44664041972102
 31
0.0
  0
LINE
  5
1924
330
1F
100
AcDbEntity
  8
0
  6
ByBlock
 62
     0
370
    -2
100
AcDbLine
 10
1236.626915345592
 20
68.11651291972101
 30
0.0
 11
1234.126915345592
 21
68.11651291972101
 31
0.0
  0
LINE
  5
1925
330
1F
100
AcDbEntity
  8
0
  6
ByBlock
 62
     0
370
    -2
100
AcDbLine
 10
1186.526915345592
 20
67.44664041972102
 30
0.0
 11
1184.026915345592
 21
68.11651291972101
 31
0.0
  0
LINE
  5
1926
330
1F
100
AcDbEntity
  8
0
  6
ByBlock
 62
     0
370
    -2
100
AcDbLine
 10
1184.026915345592
 20
68.11651291972101
 30
0.0
 11
1186.526915345592
 21
68.78638541972101
 31
0.0
  0
LINE
  5
1927
330
1F
100
AcDbEntity
  8
0
  6
ByBlock
 62
     0
370
    -2
100
AcDbLine
 10
1184.026915345592
 20
68.11651291972101
 30
0.0
 11
1186.526915345592
 21
68.11651291972101
 31
0.0
  0
TEXT
  5
1928
330
1F
100
AcDbEntity
  8
0
 62
     4
100
AcDbText
 10
1206.329117845592
 20
75.91423784131018
 30
0.0
 40
3.0
  1
E26
100
AcDbText
  0
LINE
  5
1929
330
1F
100
AcDbEntity
  8
0
  6
ByBlock
 62
     0
370
    -2
100
AcDbLine
 10
1220.825301845592
 20
75.95911034131018
 30
0.0
 11
1223.325301845592
 21
75.28923784131018
 31
0.0
  0
LINE
  5
192A
330
1F
100
AcDbEntity
  8
0
  6
ByBlock
 62
     0
370
    -2
100
AcDbLine
 10
1223.325301845592
 20
75.28923784131018
 30
0.0
 11
1220.825301845592
 21
74.61936534131019
 31
0.0
  0
LINE
  5
192B
330
1F
100
AcDbEntity
  8
0
  6
ByBlock
 62
     0
370
    -2
100
AcDbLine
 10
1223.325301845592
 20
75.28923784131018
 30
0.0
 11
1220.825301845592
 21
75.28923784131018
 31
0.0
  0
LINE
  5
192C
330
1F
100
AcDbEntity
  8
0
  6
ByBlock
 62
     0
370
    -2
100
AcDbLine
 10
1199.832933845592
 20
74.61936534131019
 30
0.0
 11
1197.332933845592
 21
75.28923784131018
 31
0.0
  0
LINE
  5
192D
330
1F
100
AcDbEntity
  8
0
  6
ByBlock
 62
     0
370
    -2
100
AcDbLine
 10
1197.332933845592
 20
75.28923784131018
 30
0.0
 11
1199.832933845592
 21
75.95911034131018
 31
0.0
  0
LINE
  5
192E
330
1F
100
AcDbEntity
  8
0
  6
ByBlock
 62
     0
370
    -2
100
AcDbLine
 10
1197.332933845592
 20
75.28923784131018
 30
0.0
 11
1199.832933845592
 21
75.28923784131018
 31
0.0
  0
TEXT
  5
192F
330
1F
100
AcDbEntity
  8
0
 62
     4
100
AcDbText
 10
1206.826915345592
 20
252.2126668640644
 30
0.0
 40
3.0
  1
\U+220551
100
AcDbText
  0
LINE
  5
1930
330
1F
100
AcDbEntity
  8
0
  6
ByBlock
 62
     0
370
    -2
100
AcDbLine
 10
1233.326915345592
 20
252.2575393640644
 30
0.0
 11
1235.826915345592
 21
251.5876668640644
 31
0.0
  0
LINE
  5
1931
330
1F
100
AcDbEntity
  8
0
  6
ByBlock
 62
     0
370
    -2
100
AcDbLine
 10
1235.826915345592
 20
251.5876668640644
 30
0.0
 11
1233.326915345592
 21
250.9177943640644
 31
0.0
  0
LINE
  5
1932
330
1F
100
AcDbEntity
  8
0
  6
ByBlock
 62
     0
370
    -2
100
AcDbLine
 10
1235.826915345592
 20
251.5876668640644
 30
0.0
 11
1233.326915345592
 21
251.5876668640644
 31
0.0
  0
LINE
  5
1933
330
1F
100
AcDbEntity
  8
0
  6
ByBlock
 62
     0
370
    -2
100
AcDbLine
 10
1187.326915345592
 20
250.9177943640644
 30
0.0
 11
1184.826915345592
 21
251.5876668640644
 31
0.0
  0
LINE
  5
1934
330
1F
100
AcDbEntity
  8
0
  6
ByBlock
 62
     0
370
    -2
100
AcDbLine
 10
1184.826915345592
 20
251.5876668640644
 30
0.0
 11
1187.326915345592
 21
252.2575393640644
 31
0.0
  0
LINE
  5
1935
330
1F
100
AcDbEntity
  8
0
  6
ByBlock
 62
     0
370
    -2
100
AcDbLine
 10
1184.826915345592
 20
251.5876668640644
 30
0.0
 11
1187.326915345592
 21
251.5876668640644
 31
0.0
  0
TEXT
  5
1936
330
1F
100
AcDbEntity
  8
0
 62
     4
100
AcDbText
 10
1174.818930526046
 20
126.5170453598487
 30
0.0
 40
3.0
  1
91.5
 50
90.0
100
AcDbText
  0
LINE
  5
1937
330
1F
100
AcDbEntity
  8
0
  6
ByBlock
 62
     0
370
    -2
100
AcDbLine
 10
1176.113803026046
 20
90.6420453598487
 30
0.0
 11
1175.443930526046
 21
88.1420453598487
 31
0.0
  0
LINE
  5
1938
330
1F
100
AcDbEntity
  8
0
  6
ByBlock
 62
     0
370
    -2
100
AcDbLine
 10
1175.443930526046
 20
88.1420453598487
 30
0.0
 11
1174.774058026046
 21
90.6420453598487
 31
0.0
  0
LINE
  5
1939
330
1F
100
AcDbEntity
  8
0
  6
ByBlock
 62
     0
370
    -2
100
AcDbLine
 10
1175.443930526046
 20
88.1420453598487
 30
0.0
 11
1175.443930526046
 21
90.6420453598487
 31
0.0
  0
LINE
  5
193A
330
1F
100
AcDbEntity
  8
0
  6
ByBlock
 62
     0
370
    -2
100
AcDbLine
 10
1174.774058026046
 20
177.1420453598486
 30
0.0
 11
1175.443930526046
 21
179.6420453598487
 31
0.0
  0
LINE
  5
193B
330
1F
100
AcDbEntity
  8
0
  6
ByBlock
 62
     0
370
    -2
100
AcDbLine
 10
1175.443930526046
 20
179.6420453598487
 30
0.0
 11
1176.113803026046
 21
177.1420453598486
 31
0.0
  0
LINE
  5
193C
330
1F
100
AcDbEntity
  8
0
  6
ByBlock
 62
     0
370
    -2
100
AcDbLine
 10
1175.443930526046
 20
179.6420453598487
 30
0.0
 11
1175.443930526046
 21
177.1420453598486
 31
0.0
  0
TEXT
  5
193D
330
1F
100
AcDbEntity
  8
0
 62
     4
100
AcDbText
 10
1166.648533607393
 20
149.3920453598487
 30
0.0
 40
3.0
  1
145.5
 50
90.0
100
AcDbText
  0
LINE
  5
193E
330
1F
100
AcDbEntity
  8
0
  6
ByBlock
 62
     0
370
    -2
100
AcDbLine
 10
1166.603661107393
 20
231.1420453598487
 30
0.0
 11
1167.273533607393
 21
233.6420453598487
 31
0.0
  0
LINE
  5
193F
330
1F
100
AcDbEntity
  8
0
  6
ByBlock
 62
     0
370
    -2
100
AcDbLine
 10
1167.273533607393
 20
233.6420453598487
 30
0.0
 11
1167.943406107393
 21
231.1420453598487
 31
0.0
  0
LINE
  5
1940
330
1F
100
AcDbEntity
  8
0
  6
ByBlock
 62
     0
370
    -2
100
AcDbLine
 10
1167.273533607393
 20
233.6420453598487
 30
0.0
 11
1167.273533607393
 21
231.1420453598487
 31
0.0
  0
LINE
  5
1941
330
1F
100
AcDbEntity
  8
0
  6
ByBlock
 62
     0
370
    -2
100
AcDbLine
 10
1167.943406107393
 20
90.6420453598487
 30
0.0
 11
1167.273533607393
 21
88.1420453598487
 31
0.0
  0
LINE
  5
1942
330
1F
100
AcDbEntity
  8
0
  6
ByBlock
 62
     0
370
    -2
100
AcDbLine
 10
1167.273533607393
 20
88.1420453598487
 30
0.0
 11
1166.603661107393
 21
90.6420453598487
 31
0.0
  0
LINE
  5
1943
330
1F
100
AcDbEntity
  8
0
  6
ByBlock
 62
     0
370
    -2
100
AcDbLine
 10
1167.273533607393
 20
88.1420453598487
 30
0.0
 11
1167.273533607393
 21
90.6420453598487
 31
0.0
  0
ENDSEC
  0
SECTION
  2
OBJECTS
  0
DICTIONARY
  5
C
330
0
100
AcDbDictionary
281
     1
  3
ACAD_2007HEADERVARS_RT
350
1947
  3
ACAD_COLOR
350
73
  3
ACAD_GROUP
350
D
  3
ACAD_LAYOUT
350
1A
  3
ACAD_MATERIAL
350
72
  3
ACAD_MLEADERSTYLE
350
168
  3
ACAD_MLINESTYLE
350
17
  3
ACAD_PLOTSETTINGS
350
19
  3
ACAD_PLOTSTYLENAME
350
E
  3
ACAD_SCALELIST
350
156
  3
ACAD_TABLESTYLE
350
86
  3
ACAD_VISUALSTYLE
350
99
  3
ACDB_RECOMPOSE_DATA
350
1945
  3
AcDbVariableDictionary
350
66
  3
AEC_PROPERTY_SET_DEFS
350
DF3
  3
DWGPROPS
350
1946
  0
DICTIONARY
  5
829
330
8
100
AcDbDictionary
280
     1
281
     1
  0
DICTIONARY
  5
DD
330
2
100
AcDbDictionary
280
     1
281
     1
  3
ACAD_LAYERSTATES
360
DE
  0
DICTIONARY
  5
81D
330
10
100
AcDbDictionary
280
     1
281
     1
  3
ADSK_XREC_LAYER_RECONCILED
360
1148
  0
DICTIONARY
  5
31A
330
1F
100
AcDbDictionary
280
     1
281
     1
  3
ACAD_SORTENTS
360
31B
  0
DICTIONARY
  5
1947
102
{ACAD_REACTORS
330
C
102
}
330
C
100
AcDbDictionary
281
     1
  3
DIMARCSYM
350
1949
  3
DIMFXL
350
1948
  3
DIMJOGANG
350
194A
  0
DICTIONARY
  5
73
102
{ACAD_REACTORS
330
C
102
}
330
C
100
AcDbDictionary
281
     1
  0
DICTIONARY
  5
D
102
{ACAD_REACTORS
330
C
102
}
330
C
100
AcDbDictionary
281
     1
  0
DICTIONARY
  5
1A
102
{ACAD_REACTORS
330
C
102
}
330
C
100
AcDbDictionary
281
     1
  3
Model
350
22
  3
レイアウト1
350
59
  3
レイアウト2
350
5E
  0
DICTIONARY
  5
72
102
{ACAD_REACTORS
330
C
102
}
330
C
100
AcDbDictionary
281
     1
  3
ByBlock
350
97
  3
ByLayer
350
96
  3
Global
350
98
  0
DICTIONARY
  5
168
102
{ACAD_REACTORS
330
C
102
}
330
C
100
AcDbDictionary
281
     1
  3
Standard
350
169
  0
DICTIONARY
  5
17
102
{ACAD_REACTORS
330
C
102
}
330
C
100
AcDbDictionary
281
     1
  3
Standard
350
18
  0
DICTIONARY
  5
19
102
{ACAD_REACTORS
330
C
102
}
330
C
100
AcDbDictionary
281
     1
  0
ACDBDICTIONARYWDFLT
  5
E
102
{ACAD_REACTORS
330
C
102
}
330
C
100
AcDbDictionary
281
     1
  3
Normal
350
F
100
AcDbDictionaryWithDefault
340
F
  0
DICTIONARY
  5
156
102
{ACAD_REACTORS
330
C
102
}
330
C
100
AcDbDictionary
281
     1
  3
A0
350
157
  3
A1
350
158
  3
A2
350
159
  3
A3
350
15A
  3
A4
350
15B
  3
A5
350
15C
  3
A6
350
15D
  3
A7
350
15E
  3
A8
350
15F
  3
A9
350
160
  3
B0
350
161
  3
B1
350
162
  3
B2
350
163
  3
B3
350
164
  3
B4
350
165
  3
B5
350
166
  3
B6
350
167
  0
DICTIONARY
  5
86
102
{ACAD_REACTORS
330
C
102
}
330
C
100
AcDbDictionary
281
     1
  3
Standard
350
87
  0
DICTIONARY
  5
99
102
{ACAD_REACTORS
330
C
102
}
330
C
100
AcDbDictionary
281
     1
  3
2dWireframe
350
9F
  3
3D Hidden
350
A1
  3
3dWireframe
350
A0
  3
Basic
350
9E
  3
Brighten
350
A5
  3
ColorChange
350
A9
  3
Conceptual
350
A2
  3
Dim
350
A4
  3
EdgeColorOff
350
155
  3
Facepattern
350
A8
  3
Flat
350
9A
  3
FlatWithEdges
350
9B
  3
Gouraud
350
9C
  3
GouraudWithEdges
350
9D
  3
Hidden
350
14D
  3
JitterOff
350
153
  3
Linepattern
350
A7
  3
OverhangOff
350
154
  3
Realistic
350
A3
  3
Shaded
350
152
  3
Shaded with edges
350
151
  3
Shades of Gray
350
14E
  3
Sketchy
350
14F
  3
Thicken
350
A6
  3
Wireframe
350
14C
  3
X-Ray
350
150
  0
XRECORD
  5
1945
102
{ACAD_REACTORS
330
C
102
}
330
C
100
AcDbXrecord
280
     1
 90
        1
330
87
  0
DICTIONARY
  5
66
102
{ACAD_REACTORS
330
C
102
}
330
C
100
AcDbDictionary
281
     1
  3
CANNOSCALE
350
245
  3
CMLEADERSTYLE
350
243
  3
CTABLESTYLE
350
89
  3
DIMASSOC
350
67
  3
HIDETEXT
350
6B
  3
INDEXCTL
350
870
  3
LAYEREVAL
350
247
  3
LAYERNOTIFY
350
248
  3
LIGHTINGUNITS
350
246
  3
MSLTSCALE
350
244
  3
SORTENTS
350
86F
  3
XCLIPFRAME
350
17CE
  0
DICTIONARY
  5
DF3
102
{ACAD_REACTORS
330
C
102
}
330
C
100
AcDbDictionary
281
     1
  0
XRECORD
  5
1946
102
{ACAD_REACTORS
330
C
102
}
330
C
100
AcDbXrecord
280
     1
  1
DWGPROPS COOKIE
  2

  3

  4

  6

  7

  8
imamura
  9

300
=
301
=
302
=
303
=
304
=
305
=
306
=
307
=
308
=
309
=
 40
0.0870344560185185
 41
2459543.579464456
 42
2459543.666659687
  1

 90
        0
  0
DICTIONARY
  5
DE
102
{ACAD_REACTORS
330
DD
102
}
330
DD
100
AcDbDictionary
281
     1
  0
XRECORD
  5
1148
102
{ACAD_REACTORS
330
81D
102
}
330
81D
100
AcDbXrecord
280
     1
290
     1
  0
SORTENTSTABLE
  5
31B
102
{ACAD_REACTORS
330
31A
102
}
330
31A
100
AcDbSortentsTable
330
1F
331
18CB
  5
1592
331
1941
  5
131B
331
193D
  5
1324
331
1906
  5
E83
331
1939
  5
13C8
331
1902
  5
E7F
331
163F
  5
1931
331
163B
  5
192F
331
1637
  5
192D
331
1633
  5
192B
331
131C
  5
12B6
331
12A6
  5
E2F
331
158F
  5
18E0
331
1318
  5
12B2
331
12A2
  5
E2B
331
158B
  5
18DD
331
1314
  5
12AE
331
15C6
  5
18EE
331
129E
  5
E27
331
12DD
  5
EA5
331
1310
  5
12AA
331
12D9
  5
EA1
331
11FE
  5
160A
331
129A
  5
E23
331
15FD
  5
190F
331
11FA
  5
1604
331
1235
  5
18CB
331
11F6
  5
15FD
331
F9F
  5
130D
331
ED8
  5
12DF
331
1231
  5
18C7
331
11F2
  5
15F7
331
F9B
  5
1309
331
1935
  5
1588
331
18FE
  5
E7B
331
1931
  5
158B
331
18FA
  5
E77
331
192D
  5
1597
331
18F6
  5
E73
331
1929
  5
159A
331
18F2
  5
E6F
331
162F
  5
1929
331
162B
  5
1927
331
1627
  5
1925
331
1623
  5
1924
331
130C
  5
12A6
331
1296
  5
E1F
331
1308
  5
12A2
331
1292
  5
E1B
331
12D1
  5
E5A
331
1304
  5
129E
331
128E
  5
E17
331
12CD
  5
E56
331
1300
  5
129A
331
159A
  5
18E6
331
122D
  5
1695
331
11EE
  5
15F0
331
F97
  5
1305
331
128A
  5
E13
331
12C9
  5
E52
331
1229
  5
1663
331
F93
  5
1301
331
ED4
  5
12DE
331
15E9
  5
1903
331
1592
  5
18E1
331
1225
  5
165A
331
F8F
  5
12FD
331
1221
  5
1652
331
F8B
  5
12F9
331
1925
  5
15C4
331
18EE
  5
E6B
331
1921
  5
15CE
331
18EA
  5
E67
331
191D
  5
E9A
331
18E6
  5
E63
331
1919
  5
E96
331
18E2
  5
E5F
331
165A
  5
193E
331
1617
  5
191F
331
1652
  5
193A
331
1613
  5
191D
331
FA2
  5
1313
331
1557
  5
18D7
331
12FC
  5
1296
331
12C5
  5
E4E
331
1286
  5
E0F
331
12F8
  5
128F
331
1282
  5
E0B
331
12C1
  5
E4A
331
1333
  5
12D3
331
12F4
  5
EBC
331
127E
  5
E07
331
12BD
  5
E46
331
12F0
  5
EB8
331
15E1
  5
18FE
331
121D
  5
1649
331
10A6
  5
15EC
331
F87
  5
12F5
331
127A
  5
E03
331
12B9
  5
E42
331
15DD
  5
18FC
331
1219
  5
1641
331
F83
  5
12F1
331
1215
  5
163A
331
109E
  5
15E9
331
F7F
  5
12ED
331
1211
  5
1632
331
109A
  5
1310
331
F7B
  5
12E9
331
18DE
  5
1317
331
1915
  5
E92
331
1911
  5
E8E
331
18D6
  5
132A
331
190D
  5
E8A
331
18D2
  5
1559
331
1909
  5
E86
331
160F
  5
191A
331
1607
  5
1915
331
132F
  5
12CE
331
132B
  5
12C5
331
12EC
  5
EB4
331
12B5
  5
E3E
331
1276
  5
DFF
331
1327
  5
12C1
331
12E8
  5
EB0
331
12B1
  5
E3A
331
1272
  5
DFB
331
1323
  5
12BD
331
12E4
  5
EAC
331
15D5
  5
18F7
331
123E
  5
18D4
331
12AD
  5
E36
331
12E0
  5
EA8
331
123A
  5
18D0
331
120D
  5
1629
331
FC6
  5
15E4
331
F77
  5
12E5
331
12A9
  5
E32
331
15CD
  5
18F2
331
1209
  5
1620
331
FC2
  5
15DD
331
F73
  5
12E1
331
15C9
  5
18F0
331
1205
  5
1616
331
FBE
  5
15D5
331
1201
  5
160F
331
18CA
  5
158F
331
1940
  5
1323
331
193C
  5
1335
331
18C6
  5
15C3
331
1905
  5
E82
331
1938
  5
13C7
331
18C2
  5
15A0
331
1901
  5
E7E
331
163A
  5
192E
331
1632
  5
192A
331
131F
  5
12B9
331
131B
  5
12B5
331
12A5
  5
E2E
331
158E
  5
18DF
331
1317
  5
12B1
331
12A1
  5
E2A
331
1313
  5
12AD
331
12DC
  5
EA4
331
129D
  5
E26
331
12D8
  5
EA0
331
15C1
  5
18EB
331
11FD
  5
1609
331
1299
  5
E22
331
11F9
  5
1602
331
15F8
  5
190C
331
1234
  5
18CA
331
11F5
  5
15FB
331
F9E
  5
130C
331
1230
  5
18C6
331
11F1
  5
15F4
331
F9A
  5
1308
331
1934
  5
1585
331
18FD
  5
E7A
331
1930
  5
1589
331
18F9
  5
E76
331
192C
  5
1595
331
18F5
  5
E72
331
1928
  5
159F
331
18F1
  5
E6E
331
1665
  5
1943
331
130F
  5
12A9
331
FA9
  5
1329
331
130B
  5
12A5
331
12D4
  5
E5D
331
1295
  5
E1E
331
1307
  5
12A1
331
1291
  5
E1A
331
12D0
  5
E59
331
1303
  5
129D
331
15F4
  5
190A
331
159D
  5
18E8
331
128D
  5
E16
331
12CC
  5
E55
331
15F0
  5
1907
331
122C
  5
1681
331
11ED
  5
15EE
331
F96
  5
1304
331
1289
  5
E12
331
12C8
  5
E51
331
15EC
  5
1905
331
1595
  5
18E3
331
1228
  5
165F
331
F92
  5
1300
331
ED3
  5
12DD
331
1224
  5
1657
331
F8E
  5
12FC
331
1220
  5
164F
331
F8A
  5
12F8
331
1924
  5
15CD
331
18ED
  5
E6A
331
1920
  5
E9D
331
18E9
  5
E66
331
191C
  5
E99
331
18E5
  5
E62
331
1918
  5
E95
331
165D
  5
1940
331
1655
  5
193C
331
1616
  5
191E
331
1612
  5
191C
331
FA1
  5
1311
331
12FF
  5
1299
331
126F
  5
DF8
331
1552
  5
18D5
331
12FB
  5
1292
331
12C4
  5
E4D
331
1285
  5
E0E
331
1336
  5
12DA
331
12F7
  5
EBF
331
1281
  5
E0A
331
12C0
  5
E49
331
1332
  5
12D2
331
12F3
  5
EBB
331
15E4
  5
1900
331
127D
  5
E06
331
12BC
  5
E45
331
121C
  5
1647
331
10A5
  5
15EB
331
F86
  5
12F4
331
1279
  5
E02
331
12B8
  5
E41
331
15DC
  5
18FB
331
1218
  5
163F
331
F82
  5
12F0
331
15D8
  5
18F9
331
1214
  5
1637
331
109D
  5
15E7
331
F7E
  5
12EC
331
1210
  5
162F
331
F7A
  5
12E8
331
18DD
  5
1316
331
1914
  5
E91
331
1910
  5
E8D
331
190C
  5
E89
331
18D1
  5
1557
331
1908
  5
E85
331
164D
  5
1938
331
160E
  5
1919
331
1649
  5
1936
331
160A
  5
1917
331
1645
  5
1934
331
1641
  5
1932
331
1602
  5
1912
331
132E
  5
12CD
331
12EF
  5
EB7
331
132A
  5
12C4
331
12EB
  5
EB3
331
12B4
  5
E3D
331
1275
  5
DFE
331
1326
  5
12C0
331
12E7
  5
EAF
331
1271
  5
DFA
331
12B0
  5
E39
331
1322
  5
12BC
331
12E3
  5
EAB
331
15D4
  5
18F6
331
123D
  5
18D3
331
12AC
  5
E35
331
15D0
  5
18F4
331
1239
  5
18CF
331
120C
  5
1627
331
FC5
  5
15E2
331
F76
  5
12E4
331
12A8
  5
E31
331
1208
  5
161D
331
FC1
  5
15DC
331
15C8
  5
18EF
331
1204
  5
1613
331
FBD
  5
15D4
331
1200
  5
160E
331
F2A
  5
12E0
331
1943
  5
131D
331
193F
  5
131F
331
193B
  5
1331
331
18C5
  5
15C1
331
1904
  5
E81
331
1900
  5
E7D
331
163D
  5
1930
331
1635
  5
192C
331
131E
  5
12B8
331
131A
  5
12B4
331
12A4
  5
E2D
331
158D
  5
18DE
331
1316
  5
12B0
331
12A0
  5
E29
331
12DF
  5
EA7
331
1589
  5
18DC
331
1312
  5
12AC
331
12DB
  5
EA3
331
15C4
  5
18ED
331
129C
  5
E25
331
15FF
  5
1910
331
11FC
  5
1607
331
1298
  5
E21
331
15FB
  5
190E
331
1237
  5
18CD
331
11F8
  5
1600
331
15A0
  5
18EA
331
1233
  5
18C9
331
11F4
  5
15FA
331
F9D
  5
130B
331
11F0
  5
15F3
331
F99
  5
1307
331
1937
  5
1336
331
1933
  5
1584
331
18FC
  5
E79
331
192F
  5
158E
331
18F8
  5
E75
331
192B
  5
159D
331
18F4
  5
E71
331
18F0
  5
E6D
331
162D
  5
1928
331
1629
  5
1926
331
1621
  5
1923
331
1585
  5
18DA
331
130E
  5
12A8
331
12D7
  5
E9F
331
FA8
  5
1325
331
130A
  5
12A4
331
12D3
  5
E5C
331
1294
  5
E1D
331
1306
  5
12A0
331
15F7
  5
190B
331
1290
  5
E19
331
12CF
  5
E58
331
1559
  5
18D8
331
1302
  5
129C
331
15F3
  5
1909
331
122F
  5
18C5
331
128C
  5
E15
331
12CB
  5
E54
331
1598
  5
18E5
331
122B
  5
1669
331
F95
  5
1303
331
1288
  5
E11
331
15EB
  5
1904
331
1227
  5
165D
331
F91
  5
12FF
331
ED2
  5
12DC
331
1223
  5
1655
331
10E4
  5
1312
331
F8D
  5
12FB
331
F89
  5
12F7
331
1927
  5
15C8
331
1923
  5
15CB
331
18EC
  5
E69
331
191F
  5
E9C
331
18E8
  5
E65
331
191B
  5
E98
331
18E4
  5
E61
331
161D
  5
1921
331
1619
  5
1920
331
1611
  5
191B
331
FA0
  5
130E
331
12FE
  5
1298
331
126E
  5
DF7
331
12C7
  5
E50
331
12FA
  5
1291
331
12C3
  5
E4C
331
1284
  5
E0D
331
1335
  5
12D9
331
12F6
  5
EBE
331
15E7
  5
1902
331
1280
  5
E09
331
12BF
  5
E48
331
1331
  5
12D0
331
12F2
  5
EBA
331
121F
  5
164D
331
127C
  5
E05
331
12BB
  5
E44
331
15DF
  5
18FD
331
121B
  5
1645
331
F85
  5
12F3
331
1278
  5
E01
331
1217
  5
163D
331
F81
  5
12EF
331
1213
  5
1635
331
109C
  5
15DA
331
F7D
  5
12EB
331
F79
  5
12E7
331
1917
  5
E94
331
18DC
  5
1315
331
1913
  5
E90
331
18D8
  5
132F
331
190F
  5
E8C
331
190B
  5
E88
331
18D0
  5
1554
331
1609
  5
1916
331
1605
  5
1914
331
132D
  5
12CC
331
12EE
  5
EB6
331
12B7
  5
E40
331
1329
  5
12C3
331
12EA
  5
EB2
331
12B3
  5
E3C
331
1325
  5
12BF
331
12E6
  5
EAE
331
15D7
  5
18F8
331
12AF
  5
E38
331
1321
  5
12BB
331
12E2
  5
EAA
331
123C
  5
18D2
331
120F
  5
162D
331
12AB
  5
E34
331
1238
  5
18CE
331
120B
  5
1623
331
FC4
  5
15E1
331
F75
  5
12E3
331
15CB
  5
18F1
331
1207
  5
1619
331
FC0
  5
15D8
331
1203
  5
1612
331
FBC
  5
15D2
331
18CC
  5
1593
331
1942
  5
131C
331
193E
  5
131E
331
1907
  5
E84
331
193A
  5
1330
331
1903
  5
E80
331
131D
  5
12B7
331
12A7
  5
E30
331
1319
  5
12B3
331
12A3
  5
E2C
331
1315
  5
12AF
331
12DE
  5
EA6
331
129F
  5
E28
331
1588
  5
18DB
331
1311
  5
12AB
331
12DA
  5
EA2
331
15C3
  5
18EC
331
11FF
  5
160C
331
129B
  5
E24
331
11FB
  5
1605
331
15FA
  5
190D
331
1236
  5
18CC
331
11F7
  5
15FF
331
1232
  5
18C8
331
11F3
  5
15F8
331
F9C
  5
130A
331
F98
  5
1306
331
1936
  5
1552
331
18FF
  5
E7C
331
1932
  5
158D
331
18FB
  5
E78
331
192E
  5
1598
331
18F7
  5
E74
331
192A
  5
159B
331
18F3
  5
E70
331
1663
  5
1942
331
1620
  5
1922
331
1584
  5
18D9
331
130D
  5
12A7
331
12D6
  5
E9E
331
1297
  5
E20
331
1309
  5
12A3
331
1293
  5
E1C
331
12D2
  5
E5B
331
1305
  5
129F
331
159F
  5
18E9
331
128F
  5
E18
331
12CE
  5
E57
331
1301
  5
129B
331
15F2
  5
1908
331
159B
  5
18E7
331
122E
  5
18C2
331
11EF
  5
15F2
331
128B
  5
E14
331
12CA
  5
E53
331
15EE
  5
1906
331
1597
  5
18E4
331
122A
  5
1665
331
F94
  5
1302
331
1593
  5
18E2
331
1226
  5
165B
331
F90
  5
12FE
331
ED1
  5
12DB
331
10E3
  5
1314
331
F8C
  5
12FA
331
F88
  5
12F6
331
1926
  5
15C6
331
18EF
  5
E6C
331
1922
  5
15C9
331
18EB
  5
E68
331
191E
  5
E9B
331
18E7
  5
E64
331
191A
  5
E97
331
18E3
  5
E60
331
165F
  5
1941
331
165B
  5
193F
331
1657
  5
193D
331
1653
  5
193B
331
1554
  5
18D6
331
12FD
  5
1297
331
12C6
  5
E4F
331
1287
  5
E10
331
12F9
  5
1290
331
12C2
  5
E4B
331
1283
  5
E0C
331
1334
  5
12D8
331
12F5
  5
EBD
331
15E6
  5
1901
331
127F
  5
E08
331
12BE
  5
E47
331
1330
  5
12CF
331
12F1
  5
EB9
331
15E2
  5
18FF
331
121E
  5
164B
331
127B
  5
E04
331
12BA
  5
E43
331
121A
  5
1643
331
F84
  5
12F2
331
15DA
  5
18FA
331
1216
  5
163B
331
F80
  5
12EE
331
1212
  5
1633
331
109B
  5
130F
331
F7C
  5
12EA
331
F78
  5
12E6
331
1916
  5
E93
331
1912
  5
E8F
331
18D7
  5
132B
331
190E
  5
E8B
331
190A
  5
E87
331
164F
  5
1939
331
164B
  5
1937
331
160C
  5
1918
331
1647
  5
1935
331
1643
  5
1933
331
1604
  5
1913
331
1600
  5
1911
331
132C
  5
12CB
331
12ED
  5
EB5
331
1277
  5
E00
331
12B6
  5
E3F
331
1328
  5
12C2
331
12E9
  5
EB1
331
12B2
  5
E3B
331
1273
  5
DFC
331
1324
  5
12BE
331
12E5
  5
EAD
331
123F
  5
1653
331
12AE
  5
E37
331
1320
  5
12BA
331
12E1
  5
EA9
331
15D2
  5
18F5
331
123B
  5
18D1
331
120E
  5
162B
331
FC7
  5
15E6
331
12AA
  5
E33
331
15CE
  5
18F3
331
120A
  5
1621
331
FC3
  5
15DF
331
F74
  5
12E2
331
1206
  5
1617
331
FBF
  5
15D7
331
1202
  5
1611
331
FBB
  5
15D0
  0
XRECORD
  5
1949
102
{ACAD_REACTORS
330
1947
102
}
330
1947
100
AcDbXrecord
280
     1
 70
     2
  0
XRECORD
  5
1948
102
{ACAD_REACTORS
330
1947
102
}
330
1947
100
AcDbXrecord
280
     1
 40
1.25
  0
XRECORD
  5
194A
102
{ACAD_REACTORS
330
1947
102
}
330
1947
100
AcDbXrecord
280
     1
 40
1.570796326794896
  0
LAYOUT
  5
22
102
{ACAD_XDICTIONARY
360
194B
102
}
102
{ACAD_REACTORS
330
1A
102
}
330
1A
100
AcDbPlotSettings
  1

  2
none_device
  4
ANSI_A_(8.50_x_11.00_Inches)
  6

 40
6.349999904632567
 41
19.04999923706055
 42
6.350006103515625
 43
19.04998779296875
 44
215.8999938964844
 45
279.3999938964844
 46
0.0
 47
0.0
 48
0.0
 49
0.0
140
0.0
141
0.0
142
1.0
143
2.584895464708373
 70
 11952
 72
     0
 73
     1
 74
     0
  7

 75
     0
147
0.3868628397755418
148
0.0
149
0.0
100
AcDbLayout
  1
Model
 70
     1
 71
     0
 10
0.0
 20
0.0
 11
12.0
 21
9.0
 12
0.0
 22
0.0
 32
0.0
 14
0.0
 24
0.0
 34
0.0
 15
0.0
 25
0.0
 35
0.0
146
0.0
 13
0.0
 23
0.0
 33
0.0
 16
1.0
 26
0.0
 36
0.0
 17
0.0
 27
1.0
 37
0.0
 76
     0
330
1F
331
94
  0
LAYOUT
  5
59
102
{ACAD_XDICTIONARY
360
194D
102
}
102
{ACAD_REACTORS
330
1A
102
}
330
1A
100
AcDbPlotSettings
  1

  2
None
  4

  6

 40
0.0
 41
0.0
 42
0.0
 43
0.0
 44
0.0
 45
0.0
 46
0.0
 47
0.0
 48
0.0
 49
0.0
140
0.0
141
0.0
142
1.0
143
1.0
 70
   688
 72
     0
 73
     0
 74
     5
  7

 75
    16
147
1.0
148
0.0
149
0.0
100
AcDbLayout
  1
レイアウト1
 70
     1
 71
     1
 10
0.0
 20
0.0
 11
12.0
 21
9.0
 12
0.0
 22
0.0
 32
0.0
 14
0.0
 24
0.0
 34
0.0
 15
0.0
 25
0.0
 35
0.0
146
0.0
 13
0.0
 23
0.0
 33
0.0
 16
1.0
 26
0.0
 36
0.0
 17
0.0
 27
1.0
 37
0.0
 76
     0
330
58
  0
LAYOUT
  5
5E
102
{ACAD_XDICTIONARY
360
194F
102
}
102
{ACAD_REACTORS
330
1A
102
}
330
1A
100
AcDbPlotSettings
  1

  2
None
  4

  6

 40
0.0
 41
0.0
 42
0.0
 43
0.0
 44
0.0
 45
0.0
 46
0.0
 47
0.0
 48
0.0
 49
0.0
140
0.0
141
0.0
142
1.0
143
1.0
 70
   688
 72
     0
 73
     0
 74
     5
  7

 75
    16
147
1.0
148
0.0
149
0.0
100
AcDbLayout
  1
レイアウト2
 70
     1
 71
     2
 10
0.0
 20
0.0
 11
12.0
 21
9.0
 12
0.0
 22
0.0
 32
0.0
 14
0.0
 24
0.0
 34
0.0
 15
0.0
 25
0.0
 35
0.0
146
0.0
 13
0.0
 23
0.0
 33
0.0
 16
1.0
 26
0.0
 36
0.0
 17
0.0
 27
1.0
 37
0.0
 76
     0
330
5D
  0
MATERIAL
  5
97
102
{ACAD_XDICTIONARY
360
1736
102
}
102
{ACAD_REACTORS
330
72
102
}
330
72
100
AcDbMaterial
  1
ByBlock
 73
     1
 78
     1
172
     1
176
     1
270
     1
274
     1
  0
MATERIAL
  5
96
102
{ACAD_XDICTIONARY
360
1734
102
}
102
{ACAD_REACTORS
330
72
102
}
330
72
100
AcDbMaterial
  1
ByLayer
 73
     1
 78
     1
172
     1
176
     1
270
     1
274
     1
  0
MATERIAL
  5
98
102
{ACAD_XDICTIONARY
360
1738
102
}
102
{ACAD_REACTORS
330
72
102
}
330
72
100
AcDbMaterial
  1
Global
 73
     1
 78
     1
172
     1
176
     1
270
     1
274
     1
  0
MLEADERSTYLE
  5
169
102
{ACAD_REACTORS
330
168
102
}
330
168
100
AcDbMLeaderStyle
170
     2
171
     1
172
     0
 90
        2
 40
0.0
 41
0.0
173
     1
 91
-1056964608
340
14
 92
       -2
290
     1
 42
2.0
291
     1
 43
0.36
  3
Standard
 44
4.0
300

342
11
174
     1
178
     6
175
     1
176
     0
 93
-1056964608
 45
4.0
292
     0
297
     0
 46
4.0
 94
-1056964608
 47
1.0
 49
1.0
140
1.0
293
     1
141
0.0
294
     1
177
     0
142
1.0
295
     0
296
     0
143
0.125
1001
ACAD_MLEADERVER
1070
     2
  0
MLINESTYLE
  5
18
102
{ACAD_REACTORS
330
17
102
}
330
17
100
AcDbMlineStyle
  2
STANDARD
 70
     0
  3

 62
   256
 51
90.0
 52
90.0
 71
     2
 49
0.5
 62
   256
  6
BYLAYER
 49
-0.5
 62
   256
  6
BYLAYER
  0
ACDBPLACEHOLDER
  5
F
102
{ACAD_REACTORS
330
E
102
}
330
E
  0
SCALE
  5
157
102
{ACAD_REACTORS
330
156
102
}
330
156
100
AcDbScale
 70
     0
300
1:1
140
1.0
141
1.0
290
     1
  0
SCALE
  5
158
102
{ACAD_REACTORS
330
156
102
}
330
156
100
AcDbScale
 70
     0
300
1:2
140
1.0
141
2.0
290
     0
  0
SCALE
  5
159
102
{ACAD_REACTORS
330
156
102
}
330
156
100
AcDbScale
 70
     0
300
1:4
140
1.0
141
4.0
290
     0
  0
SCALE
  5
15A
102
{ACAD_REACTORS
330
156
102
}
330
156
100
AcDbScale
 70
     0
300
1:5
140
1.0
141
5.0
290
     0
  0
SCALE
  5
15B
102
{ACAD_REACTORS
330
156
102
}
330
156
100
AcDbScale
 70
     0
300
1:8
140
1.0
141
8.0
290
     0
  0
SCALE
  5
15C
102
{ACAD_REACTORS
330
156
102
}
330
156
100
AcDbScale
 70
     0
300
1:10
140
1.0
141
10.0
290
     0
  0
SCALE
  5
15D
102
{ACAD_REACTORS
330
156
102
}
330
156
100
AcDbScale
 70
     0
300
1:16
140
1.0
141
16.0
290
     0
  0
SCALE
  5
15E
102
{ACAD_REACTORS
330
156
102
}
330
156
100
AcDbScale
 70
     0
300
1:20
140
1.0
141
20.0
290
     0
  0
SCALE
  5
15F
102
{ACAD_REACTORS
330
156
102
}
330
156
100
AcDbScale
 70
     0
300
1:30
140
1.0
141
30.0
290
     0
  0
SCALE
  5
160
102
{ACAD_REACTORS
330
156
102
}
330
156
100
AcDbScale
 70
     0
300
1:40
140
1.0
141
40.0
290
     0
  0
SCALE
  5
161
102
{ACAD_REACTORS
330
156
102
}
330
156
100
AcDbScale
 70
     0
300
1:50
140
1.0
141
50.0
290
     0
  0
SCALE
  5
162
102
{ACAD_REACTORS
330
156
102
}
330
156
100
AcDbScale
 70
     0
300
1:100
140
1.0
141
100.0
290
     0
  0
SCALE
  5
163
102
{ACAD_REACTORS
330
156
102
}
330
156
100
AcDbScale
 70
     0
300
2:1
140
2.0
141
1.0
290
     0
  0
SCALE
  5
164
102
{ACAD_REACTORS
330
156
102
}
330
156
100
AcDbScale
 70
     0
300
4:1
140
4.0
141
1.0
290
     0
  0
SCALE
  5
165
102
{ACAD_REACTORS
330
156
102
}
330
156
100
AcDbScale
 70
     0
300
8:1
140
8.0
141
1.0
290
     0
  0
SCALE
  5
166
102
{ACAD_REACTORS
330
156
102
}
330
156
100
AcDbScale
 70
     0
300
10:1
140
10.0
141
1.0
290
     0
  0
SCALE
  5
167
102
{ACAD_REACTORS
330
156
102
}
330
156
100
AcDbScale
 70
     0
300
100:1
140
100.0
141
1.0
290
     0
  0
TABLESTYLE
  5
87
102
{ACAD_XDICTIONARY
360
821
102
}
102
{ACAD_REACTORS
330
86
102
}
330
86
100
AcDbTableStyle
  3
Standard
 70
     0
 71
     0
 40
0.06
 41
0.06
280
     0
281
     0
  7
Standard
140
0.18
170
     2
 62
     0
 63
     7
283
     0
274
    -2
284
     1
 64
     0
275
    -2
285
     1
 65
     0
276
    -2
286
     1
 66
     0
277
    -2
287
     1
 67
     0
278
    -2
288
     1
 68
     0
279
    -2
289
     1
 69
     0
  7
Standard
140
0.25
170
     5
 62
     0
 63
     7
283
     0
274
    -2
284
     1
 64
     0
275
    -2
285
     1
 65
     0
276
    -2
286
     1
 66
     0
277
    -2
287
     1
 67
     0
278
    -2
288
     1
 68
     0
279
    -2
289
     1
 69
     0
  7
Standard
140
0.18
170
     5
 62
     0
 63
     7
283
     0
274
    -2
284
     1
 64
     0
275
    -2
285
     1
 65
     0
276
    -2
286
     1
 66
     0
277
    -2
287
     1
 67
     0
278
    -2
288
     1
 68
     0
279
    -2
289
     1
 69
     0
  0
VISUALSTYLE
  5
9F
102
{ACAD_XDICTIONARY
360
195C
102
}
102
{ACAD_REACTORS
330
99
102
}
330
99
100
AcDbVisualStyle
  2

 70
     4
 71
     0
 72
     2
 73
     1
 90
        0
 40
-0.6
 41
-30.0
 62
     5
 63
     7
 74
     1
 91
        4
 64
     7
 65
   257
 75
     1
175
     1
 42
1.0
 92
        0
 66
   257
 43
1.0
 76
     1
 77
     6
 78
     2
 67
     7
 79
     5
170
     0
171
     0
290
     0
174
     0
 93
        1
 44
0.0
173
     0
291
     0
 45
0.0
1001
ACAD
1000
AcDbSavedByObjectVersion
1070
     0
  0
VISUALSTYLE
  5
A1
102
{ACAD_XDICTIONARY
360
1960
102
}
102
{ACAD_REACTORS
330
99
102
}
330
99
100
AcDbVisualStyle
  2

 70
     6
 71
     1
 72
     2
 73
     2
 90
        0
 40
-0.6
 41
-30.0
 62
     5
 63
     7
 74
     2
 91
        2
 64
     7
 65
   257
 75
     2
175
     1
 42
40.0
 92
        0
 66
   257
 43
1.0
 76
     1
 77
     6
 78
     2
 67
     7
 79
     3
170
     0
171
     0
290
     0
174
     0
 93
        1
 44
0.0
173
     0
291
     0
 45
0.0
1001
ACAD
1000
AcDbSavedByObjectVersion
1070
     0
  0
VISUALSTYLE
  5
A0
102
{ACAD_XDICTIONARY
360
195E
102
}
102
{ACAD_REACTORS
330
99
102
}
330
99
100
AcDbVisualStyle
  2

 70
     5
 71
     0
 72
     2
 73
     1
 90
        0
 40
-0.6
 41
-30.0
 62
     5
 63
     7
 74
     1
 91
        4
 64
     7
 65
   257
 75
     1
175
     1
 42
1.0
 92
        0
 66
   257
 43
1.0
 76
     1
 77
     6
 78
     2
 67
     7
 79
     5
170
     0
171
     0
290
     0
174
     0
 93
        1
 44
0.0
173
     0
291
     0
 45
0.0
1001
ACAD
1000
AcDbSavedByObjectVersion
1070
     0
  0
VISUALSTYLE
  5
9E
102
{ACAD_XDICTIONARY
360
195A
102
}
102
{ACAD_REACTORS
330
99
102
}
330
99
100
AcDbVisualStyle
  2

 70
     7
 71
     1
 72
     0
 73
     1
 90
        0
 40
-0.6
 41
-30.0
 62
     5
 63
     7
 74
     0
 91
        4
 64
     7
 65
   257
 75
     1
175
     1
 42
1.0
 92
        8
 66
     7
 43
1.0
 76
     1
 77
     6
 78
     2
 67
     7
 79
     5
170
     0
171
     0
290
     0
174
     0
 93
        1
 44
0.0
173
     0
291
     1
 45
0.0
1001
ACAD
1000
AcDbSavedByObjectVersion
1070
     0
  0
VISUALSTYLE
  5
A5
102
{ACAD_XDICTIONARY
360
1968
102
}
102
{ACAD_REACTORS
330
99
102
}
330
99
100
AcDbVisualStyle
  2

 70
    12
 71
     2
 72
     2
 73
     1
 90
        0
 40
-0.6
 41
-30.0
 62
     5
 63
     7
 74
     1
 91
        4
 64
     7
 65
   257
 75
     1
175
     1
 42
1.0
 92
        8
 66
     7
 43
1.0
 76
     1
 77
     6
 78
     2
 67
     7
 79
     5
170
     0
171
     0
290
     0
174
     0
 93
        1
 44
50.0
173
     0
291
     1
 45
0.0
1001
ACAD
1000
AcDbSavedByObjectVersion
1070
     0
  0
VISUALSTYLE
  5
A9
102
{ACAD_XDICTIONARY
360
1970
102
}
102
{ACAD_REACTORS
330
99
102
}
330
99
100
AcDbVisualStyle
  2

 70
    16
 71
     2
 72
     2
 73
     3
 90
        0
 40
-0.6
 41
-30.0
 62
     5
 63
     8
 74
     1
 91
        4
 64
     7
 65
   257
 75
     1
175
     1
 42
1.0
 92
        8
 66
     8
 43
1.0
 76
     1
 77
     6
 78
     2
 67
     7
 79
     5
170
     0
171
     0
290
     0
174
     0
 93
        1
 44
0.0
173
     0
291
     1
 45
0.0
1001
ACAD
1000
AcDbSavedByObjectVersion
1070
     0
  0
VISUALSTYLE
  5
A2
102
{ACAD_XDICTIONARY
360
1962
102
}
102
{ACAD_REACTORS
330
99
102
}
330
99
100
AcDbVisualStyle
  2

 70
     9
 71
     3
 72
     2
 73
     1
 90
        0
 40
-0.6
 41
-30.0
 62
     5
 63
     7
 74
     2
 91
        2
 64
     7
 65
   257
 75
     1
175
     1
 42
40.0
 92
        8
 66
     7
 43
1.0
 76
     1
 77
     6
 78
     2
 67
     7
 79
     3
170
     0
171
     0
290
     0
174
     0
 93
        1
 44
0.0
173
     0
291
     0
 45
0.0
1001
ACAD
1000
AcDbSavedByObjectVersion
1070
     0
  0
VISUALSTYLE
  5
A4
102
{ACAD_XDICTIONARY
360
1966
102
}
102
{ACAD_REACTORS
330
99
102
}
330
99
100
AcDbVisualStyle
  2

 70
    11
 71
     2
 72
     2
 73
     1
 90
        0
 40
-0.6
 41
-30.0
 62
     5
 63
     7
 74
     1
 91
        4
 64
     7
 65
   257
 75
     1
175
     1
 42
1.0
 92
        8
 66
     7
 43
1.0
 76
     1
 77
     6
 78
     2
 67
     7
 79
     5
170
     0
171
     0
290
     0
174
     0
 93
        1
 44
-50.0
173
     0
291
     1
 45
0.0
1001
ACAD
1000
AcDbSavedByObjectVersion
1070
     0
  0
VISUALSTYLE
  5
155
102
{ACAD_XDICTIONARY
360
1984
102
}
102
{ACAD_REACTORS
330
99
102
}
330
99
100
AcDbVisualStyle
  2

 70
    22
 71
     2
 72
     2
 73
     0
 90
        0
 40
-0.6
 41
-30.0
 62
     5
 63
     7
 74
     1
 91
        4
 64
     7
 65
   257
 75
     1
175
     1
 42
1.0
 92
        8
 66
     7
 43
1.0
 76
     1
 77
     6
 78
     2
 67
     7
 79
     5
170
     0
171
     0
290
     0
174
     0
 93
        1
 44
0.0
173
     0
291
     1
 45
0.0
1001
ACAD
1000
AcDbSavedByObjectVersion
1070
     0
  0
VISUALSTYLE
  5
A8
102
{ACAD_XDICTIONARY
360
196E
102
}
102
{ACAD_REACTORS
330
99
102
}
330
99
100
AcDbVisualStyle
  2

 70
    15
 71
     2
 72
     2
 73
     1
 90
        0
 40
-0.6
 41
-30.0
 62
     5
 63
     7
 74
     1
 91
        4
 64
     7
 65
   257
 75
     1
175
     1
 42
1.0
 92
        8
 66
     7
 43
1.0
 76
     1
 77
     6
 78
     2
 67
     7
 79
     5
170
     0
171
     0
290
     0
174
     0
 93
        1
 44
0.0
173
     0
291
     1
 45
0.0
1001
ACAD
1000
AcDbSavedByObjectVersion
1070
     0
  0
VISUALSTYLE
  5
9A
102
{ACAD_XDICTIONARY
360
1952
102
}
102
{ACAD_REACTORS
330
99
102
}
330
99
100
AcDbVisualStyle
  2

 70
     0
 71
     2
 72
     1
 73
     1
 90
        2
 40
-0.6
 41
30.0
 62
     5
 63
     7
 74
     0
 91
        4
 64
     7
 65
   257
 75
     1
175
     1
 42
1.0
 92
        8
 66
     7
 43
1.0
 76
     1
 77
     6
 78
     2
 67
     7
 79
     5
170
     0
171
     0
290
     0
174
     0
 93
        1
 44
0.0
173
     0
291
     1
 45
0.0
1001
ACAD
1000
AcDbSavedByObjectVersion
1070
     0
  0
VISUALSTYLE
  5
9B
102
{ACAD_XDICTIONARY
360
1954
102
}
102
{ACAD_REACTORS
330
99
102
}
330
99
100
AcDbVisualStyle
  2

 70
     1
 71
     2
 72
     1
 73
     1
 90
        2
 40
-0.6
 41
30.0
 62
     5
 63
     7
 74
     1
 91
        4
 64
     7
 65
   257
 75
     1
175
     1
 42
1.0
 92
        0
 66
   257
 43
1.0
 76
     1
 77
     6
 78
     2
 67
     7
 79
     5
170
     0
171
     0
290
     0
174
     0
 93
        1
 44
0.0
173
     0
291
     1
 45
0.0
1001
ACAD
1000
AcDbSavedByObjectVersion
1070
     0
  0
VISUALSTYLE
  5
9C
102
{ACAD_XDICTIONARY
360
1956
102
}
102
{ACAD_REACTORS
330
99
102
}
330
99
100
AcDbVisualStyle
  2

 70
     2
 71
     2
 72
     2
 73
     1
 90
        2
 40
-0.6
 41
30.0
 62
     5
 63
     7
 74
     0
 91
        4
 64
     7
 65
   257
 75
     1
175
     1
 42
1.0
 92
        0
 66
     7
 43
1.0
 76
     1
 77
     6
 78
     2
 67
     7
 79
     5
170
     0
171
     0
290
     0
174
     0
 93
        1
 44
0.0
173
     0
291
     1
 45
0.0
1001
ACAD
1000
AcDbSavedByObjectVersion
1070
     0
  0
VISUALSTYLE
  5
9D
102
{ACAD_XDICTIONARY
360
1958
102
}
102
{ACAD_REACTORS
330
99
102
}
330
99
100
AcDbVisualStyle
  2

 70
     3
 71
     2
 72
     2
 73
     1
 90
        2
 40
-0.6
 41
30.0
 62
     5
 63
     7
 74
     1
 91
        4
 64
     7
 65
   257
 75
     1
175
     1
 42
1.0
 92
        0
 66
   257
 43
1.0
 76
     1
 77
     6
 78
     2
 67
     7
 79
     5
170
     0
171
     0
290
     0
174
     0
 93
        1
 44
0.0
173
     0
291
     1
 45
0.0
1001
ACAD
1000
AcDbSavedByObjectVersion
1070
     0
  0
VISUALSTYLE
  5
14D
102
{ACAD_XDICTIONARY
360
1974
102
}
102
{ACAD_REACTORS
330
99
102
}
330
99
100
AcDbVisualStyle
  2

 70
     6
 71
     1
 72
     2
 73
     2
 90
        0
 40
-0.6
 41
-30.0
 62
     5
 63
     7
 74
     2
 91
        2
 64
     7
 65
   257
 75
     2
175
     1
 42
40.0
 92
        0
 66
   257
 43
1.0
 76
     1
 77
     6
 78
     2
 67
     7
 79
     3
170
     0
171
     0
290
     0
174
     0
 93
        1
 44
0.0
173
     0
291
     0
 45
0.0
1001
ACAD
1000
AcDbSavedByObjectVersion
1070
     0
  0
VISUALSTYLE
  5
153
102
{ACAD_XDICTIONARY
360
1980
102
}
102
{ACAD_REACTORS
330
99
102
}
330
99
100
AcDbVisualStyle
  2

 70
    20
 71
     2
 72
     2
 73
     0
 90
        0
 40
-0.6
 41
-30.0
 62
     5
 63
     7
 74
     1
 91
        4
 64
     7
 65
   257
 75
     1
175
     1
 42
1.0
 92
       10
 66
     7
 43
1.0
 76
     1
 77
     6
 78
     2
 67
     7
 79
     5
170
     0
171
     0
290
     0
174
     0
 93
        1
 44
0.0
173
     0
291
     1
 45
0.0
1001
ACAD
1000
AcDbSavedByObjectVersion
1070
     0
  0
VISUALSTYLE
  5
A7
102
{ACAD_XDICTIONARY
360
196C
102
}
102
{ACAD_REACTORS
330
99
102
}
330
99
100
AcDbVisualStyle
  2

 70
    14
 71
     2
 72
     2
 73
     1
 90
        0
 40
-0.6
 41
-30.0
 62
     5
 63
     7
 74
     1
 91
        4
 64
     7
 65
   257
 75
     7
175
     7
 42
1.0
 92
        8
 66
     7
 43
1.0
 76
     1
 77
     6
 78
     2
 67
     7
 79
     5
170
     0
171
     0
290
     0
174
     0
 93
        1
 44
0.0
173
     0
291
     1
 45
0.0
1001
ACAD
1000
AcDbSavedByObjectVersion
1070
     0
  0
VISUALSTYLE
  5
154
102
{ACAD_XDICTIONARY
360
1982
102
}
102
{ACAD_REACTORS
330
99
102
}
330
99
100
AcDbVisualStyle
  2

 70
    21
 71
     2
 72
     2
 73
     0
 90
        0
 40
-0.6
 41
-30.0
 62
     5
 63
     7
 74
     1
 91
        4
 64
     7
 65
   257
 75
     1
175
     1
 42
1.0
 92
        9
 66
     7
 43
1.0
 76
     1
 77
     6
 78
     2
 67
     7
 79
     5
170
     0
171
     0
290
     0
174
     0
 93
        1
 44
0.0
173
     0
291
     1
 45
0.0
1001
ACAD
1000
AcDbSavedByObjectVersion
1070
     0
  0
VISUALSTYLE
  5
A3
102
{ACAD_XDICTIONARY
360
1964
102
}
102
{ACAD_REACTORS
330
99
102
}
330
99
100
AcDbVisualStyle
  2

 70
     8
 71
     2
 72
     2
 73
     1
 90
        0
 40
-0.6
 41
-30.0
 62
     5
 63
     7
 74
     1
 91
        0
 64
     7
 65
   257
 75
     1
175
     1
 42
1.0
 92
        8
 66
     8
 43
1.0
 76
     1
 77
     6
 78
     2
 67
     7
 79
     5
170
     0
171
     0
290
     0
174
     0
 93
       13
 44
0.0
173
     0
291
     0
 45
0.0
1001
ACAD
1000
AcDbSavedByObjectVersion
1070
     0
  0
VISUALSTYLE
  5
152
102
{ACAD_XDICTIONARY
360
197E
102
}
102
{ACAD_REACTORS
330
99
102
}
330
99
100
AcDbVisualStyle
  2

 70
    27
 71
     2
 72
     2
 73
     1
 90
        2
 40
-0.6
 41
30.0
 62
     5
 63
     7
 74
     0
 91
        4
 64
     7
 65
   257
 75
     1
175
     1
 42
1.0
 92
        8
 66
   257
 43
1.0
 76
     1
 77
     6
 78
     2
 67
     8
 79
     3
170
     0
171
     0
290
     0
174
     0
 93
        5
 44
0.0
173
     0
291
     0
 45
0.0
1001
ACAD
1000
AcDbSavedByObjectVersion
1070
     0
  0
VISUALSTYLE
  5
151
102
{ACAD_XDICTIONARY
360
197C
102
}
102
{ACAD_REACTORS
330
99
102
}
330
99
100
AcDbVisualStyle
  2

 70
    26
 71
     2
 72
     2
 73
     1
 90
        2
 40
-0.6
 41
30.0
 62
     5
 63
     7
 74
     1
 91
       10
 64
     7
 65
   257
 75
     2
175
     1
 42
1.0
 92
        8
 66
   257
 43
1.0
 76
     1
 77
     6
 78
     2
 67
     7
 79
     3
170
     0
171
     0
290
     0
174
     0
 93
        5
 44
0.0
173
     0
291
     0
 45
0.0
1001
ACAD
1000
AcDbSavedByObjectVersion
1070
     0
  0
VISUALSTYLE
  5
14E
102
{ACAD_XDICTIONARY
360
1976
102
}
102
{ACAD_REACTORS
330
99
102
}
330
99
100
AcDbVisualStyle
  2

 70
    23
 71
     2
 72
     2
 73
     3
 90
        0
 40
-0.6
 41
-30.0
 62
     5
 63
     7
 74
     2
 91
        2
 64
     7
 65
     7
 75
     1
175
     1
 42
40.0
 92
        8
 66
     7
 43
1.0
 76
     1
 77
     6
 78
     2
 67
     7
 79
     3
170
     0
171
     0
290
     0
174
     0
 93
        1
 44
0.0
173
     0
291
     0
 45
0.0
1001
ACAD
1000
AcDbSavedByObjectVersion
1070
     0
  0
VISUALSTYLE
  5
14F
102
{ACAD_XDICTIONARY
360
1978
102
}
102
{ACAD_REACTORS
330
99
102
}
330
99
100
AcDbVisualStyle
  2

 70
    24
 71
     1
 72
     2
 73
     2
 90
        0
 40
-0.6
 41
-30.0
 62
     5
 63
     7
 74
     2
 91
        2
 64
     7
 65
     7
 75
     1
175
     1
 42
40.0
 92
       11
 66
     7
 43
1.0
 76
     1
 77
     6
 78
     2
 67
     7
 79
     6
170
     0
171
     0
290
     0
174
     0
 93
        1
 44
0.0
173
     0
291
     0
 45
0.0
1001
ACAD
1000
AcDbSavedByObjectVersion
1070
     0
  0
VISUALSTYLE
  5
A6
102
{ACAD_XDICTIONARY
360
196A
102
}
102
{ACAD_REACTORS
330
99
102
}
330
99
100
AcDbVisualStyle
  2

 70
    13
 71
     2
 72
     2
 73
     1
 90
        0
 40
-0.6
 41
-30.0
 62
     5
 63
     7
 74
     1
 91
        4
 64
     7
 65
   257
 75
     1
175
     1
 42
1.0
 92
       12
 66
     7
 43
1.0
 76
     1
 77
     6
 78
     2
 67
     7
 79
     5
170
     0
171
     0
290
     0
174
     0
 93
        1
 44
0.0
173
     0
291
     1
 45
0.0
1001
ACAD
1000
AcDbSavedByObjectVersion
1070
     0
  0
VISUALSTYLE
  5
14C
102
{ACAD_XDICTIONARY
360
1972
102
}
102
{ACAD_REACTORS
330
99
102
}
330
99
100
AcDbVisualStyle
  2

 70
     5
 71
     0
 72
     2
 73
     0
 90
        0
 40
-0.6
 41
-30.0
 62
     5
 63
     7
 74
     1
 91
        4
 64
     7
 65
   257
 75
     1
175
     1
 42
1.0
 92
        0
 66
   257
 43
1.0
 76
     1
 77
     6
 78
     2
 67
     7
 79
     3
170
     0
171
     0
290
     0
174
     0
 93
        1
 44
0.0
173
     0
291
     0
 45
0.0
1001
ACAD
1000
AcDbSavedByObjectVersion
1070
     0
  0
VISUALSTYLE
  5
150
102
{ACAD_XDICTIONARY
360
197A
102
}
102
{ACAD_REACTORS
330
99
102
}
330
99
100
AcDbVisualStyle
  2

 70
    25
 71
     2
 72
     2
 73
     1
 90
        1
 40
0.5
 41
-30.0
 62
     5
 63
     7
 74
     1
 91
        0
 64
     7
 65
   257
 75
     1
175
     1
 42
1.0
 92
        8
 66
     7
 43
1.0
 76
     1
 77
     6
 78
     2
 67
     7
 79
     3
170
     0
171
     0
290
     0
174
     0
 93
       13
 44
0.0
173
     0
291
     0
 45
0.0
1001
ACAD
1000
AcDbSavedByObjectVersion
1070
     0
  0
DICTIONARYVAR
  5
245
102
{ACAD_REACTORS
330
66
102
}
330
66
100
DictionaryVariables
280
     0
  1
1:1
  0
DICTIONARYVAR
  5
243
102
{ACAD_REACTORS
330
66
102
}
330
66
100
DictionaryVariables
280
     0
  1
STANDARD
  0
DICTIONARYVAR
  5
89
102
{ACAD_REACTORS
330
66
102
}
330
66
100
DictionaryVariables
280
     0
  1
STANDARD
  0
DICTIONARYVAR
  5
67
102
{ACAD_REACTORS
330
66
102
}
330
66
100
DictionaryVariables
280
     0
  1
2
  0
DICTIONARYVAR
  5
6B
102
{ACAD_REACTORS
330
66
102
}
330
66
100
DictionaryVariables
280
     0
  1
1
  0
DICTIONARYVAR
  5
870
102
{ACAD_REACTORS
330
66
102
}
330
66
100
DictionaryVariables
280
     0
  1
0
  0
DICTIONARYVAR
  5
247
102
{ACAD_REACTORS
330
66
102
}
330
66
100
DictionaryVariables
280
     0
  1
1
  0
DICTIONARYVAR
  5
248
102
{ACAD_REACTORS
330
66
102
}
330
66
100
DictionaryVariables
280
     0
  1
15
  0
DICTIONARYVAR
  5
246
102
{ACAD_REACTORS
330
66
102
}
330
66
100
DictionaryVariables
280
     0
  1
0
  0
DICTIONARYVAR
  5
244
102
{ACAD_REACTORS
330
66
102
}
330
66
100
DictionaryVariables
280
     0
  1
0
  0
DICTIONARYVAR
  5
86F
102
{ACAD_REACTORS
330
66
102
}
330
66
100
DictionaryVariables
280
     0
  1
127
  0
DICTIONARYVAR
  5
17CE
102
{ACAD_REACTORS
330
66
102
}
330
66
100
DictionaryVariables
280
     0
  1
2
  0
DICTIONARY
  5
194B
330
22
100
AcDbDictionary
280
     1
281
     1
  3
ACAD_XREC_ROUNDTRIP
360
194C
  0
DICTIONARY
  5
194D
330
59
100
AcDbDictionary
280
     1
281
     1
  3
ACAD_XREC_ROUNDTRIP
360
194E
  0
DICTIONARY
  5
194F
330
5E
100
AcDbDictionary
280
     1
281
     1
  3
ACAD_XREC_ROUNDTRIP
360
1950
  0
DICTIONARY
  5
1736
330
97
100
AcDbDictionary
280
     1
281
     1
  3
ACAD_XREC_ROUNDTRIP
360
1737
  0
DICTIONARY
  5
1734
330
96
100
AcDbDictionary
280
     1
281
     1
  3
ACAD_XREC_ROUNDTRIP
360
1735
  0
DICTIONARY
  5
1738
330
98
100
AcDbDictionary
280
     1
281
     1
  3
ACAD_XREC_ROUNDTRIP
360
1739
  0
DICTIONARY
  5
821
330
87
100
AcDbDictionary
280
     1
281
     1
  3
ACAD_ROUNDTRIP_2008_TABLESTYLE_CELLSTYLEMAP
360
1944
  3
ACAD_XREC_ROUNDTRIP
360
1951
  0
DICTIONARY
  5
195C
330
9F
100
AcDbDictionary
280
     1
281
     1
  3
ACAD_XREC_ROUNDTRIP
360
195D
  0
DICTIONARY
  5
1960
330
A1
100
AcDbDictionary
280
     1
281
     1
  3
ACAD_XREC_ROUNDTRIP
360
1961
  0
DICTIONARY
  5
195E
330
A0
100
AcDbDictionary
280
     1
281
     1
  3
ACAD_XREC_ROUNDTRIP
360
195F
  0
DICTIONARY
  5
195A
330
9E
100
AcDbDictionary
280
     1
281
     1
  3
ACAD_XREC_ROUNDTRIP
360
195B
  0
DICTIONARY
  5
1968
330
A5
100
AcDbDictionary
280
     1
281
     1
  3
ACAD_XREC_ROUNDTRIP
360
1969
  0
DICTIONARY
  5
1970
330
A9
100
AcDbDictionary
280
     1
281
     1
  3
ACAD_XREC_ROUNDTRIP
360
1971
  0
DICTIONARY
  5
1962
330
A2
100
AcDbDictionary
280
     1
281
     1
  3
ACAD_XREC_ROUNDTRIP
360
1963
  0
DICTIONARY
  5
1966
330
A4
100
AcDbDictionary
280
     1
281
     1
  3
ACAD_XREC_ROUNDTRIP
360
1967
  0
DICTIONARY
  5
1984
330
155
100
AcDbDictionary
280
     1
281
     1
  3
ACAD_XREC_ROUNDTRIP
360
1985
  0
DICTIONARY
  5
196E
330
A8
100
AcDbDictionary
280
     1
281
     1
  3
ACAD_XREC_ROUNDTRIP
360
196F
  0
DICTIONARY
  5
1952
330
9A
100
AcDbDictionary
280
     1
281
     1
  3
ACAD_XREC_ROUNDTRIP
360
1953
  0
DICTIONARY
  5
1954
330
9B
100
AcDbDictionary
280
     1
281
     1
  3
ACAD_XREC_ROUNDTRIP
360
1955
  0
DICTIONARY
  5
1956
330
9C
100
AcDbDictionary
280
     1
281
     1
  3
ACAD_XREC_ROUNDTRIP
360
1957
  0
DICTIONARY
  5
1958
330
9D
100
AcDbDictionary
280
     1
281
     1
  3
ACAD_XREC_ROUNDTRIP
360
1959
  0
DICTIONARY
  5
1974
330
14D
100
AcDbDictionary
280
     1
281
     1
  3
ACAD_XREC_ROUNDTRIP
360
1975
  0
DICTIONARY
  5
1980
330
153
100
AcDbDictionary
280
     1
281
     1
  3
ACAD_XREC_ROUNDTRIP
360
1981
  0
DICTIONARY
  5
196C
330
A7
100
AcDbDictionary
280
     1
281
     1
  3
ACAD_XREC_ROUNDTRIP
360
196D
  0
DICTIONARY
  5
1982
330
154
100
AcDbDictionary
280
     1
281
     1
  3
ACAD_XREC_ROUNDTRIP
360
1983
  0
DICTIONARY
  5
1964
330
A3
100
AcDbDictionary
280
     1
281
     1
  3
ACAD_XREC_ROUNDTRIP
360
1965
  0
DICTIONARY
  5
197E
330
152
100
AcDbDictionary
280
     1
281
     1
  3
ACAD_XREC_ROUNDTRIP
360
197F
  0
DICTIONARY
  5
197C
330
151
100
AcDbDictionary
280
     1
281
     1
  3
ACAD_XREC_ROUNDTRIP
360
197D
  0
DICTIONARY
  5
1976
330
14E
100
AcDbDictionary
280
     1
281
     1
  3
ACAD_XREC_ROUNDTRIP
360
1977
  0
DICTIONARY
  5
1978
330
14F
100
AcDbDictionary
280
     1
281
     1
  3
ACAD_XREC_ROUNDTRIP
360
1979
  0
DICTIONARY
  5
196A
330
A6
100
AcDbDictionary
280
     1
281
     1
  3
ACAD_XREC_ROUNDTRIP
360
196B
  0
DICTIONARY
  5
1972
330
14C
100
AcDbDictionary
280
     1
281
     1
  3
ACAD_XREC_ROUNDTRIP
360
1973
  0
DICTIONARY
  5
197A
330
150
100
AcDbDictionary
280
     1
281
     1
  3
ACAD_XREC_ROUNDTRIP
360
197B
  0
XRECORD
  5
194C
102
{ACAD_REACTORS
330
194B
102
}
330
194B
100
AcDbXrecord
280
     1
102
SHADEPLOT
 70
     0
102
SHADEPLOTRESLEVEL
 70
     2
102
SHADEPLOTCUSTOMDPI
 70
   300
  0
XRECORD
  5
194E
102
{ACAD_REACTORS
330
194D
102
}
330
194D
100
AcDbXrecord
280
     1
102
SHADEPLOT
 70
     0
102
SHADEPLOTRESLEVEL
 70
     2
102
SHADEPLOTCUSTOMDPI
 70
   300
  0
XRECORD
  5
1950
102
{ACAD_REACTORS
330
194F
102
}
330
194F
100
AcDbXrecord
280
     1
102
SHADEPLOT
 70
     0
102
SHADEPLOTRESLEVEL
 70
     2
102
SHADEPLOTCUSTOMDPI
 70
   300
  0
XRECORD
  5
1737
102
{ACAD_REACTORS
330
1736
102
}
330
1736
100
AcDbXrecord
280
     1
102
MATERIAL
148
0.0
149
0.0
149
0.0
 93
        0
 94
      127
282
     0
 72
     1
 77
     1
171
     1
175
     1
179
     1
273
     0
  0
XRECORD
  5
1735
102
{ACAD_REACTORS
330
1734
102
}
330
1734
100
AcDbXrecord
280
     1
102
MATERIAL
148
0.0
149
0.0
149
0.0
 93
        0
 94
      127
282
     0
 72
     1
 77
     1
171
     1
175
     1
179
     1
273
     0
  0
XRECORD
  5
1739
102
{ACAD_REACTORS
330
1738
102
}
330
1738
100
AcDbXrecord
280
     1
102
MATERIAL
148
0.0
149
0.0
149
0.0
 93
        0
 94
      127
282
     0
 72
     1
 77
     1
171
     1
175
     1
179
     1
273
     0
  0
CELLSTYLEMAP
  5
1944
102
{ACAD_REACTORS
330
821
102
}
330
821
100
AcDbCellStyleMap
 90
        3
300
CELLSTYLE
  1
TABLEFORMAT_BEGIN
 90
        5
170
     1
 91
        0
 92
    32768
 62
   257
 93
        1
300
CONTENTFORMAT
  1
CONTENTFORMAT_BEGIN
 90
        0
 91
        0
 92
      512
 93
        0
300

 40
0.0
140
1.0
 94
        5
 62
     0
340
11
144
0.25
309
CONTENTFORMAT_END
171
     1
301
MARGIN
  1
CELLMARGIN_BEGIN
 40
0.06
 40
0.06
 40
0.06
 40
0.06
 40
0.18
 40
0.18
309
CELLMARGIN_END
 94
        6
 95
        1
302
GRIDFORMAT
  1
GRIDFORMAT_BEGIN
 90
        0
 91
        1
 62
     0
 92
       -2
340
0
 93
        0
 40
0.045
309
GRIDFORMAT_END
 95
        2
302
GRIDFORMAT
  1
GRIDFORMAT_BEGIN
 90
        0
 91
        1
 62
     0
 92
       -2
340
0
 93
        0
 40
0.045
309
GRIDFORMAT_END
 95
        4
302
GRIDFORMAT
  1
GRIDFORMAT_BEGIN
 90
        0
 91
        1
 62
     0
 92
       -2
340
0
 93
        0
 40
0.045
309
GRIDFORMAT_END
 95
        8
302
GRIDFORMAT
  1
GRIDFORMAT_BEGIN
 90
        0
 91
        1
 62
     0
 92
       -2
340
0
 93
        0
 40
0.045
309
GRIDFORMAT_END
 95
       16
302
GRIDFORMAT
  1
GRIDFORMAT_BEGIN
 90
        0
 91
        1
 62
     0
 92
       -2
340
0
 93
        0
 40
0.045
309
GRIDFORMAT_END
 95
       32
302
GRIDFORMAT
  1
GRIDFORMAT_BEGIN
 90
        0
 91
        1
 62
     0
 92
       -2
340
0
 93
        0
 40
0.045
309
GRIDFORMAT_END
309
TABLEFORMAT_END
  1
CELLSTYLE_BEGIN
 90
        1
 91
        1
300
_TITLE
309
CELLSTYLE_END
300
CELLSTYLE
  1
TABLEFORMAT_BEGIN
 90
        5
170
     1
 91
        0
 92
        0
 62
   257
 93
        1
300
CONTENTFORMAT
  1
CONTENTFORMAT_BEGIN
 90
        0
 91
        0
 92
      512
 93
        0
300

 40
0.0
140
1.0
 94
        5
 62
     0
340
11
144
0.18
309
CONTENTFORMAT_END
171
     1
301
MARGIN
  1
CELLMARGIN_BEGIN
 40
0.06
 40
0.06
 40
0.06
 40
0.06
 40
0.18
 40
0.18
309
CELLMARGIN_END
 94
        6
 95
        1
302
GRIDFORMAT
  1
GRIDFORMAT_BEGIN
 90
        0
 91
        1
 62
     0
 92
       -2
340
0
 93
        0
 40
0.045
309
GRIDFORMAT_END
 95
        2
302
GRIDFORMAT
  1
GRIDFORMAT_BEGIN
 90
        0
 91
        1
 62
     0
 92
       -2
340
0
 93
        0
 40
0.045
309
GRIDFORMAT_END
 95
        4
302
GRIDFORMAT
  1
GRIDFORMAT_BEGIN
 90
        0
 91
        1
 62
     0
 92
       -2
340
0
 93
        0
 40
0.045
309
GRIDFORMAT_END
 95
        8
302
GRIDFORMAT
  1
GRIDFORMAT_BEGIN
 90
        0
 91
        1
 62
     0
 92
       -2
340
0
 93
        0
 40
0.045
309
GRIDFORMAT_END
 95
       16
302
GRIDFORMAT
  1
GRIDFORMAT_BEGIN
 90
        0
 91
        1
 62
     0
 92
       -2
340
0
 93
        0
 40
0.045
309
GRIDFORMAT_END
 95
       32
302
GRIDFORMAT
  1
GRIDFORMAT_BEGIN
 90
        0
 91
        1
 62
     0
 92
       -2
340
0
 93
        0
 40
0.045
309
GRIDFORMAT_END
309
TABLEFORMAT_END
  1
CELLSTYLE_BEGIN
 90
        2
 91
        1
300
_HEADER
309
CELLSTYLE_END
300
CELLSTYLE
  1
TABLEFORMAT_BEGIN
 90
        5
170
     1
 91
        0
 92
        0
 62
   257
 93
        1
300
CONTENTFORMAT
  1
CONTENTFORMAT_BEGIN
 90
        0
 91
        0
 92
      512
 93
        0
300

 40
0.0
140
1.0
 94
        2
 62
     0
340
11
144
0.18
309
CONTENTFORMAT_END
171
     1
301
MARGIN
  1
CELLMARGIN_BEGIN
 40
0.06
 40
0.06
 40
0.06
 40
0.06
 40
0.18
 40
0.18
309
CELLMARGIN_END
 94
        6
 95
        1
302
GRIDFORMAT
  1
GRIDFORMAT_BEGIN
 90
        0
 91
        1
 62
     0
 92
       -2
340
0
 93
        0
 40
0.045
309
GRIDFORMAT_END
 95
        2
302
GRIDFORMAT
  1
GRIDFORMAT_BEGIN
 90
        0
 91
        1
 62
     0
 92
       -2
340
0
 93
        0
 40
0.045
309
GRIDFORMAT_END
 95
        4
302
GRIDFORMAT
  1
GRIDFORMAT_BEGIN
 90
        0
 91
        1
 62
     0
 92
       -2
340
0
 93
        0
 40
0.045
309
GRIDFORMAT_END
 95
        8
302
GRIDFORMAT
  1
GRIDFORMAT_BEGIN
 90
        0
 91
        1
 62
     0
 92
       -2
340
0
 93
        0
 40
0.045
309
GRIDFORMAT_END
 95
       16
302
GRIDFORMAT
  1
GRIDFORMAT_BEGIN
 90
        0
 91
        1
 62
     0
 92
       -2
340
0
 93
        0
 40
0.045
309
GRIDFORMAT_END
 95
       32
302
GRIDFORMAT
  1
GRIDFORMAT_BEGIN
 90
        0
 91
        1
 62
     0
 92
       -2
340
0
 93
        0
 40
0.045
309
GRIDFORMAT_END
309
TABLEFORMAT_END
  1
CELLSTYLE_BEGIN
 90
        3
 91
        2
300
_DATA
309
CELLSTYLE_END
  0
XRECORD
  5
1951
102
{ACAD_REACTORS
330
821
102
}
330
821
100
AcDbXrecord
280
     1
102
ACAD_ROUNDTRIP_PRE2007_TABLESTYLE
 90
      512
 91
        0
  1

 92
      512
 93
        0
  2

 94
      512
 95
        0
  3

  0
XRECORD
  5
195D
102
{ACAD_REACTORS
330
195C
102
}
330
195C
100
AcDbXrecord
280
     1
102
RTVSPropertyOp0
 70
     1
102
RTVSPropertyOp1
 70
     1
102
RTVSPropertyOp2
 70
     1
102
RTVSPropertyOp3
 70
     1
102
RTVSPropertyOp4
 70
     1
102
RTVSPropertyOp5
 70
     1
102
RTVSPropertyOp6
 70
     1
102
RTVSPropertyOp7
 70
     1
102
RTVSPropertyOp8
 70
     1
102
RTVSPropertyOp9
 70
     1
102
RTVSPropertyOp10
 70
     1
102
RTVSPropertyOp11
 70
     1
102
RTVSPropertyOp12
 70
     1
102
RTVSPropertyOp13
 70
     1
102
RTVSPropertyOp14
 70
     1
102
RTVSPropertyOp15
 70
     1
102
RTVSPropertyOp16
 70
     1
102
RTVSPropertyOp17
 70
     1
102
RTVSPropertyOp18
 70
     1
102
RTVSPropertyOp19
 70
     1
102
RTVSPropertyOp20
 70
     1
102
RTVSPropertyOp21
 70
     1
102
RTVSPropertyOp22
 70
     1
102
RTVSPropertyOp23
 70
     1
102
RTVSPropertyOp24
 70
     1
102
RTVSPropertyOp25
 70
     1
102
RTVSPropertyOp26
 70
     1
102
RTVSPropertyOp27
 70
     1
102
RTVSPropertyOp28
 70
     1
102
RTVSPropertyOp29
 70
     1
102
RTVSPropertyOp30
 70
     1
102
RTVSPropertyOp31
 70
     1
102
RTVSPropertyOp32
 70
     1
  0
XRECORD
  5
1961
102
{ACAD_REACTORS
330
1960
102
}
330
1960
100
AcDbXrecord
280
     1
102
RTVSPropertyOp0
 70
     1
102
RTVSPropertyOp1
 70
     1
102
RTVSPropertyOp2
 70
     1
102
RTVSPropertyOp3
 70
     1
102
RTVSPropertyOp4
 70
     1
102
RTVSPropertyOp5
 70
     1
102
RTVSPropertyOp6
 70
     1
102
RTVSPropertyOp7
 70
     1
102
RTVSPropertyOp8
 70
     1
102
RTVSPropertyOp9
 70
     1
102
RTVSPropertyOp10
 70
     1
102
RTVSPropertyOp11
 70
     1
102
RTVSPropertyOp12
 70
     1
102
RTVSPropertyOp13
 70
     1
102
RTVSPropertyOp14
 70
     1
102
RTVSPropertyOp15
 70
     1
102
RTVSPropertyOp16
 70
     1
102
RTVSPropertyOp17
 70
     1
102
RTVSPropertyOp18
 70
     1
102
RTVSPropertyOp19
 70
     1
102
RTVSPropertyOp20
 70
     1
102
RTVSPropertyOp21
 70
     1
102
RTVSPropertyOp22
 70
     1
102
RTVSPropertyOp23
 70
     1
102
RTVSPropertyOp24
 70
     1
102
RTVSPropertyOp25
 70
     1
102
RTVSPropertyOp26
 70
     1
102
RTVSPropertyOp27
 70
     1
102
RTVSPropertyOp28
 70
     1
102
RTVSPropertyOp29
 70
     1
102
RTVSPropertyOp30
 70
     1
102
RTVSPropertyOp31
 70
     1
102
RTVSPropertyOp32
 70
     1
  0
XRECORD
  5
195F
102
{ACAD_REACTORS
330
195E
102
}
330
195E
100
AcDbXrecord
280
     1
102
RTVSPropertyOp0
 70
     1
102
RTVSPropertyOp1
 70
     1
102
RTVSPropertyOp2
 70
     1
102
RTVSPropertyOp3
 70
     1
102
RTVSPropertyOp4
 70
     1
102
RTVSPropertyOp5
 70
     1
102
RTVSPropertyOp6
 70
     1
102
RTVSPropertyOp7
 70
     1
102
RTVSPropertyOp8
 70
     1
102
RTVSPropertyOp9
 70
     1
102
RTVSPropertyOp10
 70
     1
102
RTVSPropertyOp11
 70
     1
102
RTVSPropertyOp12
 70
     1
102
RTVSPropertyOp13
 70
     1
102
RTVSPropertyOp14
 70
     1
102
RTVSPropertyOp15
 70
     1
102
RTVSPropertyOp16
 70
     1
102
RTVSPropertyOp17
 70
     1
102
RTVSPropertyOp18
 70
     1
102
RTVSPropertyOp19
 70
     1
102
RTVSPropertyOp20
 70
     1
102
RTVSPropertyOp21
 70
     1
102
RTVSPropertyOp22
 70
     1
102
RTVSPropertyOp23
 70
     1
102
RTVSPropertyOp24
 70
     1
102
RTVSPropertyOp25
 70
     1
102
RTVSPropertyOp26
 70
     1
102
RTVSPropertyOp27
 70
     1
102
RTVSPropertyOp28
 70
     1
102
RTVSPropertyOp29
 70
     1
102
RTVSPropertyOp30
 70
     1
102
RTVSPropertyOp31
 70
     1
102
RTVSPropertyOp32
 70
     1
  0
XRECORD
  5
195B
102
{ACAD_REACTORS
330
195A
102
}
330
195A
100
AcDbXrecord
280
     1
102
RTVSPropertyOp0
 70
     1
102
RTVSPropertyOp1
 70
     1
102
RTVSPropertyOp2
 70
     1
102
RTVSPropertyOp3
 70
     1
102
RTVSPropertyOp4
 70
     1
102
RTVSPropertyOp5
 70
     1
102
RTVSPropertyOp6
 70
     1
102
RTVSPropertyOp7
 70
     1
102
RTVSPropertyOp8
 70
     1
102
RTVSPropertyOp9
 70
     1
102
RTVSPropertyOp10
 70
     1
102
RTVSPropertyOp11
 70
     1
102
RTVSPropertyOp12
 70
     1
102
RTVSPropertyOp13
 70
     1
102
RTVSPropertyOp14
 70
     1
102
RTVSPropertyOp15
 70
     1
102
RTVSPropertyOp16
 70
     1
102
RTVSPropertyOp17
 70
     1
102
RTVSPropertyOp18
 70
     1
102
RTVSPropertyOp19
 70
     1
102
RTVSPropertyOp20
 70
     1
102
RTVSPropertyOp21
 70
     1
102
RTVSPropertyOp22
 70
     1
102
RTVSPropertyOp23
 70
     1
102
RTVSPropertyOp24
 70
     1
102
RTVSPropertyOp25
 70
     1
102
RTVSPropertyOp26
 70
     1
102
RTVSPropertyOp27
 70
     1
102
RTVSPropertyOp28
 70
     1
102
RTVSPropertyOp29
 70
     1
102
RTVSPropertyOp30
 70
     1
102
RTVSPropertyOp31
 70
     1
102
RTVSPropertyOp32
 70
     1
  0
XRECORD
  5
1969
102
{ACAD_REACTORS
330
1968
102
}
330
1968
100
AcDbXrecord
280
     1
102
RTVSPropertyOp0
 70
     1
102
RTVSPropertyOp1
 70
     1
102
RTVSPropertyOp2
 70
     1
102
RTVSPropertyOp3
 70
     1
102
RTVSPropertyOp4
 70
     1
102
RTVSPropertyOp5
 70
     1
102
RTVSPropertyOp6
 70
     1
102
RTVSPropertyOp7
 70
     1
102
RTVSPropertyOp8
 70
     1
102
RTVSPropertyOp9
 70
     1
102
RTVSPropertyOp10
 70
     1
102
RTVSPropertyOp11
 70
     1
102
RTVSPropertyOp12
 70
     1
102
RTVSPropertyOp13
 70
     1
102
RTVSPropertyOp14
 70
     1
102
RTVSPropertyOp15
 70
     1
102
RTVSPropertyOp16
 70
     1
102
RTVSPropertyOp17
 70
     1
102
RTVSPropertyOp18
 70
     1
102
RTVSPropertyOp19
 70
     1
102
RTVSPropertyOp20
 70
     1
102
RTVSPropertyOp21
 70
     1
102
RTVSPropertyOp22
 70
     1
102
RTVSPropertyOp23
 70
     1
102
RTVSPropertyOp24
 70
     1
102
RTVSPropertyOp25
 70
     1
102
RTVSPropertyOp26
 70
     1
102
RTVSPropertyOp27
 70
     1
102
RTVSPropertyOp28
 70
     1
102
RTVSPropertyOp29
 70
     1
102
RTVSPropertyOp30
 70
     1
102
RTVSPropertyOp31
 70
     1
102
RTVSPropertyOp32
 70
     1
  0
XRECORD
  5
1971
102
{ACAD_REACTORS
330
1970
102
}
330
1970
100
AcDbXrecord
280
     1
102
RTVSPropertyOp0
 70
     1
102
RTVSPropertyOp1
 70
     1
102
RTVSPropertyOp2
 70
     1
102
RTVSPropertyOp3
 70
     1
102
RTVSPropertyOp4
 70
     1
102
RTVSPropertyOp5
 70
     1
102
RTVSPropertyOp6
 70
     1
102
RTVSPropertyOp7
 70
     1
102
RTVSPropertyOp8
 70
     1
102
RTVSPropertyOp9
 70
     1
102
RTVSPropertyOp10
 70
     1
102
RTVSPropertyOp11
 70
     1
102
RTVSPropertyOp12
 70
     1
102
RTVSPropertyOp13
 70
     1
102
RTVSPropertyOp14
 70
     1
102
RTVSPropertyOp15
 70
     1
102
RTVSPropertyOp16
 70
     1
102
RTVSPropertyOp17
 70
     1
102
RTVSPropertyOp18
 70
     1
102
RTVSPropertyOp19
 70
     1
102
RTVSPropertyOp20
 70
     1
102
RTVSPropertyOp21
 70
     1
102
RTVSPropertyOp22
 70
     1
102
RTVSPropertyOp23
 70
     1
102
RTVSPropertyOp24
 70
     1
102
RTVSPropertyOp25
 70
     1
102
RTVSPropertyOp26
 70
     1
102
RTVSPropertyOp27
 70
     1
102
RTVSPropertyOp28
 70
     1
102
RTVSPropertyOp29
 70
     1
102
RTVSPropertyOp30
 70
     1
102
RTVSPropertyOp31
 70
     1
102
RTVSPropertyOp32
 70
     1
  0
XRECORD
  5
1963
102
{ACAD_REACTORS
330
1962
102
}
330
1962
100
AcDbXrecord
280
     1
102
RTVSPropertyOp0
 70
     1
102
RTVSPropertyOp1
 70
     1
102
RTVSPropertyOp2
 70
     1
102
RTVSPropertyOp3
 70
     1
102
RTVSPropertyOp4
 70
     1
102
RTVSPropertyOp5
 70
     1
102
RTVSPropertyOp6
 70
     1
102
RTVSPropertyOp7
 70
     1
102
RTVSPropertyOp8
 70
     1
102
RTVSPropertyOp9
 70
     1
102
RTVSPropertyOp10
 70
     1
102
RTVSPropertyOp11
 70
     1
102
RTVSPropertyOp12
 70
     1
102
RTVSPropertyOp13
 70
     1
102
RTVSPropertyOp14
 70
     1
102
RTVSPropertyOp15
 70
     1
102
RTVSPropertyOp16
 70
     1
102
RTVSPropertyOp17
 70
     1
102
RTVSPropertyOp18
 70
     1
102
RTVSPropertyOp19
 70
     1
102
RTVSPropertyOp20
 70
     1
102
RTVSPropertyOp21
 70
     1
102
RTVSPropertyOp22
 70
     1
102
RTVSPropertyOp23
 70
     1
102
RTVSPropertyOp24
 70
     1
102
RTVSPropertyOp25
 70
     1
102
RTVSPropertyOp26
 70
     1
102
RTVSPropertyOp27
 70
     1
102
RTVSPropertyOp28
 70
     1
102
RTVSPropertyOp29
 70
     1
102
RTVSPropertyOp30
 70
     1
102
RTVSPropertyOp31
 70
     1
102
RTVSPropertyOp32
 70
     1
  0
XRECORD
  5
1967
102
{ACAD_REACTORS
330
1966
102
}
330
1966
100
AcDbXrecord
280
     1
102
RTVSPropertyOp0
 70
     1
102
RTVSPropertyOp1
 70
     1
102
RTVSPropertyOp2
 70
     1
102
RTVSPropertyOp3
 70
     1
102
RTVSPropertyOp4
 70
     1
102
RTVSPropertyOp5
 70
     1
102
RTVSPropertyOp6
 70
     1
102
RTVSPropertyOp7
 70
     1
102
RTVSPropertyOp8
 70
     1
102
RTVSPropertyOp9
 70
     1
102
RTVSPropertyOp10
 70
     1
102
RTVSPropertyOp11
 70
     1
102
RTVSPropertyOp12
 70
     1
102
RTVSPropertyOp13
 70
     1
102
RTVSPropertyOp14
 70
     1
102
RTVSPropertyOp15
 70
     1
102
RTVSPropertyOp16
 70
     1
102
RTVSPropertyOp17
 70
     1
102
RTVSPropertyOp18
 70
     1
102
RTVSPropertyOp19
 70
     1
102
RTVSPropertyOp20
 70
     1
102
RTVSPropertyOp21
 70
     1
102
RTVSPropertyOp22
 70
     1
102
RTVSPropertyOp23
 70
     1
102
RTVSPropertyOp24
 70
     1
102
RTVSPropertyOp25
 70
     1
102
RTVSPropertyOp26
 70
     1
102
RTVSPropertyOp27
 70
     1
102
RTVSPropertyOp28
 70
     1
102
RTVSPropertyOp29
 70
     1
102
RTVSPropertyOp30
 70
     1
102
RTVSPropertyOp31
 70
     1
102
RTVSPropertyOp32
 70
     1
  0
XRECORD
  5
1985
102
{ACAD_REACTORS
330
1984
102
}
330
1984
100
AcDbXrecord
280
     1
102
RTVSPropertyOp0
 70
     0
102
RTVSPropertyOp1
 70
     0
102
RTVSPropertyOp2
 70
     0
102
RTVSPropertyOp3
 70
     0
102
RTVSPropertyOp4
 70
     0
102
RTVSPropertyOp5
 70
     0
102
RTVSPropertyOp6
 70
     0
102
RTVSPropertyOp7
 70
     0
102
RTVSPropertyOp8
 70
     0
102
RTVSPropertyOp9
 70
     0
102
RTVSPropertyOp10
 70
     0
102
RTVSPropertyOp11
 70
     0
102
RTVSPropertyOp12
 70
     0
102
RTVSPropertyOp13
 70
     0
102
RTVSPropertyOp14
 70
     2
102
RTVSPropertyOp15
 70
     0
102
RTVSPropertyOp16
 70
     0
102
RTVSPropertyOp17
 70
     0
102
RTVSPropertyOp18
 70
     0
102
RTVSPropertyOp19
 70
     0
102
RTVSPropertyOp20
 70
     0
102
RTVSPropertyOp21
 70
     0
102
RTVSPropertyOp22
 70
     0
102
RTVSPropertyOp23
 70
     0
102
RTVSPropertyOp24
 70
     0
102
RTVSPropertyOp25
 70
     0
102
RTVSPropertyOp26
 70
     0
102
RTVSPropertyOp27
 70
     0
102
RTVSPropertyOp28
 70
     1
102
RTVSPropertyOp29
 70
     1
102
RTVSPropertyOp30
 70
     1
102
RTVSPropertyOp31
 70
     1
102
RTVSPropertyOp32
 70
     1
  0
XRECORD
  5
196F
102
{ACAD_REACTORS
330
196E
102
}
330
196E
100
AcDbXrecord
280
     1
102
RTVSPropertyOp0
 70
     1
102
RTVSPropertyOp1
 70
     1
102
RTVSPropertyOp2
 70
     1
102
RTVSPropertyOp3
 70
     1
102
RTVSPropertyOp4
 70
     1
102
RTVSPropertyOp5
 70
     1
102
RTVSPropertyOp6
 70
     1
102
RTVSPropertyOp7
 70
     1
102
RTVSPropertyOp8
 70
     1
102
RTVSPropertyOp9
 70
     1
102
RTVSPropertyOp10
 70
     1
102
RTVSPropertyOp11
 70
     1
102
RTVSPropertyOp12
 70
     1
102
RTVSPropertyOp13
 70
     1
102
RTVSPropertyOp14
 70
     1
102
RTVSPropertyOp15
 70
     1
102
RTVSPropertyOp16
 70
     1
102
RTVSPropertyOp17
 70
     1
102
RTVSPropertyOp18
 70
     1
102
RTVSPropertyOp19
 70
     1
102
RTVSPropertyOp20
 70
     1
102
RTVSPropertyOp21
 70
     1
102
RTVSPropertyOp22
 70
     1
102
RTVSPropertyOp23
 70
     1
102
RTVSPropertyOp24
 70
     1
102
RTVSPropertyOp25
 70
     1
102
RTVSPropertyOp26
 70
     1
102
RTVSPropertyOp27
 70
     1
102
RTVSPropertyOp28
 70
     1
102
RTVSPropertyOp29
 70
     1
102
RTVSPropertyOp30
 70
     1
102
RTVSPropertyOp31
 70
     1
102
RTVSPropertyOp32
 70
     1
  0
XRECORD
  5
1953
102
{ACAD_REACTORS
330
1952
102
}
330
1952
100
AcDbXrecord
280
     1
102
RTVSPropertyOp0
 70
     1
102
RTVSPropertyOp1
 70
     1
102
RTVSPropertyOp2
 70
     1
102
RTVSPropertyOp3
 70
     1
102
RTVSPropertyOp4
 70
     1
102
RTVSPropertyOp5
 70
     1
102
RTVSPropertyOp6
 70
     1
102
RTVSPropertyOp7
 70
     1
102
RTVSPropertyOp8
 70
     1
102
RTVSPropertyOp9
 70
     1
102
RTVSPropertyOp10
 70
     1
102
RTVSPropertyOp11
 70
     1
102
RTVSPropertyOp12
 70
     1
102
RTVSPropertyOp13
 70
     1
102
RTVSPropertyOp14
 70
     1
102
RTVSPropertyOp15
 70
     1
102
RTVSPropertyOp16
 70
     1
102
RTVSPropertyOp17
 70
     1
102
RTVSPropertyOp18
 70
     1
102
RTVSPropertyOp19
 70
     1
102
RTVSPropertyOp20
 70
     1
102
RTVSPropertyOp21
 70
     1
102
RTVSPropertyOp22
 70
     1
102
RTVSPropertyOp23
 70
     1
102
RTVSPropertyOp24
 70
     1
102
RTVSPropertyOp25
 70
     1
102
RTVSPropertyOp26
 70
     1
102
RTVSPropertyOp27
 70
     1
102
RTVSPropertyOp28
 70
     1
102
RTVSPropertyOp29
 70
     1
102
RTVSPropertyOp30
 70
     1
102
RTVSPropertyOp31
 70
     1
102
RTVSPropertyOp32
 70
     1
  0
XRECORD
  5
1955
102
{ACAD_REACTORS
330
1954
102
}
330
1954
100
AcDbXrecord
280
     1
102
RTVSPropertyOp0
 70
     1
102
RTVSPropertyOp1
 70
     1
102
RTVSPropertyOp2
 70
     1
102
RTVSPropertyOp3
 70
     1
102
RTVSPropertyOp4
 70
     1
102
RTVSPropertyOp5
 70
     1
102
RTVSPropertyOp6
 70
     1
102
RTVSPropertyOp7
 70
     1
102
RTVSPropertyOp8
 70
     1
102
RTVSPropertyOp9
 70
     1
102
RTVSPropertyOp10
 70
     1
102
RTVSPropertyOp11
 70
     1
102
RTVSPropertyOp12
 70
     1
102
RTVSPropertyOp13
 70
     1
102
RTVSPropertyOp14
 70
     1
102
RTVSPropertyOp15
 70
     1
102
RTVSPropertyOp16
 70
     1
102
RTVSPropertyOp17
 70
     1
102
RTVSPropertyOp18
 70
     1
102
RTVSPropertyOp19
 70
     1
102
RTVSPropertyOp20
 70
     1
102
RTVSPropertyOp21
 70
     1
102
RTVSPropertyOp22
 70
     1
102
RTVSPropertyOp23
 70
     1
102
RTVSPropertyOp24
 70
     1
102
RTVSPropertyOp25
 70
     1
102
RTVSPropertyOp26
 70
     1
102
RTVSPropertyOp27
 70
     1
102
RTVSPropertyOp28
 70
     1
102
RTVSPropertyOp29
 70
     1
102
RTVSPropertyOp30
 70
     1
102
RTVSPropertyOp31
 70
     1
102
RTVSPropertyOp32
 70
     1
  0
XRECORD
  5
1957
102
{ACAD_REACTORS
330
1956
102
}
330
1956
100
AcDbXrecord
280
     1
102
RTVSPropertyOp0
 70
     1
102
RTVSPropertyOp1
 70
     1
102
RTVSPropertyOp2
 70
     1
102
RTVSPropertyOp3
 70
     1
102
RTVSPropertyOp4
 70
     1
102
RTVSPropertyOp5
 70
     1
102
RTVSPropertyOp6
 70
     1
102
RTVSPropertyOp7
 70
     1
102
RTVSPropertyOp8
 70
     1
102
RTVSPropertyOp9
 70
     1
102
RTVSPropertyOp10
 70
     1
102
RTVSPropertyOp11
 70
     1
102
RTVSPropertyOp12
 70
     1
102
RTVSPropertyOp13
 70
     1
102
RTVSPropertyOp14
 70
     1
102
RTVSPropertyOp15
 70
     1
102
RTVSPropertyOp16
 70
     1
102
RTVSPropertyOp17
 70
     1
102
RTVSPropertyOp18
 70
     1
102
RTVSPropertyOp19
 70
     1
102
RTVSPropertyOp20
 70
     1
102
RTVSPropertyOp21
 70
     1
102
RTVSPropertyOp22
 70
     1
102
RTVSPropertyOp23
 70
     1
102
RTVSPropertyOp24
 70
     1
102
RTVSPropertyOp25
 70
     1
102
RTVSPropertyOp26
 70
     1
102
RTVSPropertyOp27
 70
     1
102
RTVSPropertyOp28
 70
     1
102
RTVSPropertyOp29
 70
     1
102
RTVSPropertyOp30
 70
     1
102
RTVSPropertyOp31
 70
     1
102
RTVSPropertyOp32
 70
     1
  0
XRECORD
  5
1959
102
{ACAD_REACTORS
330
1958
102
}
330
1958
100
AcDbXrecord
280
     1
102
RTVSPropertyOp0
 70
     1
102
RTVSPropertyOp1
 70
     1
102
RTVSPropertyOp2
 70
     1
102
RTVSPropertyOp3
 70
     1
102
RTVSPropertyOp4
 70
     1
102
RTVSPropertyOp5
 70
     1
102
RTVSPropertyOp6
 70
     1
102
RTVSPropertyOp7
 70
     1
102
RTVSPropertyOp8
 70
     1
102
RTVSPropertyOp9
 70
     1
102
RTVSPropertyOp10
 70
     1
102
RTVSPropertyOp11
 70
     1
102
RTVSPropertyOp12
 70
     1
102
RTVSPropertyOp13
 70
     1
102
RTVSPropertyOp14
 70
     1
102
RTVSPropertyOp15
 70
     1
102
RTVSPropertyOp16
 70
     1
102
RTVSPropertyOp17
 70
     1
102
RTVSPropertyOp18
 70
     1
102
RTVSPropertyOp19
 70
     1
102
RTVSPropertyOp20
 70
     1
102
RTVSPropertyOp21
 70
     1
102
RTVSPropertyOp22
 70
     1
102
RTVSPropertyOp23
 70
     1
102
RTVSPropertyOp24
 70
     1
102
RTVSPropertyOp25
 70
     1
102
RTVSPropertyOp26
 70
     1
102
RTVSPropertyOp27
 70
     1
102
RTVSPropertyOp28
 70
     1
102
RTVSPropertyOp29
 70
     1
102
RTVSPropertyOp30
 70
     1
102
RTVSPropertyOp31
 70
     1
102
RTVSPropertyOp32
 70
     1
  0
XRECORD
  5
1975
102
{ACAD_REACTORS
330
1974
102
}
330
1974
100
AcDbXrecord
280
     1
102
RTVSPropertyOp0
 70
     1
102
RTVSPropertyOp1
 70
     1
102
RTVSPropertyOp2
 70
     1
102
RTVSPropertyOp3
 70
     1
102
RTVSPropertyOp4
 70
     1
102
RTVSPropertyOp5
 70
     1
102
RTVSPropertyOp6
 70
     1
102
RTVSPropertyOp7
 70
     1
102
RTVSPropertyOp8
 70
     1
102
RTVSPropertyOp9
 70
     1
102
RTVSPropertyOp10
 70
     1
102
RTVSPropertyOp11
 70
     1
102
RTVSPropertyOp12
 70
     1
102
RTVSPropertyOp13
 70
     1
102
RTVSPropertyOp14
 70
     1
102
RTVSPropertyOp15
 70
     1
102
RTVSPropertyOp16
 70
     1
102
RTVSPropertyOp17
 70
     1
102
RTVSPropertyOp18
 70
     1
102
RTVSPropertyOp19
 70
     1
102
RTVSPropertyOp20
 70
     1
102
RTVSPropertyOp21
 70
     1
102
RTVSPropertyOp22
 70
     1
102
RTVSPropertyOp23
 70
     1
102
RTVSPropertyOp24
 70
     1
102
RTVSPropertyOp25
 70
     1
102
RTVSPropertyOp26
 70
     1
102
RTVSPropertyOp27
 70
     1
102
RTVSPropertyOp28
 70
     1
102
RTVSPropertyOp29
 70
     1
102
RTVSPropertyOp30
 70
     1
102
RTVSPropertyOp31
 70
     1
102
RTVSPropertyOp32
 70
     1
  0
XRECORD
  5
1981
102
{ACAD_REACTORS
330
1980
102
}
330
1980
100
AcDbXrecord
280
     1
102
RTVSPropertyOp0
 70
     0
102
RTVSPropertyOp1
 70
     0
102
RTVSPropertyOp2
 70
     0
102
RTVSPropertyOp3
 70
     0
102
RTVSPropertyOp4
 70
     0
102
RTVSPropertyOp5
 70
     0
102
RTVSPropertyOp6
 70
     0
102
RTVSPropertyOp7
 70
     0
102
RTVSPropertyOp8
 70
     0
102
RTVSPropertyOp9
 70
     0
102
RTVSPropertyOp10
 70
     0
102
RTVSPropertyOp11
 70
     0
102
RTVSPropertyOp12
 70
     0
102
RTVSPropertyOp13
 70
     0
102
RTVSPropertyOp14
 70
     2
102
RTVSPropertyOp15
 70
     0
102
RTVSPropertyOp16
 70
     0
102
RTVSPropertyOp17
 70
     0
102
RTVSPropertyOp18
 70
     0
102
RTVSPropertyOp19
 70
     0
102
RTVSPropertyOp20
 70
     0
102
RTVSPropertyOp21
 70
     0
102
RTVSPropertyOp22
 70
     0
102
RTVSPropertyOp23
 70
     0
102
RTVSPropertyOp24
 70
     0
102
RTVSPropertyOp25
 70
     0
102
RTVSPropertyOp26
 70
     0
102
RTVSPropertyOp27
 70
     0
102
RTVSPropertyOp28
 70
     1
102
RTVSPropertyOp29
 70
     1
102
RTVSPropertyOp30
 70
     1
102
RTVSPropertyOp31
 70
     1
102
RTVSPropertyOp32
 70
     1
  0
XRECORD
  5
196D
102
{ACAD_REACTORS
330
196C
102
}
330
196C
100
AcDbXrecord
280
     1
102
RTVSPropertyOp0
 70
     1
102
RTVSPropertyOp1
 70
     1
102
RTVSPropertyOp2
 70
     1
102
RTVSPropertyOp3
 70
     1
102
RTVSPropertyOp4
 70
     1
102
RTVSPropertyOp5
 70
     1
102
RTVSPropertyOp6
 70
     1
102
RTVSPropertyOp7
 70
     1
102
RTVSPropertyOp8
 70
     1
102
RTVSPropertyOp9
 70
     1
102
RTVSPropertyOp10
 70
     1
102
RTVSPropertyOp11
 70
     1
102
RTVSPropertyOp12
 70
     1
102
RTVSPropertyOp13
 70
     1
102
RTVSPropertyOp14
 70
     1
102
RTVSPropertyOp15
 70
     1
102
RTVSPropertyOp16
 70
     1
102
RTVSPropertyOp17
 70
     1
102
RTVSPropertyOp18
 70
     1
102
RTVSPropertyOp19
 70
     1
102
RTVSPropertyOp20
 70
     1
102
RTVSPropertyOp21
 70
     1
102
RTVSPropertyOp22
 70
     1
102
RTVSPropertyOp23
 70
     1
102
RTVSPropertyOp24
 70
     1
102
RTVSPropertyOp25
 70
     1
102
RTVSPropertyOp26
 70
     1
102
RTVSPropertyOp27
 70
     1
102
RTVSPropertyOp28
 70
     1
102
RTVSPropertyOp29
 70
     1
102
RTVSPropertyOp30
 70
     1
102
RTVSPropertyOp31
 70
     1
102
RTVSPropertyOp32
 70
     1
  0
XRECORD
  5
1983
102
{ACAD_REACTORS
330
1982
102
}
330
1982
100
AcDbXrecord
280
     1
102
RTVSPropertyOp0
 70
     0
102
RTVSPropertyOp1
 70
     0
102
RTVSPropertyOp2
 70
     0
102
RTVSPropertyOp3
 70
     0
102
RTVSPropertyOp4
 70
     0
102
RTVSPropertyOp5
 70
     0
102
RTVSPropertyOp6
 70
     0
102
RTVSPropertyOp7
 70
     0
102
RTVSPropertyOp8
 70
     0
102
RTVSPropertyOp9
 70
     0
102
RTVSPropertyOp10
 70
     0
102
RTVSPropertyOp11
 70
     0
102
RTVSPropertyOp12
 70
     0
102
RTVSPropertyOp13
 70
     0
102
RTVSPropertyOp14
 70
     2
102
RTVSPropertyOp15
 70
     0
102
RTVSPropertyOp16
 70
     0
102
RTVSPropertyOp17
 70
     0
102
RTVSPropertyOp18
 70
     0
102
RTVSPropertyOp19
 70
     0
102
RTVSPropertyOp20
 70
     0
102
RTVSPropertyOp21
 70
     0
102
RTVSPropertyOp22
 70
     0
102
RTVSPropertyOp23
 70
     0
102
RTVSPropertyOp24
 70
     0
102
RTVSPropertyOp25
 70
     0
102
RTVSPropertyOp26
 70
     0
102
RTVSPropertyOp27
 70
     0
102
RTVSPropertyOp28
 70
     1
102
RTVSPropertyOp29
 70
     1
102
RTVSPropertyOp30
 70
     1
102
RTVSPropertyOp31
 70
     1
102
RTVSPropertyOp32
 70
     1
  0
XRECORD
  5
1965
102
{ACAD_REACTORS
330
1964
102
}
330
1964
100
AcDbXrecord
280
     1
102
RTVSPropertyOp0
 70
     1
102
RTVSPropertyOp1
 70
     1
102
RTVSPropertyOp2
 70
     1
102
RTVSPropertyOp3
 70
     1
102
RTVSPropertyOp4
 70
     1
102
RTVSPropertyOp5
 70
     1
102
RTVSPropertyOp6
 70
     1
102
RTVSPropertyOp7
 70
     1
102
RTVSPropertyOp8
 70
     1
102
RTVSPropertyOp9
 70
     1
102
RTVSPropertyOp10
 70
     1
102
RTVSPropertyOp11
 70
     1
102
RTVSPropertyOp12
 70
     1
102
RTVSPropertyOp13
 70
     1
102
RTVSPropertyOp14
 70
     1
102
RTVSPropertyOp15
 70
     1
102
RTVSPropertyOp16
 70
     1
102
RTVSPropertyOp17
 70
     1
102
RTVSPropertyOp18
 70
     1
102
RTVSPropertyOp19
 70
     1
102
RTVSPropertyOp20
 70
     1
102
RTVSPropertyOp21
 70
     1
102
RTVSPropertyOp22
 70
     1
102
RTVSPropertyOp23
 70
     1
102
RTVSPropertyOp24
 70
     1
102
RTVSPropertyOp25
 70
     1
102
RTVSPropertyOp26
 70
     1
102
RTVSPropertyOp27
 70
     1
102
RTVSPropertyOp28
 70
     1
102
RTVSPropertyOp29
 70
     1
102
RTVSPropertyOp30
 70
     1
102
RTVSPropertyOp31
 70
     1
102
RTVSPropertyOp32
 70
     1
  0
XRECORD
  5
197F
102
{ACAD_REACTORS
330
197E
102
}
330
197E
100
AcDbXrecord
280
     1
102
RTVSPropertyOp0
 70
     1
102
RTVSPropertyOp1
 70
     1
102
RTVSPropertyOp2
 70
     1
102
RTVSPropertyOp3
 70
     1
102
RTVSPropertyOp4
 70
     1
102
RTVSPropertyOp5
 70
     1
102
RTVSPropertyOp6
 70
     1
102
RTVSPropertyOp7
 70
     1
102
RTVSPropertyOp8
 70
     1
102
RTVSPropertyOp9
 70
     1
102
RTVSPropertyOp10
 70
     1
102
RTVSPropertyOp11
 70
     1
102
RTVSPropertyOp12
 70
     1
102
RTVSPropertyOp13
 70
     1
102
RTVSPropertyOp14
 70
     1
102
RTVSPropertyOp15
 70
     1
102
RTVSPropertyOp16
 70
     1
102
RTVSPropertyOp17
 70
     1
102
RTVSPropertyOp18
 70
     1
102
RTVSPropertyOp19
 70
     1
102
RTVSPropertyOp20
 70
     1
102
RTVSPropertyOp21
 70
     1
102
RTVSPropertyOp22
 70
     1
102
RTVSPropertyOp23
 70
     1
102
RTVSPropertyOp24
 70
     1
102
RTVSPropertyOp25
 70
     1
102
RTVSPropertyOp26
 70
     1
102
RTVSPropertyOp27
 70
     1
102
RTVSPropertyOp28
 70
     1
102
RTVSPropertyOp29
 70
     1
102
RTVSPropertyOp30
 70
     1
102
RTVSPropertyOp31
 70
     1
102
RTVSPropertyOp32
 70
     1
  0
XRECORD
  5
197D
102
{ACAD_REACTORS
330
197C
102
}
330
197C
100
AcDbXrecord
280
     1
102
RTVSPropertyOp0
 70
     1
102
RTVSPropertyOp1
 70
     1
102
RTVSPropertyOp2
 70
     1
102
RTVSPropertyOp3
 70
     1
102
RTVSPropertyOp4
 70
     1
102
RTVSPropertyOp5
 70
     1
102
RTVSPropertyOp6
 70
     1
102
RTVSPropertyOp7
 70
     1
102
RTVSPropertyOp8
 70
     1
102
RTVSPropertyOp9
 70
     1
102
RTVSPropertyOp10
 70
     1
102
RTVSPropertyOp11
 70
     1
102
RTVSPropertyOp12
 70
     1
102
RTVSPropertyOp13
 70
     1
102
RTVSPropertyOp14
 70
     1
102
RTVSPropertyOp15
 70
     1
102
RTVSPropertyOp16
 70
     1
102
RTVSPropertyOp17
 70
     1
102
RTVSPropertyOp18
 70
     1
102
RTVSPropertyOp19
 70
     1
102
RTVSPropertyOp20
 70
     1
102
RTVSPropertyOp21
 70
     1
102
RTVSPropertyOp22
 70
     1
102
RTVSPropertyOp23
 70
     1
102
RTVSPropertyOp24
 70
     1
102
RTVSPropertyOp25
 70
     1
102
RTVSPropertyOp26
 70
     1
102
RTVSPropertyOp27
 70
     1
102
RTVSPropertyOp28
 70
     1
102
RTVSPropertyOp29
 70
     1
102
RTVSPropertyOp30
 70
     1
102
RTVSPropertyOp31
 70
     1
102
RTVSPropertyOp32
 70
     1
  0
XRECORD
  5
1977
102
{ACAD_REACTORS
330
1976
102
}
330
1976
100
AcDbXrecord
280
     1
102
RTVSPropertyOp0
 70
     1
102
RTVSPropertyOp1
 70
     1
102
RTVSPropertyOp2
 70
     1
102
RTVSPropertyOp3
 70
     1
102
RTVSPropertyOp4
 70
     1
102
RTVSPropertyOp5
 70
     1
102
RTVSPropertyOp6
 70
     1
102
RTVSPropertyOp7
 70
     1
102
RTVSPropertyOp8
 70
     1
102
RTVSPropertyOp9
 70
     1
102
RTVSPropertyOp10
 70
     1
102
RTVSPropertyOp11
 70
     1
102
RTVSPropertyOp12
 70
     1
102
RTVSPropertyOp13
 70
     1
102
RTVSPropertyOp14
 70
     1
102
RTVSPropertyOp15
 70
     1
102
RTVSPropertyOp16
 70
     1
102
RTVSPropertyOp17
 70
     1
102
RTVSPropertyOp18
 70
     1
102
RTVSPropertyOp19
 70
     1
102
RTVSPropertyOp20
 70
     1
102
RTVSPropertyOp21
 70
     1
102
RTVSPropertyOp22
 70
     1
102
RTVSPropertyOp23
 70
     1
102
RTVSPropertyOp24
 70
     1
102
RTVSPropertyOp25
 70
     1
102
RTVSPropertyOp26
 70
     1
102
RTVSPropertyOp27
 70
     1
102
RTVSPropertyOp28
 70
     1
102
RTVSPropertyOp29
 70
     1
102
RTVSPropertyOp30
 70
     1
102
RTVSPropertyOp31
 70
     1
102
RTVSPropertyOp32
 70
     1
  0
XRECORD
  5
1979
102
{ACAD_REACTORS
330
1978
102
}
330
1978
100
AcDbXrecord
280
     1
102
RTVSPropertyOp0
 70
     1
102
RTVSPropertyOp1
 70
     1
102
RTVSPropertyOp2
 70
     1
102
RTVSPropertyOp3
 70
     1
102
RTVSPropertyOp4
 70
     1
102
RTVSPropertyOp5
 70
     1
102
RTVSPropertyOp6
 70
     1
102
RTVSPropertyOp7
 70
     1
102
RTVSPropertyOp8
 70
     1
102
RTVSPropertyOp9
 70
     1
102
RTVSPropertyOp10
 70
     1
102
RTVSPropertyOp11
 70
     1
102
RTVSPropertyOp12
 70
     1
102
RTVSPropertyOp13
 70
     1
102
RTVSPropertyOp14
 70
     1
102
RTVSPropertyOp15
 70
     1
102
RTVSPropertyOp16
 70
     1
102
RTVSPropertyOp17
 70
     1
102
RTVSPropertyOp18
 70
     1
102
RTVSPropertyOp19
 70
     1
102
RTVSPropertyOp20
 70
     1
102
RTVSPropertyOp21
 70
     1
102
RTVSPropertyOp22
 70
     1
102
RTVSPropertyOp23
 70
     1
102
RTVSPropertyOp24
 70
     1
102
RTVSPropertyOp25
 70
     1
102
RTVSPropertyOp26
 70
     1
102
RTVSPropertyOp27
 70
     1
102
RTVSPropertyOp28
 70
     1
102
RTVSPropertyOp29
 70
     1
102
RTVSPropertyOp30
 70
     1
102
RTVSPropertyOp31
 70
     1
102
RTVSPropertyOp32
 70
     1
  0
XRECORD
  5
196B
102
{ACAD_REACTORS
330
196A
102
}
330
196A
100
AcDbXrecord
280
     1
102
RTVSPropertyOp0
 70
     1
102
RTVSPropertyOp1
 70
     1
102
RTVSPropertyOp2
 70
     1
102
RTVSPropertyOp3
 70
     1
102
RTVSPropertyOp4
 70
     1
102
RTVSPropertyOp5
 70
     1
102
RTVSPropertyOp6
 70
     1
102
RTVSPropertyOp7
 70
     1
102
RTVSPropertyOp8
 70
     1
102
RTVSPropertyOp9
 70
     1
102
RTVSPropertyOp10
 70
     1
102
RTVSPropertyOp11
 70
     1
102
RTVSPropertyOp12
 70
     1
102
RTVSPropertyOp13
 70
     1
102
RTVSPropertyOp14
 70
     1
102
RTVSPropertyOp15
 70
     1
102
RTVSPropertyOp16
 70
     1
102
RTVSPropertyOp17
 70
     1
102
RTVSPropertyOp18
 70
     1
102
RTVSPropertyOp19
 70
     1
102
RTVSPropertyOp20
 70
     1
102
RTVSPropertyOp21
 70
     1
102
RTVSPropertyOp22
 70
     1
102
RTVSPropertyOp23
 70
     1
102
RTVSPropertyOp24
 70
     1
102
RTVSPropertyOp25
 70
     1
102
RTVSPropertyOp26
 70
     1
102
RTVSPropertyOp27
 70
     1
102
RTVSPropertyOp28
 70
     1
102
RTVSPropertyOp29
 70
     1
102
RTVSPropertyOp30
 70
     1
102
RTVSPropertyOp31
 70
     1
102
RTVSPropertyOp32
 70
     1
  0
XRECORD
  5
1973
102
{ACAD_REACTORS
330
1972
102
}
330
1972
100
AcDbXrecord
280
     1
102
RTVSPropertyOp0
 70
     1
102
RTVSPropertyOp1
 70
     1
102
RTVSPropertyOp2
 70
     1
102
RTVSPropertyOp3
 70
     1
102
RTVSPropertyOp4
 70
     1
102
RTVSPropertyOp5
 70
     1
102
RTVSPropertyOp6
 70
     1
102
RTVSPropertyOp7
 70
     1
102
RTVSPropertyOp8
 70
     1
102
RTVSPropertyOp9
 70
     1
102
RTVSPropertyOp10
 70
     1
102
RTVSPropertyOp11
 70
     1
102
RTVSPropertyOp12
 70
     1
102
RTVSPropertyOp13
 70
     1
102
RTVSPropertyOp14
 70
     1
102
RTVSPropertyOp15
 70
     1
102
RTVSPropertyOp16
 70
     1
102
RTVSPropertyOp17
 70
     1
102
RTVSPropertyOp18
 70
     1
102
RTVSPropertyOp19
 70
     1
102
RTVSPropertyOp20
 70
     1
102
RTVSPropertyOp21
 70
     1
102
RTVSPropertyOp22
 70
     1
102
RTVSPropertyOp23
 70
     1
102
RTVSPropertyOp24
 70
     1
102
RTVSPropertyOp25
 70
     1
102
RTVSPropertyOp26
 70
     1
102
RTVSPropertyOp27
 70
     1
102
RTVSPropertyOp28
 70
     1
102
RTVSPropertyOp29
 70
     1
102
RTVSPropertyOp30
 70
     1
102
RTVSPropertyOp31
 70
     1
102
RTVSPropertyOp32
 70
     1
  0
XRECORD
  5
197B
102
{ACAD_REACTORS
330
197A
102
}
330
197A
100
AcDbXrecord
280
     1
102
RTVSPropertyOp0
 70
     1
102
RTVSPropertyOp1
 70
     1
102
RTVSPropertyOp2
 70
     1
102
RTVSPropertyOp3
 70
     1
102
RTVSPropertyOp4
 70
     1
102
RTVSPropertyOp5
 70
     1
102
RTVSPropertyOp6
 70
     1
102
RTVSPropertyOp7
 70
     1
102
RTVSPropertyOp8
 70
     1
102
RTVSPropertyOp9
 70
     1
102
RTVSPropertyOp10
 70
     1
102
RTVSPropertyOp11
 70
     1
102
RTVSPropertyOp12
 70
     1
102
RTVSPropertyOp13
 70
     1
102
RTVSPropertyOp14
 70
     1
102
RTVSPropertyOp15
 70
     1
102
RTVSPropertyOp16
 70
     1
102
RTVSPropertyOp17
 70
     1
102
RTVSPropertyOp18
 70
     1
102
RTVSPropertyOp19
 70
     1
102
RTVSPropertyOp20
 70
     1
102
RTVSPropertyOp21
 70
     1
102
RTVSPropertyOp22
 70
     1
102
RTVSPropertyOp23
 70
     1
102
RTVSPropertyOp24
 70
     1
102
RTVSPropertyOp25
 70
     1
102
RTVSPropertyOp26
 70
     1
102
RTVSPropertyOp27
 70
     1
102
RTVSPropertyOp28
 70
     1
102
RTVSPropertyOp29
 70
     1
102
RTVSPropertyOp30
 70
     1
102
RTVSPropertyOp31
 70
     1
102
RTVSPropertyOp32
 70
     1
  0
ENDSEC
  0
EOF
