  0
SECTION
  2
HEADER
  9
$ACADVER
  1
AC1015
  9
$ACADMAINTVER
 70
    20
  9
$DWGCODEPAGE
  3
ANSI_932
  9
$INSBASE
 10
0.0
 20
0.0
 30
0.0
  9
$EXTMIN
 10
44.87226256088212
 20
10.65660143600527
 30
0.0
  9
$EXTMAX
 10
321.8722625608821
 20
199.1292187360052
 30
0.0
  9
$LIMMIN
 10
0.0
 20
0.0
  9
$LIMMAX
 10
12.0
 20
9.0
  9
$ORTHOMODE
 70
     1
  9
$REGENMODE
 70
     1
  9
$FILLMODE
 70
     1
  9
$QTEXTMODE
 70
     0
  9
$MIRRTEXT
 70
     0
  9
$LTSCALE
 40
0.2
  9
$ATTMODE
 70
     1
  9
$TEXTSIZE
 40
3.2
  9
$TRACEWID
 40
0.05
  9
$TEXTSTYLE
  7
高3.2
  9
$CLAYER
  8
0
  9
$CELTYPE
  6
ByLayer
  9
$CECOLOR
 62
   256
  9
$CELTSCALE
 40
1.0
  9
$DISPSILH
 70
     0
  9
$DIMSCALE
 40
1.0
  9
$DIMASZ
 40
2.5
  9
$DIMEXO
 40
0.25
  9
$DIMDLI
 40
0.2
  9
$DIMRND
 40
0.0
  9
$DIMDLE
 40
0.0
  9
$DIMEXE
 40
1.25
  9
$DIMTP
 40
0.0
  9
$DIMTM
 40
0.0
  9
$DIMTXT
 40
3.0
  9
$DIMCEN
 40
0.0
  9
$DIMTSZ
 40
0.0
  9
$DIMTOL
 70
     0
  9
$DIMLIM
 70
     0
  9
$DIMTIH
 70
     0
  9
$DIMTOH
 70
     0
  9
$DIMSE1
 70
     0
  9
$DIMSE2
 70
     0
  9
$DIMTAD
 70
     3
  9
$DIMZIN
 70
     8
  9
$DIMBLK
  1
Open30
  9
$DIMASO
 70
     1
  9
$DIMSHO
 70
     1
  9
$DIMPOST
  1

  9
$DIMAPOST
  1

  9
$DIMALT
 70
     0
  9
$DIMALTD
 70
     3
  9
$DIMALTF
 40
0.03937007874016
  9
$DIMLFAC
 40
2.0
  9
$DIMTOFL
 70
     1
  9
$DIMTVP
 40
0.0
  9
$DIMTIX
 70
     0
  9
$DIMSOXD
 70
     0
  9
$DIMSAH
 70
     0
  9
$DIMBLK1
  1

  9
$DIMBLK2
  1

  9
$DIMSTYLE
  2
1／2
  9
$DIMCLRD
 70
     0
  9
$DIMCLRE
 70
     0
  9
$DIMCLRT
 70
     4
  9
$DIMTFAC
 40
1.0
  9
$DIMGAP
 40
0.625
  9
$DIMJUST
 70
     0
  9
$DIMSD1
 70
     0
  9
$DIMSD2
 70
     0
  9
$DIMTOLJ
 70
     0
  9
$DIMTZIN
 70
     8
  9
$DIMALTZ
 70
     0
  9
$DIMALTTZ
 70
     0
  9
$DIMUPT
 70
     1
  9
$DIMDEC
 70
     2
  9
$DIMTDEC
 70
     2
  9
$DIMALTU
 70
     2
  9
$DIMALTTD
 70
     3
  9
$DIMTXSTY
  7
Standard
  9
$DIMAUNIT
 70
     0
  9
$DIMADEC
 70
     1
  9
$DIMALTRND
 40
0.0
  9
$DIMAZIN
 70
     2
  9
$DIMDSEP
 70
    46
  9
$DIMATFIT
 70
     0
  9
$DIMFRAC
 70
     0
  9
$DIMLDRBLK
  1
Open30
  9
$DIMLUNIT
 70
     2
  9
$DIMLWD
 70
    -2
  9
$DIMLWE
 70
    -2
  9
$DIMTMOVE
 70
     0
  9
$LUNITS
 70
     2
  9
$LUPREC
 70
     4
  9
$SKETCHINC
 40
0.1
  9
$FILLETRAD
 40
0.0
  9
$AUNITS
 70
     0
  9
$AUPREC
 70
     0
  9
$MENU
  1
.
  9
$ELEVATION
 40
0.0
  9
$PELEVATION
 40
0.0
  9
$THICKNESS
 40
0.0
  9
$LIMCHECK
 70
     0
  9
$CHAMFERA
 40
0.0
  9
$CHAMFERB
 40
0.0
  9
$CHAMFERC
 40
0.0
  9
$CHAMFERD
 40
0.0
  9
$SKPOLY
 70
     0
  9
$TDCREATE
 40
2455916.549312338
  9
$TDUCREATE
 40
2455916.174312338
  9
$TDUPDATE
 40
2457618.669209028
  9
$TDUUPDATE
 40
2457618.294209028
  9
$TDINDWG
 40
0.0637219444
  9
$TDUSRTIMER
 40
0.0637209375
  9
$USRTIMER
 70
     1
  9
$ANGBASE
 50
0.0
  9
$ANGDIR
 70
     0
  9
$PDMODE
 70
     0
  9
$PDSIZE
 40
0.0
  9
$PLINEWID
 40
0.0
  9
$SPLFRAME
 70
     0
  9
$SPLINETYPE
 70
     6
  9
$SPLINESEGS
 70
     8
  9
$HANDSEED
  5
249C
  9
$SURFTAB1
 70
     6
  9
$SURFTAB2
 70
     6
  9
$SURFTYPE
 70
     6
  9
$SURFU
 70
     6
  9
$SURFV
 70
     6
  9
$UCSBASE
  2

  9
$UCSNAME
  2

  9
$UCSORG
 10
0.0
 20
0.0
 30
0.0
  9
$UCSXDIR
 10
1.0
 20
0.0
 30
0.0
  9
$UCSYDIR
 10
0.0
 20
1.0
 30
0.0
  9
$UCSORTHOREF
  2

  9
$UCSORTHOVIEW
 70
     0
  9
$UCSORGTOP
 10
0.0
 20
0.0
 30
0.0
  9
$UCSORGBOTTOM
 10
0.0
 20
0.0
 30
0.0
  9
$UCSORGLEFT
 10
0.0
 20
0.0
 30
0.0
  9
$UCSORGRIGHT
 10
0.0
 20
0.0
 30
0.0
  9
$UCSORGFRONT
 10
0.0
 20
0.0
 30
0.0
  9
$UCSORGBACK
 10
0.0
 20
0.0
 30
0.0
  9
$PUCSBASE
  2

  9
$PUCSNAME
  2

  9
$PUCSORG
 10
0.0
 20
0.0
 30
0.0
  9
$PUCSXDIR
 10
1.0
 20
0.0
 30
0.0
  9
$PUCSYDIR
 10
0.0
 20
1.0
 30
0.0
  9
$PUCSORTHOREF
  2

  9
$PUCSORTHOVIEW
 70
     0
  9
$PUCSORGTOP
 10
0.0
 20
0.0
 30
0.0
  9
$PUCSORGBOTTOM
 10
0.0
 20
0.0
 30
0.0
  9
$PUCSORGLEFT
 10
0.0
 20
0.0
 30
0.0
  9
$PUCSORGRIGHT
 10
0.0
 20
0.0
 30
0.0
  9
$PUCSORGFRONT
 10
0.0
 20
0.0
 30
0.0
  9
$PUCSORGBACK
 10
0.0
 20
0.0
 30
0.0
  9
$USERI1
 70
     0
  9
$USERI2
 70
     0
  9
$USERI3
 70
     0
  9
$USERI4
 70
     0
  9
$USERI5
 70
     0
  9
$USERR1
 40
0.0
  9
$USERR2
 40
0.0
  9
$USERR3
 40
0.0
  9
$USERR4
 40
0.0
  9
$USERR5
 40
0.0
  9
$WORLDVIEW
 70
     1
  9
$SHADEDGE
 70
     3
  9
$SHADEDIF
 70
    70
  9
$TILEMODE
 70
     1
  9
$MAXACTVP
 70
    64
  9
$PINSBASE
 10
0.0
 20
0.0
 30
0.0
  9
$PLIMCHECK
 70
     0
  9
$PEXTMIN
 10
0.0
 20
0.0
 30
0.0
  9
$PEXTMAX
 10
0.0
 20
0.0
 30
0.0
  9
$PLIMMIN
 10
0.0
 20
0.0
  9
$PLIMMAX
 10
12.0
 20
9.0
  9
$UNITMODE
 70
     0
  9
$VISRETAIN
 70
     1
  9
$PLINEGEN
 70
     0
  9
$PSLTSCALE
 70
     1
  9
$TREEDEPTH
 70
  3020
  9
$CMLSTYLE
  2
Standard
  9
$CMLJUST
 70
     0
  9
$CMLSCALE
 40
1.0
  9
$PROXYGRAPHICS
 70
     1
  9
$MEASUREMENT
 70
     1
  9
$CELWEIGHT
370
    -1
  9
$ENDCAPS
280
     0
  9
$JOINSTYLE
280
     0
  9
$LWDISPLAY
290
     0
  9
$INSUNITS
 70
     1
  9
$HYPERLINKBASE
  1

  9
$STYLESHEET
  1
N-PLOT.CTB
  9
$XEDIT
290
     1
  9
$CEPSNTYPE
380
     0
  9
$PSTYLEMODE
290
     1
  9
$FINGERPRINTGUID
  2
{8449BC42-E309-40AC-8EE6-A53FF638ADB8}
  9
$VERSIONGUID
  2
{C4AC7957-5CF3-48CF-A926-80D77118A627}
  9
$EXTNAMES
290
     1
  9
$PSVPSCALE
 40
0.0
  9
$OLESTARTUP
290
     0
  0
ENDSEC
  0
SECTION
  2
CLASSES
  0
CLASS
  1
ACDBDICTIONARYWDFLT
  2
AcDbDictionaryWithDefault
  3
ObjectDBX Classes
 90
        0
280
     0
281
     0
  0
CLASS
  1
ACDBPLACEHOLDER
  2
AcDbPlaceHolder
  3
ObjectDBX Classes
 90
        0
280
     0
281
     0
  0
CLASS
  1
LAYOUT
  2
AcDbLayout
  3
ObjectDBX Classes
 90
        0
280
     0
281
     0
  0
CLASS
  1
DICTIONARYVAR
  2
AcDbDictionaryVar
  3
ObjectDBX Classes
 90
        0
280
     0
281
     0
  0
CLASS
  1
TABLESTYLE
  2
AcDbTableStyle
  3
ObjectDBX Classes
 90
     4095
280
     0
281
     0
  0
CLASS
  1
MATERIAL
  2
AcDbMaterial
  3
ObjectDBX Classes
 90
     1153
280
     0
281
     0
  0
CLASS
  1
VISUALSTYLE
  2
AcDbVisualStyle
  3
ObjectDBX Classes
 90
     4095
280
     0
281
     0
  0
CLASS
  1
SORTENTSTABLE
  2
AcDbSortentsTable
  3
ObjectDBX Classes
 90
        0
280
     0
281
     0
  0
CLASS
  1
DIMASSOC
  2
AcDbDimAssoc
  3
"AcDbDimAssoc|Product Desc:     AcDim ARX App For Dimension|Company:          Autodesk, Inc.|WEB Address:      www.autodesk.com"
 90
        0
280
     0
281
     0
  0
CLASS
  1
SCALE
  2
AcDbScale
  3
ObjectDBX Classes
 90
     1153
280
     0
281
     0
  0
CLASS
  1
MLEADERSTYLE
  2
AcDbMLeaderStyle
  3
ACDB_MLEADERSTYLE_CLASS
 90
     4095
280
     0
281
     0
  0
CLASS
  1
ACAD_EVALUATION_GRAPH
  2
AcDbEvalGraph
  3
ObjectDBX Classes
 90
    33921
280
     0
281
     0
  0
CLASS
  1
ACAECUSTOBJ
  2
AcAeEditorObj
  3
AcAeEditorObj
 90
    33792
280
     0
281
     0
  0
CLASS
  1
ACDB_DYNAMICBLOCKPURGEPREVENTER_VERSION
  2
AcDbDynamicBlockPurgePreventer
  3
ObjectDBX Classes
 90
    33921
280
     0
281
     0
  0
CLASS
  1
CELLSTYLEMAP
  2
AcDbCellStyleMap
  3
ObjectDBX Classes
 90
     1152
280
     0
281
     0
  0
CLASS
  1
AEC_REFEDIT_STATUS_TRACKER
  2
AecDbRefEditStatusTracker
  3
AecArchBase60|Product Desc: Autodesk Architectural Desktop 2007 |Company: Autodesk,Inc. |WEB Address: www.autodesk.com
 90
      129
280
     0
281
     0
  0
CLASS
  1
NPOCOLLECTION
  2
AcDbImpNonPersistentObjectsCollection
  3
ObjectDBX Classes
 90
     1153
280
     0
281
     0
  0
ENDSEC
  0
SECTION
  2
TABLES
  0
TABLE
  2
VPORT
  5
8
330
0
100
AcDbSymbolTable
 70
     1
  0
VPORT
  5
94
330
8
100
AcDbSymbolTableRecord
100
AcDbViewportTableRecord
  2
*Active
 70
     0
 10
0.0
 20
0.0
 11
1.0
 21
1.0
 12
264.0957103217389
 22
103.4102308716781
 13
0.0
 23
0.0
 14
0.5
 24
0.5
 15
0.5
 25
0.5
 16
0.0
 26
0.0
 36
1.0
 17
0.0
 27
0.0
 37
0.0
 40
285.2363256063277
 41
2.361393323657474
 42
50.0
 43
0.0
 44
0.0
 50
0.0
 51
0.0
 71
     0
 72
  1000
 73
     1
 74
     2
 75
     0
 76
     0
 77
     0
 78
     0
281
     0
 65
     1
110
0.0
120
0.0
130
0.0
111
1.0
121
0.0
131
0.0
112
0.0
122
1.0
132
0.0
 79
     0
146
0.0
  0
ENDTAB
  0
TABLE
  2
LTYPE
  5
5
330
0
100
AcDbSymbolTable
 70
     4
  0
LTYPE
  5
14
330
5
100
AcDbSymbolTableRecord
100
AcDbLinetypeTableRecord
  2
ByBlock
 70
     0
  3

 72
    65
 73
     0
 40
0.0
  0
LTYPE
  5
15
330
5
100
AcDbSymbolTableRecord
100
AcDbLinetypeTableRecord
  2
ByLayer
 70
     0
  3

 72
    65
 73
     0
 40
0.0
  0
LTYPE
  5
16
330
5
100
AcDbSymbolTableRecord
100
AcDbLinetypeTableRecord
  2
Continuous
 70
     0
  3
Solid line
 72
    65
 73
     0
 40
0.0
  0
LTYPE
  5
148
330
5
100
AcDbSymbolTableRecord
100
AcDbLinetypeTableRecord
  2
CENTER
 70
     0
  3
Center ____ _ ____ _ ____ _ ____ _ ____ _ ____
 72
    65
 73
     4
 40
50.8
 49
31.75
 74
     0
 49
-6.349999999999997
 74
     0
 49
6.349999999999997
 74
     0
 49
-6.349999999999997
 74
     0
  0
LTYPE
  5
2020
330
5
100
AcDbSymbolTableRecord
100
AcDbLinetypeTableRecord
  2
PHANTOM
 70
     0
  3
Phantom ______  __  __  ______  __  __  ______
 72
    65
 73
     6
 40
63.5
 49
31.75
 74
     0
 49
-6.349999999999997
 74
     0
 49
6.349999999999997
 74
     0
 49
-6.349999999999997
 74
     0
 49
6.349999999999997
 74
     0
 49
-6.349999999999997
 74
     0
  0
ENDTAB
  0
TABLE
  2
LAYER
  5
2
102
{ACAD_XDICTIONARY
360
DD
102
}
330
0
100
AcDbSymbolTable
 70
     2
  0
LAYER
  5
10
102
{ACAD_XDICTIONARY
360
13AE
102
}
330
2
100
AcDbSymbolTableRecord
100
AcDbLayerTableRecord
  2
0
 70
     0
 62
     7
  6
Continuous
370
    -3
390
F
  0
LAYER
  5
D8
330
2
100
AcDbSymbolTableRecord
100
AcDbLayerTableRecord
  2
Defpoints
 70
     0
 62
     7
  6
Continuous
290
     0
370
    -3
390
F
  0
ENDTAB
  0
TABLE
  2
STYLE
  5
3
330
0
100
AcDbSymbolTable
 70
     6
  0
STYLE
  5
11
330
3
100
AcDbSymbolTableRecord
100
AcDbTextStyleTableRecord
  2
Standard
 70
     0
 40
0.0
 41
1.0
 50
0.0
 71
     0
 42
0.2
  3
txt.shx
  4
bigfont.shx
  0
STYLE
  5
11D
330
3
100
AcDbSymbolTableRecord
100
AcDbTextStyleTableRecord
  2
高3.2
 70
     0
 40
3.2
 41
1.0
 50
0.0
 71
     0
 42
3.2
  3
txt.shx
  4
bigfont.shx
  0
STYLE
  5
11E
330
3
100
AcDbSymbolTableRecord
100
AcDbTextStyleTableRecord
  2
高6.3
 70
     0
 40
6.299999999999998
 41
1.0
 50
0.0
 71
     0
 42
6.299999999999998
  3
txt.shx
  4
bigfont.shx
  0
STYLE
  5
11F
330
3
100
AcDbSymbolTableRecord
100
AcDbTextStyleTableRecord
  2
高2.5
 70
     0
 40
2.5
 41
1.0
 50
0.0
 71
     0
 42
0.2
  3
txt.shx
  4
bigfont.shx
  0
STYLE
  5
146
330
3
100
AcDbSymbolTableRecord
100
AcDbTextStyleTableRecord
  2
高4.5
 70
     0
 40
4.5
 41
1.0
 50
0.0
 71
     0
 42
6.299999999999998
  3
txt.shx
  4
bigfont.shx
  0
STYLE
  5
171
330
3
100
AcDbSymbolTableRecord
100
AcDbTextStyleTableRecord
  2
高2
 70
     0
 40
2.0
 41
1.0
 50
0.0
 71
     0
 42
6.299999999999998
  3
txt.shx
  4
bigfont.shx
  0
ENDTAB
  0
TABLE
  2
VIEW
  5
6
330
0
100
AcDbSymbolTable
 70
     0
  0
ENDTAB
  0
TABLE
  2
UCS
  5
7
330
0
100
AcDbSymbolTable
 70
     0
  0
ENDTAB
  0
TABLE
  2
APPID
  5
9
330
0
100
AcDbSymbolTable
 70
    12
  0
APPID
  5
12
330
9
100
AcDbSymbolTableRecord
100
AcDbRegAppTableRecord
  2
ACAD
 70
     0
  0
APPID
  5
DC
330
9
100
AcDbSymbolTableRecord
100
AcDbRegAppTableRecord
  2
ACAD_DSTYLE_DIMJOGGED_JOGANGLE_SYMBOL
 70
     0
  0
APPID
  5
AB3
330
9
100
AcDbSymbolTableRecord
100
AcDbRegAppTableRecord
  2
ACAD_EXEMPT_FROM_CAD_STANDARDS
 70
     0
  0
APPID
  5
10E8
330
9
100
AcDbSymbolTableRecord
100
AcDbRegAppTableRecord
  2
ACAUTHENVIRON
 70
     0
  0
APPID
  5
10EB
330
9
100
AcDbSymbolTableRecord
100
AcDbRegAppTableRecord
  2
AcDbDynamicBlockTrueName
 70
     0
  0
APPID
  5
10EC
330
9
100
AcDbSymbolTableRecord
100
AcDbRegAppTableRecord
  2
AcDbDynamicBlockGUID
 70
     0
  0
APPID
  5
15F3
330
9
100
AcDbSymbolTableRecord
100
AcDbRegAppTableRecord
  2
ACAD_DSTYLE_DIMARC_LENGTH_SYMBOL
 70
     0
  0
APPID
  5
15F4
330
9
100
AcDbSymbolTableRecord
100
AcDbRegAppTableRecord
  2
ACAD_DSTYLE_DIMEXT_LENGTH
 70
     0
  0
APPID
  5
1609
330
9
100
AcDbSymbolTableRecord
100
AcDbRegAppTableRecord
  2
ACAD_MLEADERVER
 70
     0
  0
APPID
  5
207B
330
9
100
AcDbSymbolTableRecord
100
AcDbRegAppTableRecord
  2
ACAD_DSTYLE_DIMJAG
 70
     0
  0
APPID
  5
207C
330
9
100
AcDbSymbolTableRecord
100
AcDbRegAppTableRecord
  2
ACAD_DSTYLE_DIMBREAK
 70
     0
  0
APPID
  5
207D
330
9
100
AcDbSymbolTableRecord
100
AcDbRegAppTableRecord
  2
ACAD_DSTYLE_DIMTALN
 70
     0
  0
ENDTAB
  0
TABLE
  2
DIMSTYLE
  5
A
330
0
100
AcDbSymbolTable
 70
     2
100
AcDbDimStyleTable
 71
     1
340
128
  0
DIMSTYLE
105
128
330
A
100
AcDbSymbolTableRecord
100
AcDbDimStyleTableRecord
  2
1／2
 70
     0
 41
2.5
 42
0.25
 43
0.2
 44
1.25
 73
     0
 74
     0
 77
     3
 78
     8
 79
     2
140
3.0
141
0.0
143
0.03937007874016
144
2.0
147
0.625
171
     3
172
     1
178
     4
179
     1
271
     2
272
     2
274
     3
283
     0
284
     8
288
     1
289
     0
340
11
341
C6
342
C6
1001
ACAD_DSTYLE_DIMARC_LENGTH_SYMBOL
1070
   379
1070
     2
1001
ACAD_DSTYLE_DIMEXT_LENGTH
1070
   378
1040
1.25
1001
ACAD_DSTYLE_DIMJOGGED_JOGANGLE_SYMBOL
1070
   384
1040
1.570796326794896
  0
DIMSTYLE
105
5A3
330
A
100
AcDbSymbolTableRecord
100
AcDbDimStyleTableRecord
  2
Standard
 70
     0
340
11
  0
ENDTAB
  0
TABLE
  2
BLOCK_RECORD
  5
1
330
0
100
AcDbSymbolTable
 70
     8
  0
BLOCK_RECORD
  5
1F
102
{ACAD_XDICTIONARY
360
AB7
102
}
330
1
100
AcDbSymbolTableRecord
100
AcDbBlockTableRecord
  2
*Model_Space
340
22
  0
BLOCK_RECORD
  5
58
330
1
100
AcDbSymbolTableRecord
100
AcDbBlockTableRecord
  2
*Paper_Space
340
59
  0
BLOCK_RECORD
  5
5D
330
1
100
AcDbSymbolTableRecord
100
AcDbBlockTableRecord
  2
*Paper_Space0
340
5E
  0
BLOCK_RECORD
  5
C6
330
1
100
AcDbSymbolTableRecord
100
AcDbBlockTableRecord
  2
_Open30
340
0
102
{BLKREFS
331
22BB
331
22BC
331
22C4
331
22C5
331
22CD
331
22CE
331
22D6
331
22D7
331
22DF
331
22E0
331
22E8
331
22E9
102
}
  0
BLOCK_RECORD
  5
1166
330
1
100
AcDbSymbolTableRecord
100
AcDbBlockTableRecord
  2
*D2
340
0
  0
BLOCK_RECORD
  5
1190
330
1
100
AcDbSymbolTableRecord
100
AcDbBlockTableRecord
  2
*D3
340
0
  0
BLOCK_RECORD
  5
11B0
330
1
100
AcDbSymbolTableRecord
100
AcDbBlockTableRecord
  2
*D4
340
0
  0
BLOCK_RECORD
  5
11D2
330
1
100
AcDbSymbolTableRecord
100
AcDbBlockTableRecord
  2
*D5
340
0
  0
BLOCK_RECORD
  5
120B
330
1
100
AcDbSymbolTableRecord
100
AcDbBlockTableRecord
  2
*D6
340
0
  0
BLOCK_RECORD
  5
126C
330
1
100
AcDbSymbolTableRecord
100
AcDbBlockTableRecord
  2
*D7
340
0
  0
ENDTAB
  0
ENDSEC
  0
SECTION
  2
BLOCKS
  0
BLOCK
  5
20
330
1F
100
AcDbEntity
  8
0
100
AcDbBlockBegin
  2
*Model_Space
 70
     0
 10
0.0
 20
0.0
 30
0.0
  3
*Model_Space
  1

  0
ENDBLK
  5
21
330
1F
100
AcDbEntity
  8
0
100
AcDbBlockEnd
  0
BLOCK
  5
5A
330
58
100
AcDbEntity
 67
     1
  8
0
100
AcDbBlockBegin
  2
*Paper_Space
 70
     0
 10
0.0
 20
0.0
 30
0.0
  3
*Paper_Space
  1

  0
ENDBLK
  5
5B
330
58
100
AcDbEntity
 67
     1
  8
0
100
AcDbBlockEnd
  0
BLOCK
  5
5F
330
5D
100
AcDbEntity
 67
     1
  8
0
100
AcDbBlockBegin
  2
*Paper_Space0
 70
     0
 10
0.0
 20
0.0
 30
0.0
  3
*Paper_Space0
  1

  0
ENDBLK
  5
60
330
5D
100
AcDbEntity
 67
     1
  8
0
100
AcDbBlockEnd
  0
BLOCK
  5
C7
330
C6
100
AcDbEntity
  8
0
100
AcDbBlockBegin
  2
_Open30
 70
     0
 10
0.0
 20
0.0
 30
0.0
  3
_Open30
  1

  0
LINE
  5
C8
330
C6
100
AcDbEntity
  8
0
  6
ByBlock
 62
     0
370
    -2
100
AcDbLine
 10
-1.0
 20
0.267949
 30
0.0
 11
0.0
 21
0.0
 31
0.0
  0
LINE
  5
C9
330
C6
100
AcDbEntity
  8
0
  6
ByBlock
 62
     0
370
    -2
100
AcDbLine
 10
0.0
 20
0.0
 30
0.0
 11
-1.0
 21
-0.267949
 31
0.0
  0
LINE
  5
CA
330
C6
100
AcDbEntity
  8
0
  6
ByBlock
 62
     0
370
    -2
100
AcDbLine
 10
0.0
 20
0.0
 30
0.0
 11
-1.0
 21
0.0
 31
0.0
  0
ENDBLK
  5
CB
330
C6
100
AcDbEntity
  8
0
100
AcDbBlockEnd
  0
BLOCK
  5
1167
330
1166
100
AcDbEntity
  8
0
100
AcDbBlockBegin
  2
*D2
 70
     1
 10
0.0
 20
0.0
 30
0.0
  3
*D2
  1

  0
LINE
  5
22B8
330
1166
100
AcDbEntity
  8
0
 62
     0
370
    -2
100
AcDbLine
 10
180.873582373866
 20
104.1885497043397
 30
0.0
 11
167.6538676149309
 21
104.1885497043397
 31
0.0
  0
LINE
  5
22B9
330
1166
100
AcDbEntity
  8
0
 62
     0
370
    -2
100
AcDbLine
 10
180.873582373866
 20
134.1885497043397
 30
0.0
 11
167.6538676149309
 21
134.1885497043397
 31
0.0
  0
LINE
  5
22BA
330
1166
100
AcDbEntity
  8
0
 62
     0
370
    -2
100
AcDbLine
 10
168.9038676149309
 20
106.6885497043397
 30
0.0
 11
168.9038676149309
 21
131.6885497043397
 31
0.0
  0
INSERT
  5
22BB
330
1166
100
AcDbEntity
  8
0
 62
     0
370
    -2
100
AcDbBlockReference
  2
_Open30
 10
168.9038676149309
 20
104.1885497043397
 30
0.0
 41
2.5
 42
2.5
 43
2.5
 50
270.0
  0
INSERT
  5
22BC
330
1166
100
AcDbEntity
  8
0
 62
     0
370
    -2
100
AcDbBlockReference
  2
_Open30
 10
168.9038676149309
 20
134.1885497043397
 30
0.0
 41
2.5
 42
2.5
 43
2.5
 50
90.0
  0
MTEXT
  5
22BD
330
1166
100
AcDbEntity
  8
0
 62
     4
100
AcDbMText
 10
166.7788676149309
 20
118.8194873381479
 30
0.0
 40
3.0
 41
0.0
 71
     5
 72
     1
  1
(MAX60)
 11
0.0000000000000001
 21
1.0
 31
0.0
 73
     1
 44
1.0
1001
ACAD
1000
MTEXTBEGIN
1070
    73
1070
     1
1070
    44
1040
1.0
1070
    74
1070
     0
1000
MTEXTEND
  0
POINT
  5
22BE
330
1166
100
AcDbEntity
  8
Defpoints
 62
     0
100
AcDbPoint
 10
181.1235823738661
 20
104.1885497043397
 30
0.0
  0
POINT
  5
22BF
330
1166
100
AcDbEntity
  8
Defpoints
 62
     0
100
AcDbPoint
 10
181.1235823738661
 20
134.1885497043397
 30
0.0
  0
POINT
  5
22C0
330
1166
100
AcDbEntity
  8
Defpoints
 62
     0
100
AcDbPoint
 10
168.9038676149309
 20
134.1885497043397
 30
0.0
  0
ENDBLK
  5
1168
330
1166
100
AcDbEntity
  8
0
100
AcDbBlockEnd
  0
BLOCK
  5
1191
330
1190
100
AcDbEntity
  8
0
100
AcDbBlockBegin
  2
*D3
 70
     1
 10
0.0
 20
0.0
 30
0.0
  3
*D3
  1

  0
LINE
  5
22C1
330
1190
100
AcDbEntity
  8
0
 62
     0
370
    -2
100
AcDbLine
 10
188.1235823980805
 20
157.7343327174451
 30
0.0
 11
157.7179493752373
 21
157.7343327174451
 31
0.0
  0
LINE
  5
22C2
330
1190
100
AcDbEntity
  8
0
 62
     0
370
    -2
100
AcDbLine
 10
180.873582373866
 20
72.68854800560735
 30
0.0
 11
157.7179493752373
 21
72.68854800560736
 31
0.0
  0
LINE
  5
22C3
330
1190
100
AcDbEntity
  8
0
 62
     0
370
    -2
100
AcDbLine
 10
158.9679493752373
 20
155.2343327174451
 30
0.0
 11
158.9679493752373
 21
75.18854800560736
 31
0.0
  0
INSERT
  5
22C4
330
1190
100
AcDbEntity
  8
0
 62
     0
370
    -2
100
AcDbBlockReference
  2
_Open30
 10
158.9679493752373
 20
157.7343327174451
 30
0.0
 41
2.5
 42
2.5
 43
2.5
 50
90.0
  0
INSERT
  5
22C5
330
1190
100
AcDbEntity
  8
0
 62
     0
370
    -2
100
AcDbBlockReference
  2
_Open30
 10
158.9679493752373
 20
72.68854800560736
 30
0.0
 41
2.5
 42
2.5
 43
2.5
 50
270.0
  0
MTEXT
  5
22C6
330
1190
100
AcDbEntity
  8
0
 62
     4
100
AcDbMText
 10
156.8429493752373
 20
115.2614412079122
 30
0.0
 40
3.0
 41
0.0
 71
     5
 72
     1
  1
170.1
 11
0.0000000000000001
 21
1.0
 31
0.0
 73
     1
 44
1.0
1001
ACAD
1000
MTEXTBEGIN
1070
    73
1070
     1
1070
    44
1040
1.0
1070
    74
1070
     0
1000
MTEXTEND
  0
POINT
  5
22C7
330
1190
100
AcDbEntity
  8
Defpoints
 62
     0
100
AcDbPoint
 10
188.3735823980805
 20
157.7343327174451
 30
0.0
  0
POINT
  5
22C8
330
1190
100
AcDbEntity
  8
Defpoints
 62
     0
100
AcDbPoint
 10
181.1235823738661
 20
72.68854800560735
 30
0.0
  0
POINT
  5
22C9
330
1190
100
AcDbEntity
  8
Defpoints
 62
     0
100
AcDbPoint
 10
158.9679493752373
 20
72.68854800560736
 30
0.0
  0
ENDBLK
  5
1192
330
1190
100
AcDbEntity
  8
0
100
AcDbBlockEnd
  0
BLOCK
  5
11B1
330
11B0
100
AcDbEntity
  8
0
100
AcDbBlockBegin
  2
*D4
 70
     1
 10
0.0
 20
0.0
 30
0.0
  3
*D4
  1

  0
LINE
  5
22CA
330
11B0
100
AcDbEntity
  8
0
 62
     0
370
    -2
100
AcDbLine
 10
181.1235823142608
 20
135.038551071388
 30
0.0
 11
181.1235823142608
 21
173.1655850247512
 31
0.0
  0
LINE
  5
22CB
330
11B0
100
AcDbEntity
  8
0
 62
     0
370
    -2
100
AcDbLine
 10
192.1235823142615
 20
172.0477450371545
 30
0.0
 11
192.1235823142615
 21
173.1655850247512
 31
0.0
  0
LINE
  5
22CC
330
11B0
100
AcDbEntity
  8
0
 62
     0
370
    -2
100
AcDbLine
 10
183.6235823142608
 20
171.9155850247512
 30
0.0
 11
189.6235823142615
 21
171.9155850247512
 31
0.0
  0
INSERT
  5
22CD
330
11B0
100
AcDbEntity
  8
0
 62
     0
370
    -2
100
AcDbBlockReference
  2
_Open30
 10
181.1235823142608
 20
171.9155850247512
 30
0.0
 41
2.5
 42
2.5
 43
2.5
 50
180.0
  0
INSERT
  5
22CE
330
11B0
100
AcDbEntity
  8
0
 62
     0
370
    -2
100
AcDbBlockReference
  2
_Open30
 10
192.1235823142615
 20
171.9155850247512
 30
0.0
 41
2.5
 42
2.5
 43
2.5
  0
MTEXT
  5
22CF
330
11B0
100
AcDbEntity
  8
0
 62
     4
100
AcDbMText
 10
186.4173121323681
 20
174.0405850247512
 30
0.0
 40
3.0
 41
0.0
 71
     5
 72
     1
  1
22
 73
     1
 44
1.0
1001
ACAD
1000
MTEXTBEGIN
1070
    73
1070
     1
1070
    44
1040
1.0
1070
    74
1070
     0
1000
MTEXTEND
  0
POINT
  5
22D0
330
11B0
100
AcDbEntity
  8
Defpoints
 62
     0
100
AcDbPoint
 10
181.1235823142608
 20
134.788551071388
 30
0.0
  0
POINT
  5
22D1
330
11B0
100
AcDbEntity
  8
Defpoints
 62
     0
100
AcDbPoint
 10
192.1235823142615
 20
171.7977450371545
 30
0.0
  0
POINT
  5
22D2
330
11B0
100
AcDbEntity
  8
Defpoints
 62
     0
100
AcDbPoint
 10
192.1235823142615
 20
171.9155850247512
 30
0.0
  0
ENDBLK
  5
11B2
330
11B0
100
AcDbEntity
  8
0
100
AcDbBlockEnd
  0
BLOCK
  5
11D3
330
11D2
100
AcDbEntity
  8
0
100
AcDbBlockBegin
  2
*D5
 70
     1
 10
0.0
 20
0.0
 30
0.0
  3
*D5
  1

  0
LINE
  5
22D3
330
11D2
100
AcDbEntity
  8
0
 62
     0
370
    -2
100
AcDbLine
 10
215.1235823142608
 20
131.9899011098324
 30
0.0
 11
215.1235823142608
 21
179.7522099777438
 31
0.0
  0
LINE
  5
22D4
330
11D2
100
AcDbEntity
  8
0
 62
     0
370
    -2
100
AcDbLine
 10
181.1235823142608
 20
135.038551071388
 30
0.0
 11
181.1235823142608
 21
179.7522099777438
 31
0.0
  0
LINE
  5
22D5
330
11D2
100
AcDbEntity
  8
0
 62
     0
370
    -2
100
AcDbLine
 10
212.6235823142608
 20
178.5022099777438
 30
0.0
 11
183.6235823142608
 21
178.5022099777438
 31
0.0
  0
INSERT
  5
22D6
330
11D2
100
AcDbEntity
  8
0
 62
     0
370
    -2
100
AcDbBlockReference
  2
_Open30
 10
215.1235823142608
 20
178.5022099777438
 30
0.0
 41
2.5
 42
2.5
 43
2.5
  0
INSERT
  5
22D7
330
11D2
100
AcDbEntity
  8
0
 62
     0
370
    -2
100
AcDbBlockReference
  2
_Open30
 10
181.1235823142608
 20
178.5022099777438
 30
0.0
 41
2.5
 42
2.5
 43
2.5
 50
180.0
  0
MTEXT
  5
22D8
330
11D2
100
AcDbEntity
  8
0
 62
     4
100
AcDbMText
 10
197.0994328164943
 20
180.6272099777438
 30
0.0
 40
3.0
 41
0.0
 71
     5
 72
     1
  1
68
 73
     1
 44
1.0
1001
ACAD
1000
MTEXTBEGIN
1070
    73
1070
     1
1070
    44
1040
1.0
1070
    74
1070
     0
1000
MTEXTEND
  0
POINT
  5
22D9
330
11D2
100
AcDbEntity
  8
Defpoints
 62
     0
100
AcDbPoint
 10
215.1235823142608
 20
131.7399011098324
 30
0.0
  0
POINT
  5
22DA
330
11D2
100
AcDbEntity
  8
Defpoints
 62
     0
100
AcDbPoint
 10
181.1235823142608
 20
134.788551071388
 30
0.0
  0
POINT
  5
22DB
330
11D2
100
AcDbEntity
  8
Defpoints
 62
     0
100
AcDbPoint
 10
181.1235823142608
 20
178.5022099777438
 30
0.0
  0
ENDBLK
  5
11D4
330
11D2
100
AcDbEntity
  8
0
100
AcDbBlockEnd
  0
BLOCK
  5
120C
330
120B
100
AcDbEntity
  8
0
100
AcDbBlockBegin
  2
*D6
 70
     1
 10
0.0
 20
0.0
 30
0.0
  3
*D6
  1

  0
LINE
  5
22DC
330
120B
100
AcDbEntity
  8
0
 62
     0
370
    -2
100
AcDbLine
 10
180.873582373866
 20
134.1885497043397
 30
0.0
 11
167.6538676149309
 21
134.1885497043397
 31
0.0
  0
LINE
  5
22DD
330
120B
100
AcDbEntity
  8
0
 62
     0
370
    -2
100
AcDbLine
 10
188.1235823980805
 20
157.7343327174451
 30
0.0
 11
167.6538676149309
 21
157.7343327174451
 31
0.0
  0
LINE
  5
22DE
330
120B
100
AcDbEntity
  8
0
 62
     0
370
    -2
100
AcDbLine
 10
168.9038676149309
 20
136.6885497043397
 30
0.0
 11
168.9038676149309
 21
155.2343327174451
 31
0.0
  0
INSERT
  5
22DF
330
120B
100
AcDbEntity
  8
0
 62
     0
370
    -2
100
AcDbBlockReference
  2
_Open30
 10
168.9038676149309
 20
134.1885497043397
 30
0.0
 41
2.5
 42
2.5
 43
2.5
 50
270.0
  0
INSERT
  5
22E0
330
120B
100
AcDbEntity
  8
0
 62
     0
370
    -2
100
AcDbBlockReference
  2
_Open30
 10
168.9038676149309
 20
157.7343327174451
 30
0.0
 41
2.5
 42
2.5
 43
2.5
 50
90.0
  0
MTEXT
  5
22E1
330
120B
100
AcDbEntity
  8
0
 62
     4
100
AcDbMText
 10
166.7788676149309
 20
147.7025112927225
 30
0.0
 40
3.0
 41
0.0
 71
     5
 72
     1
  1
47.1
 11
0.0000000000000001
 21
1.0
 31
0.0
 73
     1
 44
1.0
1001
ACAD
1000
MTEXTBEGIN
1070
    73
1070
     1
1070
    44
1040
1.0
1070
    74
1070
     0
1000
MTEXTEND
  0
POINT
  5
22E2
330
120B
100
AcDbEntity
  8
Defpoints
 62
     0
100
AcDbPoint
 10
181.1235823738661
 20
134.1885497043397
 30
0.0
  0
POINT
  5
22E3
330
120B
100
AcDbEntity
  8
Defpoints
 62
     0
100
AcDbPoint
 10
188.3735823980805
 20
157.7343327174451
 30
0.0
  0
POINT
  5
22E4
330
120B
100
AcDbEntity
  8
Defpoints
 62
     0
100
AcDbPoint
 10
168.9038676149309
 20
157.7343327174451
 30
0.0
  0
ENDBLK
  5
120D
330
120B
100
AcDbEntity
  8
0
100
AcDbBlockEnd
  0
BLOCK
  5
126D
330
126C
100
AcDbEntity
  8
0
100
AcDbBlockBegin
  2
*D7
 70
     1
 10
0.0
 20
0.0
 30
0.0
  3
*D7
  1

  0
LINE
  5
22E5
330
126C
100
AcDbEntity
  8
0
 62
     0
370
    -2
100
AcDbLine
 10
135.6847590327699
 20
133.0524987811713
 30
0.0
 11
135.6847590327699
 21
63.92742696444088
 31
0.0
  0
LINE
  5
22E6
330
126C
100
AcDbEntity
  8
0
 62
     0
370
    -2
100
AcDbLine
 10
118.6848887363907
 20
133.038551071388
 30
0.0
 11
118.6848887363907
 21
63.92742696444088
 31
0.0
  0
LINE
  5
22E7
330
126C
100
AcDbEntity
  8
0
 62
     0
370
    -2
100
AcDbLine
 10
133.1847590327699
 20
65.17742696444088
 30
0.0
 11
121.1848887363907
 21
65.17742696444088
 31
0.0
  0
INSERT
  5
22E8
330
126C
100
AcDbEntity
  8
0
 62
     0
370
    -2
100
AcDbBlockReference
  2
_Open30
 10
135.6847590327699
 20
65.17742696444088
 30
0.0
 41
2.5
 42
2.5
 43
2.5
  0
INSERT
  5
22E9
330
126C
100
AcDbEntity
  8
0
 62
     0
370
    -2
100
AcDbBlockReference
  2
_Open30
 10
118.6848887363907
 20
65.17742696444088
 30
0.0
 41
2.5
 42
2.5
 43
2.5
 50
180.0
  0
MTEXT
  5
22EA
330
126C
100
AcDbEntity
  8
0
 62
     4
100
AcDbMText
 10
127.2113317602332
 20
67.30242696444088
 30
0.0
 40
3.0
 41
0.0
 71
     5
 72
     1
  1
34
 73
     1
 44
1.0
1001
ACAD
1000
MTEXTBEGIN
1070
    73
1070
     1
1070
    44
1040
1.0
1070
    74
1070
     0
1000
MTEXTEND
  0
POINT
  5
22EB
330
126C
100
AcDbEntity
  8
Defpoints
 62
     0
100
AcDbPoint
 10
135.6847590327699
 20
133.3024987811713
 30
0.0
  0
POINT
  5
22EC
330
126C
100
AcDbEntity
  8
Defpoints
 62
     0
100
AcDbPoint
 10
118.6848887363907
 20
133.288551071388
 30
0.0
  0
POINT
  5
22ED
330
126C
100
AcDbEntity
  8
Defpoints
 62
     0
100
AcDbPoint
 10
118.6848887363907
 20
65.17742696444088
 30
0.0
  0
ENDBLK
  5
126E
330
126C
100
AcDbEntity
  8
0
100
AcDbBlockEnd
  0
ENDSEC
  0
SECTION
  2
ENTITIES
  0
TEXT
  5
A8A
330
1F
100
AcDbEntity
  8
0
 62
     3
100
AcDbText
 10
88.35510594576795
 20
11.15660143600527
 30
0.0
 40
3.2
  1
備考
 41
0.8
  7
高3.2
100
AcDbText
  0
TEXT
  5
A8B
330
1F
100
AcDbEntity
  8
0
 62
     3
100
AcDbText
 10
75.99437921331329
 20
11.15660143600527
 30
0.0
 40
3.2
  1
材質
 41
0.8
  7
高3.2
100
AcDbText
  0
TEXT
  5
A8C
330
1F
100
AcDbEntity
  8
0
 62
     3
100
AcDbText
 10
105.9105365280719
 20
11.15660143600527
 30
0.0
 40
3.2
  1
個数
 41
0.8
  7
高3.2
100
AcDbText
  0
TEXT
  5
A8D
330
1F
100
AcDbEntity
  8
0
 62
     3
100
AcDbText
 10
46.37226256088212
 20
11.15660143600527
 30
0.0
 40
3.2
  1
No
 41
0.8
  7
高3.2
100
AcDbText
  0
TEXT
  5
A8E
330
1F
100
AcDbEntity
  8
0
 62
     3
100
AcDbText
 10
52.39960294895092
 20
11.15660143600527
 30
0.0
 40
3.2
  1
部品名
 41
0.8
  7
高3.2
100
AcDbText
  0
LINE
  5
A8F
330
1F
100
AcDbEntity
  8
0
 62
     7
100
AcDbLine
 10
112.6689193093848
 20
50.65660143600528
 30
0.0
 11
112.6689193093848
 21
10.65660143600527
 31
0.0
  0
LINE
  5
A90
330
1F
100
AcDbEntity
  8
0
 62
     7
100
AcDbLine
 10
86.85510594576795
 20
10.65660143600527
 30
0.0
 11
86.85510594576795
 21
50.65660143600528
 31
0.0
  0
TEXT
  5
A92
330
1F
100
AcDbEntity
  8
0
 62
     3
100
AcDbText
 10
88.35510594576795
 20
16.15660143600527
 30
0.0
 40
3.2
  1
黒
 41
0.8
  7
高3.2
100
AcDbText
  0
LINE
  5
A95
330
1F
100
AcDbEntity
  8
0
 62
     7
100
AcDbLine
 10
50.89960294895092
 20
50.65660143600528
 30
0.0
 11
50.89960294895092
 21
10.65660143600527
 31
0.0
  0
TEXT
  5
A96
330
1F
100
AcDbEntity
  8
0
 62
     3
100
AcDbText
 10
46.37226256088212
 20
16.15660143600527
 30
0.0
 40
3.2
  1
1
 41
0.8
  7
高3.2
100
AcDbText
  0
LINE
  5
A9B
330
1F
100
AcDbEntity
  8
0
 62
     7
100
AcDbLine
 10
104.4105365280719
 20
10.65660143600527
 30
0.0
 11
104.4105365280719
 21
50.65660143600528
 31
0.0
  0
LINE
  5
A9C
330
1F
100
AcDbEntity
  8
0
 62
     7
100
AcDbLine
 10
74.49437921331329
 20
10.65660143600527
 30
0.0
 11
74.49437921331329
 21
50.65660143600528
 31
0.0
  0
TEXT
  5
A9D
330
1F
100
AcDbEntity
  8
0
 62
     3
100
AcDbText
 10
105.9105365280719
 20
16.15660143600527
 30
0.0
 40
3.2
  1
1
 41
0.8
  7
高3.2
100
AcDbText
  0
TEXT
  5
AA1
330
1F
100
AcDbEntity
  8
0
 62
     3
100
AcDbText
 10
75.99437921331329
 20
16.15660143600527
 30
0.0
 40
3.2
  1
ADC
 41
0.8
  7
高3.2
100
AcDbText
  0
TEXT
  5
AA5
330
1F
100
AcDbEntity
  8
0
 62
     3
100
AcDbText
 10
52.39960294895093
 20
16.15660143600527
 30
0.0
 40
3.2
  1
バイスフレーム
 41
0.8
  7
高3.2
100
AcDbText
  0
TEXT
  5
AA8
330
1F
100
AcDbEntity
  8
0
 62
     3
100
AcDbText
 10
114.1689193093848
 20
11.15660143600527
 30
0.0
 40
3.2
  1
コード
 41
0.8
  7
高3.2
100
AcDbText
  0
LINE
  5
AA9
330
1F
100
AcDbEntity
  8
0
 62
     3
100
AcDbLine
 10
127.9763748348992
 20
50.65660143600528
 30
0.0
 11
127.9763748348992
 21
10.65660143600527
 31
0.0
  0
TEXT
  5
AB2
330
1F
100
AcDbEntity
  8
0
 62
     3
100
AcDbText
 10
114.1689193093848
 20
16.15660143600527
 30
0.0
 40
3.2
  1
-
 41
0.8
  7
高3.2
100
AcDbText
  0
TEXT
  5
ABF
330
1F
100
AcDbEntity
  8
0
 62
     3
100
AcDbText
 10
88.35510594576795
 20
21.15660143600528
 30
0.0
 40
3.2
  1
クロメート
 41
0.8
  7
高3.2
100
AcDbText
  0
TEXT
  5
AC0
330
1F
100
AcDbEntity
  8
0
 62
     3
100
AcDbText
 10
46.37226256088212
 20
21.15660143600528
 30
0.0
 40
3.2
  1
2
 41
0.8
  7
高3.2
100
AcDbText
  0
TEXT
  5
AC1
330
1F
100
AcDbEntity
  8
0
 62
     3
100
AcDbText
 10
105.9105365280719
 20
21.15660143600528
 30
0.0
 40
3.2
  1
1
 41
0.8
  7
高3.2
100
AcDbText
  0
TEXT
  5
AC2
330
1F
100
AcDbEntity
  8
0
 62
     3
100
AcDbText
 10
75.99437921331329
 20
21.15660143600528
 30
0.0
 40
3.2
  1
-
 41
0.8
  7
高3.2
100
AcDbText
  0
TEXT
  5
AC3
330
1F
100
AcDbEntity
  8
0
 62
     3
100
AcDbText
 10
52.39960294895093
 20
21.15660143600528
 30
0.0
 40
3.2
  1
締め付けねじ
 41
0.8
  7
高3.2
100
AcDbText
  0
TEXT
  5
AC4
330
1F
100
AcDbEntity
  8
0
 62
     3
100
AcDbText
 10
114.1689193093848
 20
21.15660143600528
 30
0.0
 40
3.2
  1
-
 41
0.8
  7
高3.2
100
AcDbText
  0
TEXT
  5
AC5
330
1F
100
AcDbEntity
  8
0
 62
     3
100
AcDbText
 10
88.35510594576795
 20
26.15660143600528
 30
0.0
 40
3.2
  1
黒
 41
0.8
  7
高3.2
100
AcDbText
  0
TEXT
  5
AC6
330
1F
100
AcDbEntity
  8
0
 62
     3
100
AcDbText
 10
46.37226256088212
 20
26.15660143600528
 30
0.0
 40
3.2
  1
3
 41
0.8
  7
高3.2
100
AcDbText
  0
TEXT
  5
AC7
330
1F
100
AcDbEntity
  8
0
 62
     3
100
AcDbText
 10
105.9105365280719
 20
26.15660143600528
 30
0.0
 40
3.2
  1
1
 41
0.8
  7
高3.2
100
AcDbText
  0
TEXT
  5
AC8
330
1F
100
AcDbEntity
  8
0
 62
     3
100
AcDbText
 10
75.99437921331329
 20
26.15660143600528
 30
0.0
 40
3.2
  1
ADC
 41
0.8
  7
高3.2
100
AcDbText
  0
TEXT
  5
AC9
330
1F
100
AcDbEntity
  8
0
 62
     3
100
AcDbText
 10
52.39960294895093
 20
26.15660143600528
 30
0.0
 40
3.2
  1
クランプ金具
 41
0.8
  7
高3.2
100
AcDbText
  0
TEXT
  5
ACA
330
1F
100
AcDbEntity
  8
0
 62
     3
100
AcDbText
 10
114.1689193093848
 20
26.15660143600528
 30
0.0
 40
3.2
  1
-
 41
0.8
  7
高3.2
100
AcDbText
  0
TEXT
  5
ACB
330
1F
100
AcDbEntity
  8
0
 62
     3
100
AcDbText
 10
88.35510594576795
 20
31.15660143600528
 30
0.0
 40
3.2
  1
M3x5
 41
0.8
  7
高3.2
100
AcDbText
  0
TEXT
  5
ACC
330
1F
100
AcDbEntity
  8
0
 62
     3
100
AcDbText
 10
46.37226256088212
 20
31.15660143600528
 30
0.0
 40
3.2
  1
4
 41
0.8
  7
高3.2
100
AcDbText
  0
TEXT
  5
ACD
330
1F
100
AcDbEntity
  8
0
 62
     3
100
AcDbText
 10
105.9105365280719
 20
31.15660143600528
 30
0.0
 40
3.2
  1
1
 41
0.8
  7
高3.2
100
AcDbText
  0
TEXT
  5
ACE
330
1F
100
AcDbEntity
  8
0
 62
     3
100
AcDbText
 10
75.99437921331329
 20
31.15660143600528
 30
0.0
 40
3.2
  1
-
 41
0.8
  7
高3.2
100
AcDbText
  0
TEXT
  5
ACF
330
1F
100
AcDbEntity
  8
0
 62
     3
100
AcDbText
 10
52.39960294895093
 20
31.15660143600528
 30
0.0
 40
3.2
  1
抜止ネジ
 41
0.8
  7
高3.2
100
AcDbText
  0
TEXT
  5
AD0
330
1F
100
AcDbEntity
  8
0
 62
     3
100
AcDbText
 10
114.1689193093848
 20
31.15660143600528
 30
0.0
 40
3.2
  1
-
 41
0.8
  7
高3.2
100
AcDbText
  0
TEXT
  5
AD1
330
1F
100
AcDbEntity
  8
0
 62
     3
100
AcDbText
 10
88.35510594576795
 20
36.15660143600528
 30
0.0
 40
3.2
  1
M10x15
 41
0.8
  7
高3.2
100
AcDbText
  0
TEXT
  5
AD2
330
1F
100
AcDbEntity
  8
0
 62
     3
100
AcDbText
 10
46.37226256088212
 20
36.15660143600528
 30
0.0
 40
3.2
  1
5
 41
0.8
  7
高3.2
100
AcDbText
  0
TEXT
  5
AD3
330
1F
100
AcDbEntity
  8
0
 62
     3
100
AcDbText
 10
105.9105365280719
 20
36.15660143600528
 30
0.0
 40
3.2
  1
1
 41
0.8
  7
高3.2
100
AcDbText
  0
TEXT
  5
AD4
330
1F
100
AcDbEntity
  8
0
 62
     3
100
AcDbText
 10
75.99437921331329
 20
36.15660143600528
 30
0.0
 40
3.2
  1
-
 41
0.8
  7
高3.2
100
AcDbText
  0
TEXT
  5
AD5
330
1F
100
AcDbEntity
  8
0
 62
     3
100
AcDbText
 10
52.39960294895093
 20
36.15660143600528
 30
0.0
 40
3.2
  1
ノブボルト
 41
0.8
  7
高3.2
100
AcDbText
  0
TEXT
  5
AD6
330
1F
100
AcDbEntity
  8
0
 62
     3
100
AcDbText
 10
114.1689193093848
 20
36.15660143600528
 30
0.0
 40
3.2
  1
-
 41
0.8
  7
高3.2
100
AcDbText
  0
TEXT
  5
AD7
330
1F
100
AcDbEntity
  8
0
 62
     3
100
AcDbText
 10
88.35510594576795
 20
41.15660143600528
 30
0.0
 40
3.2
  1
呼び10
 41
0.8
  7
高3.2
100
AcDbText
  0
TEXT
  5
AD8
330
1F
100
AcDbEntity
  8
0
 62
     3
100
AcDbText
 10
46.37226256088212
 20
41.15660143600528
 30
0.0
 40
3.2
  1
6
 41
0.8
  7
高3.2
100
AcDbText
  0
TEXT
  5
AD9
330
1F
100
AcDbEntity
  8
0
 62
     3
100
AcDbText
 10
105.9105365280719
 20
41.15660143600528
 30
0.0
 40
3.2
  1
1
 41
0.8
  7
高3.2
100
AcDbText
  0
TEXT
  5
ADA
330
1F
100
AcDbEntity
  8
0
 62
     3
100
AcDbText
 10
75.99437921331329
 20
41.15660143600528
 30
0.0
 40
3.2
  1
-
 41
0.8
  7
高3.2
100
AcDbText
  0
TEXT
  5
ADB
330
1F
100
AcDbEntity
  8
0
 62
     3
100
AcDbText
 10
52.39960294895093
 20
41.15660143600528
 30
0.0
 40
3.2
  1
Sワッシャー
 41
0.8
  7
高3.2
100
AcDbText
  0
TEXT
  5
ADC
330
1F
100
AcDbEntity
  8
0
 62
     3
100
AcDbText
 10
114.1689193093848
 20
41.15660143600528
 30
0.0
 40
3.2
  1
-
 41
0.8
  7
高3.2
100
AcDbText
  0
TEXT
  5
ADD
330
1F
100
AcDbEntity
  8
0
 62
     3
100
AcDbText
 10
88.35510594576795
 20
46.15660143600528
 30
0.0
 40
3.2
  1
呼び10
 41
0.8
  7
高3.2
100
AcDbText
  0
TEXT
  5
ADE
330
1F
100
AcDbEntity
  8
0
 62
     3
100
AcDbText
 10
46.37226256088212
 20
46.15660143600528
 30
0.0
 40
3.2
  1
7
 41
0.8
  7
高3.2
100
AcDbText
  0
TEXT
  5
ADF
330
1F
100
AcDbEntity
  8
0
 62
     3
100
AcDbText
 10
105.9105365280719
 20
46.15660143600528
 30
0.0
 40
3.2
  1
1
 41
0.8
  7
高3.2
100
AcDbText
  0
TEXT
  5
AE0
330
1F
100
AcDbEntity
  8
0
 62
     3
100
AcDbText
 10
75.99437921331329
 20
46.15660143600528
 30
0.0
 40
3.2
  1
-
 41
0.8
  7
高3.2
100
AcDbText
  0
TEXT
  5
AE1
330
1F
100
AcDbEntity
  8
0
 62
     3
100
AcDbText
 10
52.39960294895093
 20
46.15660143600528
 30
0.0
 40
3.2
  1
平ワッシャー
 41
0.8
  7
高3.2
100
AcDbText
  0
TEXT
  5
AE2
330
1F
100
AcDbEntity
  8
0
 62
     3
100
AcDbText
 10
114.1689193093848
 20
46.15660143600528
 30
0.0
 40
3.2
  1
-
 41
0.8
  7
高3.2
100
AcDbText
  0
LINE
  5
AE4
330
1F
100
AcDbEntity
  8
0
100
AcDbLine
 10
127.9763748348992
 20
15.65660143600527
 30
0.0
 11
44.87226256088212
 21
15.65660143600527
 31
0.0
  0
LINE
  5
AE5
330
1F
100
AcDbEntity
  8
0
100
AcDbLine
 10
127.9763748348992
 20
20.65660143600527
 30
0.0
 11
44.87226256088212
 21
20.65660143600528
 31
0.0
  0
LINE
  5
AE6
330
1F
100
AcDbEntity
  8
0
100
AcDbLine
 10
127.9763748348992
 20
25.65660143600528
 30
0.0
 11
44.87226256088212
 21
25.65660143600528
 31
0.0
  0
LINE
  5
AE7
330
1F
100
AcDbEntity
  8
0
100
AcDbLine
 10
127.9763748348992
 20
30.65660143600528
 30
0.0
 11
44.87226256088212
 21
30.65660143600528
 31
0.0
  0
LINE
  5
AE8
330
1F
100
AcDbEntity
  8
0
100
AcDbLine
 10
127.9763748348992
 20
35.65660143600528
 30
0.0
 11
44.87226256088212
 21
35.65660143600528
 31
0.0
  0
LINE
  5
AE9
330
1F
100
AcDbEntity
  8
0
100
AcDbLine
 10
127.9763748348992
 20
40.65660143600527
 30
0.0
 11
44.87226256088212
 21
40.65660143600527
 31
0.0
  0
LINE
  5
AEA
330
1F
100
AcDbEntity
  8
0
100
AcDbLine
 10
127.9763748348992
 20
45.65660143600527
 30
0.0
 11
44.87226256088212
 21
45.65660143600527
 31
0.0
  0
LINE
  5
AEB
330
1F
100
AcDbEntity
  8
0
 62
     3
100
AcDbLine
 10
127.9763748348992
 20
50.65660143600528
 30
0.0
 11
44.87226256088212
 21
50.65660143600528
 31
0.0
  0
LINE
  5
11A7
330
1F
100
AcDbEntity
  8
0
  6
CENTER
100
AcDbLine
 10
192.1235823142615
 20
171.7977450371545
 30
0.0
 11
192.1235823142615
 21
45.63711115931893
 31
0.0
  0
CIRCLE
  5
1283
330
1F
100
AcDbEntity
  8
0
 62
     7
100
AcDbCircle
 10
234.057527654386
 20
112.0834954421389
 30
0.0
 40
5.0
  0
TEXT
  5
1284
330
1F
100
AcDbEntity
  8
0
 62
     4
100
AcDbText
 10
233.0803613569852
 20
108.9610673808211
 30
0.0
 40
6.299999999999998
  1
1
  7
高6.3
100
AcDbText
  0
CIRCLE
  5
1285
330
1F
100
AcDbEntity
  8
0
 62
     7
100
AcDbCircle
 10
234.285170549025
 20
124.5281731452545
 30
0.0
 40
5.0
  0
TEXT
  5
1286
330
1F
100
AcDbEntity
  8
0
 62
     4
100
AcDbText
 10
232.0934617782068
 20
121.5035276488769
 30
0.0
 40
6.299999999999998
  1
2
  7
高6.3
100
AcDbText
  0
CIRCLE
  5
1287
330
1F
100
AcDbEntity
  8
0
 62
     7
100
AcDbCircle
 10
234.0919891765414
 20
135.9112424581493
 30
0.0
 40
5.0
  0
TEXT
  5
1288
330
1F
100
AcDbEntity
  8
0
 62
     4
100
AcDbText
 10
231.8509428679536
 20
132.7081176198976
 30
0.0
 40
6.299999999999998
  1
3
  7
高6.3
100
AcDbText
  0
CIRCLE
  5
1289
330
1F
100
AcDbEntity
  8
0
 62
     7
100
AcDbCircle
 10
98.46053222447945
 20
125.9170339953825
 30
0.0
 40
5.0
  0
TEXT
  5
128A
330
1F
100
AcDbEntity
  8
0
 62
     4
100
AcDbText
 10
95.97370208489728
 20
122.8362313904181
 30
0.0
 40
6.299999999999998
  1
4
  7
高6.3
100
AcDbText
  0
CIRCLE
  5
128D
330
1F
100
AcDbEntity
  8
0
 62
     7
100
AcDbCircle
 10
97.58846109186329
 20
175.3657537330239
 30
0.0
 40
5.0
  0
TEXT
  5
128E
330
1F
100
AcDbEntity
  8
0
 62
     4
100
AcDbText
 10
95.10163095228113
 20
172.2849511280595
 30
0.0
 40
6.299999999999998
  1
5
  7
高6.3
100
AcDbText
  0
CIRCLE
  5
128F
330
1F
100
AcDbEntity
  8
0
 62
     7
100
AcDbCircle
 10
97.79908927681908
 20
163.3691920455365
 30
0.0
 40
5.0
  0
TEXT
  5
1290
330
1F
100
AcDbEntity
  8
0
 62
     4
100
AcDbText
 10
95.31225913723693
 20
160.2883894405721
 30
0.0
 40
6.299999999999998
  1
6
  7
高6.3
100
AcDbText
  0
CIRCLE
  5
1291
330
1F
100
AcDbEntity
  8
0
 62
     7
100
AcDbCircle
 10
98.00971803638235
 20
150.9516984728929
 30
0.0
 40
5.0
  0
TEXT
  5
1292
330
1F
100
AcDbEntity
  8
0
 62
     4
100
AcDbText
 10
95.52288789680023
 20
147.8708958679285
 30
0.0
 40
6.299999999999998
  1
7
  7
高6.3
100
AcDbText
  0
LINE
  5
129A
330
1F
100
AcDbEntity
  8
0
 62
     3
100
AcDbLine
 10
296.1728985608822
 20
50.32232396600526
 30
0.0
 11
296.1728985608822
 21
56.32232396600524
 31
0.0
  0
LINE
  5
129B
330
1F
100
AcDbEntity
  8
0
 62
     3
100
AcDbLine
 10
270.1728985608822
 20
50.32232396600526
 30
0.0
 11
270.1728985608822
 21
56.32232396600524
 31
0.0
  0
LINE
  5
129C
330
1F
100
AcDbEntity
  8
0
 62
     3
100
AcDbLine
 10
321.8722625608821
 20
56.32232396600524
 30
0.0
 11
270.1728985608822
 21
56.32232396600524
 31
0.0
  0
TEXT
  5
129D
330
1F
100
AcDbEntity
  8
0
 62
     3
100
AcDbText
 10
276.1684965608822
 20
51.11867296600528
 30
0.0
 40
4.5
  1
コード
  7
高4.5
100
AcDbText
  0
TEXT
  5
129E
330
1F
100
AcDbEntity
  8
0
 62
     3
100
AcDbText
 10
298.1600455608821
 20
50.9664619660052
 30
0.0
 40
4.5
  1
8164
  7
高4.5
100
AcDbText
  0
LINE
  5
129F
330
1F
100
AcDbEntity
  8
0
 62
     3
100
AcDbLine
 10
44.87226256088212
 20
190.6566014360051
 30
0.0
 11
44.87226256088212
 21
10.65660143600527
 31
0.0
  0
LINE
  5
12A0
330
1F
100
AcDbEntity
  8
0
 62
     3
100
AcDbLine
 10
321.8722625608821
 20
10.65660143600527
 30
0.0
 11
321.8722625608821
 21
190.6566014360051
 31
0.0
  0
LINE
  5
12A1
330
1F
100
AcDbEntity
  8
0
 62
     3
100
AcDbLine
 10
44.87226256088212
 20
10.65660143600527
 30
0.0
 11
321.8722625608821
 21
10.65660143600527
 31
0.0
  0
LINE
  5
12A2
330
1F
100
AcDbEntity
  8
0
 62
     3
100
AcDbLine
 10
270.1728990808822
 20
10.65660143600527
 30
0.0
 11
270.1728990808821
 21
50.32232396600524
 31
0.0
  0
LINE
  5
12A3
330
1F
100
AcDbEntity
  8
0
 62
     3
100
AcDbLine
 10
283.1728990808821
 20
20.32232396600526
 30
0.0
 11
283.1728990808821
 21
50.32232396600526
 31
0.0
  0
LINE
  5
12A4
330
1F
100
AcDbEntity
  8
0
 62
     3
100
AcDbLine
 10
243.1192896508821
 20
20.32232396600526
 30
0.0
 11
243.1192896508821
 21
34.32232396600524
 31
0.0
  0
LINE
  5
12A5
330
1F
100
AcDbEntity
  8
0
 62
     3
100
AcDbLine
 10
253.4512240108821
 20
34.32232396600524
 30
0.0
 11
253.4512240108821
 21
10.65660143600527
 31
0.0
  0
LINE
  5
12A6
330
1F
100
AcDbEntity
  8
0
 62
     3
100
AcDbLine
 10
223.8142547008821
 20
50.32232396600524
 30
0.0
 11
223.8142547008821
 21
27.32232396600526
 31
0.0
  0
LINE
  5
12A8
330
1F
100
AcDbEntity
  8
0
 62
     3
100
AcDbLine
 10
296.1728990808822
 20
27.32232396600526
 30
0.0
 11
296.1728990808822
 21
50.32232396600526
 31
0.0
  0
LINE
  5
12A9
330
1F
100
AcDbEntity
  8
0
 62
     3
100
AcDbLine
 10
321.8722625608821
 20
50.32232396600526
 30
0.0
 11
210.5688200608821
 21
50.32232396600526
 31
0.0
  0
LINE
  5
12AA
330
1F
100
AcDbEntity
  8
0
 62
     3
100
AcDbLine
 10
321.8722625608821
 20
41.32232396600524
 30
0.0
 11
210.5688200608821
 21
41.32232396600524
 31
0.0
  0
LINE
  5
12AB
330
1F
100
AcDbEntity
  8
0
 62
     3
100
AcDbLine
 10
321.8722625608821
 20
27.32232396600526
 30
0.0
 11
210.5688200608821
 21
27.32232396600526
 31
0.0
  0
LINE
  5
12AC
330
1F
100
AcDbEntity
  8
0
 62
     3
100
AcDbLine
 10
321.8722625608821
 20
20.32232396600526
 30
0.0
 11
210.5688200608821
 21
20.32232396600526
 31
0.0
  0
LINE
  5
12AD
330
1F
100
AcDbEntity
  8
0
 62
     3
100
AcDbLine
 10
309.1728990808821
 20
27.32232396600526
 30
0.0
 11
309.1728990808821
 21
50.32232396600526
 31
0.0
  0
LINE
  5
12AE
330
1F
100
AcDbEntity
  8
0
 62
     3
100
AcDbLine
 10
210.5688200608821
 20
50.32232396600526
 30
0.0
 11
210.5688200608821
 21
10.65660143600527
 31
0.0
  0
LINE
  5
12AF
330
1F
100
AcDbEntity
  8
0
 62
     3
100
AcDbLine
 10
270.1728990808821
 20
34.32232396600524
 30
0.0
 11
210.5688200608821
 21
34.32232396600524
 31
0.0
  0
LINE
  5
12B0
330
1F
100
AcDbEntity
  8
0
 62
     3
100
AcDbLine
 10
253.4512240108821
 20
15.48946269600526
 30
0.0
 11
270.1728990808821
 21
15.48946269600526
 31
0.0
  0
LINE
  5
12B1
330
1F
100
AcDbEntity
  8
0
 62
     3
100
AcDbLine
 10
257.1728990808821
 20
41.32232396600524
 30
0.0
 11
265.1728990808821
 21
41.32232396600524
 31
0.0
  0
TEXT
  5
12B2
330
1F
100
AcDbEntity
  8
0
 62
     3
100
AcDbText
 10
254.0378259508821
 20
29.39542081937061
 30
0.0
 40
2.5
  1
-
  7
高2.5
100
AcDbText
  0
TEXT
  5
12B3
330
1F
100
AcDbEntity
  8
0
 62
     3
100
AcDbText
 10
225.3156583461342
 20
29.62013837098915
 30
0.0
 40
2.5
  1
別記
  7
高2.5
100
AcDbText
  0
TEXT
  5
12B4
330
1F
100
AcDbEntity
  8
0
 62
     3
100
AcDbText
 10
225.6341755308318
 20
42.63457348976314
 30
0.0
 40
4.5
  1
LEN-10D用バイス
 41
0.8
  7
高4.5
100
AcDbText
1001
ACAD
1000
ACAD_MTEXT_DEFINED_HEIGHT_BEGIN
1070
    46
1040
0.0
1000
ACAD_MTEXT_DEFINED_HEIGHT_END
  0
TEXT
  5
12B5
330
1F
100
AcDbEntity
  8
0
 62
     3
100
AcDbText
 10
311.9378516543562
 20
46.83601606470884
 30
0.0
 40
2.0
  1
DEF
  7
高2
100
AcDbText
  0
TEXT
  5
12B6
330
1F
100
AcDbEntity
  8
0
 62
     3
100
AcDbText
 10
298.2993898206479
 20
46.83601606470875
 30
0.0
 40
2.0
  1
DESN
  7
高2
100
AcDbText
  0
TEXT
  5
12B7
330
1F
100
AcDbEntity
  8
0
 62
     3
100
AcDbText
 10
272.0450228806477
 20
46.83601606470884
 30
0.0
 40
2.0
  1
APPD
  7
高2
100
AcDbText
  0
TEXT
  5
12B8
330
1F
100
AcDbEntity
  8
0
 62
     3
100
AcDbText
 10
285.1577589808822
 20
46.83601606470886
 30
0.0
 40
2.0
  1
CHCK
  7
高2
100
AcDbText
  0
TEXT
  5
12B9
330
1F
100
AcDbEntity
  8
0
 62
     3
100
AcDbText
 10
244.3783896500348
 20
24.49072278923598
 30
0.0
 40
2.0
  1
SCALE
 41
0.8
  7
高2
100
AcDbText
  0
TEXT
  5
12BA
330
1F
100
AcDbEntity
  8
0
 62
     3
100
AcDbText
 10
222.7655965037628
 20
24.49072278923589
 30
0.0
 40
2.0
  1
ANGLE
 41
1.5
  7
高2
100
AcDbText
  0
TEXT
  5
12BB
330
1F
100
AcDbEntity
  8
0
 62
     3
100
AcDbText
 10
212.2533987639282
 20
24.49072278923598
 30
0.0
 40
2.0
  1
3AD
 41
1.5
  7
高2
100
AcDbText
  0
TEXT
  5
12BC
330
1F
100
AcDbEntity
  8
0
 62
     3
100
AcDbText
 10
243.6477953408835
 20
31.24226085819308
 30
0.0
 40
2.0
  1
REMARKS
 41
0.7
  7
高2
100
AcDbText
  0
TEXT
  5
12BD
330
1F
100
AcDbEntity
  8
0
 62
     3
100
AcDbText
 10
212.0364904108821
 20
31.24226085819308
 30
0.0
 40
2.0
  1
MATERIAL
 41
0.7
  7
高2
100
AcDbText
  0
TEXT
  5
12BE
330
1F
100
AcDbEntity
  8
0
 62
     3
100
AcDbText
 10
211.9920463006375
 20
38.57806350033442
 30
0.0
 40
2.0
  1
MODEL
  7
高2
100
AcDbText
  0
TEXT
  5
12BF
330
1F
100
AcDbEntity
  8
0
 62
     3
100
AcDbText
 10
212.2498984949674
 20
47.02934531660426
 30
0.0
 40
2.0
  1
CONPONENTS
 41
0.5
  7
高2
100
AcDbText
  0
TEXT
  5
12C0
330
1F
100
AcDbEntity
  8
0
 62
     3
100
AcDbText
 10
225.3156583461343
 20
35.40980509381721
 30
0.0
 40
4.5
  1
LEN-V
  7
高4.5
100
AcDbText
  0
TEXT
  5
12C1
330
1F
100
AcDbEntity
  8
0
 62
     3
100
AcDbText
 10
273.2632105397665
 20
12.03548152887686
 30
0.0
 40
6.299999999999998
  1
LEN-V
  7
高6.3
100
AcDbText
1001
ACAD
1000
ACAD_MTEXT_DEFINED_HEIGHT_BEGIN
1070
    46
1040
0.0
1000
ACAD_MTEXT_DEFINED_HEIGHT_END
  0
TEXT
  5
12C2
330
1F
100
AcDbEntity
  8
0
 62
     3
100
AcDbText
 10
286.7364088312117
 20
21.42321312423825
 30
0.0
 40
3.2
  1
2011.12.20
  7
高3.2
100
AcDbText
1001
ACAD
1000
ACAD_MTEXT_DEFINED_HEIGHT_BEGIN
1070
    46
1040
0.0
1000
ACAD_MTEXT_DEFINED_HEIGHT_END
  0
TEXT
  5
12C3
330
1F
100
AcDbEntity
  8
0
 62
     3
100
AcDbText
 10
256.9604969755284
 20
21.42324096857313
 30
0.0
 40
3.2
  1
1/2
  7
高3.2
100
AcDbText
  0
TEXT
  5
12C4
330
1F
100
AcDbEntity
  8
0
 62
     3
100
AcDbText
 10
254.0378259508821
 20
11.47347960914124
 30
0.0
 40
3.2
  1
ZK-A4X
 41
0.8
  7
高3.2
100
AcDbText
  0
TEXT
  5
12C5
330
1F
100
AcDbEntity
  8
0
 62
     3
100
AcDbText
 10
212.0364904108821
 20
17.1812218581931
 30
0.0
 40
2.0
  1
NICHIDO IND.CO.LTD
 41
1.3
  7
高2
100
AcDbText
  0
TEXT
  5
12C6
330
1F
100
AcDbEntity
  8
0
 62
     3
100
AcDbText
 10
212.5810443658393
 20
42.46285217389018
 30
0.0
 40
3.2
  1
品 名
  7
高3.2
100
AcDbText
1001
ACAD
1000
ACAD_MTEXT_DEFINED_HEIGHT_BEGIN
1070
    46
1040
0.0
1000
ACAD_MTEXT_DEFINED_HEIGHT_END
  0
TEXT
  5
12C7
330
1F
100
AcDbEntity
  8
0
 62
     3
100
AcDbText
 10
212.5810443658393
 20
34.93238017874788
 30
0.0
 40
3.2
  1
型 式
  7
高3.2
100
AcDbText
1001
ACAD
1000
ACAD_MTEXT_DEFINED_HEIGHT_BEGIN
1070
    46
1040
3.064735913775952
1000
ACAD_MTEXT_DEFINED_HEIGHT_END
  0
TEXT
  5
12C8
330
1F
100
AcDbEntity
  8
0
 62
     3
100
AcDbText
 10
212.5810443658393
 20
27.57034055123544
 30
0.0
 40
3.2
  1
材 質
  7
高3.2
100
AcDbText
1001
ACAD
1000
ACAD_MTEXT_DEFINED_HEIGHT_BEGIN
1070
    46
1040
0.0
1000
ACAD_MTEXT_DEFINED_HEIGHT_END
  0
TEXT
  5
12C9
330
1F
100
AcDbEntity
  8
0
 62
     3
100
AcDbText
 10
212.5810443658393
 20
20.78976395825149
 30
0.0
 40
3.2
  1
第 三 角 法
  7
高3.2
100
AcDbText
1001
ACAD
1000
ACAD_MTEXT_DEFINED_HEIGHT_BEGIN
1070
    46
1040
0.0
1000
ACAD_MTEXT_DEFINED_HEIGHT_END
  0
TEXT
  5
12CA
330
1F
100
AcDbEntity
  8
0
 62
     3
100
AcDbText
 10
211.3195113333681
 20
11.7971296438902
 30
0.0
 40
3.2
  1
日動工業株式会社
 41
1.199999999999999
  7
高3.2
100
AcDbText
1001
ACAD
1000
ACAD_MTEXT_DEFINED_HEIGHT_BEGIN
1070
    46
1040
0.0
1000
ACAD_MTEXT_DEFINED_HEIGHT_END
  0
TEXT
  5
12CB
330
1F
100
AcDbEntity
  8
0
 62
     3
100
AcDbText
 10
244.7605404775726
 20
27.7069024991728
 30
0.0
 40
3.2
  1
備考
  7
高3.2
100
AcDbText
1001
ACAD
1000
ACAD_MTEXT_DEFINED_HEIGHT_BEGIN
1070
    46
1040
0.0
1000
ACAD_MTEXT_DEFINED_HEIGHT_END
  0
TEXT
  5
12CC
330
1F
100
AcDbEntity
  8
0
 62
     3
100
AcDbText
 10
254.3258680498821
 20
16.80283146157556
 30
0.0
 40
2.5
  1
出図コード
  7
高2.5
100
AcDbText
1001
ACAD
1000
ACAD_MTEXT_DEFINED_HEIGHT_BEGIN
1070
    46
1040
0.0
1000
ACAD_MTEXT_DEFINED_HEIGHT_END
  0
TEXT
  5
12CD
330
1F
100
AcDbEntity
  8
0
 62
     3
100
AcDbText
 10
244.6017743594851
 20
20.77555887641816
 30
0.0
 40
3.2
  1
尺度
  7
高3.2
100
AcDbText
1001
ACAD
1000
ACAD_MTEXT_DEFINED_HEIGHT_BEGIN
1070
    46
1040
0.0
1000
ACAD_MTEXT_DEFINED_HEIGHT_END
  0
TEXT
  5
12CE
330
1F
100
AcDbEntity
  8
0
 62
     3
100
AcDbText
 10
271.664305966538
 20
21.90703732453565
 30
0.0
 40
3.2
  1
作成日
  7
高3.2
100
AcDbText
1001
ACAD
1000
ACAD_MTEXT_DEFINED_HEIGHT_BEGIN
1070
    46
1040
0.0
1000
ACAD_MTEXT_DEFINED_HEIGHT_END
  0
TEXT
  5
12CF
330
1F
100
AcDbEntity
  8
0
 62
     3
100
AcDbText
 10
271.4232820161381
 20
42.46285217389018
 30
0.0
 40
3.2
  1
承 認
  7
高3.2
100
AcDbText
1001
ACAD
1000
ACAD_MTEXT_DEFINED_HEIGHT_BEGIN
1070
    46
1040
0.0
1000
ACAD_MTEXT_DEFINED_HEIGHT_END
  0
TEXT
  5
12D0
330
1F
100
AcDbEntity
  8
0
 62
     3
100
AcDbText
 10
284.423282016138
 20
42.46285217389018
 30
0.0
 40
3.2
  1
検 図
  7
高3.2
100
AcDbText
1001
ACAD
1000
ACAD_MTEXT_DEFINED_HEIGHT_BEGIN
1070
    46
1040
0.0
1000
ACAD_MTEXT_DEFINED_HEIGHT_END
  0
TEXT
  5
12D1
330
1F
100
AcDbEntity
  8
0
 62
     3
100
AcDbText
 10
297.423282016138
 20
42.46285217389018
 30
0.0
 40
3.2
  1
設 計
  7
高3.2
100
AcDbText
1001
ACAD
1000
ACAD_MTEXT_DEFINED_HEIGHT_BEGIN
1070
    46
1040
0.0
1000
ACAD_MTEXT_DEFINED_HEIGHT_END
  0
TEXT
  5
12D2
330
1F
100
AcDbEntity
  8
0
 62
     3
100
AcDbText
 10
310.4232820161381
 20
42.46285217389018
 30
0.0
 40
3.2
  1
製 図
  7
高3.2
100
AcDbText
1001
ACAD
1000
ACAD_MTEXT_DEFINED_HEIGHT_BEGIN
1070
    46
1040
0.0
1000
ACAD_MTEXT_DEFINED_HEIGHT_END
  0
LINE
  5
12E9
330
1F
100
AcDbEntity
  8
0
 62
     3
100
AcDbLine
 10
183.3722625608821
 20
199.1292187360052
 30
0.0
 11
183.3722625608821
 21
197.8806596260053
 31
0.0
  0
LINE
  5
12EA
330
1F
100
AcDbEntity
  8
0
 62
     3
100
AcDbLine
 10
171.4589238408821
 20
192.4899291560051
 30
0.0
 11
171.8946717508821
 21
192.2624610160051
 31
0.0
  0
LINE
  5
12EB
330
1F
100
AcDbEntity
  8
0
 62
     3
100
AcDbLine
 10
171.4589238408821
 20
188.7592986860051
 30
0.0
 11
171.8946717508821
 21
188.9867668160052
 31
0.0
  0
LINE
  5
12EC
330
1F
100
AcDbEntity
  8
0
 62
     3
100
AcDbLine
 10
171.8946717508821
 20
192.2624610160051
 30
0.0
 11
171.8946717508821
 21
188.9867668160052
 31
0.0
  0
LINE
  5
12ED
330
1F
100
AcDbEntity
  8
0
 62
     3
100
AcDbLine
 10
172.9981891708821
 20
188.7592986860051
 30
0.0
 11
172.5624412608821
 21
188.9867668160052
 31
0.0
  0
LINE
  5
12EE
330
1F
100
AcDbEntity
  8
0
 62
     3
100
AcDbLine
 10
172.5624412608821
 20
190.9836256360051
 30
0.0
 11
172.5624412608821
 21
188.9867668160052
 31
0.0
  0
LINE
  5
12EF
330
1F
100
AcDbEntity
  8
0
 62
     3
100
AcDbLine
 10
175.5400519508822
 20
192.4899291560051
 30
0.0
 11
175.1043040408821
 21
192.2624610160051
 31
0.0
  0
LINE
  5
12F0
330
1F
100
AcDbEntity
  8
0
 62
     3
100
AcDbLine
 10
174.0007866208821
 20
192.4899291560051
 30
0.0
 11
174.4365345308821
 21
192.2624610160051
 31
0.0
  0
LINE
  5
12F1
330
1F
100
AcDbEntity
  8
0
 62
     3
100
AcDbLine
 10
174.4365345308821
 20
192.2624610160051
 30
0.0
 11
174.4365345308821
 21
190.8201239560052
 31
0.0
  0
LINE
  5
12F2
330
1F
100
AcDbEntity
  8
0
 62
     3
100
AcDbLine
 10
175.1043040408821
 20
192.2624610160051
 30
0.0
 11
175.1043040408821
 21
188.5477375360052
 31
0.0
  0
LINE
  5
12F3
330
1F
100
AcDbEntity
  8
0
 62
     3
100
AcDbLine
 10
175.7553491508821
 20
192.4899265260052
 30
0.0
 11
176.1910954908821
 21
192.2624553960052
 31
0.0
  0
LINE
  5
12F4
330
1F
100
AcDbEntity
  8
0
 62
     3
100
AcDbLine
 10
175.7552711808822
 20
188.7593486560051
 30
0.0
 11
176.1910270308821
 21
188.9868015860051
 31
0.0
  0
LINE
  5
12F5
330
1F
100
AcDbEntity
  8
0
 62
     3
100
AcDbLine
 10
176.1910954908821
 20
192.2624553960052
 30
0.0
 11
176.1910954908821
 21
188.9868015860051
 31
0.0
  0
LINE
  5
12F6
330
1F
100
AcDbEntity
  8
0
 62
     3
100
AcDbLine
 10
177.6848855508821
 20
192.4899028560051
 30
0.0
 11
177.2491344508821
 21
192.2624408260051
 31
0.0
  0
LINE
  5
12F7
330
1F
100
AcDbEntity
  8
0
 62
     3
100
AcDbLine
 10
177.2491344508821
 20
192.2624408260051
 30
0.0
 11
177.2491344508821
 21
188.9867870160052
 31
0.0
  0
LINE
  5
12F8
330
1F
100
AcDbEntity
  8
0
 62
     3
100
AcDbLine
 10
177.6848855508821
 20
188.7593249760053
 30
0.0
 11
177.2491344508821
 21
188.9867870160052
 31
0.0
  0
LINE
  5
12F9
330
1F
100
AcDbEntity
  8
0
 62
     3
100
AcDbLine
 10
181.3751389908821
 20
192.4898618560052
 30
0.0
 11
181.8108861108821
 21
192.2623922160051
 31
0.0
  0
LINE
  5
12FA
330
1F
100
AcDbEntity
  8
0
 62
     3
100
AcDbLine
 10
181.8108861108821
 20
192.2623922160051
 30
0.0
 11
181.8108289408822
 21
188.9867384060051
 31
0.0
  0
LINE
  5
12FB
330
1F
100
AcDbEntity
  8
0
 62
     3
100
AcDbLine
 10
181.3750738708821
 20
188.7592839760053
 30
0.0
 11
181.8108289408822
 21
188.9867384060051
 31
0.0
  0
LINE
  5
12FC
330
1F
100
AcDbEntity
  8
0
 62
     3
100
AcDbLine
 10
183.3273999508822
 20
192.4898618560052
 30
0.0
 11
182.8916528308821
 21
192.2623922160051
 31
0.0
  0
LINE
  5
12FD
330
1F
100
AcDbEntity
  8
0
 62
     3
100
AcDbLine
 10
183.3274650608821
 20
188.7592839760053
 30
0.0
 11
182.8917100008821
 21
188.9867384060051
 31
0.0
  0
LINE
  5
12FE
330
1F
100
AcDbEntity
  8
0
 62
     3
100
AcDbLine
 10
183.5311278108821
 20
192.4898618560052
 30
0.0
 11
183.9668749308821
 21
192.2623922160051
 31
0.0
  0
LINE
  5
12FF
330
1F
100
AcDbEntity
  8
0
 62
     3
100
AcDbLine
 10
183.5310627008821
 20
188.7592839760053
 30
0.0
 11
183.9668177608821
 21
188.9867384060051
 31
0.0
  0
LINE
  5
1300
330
1F
100
AcDbEntity
  8
0
 62
     3
100
AcDbLine
 10
185.4833887808821
 20
192.4898618560052
 30
0.0
 11
185.0476416608821
 21
192.2623922160051
 31
0.0
  0
LINE
  5
1301
330
1F
100
AcDbEntity
  8
0
 62
     3
100
AcDbLine
 10
185.0476416608821
 20
192.2623922160051
 30
0.0
 11
185.0476988308821
 21
188.9867384060051
 31
0.0
  0
LINE
  5
1302
330
1F
100
AcDbEntity
  8
0
 62
     3
100
AcDbLine
 10
185.4834538908822
 20
188.7592839760053
 30
0.0
 11
185.0476988308821
 21
188.9867384060051
 31
0.0
  0
LINE
  5
1303
330
1F
100
AcDbEntity
  8
0
 62
     3
100
AcDbLine
 10
183.9668500308821
 20
190.8352590960051
 30
0.0
 11
182.8916777408821
 21
190.8352590960051
 31
0.0
  0
LINE
  5
1304
330
1F
100
AcDbEntity
  8
0
 62
     3
100
AcDbLine
 10
183.9668426708821
 20
190.4139687360051
 30
0.0
 11
182.8916850908821
 21
190.4139687360051
 31
0.0
  0
LINE
  5
1305
330
1F
100
AcDbEntity
  8
0
 62
     3
100
AcDbLine
 10
183.9668749308821
 20
192.2623922160051
 30
0.0
 11
183.9668500308821
 21
190.8352590960051
 31
0.0
  0
LINE
  5
1306
330
1F
100
AcDbEntity
  8
0
 62
     3
100
AcDbLine
 10
183.9668426708821
 20
190.4139687360051
 30
0.0
 11
183.9668177608821
 21
188.9867384060051
 31
0.0
  0
LINE
  5
1307
330
1F
100
AcDbEntity
  8
0
 62
     3
100
AcDbLine
 10
182.8916528308821
 20
192.2623922160051
 30
0.0
 11
182.8916777408821
 21
190.8352590960051
 31
0.0
  0
LINE
  5
1308
330
1F
100
AcDbEntity
  8
0
 62
     3
100
AcDbLine
 10
182.8916850908821
 20
190.4139687360051
 30
0.0
 11
182.8917100008821
 21
188.9867384060051
 31
0.0
  0
LINE
  5
1309
330
1F
100
AcDbEntity
  8
0
 62
     3
100
AcDbLine
 10
185.6903479008821
 20
192.4898618560052
 30
0.0
 11
186.1260950208821
 21
192.2623922160051
 31
0.0
  0
LINE
  5
130A
330
1F
100
AcDbEntity
  8
0
 62
     3
100
AcDbLine
 10
186.1260950208821
 20
192.2623922160051
 30
0.0
 11
186.1260378508821
 21
188.9867384060051
 31
0.0
  0
LINE
  5
130B
330
1F
100
AcDbEntity
  8
0
 62
     3
100
AcDbLine
 10
185.6902827908822
 20
188.7592839760053
 30
0.0
 11
186.1260378508821
 21
188.9867384060051
 31
0.0
  0
LINE
  5
130C
330
1F
100
AcDbEntity
  8
0
 62
     3
100
AcDbLine
 10
187.6198581708821
 20
192.4898618560052
 30
0.0
 11
187.1841110508821
 21
192.2623922160051
 31
0.0
  0
LINE
  5
130D
330
1F
100
AcDbEntity
  8
0
 62
     3
100
AcDbLine
 10
187.1841110508821
 20
192.2623922160051
 30
0.0
 11
187.1841682208821
 21
188.9867384060051
 31
0.0
  0
LINE
  5
130E
330
1F
100
AcDbEntity
  8
0
 62
     3
100
AcDbLine
 10
187.6199232808821
 20
188.7592839760053
 30
0.0
 11
187.1841682208821
 21
188.9867384060051
 31
0.0
  0
LINE
  5
130F
330
1F
100
AcDbEntity
  8
0
 62
     3
100
AcDbLine
 10
187.8342177308821
 20
192.4898618560052
 30
0.0
 11
188.2699648608821
 21
192.2623922160051
 31
0.0
  0
LINE
  5
1310
330
1F
100
AcDbEntity
  8
0
 62
     3
100
AcDbLine
 10
188.2699648608821
 20
192.2623922160051
 30
0.0
 11
188.2699076908822
 21
188.9867384060051
 31
0.0
  0
LINE
  5
1311
330
1F
100
AcDbEntity
  8
0
 62
     3
100
AcDbLine
 10
187.8341526208821
 20
188.7592839760053
 30
0.0
 11
188.2699076908822
 21
188.9867384060051
 31
0.0
  0
ARC
  5
1312
330
1F
100
AcDbEntity
  8
0
 62
     3
100
AcDbCircle
 10
179.9832277208821
 20
190.6340036760053
 30
0.0
 40
2.086285909999999
100
AcDbArc
 50
97.70152351000051
 51
270.0
  0
ARC
  5
1313
330
1F
100
AcDbEntity
  8
0
 62
     3
100
AcDbCircle
 10
192.8638285608821
 20
190.6130470460053
 30
0.0
 40
2.108943379999999
100
AcDbArc
 50
0.3142502700000956
 51
69.00558244999962
  0
ARC
  5
1314
330
1F
100
AcDbEntity
  8
0
 62
     3
100
AcDbCircle
 10
193.3245038808821
 20
190.6130470460053
 30
0.0
 40
2.108943379999999
100
AcDbArc
 50
110.9944175500004
 51
148.1166110199997
  0
ARC
  5
1315
330
1F
100
AcDbEntity
  8
0
 62
     3
100
AcDbCircle
 10
192.8638285608821
 20
190.6361807860053
 30
0.0
 40
2.108943379999999
100
AcDbArc
 50
290.9944175500003
 51
359.6857497299998
  0
ARC
  5
1316
330
1F
100
AcDbEntity
  8
0
 62
     3
100
AcDbCircle
 10
193.3245038808821
 20
190.6361807860053
 30
0.0
 40
2.108943379999999
100
AcDbArc
 50
211.8833889800002
 51
249.0055824499996
  0
ARC
  5
1317
330
1F
100
AcDbEntity
  8
0
 62
     3
100
AcDbCircle
 10
193.0941662208822
 20
191.4874193160049
 30
0.0
 40
1.214070989999997
100
AcDbArc
 50
64.36517189999965
 51
115.6348281000003
  0
ARC
  5
1318
330
1F
100
AcDbEntity
  8
0
 62
     3
100
AcDbCircle
 10
193.0941662208822
 20
189.7618085260052
 30
0.0
 40
1.214070989999997
100
AcDbArc
 50
244.3651718999997
 51
295.6348281000003
  0
ARC
  5
1319
330
1F
100
AcDbEntity
  8
0
 62
     3
100
AcDbCircle
 10
193.0941662208822
 20
191.5104809960052
 30
0.0
 40
0.59585563
100
AcDbArc
 50
19.48660554000009
 51
160.5133944599999
  0
ARC
  5
131A
330
1F
100
AcDbEntity
  8
0
 62
     3
100
AcDbCircle
 10
193.0941662208822
 20
189.7618085260052
 30
0.0
 40
1.214070989999997
100
AcDbArc
 50
244.3651718999997
 51
295.6348281000003
  0
ARC
  5
131B
330
1F
100
AcDbEntity
  8
0
 62
     3
100
AcDbCircle
 10
193.0941662208822
 20
189.7387468460052
 30
0.0
 40
0.59585563
100
AcDbArc
 50
199.4866055400001
 51
340.5133944599999
  0
ARC
  5
131C
330
1F
100
AcDbEntity
  8
0
 62
     3
100
AcDbCircle
 10
188.3516937208821
 20
168.3965540760052
 30
0.0
 40
26.04
100
AcDbArc
 50
69.505714799998
 51
81.68998807000065
  0
ARC
  5
131D
330
1F
100
AcDbEntity
  8
0
 62
     3
100
AcDbCircle
 10
188.3516937208821
 20
212.8526737560052
 30
0.0
 40
26.04
100
AcDbArc
 50
278.3100119299994
 51
290.4942851999986
  0
ARC
  5
131E
330
1F
100
AcDbEntity
  8
0
 62
     3
100
AcDbCircle
 10
196.6598978408821
 20
190.6246139160051
 30
0.0
 40
2.31
100
AcDbArc
 50
290.4942851999986
 51
69.505714799998
  0
ARC
  5
131F
330
1F
100
AcDbEntity
  8
0
 62
     3
100
AcDbCircle
 10
169.3598978408822
 20
190.6246139160051
 30
0.0
 40
2.31
100
AcDbArc
 50
110.494285200002
 51
249.505714799998
  0
ARC
  5
1320
330
1F
100
AcDbEntity
  8
0
 62
     3
100
AcDbCircle
 10
177.6681019708821
 20
168.3965540760052
 30
0.0
 40
26.04
100
AcDbArc
 50
98.31001192999934
 51
110.494285200002
  0
ARC
  5
1321
330
1F
100
AcDbEntity
  8
0
 62
     3
100
AcDbCircle
 10
177.6681019708821
 20
212.8526737560052
 30
0.0
 40
26.04
100
AcDbArc
 50
249.505714799998
 51
261.6899880700007
  0
ARC
  5
1322
330
1F
100
AcDbEntity
  8
0
 62
     3
100
AcDbCircle
 10
183.0098978408821
 20
131.8246139160052
 30
0.0
 40
62.99999987
100
AcDbArc
 50
81.68998807000065
 51
98.31001192999934
  0
ARC
  5
1323
330
1F
100
AcDbEntity
  8
0
 62
     3
100
AcDbCircle
 10
183.0098978408821
 20
249.4246139160053
 30
0.0
 40
62.99999987
100
AcDbArc
 50
261.6899880700007
 51
278.3100119299994
  0
ARC
  5
1324
330
1F
100
AcDbEntity
  8
0
 62
     3
100
AcDbCircle
 10
183.0098978408821
 20
131.8246139160052
 30
0.0
 40
62.36999987
100
AcDbArc
 50
81.68998807000065
 51
98.31001192999934
  0
ARC
  5
1325
330
1F
100
AcDbEntity
  8
0
 62
     3
100
AcDbCircle
 10
183.0098978408821
 20
249.4246139160053
 30
0.0
 40
62.36999987
100
AcDbArc
 50
261.6899880700007
 51
278.3100119299994
  0
ARC
  5
1326
330
1F
100
AcDbEntity
  8
0
 62
     3
100
AcDbCircle
 10
188.3516937208821
 20
212.8526737560052
 30
0.0
 40
25.41
100
AcDbArc
 50
278.3100119299994
 51
290.4942851999986
  0
ARC
  5
1327
330
1F
100
AcDbEntity
  8
0
 62
     3
100
AcDbCircle
 10
188.3516937208821
 20
168.3965540760052
 30
0.0
 40
25.41
100
AcDbArc
 50
69.505714799998
 51
81.68998807000065
  0
ARC
  5
1328
330
1F
100
AcDbEntity
  8
0
 62
     3
100
AcDbCircle
 10
196.6598978408821
 20
190.6246139160051
 30
0.0
 40
1.679999999999999
100
AcDbArc
 50
290.4942851999986
 51
69.505714799998
  0
ARC
  5
1329
330
1F
100
AcDbEntity
  8
0
 62
     3
100
AcDbCircle
 10
169.3598978408822
 20
190.6246139160051
 30
0.0
 40
1.679999999999999
100
AcDbArc
 50
110.494285200002
 51
249.505714799998
  0
ARC
  5
132A
330
1F
100
AcDbEntity
  8
0
 62
     3
100
AcDbCircle
 10
177.6681019708821
 20
168.3965540760052
 30
0.0
 40
25.41
100
AcDbArc
 50
98.31001192999934
 51
110.494285200002
  0
ARC
  5
132B
330
1F
100
AcDbEntity
  8
0
 62
     3
100
AcDbCircle
 10
177.6681019708821
 20
212.8526737560052
 30
0.0
 40
25.41
100
AcDbArc
 50
249.505714799998
 51
261.6899880700007
  0
LINE
  5
132C
330
1F
100
AcDbEntity
  8
0
 62
     3
100
AcDbLine
 10
187.6198589508821
 20
188.5477375360052
 30
0.0
 11
185.6903471208821
 21
188.5477375360052
 31
0.0
  0
LINE
  5
132D
330
1F
100
AcDbEntity
  8
0
 62
     3
100
AcDbLine
 10
187.6198589508821
 20
188.7592986860051
 30
0.0
 11
187.6198589508821
 21
188.5477375360052
 31
0.0
  0
LINE
  5
132E
330
1F
100
AcDbEntity
  8
0
 62
     3
100
AcDbLine
 10
185.4833895608821
 20
192.7013915860051
 30
0.0
 11
183.5311270308821
 21
192.7013915860051
 31
0.0
  0
LINE
  5
132F
330
1F
100
AcDbEntity
  8
0
 62
     3
100
AcDbLine
 10
185.4833895608821
 20
192.7013915860051
 30
0.0
 11
185.4833895608821
 21
192.4899291560051
 31
0.0
  0
LINE
  5
1330
330
1F
100
AcDbEntity
  8
0
 62
     3
100
AcDbLine
 10
185.4833895608821
 20
188.7592986860051
 30
0.0
 11
185.4833895608821
 21
188.5476388260052
 31
0.0
  0
LINE
  5
1331
330
1F
100
AcDbEntity
  8
0
 62
     3
100
AcDbLine
 10
185.4833895608821
 20
188.5476388260052
 30
0.0
 11
183.5311270308821
 21
188.5476388260052
 31
0.0
  0
LINE
  5
1332
330
1F
100
AcDbEntity
  8
0
 62
     3
100
AcDbLine
 10
187.6198589508821
 20
192.7014902960052
 30
0.0
 11
187.6198589508821
 21
192.4899291560051
 31
0.0
  0
LINE
  5
1333
330
1F
100
AcDbEntity
  8
0
 62
     3
100
AcDbLine
 10
187.6198589508821
 20
192.7014902960052
 30
0.0
 11
185.6903471208821
 21
192.7014902960052
 31
0.0
  0
LINE
  5
1334
330
1F
100
AcDbEntity
  8
0
 62
     3
100
AcDbLine
 10
185.6903471208821
 20
192.7014902960052
 30
0.0
 11
185.6903471208821
 21
192.4899291560051
 31
0.0
  0
LINE
  5
1335
330
1F
100
AcDbEntity
  8
0
 62
     3
100
AcDbLine
 10
187.8342169508821
 20
188.7592986860051
 30
0.0
 11
187.8342169508821
 21
188.5477375360052
 31
0.0
  0
LINE
  5
1336
330
1F
100
AcDbEntity
  8
0
 62
     3
100
AcDbLine
 10
189.8185175108821
 20
188.5477375360052
 30
0.0
 11
187.8342169508821
 21
188.5477375360052
 31
0.0
  0
LINE
  5
1337
330
1F
100
AcDbEntity
  8
0
 62
     3
100
AcDbLine
 10
189.3279808808821
 20
192.0337207760051
 30
0.0
 11
189.3279808808821
 21
189.2155070560052
 31
0.0
  0
LINE
  5
1338
330
1F
100
AcDbEntity
  8
0
 62
     3
100
AcDbLine
 10
189.3279808808821
 20
189.2155070560052
 30
0.0
 11
189.5180298508821
 21
189.2155070560052
 31
0.0
  0
ARC
  5
1339
330
1F
100
AcDbEntity
  8
0
 62
     3
100
AcDbCircle
 10
188.5462441108822
 20
190.6246139160051
 30
0.0
 40
1.71170957
100
AcDbArc
 50
304.591955270002
 51
55.40804472999764
  0
LINE
  5
133A
330
1F
100
AcDbEntity
  8
0
 62
     3
100
AcDbLine
 10
189.8185175108821
 20
192.7014902960052
 30
0.0
 11
187.8342169508821
 21
192.7014902960052
 31
0.0
  0
LINE
  5
133B
330
1F
100
AcDbEntity
  8
0
 62
     3
100
AcDbLine
 10
187.8342169508821
 20
192.7014902960052
 30
0.0
 11
187.8342169508821
 21
192.4899291560051
 31
0.0
  0
LINE
  5
133C
330
1F
100
AcDbEntity
  8
0
 62
     3
100
AcDbLine
 10
185.6903471208821
 20
188.7592986860051
 30
0.0
 11
185.6903471208821
 21
188.5477375360052
 31
0.0
  0
LINE
  5
133D
330
1F
100
AcDbEntity
  8
0
 62
     3
100
AcDbLine
 10
189.3279808808821
 20
192.0337207760051
 30
0.0
 11
189.5180298508821
 21
192.0337207760051
 31
0.0
  0
LINE
  5
133E
330
1F
100
AcDbEntity
  8
0
 62
     3
100
AcDbLine
 10
177.6848212208821
 20
188.7592986860051
 30
0.0
 11
177.6848175308822
 21
188.5477177660052
 31
0.0
  0
LINE
  5
133F
330
1F
100
AcDbEntity
  8
0
 62
     3
100
AcDbLine
 10
175.7553056908821
 20
188.5477573060051
 30
0.0
 11
177.6848175308822
 21
188.5477236360052
 31
0.0
  0
LINE
  5
1340
330
1F
100
AcDbEntity
  8
0
 62
     3
100
AcDbLine
 10
171.4589238408821
 20
188.5477375360052
 30
0.0
 11
172.9981891708821
 21
188.5477375360052
 31
0.0
  0
ARC
  5
1341
330
1F
100
AcDbEntity
  8
0
 62
     3
100
AcDbCircle
 10
166.4769811608821
 20
190.6735205460051
 30
0.0
 40
14.71356563
100
AcDbArc
 50
353.8660061900003
 51
357.69403426
  0
LINE
  5
1342
330
1F
100
AcDbEntity
  8
0
 62
     3
100
AcDbLine
 10
180.1935610208821
 20
190.0851528860052
 30
0.0
 11
181.1786319108821
 21
190.0815080160051
 31
0.0
  0
LINE
  5
1344
330
1F
100
AcDbEntity
  8
0
 62
     3
100
AcDbLine
 10
180.1975394408821
 20
191.1603676360051
 30
0.0
 11
181.1826103208821
 21
191.1567227560052
 31
0.0
  0
ARC
  5
1345
330
1F
100
AcDbEntity
  8
0
 62
     3
100
AcDbCircle
 10
166.4769811608821
 20
190.6735205460051
 30
0.0
 40
14.71356563
100
AcDbArc
 50
1.881965739999665
 51
5.709993810000499
  0
LINE
  5
1346
330
1F
100
AcDbEntity
  8
0
 62
     3
100
AcDbLine
 10
177.6848900208821
 20
192.7014705260052
 30
0.0
 11
177.6848863308821
 21
192.4899291560051
 31
0.0
  0
LINE
  5
1347
330
1F
100
AcDbEntity
  8
0
 62
     3
100
AcDbLine
 10
175.7553781908821
 20
192.7015100660051
 30
0.0
 11
177.6848900208821
 21
192.7014763960052
 31
0.0
  0
LINE
  5
1348
330
1F
100
AcDbEntity
  8
0
 62
     3
100
AcDbLine
 10
175.7553093808821
 20
188.7592986860051
 30
0.0
 11
175.7553056908821
 21
188.5477573060051
 31
0.0
  0
LINE
  5
1349
330
1F
100
AcDbEntity
  8
0
 62
     3
100
AcDbLine
 10
175.7553781908821
 20
192.7015100660051
 30
0.0
 11
175.7553744908821
 21
192.4899291560051
 31
0.0
  0
LINE
  5
134A
330
1F
100
AcDbEntity
  8
0
 62
     3
100
AcDbLine
 10
172.9981891708821
 20
188.7592986860051
 30
0.0
 11
172.9981891708821
 21
188.5477375360052
 31
0.0
  0
LINE
  5
134B
330
1F
100
AcDbEntity
  8
0
 62
     3
100
AcDbLine
 10
172.5624412608821
 20
190.9836256360051
 30
0.0
 11
174.0848713208821
 21
188.5477375360052
 31
0.0
  0
LINE
  5
134C
330
1F
100
AcDbEntity
  8
0
 62
     3
100
AcDbLine
 10
174.0848713208821
 20
188.5477375360052
 30
0.0
 11
175.1043040408821
 21
188.5477375360052
 31
0.0
  0
LINE
  5
134D
330
1F
100
AcDbEntity
  8
0
 62
     3
100
AcDbLine
 10
175.5400519508822
 20
192.7014902960052
 30
0.0
 11
175.5400519508822
 21
192.4899291560051
 31
0.0
  0
LINE
  5
134E
330
1F
100
AcDbEntity
  8
0
 62
     3
100
AcDbLine
 10
174.0007866208821
 20
192.7014902960052
 30
0.0
 11
175.5400519508822
 21
192.7014902960052
 31
0.0
  0
LINE
  5
134F
330
1F
100
AcDbEntity
  8
0
 62
     3
100
AcDbLine
 10
174.0007866208821
 20
192.7014902960052
 30
0.0
 11
174.0007866208821
 21
192.4899291560051
 31
0.0
  0
LINE
  5
1350
330
1F
100
AcDbEntity
  8
0
 62
     3
100
AcDbLine
 10
174.4365345308821
 20
190.8201239560052
 30
0.0
 11
173.2018878608821
 21
192.7014902960052
 31
0.0
  0
LINE
  5
1351
330
1F
100
AcDbEntity
  8
0
 62
     3
100
AcDbLine
 10
171.4589238408821
 20
192.7014902960052
 30
0.0
 11
173.2018878608821
 21
192.7014902960052
 31
0.0
  0
LINE
  5
1352
330
1F
100
AcDbEntity
  8
0
 62
     3
100
AcDbLine
 10
181.3751382008821
 20
192.7013915860051
 30
0.0
 11
183.3274007408822
 21
192.7013915860051
 31
0.0
  0
LINE
  5
1353
330
1F
100
AcDbEntity
  8
0
 62
     3
100
AcDbLine
 10
181.3751382008821
 20
192.4899291560051
 30
0.0
 11
181.3751382008821
 21
192.7013915860051
 31
0.0
  0
LINE
  5
1354
330
1F
100
AcDbEntity
  8
0
 62
     3
100
AcDbLine
 10
181.3751382008821
 20
188.5476388260052
 30
0.0
 11
181.3751382008821
 21
188.7592986860051
 31
0.0
  0
LINE
  5
1355
330
1F
100
AcDbEntity
  8
0
 62
     3
100
AcDbLine
 10
181.3751382008821
 20
188.5476388260052
 30
0.0
 11
183.3274007408822
 21
188.5476388260052
 31
0.0
  0
LINE
  5
1356
330
1F
100
AcDbEntity
  8
0
 62
     3
100
AcDbLine
 10
183.5311270308821
 20
188.7592986860051
 30
0.0
 11
183.5311270308821
 21
188.5476388260052
 31
0.0
  0
LINE
  5
1357
330
1F
100
AcDbEntity
  8
0
 62
     3
100
AcDbLine
 10
183.3274007408822
 20
188.7592986860051
 30
0.0
 11
183.3274007408822
 21
188.5476388260052
 31
0.0
  0
LINE
  5
1358
330
1F
100
AcDbEntity
  8
0
 62
     3
100
AcDbLine
 10
183.3274007408822
 20
192.4899291560051
 30
0.0
 11
183.3274007408822
 21
192.7013915860051
 31
0.0
  0
LINE
  5
1359
330
1F
100
AcDbEntity
  8
0
 62
     3
100
AcDbLine
 10
183.5311270308821
 20
192.4899291560051
 30
0.0
 11
183.5311270308821
 21
192.7013915860051
 31
0.0
  0
LINE
  5
135A
330
1F
100
AcDbEntity
  8
0
 62
     3
100
AcDbLine
 10
171.4589238408821
 20
188.7592986860051
 30
0.0
 11
171.4589238408821
 21
188.5477375360052
 31
0.0
  0
LINE
  5
135B
330
1F
100
AcDbEntity
  8
0
 62
     3
100
AcDbLine
 10
171.4589238408821
 20
192.7014902960052
 30
0.0
 11
171.4589238408821
 21
192.4899291560051
 31
0.0
  0
ARC
  5
135C
330
1F
100
AcDbEntity
  8
0
 62
     3
100
AcDbCircle
 10
190.0285175108822
 20
191.0603618260051
 30
0.0
 40
1.641128469999999
100
AcDbArc
 50
17.30874898000052
 51
23.76507096000029
  0
ARC
  5
135D
330
1F
100
AcDbEntity
  8
0
 62
     3
100
AcDbCircle
 10
188.6302441108821
 20
190.6246139160051
 30
0.0
 40
3.105725599999998
100
AcDbArc
 50
342.6912510199993
 51
17.30856643999931
  0
ARC
  5
135E
330
1F
100
AcDbEntity
  8
0
 62
     3
100
AcDbCircle
 10
190.0285175108822
 20
190.1888660160053
 30
0.0
 40
1.641128469999999
100
AcDbArc
 50
336.2349290399996
 51
342.6912510199993
  0
ARC
  5
135F
330
1F
100
AcDbEntity
  8
0
 62
     3
100
AcDbCircle
 10
189.8185175108821
 20
191.0603618260051
 30
0.0
 40
1.641128469999999
100
AcDbArc
 50
17.30874898000052
 51
90.0
  0
ARC
  5
1360
330
1F
100
AcDbEntity
  8
0
 62
     3
100
AcDbCircle
 10
188.4202441108821
 20
190.6246139160051
 30
0.0
 40
3.105725599999998
100
AcDbArc
 50
342.6912510199993
 51
17.30856643999931
  0
ARC
  5
1361
330
1F
100
AcDbEntity
  8
0
 62
     3
100
AcDbCircle
 10
189.8185175108821
 20
190.1888660160053
 30
0.0
 40
1.641128469999999
100
AcDbArc
 50
270.0
 51
342.6912510199993
  0
ARC
  5
1362
330
1F
100
AcDbEntity
  8
0
 62
     3
100
AcDbCircle
 10
179.6945771408821
 20
190.6246139160051
 30
0.0
 40
2.076876379999998
100
AcDbArc
 50
46.75287961000092
 51
89.74999828999893
  0
ARC
  5
1363
330
1F
100
AcDbEntity
  8
0
 62
     3
100
AcDbCircle
 10
179.6945771408821
 20
190.6246139160051
 30
0.0
 40
2.076876379999998
100
AcDbArc
 50
273.9763331500004
 51
312.823120389999
  0
ARC
  5
1364
330
1F
100
AcDbEntity
  8
0
 62
     3
100
AcDbCircle
 10
191.1363850808822
 20
190.5925523860051
 30
0.0
 40
2.755888999999998
100
AcDbArc
 50
0.6665840599998499
 51
23.90392827000075
  0
ARC
  5
1365
330
1F
100
AcDbEntity
  8
0
 62
     3
100
AcDbCircle
 10
195.0519473608821
 20
190.5925523860051
 30
0.0
 40
2.755888999999998
100
AcDbArc
 50
156.0960717299991
 51
179.3334159400002
  0
ARC
  5
1366
330
1F
100
AcDbEntity
  8
0
 62
     3
100
AcDbCircle
 10
191.1363850808822
 20
190.6566754460051
 30
0.0
 40
2.755888999999998
100
AcDbArc
 50
336.0960717299992
 51
359.3334159400002
  0
ARC
  5
1367
330
1F
100
AcDbEntity
  8
0
 62
     3
100
AcDbCircle
 10
195.0519473608821
 20
190.6566754460051
 30
0.0
 40
2.755888999999998
100
AcDbArc
 50
180.6665840599998
 51
203.9039282700007
  0
LINE
  5
1368
330
1F
100
AcDbEntity
  8
0
 62
     3
100
AcDbLine
 10
165.6287073808821
 20
190.6566014360051
 30
0.0
 11
44.87226256088212
 21
190.6566014360051
 31
0.0
  0
LINE
  5
1369
330
1F
100
AcDbEntity
  8
0
 62
     3
100
AcDbLine
 10
321.8722625608821
 20
190.6566014360051
 30
0.0
 11
200.4338006208822
 21
190.6566014360051
 31
0.0
  0
TEXT
  5
13AD
330
1F
100
AcDbEntity
  8
0
100
AcDbText
 10
313.7891677910552
 20
30.34353567486369
 30
0.0
 40
4.5
  1
I
  7
高4.5
100
AcDbText
  0
LINE
  5
1E33
330
1F
100
AcDbEntity
  8
0
 62
     3
100
AcDbLine
 10
120.9733366153836
 20
132.6885531837609
 30
0.0
 11
125.1289836249947
 21
128.8340400154259
 31
0.0
  0
LINE
  5
1E34
330
1F
100
AcDbEntity
  8
0
 62
     3
100
AcDbLine
 10
129.24167640765
 20
128.834858647969
 30
0.0
 11
133.396440756291
 21
132.6885531837609
 31
0.0
  0
LINE
  5
1E35
330
1F
100
AcDbEntity
  8
0
 62
     3
100
AcDbLine
 10
130.559888715174
 20
124.1885531874862
 30
0.0
 11
130.559888715174
 21
130.0575482840207
 31
0.0
  0
LINE
  5
1E36
330
1F
100
AcDbEntity
  8
0
 62
     3
100
AcDbLine
 10
123.809888598293
 20
125.4385533923771
 30
0.0
 11
123.809888598293
 21
124.1885531874862
 31
0.0
  0
LINE
  5
1E37
330
1F
100
AcDbEntity
  8
0
 62
     3
100
AcDbLine
 10
123.809888598293
 20
130.0575482840207
 30
0.0
 11
123.809888598293
 21
126.9385527069237
 31
0.0
  0
LINE
  5
1E38
330
1F
100
AcDbEntity
  8
0
 62
     3
100
AcDbLine
 10
132.4348887314721
 20
79.68855474093223
 30
0.0
 11
131.9295563621148
 21
79.68855474093223
 31
0.0
  0
LINE
  5
1E39
330
1F
100
AcDbEntity
  8
0
 62
     3
100
AcDbLine
 10
122.4402208931445
 20
79.68855474093223
 30
0.0
 11
121.9348889894485
 21
79.68855474093223
 31
0.0
  0
LINE
  5
1E3A
330
1F
100
AcDbEntity
  8
0
 62
     3
100
AcDbLine
 10
124.1979814253449
 20
75.99491823413635
 30
0.0
 11
124.8892532780468
 21
73.07342264750267
 31
0.0
  0
ARC
  5
1E3B
330
1F
100
AcDbEntity
  8
0
 62
     3
100
AcDbCircle
 10
128.9939594343118
 20
73.18855310390637
 30
0.0
 40
0.5
100
AcDbArc
 50
270.0
 51
346.6877449826354
  0
ARC
  5
1E3C
330
1F
100
AcDbEntity
  8
0
 62
     3
100
AcDbCircle
 10
125.3758180384696
 20
73.18855310390637
 30
0.0
 40
0.5
100
AcDbArc
 50
193.3122550173662
 51
270.0
  0
LINE
  5
1E3D
330
1F
100
AcDbEntity
  8
0
 62
     3
100
AcDbLine
 10
129.4805243264585
 20
73.07342264750267
 30
0.0
 11
130.1718312201723
 21
75.9950672457483
 31
0.0
  0
ARC
  5
1E3E
330
1F
100
AcDbEntity
  8
0
 62
     3
100
AcDbCircle
 10
131.9348887363907
 20
76.18855310390637
 30
0.0
 40
0.5
100
AcDbArc
 50
270.0
 51
0.0
  0
ARC
  5
1E3F
330
1F
100
AcDbEntity
  8
0
 62
     3
100
AcDbCircle
 10
122.4348887363907
 20
76.18855310390637
 30
0.0
 40
0.5
100
AcDbArc
 50
180.0000000000016
 51
270.0
  0
LINE
  5
1E40
330
1F
100
AcDbEntity
  8
0
 62
     3
100
AcDbLine
 10
132.4348887314721
 20
76.1885513732698
 30
0.0
 11
132.4348887314721
 21
79.68855474093223
 31
0.0
  0
LINE
  5
1E41
330
1F
100
AcDbEntity
  8
0
 62
     3
100
AcDbLine
 10
121.9348889894485
 20
79.68855474093223
 30
0.0
 11
121.9348889894485
 21
76.1885513732698
 31
0.0
  0
LINE
  5
1E42
330
1F
100
AcDbEntity
  8
0
 62
     3
100
AcDbLine
 10
129.4348888218104
 20
78.33732116916443
 30
0.0
 11
129.4348888218104
 21
83.48433498242163
 31
0.0
  0
LINE
  5
1E43
330
1F
100
AcDbEntity
  8
0
 62
     3
100
AcDbLine
 10
129.4348888218104
 20
93.48433475890422
 30
0.0
 11
129.4348888218104
 21
121.9385532843437
 31
0.0
  0
LINE
  5
1E44
330
1F
100
AcDbEntity
  8
0
 62
     3
100
AcDbLine
 10
124.9348885498642
 20
121.9385532843437
 30
0.0
 11
124.9348885498642
 21
93.48433475890422
 31
0.0
  0
LINE
  5
1E45
330
1F
100
AcDbEntity
  8
0
 62
     3
100
AcDbLine
 10
124.9348885498642
 20
83.48433498242163
 30
0.0
 11
124.9348885498642
 21
78.33732116916443
 31
0.0
  0
LINE
  5
1E46
330
1F
100
AcDbEntity
  8
0
 62
     3
100
AcDbLine
 10
128.6848886988758
 20
121.9385532843437
 30
0.0
 11
128.6848886988758
 21
124.1885531874862
 31
0.0
  0
LINE
  5
1E47
330
1F
100
AcDbEntity
  8
0
 62
     3
100
AcDbLine
 10
125.6848886727988
 20
124.1885531874862
 30
0.0
 11
125.6848886727988
 21
121.9385532843437
 31
0.0
  0
LINE
  5
1E48
330
1F
100
AcDbEntity
  8
0
 62
     3
100
AcDbLine
 10
119.451975554943
 20
134.18855342963
 30
0.0
 11
119.5078381456136
 21
134.18855342963
 31
0.0
  0
LINE
  5
1E49
330
1F
100
AcDbEntity
  8
0
 62
     3
100
AcDbLine
 10
134.8619396917223
 20
134.18855342963
 30
0.0
 11
134.9178020495623
 21
134.18855342963
 31
0.0
  0
ARC
  5
1E4A
330
1F
100
AcDbEntity
  8
0
 62
     3
100
AcDbCircle
 10
134.9178020737407
 20
134.2885531039063
 30
0.0
 40
0.0999999999999964
100
AcDbArc
 50
272.0061743680763
 51
354.8223826110009
  0
ARC
  5
1E4B
330
1F
100
AcDbEntity
  8
0
 62
     3
100
AcDbCircle
 10
119.4519753990408
 20
134.2885531039063
 30
0.0
 40
0.0999999999999964
100
AcDbArc
 50
185.1776173890008
 51
267.1791415198358
  0
LINE
  5
1E4C
330
1F
100
AcDbEntity
  8
0
 62
     3
100
AcDbLine
 10
120.4348887435793
 20
147.4843342969682
 30
0.0
 11
120.4348887435793
 21
146.4843341330555
 31
0.0
  0
LINE
  5
1E4D
330
1F
100
AcDbEntity
  8
0
 62
     3
100
AcDbLine
 10
133.9348886280953
 20
146.4843341330555
 30
0.0
 11
133.9348886280953
 21
147.4843342969682
 31
0.0
  0
ARC
  5
1E4E
330
1F
100
AcDbEntity
  8
0
 62
     3
100
AcDbCircle
 10
133.4348887363907
 20
147.4843346972539
 30
0.0
 40
0.5
100
AcDbArc
 50
0.0
 51
90.0
  0
ARC
  5
1E4F
330
1F
100
AcDbEntity
  8
0
 62
     3
100
AcDbCircle
 10
120.9348887363907
 20
147.4843346972539
 30
0.0
 40
0.5
100
AcDbArc
 50
90.0
 51
180.0
  0
LINE
  5
1E50
330
1F
100
AcDbEntity
  8
0
 62
     3
100
AcDbLine
 10
122.4348890714049
 20
150.4843329260614
 30
0.0
 11
122.4348890714049
 21
147.9843353102472
 31
0.0
  0
LINE
  5
1E51
330
1F
100
AcDbEntity
  8
0
 62
     3
100
AcDbLine
 10
131.9348887077234
 20
147.9843353102472
 30
0.0
 11
131.9348887077234
 21
150.4843329260614
 31
0.0
  0
LINE
  5
1E52
330
1F
100
AcDbEntity
  8
0
 62
     3
100
AcDbLine
 10
122.4348890714049
 20
157.484335936096
 30
0.0
 11
122.4348890714049
 21
154.734334088352
 31
0.0
  0
LINE
  5
1E53
330
1F
100
AcDbEntity
  8
0
 62
     3
100
AcDbLine
 10
131.9348887077234
 20
154.734334088352
 30
0.0
 11
131.9348887077234
 21
157.484335936096
 31
0.0
  0
LINE
  5
1E54
330
1F
100
AcDbEntity
  8
0
 62
     3
100
AcDbLine
 10
122.9348891533613
 20
154.734334088352
 30
0.0
 11
122.9348891533613
 21
150.4843329260614
 31
0.0
  0
LINE
  5
1E55
330
1F
100
AcDbEntity
  8
0
 62
     3
100
AcDbLine
 10
131.4348887362706
 20
150.4843329260614
 30
0.0
 11
131.4348887362706
 21
154.734334088352
 31
0.0
  0
ARC
  5
1E56
330
1F
100
AcDbEntity
  8
0
 62
     3
100
AcDbCircle
 10
130.8098887363908
 20
92.98433469725386
 30
0.0
 40
0.5
100
AcDbArc
 50
0.0
 51
16.78518557404666
  0
ARC
  5
1E57
330
1F
100
AcDbEntity
  8
0
 62
     3
100
AcDbCircle
 10
123.5598887363907
 20
92.98433469725386
 30
0.0
 40
0.5
100
AcDbArc
 50
163.2148144249795
 51
180.0
  0
ARC
  5
1E58
330
1F
100
AcDbEntity
  8
0
 62
     3
100
AcDbCircle
 10
123.5598887363907
 20
83.98433469725388
 30
0.0
 40
0.5
100
AcDbArc
 50
180.0
 51
270.0
  0
ARC
  5
1E59
330
1F
100
AcDbEntity
  8
0
 62
     3
100
AcDbCircle
 10
130.8098887363908
 20
83.98433469725388
 30
0.0
 40
0.5
100
AcDbArc
 50
270.0
 51
0.0
  0
LINE
  5
1E5A
330
1F
100
AcDbEntity
  8
0
 62
     3
100
AcDbLine
 10
131.3098887362452
 20
83.9843359957006
 30
0.0
 11
131.3098887362452
 21
92.98433560827044
 31
0.0
  0
LINE
  5
1E5B
330
1F
100
AcDbEntity
  8
0
 62
     3
100
AcDbLine
 10
123.0598884753584
 20
92.98433560827044
 30
0.0
 11
123.0598884753584
 21
83.9843359957006
 31
0.0
  0
LINE
  5
1E5C
330
1F
100
AcDbEntity
  8
0
 62
     3
100
AcDbLine
 10
123.4348883039951
 20
157.7343364427354
 30
0.0
 11
123.4348883039951
 21
157.484335936096
 31
0.0
  0
LINE
  5
1E5D
330
1F
100
AcDbEntity
  8
0
 62
     3
100
AcDbLine
 10
130.9348887184336
 20
157.484335936096
 30
0.0
 11
130.9348887184336
 21
157.7343364427354
 31
0.0
  0
ARC
  5
1E5E
330
1F
100
AcDbEntity
  8
0
 62
     3
100
AcDbCircle
 10
119.0882271859061
 20
138.3028466315167
 30
0.0
 40
0.1000000000000002
100
AcDbArc
 50
88.88981846427816
 51
185.1776173890108
  0
LINE
  5
1E5F
330
1F
100
AcDbEntity
  8
0
 62
     3
100
AcDbLine
 10
122.9348891533613
 20
138.4028458217647
 30
0.0
 11
119.0882270343303
 21
138.4028458217647
 31
0.0
  0
ARC
  5
1E60
330
1F
100
AcDbEntity
  8
0
 62
     7
100
AcDbCircle
 10
122.9348887363907
 20
127.290725978639
 30
0.0
 40
0.2500000000000013
100
AcDbArc
 50
0.0
 51
94.9999999999965
  0
ARC
  5
1E61
330
1F
100
AcDbEntity
  8
0
 62
     7
100
AcDbCircle
 10
122.9348887363907
 20
125.0863802291737
 30
0.0
 40
0.2500000000000013
100
AcDbArc
 50
265.0000000000034
 51
0.0
  0
LINE
  5
1E62
330
1F
100
AcDbEntity
  8
0
 62
     7
100
AcDbLine
 10
122.9130999304056
 20
127.5397745142248
 30
0.0
 11
122.7590023658871
 21
127.5262926886346
 31
0.0
  0
LINE
  5
1E63
330
1F
100
AcDbEntity
  8
0
 62
     7
100
AcDbLine
 10
122.7590023658871
 20
124.8508134106662
 30
0.0
 11
122.9130999304056
 21
124.8373315850761
 31
0.0
  0
ARC
  5
1E64
330
1F
100
AcDbEntity
  8
0
 62
     7
100
AcDbCircle
 10
122.8025798855315
 20
127.0281954947189
 30
0.0
 40
0.4999999999999938
100
AcDbArc
 50
159.5029603489142
 51
164.0418776587302
  0
ARC
  5
1E65
330
1F
100
AcDbEntity
  8
0
 62
     7
100
AcDbCircle
 10
122.8025798855315
 20
127.0281954947189
 30
0.0
 40
0.500000000000005
100
AcDbArc
 50
94.99999999999976
 51
159.5029603489142
  0
ARC
  5
1E66
330
1F
100
AcDbEntity
  8
0
 62
     7
100
AcDbCircle
 10
122.8025798855315
 20
125.3489107130938
 30
0.0
 40
0.5000000000000192
100
AcDbArc
 50
199.8078105200566
 51
265.0000000000002
  0
ARC
  5
1E67
330
1F
100
AcDbEntity
  8
0
 62
     7
100
AcDbCircle
 10
122.8025798855315
 20
125.3489107130938
 30
0.0
 40
0.50000000000001
100
AcDbArc
 50
196.3848796566199
 51
199.8078105200566
  0
LINE
  5
1E68
330
1F
100
AcDbEntity
  8
0
 62
     7
100
AcDbLine
 10
123.1848887286782
 20
125.4385533923771
 30
0.0
 11
123.809888598293
 21
125.4385533923771
 31
0.0
  0
LINE
  5
1E69
330
1F
100
AcDbEntity
  8
0
 62
     7
100
AcDbLine
 10
123.809888598293
 20
126.9385527069237
 30
0.0
 11
123.1848887286782
 21
126.9385527069237
 31
0.0
  0
ARC
  5
1E6A
330
1F
100
AcDbEntity
  8
0
 62
     7
100
AcDbCircle
 10
125.7388590488725
 20
126.1885531039063
 30
0.0
 40
3.553970312481803
100
AcDbArc
 50
194.0922870924173
 51
195.958122341271
  0
LINE
  5
1E6B
330
1F
100
AcDbEntity
  8
0
 62
     3
100
AcDbLine
 10
131.184888730308
 20
161.2343360851076
 30
0.0
 11
131.184888730308
 21
163.7343337009218
 31
0.0
  0
LINE
  5
1E6C
330
1F
100
AcDbEntity
  8
0
 62
     3
100
AcDbLine
 10
123.1848887286782
 20
163.7343337009218
 30
0.0
 11
123.1848887286782
 21
161.2343360851076
 31
0.0
  0
LINE
  5
1E6D
330
1F
100
AcDbEntity
  8
0
 62
     7
100
AcDbLine
 10
124.684888508886
 20
158.9843352506425
 30
0.0
 11
124.684888508886
 21
157.7343364427354
 31
0.0
  0
LINE
  5
1E6E
330
1F
100
AcDbEntity
  8
0
 62
     7
100
AcDbLine
 10
129.6848887463733
 20
157.7343364427354
 30
0.0
 11
129.6848887463733
 21
158.9843352506425
 31
0.0
  0
LINE
  5
1E6F
330
1F
100
AcDbEntity
  8
0
 62
     7
100
AcDbLine
 10
131.584888734755
 20
159.9843335519102
 30
0.0
 11
131.584888734755
 21
161.2343360851076
 31
0.0
  0
LINE
  5
1E70
330
1F
100
AcDbEntity
  8
0
 62
     7
100
AcDbLine
 10
122.7848884768485
 20
161.2343360851076
 30
0.0
 11
122.7848884768485
 21
159.9843335519102
 31
0.0
  0
LINE
  5
1E71
330
1F
100
AcDbEntity
  8
0
 62
     7
100
AcDbLine
 10
131.6848887395048
 20
158.9843352506425
 30
0.0
 11
131.6848887395048
 21
159.9843335519102
 31
0.0
  0
LINE
  5
1E72
330
1F
100
AcDbEntity
  8
0
 62
     7
100
AcDbLine
 10
122.6848886467218
 20
159.9843335519102
 30
0.0
 11
122.6848886467218
 21
158.9843352506425
 31
0.0
  0
LINE
  5
1E73
330
1F
100
AcDbEntity
  8
0
 62
     3
100
AcDbLine
 10
135.4348888739645
 20
132.6885531837609
 30
0.0
 11
133.1848887379914
 21
132.6885531837609
 31
0.0
  0
ARC
  5
1E74
330
1F
100
AcDbEntity
  8
0
 62
     3
100
AcDbCircle
 10
135.4348887363907
 20
132.9385531039063
 30
0.0
 40
0.25
100
AcDbArc
 50
270.0
 51
0.0
  0
LINE
  5
1E75
330
1F
100
AcDbEntity
  8
0
 62
     3
100
AcDbLine
 10
135.6848889149427
 20
133.9385529229906
 30
0.0
 11
135.6848889149427
 21
132.9385527590778
 31
0.0
  0
LINE
  5
1E76
330
1F
100
AcDbEntity
  8
0
 62
     3
100
AcDbLine
 10
133.1848887379914
 20
132.6885531837609
 30
0.0
 11
121.1848884008526
 21
132.6885531837609
 31
0.0
  0
LINE
  5
1E77
330
1F
100
AcDbEntity
  8
0
 62
     3
100
AcDbLine
 10
133.1848887379914
 20
134.18855342963
 30
0.0
 11
134.8619396917223
 21
134.18855342963
 31
0.0
  0
LINE
  5
1E78
330
1F
100
AcDbEntity
  8
0
 62
     3
100
AcDbLine
 10
134.9178020495623
 20
134.18855342963
 30
0.0
 11
135.4348888739645
 21
134.18855342963
 31
0.0
  0
ARC
  5
1E79
330
1F
100
AcDbEntity
  8
0
 62
     3
100
AcDbCircle
 10
135.4348887363907
 20
133.9385531039063
 30
0.0
 40
0.25
100
AcDbArc
 50
0.0
 51
90.0
  0
LINE
  5
1E7A
330
1F
100
AcDbEntity
  8
0
 62
     3
100
AcDbLine
 10
121.1848884008526
 20
132.6885531837609
 30
0.0
 11
118.9348884977102
 21
132.6885531837609
 31
0.0
  0
ARC
  5
1E7B
330
1F
100
AcDbEntity
  8
0
 62
     3
100
AcDbCircle
 10
118.9348887363908
 20
132.9385531039063
 30
0.0
 40
0.25
100
AcDbArc
 50
180.0
 51
270.0
  0
LINE
  5
1E7C
330
1F
100
AcDbEntity
  8
0
 62
     3
100
AcDbLine
 10
121.1848884008526
 20
134.18855342963
 30
0.0
 11
133.1848887379914
 21
134.18855342963
 31
0.0
  0
LINE
  5
1E7D
330
1F
100
AcDbEntity
  8
0
 62
     3
100
AcDbLine
 10
118.6848889223933
 20
132.9385527590778
 30
0.0
 11
118.6848889223933
 21
133.9385529229906
 31
0.0
  0
ARC
  5
1E7E
330
1F
100
AcDbEntity
  8
0
 62
     3
100
AcDbCircle
 10
118.9348887363908
 20
133.9385531039063
 30
0.0
 40
0.25
100
AcDbArc
 50
90.0
 51
180.0
  0
LINE
  5
1E7F
330
1F
100
AcDbEntity
  8
0
 62
     3
100
AcDbLine
 10
118.9348884977102
 20
134.18855342963
 30
0.0
 11
119.451975554943
 21
134.18855342963
 31
0.0
  0
LINE
  5
1E80
330
1F
100
AcDbEntity
  8
0
 62
     3
100
AcDbLine
 10
119.5078381456136
 20
134.18855342963
 30
0.0
 11
121.1848884008526
 21
134.18855342963
 31
0.0
  0
SPLINE
  5
1E81
330
1F
100
AcDbEntity
  8
0
 62
     3
100
AcDbSpline
210
0.0
220
0.0
230
1.0
 70
     8
 71
     3
 72
    12
 73
     8
 74
     0
 42
0.0000000001
 43
0.0000000001
 40
0.0
 40
0.0
 40
0.0
 40
0.0
 40
0.2298339704393026
 40
0.4603285709565407
 40
0.6751923656359377
 40
0.8808163037475187
 40
1.0
 40
1.0
 40
1.0
 40
1.0
 10
126.1891020580828
 20
129.4761468837526
 30
0.0
 10
126.1809620131669
 20
129.3829601663225
 30
0.0
 10
126.1646585257562
 20
129.1963188774621
 30
0.0
 10
126.0316139256019
 20
128.9523238689775
 30
0.0
 10
125.842498611179
 20
128.7799490333124
 30
0.0
 10
125.6538026863013
 20
128.6988798302443
 30
0.0
 10
125.539376042415
 20
128.6913254393278
 30
0.0
 10
125.4973887584805
 20
128.6885534594324
 30
0.0
  0
SPLINE
  5
1E82
330
1F
100
AcDbEntity
  8
0
 62
     3
100
AcDbSpline
210
0.0
220
0.0
230
1.0
 70
     8
 71
     3
 72
    12
 73
     8
 74
     0
 42
0.0000000001
 43
0.0000000001
 40
0.0
 40
0.0
 40
0.0
 40
0.0
 40
0.2033223363225578
 40
0.4066341860515032
 40
0.6103262662968723
 40
0.8174967498215066
 40
1.0
 40
1.0
 40
1.0
 40
1.0
 10
128.8723888460248
 20
128.6885534594324
 30
0.0
 10
128.8001009257551
 20
128.6964598584495
 30
0.0
 10
128.6555288135519
 20
128.7122722487016
 30
0.0
 10
128.452516093591
 20
128.8362854271174
 30
0.0
 10
128.2935070518057
 20
129.0211008755915
 30
0.0
 10
128.1967803174358
 20
129.2446142449251
 30
0.0
 10
128.1858123714542
 20
129.4022965536995
 30
0.0
 10
128.1806755464225
 20
129.4761468837526
 30
0.0
  0
SPLINE
  5
1E83
330
1F
100
AcDbEntity
  8
0
 62
     3
100
AcDbSpline
210
0.0
220
0.0
230
1.0
 70
     8
 71
     3
 72
     9
 73
     5
 74
     0
 42
0.0000000001
 43
0.0000000001
 40
0.0
 40
0.0
 40
0.0
 40
0.0
 40
0.5215079859133697
 40
1.0
 40
1.0
 40
1.0
 40
1.0
 10
125.4973887584805
 20
128.6885534594324
 30
0.0
 10
125.4261335221432
 20
128.6953577684456
 30
0.0
 10
125.2895004536918
 20
128.7084051410593
 30
0.0
 10
125.1821599032198
 20
128.7950273762009
 30
0.0
 10
125.1307983070313
 20
128.8364754239585
 30
0.0
  0
SPLINE
  5
1E84
330
1F
100
AcDbEntity
  8
0
 62
     3
100
AcDbSpline
210
0.0
220
0.0
230
1.0
 70
     8
 71
     3
 72
    10
 73
     6
 74
     0
 42
0.0000000001
 43
0.0000000001
 40
0.0
 40
0.0
 40
0.0
 40
0.0
 40
0.1679030880514382
 40
0.6946740714372406
 40
1.0
 40
1.0
 40
1.0
 40
1.0
 10
129.2349774043708
 20
128.8413620735076
 30
0.0
 10
129.2196285799879
 20
128.8234945011655
 30
0.0
 10
129.1561251003937
 20
128.749570076251
 30
0.0
 10
129.0253934875476
 20
128.7003769565529
 30
0.0
 10
128.913460892922
 20
128.6917273188878
 30
0.0
 10
128.8723888460248
 20
128.6885534594324
 30
0.0
  0
LINE
  5
1E85
330
1F
100
AcDbEntity
  8
0
 62
     3
100
AcDbLine
 10
123.1434364922046
 20
132.6885531837609
 30
0.0
 11
126.1891020580828
 21
130.6502959872153
 31
0.0
  0
LINE
  5
1E86
330
1F
100
AcDbEntity
  8
0
 62
     3
100
AcDbLine
 10
126.1891020580828
 20
130.6502959872153
 30
0.0
 11
126.1891020580828
 21
129.4761468837526
 31
0.0
  0
LINE
  5
1E87
330
1F
100
AcDbEntity
  8
0
 62
     3
100
AcDbLine
 10
128.1806755464225
 20
130.6502959872153
 30
0.0
 11
131.2263406175356
 21
132.6885531837609
 31
0.0
  0
LINE
  5
1E88
330
1F
100
AcDbEntity
  8
0
 62
     3
100
AcDbLine
 10
128.1806755464225
 20
130.6502959872153
 30
0.0
 11
128.1806755464225
 21
129.4761468837526
 31
0.0
  0
ELLIPSE
  5
1E89
330
1F
100
AcDbEntity
  8
0
 62
     3
100
AcDbEllipse
 10
127.1848887363908
 20
129.404311041171
 30
0.0
 11
3.375
 21
0.0
 31
0.0
210
0.0
220
0.0
230
1.0
 40
0.386381419146224
 41
1.271290643493557
 42
1.870302010096238
  0
LINE
  5
1E8A
330
1F
100
AcDbEntity
  8
0
 62
     3
100
AcDbLine
 10
135.6848889149427
 20
132.9385527590778
 30
0.0
 11
135.6848889149427
 21
130.5225623021391
 31
0.0
  0
LINE
  5
1E8B
330
1F
100
AcDbEntity
  8
0
 62
     3
100
AcDbLine
 10
118.6848889223933
 20
130.5225623021391
 30
0.0
 11
118.6848889223933
 21
132.9385527590778
 31
0.0
  0
SPLINE
  5
1E8C
330
1F
100
AcDbEntity
  8
0
 62
     3
100
AcDbSpline
210
0.0
220
0.0
230
1.0
 70
     8
 71
     3
 72
    18
 73
    14
 74
     0
 42
0.0000000001
 43
0.0000000001
 40
0.0
 40
0.0
 40
0.0
 40
0.0
 40
0.0332228635227102
 40
0.1378741366821594
 40
0.243331336082093
 40
0.3510472227789245
 40
0.4590741793376675
 40
0.5648248221826422
 40
0.6692988791715086
 40
0.7754425404535727
 40
0.8836187930230977
 40
0.9910621004185891
 40
0.9999999999999998
 40
0.9999999999999998
 40
0.9999999999999998
 40
0.9999999999999998
 10
123.8118783689737
 20
125.4475928092864
 30
0.0
 10
123.8113113771466
 20
125.4450137668589
 30
0.0
 10
123.8089583738118
 20
125.4343107987688
 30
0.0
 10
123.8234578867855
 20
125.4995714348904
 30
0.0
 10
123.8498190573075
 20
125.6371645482577
 30
0.0
 10
123.8788894266744
 20
125.84334575771
 30
0.0
 10
123.8960480131297
 20
126.0881852799312
 30
0.0
 10
123.893748053856
 20
126.3427870203265
 30
0.0
 10
123.8737626720118
 20
126.5772329355112
 30
0.0
 10
123.8440706727372
 20
126.7727002060768
 30
0.0
 10
123.8193779342245
 20
126.8964801404526
 30
0.0
 10
123.8073945316483
 20
126.9500123035522
 30
0.0
 10
123.8103537715094
 20
126.9364189807996
 30
0.0
 10
123.8105810366272
 20
126.9353750342991
 30
0.0
  0
LINE
  5
1E8D
330
1F
100
AcDbEntity
  8
0
 62
     3
100
AcDbLine
 10
127.184888918668
 20
124.1885531874862
 30
0.0
 11
130.559888715174
 21
124.1885531874862
 31
0.0
  0
LINE
  5
1E8E
330
1F
100
AcDbEntity
  8
0
 62
     3
100
AcDbLine
 10
123.809888598293
 20
124.1885531874862
 30
0.0
 11
127.184888918668
 21
124.1885531874862
 31
0.0
  0
LINE
  5
1E8F
330
1F
100
AcDbEntity
  8
0
 62
     3
100
AcDbLine
 10
135.4348888739645
 20
130.188552773979
 30
0.0
 11
130.7011283820196
 21
130.188552773979
 31
0.0
  0
ARC
  5
1E90
330
1F
100
AcDbEntity
  8
0
 62
     3
100
AcDbCircle
 10
135.4348887363907
 20
130.4385531039063
 30
0.0
 40
0.25
100
AcDbArc
 50
270.0
 51
0.0
  0
LINE
  5
1E91
330
1F
100
AcDbEntity
  8
0
 62
     3
100
AcDbLine
 10
135.6848889149427
 20
130.5225623021391
 30
0.0
 11
135.6848889149427
 21
130.4385532806184
 31
0.0
  0
LINE
  5
1E92
330
1F
100
AcDbEntity
  8
0
 62
     3
100
AcDbLine
 10
123.668649338901
 20
130.188552773979
 30
0.0
 11
118.9348884977102
 21
130.188552773979
 31
0.0
  0
ARC
  5
1E93
330
1F
100
AcDbEntity
  8
0
 62
     3
100
AcDbCircle
 10
118.9348887363908
 20
130.4385531039063
 30
0.0
 40
0.25
100
AcDbArc
 50
180.0
 51
270.0
  0
LINE
  5
1E94
330
1F
100
AcDbEntity
  8
0
 62
     3
100
AcDbLine
 10
118.6848889223933
 20
130.4385532806184
 30
0.0
 11
118.6848889223933
 21
130.5225623021391
 31
0.0
  0
ELLIPSE
  5
1E95
330
1F
100
AcDbEntity
  8
0
 62
     3
100
AcDbEllipse
 10
128.6793363686229
 20
73.18855310390637
 30
0.0
 11
0.5055523677678906
 21
0.0
 31
0.0
210
0.0
220
0.0
230
1.0
 40
0.9890172252730252
 41
4.712388980384702
 42
6.283185307179584
  0
LINE
  5
1E96
330
1F
100
AcDbEntity
  8
0
 62
     3
100
AcDbLine
 10
128.9939595039635
 20
72.68855173089767
 30
0.0
 11
128.6793363865166
 21
72.68855173089767
 31
0.0
  0
LINE
  5
1E97
330
1F
100
AcDbEntity
  8
0
 62
     3
100
AcDbLine
 10
129.1848887808322
 20
74.18855477073456
 30
0.0
 11
129.1848887808322
 21
73.18855274417663
 31
0.0
  0
ELLIPSE
  5
1E98
330
1F
100
AcDbEntity
  8
0
 62
     3
100
AcDbEllipse
 10
130.8287461307428
 20
65.93855310390636
 30
0.0
 11
0.0
 21
13.74999999999999
 31
0.0
210
0.0
220
0.0
230
1.0
 40
0.149441581304732
 41
0.3187078888741972
 42
0.9272952180016087
  0
LINE
  5
1E99
330
1F
100
AcDbEntity
  8
0
 62
     3
100
AcDbLine
 10
130.1848887119144
 20
78.99611640670562
 30
0.0
 11
130.1848887119144
 21
76.1885513732698
 31
0.0
  0
LINE
  5
1E9A
330
1F
100
AcDbEntity
  8
0
 62
     3
100
AcDbLine
 10
130.1854880179911
 20
76.13434094884659
 30
0.0
 11
130.1848887119144
 21
76.1885513732698
 31
0.0
  0
LINE
  5
1E9B
330
1F
100
AcDbEntity
  8
0
 62
     3
100
AcDbLine
 10
125.6904412179887
 20
74.18855477073456
 30
0.0
 11
125.1848885908424
 21
74.18855477073456
 31
0.0
  0
LINE
  5
1E9C
330
1F
100
AcDbEntity
  8
0
 62
     3
100
AcDbLine
 10
125.6904412179887
 20
74.18855477073456
 30
0.0
 11
125.6904412179887
 21
73.18855274417663
 31
0.0
  0
LINE
  5
1E9D
330
1F
100
AcDbEntity
  8
0
 62
     3
100
AcDbLine
 10
128.6793363865166
 20
74.18855477073456
 30
0.0
 11
128.6793363865166
 21
73.18855274417663
 31
0.0
  0
LINE
  5
1E9E
330
1F
100
AcDbEntity
  8
0
 62
     3
100
AcDbLine
 10
129.1848887808322
 20
74.18855477073456
 30
0.0
 11
128.6793363865166
 21
74.18855477073456
 31
0.0
  0
ELLIPSE
  5
1E9F
330
1F
100
AcDbEntity
  8
0
 62
     3
100
AcDbEllipse
 10
125.6904411041586
 20
73.18855310390637
 30
0.0
 11
0.5055523677678906
 21
0.0
 31
0.0
210
0.0
220
0.0
230
1.0
 40
0.9890172252730252
 41
3.141592653589792
 42
4.712388980384702
  0
LINE
  5
1EA0
330
1F
100
AcDbEntity
  8
0
 62
     3
100
AcDbLine
 10
125.1848885908424
 20
74.18855477073456
 30
0.0
 11
125.1848885908424
 21
73.18855274417663
 31
0.0
  0
LINE
  5
1EA1
330
1F
100
AcDbEntity
  8
0
 62
     3
100
AcDbLine
 10
125.6904412179887
 20
73.18855274417663
 30
0.0
 11
128.6793363865166
 21
73.18855274417663
 31
0.0
  0
LINE
  5
1EA2
330
1F
100
AcDbEntity
  8
0
 62
     3
100
AcDbLine
 10
125.6904412179887
 20
72.68855173089767
 30
0.0
 11
128.6793363865166
 21
72.68855173089767
 31
0.0
  0
LINE
  5
1EA3
330
1F
100
AcDbEntity
  8
0
 62
     3
100
AcDbLine
 10
125.6904412179887
 20
72.68855173089767
 30
0.0
 11
125.3758181005418
 21
72.68855173089767
 31
0.0
  0
SPLINE
  5
1EA4
330
1F
100
AcDbEntity
  8
0
 62
     3
100
AcDbSpline
210
0.0
220
0.0
230
1.0
 70
     8
 71
     3
 72
    14
 73
    10
 74
     0
 42
0.0000000001
 43
0.0000000001
 40
0.0
 40
0.0
 40
0.0
 40
0.0
 40
0.0599927272207589
 40
0.229255896290028
 40
0.3895206046399231
 40
0.5540795434711331
 40
0.7212945500523135
 40
0.892868051403807
 40
1.0
 40
1.0
 40
1.0
 40
1.0
 10
132.4193468203469
 20
79.68262780406738
 30
0.0
 10
132.4234422889752
 20
79.68418891220991
 30
0.0
 10
132.4390926915254
 20
79.6901545227597
 30
0.0
 10
132.3246918106591
 20
79.64648036519548
 30
0.0
 10
132.0827407902501
 20
79.55708401815448
 30
0.0
 10
131.7139779842033
 20
79.42765010944722
 30
0.0
 10
131.2245894416036
 20
79.27046440076809
 30
0.0
 10
130.702849776239
 20
79.12018021672905
 30
0.0
 10
130.3287062327858
 20
79.03056407240169
 30
0.0
 10
130.1848887119144
 20
78.99611640670562
 30
0.0
  0
SPLINE
  5
1EA5
330
1F
100
AcDbEntity
  8
0
 62
     3
100
AcDbSpline
210
0.0
220
0.0
230
1.0
 70
     8
 71
     3
 72
    14
 73
    10
 74
     0
 42
0.0000000001
 43
0.0000000001
 40
0.0
 40
0.0
 40
0.0
 40
0.0
 40
0.0140444608390411
 40
0.170250469356201
 40
0.3310041029655739
 40
0.487379418209066
 40
0.6479011886794975
 40
0.8212818539950747
 40
1.0
 40
1.0
 40
1.0
 40
1.0
 10
131.9295563621148
 20
79.68672189810539
 30
0.0
 10
131.9313134400755
 20
79.68732520579767
 30
0.0
 10
131.9526131788788
 20
79.69463865263998
 30
0.0
 10
131.8741538307945
 20
79.66751144388365
 30
0.0
 10
131.6933269148583
 20
79.60638050855712
 30
0.0
 10
131.3824145514866
 20
79.50604724375046
 30
0.0
 10
130.9577534426644
 20
79.380142197605
 30
0.0
 10
130.4116957140782
 20
79.2330685101285
 30
0.0
 10
129.9550060627155
 20
79.13772749343285
 30
0.0
 10
129.723199748218
 20
79.08933434584405
 30
0.0
  0
ELLIPSE
  5
1EA6
330
1F
100
AcDbEntity
  8
0
 62
     3
100
AcDbEllipse
 10
130.3231937629749
 20
65.93855310390636
 30
0.0
 11
0.0
 21
13.74999999999999
 31
0.0
210
0.0
220
0.0
230
1.0
 40
0.149441581304732
 41
0.2963102268655293
 42
0.9272952180016128
  0
LINE
  5
1EA7
330
1F
100
AcDbEntity
  8
0
 62
     3
100
AcDbLine
 10
124.1848888925909
 20
78.99611640670562
 30
0.0
 11
124.1848888925909
 21
76.1885513732698
 31
0.0
  0
ELLIPSE
  5
1EA8
330
1F
100
AcDbEntity
  8
0
 62
     3
100
AcDbEllipse
 10
123.5410313420387
 20
65.93855310390636
 30
0.0
 11
0.0
 21
13.74999999999999
 31
0.0
210
0.0
220
0.0
230
1.0
 40
0.149441581304733
 41
5.355890089178012
 42
5.964477418305472
  0
LINE
  5
1EA9
330
1F
100
AcDbEntity
  8
0
 62
     3
100
AcDbLine
 10
124.1848888925909
 20
76.1885513732698
 30
0.0
 11
124.1842895865142
 21
76.13434094884659
 31
0.0
  0
SPLINE
  5
1EAA
330
1F
100
AcDbEntity
  8
0
 62
     3
100
AcDbSpline
210
0.0
220
0.0
230
1.0
 70
     8
 71
     3
 72
    14
 73
    10
 74
     0
 42
0.0000000001
 43
0.0000000001
 40
0.0
 40
0.0
 40
0.0
 40
0.0
 40
0.0342702616113701
 40
0.2055555167865663
 40
0.3814623857944284
 40
0.5584051553111135
 40
0.7409403777023274
 40
0.9098894162062684
 40
1.0
 40
1.0
 40
1.0
 40
1.0
 10
124.1848888925909
 20
78.99611640670562
 30
0.0
 10
124.1382249834078
 20
79.00699057581338
 30
0.0
 10
123.8583314688442
 20
79.0722146314659
 30
0.0
 10
123.3798276778476
 20
79.2002097684373
 30
0.0
 10
122.8253596362334
 20
79.37095600441255
 30
0.0
 10
122.3802271652693
 20
79.52329146495703
 30
0.0
 10
122.0867500045518
 20
79.6307632336439
 30
0.0
 10
121.9405074476469
 20
79.6863975639297
 30
0.0
 10
121.9503429500624
 20
79.68265817781713
 30
0.0
 10
121.9537641040682
 20
79.6813574800756
 30
0.0
  0
SPLINE
  5
1EAB
330
1F
100
AcDbEntity
  8
0
 62
     3
100
AcDbSpline
210
0.0
220
0.0
230
1.0
 70
     8
 71
     3
 72
    13
 73
     9
 74
     0
 42
0.0000000001
 43
0.0000000001
 40
0.0
 40
0.0
 40
0.0
 40
0.0
 40
0.1677545940538986
 40
0.3403396611559673
 40
0.5080993188880776
 40
0.6809182773559411
 40
0.8448611380719553
 40
1.0
 40
1.0
 40
1.0
 40
1.0
 10
124.6465776234567
 20
79.08933434584405
 30
0.0
 10
124.4285974306814
 20
79.13463842761712
 30
0.0
 10
123.9863603321015
 20
79.22655111666505
 30
0.0
 10
123.4387269750256
 20
79.37245275360449
 30
0.0
 10
122.9870432000347
 20
79.50591662149257
 30
0.0
 10
122.6667176592809
 20
79.60951520056681
 30
0.0
 10
122.4683990400202
 20
79.67689976331254
 30
0.0
 10
122.4494392311496
 20
79.68350863646505
 30
0.0
 10
122.4402208931445
 20
79.68672189810539
 30
0.0
  0
ELLIPSE
  5
1EAC
330
1F
100
AcDbEntity
  8
0
 62
     3
100
AcDbEllipse
 10
124.0465837098066
 20
65.93855310390636
 30
0.0
 11
0.0
 21
13.74999999999999
 31
0.0
210
0.0
220
0.0
230
1.0
 40
0.149441581304732
 41
5.355890089178005
 42
5.986875080314142
  0
LINE
  5
1EAD
330
1F
100
AcDbEntity
  8
0
 62
     3
100
AcDbLine
 10
124.1995525665283
 20
75.99511567452217
 30
0.0
 11
124.1842895865142
 21
76.13434094884659
 31
0.0
  0
SPLINE
  5
1EAE
330
1F
100
AcDbEntity
  8
0
 62
     3
100
AcDbSpline
210
0.0
220
0.0
230
1.0
 70
     8
 71
     3
 72
     9
 73
     5
 74
     0
 42
0.0000000001
 43
0.0000000001
 40
0.0
 40
0.0
 40
0.0
 40
0.0
 40
0.8878377894618891
 40
0.9999999999999998
 40
0.9999999999999998
 40
0.9999999999999998
 40
0.9999999999999998
 10
130.1854880179911
 20
76.13434094884659
 30
0.0
 10
130.1866474102298
 20
76.09088275649451
 30
0.0
 10
130.187953270661
 20
76.04193440932133
 30
0.0
 10
130.1716162232577
 20
76.00043024924561
 30
0.0
 10
130.1697838239073
 20
75.995775050905
 30
0.0
  0
LINE
  5
1EAF
330
1F
100
AcDbEntity
  8
0
 62
     3
100
AcDbLine
 10
128.953538940072
 20
76.1885513732698
 30
0.0
 11
125.4162384316027
 21
76.1885513732698
 31
0.0
  0
LINE
  5
1EB0
330
1F
100
AcDbEntity
  8
0
 62
     3
100
AcDbLine
 10
131.9348887077234
 20
75.68855408528114
 30
0.0
 11
130.099305173166
 21
75.68855408528114
 31
0.0
  0
LINE
  5
1EB1
330
1F
100
AcDbEntity
  8
0
 62
     3
100
AcDbLine
 10
124.2704723149239
 20
75.68855408528114
 30
0.0
 11
122.4348890714049
 21
75.68855408528114
 31
0.0
  0
LINE
  5
1EB2
330
1F
100
AcDbEntity
  8
0
 62
     3
100
AcDbLine
 10
127.184888918668
 20
77.68855441310669
 30
0.0
 11
125.1138100519478
 21
77.68855441310669
 31
0.0
  0
LINE
  5
1EB3
330
1F
100
AcDbEntity
  8
0
 62
     3
100
AcDbLine
 10
129.2559673197269
 20
77.68855441310669
 30
0.0
 11
127.184888918668
 21
77.68855441310669
 31
0.0
  0
LINE
  5
1EB4
330
1F
100
AcDbEntity
  8
0
 62
     3
100
AcDbLine
 10
124.9348885498642
 20
121.9385532843437
 30
0.0
 11
129.4348888218104
 21
121.9385532843437
 31
0.0
  0
SPLINE
  5
1EB7
330
1F
100
AcDbEntity
  8
0
 62
     3
100
AcDbSpline
210
0.0
220
0.0
230
1.0
 70
     8
 71
     3
 72
    13
 73
     9
 74
     0
 42
0.0000000001
 43
0.0000000001
 40
0.0
 40
0.0
 40
0.0
 40
0.0
 40
0.0079227230188313
 40
0.2701653918904236
 40
0.5170703077533318
 40
0.6851869952622454
 40
0.842352893385097
 40
1.0
 40
1.0
 40
1.0
 40
1.0
 10
119.0874819762706
 20
137.2029540310171
 30
0.0
 10
119.0874558524609
 20
137.203260026387
 30
0.0
 10
119.0865650287805
 20
137.2136944892418
 30
0.0
 10
119.0893177345763
 20
137.2343281260873
 30
0.0
 10
119.1049628314776
 20
137.2605470550013
 30
0.0
 10
119.1272786105752
 20
137.279342060062
 30
0.0
 10
119.1519164895023
 20
137.2917408645526
 30
0.0
 10
119.1707289137473
 20
137.2947008773559
 30
0.0
 10
119.1801495037674
 20
137.2961831460264
 30
0.0
  0
LINE
  5
1EB8
330
1F
100
AcDbEntity
  8
0
 62
     3
100
AcDbLine
 10
119.1801495037674
 20
137.2961831460264
 30
0.0
 11
119.1883367605209
 21
137.296527735379
 31
0.0
  0
LINE
  5
1EB9
330
1F
100
AcDbEntity
  8
0
 62
     3
100
AcDbLine
 10
119.2354812405705
 20
135.5696545163658
 30
0.0
 11
119.0874819762706
 21
137.2029540310171
 31
0.0
  0
ELLIPSE
  5
1EBA
330
1F
100
AcDbEntity
  8
0
 62
     3
100
AcDbEllipse
 10
135.2002779262282
 20
137.4059319538939
 30
0.0
 11
-0.0091647025818844
 21
-0.101140857682509
 31
0.0
210
0.0
220
0.0
230
1.0
 40
0.9846858639386899
 41
1.570796326794779
 42
3.230582590862348
  0
LINE
  5
1EBB
330
1F
100
AcDbEntity
  8
0
 62
     3
100
AcDbLine
 10
135.2998699180483
 20
137.3969075451162
 30
0.0
 11
135.1342963639348
 21
135.5696545163658
 31
0.0
  0
LINE
  5
1EBC
330
1F
100
AcDbEntity
  8
0
 62
     3
100
AcDbLine
 10
131.4348887362706
 20
136.6258395085599
 30
0.0
 11
122.9348891533613
 21
136.6258395085599
 31
0.0
  0
LINE
  5
1EBD
330
1F
100
AcDbEntity
  8
0
 62
     3
100
AcDbLine
 10
135.2005553085058
 20
137.5074741611745
 30
0.0
 11
131.4348887362706
 21
137.5074741611745
 31
0.0
  0
LINE
  5
1EBE
330
1F
100
AcDbEntity
  8
0
 62
     3
100
AcDbLine
 10
122.9348891533613
 20
137.296527735379
 30
0.0
 11
119.1883367605209
 21
137.296527735379
 31
0.0
  0
LINE
  5
1EBF
330
1F
100
AcDbEntity
  8
0
 62
     3
100
AcDbLine
 10
133.9348886280953
 20
146.4843341330555
 30
0.0
 11
120.4348887435793
 21
146.4843341330555
 31
0.0
  0
LINE
  5
1EC0
330
1F
100
AcDbEntity
  8
0
 62
     3
100
AcDbLine
 10
120.9348888255357
 20
147.9843353102472
 30
0.0
 11
133.4348887789696
 21
147.9843353102472
 31
0.0
  0
LINE
  5
1EC1
330
1F
100
AcDbEntity
  8
0
 62
     3
100
AcDbLine
 10
122.9348891533613
 20
146.4843341330555
 30
0.0
 11
122.9348891533613
 21
136.6258395085599
 31
0.0
  0
LINE
  5
1EC2
330
1F
100
AcDbEntity
  8
0
 62
     3
100
AcDbLine
 10
131.4348887362706
 20
146.4843341330555
 30
0.0
 11
131.4348887362706
 21
136.6258395085599
 31
0.0
  0
LINE
  5
1EC3
330
1F
100
AcDbEntity
  8
0
 62
     3
100
AcDbLine
 10
127.184888918668
 20
150.4843329260614
 30
0.0
 11
131.9348887077234
 21
150.4843329260614
 31
0.0
  0
LINE
  5
1EC4
330
1F
100
AcDbEntity
  8
0
 62
     3
100
AcDbLine
 10
122.4348890714049
 20
150.4843329260614
 30
0.0
 11
127.184888918668
 21
150.4843329260614
 31
0.0
  0
LINE
  5
1EC5
330
1F
100
AcDbEntity
  8
0
 62
     3
100
AcDbLine
 10
127.184888918668
 20
154.734334088352
 30
0.0
 11
131.9348887077234
 21
154.734334088352
 31
0.0
  0
LINE
  5
1EC6
330
1F
100
AcDbEntity
  8
0
 62
     3
100
AcDbLine
 10
122.4348890714049
 20
154.734334088352
 30
0.0
 11
127.184888918668
 21
154.734334088352
 31
0.0
  0
LINE
  5
1EC7
330
1F
100
AcDbEntity
  8
0
 62
     3
100
AcDbLine
 10
127.184888918668
 20
157.484335936096
 30
0.0
 11
131.9348887077234
 21
157.484335936096
 31
0.0
  0
LINE
  5
1EC8
330
1F
100
AcDbEntity
  8
0
 62
     3
100
AcDbLine
 10
122.4348890714049
 20
157.484335936096
 30
0.0
 11
127.184888918668
 21
157.484335936096
 31
0.0
  0
ARC
  5
1EC9
330
1F
100
AcDbEntity
  8
0
 62
     3
100
AcDbCircle
 10
123.5598887363907
 20
92.98433469725386
 30
0.0
 40
0.500000000003423
100
AcDbArc
 50
90.0
 51
163.2148144249795
  0
LINE
  5
1ECA
330
1F
100
AcDbEntity
  8
0
 62
     3
100
AcDbLine
 10
123.5598885573148
 20
93.48433475890422
 30
0.0
 11
130.8098887561522
 21
93.48433475890422
 31
0.0
  0
ARC
  5
1ECB
330
1F
100
AcDbEntity
  8
0
 62
     3
100
AcDbCircle
 10
130.8098887363908
 20
92.98433469725386
 30
0.0
 40
0.5000000000000086
100
AcDbArc
 50
16.78518557404666
 51
90.0
  0
LINE
  5
1ECC
330
1F
100
AcDbEntity
  8
0
 62
     3
100
AcDbLine
 10
127.184888918668
 20
83.48433498242163
 30
0.0
 11
123.5598885573148
 21
83.48433498242163
 31
0.0
  0
LINE
  5
1ECD
330
1F
100
AcDbEntity
  8
0
 62
     3
100
AcDbLine
 10
130.8098887561522
 20
83.48433498242163
 30
0.0
 11
127.184888918668
 21
83.48433498242163
 31
0.0
  0
LINE
  5
1ECE
330
1F
100
AcDbEntity
  8
0
 62
     3
100
AcDbLine
 10
127.184888918668
 20
157.7343364427354
 30
0.0
 11
130.9348887184336
 21
157.7343364427354
 31
0.0
  0
LINE
  5
1ECF
330
1F
100
AcDbEntity
  8
0
 62
     3
100
AcDbLine
 10
123.4348883039951
 20
157.7343364427354
 30
0.0
 11
127.184888918668
 21
157.7343364427354
 31
0.0
  0
ARC
  5
1ED1
330
1F
100
AcDbEntity
  8
0
 62
     3
100
AcDbCircle
 10
131.2113375980475
 20
93.38433469725387
 30
0.0
 40
0.0999999999999989
100
AcDbArc
 50
354.8223826109827
 51
90.0
  0
LINE
  5
1ED2
330
1F
100
AcDbEntity
  8
0
 62
     3
100
AcDbLine
 10
130.8098887561522
 20
93.48433475890422
 30
0.0
 11
131.2113375929351
 21
93.48433475890422
 31
0.0
  0
LINE
  5
1ED3
330
1F
100
AcDbEntity
  8
0
 62
     3
100
AcDbLine
 10
131.2885858382964
 20
93.12872599759369
 30
0.0
 11
131.3109295765338
 21
93.37531041302948
 31
0.0
  0
ARC
  5
1ED4
330
1F
100
AcDbEntity
  8
0
 62
     3
100
AcDbCircle
 10
123.158439874734
 20
93.38433469725387
 30
0.0
 40
0.1000000000000131
100
AcDbArc
 50
90.0
 51
185.1776173890171
  0
LINE
  5
1ED5
330
1F
100
AcDbEntity
  8
0
 62
     3
100
AcDbLine
 10
123.1584400988817
 20
93.48433475890422
 30
0.0
 11
123.5598885573148
 21
93.48433475890422
 31
0.0
  0
LINE
  5
1ED6
330
1F
100
AcDbEntity
  8
0
 62
     3
100
AcDbLine
 10
123.0811915479302
 20
93.12872599759369
 30
0.0
 11
123.0588481880426
 21
93.37531041302948
 31
0.0
  0
LINE
  5
1EDB
330
1F
100
AcDbEntity
  8
0
 62
     3
100
AcDbLine
 10
134.6466973077207
 20
130.188552773979
 30
0.0
 11
131.8636704413387
 21
99.47531122663288
 31
0.0
  0
LINE
  5
1EDC
330
1F
100
AcDbEntity
  8
0
 62
     3
100
AcDbLine
 10
122.5061073086857
 20
99.47531122663288
 30
0.0
 11
119.7230798311233
 21
130.188552773979
 31
0.0
  0
LINE
  5
1EDD
330
1F
100
AcDbEntity
  8
0
 62
     7
100
AcDbLine
 10
123.1848887286782
 20
127.2907258192566
 30
0.0
 11
123.1848887286782
 21
125.0863802800443
 31
0.0
  0
LINE
  5
1EDE
330
1F
100
AcDbEntity
  8
0
 62
     7
100
AcDbLine
 10
122.3389460824131
 20
125.6614803517726
 30
0.0
 11
122.3218488625883
 21
125.6763181830313
 31
0.0
  0
LINE
  5
1EDF
330
1F
100
AcDbEntity
  8
0
 62
     7
100
AcDbLine
 10
122.3389460824131
 20
125.6614803517726
 30
0.0
 11
122.3389460824131
 21
126.1401596660283
 31
0.0
  0
LINE
  5
1EE0
330
1F
100
AcDbEntity
  8
0
 62
     7
100
AcDbLine
 10
122.3389460824131
 20
126.1401596660283
 30
0.0
 11
122.3218488625883
 21
126.1549965659645
 31
0.0
  0
LINE
  5
1EE1
330
1F
100
AcDbEntity
  8
0
 62
     7
100
AcDbLine
 10
122.3389460824131
 20
127.069800272074
 30
0.0
 11
122.3218488625883
 21
127.0206338907149
 31
0.0
  0
LINE
  5
1EE2
330
1F
100
AcDbEntity
  8
0
 62
     7
100
AcDbLine
 10
122.3389460824131
 20
127.069800272074
 30
0.0
 11
122.3389460824131
 21
127.2142530600097
 31
0.0
  0
LINE
  5
1EE3
330
1F
100
AcDbEntity
  8
0
 62
     7
100
AcDbLine
 10
122.3389460824131
 20
127.2142530600097
 30
0.0
 11
122.3218488625883
 21
127.1650866786506
 31
0.0
  0
LINE
  5
1EE4
330
1F
100
AcDbEntity
  8
0
 62
     7
100
AcDbLine
 10
122.3218488625883
 20
127.1650866786506
 30
0.0
 11
122.3218488625883
 21
127.1656631673243
 31
0.0
  0
LINE
  5
1EE5
330
1F
100
AcDbEntity
  8
0
 62
     7
100
AcDbLine
 10
122.3218488625883
 20
125.2120194206503
 30
0.0
 11
122.3218488625883
 21
125.2114429319766
 31
0.0
  0
ARC
  5
1EE6
330
1F
100
AcDbEntity
  8
0
 62
     7
100
AcDbCircle
 10
122.6374960359765
 20
126.4785151369721
 30
0.0
 40
0.4519927033202121
100
AcDbArc
 50
195.7710989462031
 51
225.7055682641811
  0
ARC
  5
1EE7
330
1F
100
AcDbEntity
  8
0
 62
     7
100
AcDbCircle
 10
125.456378540233
 20
126.1149427339507
 30
0.0
 40
3.262752330698071
100
AcDbArc
 50
163.8838763669319
 51
175.7689212581679
  0
ARC
  5
1EE8
330
1F
100
AcDbEntity
  8
0
 62
     7
100
AcDbCircle
 10
122.6374853990006
 20
125.9998304286354
 30
0.0
 40
0.4519807475701679
100
AcDbArc
 50
195.7706937755571
 51
225.7059734348276
  0
LINE
  5
1EE9
330
1F
100
AcDbEntity
  8
0
 62
     7
100
AcDbLine
 10
122.3389460824131
 20
125.876987464216
 30
0.0
 11
122.2025185011029
 21
125.876987464216
 31
0.0
  0
ARC
  5
1EEA
330
1F
100
AcDbEntity
  8
0
 62
     7
100
AcDbCircle
 10
125.4546591061249
 20
126.1174943781757
 30
0.0
 40
3.261021632938948
100
AcDbArc
 50
184.2295193860794
 51
194.0971741993735
  0
LINE
  5
1EEB
330
1F
100
AcDbEntity
  8
0
 62
     7
100
AcDbLine
 10
122.216431529045
 20
126.5001186350849
 30
0.0
 11
122.2025185011029
 21
126.5001186350849
 31
0.0
  0
ARC
  5
1EEC
330
1F
100
AcDbEntity
  8
0
 62
     7
100
AcDbCircle
 10
125.456378540233
 20
126.2593955218864
 30
0.0
 40
3.262752330698071
100
AcDbArc
 50
163.8838763669319
 51
175.7689212581679
  0
LINE
  5
1EEE
330
1F
100
AcDbEntity
  8
0
 62
     7
100
AcDbLine
 10
122.3389460824131
 20
126.0214402521517
 30
0.0
 11
122.2025185011029
 21
126.0214402521517
 31
0.0
  0
ARC
  5
1EEF
330
1F
100
AcDbEntity
  8
0
 62
     7
100
AcDbCircle
 10
122.6176191712305
 20
125.9069848663134
 30
0.0
 40
0.4305909911828162
100
AcDbArc
 50
139.1628727061489
 51
164.5849120859027
  0
LINE
  5
1EF0
330
1F
100
AcDbEntity
  8
0
 62
     3
100
AcDbLine
 10
125.2543643235862
 20
167.7343343565729
 30
0.0
 11
129.1154132809191
 21
167.7343343565729
 31
0.0
  0
SPLINE
  5
1EF1
330
1F
100
AcDbEntity
  8
0
 62
     3
100
AcDbSpline
210
0.0
220
0.0
230
1.0
 70
     8
 71
     3
 72
    13
 73
     9
 74
     0
 42
0.0000000001
 43
0.0000000001
 40
0.0
 40
0.0
 40
0.0
 40
0.0
 40
0.4537717496966855
 40
0.6108044511074083
 40
0.7687228005858763
 40
0.8706351611675005
 40
0.9570261957705287
 40
0.9999999999999998
 40
0.9999999999999998
 40
0.9999999999999998
 40
0.9999999999999998
 10
129.1154132809191
 20
167.7343343565729
 30
0.0
 10
129.3024531016648
 20
167.7271747243987
 30
0.0
 10
129.5542201081436
 20
167.7175374228189
 30
0.0
 10
129.8508723012106
 20
167.6067209046614
 30
0.0
 10
129.9963700134269
 20
167.5111973319267
 30
0.0
 10
130.08709314678
 20
167.3982107446292
 30
0.0
 10
130.1228591454108
 20
167.3062742107226
 30
0.0
 10
130.1258194391862
 20
167.2522722843117
 30
0.0
 10
130.1268028214275
 20
167.2343333432939
 30
0.0
  0
SPLINE
  5
1EF2
330
1F
100
AcDbEntity
  8
0
 62
     3
100
AcDbSpline
210
0.0
220
0.0
230
1.0
 70
     8
 71
     3
 72
    12
 73
     8
 74
     0
 42
0.0000000001
 43
0.0000000001
 40
0.0
 40
0.0
 40
0.0
 40
0.0
 40
0.0943240157855723
 40
0.188010076310828
 40
0.3295629102094941
 40
0.5670766212031185
 40
1.0
 40
1.0
 40
1.0
 40
1.0
 10
124.2429745502471
 20
167.2343333432939
 30
0.0
 10
124.2477141396467
 20
167.2738455164586
 30
0.0
 10
124.2571612624953
 20
167.3526026243914
 30
0.0
 10
124.3337047761454
 20
167.4702276426813
 30
0.0
 10
124.4854246720276
 20
167.5954685709872
 30
0.0
 10
124.8017211625006
 20
167.7171087055087
 30
0.0
 10
125.0767616159802
 20
167.7275755617156
 30
0.0
 10
125.2543643235862
 20
167.7343343565729
 30
0.0
  0
LINE
  5
1EF3
330
1F
100
AcDbEntity
  8
0
 62
     3
100
AcDbLine
 10
124.2429745502471
 20
167.2343333432939
 30
0.0
 11
124.2429745502471
 21
163.7343337009218
 31
0.0
  0
LINE
  5
1EF4
330
1F
100
AcDbEntity
  8
0
 62
     3
100
AcDbLine
 10
130.1268028214275
 20
163.7343337009218
 30
0.0
 11
130.1268028214275
 21
167.2343333432939
 31
0.0
  0
LINE
  5
1EF5
330
1F
100
AcDbEntity
  8
0
 62
     3
100
AcDbLine
 10
127.184888918668
 20
161.2343360851076
 30
0.0
 11
127.4348889596462
 21
161.2343360851076
 31
0.0
  0
SPLINE
  5
1EF6
330
1F
100
AcDbEntity
  8
0
 62
     3
100
AcDbSpline
210
0.0
220
0.0
230
1.0
 70
     8
 71
     3
 72
    10
 73
     6
 74
     0
 42
0.0000000001
 43
0.0000000001
 40
0.0
 40
0.0
 40
0.0
 40
0.0
 40
0.1735508986621896
 40
0.5809277076354761
 40
1.0
 40
1.0
 40
1.0
 40
1.0
 10
126.6249680079221
 20
168.7327717612054
 30
0.0
 10
126.6890655315335
 20
168.7330903918416
 30
0.0
 10
126.9036194620732
 20
168.7341569456107
 30
0.0
 10
127.2817136642018
 20
168.7347286689627
 30
0.0
 10
127.5889947908729
 20
168.7334301889321
 30
0.0
 10
127.7448095965832
 20
168.7327717612054
 30
0.0
  0
ARC
  5
1EF7
330
1F
100
AcDbEntity
  8
0
 62
     3
100
AcDbCircle
 10
127.1848887363908
 20
68.48433469725346
 30
0.0
 40
100.2500000000004
100
AcDbArc
 50
85.59957966624997
 51
89.67998732330583
  0
LINE
  5
1EF8
330
1F
100
AcDbEntity
  8
0
 62
     3
100
AcDbLine
 10
130.1268028214275
 20
163.7343337009218
 30
0.0
 11
136.7861848443447
 21
163.7343337009218
 31
0.0
  0
ARC
  5
1EF9
330
1F
100
AcDbEntity
  8
0
 62
     3
100
AcDbCircle
 10
127.1848887363908
 20
68.48433469725346
 30
0.0
 40
100.2500000000004
100
AcDbArc
 50
90.32001267669413
 51
94.40042033374998
  0
LINE
  5
1EFA
330
1F
100
AcDbEntity
  8
0
 62
     3
100
AcDbLine
 10
117.5835925273299
 20
163.7343337009218
 30
0.0
 11
124.2429745502471
 21
163.7343337009218
 31
0.0
  0
ARC
  5
1EFB
330
1F
100
AcDbEntity
  8
0
 62
     3
100
AcDbCircle
 10
134.6848887363907
 20
165.946186208499
 30
0.0
 40
2.500000000000042
100
AcDbArc
 50
0.0
 51
85.59957966624997
  0
ARC
  5
1EFC
330
1F
100
AcDbEntity
  8
0
 62
     3
100
AcDbCircle
 10
119.6848887363907
 20
165.946186208499
 30
0.0
 40
2.500000000000042
100
AcDbArc
 50
94.40042033374998
 51
180.0
  0
LINE
  5
1EFD
330
1F
100
AcDbEntity
  8
0
 62
     3
100
AcDbLine
 10
137.1848886951505
 20
165.9461875627306
 30
0.0
 11
137.1848886951505
 21
163.7343337009218
 31
0.0
  0
LINE
  5
1EFE
330
1F
100
AcDbEntity
  8
0
 62
     3
100
AcDbLine
 10
137.1848886951505
 20
163.7343337009218
 30
0.0
 11
136.7861848443447
 21
163.7343337009218
 31
0.0
  0
LINE
  5
1EFF
330
1F
100
AcDbEntity
  8
0
 62
     3
100
AcDbLine
 10
117.1848886765241
 20
163.7343337009218
 30
0.0
 11
117.1848886765241
 21
165.9461875627306
 31
0.0
  0
LINE
  5
1F00
330
1F
100
AcDbEntity
  8
0
 62
     3
100
AcDbLine
 10
117.5835925273299
 20
163.7343337009218
 30
0.0
 11
117.1848886765241
 21
163.7343337009218
 31
0.0
  0
LINE
  5
1F01
330
1F
100
AcDbEntity
  8
0
 62
     7
100
AcDbLine
 10
127.4348889596462
 20
161.2343360851076
 30
0.0
 11
131.584888734755
 21
161.2343360851076
 31
0.0
  0
LINE
  5
1F02
330
1F
100
AcDbEntity
  8
0
 62
     7
100
AcDbLine
 10
122.7848884768485
 20
161.2343360851076
 30
0.0
 11
127.184888918668
 21
161.2343360851076
 31
0.0
  0
LINE
  5
1F05
330
1F
100
AcDbEntity
  8
0
 62
     7
100
AcDbLine
 10
127.184888918668
 20
158.9843352506425
 30
0.0
 11
131.6848887395048
 21
158.9843352506425
 31
0.0
  0
LINE
  5
1F06
330
1F
100
AcDbEntity
  8
0
 62
     7
100
AcDbLine
 10
122.6848886467218
 20
158.9843352506425
 30
0.0
 11
127.184888918668
 21
158.9843352506425
 31
0.0
  0
LINE
  5
1F07
330
1F
100
AcDbEntity
  8
0
 62
     7
100
AcDbLine
 10
127.184888918668
 20
159.9843335519102
 30
0.0
 11
131.6848887395048
 21
159.9843335519102
 31
0.0
  0
LINE
  5
1F08
330
1F
100
AcDbEntity
  8
0
 62
     7
100
AcDbLine
 10
122.6848886467218
 20
159.9843335519102
 30
0.0
 11
127.184888918668
 21
159.9843335519102
 31
0.0
  0
LINE
  5
1F09
330
1F
100
AcDbEntity
  8
0
 62
     3
100
AcDbLine
 10
195.1318340911803
 20
128.7102504814532
 30
0.0
 11
202.5607793662039
 21
132.6885494584706
 31
0.0
  0
LINE
  5
1F0A
330
1F
100
AcDbEntity
  8
0
 62
     3
100
AcDbLine
 10
181.6863852623191
 20
132.6885494584706
 30
0.0
 11
189.1147868777898
 21
128.710541985419
 31
0.0
  0
LINE
  5
1F0B
330
1F
100
AcDbEntity
  8
0
 62
     3
100
AcDbLine
 10
195.4985824018058
 20
124.1885494621959
 30
0.0
 11
195.4985824018058
 21
128.9066487173107
 31
0.0
  0
LINE
  5
1F0C
330
1F
100
AcDbEntity
  8
0
 62
     3
100
AcDbLine
 10
188.7485822267172
 20
128.9066487173107
 30
0.0
 11
188.7485822267172
 21
124.1885494621959
 31
0.0
  0
LINE
  5
1F0D
330
1F
100
AcDbEntity
  8
0
 62
     3
100
AcDbLine
 10
194.3735822174039
 20
79.50285647013449
 30
0.0
 11
194.3735822174039
 21
83.48433125713132
 31
0.0
  0
LINE
  5
1F0E
330
1F
100
AcDbEntity
  8
0
 62
     3
100
AcDbLine
 10
194.3735822174039
 20
93.48433103361392
 30
0.0
 11
194.3735822174039
 21
121.9385495590534
 31
0.0
  0
LINE
  5
1F0F
330
1F
100
AcDbEntity
  8
0
 62
     3
100
AcDbLine
 10
189.873582411119
 20
121.9385495590534
 30
0.0
 11
189.873582411119
 21
93.48433103361392
 31
0.0
  0
LINE
  5
1F10
330
1F
100
AcDbEntity
  8
0
 62
     3
100
AcDbLine
 10
189.873582411119
 20
83.48433125713132
 30
0.0
 11
189.873582411119
 21
79.49809927442334
 31
0.0
  0
LINE
  5
1F11
330
1F
100
AcDbEntity
  8
0
 62
     3
100
AcDbLine
 10
193.6235823273
 20
121.9385495590534
 30
0.0
 11
193.6235823273
 21
124.1885494621959
 31
0.0
  0
LINE
  5
1F12
330
1F
100
AcDbEntity
  8
0
 62
     3
100
AcDbLine
 10
190.623582301223
 20
124.1885494621959
 30
0.0
 11
190.623582301223
 21
121.9385495590534
 31
0.0
  0
ARC
  5
1F13
330
1F
100
AcDbEntity
  8
0
 62
     3
100
AcDbCircle
 10
198.3735823142608
 20
147.4843309719635
 30
0.0
 40
0.5
100
AcDbArc
 50
0.0
 51
90.0
  0
ARC
  5
1F14
330
1F
100
AcDbEntity
  8
0
 62
     3
100
AcDbCircle
 10
185.8735823142608
 20
147.4843309719635
 30
0.0
 40
0.5
100
AcDbArc
 50
90.0
 51
180.0
  0
LINE
  5
1F15
330
1F
100
AcDbEntity
  8
0
 62
     3
100
AcDbLine
 10
185.3735821391729
 20
147.4843305716779
 30
0.0
 11
185.3735821391729
 21
146.4843304077651
 31
0.0
  0
LINE
  5
1F16
330
1F
100
AcDbEntity
  8
0
 62
     3
100
AcDbLine
 10
198.8735824893501
 20
146.4843304077651
 30
0.0
 11
198.8735824893501
 21
147.4843305716779
 31
0.0
  0
LINE
  5
1F17
330
1F
100
AcDbEntity
  8
0
 62
     3
100
AcDbLine
 10
187.3735824669984
 20
150.4843292007711
 30
0.0
 11
187.3735824669984
 21
147.9843315849569
 31
0.0
  0
LINE
  5
1F18
330
1F
100
AcDbEntity
  8
0
 62
     3
100
AcDbLine
 10
196.8735821615246
 20
147.9843315849569
 30
0.0
 11
196.8735821615246
 21
150.4843292007711
 31
0.0
  0
LINE
  5
1F19
330
1F
100
AcDbEntity
  8
0
 62
     3
100
AcDbLine
 10
187.3735824669984
 20
157.4843322108056
 30
0.0
 11
187.3735824669984
 21
154.7343303630617
 31
0.0
  0
LINE
  5
1F1A
330
1F
100
AcDbEntity
  8
0
 62
     3
100
AcDbLine
 10
196.8735821615246
 20
154.7343303630617
 30
0.0
 11
196.8735821615246
 21
157.4843322108056
 31
0.0
  0
LINE
  5
1F1B
330
1F
100
AcDbEntity
  8
0
 62
     3
100
AcDbLine
 10
187.8735820832934
 20
154.7343303630617
 30
0.0
 11
187.8735820832934
 21
150.4843292007711
 31
0.0
  0
LINE
  5
1F1C
330
1F
100
AcDbEntity
  8
0
 62
     3
100
AcDbLine
 10
196.3735825452295
 20
150.4843292007711
 30
0.0
 11
196.3735825452295
 21
154.7343303630617
 31
0.0
  0
ARC
  5
1F1D
330
1F
100
AcDbEntity
  8
0
 62
     3
100
AcDbCircle
 10
188.4985823142608
 20
92.98433097196356
 30
0.0
 40
0.5
100
AcDbArc
 50
90.0
 51
180.0
  0
ARC
  5
1F1E
330
1F
100
AcDbEntity
  8
0
 62
     3
100
AcDbCircle
 10
188.4985823142608
 20
83.98433097196354
 30
0.0
 40
0.5
100
AcDbArc
 50
180.0
 51
270.0
  0
ARC
  5
1F1F
330
1F
100
AcDbEntity
  8
0
 62
     3
100
AcDbCircle
 10
195.7485823142608
 20
83.98433097196354
 30
0.0
 40
0.5
100
AcDbArc
 50
270.0
 51
0.0
  0
LINE
  5
1F20
330
1F
100
AcDbEntity
  8
0
 62
     3
100
AcDbLine
 10
196.2485822919098
 20
83.98433227041028
 30
0.0
 11
196.2485822919098
 21
86.23433124223016
 31
0.0
  0
LINE
  5
1F21
330
1F
100
AcDbEntity
  8
0
 62
     3
100
AcDbLine
 10
187.9985823366132
 20
92.98433188298011
 30
0.0
 11
187.9985823366132
 21
83.98433227041028
 31
0.0
  0
LINE
  5
1F22
330
1F
100
AcDbEntity
  8
0
 62
     3
100
AcDbLine
 10
188.3735823980805
 20
157.7343327174451
 30
0.0
 11
188.3735823980805
 21
157.4843322108056
 31
0.0
  0
LINE
  5
1F23
330
1F
100
AcDbEntity
  8
0
 62
     3
100
AcDbLine
 10
195.8735822304425
 20
157.4843322108056
 30
0.0
 11
195.8735822304425
 21
157.7343327174451
 31
0.0
  0
LINE
  5
1F24
330
1F
100
AcDbEntity
  8
0
 62
     3
100
AcDbLine
 10
194.8675366188671
 20
168.7343326578405
 30
0.0
 11
189.3796280096558
 21
168.7343326578405
 31
0.0
  0
LINE
  5
1F25
330
1F
100
AcDbEntity
  8
0
 62
     3
100
AcDbLine
 10
196.1235825042513
 20
161.2343323598173
 30
0.0
 11
196.1235825042513
 21
167.2343296180036
 31
0.0
  0
LINE
  5
1F26
330
1F
100
AcDbEntity
  8
0
 62
     3
100
AcDbLine
 10
188.1235821242717
 20
167.2343296180036
 30
0.0
 11
188.1235821242717
 21
161.2343323598173
 31
0.0
  0
ARC
  5
1F27
330
1F
100
AcDbEntity
  8
0
 62
     3
100
AcDbCircle
 10
188.6235823142608
 20
167.2343309719635
 30
0.0
 40
0.5
100
AcDbArc
 50
90.0
 51
180.0
  0
ARC
  5
1F28
330
1F
100
AcDbEntity
  8
0
 62
     3
100
AcDbCircle
 10
195.6235823142608
 20
167.2343309719635
 30
0.0
 40
0.5
100
AcDbArc
 50
0.0
 51
90.0
  0
LINE
  5
1F29
330
1F
100
AcDbEntity
  8
0
 62
     7
100
AcDbLine
 10
189.6235823701409
 20
158.9843315253522
 30
0.0
 11
189.6235823701409
 21
157.7343327174451
 31
0.0
  0
LINE
  5
1F2A
330
1F
100
AcDbEntity
  8
0
 62
     7
100
AcDbLine
 10
194.6235822583821
 20
157.7343327174451
 30
0.0
 11
194.6235822583821
 21
158.9843315253522
 31
0.0
  0
SPLINE
  5
1F2B
330
1F
100
AcDbEntity
  8
0
 62
     3
100
AcDbSpline
210
0.0
220
0.0
230
1.0
 70
     8
 71
     3
 72
    16
 73
    12
 74
     0
 42
0.0000000001
 43
0.0000000001
 40
0.0
 40
0.0
 40
0.0
 40
0.0
 40
0.1286286032975952
 40
0.3302563387047232
 40
0.4964663330609928
 40
0.6386798525489449
 40
0.7589772165361374
 40
0.8567440698212436
 40
0.9301378326610659
 40
0.9777075957160048
 40
1.0
 40
1.0
 40
1.0
 40
1.0
 10
195.3662670753238
 20
168.2341714570787
 30
0.0
 10
195.3670539317593
 20
168.2682507063946
 30
0.0
 10
195.3690742003377
 20
168.355749814807
 30
0.0
 10
195.3158623012093
 20
168.479856059107
 30
0.0
 10
195.2345476955046
 20
168.5874823507236
 30
0.0
 10
195.1451515235858
 20
168.6582370684011
 30
0.0
 10
195.0599129547508
 20
168.7008823226612
 30
0.0
 10
194.9861242825011
 20
168.7230187127915
 30
0.0
 10
194.9291879629131
 20
168.7319294576059
 30
0.0
 10
194.8914332432803
 20
168.734322450081
 30
0.0
 10
194.873169353636
 20
168.7342793541487
 30
0.0
 10
194.8673415067878
 20
168.7342656026151
 30
0.0
  0
SPLINE
  5
1F2C
330
1F
100
AcDbEntity
  8
0
 62
     3
100
AcDbSpline
210
0.0
220
0.0
230
1.0
 70
     8
 71
     3
 72
    15
 73
    11
 74
     0
 42
0.0000000001
 43
0.0000000001
 40
0.0
 40
0.0
 40
0.0
 40
0.0
 40
0.0076348240321055
 40
0.0412298435523112
 40
0.1266467746835417
 40
0.2875863334793164
 40
0.4712649134545688
 40
0.6981548162551916
 40
0.9075188085572658
 40
1.0
 40
1.0
 40
1.0
 40
1.0
 10
189.3798231217352
 20
168.7342730531957
 30
0.0
 10
189.377861254371
 20
168.7342926182407
 30
0.0
 10
189.3672667096704
 20
168.7343982740804
 30
0.0
 10
189.3336483905714
 20
168.7334694572429
 30
0.0
 10
189.2606204746575
 20
168.724674207652
 30
0.0
 10
189.1518237430862
 20
168.689242866881
 30
0.0
 10
189.0244603620781
 20
168.6048429873072
 30
0.0
 10
188.9252676316012
 20
168.4729514580385
 30
0.0
 10
188.873692150364
 20
168.3381265789988
 30
0.0
 10
188.8792987462018
 20
168.2585120837337
 30
0.0
 10
188.8810165296581
 20
168.2341193030145
 30
0.0
  0
LINE
  5
1F2D
330
1F
100
AcDbEntity
  8
0
 62
     3
100
AcDbLine
 10
195.3735823813167
 20
167.7343306312826
 30
0.0
 11
195.3735823813167
 21
168.2341416547563
 31
0.0
  0
LINE
  5
1F2E
330
1F
100
AcDbEntity
  8
0
 62
     3
100
AcDbLine
 10
188.8735822472063
 20
168.2341416547563
 30
0.0
 11
188.8735822472063
 21
167.7343306312826
 31
0.0
  0
LINE
  5
1F2F
330
1F
100
AcDbEntity
  8
0
 62
     7
100
AcDbLine
 10
196.5235822904196
 20
159.9843298266199
 30
0.0
 11
196.5235822904196
 21
161.2343323598173
 31
0.0
  0
LINE
  5
1F30
330
1F
100
AcDbEntity
  8
0
 62
     7
100
AcDbLine
 10
196.6235821205464
 20
158.9843315253522
 30
0.0
 11
196.6235821205464
 21
159.9843298266199
 31
0.0
  0
LINE
  5
1F31
330
1F
100
AcDbEntity
  8
0
 62
     7
100
AcDbLine
 10
187.6235825079766
 20
159.9843298266199
 30
0.0
 11
187.6235825079766
 21
158.9843315253522
 31
0.0
  0
LINE
  5
1F32
330
1F
100
AcDbEntity
  8
0
 62
     3
100
AcDbLine
 10
206.1235827463952
 20
133.9385491977002
 30
0.0
 11
206.1235827463952
 21
132.9385490337875
 31
0.0
  0
LINE
  5
1F33
330
1F
100
AcDbEntity
  8
0
 62
     3
100
AcDbLine
 10
201.1235819268313
 20
134.1885497043397
 30
0.0
 11
203.2787955436197
 21
134.1885497043397
 31
0.0
  0
LINE
  5
1F34
330
1F
100
AcDbEntity
  8
0
 62
     3
100
AcDbLine
 10
205.6235826644388
 20
134.1885497043397
 30
0.0
 11
205.8735822397557
 21
134.1885497043397
 31
0.0
  0
ARC
  5
1F35
330
1F
100
AcDbEntity
  8
0
 62
     3
100
AcDbCircle
 10
205.8735823142608
 20
133.938549378616
 30
0.0
 40
0.25
100
AcDbArc
 50
0.0
 51
50.63824512654437
  0
LINE
  5
1F36
330
1F
100
AcDbEntity
  8
0
 62
     3
100
AcDbLine
 10
205.8735822397557
 20
132.6885494584706
 30
0.0
 11
201.1235819268313
 21
132.6885494584706
 31
0.0
  0
ARC
  5
1F37
330
1F
100
AcDbEntity
  8
0
 62
     3
100
AcDbCircle
 10
205.8735823142608
 20
132.938549378616
 30
0.0
 40
0.25
100
AcDbArc
 50
270.0
 51
0.0
  0
LINE
  5
1F38
330
1F
100
AcDbEntity
  8
0
 62
     3
100
AcDbLine
 10
201.1235819268313
 20
132.6885494584706
 30
0.0
 11
200.6235827761975
 21
132.6885494584706
 31
0.0
  0
LINE
  5
1F3A
330
1F
100
AcDbEntity
  8
0
 62
     3
100
AcDbLine
 10
200.6235827761975
 20
134.1885497043397
 30
0.0
 11
201.1235819268313
 21
134.1885497043397
 31
0.0
  0
LINE
  5
1F3B
330
1F
100
AcDbEntity
  8
0
 62
     3
100
AcDbLine
 10
200.6235827761975
 20
132.6885494584706
 30
0.0
 11
194.4142027828184
 21
130.2893609921005
 31
0.0
  0
ARC
  5
1F3C
330
1F
100
AcDbEntity
  8
0
 62
     3
100
AcDbCircle
 10
200.6235823142608
 20
132.688549378616
 30
0.0
 40
1.5
100
AcDbArc
 50
90.0
 51
111.125605679451
  0
LINE
  5
1F3D
330
1F
100
AcDbEntity
  8
0
 62
     3
100
AcDbLine
 10
193.9605526463401
 20
131.7221532756951
 30
0.0
 11
200.0829621288267
 21
134.0877377609279
 31
0.0
  0
ARC
  5
1F3E
330
1F
100
AcDbEntity
  8
0
 62
     3
100
AcDbCircle
 10
193.8735823142608
 20
131.688549378616
 30
0.0
 40
1.5
100
AcDbArc
 50
270.0
 51
291.1256056794545
  0
ARC
  5
1F3F
330
1F
100
AcDbEntity
  8
0
 62
     3
100
AcDbCircle
 10
193.7803457921079
 20
132.188549378616
 30
0.0
 40
0.5000000000000142
100
AcDbArc
 50
270.0
 51
291.125605679451
  0
LINE
  5
1F40
330
1F
100
AcDbEntity
  8
0
 62
     3
100
AcDbLine
 10
190.4668188258347
 20
131.6885492945578
 30
0.0
 11
193.7803458026883
 21
131.6885492945578
 31
0.0
  0
LINE
  5
1F41
330
1F
100
AcDbEntity
  8
0
 62
     3
100
AcDbLine
 10
193.8735823682782
 20
130.1885490486886
 30
0.0
 11
190.3735822602448
 21
130.1885490486886
 31
0.0
  0
ARC
  5
1F42
330
1F
100
AcDbEntity
  8
0
 62
     3
100
AcDbCircle
 10
190.4668188364135
 20
132.188549378616
 30
0.0
 40
0.5000000000000142
100
AcDbArc
 50
248.874394320549
 51
270.0
  0
LINE
  5
1F43
330
1F
100
AcDbEntity
  8
0
 62
     3
100
AcDbLine
 10
184.1642024996963
 20
134.0877377609279
 30
0.0
 11
190.2866119821829
 21
131.7221532756951
 31
0.0
  0
ARC
  5
1F44
330
1F
100
AcDbEntity
  8
0
 62
     3
100
AcDbCircle
 10
190.3735823142608
 20
131.688549378616
 30
0.0
 40
1.5
100
AcDbArc
 50
248.874394320549
 51
270.0
  0
LINE
  5
1F45
330
1F
100
AcDbEntity
  8
0
 62
     3
100
AcDbLine
 10
189.8329618457046
 20
130.2893609921005
 30
0.0
 11
183.6235818523255
 21
132.6885494584706
 31
0.0
  0
ARC
  5
1F47
330
1F
100
AcDbEntity
  8
0
 62
     3
100
AcDbCircle
 10
183.6235823142608
 20
132.688549378616
 30
0.0
 40
1.500000000000004
100
AcDbArc
 50
68.87439432054549
 51
90.0
  0
LINE
  5
1F48
330
1F
100
AcDbEntity
  8
0
 62
     3
100
AcDbLine
 10
183.6235818523255
 20
132.6885494584706
 30
0.0
 11
183.3735822770085
 21
132.6885494584706
 31
0.0
  0
LINE
  5
1F49
330
1F
100
AcDbEntity
  8
0
 62
     3
100
AcDbLine
 10
183.3735822770085
 20
134.1885497043397
 30
0.0
 11
183.6235818523255
 21
134.1885497043397
 31
0.0
  0
LINE
  5
1F4A
330
1F
100
AcDbEntity
  8
0
 62
     3
100
AcDbLine
 10
181.1235823738661
 20
134.1885497043397
 30
0.0
 11
183.3735822770085
 21
134.1885497043397
 31
0.0
  0
ARC
  5
1F4B
330
1F
100
AcDbEntity
  8
0
 62
     3
100
AcDbCircle
 10
181.1235823142608
 20
133.938549378616
 30
0.0
 40
0.25
100
AcDbArc
 50
90.0
 51
180.0
  0
LINE
  5
1F4C
330
1F
100
AcDbEntity
  8
0
 62
     3
100
AcDbLine
 10
183.3735822770085
 20
132.6885494584706
 30
0.0
 11
181.1235823738661
 21
132.6885494584706
 31
0.0
  0
ARC
  5
1F4D
330
1F
100
AcDbEntity
  8
0
 62
     3
100
AcDbCircle
 10
181.1235823142608
 20
132.938549378616
 30
0.0
 40
0.25
100
AcDbArc
 50
180.0
 51
270.0
  0
LINE
  5
1F4E
330
1F
100
AcDbEntity
  8
0
 62
     3
100
AcDbLine
 10
180.8735818672267
 20
132.9385490337875
 30
0.0
 11
180.8735818672267
 21
133.9385491977002
 31
0.0
  0
SPLINE
  5
1F4F
330
1F
100
AcDbEntity
  8
0
 62
     3
100
AcDbSpline
210
0.0
220
0.0
230
1.0
 70
     8
 71
     3
 72
    12
 73
     8
 74
     0
 42
0.0000000001
 43
0.0000000001
 40
0.0
 40
0.0
 40
0.0
 40
0.0
 40
0.2033222931658765
 40
0.4066341508619827
 40
0.6103262279979284
 40
0.8174967128842583
 40
0.9999999999999998
 40
0.9999999999999998
 40
0.9999999999999998
 40
0.9999999999999998
 10
195.0464180740801
 20
128.6885497341421
 30
0.0
 10
195.0036402262217
 20
128.6964561363115
 30
0.0
 10
194.9180867260679
 20
128.7122685348563
 30
0.0
 10
194.7862409796098
 20
128.8362816971074
 30
0.0
 10
194.6780665525748
 20
129.0210971499295
 30
0.0
 10
194.609825469155
 20
129.2446105462647
 30
0.0
 10
194.6020003747965
 20
129.4022928316671
 30
0.0
 10
194.5983355003682
 20
129.4761431584623
 30
0.0
  0
SPLINE
  5
1F50
330
1F
100
AcDbEntity
  8
0
 62
     3
100
AcDbSpline
210
0.0
220
0.0
230
1.0
 70
     8
 71
     3
 72
    12
 73
     8
 74
     0
 42
0.0000000001
 43
0.0000000001
 40
0.0
 40
0.0
 40
0.0
 40
0.0
 40
0.2298339360638334
 40
0.4603284975537746
 40
0.6751922085286587
 40
0.8808164780912719
 40
1.0
 40
1.0
 40
1.0
 40
1.0
 10
189.6488291281548
 20
129.4761431584623
 30
0.0
 10
189.6430057790992
 20
129.3829564391031
 30
0.0
 10
189.6313423425879
 20
129.1963151482249
 30
0.0
 10
189.538042316386
 20
128.9523201881116
 30
0.0
 10
189.4115023102283
 20
128.7799451397825
 30
0.0
 10
189.2923802286026
 20
128.698876177405
 30
0.0
 10
189.225344387064
 20
128.6913217295388
 30
0.0
 10
189.2007465544429
 20
128.6885497341421
 30
0.0
  0
SPLINE
  5
1F51
330
1F
100
AcDbEntity
  8
0
 62
     3
100
AcDbSpline
210
0.0
220
0.0
230
1.0
 70
     8
 71
     3
 72
     9
 73
     5
 74
     0
 42
0.0000000001
 43
0.0000000001
 40
0.0
 40
0.0
 40
0.0
 40
0.0
 40
0.190913454603879
 40
1.0
 40
1.0
 40
1.0
 40
1.0
 10
195.1293057832208
 20
128.7144069741037
 30
0.0
 10
195.1248014085627
 20
128.7101333187218
 30
0.0
 10
195.1012076044092
 20
128.6877480164875
 30
0.0
 10
195.070921861326
 20
128.688191178069
 30
0.0
 10
195.0464180740801
 20
128.6885497341421
 30
0.0
  0
LINE
  5
1F52
330
1F
100
AcDbEntity
  8
0
 62
     3
100
AcDbLine
 10
189.2007465544429
 20
128.6885497341421
 30
0.0
 11
189.1183750308391
 21
128.7178156147268
 31
0.0
  0
LINE
  5
1F53
330
1F
100
AcDbEntity
  8
0
 62
     3
100
AcDbLine
 10
189.6488291281548
 20
130.3605056548979
 30
0.0
 11
189.6488291281548
 21
129.4761431584623
 31
0.0
  0
LINE
  5
1F54
330
1F
100
AcDbEntity
  8
0
 62
     3
100
AcDbLine
 10
194.5983355003682
 20
130.3605056548979
 30
0.0
 11
194.5983355003682
 21
129.4761431584623
 31
0.0
  0
LINE
  5
1F55
330
1F
100
AcDbEntity
  8
0
 62
     3
100
AcDbLine
 10
188.7485822267172
 20
124.1885494621959
 30
0.0
 11
195.4985824018058
 21
124.1885494621959
 31
0.0
  0
LINE
  5
1F56
330
1F
100
AcDbEntity
  8
0
 62
     3
100
AcDbLine
 10
196.4320044103351
 20
78.9961126814153
 30
0.0
 11
196.4320044103351
 21
76.18854764797949
 31
0.0
  0
LINE
  5
1F57
330
1F
100
AcDbEntity
  8
0
 62
     3
100
AcDbLine
 10
187.8151602181879
 20
78.9961126814153
 30
0.0
 11
187.8151602181879
 21
76.18854764797949
 31
0.0
  0
SPLINE
  5
1F58
330
1F
100
AcDbEntity
  8
0
 62
     3
100
AcDbSpline
210
0.0
220
0.0
230
1.0
 70
     8
 71
     3
 72
    19
 73
    15
 74
     0
 42
0.0000000001
 43
0.0000000001
 40
0.0
 40
0.0
 40
0.0
 40
0.0
 40
0.0922749449052003
 40
0.1812976999917649
 40
0.2703000366954996
 40
0.3590631030220066
 40
0.4477986659818094
 40
0.5311795303868036
 40
0.6145663267533995
 40
0.6957734856171625
 40
0.7770023168697764
 40
0.861707911713904
 40
0.9464236540041996
 40
1.0
 40
1.0
 40
1.0
 40
1.0
 10
196.4320044103351
 20
78.9961126814153
 30
0.0
 10
196.2428359252399
 20
79.0562854250863
 30
0.0
 10
195.8711661150445
 20
79.17451015056245
 30
0.0
 10
195.1706429421164
 20
79.35314283248044
 30
0.0
 10
194.3980931317076
 20
79.50779478315053
 30
0.0
 10
193.55076602248
 20
79.62291590119588
 30
0.0
 10
192.6765619027507
 20
79.68716987218821
 30
0.0
 10
191.8029713903664
 20
79.69296130431061
 30
0.0
 10
190.9645003978841
 20
79.64815210943759
 30
0.0
 10
190.1676549498459
 20
79.55559179013608
 30
0.0
 10
189.418497505146
 20
79.4267217710484
 30
0.0
 10
188.7340698512339
 20
79.26950104824675
 30
0.0
 10
188.1976048978092
 20
79.11950682508116
 30
0.0
 10
187.9219520860442
 20
79.03056862180822
 30
0.0
 10
187.8151602181879
 20
78.9961126814153
 30
0.0
  0
SPLINE
  5
1F59
330
1F
100
AcDbEntity
  8
0
 62
     3
100
AcDbSpline
210
0.0
220
0.0
230
1.0
 70
     8
 71
     3
 72
    12
 73
     8
 74
     0
 42
0.0000000001
 43
0.0000000001
 40
0.0
 40
0.0
 40
0.0
 40
0.0
 40
0.1645050648958457
 40
0.3611905225444961
 40
0.5725287936342227
 40
0.7860934646245336
 40
1.0
 40
1.0
 40
1.0
 40
1.0
 10
187.8191704931942
 20
76.13433722355626
 30
0.0
 10
187.8276553036206
 20
76.09217543879012
 30
0.0
 10
187.8462847185487
 20
75.9996042034866
 30
0.0
 10
187.9060460922364
 20
75.86798820799812
 30
0.0
 10
187.983969212273
 20
75.76061298047989
 30
0.0
 10
188.0685332737087
 20
75.69707211642546
 30
0.0
 10
188.1017085417541
 20
75.69139245954561
 30
0.0
 10
188.1183094415155
 20
75.68855035999082
 30
0.0
  0
LINE
  5
1F5A
330
1F
100
AcDbEntity
  8
0
 62
     3
100
AcDbLine
 10
187.8191704931942
 20
76.13433722355626
 30
0.0
 11
187.8151602181879
 21
76.18854764797949
 31
0.0
  0
LINE
  5
1F5B
330
1F
100
AcDbEntity
  8
0
 62
     3
100
AcDbLine
 10
196.4320044103351
 20
76.18854764797949
 30
0.0
 11
196.4279941353288
 21
76.13433722355626
 31
0.0
  0
SPLINE
  5
1F5C
330
1F
100
AcDbEntity
  8
0
 62
     3
100
AcDbSpline
210
0.0
220
0.0
230
1.0
 70
     8
 71
     3
 72
    12
 73
     8
 74
     0
 42
0.0000000001
 43
0.0000000001
 40
0.0
 40
0.0
 40
0.0
 40
0.0
 40
0.1645050648958457
 40
0.3611905225444961
 40
0.5725287936342227
 40
0.7860934646245336
 40
1.0
 40
1.0
 40
1.0
 40
1.0
 10
196.4279941353288
 20
76.13433722355626
 30
0.0
 10
196.419509324902
 20
76.09217543879012
 30
0.0
 10
196.4008799099742
 20
75.9996042034866
 30
0.0
 10
196.3411185362865
 20
75.86798820799812
 30
0.0
 10
196.2631954162498
 20
75.76061298047989
 30
0.0
 10
196.1786313548141
 20
75.69707211642546
 30
0.0
 10
196.1454560867687
 20
75.69139245954561
 30
0.0
 10
196.1288551870075
 20
75.68855035999082
 30
0.0
  0
LINE
  5
1F5D
330
1F
100
AcDbEntity
  8
0
 62
     3
100
AcDbLine
 10
196.1288551870075
 20
75.68855035999082
 30
0.0
 11
188.1183094415155
 21
75.68855035999082
 31
0.0
  0
LINE
  5
1F5E
330
1F
100
AcDbEntity
  8
0
 62
     3
100
AcDbLine
 10
200.7512605819193
 20
72.76580307581685
 30
0.0
 11
196.1235825042513
 21
75.68855035999082
 31
0.0
  0
LINE
  5
1F5F
330
1F
100
AcDbEntity
  8
0
 62
     3
100
AcDbLine
 10
188.1235821242717
 20
75.68855035999082
 30
0.0
 11
183.4959040466037
 21
72.76580307581685
 31
0.0
  0
LINE
  5
1F60
330
1F
100
AcDbEntity
  8
0
 62
     3
100
AcDbLine
 10
181.1235823738661
 20
74.18855104544423
 30
0.0
 11
181.1235823738661
 21
73.18854901888631
 31
0.0
  0
ARC
  5
1F61
330
1F
100
AcDbEntity
  8
0
 62
     3
100
AcDbCircle
 10
192.1235823142608
 20
65.93854937861603
 30
0.0
 40
13.75
100
AcDbArc
 50
108.2606169300154
 51
143.1301023541565
  0
LINE
  5
1F62
330
1F
100
AcDbEntity
  8
0
 62
     3
100
AcDbLine
 10
203.1235822546569
 20
74.18855104544423
 30
0.0
 11
203.1235822546569
 21
73.18854901888631
 31
0.0
  0
ARC
  5
1F63
330
1F
100
AcDbEntity
  8
0
 62
     3
100
AcDbCircle
 10
192.1235823142608
 20
65.93854937861603
 30
0.0
 40
13.75000000000002
100
AcDbArc
 50
36.86989764584338
 51
71.73938306998455
  0
LINE
  5
1F64
330
1F
100
AcDbEntity
  8
0
 62
     3
100
AcDbLine
 10
194.498582237893
 20
75.68855035999082
 30
0.0
 11
194.498582237893
 21
74.18855104544423
 31
0.0
  0
LINE
  5
1F65
330
1F
100
AcDbEntity
  8
0
 62
     3
100
AcDbLine
 10
193.1815874600124
 20
75.68855035999082
 30
0.0
 11
193.1815874600124
 21
74.18855104544423
 31
0.0
  0
LINE
  5
1F66
330
1F
100
AcDbEntity
  8
0
 62
     3
100
AcDbLine
 10
193.1815874600124
 20
74.18855104544423
 30
0.0
 11
194.498582237893
 21
74.18855104544423
 31
0.0
  0
LINE
  5
1F67
330
1F
100
AcDbEntity
  8
0
 62
     3
100
AcDbLine
 10
191.0655771685106
 20
75.68855035999082
 30
0.0
 11
191.0655771685106
 21
74.18855104544423
 31
0.0
  0
LINE
  5
1F68
330
1F
100
AcDbEntity
  8
0
 62
     3
100
AcDbLine
 10
191.0655771685106
 20
74.18855104544423
 30
0.0
 11
193.1815874600124
 21
74.18855104544423
 31
0.0
  0
LINE
  5
1F69
330
1F
100
AcDbEntity
  8
0
 62
     3
100
AcDbLine
 10
189.7485823906299
 20
75.68855035999082
 30
0.0
 11
189.7485823906299
 21
74.18855104544423
 31
0.0
  0
LINE
  5
1F6A
330
1F
100
AcDbEntity
  8
0
 62
     3
100
AcDbLine
 10
189.7485823906299
 20
74.18855104544423
 30
0.0
 11
191.0655771685106
 21
74.18855104544423
 31
0.0
  0
ARC
  5
1F6B
330
1F
100
AcDbEntity
  8
0
 62
     3
100
AcDbCircle
 10
201.0182575248543
 20
73.18854937861605
 30
0.0
 40
0.500000000000005
100
AcDbArc
 50
237.724355685421
 51
270.0
  0
ARC
  5
1F6C
330
1F
100
AcDbEntity
  8
0
 62
     3
100
AcDbCircle
 10
183.2289071036673
 20
73.18854937861605
 30
0.0
 40
0.500000000000005
100
AcDbArc
 50
270.0
 51
302.275644314579
  0
LINE
  5
1F6D
330
1F
100
AcDbEntity
  8
0
 62
     3
100
AcDbLine
 10
203.1235822546569
 20
72.68854800560735
 30
0.0
 11
201.0182577255455
 21
72.68854800560735
 31
0.0
  0
LINE
  5
1F6E
330
1F
100
AcDbEntity
  8
0
 62
     3
100
AcDbLine
 10
203.1235822546569
 20
73.18854901888631
 30
0.0
 11
203.1235822546569
 21
72.68854800560735
 31
0.0
  0
LINE
  5
1F6F
330
1F
100
AcDbEntity
  8
0
 62
     3
100
AcDbLine
 10
183.2289069029775
 20
72.68854800560735
 30
0.0
 11
181.1235823738661
 21
72.68854800560735
 31
0.0
  0
LINE
  5
1F70
330
1F
100
AcDbEntity
  8
0
 62
     3
100
AcDbLine
 10
181.1235823738661
 20
72.68854800560735
 30
0.0
 11
181.1235823738661
 21
73.18854901888631
 31
0.0
  0
LINE
  5
1F71
330
1F
100
AcDbEntity
  8
0
 62
     3
100
AcDbLine
 10
189.873582411119
 20
121.9385495590534
 30
0.0
 11
194.3735822174039
 21
121.9385495590534
 31
0.0
  0
LINE
  5
1F72
330
1F
100
AcDbEntity
  8
0
 62
     3
100
AcDbLine
 10
192.1235823142608
 20
137.5074704358842
 30
0.0
 11
202.4391989293781
 21
135.6885490188863
 31
0.0
  0
ELLIPSE
  5
1F73
330
1F
100
AcDbEntity
  8
0
 62
     3
100
AcDbEllipse
 10
202.4304499455529
 20
135.588549378616
 30
0.0
 11
0.0087488642803635
 21
0.0999999763144359
 31
0.0
210
0.0
220
0.0
230
1.0
 40
0.0078669266167671
 41
4.622710776337955
 42
6.283185307179584
  0
LINE
  5
1F74
330
1F
100
AcDbEntity
  8
0
 62
     3
100
AcDbLine
 10
192.1235823142607
 20
137.5074704358842
 30
0.0
 11
192.1235823142607
 21
137.3969038198259
 31
0.0
  0
LINE
  5
1F75
330
1F
100
AcDbEntity
  8
0
 62
     3
100
AcDbLine
 10
181.7433458823052
 20
135.6771552185085
 30
0.0
 11
192.1235823142608
 21
137.5074704358842
 31
0.0
  0
SPLINE
  5
1F76
330
1F
100
AcDbEntity
  8
0
 62
     3
100
AcDbSpline
210
0.0
220
0.0
230
1.0
 70
     8
 71
     3
 72
    10
 73
     6
 74
     0
 42
0.0000000001
 43
0.0000000001
 40
0.0
 40
0.0
 40
0.0
 40
0.0
 40
0.6319499754639211
 40
0.8899473996943536
 40
1.0
 40
1.0
 40
1.0
 40
1.0
 10
192.1235823142608
 20
93.12872227230334
 30
0.0
 10
192.241753682496
 20
93.12175777728558
 30
0.0
 10
192.4081692311349
 20
93.11194998478315
 30
0.0
 10
192.5920897562291
 20
93.04888737383144
 30
0.0
 10
192.6405938397608
 20
92.99919166258192
 30
0.0
 10
192.655097304405
 20
92.98433188298011
 30
0.0
  0
LINE
  5
1F77
330
1F
100
AcDbEntity
  8
0
 62
     3
100
AcDbLine
 10
192.1235823142608
 20
93.12872227230334
 30
0.0
 11
192.1235823142608
 21
93.37530668773913
 31
0.0
  0
ELLIPSE
  5
1F78
330
1F
100
AcDbEntity
  8
0
 62
     3
100
AcDbEllipse
 10
192.1235823142608
 20
47.84068014255399
 30
0.0
 11
0.0
 21
45.52313991782859
 31
0.0
210
0.0
220
0.0
230
0.9999999999999998
 40
0.0906132575091655
 41
6.044693697802146
 42
6.153973947026464
  0
LINE
  5
1F79
330
1F
100
AcDbEntity
  8
0
 62
     3
100
AcDbLine
 10
202.307966265389
 20
134.1885497043397
 30
0.0
 11
192.1235823142608
 21
135.9843314806487
 31
0.0
  0
LINE
  5
1F7A
330
1F
100
AcDbEntity
  8
0
 62
     3
100
AcDbLine
 10
192.1235823142607
 20
135.9843314806487
 30
0.0
 11
192.1235823142607
 21
136.076849065211
 31
0.0
  0
ELLIPSE
  5
1F7B
330
1F
100
AcDbEntity
  8
0
 62
     3
100
AcDbEllipse
 10
202.3167146829694
 20
134.288549378616
 30
0.0
 11
0.0087488642803635
 21
0.0999999763144501
 31
0.0
210
0.0
220
0.0
230
0.9999999999999998
 40
0.0078669266167783
 41
3.14159265354106
 42
4.622710776328108
  0
LINE
  5
1F7C
330
1F
100
AcDbEntity
  8
0
 62
     3
100
AcDbLine
 10
192.1235823142608
 20
135.9843314806487
 30
0.0
 11
182.0038181799737
 21
134.1999435047176
 31
0.0
  0
ARC
  5
1F7D
330
1F
100
AcDbEntity
  8
0
 62
     3
100
AcDbCircle
 10
205.6235823142608
 20
132.688549378616
 30
0.0
 40
3.0
100
AcDbArc
 50
0.0
 51
90.0
  0
LINE
  5
1F7E
330
1F
100
AcDbEntity
  8
0
 62
     3
100
AcDbLine
 10
202.4391989293781
 20
135.6885490188863
 30
0.0
 11
205.6235826644388
 21
135.6885490188863
 31
0.0
  0
ARC
  5
1F7F
330
1F
100
AcDbEntity
  8
0
 62
     3
100
AcDbCircle
 10
181.8735823142608
 20
134.938549378616
 30
0.0
 40
0.7500000000000047
100
AcDbArc
 50
100.0000000000018
 51
279.9999999999986
  0
ARC
  5
1F80
330
1F
100
AcDbEntity
  8
0
 62
     3
100
AcDbCircle
 10
205.6235823142608
 20
132.688549378616
 30
0.0
 40
1.5
100
AcDbArc
 50
0.0
 51
90.0
  0
LINE
  5
1F81
330
1F
100
AcDbEntity
  8
0
 62
     3
100
AcDbLine
 10
205.6235826644388
 20
134.1885497043397
 30
0.0
 11
203.2787955436197
 21
134.1885497043397
 31
0.0
  0
LINE
  5
1F82
330
1F
100
AcDbEntity
  8
0
 62
     3
100
AcDbLine
 10
208.6235822248545
 20
132.6885494584706
 30
0.0
 11
208.6235822248545
 21
99.48433015444544
 31
0.0
  0
LINE
  5
1F83
330
1F
100
AcDbEntity
  8
0
 62
     3
100
AcDbLine
 10
207.1235819789854
 20
99.48433015444544
 30
0.0
 11
207.1235819789854
 21
132.6885494584706
 31
0.0
  0
LINE
  5
1F84
330
1F
100
AcDbEntity
  8
0
 62
     3
100
AcDbLine
 10
185.8735822211292
 20
147.9843315849569
 30
0.0
 11
198.3735824073938
 21
147.9843315849569
 31
0.0
  0
LINE
  5
1F85
330
1F
100
AcDbEntity
  8
0
 62
     3
100
AcDbLine
 10
198.8735824893501
 20
146.4843304077651
 30
0.0
 11
185.3735821391729
 21
146.4843304077651
 31
0.0
  0
LINE
  5
1F86
330
1F
100
AcDbEntity
  8
0
 62
     3
100
AcDbLine
 10
187.3735824669984
 20
150.4843292007711
 30
0.0
 11
196.8735821615246
 21
150.4843292007711
 31
0.0
  0
LINE
  5
1F87
330
1F
100
AcDbEntity
  8
0
 62
     3
100
AcDbLine
 10
187.3735824669984
 20
157.4843322108056
 30
0.0
 11
196.8735821615246
 21
157.4843322108056
 31
0.0
  0
LINE
  5
1F88
330
1F
100
AcDbEntity
  8
0
 62
     3
100
AcDbLine
 10
187.3735824669984
 20
154.7343303630617
 30
0.0
 11
196.8735821615246
 21
154.7343303630617
 31
0.0
  0
ARC
  5
1F89
330
1F
100
AcDbEntity
  8
0
 62
     3
100
AcDbCircle
 10
201.1235823142608
 20
99.48433097196357
 30
0.0
 40
7.500000000000027
100
AcDbArc
 50
270.0
 51
0.0
  0
ARC
  5
1F8A
330
1F
100
AcDbEntity
  8
0
 62
     3
100
AcDbCircle
 10
201.1235823142608
 20
99.48433097196357
 30
0.0
 40
6.000000000000027
100
AcDbArc
 50
270.0
 51
0.0
  0
ARC
  5
1F8B
330
1F
100
AcDbEntity
  8
0
 62
     3
100
AcDbCircle
 10
192.1235823142608
 20
140.8076073784208
 30
0.0
 40
3.25
100
AcDbArc
 50
180.0
 51
0.0
  0
LINE
  5
1F8C
330
1F
100
AcDbEntity
  8
0
 62
     3
100
AcDbLine
 10
195.3735823813167
 20
140.8076082537439
 30
0.0
 11
195.3735823813167
 21
146.4843304077651
 31
0.0
  0
LINE
  5
1F8D
330
1F
100
AcDbEntity
  8
0
 62
     3
100
AcDbLine
 10
197.1235822025028
 20
136.6258357832696
 30
0.0
 11
197.1235822025028
 21
146.4843304077651
 31
0.0
  0
LINE
  5
1F8E
330
1F
100
AcDbEntity
  8
0
 62
     3
100
AcDbLine
 10
187.1235824260202
 20
146.4843304077651
 30
0.0
 11
187.1235824260202
 21
136.6258357832696
 31
0.0
  0
LINE
  5
1F8F
330
1F
100
AcDbEntity
  8
0
 62
     3
100
AcDbLine
 10
188.8735822472063
 20
146.4843304077651
 30
0.0
 11
188.8735822472063
 21
140.8076082537439
 31
0.0
  0
LINE
  5
1F90
330
1F
100
AcDbEntity
  8
0
 62
     3
100
AcDbLine
 10
188.4985824185696
 20
93.48433103361392
 30
0.0
 11
192.1235823142608
 21
93.48433103361392
 31
0.0
  0
LINE
  5
1F91
330
1F
100
AcDbEntity
  8
0
 62
     3
100
AcDbLine
 10
192.1235823142608
 20
93.37530668773913
 30
0.0
 11
192.1235823142608
 21
93.48433103361392
 31
0.0
  0
LINE
  5
1F92
330
1F
100
AcDbEntity
  8
0
 62
     3
100
AcDbLine
 10
192.1235823142608
 20
93.48433103361392
 30
0.0
 11
201.1235819268313
 21
93.48433103361392
 31
0.0
  0
LINE
  5
1F93
330
1F
100
AcDbEntity
  8
0
 62
     3
100
AcDbLine
 10
188.4985824185696
 20
83.48433125713132
 30
0.0
 11
195.7485822099534
 21
83.48433125713132
 31
0.0
  0
SPLINE
  5
1F94
330
1F
100
AcDbEntity
  8
0
 62
     3
100
AcDbSpline
210
0.0
220
0.0
230
1.0
 70
     8
 71
     3
 72
    13
 73
     9
 74
     0
 42
0.0000000001
 43
0.0000000001
 40
0.0
 40
0.0
 40
0.0
 40
0.0
 40
0.5307445975400241
 40
0.7057290920543318
 40
0.8232668064225457
 40
0.9414931258595157
 40
0.9819517549674252
 40
0.9999999999999998
 40
0.9999999999999998
 40
0.9999999999999998
 40
0.9999999999999998
 10
193.4419401991454
 20
91.98433171906732
 30
0.0
 10
193.3780145599718
 20
91.9876628353575
 30
0.0
 10
193.2930128783682
 20
91.9920922081404
 30
0.0
 10
193.1953310874526
 20
92.01685974390594
 30
0.0
 10
193.1480338780493
 20
92.03408330897079
 30
0.0
 10
193.1176506585766
 20
92.05035744512892
 30
0.0
 10
193.1020707301838
 20
92.06652862515939
 30
0.0
 10
193.0990061203442
 20
92.07323748061321
 30
0.0
 10
193.0980607471702
 20
92.07530703344607
 30
0.0
  0
LINE
  5
1F95
330
1F
100
AcDbEntity
  8
0
 62
     3
100
AcDbLine
 10
196.1798274028388
 20
91.98433171906732
 30
0.0
 11
196.1798274028388
 21
88.73433072068953
 31
0.0
  0
SPLINE
  5
1F96
330
1F
100
AcDbEntity
  8
0
 62
     3
100
AcDbSpline
210
0.0
220
0.0
230
1.0
 70
     8
 71
     3
 72
    12
 73
     8
 74
     0
 42
0.0000000001
 43
0.0000000001
 40
0.0
 40
0.0
 40
0.0
 40
0.0
 40
0.2015524939085397
 40
0.402823896652546
 40
0.6115929545378882
 40
0.8318424360462596
 40
1.0
 40
1.0
 40
1.0
 40
1.0
 10
195.9661887563106
 20
87.98433106341622
 30
0.0
 10
195.9692070637211
 20
88.06496906026216
 30
0.0
 10
195.9752394691199
 20
88.22613259378053
 30
0.0
 10
196.0193393103918
 20
88.4427098658581
 30
0.0
 10
196.0775203078286
 20
88.61401640436076
 30
0.0
 10
196.1362566716238
 20
88.71730139157788
 30
0.0
 10
196.1666631665634
 20
88.72918556691812
 30
0.0
 10
196.1798274028388
 20
88.73433072068953
 30
0.0
  0
SPLINE
  5
1F97
330
1F
100
AcDbEntity
  8
0
 62
     3
100
AcDbSpline
210
0.0
220
0.0
230
1.0
 70
     8
 71
     3
 72
    12
 73
     8
 74
     0
 42
0.0000000001
 43
0.0000000001
 40
0.0
 40
0.0
 40
0.0
 40
0.0
 40
0.219568502500161
 40
0.4389567433893622
 40
0.6620973136188068
 40
0.880371172443165
 40
0.9999999999999998
 40
0.9999999999999998
 40
0.9999999999999998
 40
0.9999999999999998
 10
196.1798274028388
 20
87.23433140614295
 30
0.0
 10
196.1622127154774
 20
87.24302509545749
 30
0.0
 10
196.1269978020816
 20
87.26040533673112
 30
0.0
 10
196.0610913488838
 20
87.39374164283779
 30
0.0
 10
196.0027533667933
 20
87.59008815881266
 30
0.0
 10
195.9702764981575
 20
87.80196773974111
 30
0.0
 10
195.967257560862
 20
87.93664929738254
 30
0.0
 10
195.9661887563106
 20
87.98433106341622
 30
0.0
  0
LINE
  5
1F98
330
1F
100
AcDbEntity
  8
0
 62
     3
100
AcDbLine
 10
196.1798274028388
 20
87.23433140614295
 30
0.0
 11
196.1798274028388
 21
86.98433089950347
 31
0.0
  0
SPLINE
  5
1F99
330
1F
100
AcDbEntity
  8
0
 62
     3
100
AcDbSpline
210
0.0
220
0.0
230
1.0
 70
     8
 71
     3
 72
    12
 73
     8
 74
     0
 42
0.0000000001
 43
0.0000000001
 40
0.0
 40
0.0
 40
0.0
 40
0.0
 40
0.2122999000242375
 40
0.4245178959446819
 40
0.6388752104751907
 40
0.8547904384578375
 40
0.9999999999999998
 40
0.9999999999999998
 40
0.9999999999999998
 40
0.9999999999999998
 10
196.2485822919098
 20
86.23433124223016
 30
0.0
 10
196.247062948805
 20
86.24248355776968
 30
0.0
 10
196.2440248487498
 20
86.25878504373135
 30
0.0
 10
196.2227166002897
 20
86.3857374629643
 30
0.0
 10
196.1988363189557
 20
86.57365057706938
 30
0.0
 10
196.1823332052538
 20
86.78564832546722
 30
0.0
 10
196.1805460316839
 20
86.92735153517418
 30
0.0
 10
196.1798274028388
 20
86.98433089950347
 30
0.0
  0
LINE
  5
1F9A
330
1F
100
AcDbEntity
  8
0
 62
     3
100
AcDbLine
 10
201.1235819268313
 20
91.98433171906732
 30
0.0
 11
193.4419401991454
 21
91.98433171906732
 31
0.0
  0
LINE
  5
1F9B
330
1F
100
AcDbEntity
  8
0
 62
     3
100
AcDbLine
 10
188.3735823980805
 20
157.7343327174451
 30
0.0
 11
195.8735822304425
 21
157.7343327174451
 31
0.0
  0
LINE
  5
1F9C
330
1F
100
AcDbEntity
  8
0
 62
     3
100
AcDbLine
 10
214.0893337386933
 20
130.6054975087311
 30
0.0
 11
211.2532106298295
 21
98.18846184709336
 31
0.0
  0
ARC
  5
1F9D
330
1F
100
AcDbEntity
  8
0
 62
     3
100
AcDbCircle
 10
205.1235823142608
 20
131.3898994170604
 30
0.0
 40
9.000000000000012
100
AcDbArc
 50
355.0000000000019
 51
90.0
  0
LINE
  5
1F9E
330
1F
100
AcDbEntity
  8
0
 62
     3
100
AcDbLine
 10
209.7589203226653
 20
98.31919532218245
 30
0.0
 11
212.5950434315291
 21
130.7362309838202
 31
0.0
  0
ARC
  5
1F9F
330
1F
100
AcDbEntity
  8
0
 62
     3
100
AcDbCircle
 10
205.1235823142608
 20
131.3898994170604
 30
0.0
 40
7.500000000000013
100
AcDbArc
 50
355.0000000000019
 51
90.0
  0
ARC
  5
1FA0
330
1F
100
AcDbEntity
  8
0
 62
     3
100
AcDbCircle
 10
199.2988750934528
 20
99.23433097196356
 30
0.0
 40
12.00000000000001
100
AcDbArc
 50
270.0
 51
355.0000000000019
  0
ARC
  5
1FA1
330
1F
100
AcDbEntity
  8
0
 62
     3
100
AcDbCircle
 10
199.2988750934528
 20
99.23433097196356
 30
0.0
 40
10.5
100
AcDbArc
 50
270.0
 51
355.0000000000019
  0
LINE
  5
1FA2
330
1F
100
AcDbEntity
  8
0
 62
     3
100
AcDbLine
 10
197.1235822025028
 20
140.3898989031579
 30
0.0
 11
205.1235825824824
 21
140.3898989031579
 31
0.0
  0
LINE
  5
1FA3
330
1F
100
AcDbEntity
  8
0
 62
     3
100
AcDbLine
 10
205.1235825824824
 20
138.8898995886113
 30
0.0
 11
197.1235822025028
 21
138.8898995886113
 31
0.0
  0
LINE
  5
1FA4
330
1F
100
AcDbEntity
  8
0
 62
     3
100
AcDbLine
 10
196.1798274028388
 20
88.73433072068953
 30
0.0
 11
199.2988751339999
 21
88.73433072068953
 31
0.0
  0
LINE
  5
1FA5
330
1F
100
AcDbEntity
  8
0
 62
     3
100
AcDbLine
 10
199.2988751339999
 20
87.23433140614295
 30
0.0
 11
196.1798274028388
 21
87.23433140614295
 31
0.0
  0
LINE
  5
1FA7
330
1F
100
AcDbEntity
  8
0
 62
     3
100
AcDbLine
 10
215.0855285185662
 20
130.5183415482309
 30
0.0
 11
212.2494054097024
 21
98.10130681791569
 31
0.0
  0
ARC
  5
1FA8
330
1F
100
AcDbEntity
  8
0
 62
     3
100
AcDbCircle
 10
205.1235823142608
 20
131.3898994170604
 30
0.0
 40
10.00000000000001
100
AcDbArc
 50
355.0000000000019
 51
74.99999999999885
  0
ARC
  5
1FA9
330
1F
100
AcDbEntity
  8
0
 62
     3
100
AcDbCircle
 10
199.2988750934528
 20
99.23433097196356
 30
0.0
 40
13.0
100
AcDbArc
 50
270.0
 51
355.0000000000019
  0
LINE
  5
1FAA
330
1F
100
AcDbEntity
  8
0
 62
     3
100
AcDbLine
 10
198.6235824483719
 20
143.484331778672
 30
0.0
 11
207.7117727208224
 21
141.0491579393413
 31
0.0
  0
ARC
  5
1FAC
330
1F
100
AcDbEntity
  8
0
 62
     3
100
AcDbCircle
 10
199.6235823142608
 20
100.0279816867027
 30
0.0
 40
3.000000000000028
100
AcDbArc
 50
285.0000000000012
 51
0.0
  0
LINE
  5
1FAD
330
1F
100
AcDbEntity
  8
0
 62
     3
100
AcDbLine
 10
202.6235821727005
 20
100.0279822567966
 30
0.0
 11
202.6235821727005
 21
132.6885494584706
 31
0.0
  0
LINE
  5
1FAE
330
1F
100
AcDbEntity
  8
0
 62
     3
100
AcDbLine
 10
196.8647634680656
 20
96.1829294631746
 30
0.0
 11
200.4000392812577
 21
97.13020373084809
 31
0.0
  0
LINE
  5
1FAF
330
1F
100
AcDbEntity
  8
0
 62
     3
100
AcDbLine
 10
199.2988751339999
 20
86.23433124223016
 30
0.0
 11
196.2485822919098
 21
86.23433124223016
 31
0.0
  0
LINE
  5
1FB0
330
1F
100
AcDbEntity
  8
0
 62
     3
100
AcDbLine
 10
198.6235824483719
 20
146.4843304077651
 30
0.0
 11
198.6235824483719
 21
143.484331778672
 31
0.0
  0
ARC
  5
1FB1
330
1F
100
AcDbEntity
  8
0
 62
     3
100
AcDbCircle
 10
197.1235823142608
 20
95.21700398398458
 30
0.0
 40
1.0
100
AcDbArc
 50
104.9999999999978
 51
180.0
  0
LINE
  5
1FB2
330
1F
100
AcDbEntity
  8
0
 62
     3
100
AcDbLine
 10
196.1235825042513
 20
93.48433103361392
 30
0.0
 11
196.1235825042513
 21
95.21700452962184
 31
0.0
  0
ARC
  5
1FB3
330
1F
100
AcDbEntity
  8
0
 62
     3
100
AcDbCircle
 10
192.1235823142608
 20
137.2028429062264
 30
0.0
 40
1.200000000000011
100
AcDbArc
 50
26.58569401861087
 51
153.414305981388
  0
LINE
  5
1FB4
330
1F
100
AcDbEntity
  8
0
 62
     3
100
AcDbLine
 10
193.4560670820338
 20
163.7343299756315
 30
0.0
 11
192.9664354725082
 21
163.7343299756315
 31
0.0
  0
LINE
  5
1FB5
330
1F
100
AcDbEntity
  8
0
 62
     3
100
AcDbLine
 10
191.2807291560148
 20
163.7343299756315
 30
0.0
 11
192.9664354725082
 21
163.7343299756315
 31
0.0
  0
LINE
  5
1FB6
330
1F
100
AcDbEntity
  8
0
 62
     3
100
AcDbLine
 10
191.2807291560148
 20
163.7343299756315
 30
0.0
 11
190.7910975464892
 21
163.7343299756315
 31
0.0
  0
SPLINE
  5
1FB7
330
1F
100
AcDbEntity
  8
0
 62
     3
100
AcDbSpline
210
0.0
220
0.0
230
1.0
 70
     8
 71
     3
 72
    12
 73
     8
 74
     0
 42
0.0000000001
 43
0.0000000001
 40
0.0
 40
0.0
 40
0.0
 40
0.0
 40
0.0943240269840421
 40
0.1880100030994433
 40
0.329562993075531
 40
0.5670764791452007
 40
1.0
 40
1.0
 40
1.0
 40
1.0
 10
194.8337745457229
 20
167.2343296180036
 30
0.0
 10
194.8347550683843
 20
167.273841779255
 30
0.0
 10
194.8367094810032
 20
167.3525988234237
 30
0.0
 10
194.8525447535006
 20
167.4702240749803
 30
0.0
 10
194.8839331133572
 20
167.5954646289231
 30
0.0
 10
194.9493691209522
 20
167.717105162995
 30
0.0
 10
195.0062700801009
 20
167.7275719062859
 30
0.0
 10
195.0430129259166
 20
167.7343306312826
 30
0.0
  0
LINE
  5
1FB8
330
1F
100
AcDbEntity
  8
0
 62
     3
100
AcDbLine
 10
194.8337745457229
 20
167.2343296180036
 30
0.0
 11
194.8337745457229
 21
163.7343299756315
 31
0.0
  0
LINE
  5
1FB9
330
1F
100
AcDbEntity
  8
0
 62
     3
100
AcDbLine
 10
193.4560670820338
 20
163.7343299756315
 30
0.0
 11
194.8337745457229
 21
163.7343299756315
 31
0.0
  0
LINE
  5
1FBA
330
1F
100
AcDbEntity
  8
0
 62
     3
100
AcDbLine
 10
189.4133900828001
 20
163.7343299756315
 30
0.0
 11
189.4133900828001
 21
167.2343296180036
 31
0.0
  0
SPLINE
  5
1FBB
330
1F
100
AcDbEntity
  8
0
 62
     3
100
AcDbSpline
210
0.0
220
0.0
230
1.0
 70
     8
 71
     3
 72
    13
 73
     9
 74
     0
 42
0.0000000001
 43
0.0000000001
 40
0.0
 40
0.0
 40
0.0
 40
0.0
 40
0.4537717496966855
 40
0.6108044511074083
 40
0.7687228005858763
 40
0.8706351611675005
 40
0.9570261957705287
 40
0.9999999999999998
 40
0.9999999999999998
 40
0.9999999999999998
 40
0.9999999999999998
 10
189.2041517026064
 20
167.7343306312826
 30
0.0
 10
189.2428468554226
 20
167.7271709991084
 30
0.0
 10
189.2949328911713
 20
167.7175336975285
 30
0.0
 10
189.3563051904738
 20
167.6067171793711
 30
0.0
 10
189.3864058029055
 20
167.5111936066364
 30
0.0
 10
189.405174927781
 20
167.3982070193389
 30
0.0
 10
189.4125744701947
 20
167.3062704854323
 30
0.0
 10
189.4131867042902
 20
167.2522685590214
 30
0.0
 10
189.4133900828001
 20
167.2343296180036
 30
0.0
  0
LINE
  5
1FBC
330
1F
100
AcDbEntity
  8
0
 62
     3
100
AcDbLine
 10
189.4133900828001
 20
163.7343299756315
 30
0.0
 11
190.7910975464892
 21
163.7343299756315
 31
0.0
  0
LINE
  5
1FBD
330
1F
100
AcDbEntity
  8
0
 62
     3
100
AcDbLine
 10
188.6235822062281
 20
167.7343306312826
 30
0.0
 11
189.2041517026064
 21
167.7343306312826
 31
0.0
  0
LINE
  5
1FBE
330
1F
100
AcDbEntity
  8
0
 62
     3
100
AcDbLine
 10
195.0430129259166
 20
167.7343306312826
 30
0.0
 11
195.6235824222949
 21
167.7343306312826
 31
0.0
  0
ELLIPSE
  5
1FBF
330
1F
100
AcDbEntity
  8
0
 62
     7
100
AcDbEllipse
 10
192.1235823142608
 20
159.9843309719635
 30
0.0
 11
0.0
 21
22.0
 31
0.0
210
0.0
220
0.0
230
1.0
 40
0.2000000000000015
 41
1.513947529401918
 42
1.570796326794896
  0
LINE
  5
1FC0
330
1F
100
AcDbEntity
  8
0
 62
     7
100
AcDbLine
 10
187.7306901919928
 20
161.2343323598173
 30
0.0
 11
196.5235822904196
 21
161.2343323598173
 31
0.0
  0
ELLIPSE
  5
1FC1
330
1F
100
AcDbEntity
  8
0
 62
     7
100
AcDbEllipse
 10
192.1235823142608
 20
161.2343309719635
 30
0.0
 11
0.0
 21
22.0
 31
0.0
210
0.0
220
0.0
230
1.0
 40
0.199999999999999
 41
1.570796326794896
 42
1.599209240477041
  0
LINE
  5
1FC2
330
1F
100
AcDbEntity
  8
0
 62
     3
100
AcDbLine
 10
187.7235823381034
 20
161.2343323598173
 30
0.0
 11
187.7306901919928
 21
161.2343323598173
 31
0.0
  0
LINE
  5
1FC3
330
1F
100
AcDbEntity
  8
0
 62
     7
100
AcDbLine
 10
187.6235825079766
 20
158.9843315253522
 30
0.0
 11
196.6235821205464
 21
158.9843315253522
 31
0.0
  0
LINE
  5
1FC4
330
1F
100
AcDbEntity
  8
0
 62
     7
100
AcDbLine
 10
187.6235825079766
 20
159.9843298266199
 30
0.0
 11
196.6235821205464
 21
159.9843298266199
 31
0.0
  0
LINE
  5
1FC5
330
1F
100
AcDbEntity
  8
0
  6
PHANTOM
 62
     7
100
AcDbLine
 10
195.1318340911803
 20
98.71025048145321
 30
0.0
 11
202.5607793662039
 21
102.6885494584706
 31
0.0
  0
LINE
  5
1FC6
330
1F
100
AcDbEntity
  8
0
  6
PHANTOM
 62
     7
100
AcDbLine
 10
181.6863852623191
 20
102.6885494584706
 30
0.0
 11
189.1147868777898
 21
98.71054198541905
 31
0.0
  0
LINE
  5
1FC7
330
1F
100
AcDbEntity
  8
0
  6
PHANTOM
 62
     7
100
AcDbLine
 10
195.4985824018058
 20
94.18854946219587
 30
0.0
 11
195.4985824018058
 21
98.9066487173107
 31
0.0
  0
LINE
  5
1FC8
330
1F
100
AcDbEntity
  8
0
  6
PHANTOM
 62
     7
100
AcDbLine
 10
188.7485822267172
 20
98.9066487173107
 30
0.0
 11
188.7485822267172
 21
94.18854946219587
 31
0.0
  0
LINE
  5
1FC9
330
1F
100
AcDbEntity
  8
0
  6
PHANTOM
 62
     7
100
AcDbLine
 10
194.3735822174039
 20
49.50285647013448
 30
0.0
 11
194.3735822174039
 21
53.48433125713132
 31
0.0
  0
LINE
  5
1FCC
330
1F
100
AcDbEntity
  8
0
  6
PHANTOM
 62
     7
100
AcDbLine
 10
189.873582411119
 20
53.48433125713132
 30
0.0
 11
189.873582411119
 21
49.49809927442334
 31
0.0
  0
LINE
  5
1FCF
330
1F
100
AcDbEntity
  8
0
  6
PHANTOM
 62
     7
100
AcDbLine
 10
206.1235827463952
 20
103.9385491977002
 30
0.0
 11
206.1235827463952
 21
102.9385490337875
 31
0.0
  0
LINE
  5
1FD0
330
1F
100
AcDbEntity
  8
0
  6
PHANTOM
 62
     7
100
AcDbLine
 10
200.6235823142608
 20
104.188549378616
 30
0.0
 11
205.8735823142608
 21
104.1885488528717
 31
0.0
  0
LINE
  5
1FD2
330
1F
100
AcDbEntity
  8
0
  6
PHANTOM
 62
     7
100
AcDbLine
 10
205.8735822397557
 20
102.6885494584706
 30
0.0
 11
201.1235819268313
 21
102.6885494584706
 31
0.0
  0
ARC
  5
1FD3
330
1F
100
AcDbEntity
  8
0
  6
PHANTOM
 62
     7
100
AcDbCircle
 10
205.8735823142608
 20
102.938549378616
 30
0.0
 40
0.25
100
AcDbArc
 50
270.0
 51
0.0
  0
LINE
  5
1FD4
330
1F
100
AcDbEntity
  8
0
  6
PHANTOM
 62
     7
100
AcDbLine
 10
201.1235819268313
 20
102.6885494584706
 30
0.0
 11
200.6235827761975
 21
102.6885494584706
 31
0.0
  0
LINE
  5
1FD7
330
1F
100
AcDbEntity
  8
0
  6
PHANTOM
 62
     7
100
AcDbLine
 10
200.6235827761975
 20
102.6885494584706
 30
0.0
 11
194.4142027828184
 21
100.2893609921005
 31
0.0
  0
ARC
  5
1FD8
330
1F
100
AcDbEntity
  8
0
  6
PHANTOM
 62
     7
100
AcDbCircle
 10
200.6235823142608
 20
102.688549378616
 30
0.0
 40
1.5
100
AcDbArc
 50
90.0
 51
111.125605679451
  0
LINE
  5
1FD9
330
1F
100
AcDbEntity
  8
0
  6
PHANTOM
 62
     7
100
AcDbLine
 10
193.9605526463401
 20
101.7221532756951
 30
0.0
 11
200.0829621288267
 21
104.0877377609279
 31
0.0
  0
ARC
  5
1FDA
330
1F
100
AcDbEntity
  8
0
  6
PHANTOM
 62
     7
100
AcDbCircle
 10
193.8735823142608
 20
101.688549378616
 30
0.0
 40
1.5
100
AcDbArc
 50
270.0
 51
291.1256056794545
  0
ARC
  5
1FDB
330
1F
100
AcDbEntity
  8
0
  6
PHANTOM
 62
     7
100
AcDbCircle
 10
193.7803457921079
 20
102.188549378616
 30
0.0
 40
0.5000000000000142
100
AcDbArc
 50
270.0
 51
291.125605679451
  0
LINE
  5
1FDC
330
1F
100
AcDbEntity
  8
0
  6
PHANTOM
 62
     7
100
AcDbLine
 10
190.4668188258347
 20
101.6885492945578
 30
0.0
 11
193.7803458026883
 21
101.6885492945578
 31
0.0
  0
LINE
  5
1FDD
330
1F
100
AcDbEntity
  8
0
  6
PHANTOM
 62
     7
100
AcDbLine
 10
193.8735823682782
 20
100.1885490486886
 30
0.0
 11
190.3735822602448
 21
100.1885490486886
 31
0.0
  0
ARC
  5
1FDE
330
1F
100
AcDbEntity
  8
0
  6
PHANTOM
 62
     7
100
AcDbCircle
 10
190.4668188364135
 20
102.188549378616
 30
0.0
 40
0.5000000000000142
100
AcDbArc
 50
248.874394320549
 51
270.0
  0
LINE
  5
1FDF
330
1F
100
AcDbEntity
  8
0
  6
PHANTOM
 62
     7
100
AcDbLine
 10
184.1642024996963
 20
104.0877377609279
 30
0.0
 11
190.2866119821829
 21
101.7221532756951
 31
0.0
  0
ARC
  5
1FE0
330
1F
100
AcDbEntity
  8
0
  6
PHANTOM
 62
     7
100
AcDbCircle
 10
190.3735823142608
 20
101.688549378616
 30
0.0
 40
1.5
100
AcDbArc
 50
248.874394320549
 51
270.0
  0
LINE
  5
1FE1
330
1F
100
AcDbEntity
  8
0
  6
PHANTOM
 62
     7
100
AcDbLine
 10
189.8329618457046
 20
100.2893609921005
 30
0.0
 11
183.6235818523255
 21
102.6885494584706
 31
0.0
  0
ARC
  5
1FE3
330
1F
100
AcDbEntity
  8
0
  6
PHANTOM
 62
     7
100
AcDbCircle
 10
183.6235823142608
 20
102.688549378616
 30
0.0
 40
1.500000000000004
100
AcDbArc
 50
68.87439432054549
 51
90.0
  0
LINE
  5
1FE4
330
1F
100
AcDbEntity
  8
0
  6
PHANTOM
 62
     7
100
AcDbLine
 10
183.6235818523255
 20
102.6885494584706
 30
0.0
 11
183.3735822770085
 21
102.6885494584706
 31
0.0
  0
LINE
  5
1FE6
330
1F
100
AcDbEntity
  8
0
  6
PHANTOM
 62
     7
100
AcDbLine
 10
181.1235823738661
 20
104.1885497043397
 30
0.0
 11
183.6235823142608
 21
104.188549378616
 31
0.0
  0
ARC
  5
1FE7
330
1F
100
AcDbEntity
  8
0
  6
PHANTOM
 62
     7
100
AcDbCircle
 10
181.1235823142608
 20
103.938549378616
 30
0.0
 40
0.25
100
AcDbArc
 50
90.0
 51
180.0
  0
LINE
  5
1FE8
330
1F
100
AcDbEntity
  8
0
  6
PHANTOM
 62
     7
100
AcDbLine
 10
183.3735822770085
 20
102.6885494584706
 30
0.0
 11
181.1235823738661
 21
102.6885494584706
 31
0.0
  0
ARC
  5
1FE9
330
1F
100
AcDbEntity
  8
0
  6
PHANTOM
 62
     7
100
AcDbCircle
 10
181.1235823142608
 20
102.938549378616
 30
0.0
 40
0.25
100
AcDbArc
 50
180.0
 51
270.0
  0
LINE
  5
1FEA
330
1F
100
AcDbEntity
  8
0
  6
PHANTOM
 62
     7
100
AcDbLine
 10
180.8735818672267
 20
102.9385490337875
 30
0.0
 11
180.8735818672267
 21
103.9385491977002
 31
0.0
  0
SPLINE
  5
1FEB
330
1F
100
AcDbEntity
  8
0
  6
PHANTOM
 62
     7
100
AcDbSpline
210
0.0
220
0.0
230
1.0
 70
     8
 71
     3
 72
    12
 73
     8
 74
     0
 42
0.0000000001
 43
0.0000000001
 40
0.0
 40
0.0
 40
0.0
 40
0.0
 40
0.2033222931658765
 40
0.4066341508619827
 40
0.6103262279979284
 40
0.8174967128842583
 40
0.9999999999999998
 40
0.9999999999999998
 40
0.9999999999999998
 40
0.9999999999999998
 10
195.0464180740801
 20
98.68854973414208
 30
0.0
 10
195.0036402262217
 20
98.69645613631156
 30
0.0
 10
194.9180867260679
 20
98.71226853485637
 30
0.0
 10
194.7862409796098
 20
98.83628169710741
 30
0.0
 10
194.6780665525748
 20
99.02109714992949
 30
0.0
 10
194.609825469155
 20
99.24461054626474
 30
0.0
 10
194.6020003747965
 20
99.40229283166711
 30
0.0
 10
194.5983355003682
 20
99.4761431584623
 30
0.0
  0
SPLINE
  5
1FEC
330
1F
100
AcDbEntity
  8
0
  6
PHANTOM
 62
     7
100
AcDbSpline
210
0.0
220
0.0
230
1.0
 70
     8
 71
     3
 72
    12
 73
     8
 74
     0
 42
0.0000000001
 43
0.0000000001
 40
0.0
 40
0.0
 40
0.0
 40
0.0
 40
0.2298339360638334
 40
0.4603284975537746
 40
0.6751922085286587
 40
0.8808164780912719
 40
1.0
 40
1.0
 40
1.0
 40
1.0
 10
189.6488291281548
 20
99.4761431584623
 30
0.0
 10
189.6430057790992
 20
99.38295643910317
 30
0.0
 10
189.6313423425879
 20
99.19631514822494
 30
0.0
 10
189.538042316386
 20
98.95232018811157
 30
0.0
 10
189.4115023102283
 20
98.77994513978254
 30
0.0
 10
189.2923802286026
 20
98.69887617740516
 30
0.0
 10
189.225344387064
 20
98.69132172953881
 30
0.0
 10
189.2007465544429
 20
98.68854973414208
 30
0.0
  0
SPLINE
  5
1FED
330
1F
100
AcDbEntity
  8
0
  6
PHANTOM
 62
     7
100
AcDbSpline
210
0.0
220
0.0
230
1.0
 70
     8
 71
     3
 72
     9
 73
     5
 74
     0
 42
0.0000000001
 43
0.0000000001
 40
0.0
 40
0.0
 40
0.0
 40
0.0
 40
0.190913454603879
 40
1.0
 40
1.0
 40
1.0
 40
1.0
 10
195.1293057832208
 20
98.71440697410372
 30
0.0
 10
195.1248014085627
 20
98.71013331872179
 30
0.0
 10
195.1012076044092
 20
98.68774801648758
 30
0.0
 10
195.070921861326
 20
98.68819117806904
 30
0.0
 10
195.0464180740801
 20
98.68854973414208
 30
0.0
  0
LINE
  5
1FEE
330
1F
100
AcDbEntity
  8
0
  6
PHANTOM
 62
     7
100
AcDbLine
 10
189.2007465544429
 20
98.68854973414208
 30
0.0
 11
189.1183750308391
 21
98.7178156147268
 31
0.0
  0
LINE
  5
1FEF
330
1F
100
AcDbEntity
  8
0
  6
PHANTOM
 62
     7
100
AcDbLine
 10
189.6488291281548
 20
100.3605056548979
 30
0.0
 11
189.6488291281548
 21
99.4761431584623
 31
0.0
  0
LINE
  5
1FF0
330
1F
100
AcDbEntity
  8
0
  6
PHANTOM
 62
     7
100
AcDbLine
 10
194.5983355003682
 20
100.3605056548979
 30
0.0
 11
194.5983355003682
 21
99.4761431584623
 31
0.0
  0
LINE
  5
1FF1
330
1F
100
AcDbEntity
  8
0
  6
PHANTOM
 62
     7
100
AcDbLine
 10
188.7485822267172
 20
94.18854946219587
 30
0.0
 11
195.4985824018058
 21
94.18854946219587
 31
0.0
  0
LINE
  5
1FF2
330
1F
100
AcDbEntity
  8
0
  6
PHANTOM
 62
     7
100
AcDbLine
 10
196.4320044103351
 20
48.9961126814153
 30
0.0
 11
196.4320044103351
 21
46.18854764797947
 31
0.0
  0
LINE
  5
1FF3
330
1F
100
AcDbEntity
  8
0
  6
PHANTOM
 62
     7
100
AcDbLine
 10
187.8151602181879
 20
48.9961126814153
 30
0.0
 11
187.8151602181879
 21
46.18854764797947
 31
0.0
  0
SPLINE
  5
1FF4
330
1F
100
AcDbEntity
  8
0
  6
PHANTOM
 62
     7
100
AcDbSpline
210
0.0
220
0.0
230
1.0
 70
     8
 71
     3
 72
    19
 73
    15
 74
     0
 42
0.0000000001
 43
0.0000000001
 40
0.0
 40
0.0
 40
0.0
 40
0.0
 40
0.0922749449052003
 40
0.1812976999917649
 40
0.2703000366954996
 40
0.3590631030220066
 40
0.4477986659818094
 40
0.5311795303868036
 40
0.6145663267533995
 40
0.6957734856171625
 40
0.7770023168697764
 40
0.861707911713904
 40
0.9464236540041996
 40
1.0
 40
1.0
 40
1.0
 40
1.0
 10
196.4320044103351
 20
48.9961126814153
 30
0.0
 10
196.2428359252399
 20
49.0562854250863
 30
0.0
 10
195.8711661150445
 20
49.17451015056244
 30
0.0
 10
195.1706429421164
 20
49.35314283248043
 30
0.0
 10
194.3980931317076
 20
49.50779478315053
 30
0.0
 10
193.55076602248
 20
49.62291590119588
 30
0.0
 10
192.6765619027507
 20
49.68716987218821
 30
0.0
 10
191.8029713903664
 20
49.69296130431061
 30
0.0
 10
190.9645003978841
 20
49.64815210943759
 30
0.0
 10
190.1676549498459
 20
49.55559179013608
 30
0.0
 10
189.418497505146
 20
49.4267217710484
 30
0.0
 10
188.7340698512339
 20
49.26950104824674
 30
0.0
 10
188.1976048978092
 20
49.11950682508116
 30
0.0
 10
187.9219520860442
 20
49.03056862180822
 30
0.0
 10
187.8151602181879
 20
48.9961126814153
 30
0.0
  0
SPLINE
  5
1FF5
330
1F
100
AcDbEntity
  8
0
  6
PHANTOM
 62
     7
100
AcDbSpline
210
0.0
220
0.0
230
1.0
 70
     8
 71
     3
 72
    12
 73
     8
 74
     0
 42
0.0000000001
 43
0.0000000001
 40
0.0
 40
0.0
 40
0.0
 40
0.0
 40
0.1645050648958457
 40
0.3611905225444961
 40
0.5725287936342227
 40
0.7860934646245336
 40
1.0
 40
1.0
 40
1.0
 40
1.0
 10
187.8191704931942
 20
46.13433722355625
 30
0.0
 10
187.8276553036206
 20
46.09217543879012
 30
0.0
 10
187.8462847185487
 20
45.99960420348661
 30
0.0
 10
187.9060460922364
 20
45.86798820799812
 30
0.0
 10
187.983969212273
 20
45.76061298047989
 30
0.0
 10
188.0685332737087
 20
45.69707211642546
 30
0.0
 10
188.1017085417541
 20
45.69139245954561
 30
0.0
 10
188.1183094415155
 20
45.68855035999081
 30
0.0
  0
LINE
  5
1FF6
330
1F
100
AcDbEntity
  8
0
  6
PHANTOM
 62
     7
100
AcDbLine
 10
187.8191704931942
 20
46.13433722355625
 30
0.0
 11
187.8151602181879
 21
46.18854764797947
 31
0.0
  0
LINE
  5
1FF7
330
1F
100
AcDbEntity
  8
0
  6
PHANTOM
 62
     7
100
AcDbLine
 10
196.4320044103351
 20
46.18854764797947
 30
0.0
 11
196.4279941353288
 21
46.13433722355625
 31
0.0
  0
SPLINE
  5
1FF8
330
1F
100
AcDbEntity
  8
0
  6
PHANTOM
 62
     7
100
AcDbSpline
210
0.0
220
0.0
230
1.0
 70
     8
 71
     3
 72
    12
 73
     8
 74
     0
 42
0.0000000001
 43
0.0000000001
 40
0.0
 40
0.0
 40
0.0
 40
0.0
 40
0.1645050648958457
 40
0.3611905225444961
 40
0.5725287936342227
 40
0.7860934646245336
 40
1.0
 40
1.0
 40
1.0
 40
1.0
 10
196.4279941353288
 20
46.13433722355625
 30
0.0
 10
196.419509324902
 20
46.09217543879012
 30
0.0
 10
196.4008799099742
 20
45.99960420348661
 30
0.0
 10
196.3411185362865
 20
45.86798820799812
 30
0.0
 10
196.2631954162498
 20
45.76061298047989
 30
0.0
 10
196.1786313548141
 20
45.69707211642546
 30
0.0
 10
196.1454560867687
 20
45.69139245954561
 30
0.0
 10
196.1288551870075
 20
45.68855035999081
 30
0.0
  0
LINE
  5
1FF9
330
1F
100
AcDbEntity
  8
0
  6
PHANTOM
 62
     7
100
AcDbLine
 10
196.1288551870075
 20
45.68855035999081
 30
0.0
 11
188.1183094415155
 21
45.68855035999081
 31
0.0
  0
LINE
  5
1FFA
330
1F
100
AcDbEntity
  8
0
  6
PHANTOM
 62
     7
100
AcDbLine
 10
200.7512605819193
 20
42.76580307581684
 30
0.0
 11
196.1235825042513
 21
45.68855035999081
 31
0.0
  0
LINE
  5
1FFB
330
1F
100
AcDbEntity
  8
0
  6
PHANTOM
 62
     7
100
AcDbLine
 10
188.1235821242717
 20
45.68855035999081
 30
0.0
 11
183.4959040466037
 21
42.76580307581684
 31
0.0
  0
LINE
  5
1FFC
330
1F
100
AcDbEntity
  8
0
  6
PHANTOM
 62
     7
100
AcDbLine
 10
181.1235823738661
 20
44.18855104544422
 30
0.0
 11
181.1235823738661
 21
43.1885490188863
 31
0.0
  0
ARC
  5
1FFD
330
1F
100
AcDbEntity
  8
0
  6
PHANTOM
 62
     7
100
AcDbCircle
 10
192.1235823142608
 20
35.93854937861605
 30
0.0
 40
13.75
100
AcDbArc
 50
108.2606169300154
 51
143.1301023541565
  0
LINE
  5
1FFE
330
1F
100
AcDbEntity
  8
0
  6
PHANTOM
 62
     7
100
AcDbLine
 10
203.1235822546569
 20
44.18855104544422
 30
0.0
 11
203.1235822546569
 21
43.1885490188863
 31
0.0
  0
ARC
  5
1FFF
330
1F
100
AcDbEntity
  8
0
  6
PHANTOM
 62
     7
100
AcDbCircle
 10
192.1235823142608
 20
35.93854937861605
 30
0.0
 40
13.75000000000002
100
AcDbArc
 50
36.86989764584338
 51
71.73938306998455
  0
LINE
  5
2000
330
1F
100
AcDbEntity
  8
0
  6
PHANTOM
 62
     7
100
AcDbLine
 10
194.498582237893
 20
45.68855035999081
 30
0.0
 11
194.498582237893
 21
44.18855104544422
 31
0.0
  0
LINE
  5
2001
330
1F
100
AcDbEntity
  8
0
  6
PHANTOM
 62
     7
100
AcDbLine
 10
193.1815874600124
 20
45.68855035999081
 30
0.0
 11
193.1815874600124
 21
44.18855104544422
 31
0.0
  0
LINE
  5
2002
330
1F
100
AcDbEntity
  8
0
  6
PHANTOM
 62
     7
100
AcDbLine
 10
193.1815874600124
 20
44.18855104544422
 30
0.0
 11
194.498582237893
 21
44.18855104544422
 31
0.0
  0
LINE
  5
2003
330
1F
100
AcDbEntity
  8
0
  6
PHANTOM
 62
     7
100
AcDbLine
 10
191.0655771685106
 20
45.68855035999081
 30
0.0
 11
191.0655771685106
 21
44.18855104544422
 31
0.0
  0
LINE
  5
2004
330
1F
100
AcDbEntity
  8
0
  6
PHANTOM
 62
     7
100
AcDbLine
 10
191.0655771685106
 20
44.18855104544422
 30
0.0
 11
193.1815874600124
 21
44.18855104544422
 31
0.0
  0
LINE
  5
2005
330
1F
100
AcDbEntity
  8
0
  6
PHANTOM
 62
     7
100
AcDbLine
 10
189.7485823906299
 20
45.68855035999081
 30
0.0
 11
189.7485823906299
 21
44.18855104544422
 31
0.0
  0
LINE
  5
2006
330
1F
100
AcDbEntity
  8
0
  6
PHANTOM
 62
     7
100
AcDbLine
 10
189.7485823906299
 20
44.18855104544422
 30
0.0
 11
191.0655771685106
 21
44.18855104544422
 31
0.0
  0
ARC
  5
2007
330
1F
100
AcDbEntity
  8
0
  6
PHANTOM
 62
     7
100
AcDbCircle
 10
201.0182575248543
 20
43.18854937861604
 30
0.0
 40
0.500000000000005
100
AcDbArc
 50
237.724355685421
 51
270.0
  0
ARC
  5
2008
330
1F
100
AcDbEntity
  8
0
  6
PHANTOM
 62
     7
100
AcDbCircle
 10
183.2289071036673
 20
43.18854937861604
 30
0.0
 40
0.500000000000005
100
AcDbArc
 50
270.0
 51
302.275644314579
  0
LINE
  5
2009
330
1F
100
AcDbEntity
  8
0
  6
PHANTOM
 62
     7
100
AcDbLine
 10
203.1235822546569
 20
42.68854800560734
 30
0.0
 11
201.0182577255455
 21
42.68854800560734
 31
0.0
  0
LINE
  5
200A
330
1F
100
AcDbEntity
  8
0
  6
PHANTOM
 62
     7
100
AcDbLine
 10
203.1235822546569
 20
43.1885490188863
 30
0.0
 11
203.1235822546569
 21
42.68854800560734
 31
0.0
  0
LINE
  5
200B
330
1F
100
AcDbEntity
  8
0
  6
PHANTOM
 62
     7
100
AcDbLine
 10
183.2289069029775
 20
42.68854800560734
 30
0.0
 11
181.1235823738661
 21
42.68854800560734
 31
0.0
  0
LINE
  5
200C
330
1F
100
AcDbEntity
  8
0
  6
PHANTOM
 62
     7
100
AcDbLine
 10
181.1235823738661
 20
42.68854800560734
 30
0.0
 11
181.1235823738661
 21
43.1885490188863
 31
0.0
  0
LINE
  5
200F
330
1F
100
AcDbEntity
  8
0
 62
     7
100
AcDbLine
 10
193.8735822174039
 20
93.48433103361392
 30
0.0
 11
193.8735822174039
 21
121.9385495590534
 31
0.0
  0
LINE
  5
2010
330
1F
100
AcDbEntity
  8
0
 62
     7
100
AcDbLine
 10
190.373582411119
 20
121.9385495590534
 30
0.0
 11
190.373582411119
 21
93.48433103361392
 31
0.0
  0
LINE
  5
2011
330
1F
100
AcDbEntity
  8
0
 62
     7
100
AcDbLine
 10
125.4348885498642
 20
121.9385532843437
 30
0.0
 11
125.4348885498642
 21
93.48433475890422
 31
0.0
  0
LINE
  5
2012
330
1F
100
AcDbEntity
  8
0
 62
     7
100
AcDbLine
 10
128.9348888218104
 20
93.48433475890422
 30
0.0
 11
128.9348888218104
 21
121.9385532843437
 31
0.0
  0
LINE
  5
2013
330
1F
100
AcDbEntity
  8
0
 62
     7
100
AcDbLine
 10
125.4348885498642
 20
83.48433498242163
 30
0.0
 11
125.4348885498642
 21
78.33732116916443
 31
0.0
  0
LINE
  5
2014
330
1F
100
AcDbEntity
  8
0
 62
     7
100
AcDbLine
 10
128.9348888218104
 20
78.33732116916443
 30
0.0
 11
128.9348888218104
 21
83.48433498242163
 31
0.0
  0
LINE
  5
2015
330
1F
100
AcDbEntity
  8
0
 62
     7
100
AcDbLine
 10
193.8735822174039
 20
79.50285647013449
 30
0.0
 11
193.8735822174039
 21
83.48433125713132
 31
0.0
  0
LINE
  5
2016
330
1F
100
AcDbEntity
  8
0
 62
     7
100
AcDbLine
 10
190.373582411119
 20
83.48433125713132
 30
0.0
 11
190.373582411119
 21
79.49809927442334
 31
0.0
  0
ARC
  5
201D
330
1F
100
AcDbEntity
  8
0
  6
PHANTOM
 62
     7
100
AcDbCircle
 10
205.8735823142608
 20
103.9385488528717
 30
0.0
 40
0.25
100
AcDbArc
 50
0.0
 51
90.0
  0
LINE
  5
2021
330
1F
100
AcDbEntity
  8
0
  6
PHANTOM
 62
     7
100
AcDbLine
 10
193.8735822174039
 20
49.50285647013448
 30
0.0
 11
193.8735822174039
 21
53.48433125713132
 31
0.0
  0
LINE
  5
2022
330
1F
100
AcDbEntity
  8
0
  6
PHANTOM
 62
     7
100
AcDbLine
 10
190.373582411119
 20
53.48433125713132
 30
0.0
 11
190.373582411119
 21
49.49809927442334
 31
0.0
  0
TEXT
  5
209F
330
1F
100
AcDbEntity
  8
0
 62
     3
100
AcDbText
 10
309.372262560882
 20
181.1566014360051
 30
0.0
 40
3.2
  1
担　当
  7
高3.2
100
AcDbText
  0
TEXT
  5
20A0
330
1F
100
AcDbEntity
  8
0
 62
     3
100
AcDbText
 10
265.372262560882
 20
181.1566014360051
 30
0.0
 40
3.2
  1
変更・追記内容
  7
高3.2
100
AcDbText
  0
TEXT
  5
20A1
330
1F
100
AcDbEntity
  8
0
 62
     3
100
AcDbText
 10
240.4857775612212
 20
176.4860629260968
 30
0.0
 40
2.0
  1
1
  7
高2
100
AcDbText
  0
TEXT
  5
20A2
330
1F
100
AcDbEntity
  8
0
 62
     3
100
AcDbText
 10
240.177266084464
 20
171.3162462138239
 30
0.0
 40
2.0
  1
2
  7
高2
100
AcDbText
  0
TEXT
  5
20A3
330
1F
100
AcDbEntity
  8
0
 62
     3
100
AcDbText
 10
247.372262560882
 20
181.1566014360051
 30
0.0
 40
3.2
  1
日　付
  7
高3.2
100
AcDbText
  0
TEXT
  5
20A4
330
1F
100
AcDbEntity
  8
0
 62
     3
100
AcDbText
 10
247.372262560882
 20
186.1566014360051
 30
0.0
 40
3.2
  1
図　　　　面　　　　略　　　　歴
  7
高3.2
100
AcDbText
  0
TEXT
  5
20A5
330
1F
100
AcDbEntity
  8
0
 62
     3
100
AcDbText
 10
237.372262560882
 20
181.1566014360051
 30
0.0
 40
3.2
  1
記号
  7
高3.2
100
AcDbText
  0
LINE
  5
20A6
330
1F
100
AcDbEntity
  8
0
 62
     7
100
AcDbLine
 10
240.872262560882
 20
174.4474974360051
 30
0.0
 11
238.972262560882
 21
171.1566014360051
 31
0.0
  0
LINE
  5
20A7
330
1F
100
AcDbEntity
  8
0
 62
     7
100
AcDbLine
 10
240.872262560882
 20
174.4474974360051
 30
0.0
 11
242.772262560882
 21
171.1566014360051
 31
0.0
  0
LINE
  5
20A8
330
1F
100
AcDbEntity
  8
0
 62
     7
100
AcDbLine
 10
238.972262560882
 20
171.1566014360051
 30
0.0
 11
242.772262560882
 21
171.1566014360051
 31
0.0
  0
LINE
  5
20A9
330
1F
100
AcDbEntity
  8
0
 62
     7
100
AcDbLine
 10
240.872262560882
 20
179.4474984360051
 30
0.0
 11
238.972262560882
 21
176.1566014360051
 31
0.0
  0
LINE
  5
20AA
330
1F
100
AcDbEntity
  8
0
 62
     7
100
AcDbLine
 10
240.872262560882
 20
179.4474984360051
 30
0.0
 11
242.772262560882
 21
176.1566014360051
 31
0.0
  0
LINE
  5
20AB
330
1F
100
AcDbEntity
  8
0
 62
     7
100
AcDbLine
 10
238.972262560882
 20
176.1566014360051
 30
0.0
 11
242.772262560882
 21
176.1566014360051
 31
0.0
  0
LINE
  5
20AC
330
1F
100
AcDbEntity
  8
0
 62
     3
100
AcDbLine
 10
235.872262560882
 20
185.6566014360051
 30
0.0
 11
321.872262560882
 21
185.6566014360051
 31
0.0
  0
LINE
  5
20AD
330
1F
100
AcDbEntity
  8
0
 62
     3
100
AcDbLine
 10
235.872262560882
 20
180.6566014360051
 30
0.0
 11
321.872262560882
 21
180.6566014360051
 31
0.0
  0
LINE
  5
20AE
330
1F
100
AcDbEntity
  8
0
 62
     7
100
AcDbLine
 10
235.872262560882
 20
175.6566014360051
 30
0.0
 11
321.872262560882
 21
175.6566014360051
 31
0.0
  0
LINE
  5
20AF
330
1F
100
AcDbEntity
  8
0
 62
     3
100
AcDbLine
 10
235.872262560882
 20
170.6566014360051
 30
0.0
 11
321.872262560882
 21
170.6566014360051
 31
0.0
  0
LINE
  5
20B0
330
1F
100
AcDbEntity
  8
0
 62
     7
100
AcDbLine
 10
307.8722625608819
 20
170.6566014360051
 30
0.0
 11
307.872262560882
 21
185.6566014360051
 31
0.0
  0
LINE
  5
20B1
330
1F
100
AcDbEntity
  8
0
 62
     7
100
AcDbLine
 10
263.872262560882
 20
170.6566014360051
 30
0.0
 11
263.872262560882
 21
185.6566014360051
 31
0.0
  0
LINE
  5
20B2
330
1F
100
AcDbEntity
  8
0
 62
     7
100
AcDbLine
 10
245.872262560882
 20
170.6566014360051
 30
0.0
 11
245.872262560882
 21
185.6566014360051
 31
0.0
  0
LINE
  5
20B3
330
1F
100
AcDbEntity
  8
0
 62
     3
100
AcDbLine
 10
235.872262560882
 20
170.6566014360051
 30
0.0
 11
235.872262560882
 21
190.6566014360051
 31
0.0
  0
TEXT
  5
20B5
330
1F
100
AcDbEntity
  8
0
100
AcDbText
 10
247.372262560882
 20
176.1566014360051
 30
0.0
 40
2.5
  1
'13.12.11
  7
高2.5
100
AcDbText
  0
TEXT
  5
20B6
330
1F
100
AcDbEntity
  8
0
100
AcDbText
 10
265.372262560882
 20
176.1566014360051
 30
0.0
 40
2.5
  1
形状変更
  7
高2.5
100
AcDbText
  0
TEXT
  5
20B7
330
1F
100
AcDbEntity
  8
0
100
AcDbText
 10
309.3722625608819
 20
176.1566014360051
 30
0.0
 40
2.5
  1
今村
  7
高2.5
100
AcDbText
  0
LINE
  5
2333
330
1F
100
AcDbEntity
  8
0
 62
     3
100
AcDbLine
 10
198.6235824483719
 20
143.484331778672
 30
0.0
 11
198.6091711628523
 21
143.473273254421
 31
0.0
  0
LINE
  5
2336
330
1F
100
AcDbEntity
  8
0
 62
     3
100
AcDbLine
 10
198.6091711628523
 20
143.473273254421
 30
0.0
 11
198.5664919088867
 21
143.4405242274072
 31
0.0
  0
LINE
  5
2337
330
1F
100
AcDbEntity
  8
0
 62
     3
100
AcDbLine
 10
198.5664919088867
 20
143.4405242274072
 30
0.0
 11
198.497184745529
 21
143.3873419831064
 31
0.0
  0
LINE
  5
2338
330
1F
100
AcDbEntity
  8
0
 62
     3
100
AcDbLine
 10
198.497184745529
 20
143.3873419831064
 30
0.0
 11
198.40391232402
 21
143.3157717058923
 31
0.0
  0
LINE
  5
2339
330
1F
100
AcDbEntity
  8
0
 62
     3
100
AcDbLine
 10
198.40391232402
 20
143.3157717058923
 30
0.0
 11
198.2902597706106
 21
143.2285645226505
 31
0.0
  0
LINE
  5
233A
330
1F
100
AcDbEntity
  8
0
 62
     3
100
AcDbLine
 10
198.2902597706106
 20
143.2285645226505
 30
0.0
 11
198.1605949881759
 21
143.129067606714
 31
0.0
  0
LINE
  5
233B
330
1F
100
AcDbEntity
  8
0
 62
     3
100
AcDbLine
 10
198.1605949881759
 20
143.129067606714
 30
0.0
 11
198.0199000868288
 21
143.0211086938646
 31
0.0
  0
LINE
  5
233C
330
1F
100
AcDbEntity
  8
0
 62
     3
100
AcDbLine
 10
198.0199000868288
 20
143.0211086938646
 30
0.0
 11
197.8735823254374
 21
142.9088358948495
 31
0.0
  0
LINE
  5
233D
330
1F
100
AcDbEntity
  8
0
 62
     3
100
AcDbLine
 10
201.8465015176025
 20
134.1885497043397
 30
0.0
 11
201.6366121429292
 21
134.2837867508199
 31
0.0
  0
LINE
  5
233E
330
1F
100
AcDbEntity
  8
0
 62
     3
100
AcDbLine
 10
201.6366121429292
 20
134.2837867508199
 30
0.0
 11
201.3840542244998
 21
134.3514603743818
 31
0.0
  0
LINE
  5
233F
330
1F
100
AcDbEntity
  8
0
 62
     3
100
AcDbLine
 10
183.6235818523255
 20
132.6885494584706
 30
0.0
 11
183.6244777846423
 21
132.6933532203104
 31
0.0
  0
LINE
  5
2340
330
1F
100
AcDbEntity
  8
0
 62
     3
100
AcDbLine
 10
183.6244777846423
 20
132.6933532203104
 30
0.0
 11
183.6271311226574
 21
132.7075791726377
 31
0.0
  0
LINE
  5
2341
330
1F
100
AcDbEntity
  8
0
 62
     3
100
AcDbLine
 10
183.6271311226574
 20
132.7075791726377
 30
0.0
 11
183.631438489565
 21
132.7306815604236
 31
0.0
  0
LINE
  5
2342
330
1F
100
AcDbEntity
  8
0
 62
     3
100
AcDbLine
 10
183.631438489565
 20
132.7306815604236
 30
0.0
 11
183.6372369039145
 21
132.7617728332546
 31
0.0
  0
LINE
  5
2343
330
1F
100
AcDbEntity
  8
0
 62
     3
100
AcDbLine
 10
183.6372369039145
 20
132.7617728332546
 30
0.0
 11
183.644300985643
 21
132.7996571729448
 31
0.0
  0
LINE
  5
2344
330
1F
100
AcDbEntity
  8
0
 62
     3
100
AcDbLine
 10
183.644300985643
 20
132.7996571729448
 30
0.0
 11
183.6523606512035
 21
132.8428789223101
 31
0.0
  0
LINE
  5
2345
330
1F
100
AcDbEntity
  8
0
 62
     3
100
AcDbLine
 10
183.6523606512035
 20
132.8428789223101
 30
0.0
 11
183.6611057701793
 21
132.8897766018774
 31
0.0
  0
LINE
  5
2346
330
1F
100
AcDbEntity
  8
0
 62
     3
100
AcDbLine
 10
183.6611057701793
 20
132.8897766018774
 30
0.0
 11
183.6702001351205
 21
132.9385490337875
 31
0.0
  0
LINE
  5
2347
330
1F
100
AcDbEntity
  8
0
 62
     3
100
AcDbLine
 10
200.6235827761975
 20
132.6885494584706
 30
0.0
 11
200.6226868438807
 21
132.6933532203104
 31
0.0
  0
LINE
  5
2348
330
1F
100
AcDbEntity
  8
0
 62
     3
100
AcDbLine
 10
200.6226868438807
 20
132.6933532203104
 30
0.0
 11
200.6200335058657
 21
132.7075791726377
 31
0.0
  0
LINE
  5
2349
330
1F
100
AcDbEntity
  8
0
 62
     3
100
AcDbLine
 10
200.6200335058657
 20
132.7075791726377
 30
0.0
 11
200.6157261389581
 21
132.7306815604236
 31
0.0
  0
LINE
  5
234A
330
1F
100
AcDbEntity
  8
0
 62
     3
100
AcDbLine
 10
200.6157261389581
 20
132.7306815604236
 30
0.0
 11
200.6099277246085
 21
132.7617728332546
 31
0.0
  0
LINE
  5
234B
330
1F
100
AcDbEntity
  8
0
 62
     3
100
AcDbLine
 10
200.6099277246085
 20
132.7617728332546
 30
0.0
 11
200.60286364288
 21
132.7996571729448
 31
0.0
  0
LINE
  5
234C
330
1F
100
AcDbEntity
  8
0
 62
     3
100
AcDbLine
 10
200.60286364288
 20
132.7996571729448
 30
0.0
 11
200.5948039773193
 21
132.8428789223101
 31
0.0
  0
LINE
  5
234D
330
1F
100
AcDbEntity
  8
0
 62
     3
100
AcDbLine
 10
200.5948039773193
 20
132.8428789223101
 30
0.0
 11
200.5860588583437
 21
132.8897766018774
 31
0.0
  0
LINE
  5
234E
330
1F
100
AcDbEntity
  8
0
 62
     3
100
AcDbLine
 10
200.5860588583437
 20
132.8897766018774
 30
0.0
 11
200.5769644934026
 21
132.9385490337875
 31
0.0
  0
LINE
  5
234F
330
1F
100
AcDbEntity
  8
0
 62
     7
100
AcDbLine
 10
127.184888918668
 20
159.9843335519102
 30
0.0
 11
127.2682618468701
 21
160.4012009868887
 31
0.0
  0
LINE
  5
2350
330
1F
100
AcDbEntity
  8
0
 62
     7
100
AcDbLine
 10
127.2682618468701
 20
160.4012009868887
 30
0.0
 11
127.3516054384112
 21
160.8179156849649
 31
0.0
  0
LINE
  5
2351
330
1F
100
AcDbEntity
  8
0
 62
     7
100
AcDbLine
 10
127.3516054384112
 20
160.8179156849649
 30
0.0
 11
127.4348889596462
 21
161.2343360851076
 31
0.0
  0
LINE
  5
2352
330
1F
100
AcDbEntity
  8
0
 62
     7
100
AcDbLine
 10
127.184888918668
 20
161.2343360851076
 30
0.0
 11
127.1015155248045
 21
160.8174686501291
 31
0.0
  0
LINE
  5
2353
330
1F
100
AcDbEntity
  8
0
 62
     7
100
AcDbLine
 10
127.1015155248045
 20
160.8174686501291
 30
0.0
 11
127.0181723989248
 21
160.4007502267625
 31
0.0
  0
LINE
  5
2354
330
1F
100
AcDbEntity
  8
0
 62
     7
100
AcDbLine
 10
127.0181723989248
 20
160.4007502267625
 30
0.0
 11
126.9348888776898
 21
159.9843335519102
 31
0.0
  0
LINE
  5
2355
330
1F
100
AcDbEntity
  8
0
 62
     7
100
AcDbLine
 10
122.2025185011029
 20
126.0214402521517
 30
0.0
 11
122.2098359025716
 21
125.9372552106645
 31
0.0
  0
LINE
  5
2356
330
1F
100
AcDbEntity
  8
0
 62
     7
100
AcDbLine
 10
122.2098359025716
 20
125.9372552106645
 30
0.0
 11
122.216431529045
 21
125.876987464216
 31
0.0
  0
LINE
  5
2357
330
1F
100
AcDbEntity
  8
0
 62
     3
100
AcDbLine
 10
135.0173939604013
 20
134.2795287440088
 30
0.0
 11
135.0151913825124
 21
134.2552212248113
 31
0.0
  0
LINE
  5
2358
330
1F
100
AcDbEntity
  8
0
 62
     3
100
AcDbLine
 10
135.0151913825124
 20
134.2552212248113
 30
0.0
 11
135.0091503586321
 21
134.18855342963
 31
0.0
  0
LINE
  5
2359
330
1F
100
AcDbEntity
  8
0
 62
     3
100
AcDbLine
 10
119.3606267802119
 20
134.18855342963
 30
0.0
 11
119.3551692299246
 21
134.2487857858207
 31
0.0
  0
LINE
  5
235A
330
1F
100
AcDbEntity
  8
0
 62
     3
100
AcDbLine
 10
119.3551692299246
 20
134.2487857858207
 30
0.0
 11
119.3523836441039
 21
134.2795287440088
 31
0.0
  0
LINE
  5
235B
330
1F
100
AcDbEntity
  8
0
 62
     3
100
AcDbLine
 10
131.8636704413387
 20
99.47531122663288
 30
0.0
 11
131.8017830958291
 21
98.79232767918377
 31
0.0
  0
LINE
  5
235C
330
1F
100
AcDbEntity
  8
0
 62
     3
100
AcDbLine
 10
131.8017830958291
 20
98.79232767918377
 30
0.0
 11
131.7406740158498
 21
98.11793278851776
 31
0.0
  0
LINE
  5
235D
330
1F
100
AcDbEntity
  8
0
 62
     3
100
AcDbLine
 10
131.7406740158498
 20
98.11793278851776
 30
0.0
 11
131.6811117025958
 21
97.46060717799929
 31
0.0
  0
LINE
  5
235E
330
1F
100
AcDbEntity
  8
0
 62
     3
100
AcDbLine
 10
131.6811117025958
 20
97.46060717799929
 30
0.0
 11
131.6238451722478
 21
96.82861912944582
 31
0.0
  0
LINE
  5
235F
330
1F
100
AcDbEntity
  8
0
 62
     3
100
AcDbLine
 10
131.6238451722478
 20
96.82861912944582
 30
0.0
 11
131.5695945699866
 21
96.22991468706397
 31
0.0
  0
LINE
  5
2360
330
1F
100
AcDbEntity
  8
0
 62
     3
100
AcDbLine
 10
131.5695945699866
 20
96.22991468706397
 30
0.0
 11
131.5190421478058
 21
95.67202266254692
 31
0.0
  0
LINE
  5
2361
330
1F
100
AcDbEntity
  8
0
 62
     3
100
AcDbLine
 10
131.5190421478058
 20
95.67202266254692
 30
0.0
 11
131.4728236243121
 21
95.1619596401718
 31
0.0
  0
LINE
  5
2362
330
1F
100
AcDbEntity
  8
0
 62
     3
100
AcDbLine
 10
131.4728236243121
 20
95.1619596401718
 30
0.0
 11
131.431520227556
 21
94.70613870718745
 31
0.0
  0
LINE
  5
2363
330
1F
100
AcDbEntity
  8
0
 62
     3
100
AcDbLine
 10
131.431520227556
 20
94.70613870718745
 30
0.0
 11
131.3956513690522
 21
94.31029308536318
 31
0.0
  0
LINE
  5
2364
330
1F
100
AcDbEntity
  8
0
 62
     3
100
AcDbLine
 10
131.3956513690522
 20
94.31029308536318
 30
0.0
 11
131.3656681263404
 21
93.97939976253777
 31
0.0
  0
LINE
  5
2365
330
1F
100
AcDbEntity
  8
0
 62
     3
100
AcDbLine
 10
131.3656681263404
 20
93.97939976253777
 30
0.0
 11
131.3419475513677
 21
93.71762175061968
 31
0.0
  0
LINE
  5
2366
330
1F
100
AcDbEntity
  8
0
 62
     3
100
AcDbLine
 10
131.3419475513677
 20
93.71762175061968
 30
0.0
 11
131.3247879402064
 21
93.52825034358769
 31
0.0
  0
LINE
  5
2367
330
1F
100
AcDbEntity
  8
0
 62
     3
100
AcDbLine
 10
131.3247879402064
 20
93.52825034358769
 30
0.0
 11
131.3144050832073
 21
93.41366600194245
 31
0.0
  0
LINE
  5
2368
330
1F
100
AcDbEntity
  8
0
 62
     3
100
AcDbLine
 10
131.3144050832073
 20
93.41366600194245
 30
0.0
 11
131.3109295765338
 21
93.37531041302948
 31
0.0
  0
LINE
  5
2369
330
1F
100
AcDbEntity
  8
0
 62
     3
100
AcDbLine
 10
123.0588481880426
 20
93.37531041302948
 30
0.0
 11
123.0553724921941
 21
93.41366600194245
 31
0.0
  0
LINE
  5
236A
330
1F
100
AcDbEntity
  8
0
 62
     3
100
AcDbLine
 10
123.0553724921941
 20
93.41366600194245
 30
0.0
 11
123.0449891768097
 21
93.52825034358769
 31
0.0
  0
LINE
  5
236B
330
1F
100
AcDbEntity
  8
0
 62
     3
100
AcDbLine
 10
123.0449891768097
 20
93.52825034358769
 30
0.0
 11
123.0278295583724
 21
93.71762175061968
 31
0.0
  0
LINE
  5
236C
330
1F
100
AcDbEntity
  8
0
 62
     3
100
AcDbLine
 10
123.0278295583724
 20
93.71762175061968
 30
0.0
 11
123.0041097037195
 21
93.97939976253777
 31
0.0
  0
LINE
  5
236D
330
1F
100
AcDbEntity
  8
0
 62
     3
100
AcDbLine
 10
123.0041097037195
 20
93.97939976253777
 30
0.0
 11
122.9741257734298
 21
94.31029308536318
 31
0.0
  0
LINE
  5
236E
330
1F
100
AcDbEntity
  8
0
 62
     3
100
AcDbLine
 10
122.9741257734298
 20
94.31029308536318
 30
0.0
 11
122.9382568157911
 21
94.70613870718745
 31
0.0
  0
LINE
  5
236F
330
1F
100
AcDbEntity
  8
0
 62
     3
100
AcDbLine
 10
122.9382568157911
 20
94.70613870718745
 30
0.0
 11
122.8969535909294
 21
95.1619596401718
 31
0.0
  0
LINE
  5
2370
330
1F
100
AcDbEntity
  8
0
 62
     3
100
AcDbLine
 10
122.8969535909294
 20
95.1619596401718
 30
0.0
 11
122.8507357768416
 21
95.67202266254692
 31
0.0
  0
LINE
  5
2371
330
1F
100
AcDbEntity
  8
0
 62
     3
100
AcDbLine
 10
122.8507357768416
 20
95.67202266254692
 30
0.0
 11
122.8001826561689
 21
96.22991468706397
 31
0.0
  0
LINE
  5
2372
330
1F
100
AcDbEntity
  8
0
 62
     3
100
AcDbLine
 10
122.8001826561689
 20
96.22991468706397
 30
0.0
 11
122.7459321848749
 21
96.82861912944582
 31
0.0
  0
LINE
  5
2373
330
1F
100
AcDbEntity
  8
0
 62
     3
100
AcDbLine
 10
122.7459321848749
 20
96.82861912944582
 30
0.0
 11
122.6886660910844
 21
97.46060717799929
 31
0.0
  0
LINE
  5
2374
330
1F
100
AcDbEntity
  8
0
 62
     3
100
AcDbLine
 10
122.6886660910844
 20
97.46060717799929
 30
0.0
 11
122.6291033558249
 21
98.11793278851776
 31
0.0
  0
LINE
  5
2375
330
1F
100
AcDbEntity
  8
0
 62
     3
100
AcDbLine
 10
122.6291033558249
 20
98.11793278851776
 30
0.0
 11
122.5679946250915
 21
98.79232767918377
 31
0.0
  0
LINE
  5
2376
330
1F
100
AcDbEntity
  8
0
 62
     3
100
AcDbLine
 10
122.5679946250915
 20
98.79232767918377
 30
0.0
 11
122.5061073086857
 21
99.47531122663288
 31
0.0
  0
LINE
  5
2377
330
1F
100
AcDbEntity
  8
0
 62
     3
100
AcDbLine
 10
119.0874819762706
 20
137.2029540310171
 30
0.0
 11
119.0692774139046
 21
137.4038626621034
 31
0.0
  0
LINE
  5
2378
330
1F
100
AcDbEntity
  8
0
 62
     3
100
AcDbLine
 10
119.0692774139046
 20
137.4038626621034
 30
0.0
 11
119.0517136014699
 21
137.5976913789775
 31
0.0
  0
LINE
  5
2379
330
1F
100
AcDbEntity
  8
0
 62
     3
100
AcDbLine
 10
119.0517136014699
 20
137.5976913789775
 30
0.0
 11
119.0353837914466
 21
137.7779134730365
 31
0.0
  0
LINE
  5
237A
330
1F
100
AcDbEntity
  8
0
 62
     3
100
AcDbLine
 10
119.0353837914466
 20
137.7779134730365
 30
0.0
 11
119.0208365328311
 21
137.9384529958036
 31
0.0
  0
LINE
  5
237B
330
1F
100
AcDbEntity
  8
0
 62
     3
100
AcDbLine
 10
119.0208365328311
 20
137.9384529958036
 30
0.0
 11
119.0085626326203
 21
138.0739026884105
 31
0.0
  0
LINE
  5
237C
330
1F
100
AcDbEntity
  8
0
 62
     3
100
AcDbLine
 10
119.0085626326203
 20
138.0739026884105
 30
0.0
 11
118.9989765293598
 21
138.1796953449514
 31
0.0
  0
LINE
  5
237D
330
1F
100
AcDbEntity
  8
0
 62
     3
100
AcDbLine
 10
118.9989765293598
 20
138.1796953449514
 30
0.0
 11
118.9924004606604
 21
138.2522695879009
 31
0.0
  0
LINE
  5
237E
330
1F
100
AcDbEntity
  8
0
 62
     3
100
AcDbLine
 10
118.9924004606604
 20
138.2522695879009
 30
0.0
 11
118.9890560812949
 21
138.289179764178
 31
0.0
  0
LINE
  5
237F
330
1F
100
AcDbEntity
  8
0
 62
     3
100
AcDbLine
 10
118.9890560812949
 20
138.289179764178
 30
0.0
 11
118.9886351234912
 21
138.2938214758899
 31
0.0
  0
LINE
  5
2380
330
1F
100
AcDbEntity
  8
0
 62
     3
100
AcDbLine
 10
119.3523836441039
 20
134.2795287440088
 30
0.0
 11
119.3523836441039
 21
134.2795287440088
 31
0.0
  0
LINE
  5
2381
330
1F
100
AcDbEntity
  8
0
 62
     3
100
AcDbLine
 10
119.3523836441039
 20
134.2795287440088
 30
0.0
 11
119.3514886431097
 21
134.28940448859
 31
0.0
  0
LINE
  5
2382
330
1F
100
AcDbEntity
  8
0
 62
     3
100
AcDbLine
 10
119.3514886431097
 20
134.28940448859
 30
0.0
 11
119.3488315798044
 21
134.3187281111744
 31
0.0
  0
LINE
  5
2383
330
1F
100
AcDbEntity
  8
0
 62
     3
100
AcDbLine
 10
119.3488315798044
 20
134.3187281111744
 30
0.0
 11
119.3444925479292
 21
134.3666129926708
 31
0.0
  0
LINE
  5
2384
330
1F
100
AcDbEntity
  8
0
 62
     3
100
AcDbLine
 10
119.3444925479292
 20
134.3666129926708
 30
0.0
 11
119.3386037952899
 21
134.4316006819274
 31
0.0
  0
LINE
  5
2385
330
1F
100
AcDbEntity
  8
0
 62
     3
100
AcDbLine
 10
119.3386037952899
 20
134.4316006819274
 30
0.0
 11
119.3313441358208
 21
134.5117167750862
 31
0.0
  0
LINE
  5
2386
330
1F
100
AcDbEntity
  8
0
 62
     3
100
AcDbLine
 10
119.3313441358208
 20
134.5117167750862
 30
0.0
 11
119.322934292972
 21
134.6045286575821
 31
0.0
  0
LINE
  5
2387
330
1F
100
AcDbEntity
  8
0
 62
     3
100
AcDbLine
 10
119.322934292972
 20
134.6045286575821
 30
0.0
 11
119.313629449129
 21
134.7072162846592
 31
0.0
  0
LINE
  5
2388
330
1F
100
AcDbEntity
  8
0
 62
     3
100
AcDbLine
 10
119.313629449129
 20
134.7072162846592
 30
0.0
 11
119.3037127263545
 21
134.8166578630474
 31
0.0
  0
LINE
  5
2389
330
1F
100
AcDbEntity
  8
0
 62
     3
100
AcDbLine
 10
119.3037127263545
 20
134.8166578630474
 30
0.0
 11
119.2934849418401
 21
134.9295285711553
 31
0.0
  0
LINE
  5
238A
330
1F
100
AcDbEntity
  8
0
 62
     3
100
AcDbLine
 10
119.2934849418401
 20
134.9295285711553
 30
0.0
 11
119.2832571573257
 21
135.0423992792633
 31
0.0
  0
LINE
  5
238B
330
1F
100
AcDbEntity
  8
0
 62
     3
100
AcDbLine
 10
119.2832571573257
 20
135.0423992792633
 30
0.0
 11
119.2733404345512
 21
135.1518427202966
 31
0.0
  0
LINE
  5
238C
330
1F
100
AcDbEntity
  8
0
 62
     3
100
AcDbLine
 10
119.2733404345512
 20
135.1518427202966
 30
0.0
 11
119.2640355907082
 21
135.2545284847286
 31
0.0
  0
LINE
  5
238D
330
1F
100
AcDbEntity
  8
0
 62
     3
100
AcDbLine
 10
119.2640355907082
 20
135.2545284847286
 30
0.0
 11
119.2556257478594
 21
135.3473403672245
 31
0.0
  0
LINE
  5
238E
330
1F
100
AcDbEntity
  8
0
 62
     3
100
AcDbLine
 10
119.2556257478594
 20
135.3473403672245
 30
0.0
 11
119.2483660883903
 21
135.4274583230283
 31
0.0
  0
LINE
  5
238F
330
1F
100
AcDbEntity
  8
0
 62
     3
100
AcDbLine
 10
119.2483660883903
 20
135.4274583230283
 30
0.0
 11
119.242477335751
 21
135.492446012285
 31
0.0
  0
LINE
  5
2390
330
1F
100
AcDbEntity
  8
0
 62
     3
100
AcDbLine
 10
119.242477335751
 20
135.492446012285
 30
0.0
 11
119.2381383038759
 21
135.5403290311363
 31
0.0
  0
LINE
  5
2391
330
1F
100
AcDbEntity
  8
0
 62
     3
100
AcDbLine
 10
119.2381383038759
 20
135.5403290311363
 30
0.0
 11
119.2354812405705
 21
135.5696545163658
 31
0.0
  0
LINE
  5
2392
330
1F
100
AcDbEntity
  8
0
 62
     3
100
AcDbLine
 10
135.1342963639348
 20
135.5696545163658
 30
0.0
 11
135.1314295202195
 21
135.5380137632158
 31
0.0
  0
LINE
  5
2393
330
1F
100
AcDbEntity
  8
0
 62
     3
100
AcDbLine
 10
135.1314295202195
 20
135.5380137632158
 30
0.0
 11
135.1266848973631
 21
135.4856529454258
 31
0.0
  0
LINE
  5
2394
330
1F
100
AcDbEntity
  8
0
 62
     3
100
AcDbLine
 10
135.1266848973631
 20
135.4856529454258
 30
0.0
 11
135.120224312663
 21
135.4143546144035
 31
0.0
  0
LINE
  5
2395
330
1F
100
AcDbEntity
  8
0
 62
     3
100
AcDbLine
 10
135.120224312663
 20
135.4143546144035
 30
0.0
 11
135.1122677910774
 21
135.3265457967784
 31
0.0
  0
LINE
  5
2396
330
1F
100
AcDbEntity
  8
0
 62
     3
100
AcDbLine
 10
135.1122677910774
 20
135.3265457967784
 30
0.0
 11
135.1030858818142
 21
135.2252179006603
 31
0.0
  0
LINE
  5
2397
330
1F
100
AcDbEntity
  8
0
 62
     3
100
AcDbLine
 10
135.1030858818142
 20
135.2252179006603
 30
0.0
 11
135.0929917420893
 21
135.1138186822202
 31
0.0
  0
LINE
  5
2398
330
1F
100
AcDbEntity
  8
0
 62
     3
100
AcDbLine
 10
135.0929917420893
 20
135.1138186822202
 30
0.0
 11
135.0823290299326
 21
134.9961442122724
 31
0.0
  0
LINE
  5
2399
330
1F
100
AcDbEntity
  8
0
 62
     3
100
AcDbLine
 10
135.0823290299326
 20
134.9961442122724
 30
0.0
 11
135.0714604954868
 21
134.876202903178
 31
0.0
  0
LINE
  5
239A
330
1F
100
AcDbEntity
  8
0
 62
     3
100
AcDbLine
 10
135.0714604954868
 20
134.876202903178
 30
0.0
 11
135.0607568051367
 21
134.7580758104589
 31
0.0
  0
LINE
  5
239B
330
1F
100
AcDbEntity
  8
0
 62
     3
100
AcDbLine
 10
135.0607568051367
 20
134.7580758104589
 30
0.0
 11
135.0505818731784
 21
134.6457881102827
 31
0.0
  0
LINE
  5
239C
330
1F
100
AcDbEntity
  8
0
 62
     3
100
AcDbLine
 10
135.0505818731784
 20
134.6457881102827
 30
0.0
 11
135.0412826172709
 21
134.5431619504955
 31
0.0
  0
LINE
  5
239D
330
1F
100
AcDbEntity
  8
0
 62
     3
100
AcDbLine
 10
135.0412826172709
 20
134.5431619504955
 30
0.0
 11
135.0331756870895
 21
134.4536935160425
 31
0.0
  0
LINE
  5
239E
330
1F
100
AcDbEntity
  8
0
 62
     3
100
AcDbLine
 10
135.0331756870895
 20
134.4536935160425
 30
0.0
 11
135.026536986947
 21
134.3804300943878
 31
0.0
  0
LINE
  5
239F
330
1F
100
AcDbEntity
  8
0
 62
     3
100
AcDbLine
 10
135.026536986947
 20
134.3804300943878
 30
0.0
 11
135.0215925953984
 21
134.3258639047411
 31
0.0
  0
LINE
  5
23A0
330
1F
100
AcDbEntity
  8
0
 62
     3
100
AcDbLine
 10
135.0215925953984
 20
134.3258639047411
 30
0.0
 11
135.0185110818296
 21
134.2918557296064
 31
0.0
  0
LINE
  5
23A1
330
1F
100
AcDbEntity
  8
0
 62
     3
100
AcDbLine
 10
135.0185110818296
 20
134.2918557296064
 30
0.0
 11
135.0173972200304
 21
134.2795622716215
 31
0.0
  0
LINE
  5
23A2
330
1F
100
AcDbEntity
  8
0
 62
     3
100
AcDbLine
 10
135.0173972200304
 20
134.2795622716215
 30
0.0
 11
135.0173939604013
 21
134.2795287440088
 31
0.0
  0
LINE
  5
23A3
330
1F
100
AcDbEntity
  8
0
 62
     3
100
AcDbLine
 10
180.1975394408821
 20
191.1603676360051
 30
0.0
 11
180.1789119108821
 21
191.2796353960052
 31
0.0
  0
LINE
  5
23A4
330
1F
100
AcDbEntity
  8
0
 62
     3
100
AcDbLine
 10
180.1789119108821
 20
191.2796353960052
 30
0.0
 11
180.1565407308821
 21
191.3938401760051
 31
0.0
  0
LINE
  5
23A5
330
1F
100
AcDbEntity
  8
0
 62
     3
100
AcDbLine
 10
180.1565407308821
 20
191.3938401760051
 30
0.0
 11
180.1305988008822
 21
191.5020992360051
 31
0.0
  0
LINE
  5
23A6
330
1F
100
AcDbEntity
  8
0
 62
     3
100
AcDbLine
 10
180.1305988008822
 20
191.5020992360051
 30
0.0
 11
180.1012866608822
 21
191.6035757860053
 31
0.0
  0
LINE
  5
23A7
330
1F
100
AcDbEntity
  8
0
 62
     3
100
AcDbLine
 10
180.1012866608822
 20
191.6035757860053
 30
0.0
 11
180.0688308508821
 21
191.6974854660051
 31
0.0
  0
LINE
  5
23A8
330
1F
100
AcDbEntity
  8
0
 62
     3
100
AcDbLine
 10
180.0688308508821
 20
191.6974854660051
 30
0.0
 11
180.0334822608822
 21
191.7831024060052
 31
0.0
  0
LINE
  5
23A9
330
1F
100
AcDbEntity
  8
0
 62
     3
100
AcDbLine
 10
180.0334822608822
 20
191.7831024060052
 30
0.0
 11
179.9955141108821
 21
191.8597648260051
 31
0.0
  0
LINE
  5
23AA
330
1F
100
AcDbEntity
  8
0
 62
     3
100
AcDbLine
 10
179.9955141108821
 20
191.8597648260051
 30
0.0
 11
179.9552198608821
 21
191.9268801560052
 31
0.0
  0
LINE
  5
23AB
330
1F
100
AcDbEntity
  8
0
 62
     3
100
AcDbLine
 10
179.9552198608821
 20
191.9268801560052
 30
0.0
 11
179.9129109908821
 21
191.9839296460052
 31
0.0
  0
LINE
  5
23AC
330
1F
100
AcDbEntity
  8
0
 62
     3
100
AcDbLine
 10
179.9129109908821
 20
191.9839296460052
 30
0.0
 11
179.8689145008822
 21
192.0304723260051
 31
0.0
  0
LINE
  5
23AD
330
1F
100
AcDbEntity
  8
0
 62
     3
100
AcDbLine
 10
179.8689145008822
 20
192.0304723260051
 30
0.0
 11
179.8235704808821
 21
192.0661484360051
 31
0.0
  0
LINE
  5
23AE
330
1F
100
AcDbEntity
  8
0
 62
     3
100
AcDbLine
 10
179.8235704808821
 20
192.0661484360051
 30
0.0
 11
179.7772294108821
 21
192.0906822360051
 31
0.0
  0
LINE
  5
23AF
330
1F
100
AcDbEntity
  8
0
 62
     3
100
AcDbLine
 10
179.7772294108821
 20
192.0906822360051
 30
0.0
 11
179.7302494708821
 21
192.1038840760052
 31
0.0
  0
LINE
  5
23B0
330
1F
100
AcDbEntity
  8
0
 62
     3
100
AcDbLine
 10
179.7302494708821
 20
192.1038840760052
 30
0.0
 11
179.6829938108821
 21
192.1056519160051
 31
0.0
  0
LINE
  5
23B1
330
1F
100
AcDbEntity
  8
0
 62
     3
100
AcDbLine
 10
179.6829938108821
 20
192.1056519160051
 30
0.0
 11
179.6358276808821
 21
192.0959721060052
 31
0.0
  0
LINE
  5
23B2
330
1F
100
AcDbEntity
  8
0
 62
     3
100
AcDbLine
 10
179.6358276808821
 20
192.0959721060052
 30
0.0
 11
179.5891156508821
 21
192.0749194460049
 31
0.0
  0
LINE
  5
23B3
330
1F
100
AcDbEntity
  8
0
 62
     3
100
AcDbLine
 10
179.5891156508821
 20
192.0749194460049
 30
0.0
 11
179.5432187908821
 21
192.0426566760052
 31
0.0
  0
LINE
  5
23B4
330
1F
100
AcDbEntity
  8
0
 62
     3
100
AcDbLine
 10
179.5432187908821
 20
192.0426566760052
 30
0.0
 11
179.4984918508821
 21
191.9994331660051
 31
0.0
  0
LINE
  5
23B5
330
1F
100
AcDbEntity
  8
0
 62
     3
100
AcDbLine
 10
179.4984918508821
 20
191.9994331660051
 30
0.0
 11
179.4552805408821
 21
191.9455830060051
 31
0.0
  0
LINE
  5
23B6
330
1F
100
AcDbEntity
  8
0
 62
     3
100
AcDbLine
 10
179.4552805408821
 20
191.9455830060051
 30
0.0
 11
179.4139188808821
 21
191.8815224360051
 31
0.0
  0
LINE
  5
23B7
330
1F
100
AcDbEntity
  8
0
 62
     3
100
AcDbLine
 10
179.4139188808821
 20
191.8815224360051
 30
0.0
 11
179.3747265608821
 21
191.8077466160051
 31
0.0
  0
LINE
  5
23B8
330
1F
100
AcDbEntity
  8
0
 62
     3
100
AcDbLine
 10
179.3747265608821
 20
191.8077466160051
 30
0.0
 11
179.3380065208822
 21
191.7248257860052
 31
0.0
  0
LINE
  5
23B9
330
1F
100
AcDbEntity
  8
0
 62
     3
100
AcDbLine
 10
179.3380065208822
 20
191.7248257860052
 30
0.0
 11
179.3040425908821
 21
191.6334008860052
 31
0.0
  0
LINE
  5
23BA
330
1F
100
AcDbEntity
  8
0
 62
     3
100
AcDbLine
 10
179.3040425908821
 20
191.6334008860052
 30
0.0
 11
179.2730972908821
 21
191.5341785760051
 31
0.0
  0
LINE
  5
23BB
330
1F
100
AcDbEntity
  8
0
 62
     3
100
AcDbLine
 10
179.2730972908821
 20
191.5341785760051
 30
0.0
 11
179.2454098108821
 21
191.4279258060051
 31
0.0
  0
LINE
  5
23BC
330
1F
100
AcDbEntity
  8
0
 62
     3
100
AcDbLine
 10
179.2454098108821
 20
191.4279258060051
 30
0.0
 11
179.2211941608821
 21
191.3154638460051
 31
0.0
  0
LINE
  5
23BD
330
1F
100
AcDbEntity
  8
0
 62
     3
100
AcDbLine
 10
179.2211941608821
 20
191.3154638460051
 30
0.0
 11
179.2006375208821
 21
191.1976619660052
 31
0.0
  0
LINE
  5
23BE
330
1F
100
AcDbEntity
  8
0
 62
     3
100
AcDbLine
 10
179.2006375208821
 20
191.1976619660052
 30
0.0
 11
179.1838987808821
 21
191.0754307260052
 31
0.0
  0
LINE
  5
23BF
330
1F
100
AcDbEntity
  8
0
 62
     3
100
AcDbLine
 10
179.1838987808821
 20
191.0754307260052
 30
0.0
 11
179.1711073208822
 21
190.9497149060051
 31
0.0
  0
LINE
  5
23C0
330
1F
100
AcDbEntity
  8
0
 62
     3
100
AcDbLine
 10
179.1711073208822
 20
190.9497149060051
 30
0.0
 11
179.1623620108821
 21
190.8214862260051
 31
0.0
  0
LINE
  5
23C1
330
1F
100
AcDbEntity
  8
0
 62
     3
100
AcDbLine
 10
179.1623620108821
 20
190.8214862260051
 30
0.0
 11
179.1577304508822
 21
190.6917358160051
 31
0.0
  0
LINE
  5
23C2
330
1F
100
AcDbEntity
  8
0
 62
     3
100
AcDbLine
 10
179.1577304508822
 20
190.6917358160051
 30
0.0
 11
179.1572484408821
 21
190.5614665960051
 31
0.0
  0
LINE
  5
23C3
330
1F
100
AcDbEntity
  8
0
 62
     3
100
AcDbLine
 10
179.1572484408821
 20
190.5614665960051
 30
0.0
 11
179.1609197008821
 21
190.4316854660051
 31
0.0
  0
LINE
  5
23C4
330
1F
100
AcDbEntity
  8
0
 62
     3
100
AcDbLine
 10
179.1609197008821
 20
190.4316854660051
 30
0.0
 11
179.1687158608821
 21
190.3033955760053
 31
0.0
  0
LINE
  5
23C5
330
1F
100
AcDbEntity
  8
0
 62
     3
100
AcDbLine
 10
179.1687158608821
 20
190.3033955760053
 30
0.0
 11
179.1805766608821
 21
190.1775885360049
 31
0.0
  0
LINE
  5
23C6
330
1F
100
AcDbEntity
  8
0
 62
     3
100
AcDbLine
 10
179.1805766608821
 20
190.1775885360049
 30
0.0
 11
179.1964104108821
 21
190.0552367760053
 31
0.0
  0
LINE
  5
23C7
330
1F
100
AcDbEntity
  8
0
 62
     3
100
AcDbLine
 10
179.1964104108821
 20
190.0552367760053
 30
0.0
 11
179.2160947408822
 21
189.9372860060051
 31
0.0
  0
LINE
  5
23C8
330
1F
100
AcDbEntity
  8
0
 62
     3
100
AcDbLine
 10
179.2160947408822
 20
189.9372860060051
 30
0.0
 11
179.2394774908821
 21
189.8246479260052
 31
0.0
  0
LINE
  5
23C9
330
1F
100
AcDbEntity
  8
0
 62
     3
100
AcDbLine
 10
179.2394774908821
 20
189.8246479260052
 30
0.0
 11
179.2663779308822
 21
189.7181931660052
 31
0.0
  0
LINE
  5
23CA
330
1F
100
AcDbEntity
  8
0
 62
     3
100
AcDbLine
 10
179.2663779308822
 20
189.7181931660052
 30
0.0
 11
179.2965881308822
 21
189.6187445860051
 31
0.0
  0
LINE
  5
23CB
330
1F
100
AcDbEntity
  8
0
 62
     3
100
AcDbLine
 10
179.2965881308822
 20
189.6187445860051
 30
0.0
 11
179.3298745708821
 21
189.5270708460053
 31
0.0
  0
LINE
  5
23CC
330
1F
100
AcDbEntity
  8
0
 62
     3
100
AcDbLine
 10
179.3298745708821
 20
189.5270708460053
 30
0.0
 11
179.3659799808821
 21
189.4438805560053
 31
0.0
  0
LINE
  5
23CD
330
1F
100
AcDbEntity
  8
0
 62
     3
100
AcDbLine
 10
179.3659799808821
 20
189.4438805560053
 30
0.0
 11
179.4046252808821
 21
189.3698167160051
 31
0.0
  0
LINE
  5
23CE
330
1F
100
AcDbEntity
  8
0
 62
     3
100
AcDbLine
 10
179.4046252808821
 20
189.3698167160051
 30
0.0
 11
179.4455117608821
 21
189.3054518260051
 31
0.0
  0
LINE
  5
23CF
330
1F
100
AcDbEntity
  8
0
 62
     3
100
AcDbLine
 10
179.4455117608821
 20
189.3054518260051
 30
0.0
 11
179.4883233808821
 21
189.2512833760052
 31
0.0
  0
LINE
  5
23D0
330
1F
100
AcDbEntity
  8
0
 62
     3
100
AcDbLine
 10
179.4883233808821
 20
189.2512833760052
 30
0.0
 11
179.5327292308822
 21
189.2077300560051
 31
0.0
  0
LINE
  5
23D1
330
1F
100
AcDbEntity
  8
0
 62
     3
100
AcDbLine
 10
179.5327292308822
 20
189.2077300560051
 30
0.0
 11
179.5783860908821
 21
189.1751285260052
 31
0.0
  0
LINE
  5
23D2
330
1F
100
AcDbEntity
  8
0
 62
     3
100
AcDbLine
 10
179.5783860908821
 20
189.1751285260052
 30
0.0
 11
179.6249410508822
 21
189.1537307760051
 31
0.0
  0
LINE
  5
23D3
330
1F
100
AcDbEntity
  8
0
 62
     3
100
AcDbLine
 10
179.6249410508822
 20
189.1537307760051
 30
0.0
 11
179.6720342508822
 21
189.1437021860052
 31
0.0
  0
LINE
  5
23D4
330
1F
100
AcDbEntity
  8
0
 62
     3
100
AcDbLine
 10
179.6720342508822
 20
189.1437021860052
 30
0.0
 11
179.7193017108821
 21
189.1451202860053
 31
0.0
  0
LINE
  5
23D5
330
1F
100
AcDbEntity
  8
0
 62
     3
100
AcDbLine
 10
179.7193017108821
 20
189.1451202860053
 30
0.0
 11
179.7663780508822
 21
189.1579741060052
 31
0.0
  0
LINE
  5
23D6
330
1F
100
AcDbEntity
  8
0
 62
     3
100
AcDbLine
 10
179.7663780508822
 20
189.1579741060052
 30
0.0
 11
179.8128994108821
 21
189.1821643060053
 31
0.0
  0
LINE
  5
23D7
330
1F
100
AcDbEntity
  8
0
 62
     3
100
AcDbLine
 10
179.8128994108821
 20
189.1821643060053
 30
0.0
 11
179.8585062008821
 21
189.2175038860052
 31
0.0
  0
LINE
  5
23D8
330
1F
100
AcDbEntity
  8
0
 62
     3
100
AcDbLine
 10
179.8585062008821
 20
189.2175038860052
 30
0.0
 11
179.9028459008821
 21
189.2637197160052
 31
0.0
  0
LINE
  5
23D9
330
1F
100
AcDbEntity
  8
0
 62
     3
100
AcDbLine
 10
179.9028459008821
 20
189.2637197160052
 30
0.0
 11
179.9455757908821
 21
189.3204545460053
 31
0.0
  0
LINE
  5
23DA
330
1F
100
AcDbEntity
  8
0
 62
     3
100
AcDbLine
 10
179.9455757908821
 20
189.3204545460053
 30
0.0
 11
179.9863655908821
 21
189.3872698660052
 31
0.0
  0
LINE
  5
23DB
330
1F
100
AcDbEntity
  8
0
 62
     3
100
AcDbLine
 10
179.9863655908821
 20
189.3872698660052
 30
0.0
 11
180.0249000208822
 21
189.4636492060053
 31
0.0
  0
LINE
  5
23DC
330
1F
100
AcDbEntity
  8
0
 62
     3
100
AcDbLine
 10
180.0249000208822
 20
189.4636492060053
 30
0.0
 11
180.0608812208821
 21
189.5490022160053
 31
0.0
  0
LINE
  5
23DD
330
1F
100
AcDbEntity
  8
0
 62
     3
100
AcDbLine
 10
180.0608812208821
 20
189.5490022160053
 30
0.0
 11
180.0940310808821
 21
189.6426691460052
 31
0.0
  0
LINE
  5
23DE
330
1F
100
AcDbEntity
  8
0
 62
     3
100
AcDbLine
 10
180.0940310808821
 20
189.6426691460052
 30
0.0
 11
180.1240933608822
 21
189.7439260060052
 31
0.0
  0
LINE
  5
23DF
330
1F
100
AcDbEntity
  8
0
 62
     3
100
AcDbLine
 10
180.1240933608822
 20
189.7439260060052
 30
0.0
 11
180.1508357108821
 21
189.8519901260051
 31
0.0
  0
LINE
  5
23E0
330
1F
100
AcDbEntity
  8
0
 62
     3
100
AcDbLine
 10
180.1508357108821
 20
189.8519901260051
 30
0.0
 11
180.1740514108821
 21
189.9660262360051
 31
0.0
  0
LINE
  5
23E1
330
1F
100
AcDbEntity
  8
0
 62
     3
100
AcDbLine
 10
180.1740514108821
 20
189.9660262360051
 30
0.0
 11
180.1935610208821
 21
190.0851528860052
 31
0.0
  0
LINE
  5
23F0
330
1F
100
AcDbEntity
  8
0
100
AcDbLine
 10
135.6847590327699
 20
133.0524987811713
 30
0.0
 11
135.6847590327699
 21
63.92742696444088
 31
0.0
  0
LINE
  5
23F1
330
1F
100
AcDbEntity
  8
0
100
AcDbLine
 10
118.6848887363907
 20
133.038551071388
 30
0.0
 11
118.6848887363907
 21
63.92742696444088
 31
0.0
  0
LINE
  5
23F2
330
1F
100
AcDbEntity
  8
0
100
AcDbLine
 10
133.1847590327699
 20
65.17742696444088
 30
0.0
 11
121.1848887363907
 21
65.17742696444088
 31
0.0
  0
LINE
  5
23F6
330
1F
100
AcDbEntity
  8
0
100
AcDbLine
 10
180.873582373866
 20
134.1885497043397
 30
0.0
 11
167.6538676149309
 21
134.1885497043397
 31
0.0
  0
LINE
  5
23F7
330
1F
100
AcDbEntity
  8
0
100
AcDbLine
 10
188.1235823980805
 20
157.7343327174451
 30
0.0
 11
167.6538676149309
 21
157.7343327174451
 31
0.0
  0
LINE
  5
23F8
330
1F
100
AcDbEntity
  8
0
100
AcDbLine
 10
168.9038676149309
 20
136.6885497043397
 30
0.0
 11
168.9038676149309
 21
155.2343327174451
 31
0.0
  0
LINE
  5
23FC
330
1F
100
AcDbEntity
  8
0
100
AcDbLine
 10
215.1235823142608
 20
131.9899011098324
 30
0.0
 11
215.1235823142608
 21
179.7522099777438
 31
0.0
  0
LINE
  5
23FD
330
1F
100
AcDbEntity
  8
0
100
AcDbLine
 10
181.1235823142608
 20
135.038551071388
 30
0.0
 11
181.1235823142608
 21
179.7522099777438
 31
0.0
  0
LINE
  5
23FE
330
1F
100
AcDbEntity
  8
0
100
AcDbLine
 10
212.6235823142608
 20
178.5022099777438
 30
0.0
 11
183.6235823142608
 21
178.5022099777438
 31
0.0
  0
LINE
  5
2402
330
1F
100
AcDbEntity
  8
0
100
AcDbLine
 10
181.1235823142608
 20
135.038551071388
 30
0.0
 11
181.1235823142608
 21
173.1655850247512
 31
0.0
  0
LINE
  5
2403
330
1F
100
AcDbEntity
  8
0
100
AcDbLine
 10
192.1235823142615
 20
172.0477450371545
 30
0.0
 11
192.1235823142615
 21
173.1655850247512
 31
0.0
  0
LINE
  5
2404
330
1F
100
AcDbEntity
  8
0
100
AcDbLine
 10
183.6235823142608
 20
171.9155850247512
 30
0.0
 11
189.6235823142615
 21
171.9155850247512
 31
0.0
  0
LINE
  5
2408
330
1F
100
AcDbEntity
  8
0
100
AcDbLine
 10
188.1235823980805
 20
157.7343327174451
 30
0.0
 11
157.7179493752373
 21
157.7343327174451
 31
0.0
  0
LINE
  5
2409
330
1F
100
AcDbEntity
  8
0
100
AcDbLine
 10
180.873582373866
 20
72.68854800560735
 30
0.0
 11
157.7179493752373
 21
72.68854800560736
 31
0.0
  0
LINE
  5
240A
330
1F
100
AcDbEntity
  8
0
100
AcDbLine
 10
158.9679493752373
 20
155.2343327174451
 30
0.0
 11
158.9679493752373
 21
75.18854800560736
 31
0.0
  0
LINE
  5
240E
330
1F
100
AcDbEntity
  8
0
100
AcDbLine
 10
180.873582373866
 20
104.1885497043397
 30
0.0
 11
167.6538676149309
 21
104.1885497043397
 31
0.0
  0
LINE
  5
240F
330
1F
100
AcDbEntity
  8
0
100
AcDbLine
 10
180.873582373866
 20
134.1885497043397
 30
0.0
 11
167.6538676149309
 21
134.1885497043397
 31
0.0
  0
LINE
  5
2410
330
1F
100
AcDbEntity
  8
0
100
AcDbLine
 10
168.9038676149309
 20
106.6885497043397
 30
0.0
 11
168.9038676149309
 21
131.6885497043397
 31
0.0
  0
LINE
  5
2414
330
1F
100
AcDbEntity
  8
0
  6
ByBlock
 62
     0
370
    -2
100
AcDbLine
 10
120.1032425685313
 20
159.3003958831765
 30
0.0
 11
122.6848886467218
 21
159.4843325386312
 31
0.0
  0
LINE
  5
2415
330
1F
100
AcDbEntity
  8
0
  6
ByBlock
 62
     0
370
    -2
100
AcDbLine
 10
122.6848886467218
 20
159.4843325386312
 30
0.0
 11
120.5410853664458
 21
158.0342164530248
 31
0.0
  0
LINE
  5
2416
330
1F
100
AcDbEntity
  8
0
  6
ByBlock
 62
     0
370
    -2
100
AcDbLine
 10
122.6848886467218
 20
159.4843325386312
 30
0.0
 11
120.3221639674885
 21
158.6673061681007
 31
0.0
  0
LINE
  5
2417
330
1F
100
AcDbEntity
  8
0
100
AcDbLine
 10
120.3221639674885
 20
158.6673061681007
 30
0.0
 11
102.7351673948488
 21
152.5857512139539
 31
0.0
1001
ACAD
1000
DSTYLE
1002
{
1070
   147
1040
0.625
1070
    77
1070
     0
1002
}
  0
LINE
  5
2418
330
1F
100
AcDbEntity
  8
0
100
AcDbLine
 10
120.3000012911377
 20
160.8838064050174
 30
0.0
 11
102.7688636482406
 21
162.820245147229
 31
0.0
1001
ACAD
1000
DSTYLE
1002
{
1070
   147
1040
0.625
1070
    77
1070
     0
1002
}
  0
LINE
  5
2419
330
1F
100
AcDbEntity
  8
0
  6
ByBlock
 62
     0
370
    -2
100
AcDbLine
 10
120.373546177365
 20
161.5496294415414
 30
0.0
 11
122.7848884768485
 21
160.6093329558637
 31
0.0
  0
LINE
  5
241A
330
1F
100
AcDbEntity
  8
0
  6
ByBlock
 62
     0
370
    -2
100
AcDbLine
 10
122.7848884768485
 20
160.6093329558637
 30
0.0
 11
120.2264564049104
 21
160.2179833684934
 31
0.0
  0
LINE
  5
241B
330
1F
100
AcDbEntity
  8
0
  6
ByBlock
 62
     0
370
    -2
100
AcDbLine
 10
122.7848884768485
 20
160.6093329558637
 30
0.0
 11
120.3000012911377
 21
160.8838064050174
 31
0.0
  0
LINE
  5
241C
330
1F
100
AcDbEntity
  8
0
  6
ByBlock
 62
     0
370
    -2
100
AcDbLine
 10
115.7529458269531
 20
169.1609446142197
 30
0.0
 11
117.8505578444925
 21
167.6447807081295
 31
0.0
  0
LINE
  5
241D
330
1F
100
AcDbEntity
  8
0
  6
ByBlock
 62
     0
370
    -2
100
AcDbLine
 10
117.8505578444925
 20
167.6447807081295
 30
0.0
 11
115.2758906918551
 21
167.90901208285
 31
0.0
  0
LINE
  5
241E
330
1F
100
AcDbEntity
  8
0
  6
ByBlock
 62
     0
370
    -2
100
AcDbLine
 10
117.8505578444925
 20
167.6447807081295
 30
0.0
 11
115.5144182594041
 21
168.5349783485348
 31
0.0
  0
LINE
  5
241F
330
1F
100
AcDbEntity
  8
0
100
AcDbLine
 10
115.5144182594041
 20
168.5349783485348
 30
0.0
 11
102.26074026204
 21
173.5853584522133
 31
0.0
1001
ACAD
1000
DSTYLE
1002
{
1070
   147
1040
0.625
1070
    77
1070
     0
1002
}
  0
LINE
  5
2420
330
1F
100
AcDbEntity
  8
0
100
AcDbLine
 10
119.7353487593093
 20
125.6200000048566
 30
0.0
 11
103.4581308059071
 21
125.7620874919942
 31
0.0
1001
ACAD
1000
DSTYLE
1002
{
1070
   147
1040
0.625
1070
    77
1070
     0
1002
}
  0
LINE
  5
2421
330
1F
100
AcDbEntity
  8
0
  6
ByBlock
 62
     0
370
    -2
100
AcDbLine
 10
119.7411960038668
 20
126.289846984388
 30
0.0
 11
122.2352535155555
 21
125.5981777754121
 31
0.0
  0
LINE
  5
2422
330
1F
100
AcDbEntity
  8
0
  6
ByBlock
 62
     0
370
    -2
100
AcDbLine
 10
122.2352535155555
 20
125.5981777754121
 30
0.0
 11
119.7295015147519
 21
124.9501530253252
 31
0.0
  0
LINE
  5
2423
330
1F
100
AcDbEntity
  8
0
  6
ByBlock
 62
     0
370
    -2
100
AcDbLine
 10
122.2352535155555
 20
125.5981777754121
 30
0.0
 11
119.7353487593093
 21
125.6200000048566
 31
0.0
  0
LINE
  5
2424
330
1F
100
AcDbEntity
  8
0
100
AcDbLine
 10
197.9148908620539
 20
126.3074736553138
 30
0.0
 11
229.2593722560452
 21
134.6283497503466
 31
0.0
1001
ACAD
1000
DSTYLE
1002
{
1070
   147
1040
0.625
1070
    77
1070
     0
1002
}
  0
LINE
  5
2425
330
1F
100
AcDbEntity
  8
0
  6
ByBlock
 62
     0
370
    -2
100
AcDbLine
 10
198.0867657711354
 20
125.6600262196988
 30
0.0
 11
195.4985824018058
 21
125.6660273014125
 31
0.0
  0
LINE
  5
2426
330
1F
100
AcDbEntity
  8
0
  6
ByBlock
 62
     0
370
    -2
100
AcDbLine
 10
195.4985824018058
 20
125.6660273014125
 30
0.0
 11
197.7430159529724
 21
126.9549210909288
 31
0.0
  0
LINE
  5
2427
330
1F
100
AcDbEntity
  8
0
  6
ByBlock
 62
     0
370
    -2
100
AcDbLine
 10
195.4985824018058
 20
125.6660273014125
 30
0.0
 11
197.9148908620539
 21
126.3074736553138
 31
0.0
  0
LINE
  5
2428
330
1F
100
AcDbEntity
  8
0
  6
ByBlock
 62
     0
370
    -2
100
AcDbLine
 10
196.960844862061
 20
112.7492823325075
 30
0.0
 11
194.3735822174039
 21
112.6799918294218
 31
0.0
  0
LINE
  5
2429
330
1F
100
AcDbEntity
  8
0
  6
ByBlock
 62
     0
370
    -2
100
AcDbLine
 10
194.3735822174039
 20
112.6799918294218
 30
0.0
 11
196.579572628463
 21
114.0336296955336
 31
0.0
  0
LINE
  5
242A
330
1F
100
AcDbEntity
  8
0
  6
ByBlock
 62
     0
370
    -2
100
AcDbLine
 10
194.3735822174039
 20
112.6799918294218
 30
0.0
 11
196.770208745262
 21
113.3914560140205
 31
0.0
  0
LINE
  5
242B
330
1F
100
AcDbEntity
  8
0
100
AcDbLine
 10
196.770208745262
 20
113.3914560140205
 30
0.0
 11
229.4919174933087
 21
123.105244776057
 31
0.0
1001
ACAD
1000
DSTYLE
1002
{
1070
   147
1040
0.625
1070
    77
1070
     0
1002
}
  0
LINE
  5
242C
330
1F
100
AcDbEntity
  8
0
100
AcDbLine
 10
216.1689793842348
 20
114.2329369066287
 30
0.0
 11
229.0932359566754
 21
112.6799918294218
 31
0.0
1001
ACAD
1000
DSTYLE
1002
{
1070
   147
1040
0.625
1070
    77
1070
     0
1002
}
  0
LINE
  5
242D
330
1F
100
AcDbEntity
  8
0
  6
ByBlock
 62
     0
370
    -2
100
AcDbLine
 10
216.0890640789967
 20
113.5678484085738
 30
0.0
 11
213.6868335353795
 21
114.5311851002702
 31
0.0
  0
LINE
  5
242E
330
1F
100
AcDbEntity
  8
0
  6
ByBlock
 62
     0
370
    -2
100
AcDbLine
 10
213.6868335353795
 20
114.5311851002702
 30
0.0
 11
216.2488946894728
 21
114.8980254046836
 31
0.0
  0
LINE
  5
242F
330
1F
100
AcDbEntity
  8
0
  6
ByBlock
 62
     0
370
    -2
100
AcDbLine
 10
213.6868335353795
 20
114.5311851002702
 30
0.0
 11
216.1689793842348
 21
114.2329369066287
 31
0.0
  0
TEXT
  5
2430
330
1F
100
AcDbEntity
  8
0
 62
     4
100
AcDbText
 10
124.7113317602332
 20
65.80242696444088
 30
0.0
 40
3.0
  1
34
100
AcDbText
  0
LINE
  5
2431
330
1F
100
AcDbEntity
  8
0
  6
ByBlock
 62
     0
370
    -2
100
AcDbLine
 10
121.1848887363907
 20
64.50755446444088
 30
0.0
 11
118.6848887363907
 21
65.17742696444088
 31
0.0
  0
LINE
  5
2432
330
1F
100
AcDbEntity
  8
0
  6
ByBlock
 62
     0
370
    -2
100
AcDbLine
 10
118.6848887363907
 20
65.17742696444088
 30
0.0
 11
121.1848887363907
 21
65.84729946444088
 31
0.0
  0
LINE
  5
2433
330
1F
100
AcDbEntity
  8
0
  6
ByBlock
 62
     0
370
    -2
100
AcDbLine
 10
118.6848887363907
 20
65.17742696444088
 30
0.0
 11
121.1848887363907
 21
65.17742696444088
 31
0.0
  0
LINE
  5
2434
330
1F
100
AcDbEntity
  8
0
  6
ByBlock
 62
     0
370
    -2
100
AcDbLine
 10
133.1847590327699
 20
65.84729946444088
 30
0.0
 11
135.6847590327699
 21
65.17742696444088
 31
0.0
  0
LINE
  5
2435
330
1F
100
AcDbEntity
  8
0
  6
ByBlock
 62
     0
370
    -2
100
AcDbLine
 10
135.6847590327699
 20
65.17742696444088
 30
0.0
 11
133.1847590327699
 21
64.50755446444088
 31
0.0
  0
LINE
  5
2436
330
1F
100
AcDbEntity
  8
0
  6
ByBlock
 62
     0
370
    -2
100
AcDbLine
 10
135.6847590327699
 20
65.17742696444088
 30
0.0
 11
133.1847590327699
 21
65.17742696444088
 31
0.0
  0
TEXT
  5
2437
330
1F
100
AcDbEntity
  8
0
 62
     4
100
AcDbText
 10
168.2788676149309
 20
143.7025112927225
 30
0.0
 40
3.0
  1
47.1
 50
90.0
100
AcDbText
  0
LINE
  5
2438
330
1F
100
AcDbEntity
  8
0
  6
ByBlock
 62
     0
370
    -2
100
AcDbLine
 10
168.2339951149309
 20
155.2343327174451
 30
0.0
 11
168.9038676149309
 21
157.7343327174451
 31
0.0
  0
LINE
  5
2439
330
1F
100
AcDbEntity
  8
0
  6
ByBlock
 62
     0
370
    -2
100
AcDbLine
 10
168.9038676149309
 20
157.7343327174451
 30
0.0
 11
169.5737401149309
 21
155.2343327174451
 31
0.0
  0
LINE
  5
243A
330
1F
100
AcDbEntity
  8
0
  6
ByBlock
 62
     0
370
    -2
100
AcDbLine
 10
168.9038676149309
 20
157.7343327174451
 30
0.0
 11
168.9038676149309
 21
155.2343327174451
 31
0.0
  0
LINE
  5
243B
330
1F
100
AcDbEntity
  8
0
  6
ByBlock
 62
     0
370
    -2
100
AcDbLine
 10
169.5737401149309
 20
136.6885497043397
 30
0.0
 11
168.9038676149309
 21
134.1885497043397
 31
0.0
  0
LINE
  5
243C
330
1F
100
AcDbEntity
  8
0
  6
ByBlock
 62
     0
370
    -2
100
AcDbLine
 10
168.9038676149309
 20
134.1885497043397
 30
0.0
 11
168.2339951149309
 21
136.6885497043397
 31
0.0
  0
LINE
  5
243D
330
1F
100
AcDbEntity
  8
0
  6
ByBlock
 62
     0
370
    -2
100
AcDbLine
 10
168.9038676149309
 20
134.1885497043397
 30
0.0
 11
168.9038676149309
 21
136.6885497043397
 31
0.0
  0
TEXT
  5
243E
330
1F
100
AcDbEntity
  8
0
 62
     4
100
AcDbText
 10
194.5994328164943
 20
179.1272099777438
 30
0.0
 40
3.0
  1
68
100
AcDbText
  0
LINE
  5
243F
330
1F
100
AcDbEntity
  8
0
  6
ByBlock
 62
     0
370
    -2
100
AcDbLine
 10
183.6235823142608
 20
177.8323374777438
 30
0.0
 11
181.1235823142608
 21
178.5022099777438
 31
0.0
  0
LINE
  5
2440
330
1F
100
AcDbEntity
  8
0
  6
ByBlock
 62
     0
370
    -2
100
AcDbLine
 10
181.1235823142608
 20
178.5022099777438
 30
0.0
 11
183.6235823142608
 21
179.1720824777438
 31
0.0
  0
LINE
  5
2441
330
1F
100
AcDbEntity
  8
0
  6
ByBlock
 62
     0
370
    -2
100
AcDbLine
 10
181.1235823142608
 20
178.5022099777438
 30
0.0
 11
183.6235823142608
 21
178.5022099777438
 31
0.0
  0
LINE
  5
2442
330
1F
100
AcDbEntity
  8
0
  6
ByBlock
 62
     0
370
    -2
100
AcDbLine
 10
212.6235823142608
 20
179.1720824777438
 30
0.0
 11
215.1235823142608
 21
178.5022099777438
 31
0.0
  0
LINE
  5
2443
330
1F
100
AcDbEntity
  8
0
  6
ByBlock
 62
     0
370
    -2
100
AcDbLine
 10
215.1235823142608
 20
178.5022099777438
 30
0.0
 11
212.6235823142608
 21
177.8323374777438
 31
0.0
  0
LINE
  5
2444
330
1F
100
AcDbEntity
  8
0
  6
ByBlock
 62
     0
370
    -2
100
AcDbLine
 10
215.1235823142608
 20
178.5022099777438
 30
0.0
 11
212.6235823142608
 21
178.5022099777438
 31
0.0
  0
TEXT
  5
2445
330
1F
100
AcDbEntity
  8
0
 62
     4
100
AcDbText
 10
183.9173121323681
 20
172.5405850247512
 30
0.0
 40
3.0
  1
22
100
AcDbText
  0
LINE
  5
2446
330
1F
100
AcDbEntity
  8
0
  6
ByBlock
 62
     0
370
    -2
100
AcDbLine
 10
189.6235823142615
 20
172.5854575247512
 30
0.0
 11
192.1235823142615
 21
171.9155850247512
 31
0.0
  0
LINE
  5
2447
330
1F
100
AcDbEntity
  8
0
  6
ByBlock
 62
     0
370
    -2
100
AcDbLine
 10
192.1235823142615
 20
171.9155850247512
 30
0.0
 11
189.6235823142615
 21
171.2457125247512
 31
0.0
  0
LINE
  5
2448
330
1F
100
AcDbEntity
  8
0
  6
ByBlock
 62
     0
370
    -2
100
AcDbLine
 10
192.1235823142615
 20
171.9155850247512
 30
0.0
 11
189.6235823142615
 21
171.9155850247512
 31
0.0
  0
LINE
  5
2449
330
1F
100
AcDbEntity
  8
0
  6
ByBlock
 62
     0
370
    -2
100
AcDbLine
 10
183.6235823142608
 20
171.2457125247512
 30
0.0
 11
181.1235823142608
 21
171.9155850247512
 31
0.0
  0
LINE
  5
244A
330
1F
100
AcDbEntity
  8
0
  6
ByBlock
 62
     0
370
    -2
100
AcDbLine
 10
181.1235823142608
 20
171.9155850247512
 30
0.0
 11
183.6235823142608
 21
172.5854575247512
 31
0.0
  0
LINE
  5
244B
330
1F
100
AcDbEntity
  8
0
  6
ByBlock
 62
     0
370
    -2
100
AcDbLine
 10
181.1235823142608
 20
171.9155850247512
 30
0.0
 11
183.6235823142608
 21
171.9155850247512
 31
0.0
  0
TEXT
  5
244C
330
1F
100
AcDbEntity
  8
0
 62
     4
100
AcDbText
 10
158.3429493752373
 20
110.5114412079122
 30
0.0
 40
3.0
  1
170.1
 50
90.0
100
AcDbText
  0
LINE
  5
244D
330
1F
100
AcDbEntity
  8
0
  6
ByBlock
 62
     0
370
    -2
100
AcDbLine
 10
159.6378218752373
 20
75.18854800560736
 30
0.0
 11
158.9679493752373
 21
72.68854800560736
 31
0.0
  0
LINE
  5
244E
330
1F
100
AcDbEntity
  8
0
  6
ByBlock
 62
     0
370
    -2
100
AcDbLine
 10
158.9679493752373
 20
72.68854800560736
 30
0.0
 11
158.2980768752373
 21
75.18854800560736
 31
0.0
  0
LINE
  5
244F
330
1F
100
AcDbEntity
  8
0
  6
ByBlock
 62
     0
370
    -2
100
AcDbLine
 10
158.9679493752373
 20
72.68854800560736
 30
0.0
 11
158.9679493752373
 21
75.18854800560736
 31
0.0
  0
LINE
  5
2450
330
1F
100
AcDbEntity
  8
0
  6
ByBlock
 62
     0
370
    -2
100
AcDbLine
 10
158.2980768752373
 20
155.2343327174451
 30
0.0
 11
158.9679493752373
 21
157.7343327174451
 31
0.0
  0
LINE
  5
2451
330
1F
100
AcDbEntity
  8
0
  6
ByBlock
 62
     0
370
    -2
100
AcDbLine
 10
158.9679493752373
 20
157.7343327174451
 30
0.0
 11
159.6378218752373
 21
155.2343327174451
 31
0.0
  0
LINE
  5
2452
330
1F
100
AcDbEntity
  8
0
  6
ByBlock
 62
     0
370
    -2
100
AcDbLine
 10
158.9679493752373
 20
157.7343327174451
 30
0.0
 11
158.9679493752373
 21
155.2343327174451
 31
0.0
  0
TEXT
  5
2453
330
1F
100
AcDbEntity
  8
0
 62
     4
100
AcDbText
 10
168.2788676149309
 20
110.0694873381479
 30
0.0
 40
3.0
  1
(MAX60)
 50
90.0
100
AcDbText
  0
LINE
  5
2454
330
1F
100
AcDbEntity
  8
0
  6
ByBlock
 62
     0
370
    -2
100
AcDbLine
 10
168.2339951149309
 20
131.6885497043397
 30
0.0
 11
168.9038676149309
 21
134.1885497043397
 31
0.0
  0
LINE
  5
2455
330
1F
100
AcDbEntity
  8
0
  6
ByBlock
 62
     0
370
    -2
100
AcDbLine
 10
168.9038676149309
 20
134.1885497043397
 30
0.0
 11
169.5737401149309
 21
131.6885497043397
 31
0.0
  0
LINE
  5
2456
330
1F
100
AcDbEntity
  8
0
  6
ByBlock
 62
     0
370
    -2
100
AcDbLine
 10
168.9038676149309
 20
134.1885497043397
 30
0.0
 11
168.9038676149309
 21
131.6885497043397
 31
0.0
  0
LINE
  5
2457
330
1F
100
AcDbEntity
  8
0
  6
ByBlock
 62
     0
370
    -2
100
AcDbLine
 10
169.5737401149309
 20
106.6885497043397
 30
0.0
 11
168.9038676149309
 21
104.1885497043397
 31
0.0
  0
LINE
  5
2458
330
1F
100
AcDbEntity
  8
0
  6
ByBlock
 62
     0
370
    -2
100
AcDbLine
 10
168.9038676149309
 20
104.1885497043397
 30
0.0
 11
168.2339951149309
 21
106.6885497043397
 31
0.0
  0
LINE
  5
2459
330
1F
100
AcDbEntity
  8
0
  6
ByBlock
 62
     0
370
    -2
100
AcDbLine
 10
168.9038676149309
 20
104.1885497043397
 30
0.0
 11
168.9038676149309
 21
106.6885497043397
 31
0.0
  0
ENDSEC
  0
SECTION
  2
OBJECTS
  0
DICTIONARY
  5
C
330
0
100
AcDbDictionary
281
     1
  3
ACAD_2007HEADERVARS_RT
350
245D
  3
ACAD_COLOR
350
73
  3
ACAD_GROUP
350
D
  3
ACAD_LAYOUT
350
1A
  3
ACAD_MATERIAL
350
72
  3
ACAD_MLEADERSTYLE
350
168
  3
ACAD_MLINESTYLE
350
17
  3
ACAD_PLOTSETTINGS
350
19
  3
ACAD_PLOTSTYLENAME
350
E
  3
ACAD_SCALELIST
350
156
  3
ACAD_TABLESTYLE
350
86
  3
ACAD_VISUALSTYLE
350
99
  3
ACDB_RECOMPOSE_DATA
350
245B
  3
AcDbVariableDictionary
350
66
  3
DWGPROPS
350
245C
  0
DICTIONARY
  5
DD
330
2
100
AcDbDictionary
280
     1
281
     1
  3
ACAD_LAYERSTATES
360
DE
  0
DICTIONARY
  5
13AE
330
10
100
AcDbDictionary
280
     1
281
     1
  3
ADSK_XREC_LAYER_RECONCILED
360
13AF
  0
DICTIONARY
  5
AB7
330
1F
100
AcDbDictionary
280
     1
281
     1
  3
ACAD_SORTENTS
360
AB8
  0
DICTIONARY
  5
245D
102
{ACAD_REACTORS
330
C
102
}
330
C
100
AcDbDictionary
281
     1
  3
DIMARCSYM
350
245F
  3
DIMFXL
350
245E
  3
DIMJOGANG
350
2460
  0
DICTIONARY
  5
73
102
{ACAD_REACTORS
330
C
102
}
330
C
100
AcDbDictionary
281
     1
  0
DICTIONARY
  5
D
102
{ACAD_REACTORS
330
C
102
}
330
C
100
AcDbDictionary
281
     1
  0
DICTIONARY
  5
1A
102
{ACAD_REACTORS
330
C
102
}
330
C
100
AcDbDictionary
281
     1
  3
Model
350
22
  3
レイアウト1
350
59
  3
レイアウト2
350
5E
  0
DICTIONARY
  5
72
102
{ACAD_REACTORS
330
C
102
}
330
C
100
AcDbDictionary
281
     1
  3
ByBlock
350
97
  3
ByLayer
350
96
  3
Global
350
98
  0
DICTIONARY
  5
168
102
{ACAD_REACTORS
330
C
102
}
330
C
100
AcDbDictionary
281
     1
  3
Standard
350
169
  0
DICTIONARY
  5
17
102
{ACAD_REACTORS
330
C
102
}
330
C
100
AcDbDictionary
281
     1
  3
Standard
350
18
  0
DICTIONARY
  5
19
102
{ACAD_REACTORS
330
C
102
}
330
C
100
AcDbDictionary
281
     1
  0
ACDBDICTIONARYWDFLT
  5
E
102
{ACAD_REACTORS
330
C
102
}
330
C
100
AcDbDictionary
281
     1
  3
Normal
350
F
100
AcDbDictionaryWithDefault
340
F
  0
DICTIONARY
  5
156
102
{ACAD_REACTORS
330
C
102
}
330
C
100
AcDbDictionary
281
     1
  3
A0
350
157
  3
A1
350
158
  3
A2
350
159
  3
A3
350
15A
  3
A4
350
15B
  3
A5
350
15C
  3
A6
350
15D
  3
A7
350
15E
  3
A8
350
15F
  3
A9
350
160
  3
B0
350
161
  3
B1
350
162
  3
B2
350
163
  3
B3
350
164
  3
B4
350
165
  3
B5
350
166
  3
B6
350
167
  0
DICTIONARY
  5
86
102
{ACAD_REACTORS
330
C
102
}
330
C
100
AcDbDictionary
281
     1
  3
Standard
350
87
  0
DICTIONARY
  5
99
102
{ACAD_REACTORS
330
C
102
}
330
C
100
AcDbDictionary
281
     1
  3
2dWireframe
350
9F
  3
3D Hidden
350
A1
  3
3dWireframe
350
A0
  3
Basic
350
9E
  3
Brighten
350
A5
  3
ColorChange
350
A9
  3
Conceptual
350
A2
  3
Dim
350
A4
  3
EdgeColorOff
350
155
  3
Facepattern
350
A8
  3
Flat
350
9A
  3
FlatWithEdges
350
9B
  3
Gouraud
350
9C
  3
GouraudWithEdges
350
9D
  3
Hidden
350
14D
  3
JitterOff
350
153
  3
Linepattern
350
A7
  3
OverhangOff
350
154
  3
Realistic
350
A3
  3
Shaded
350
152
  3
Shaded with edges
350
151
  3
Shades of Gray
350
14E
  3
Sketchy
350
14F
  3
Thicken
350
A6
  3
Wireframe
350
14C
  3
X-Ray
350
150
  0
XRECORD
  5
245B
102
{ACAD_REACTORS
330
C
102
}
330
C
100
AcDbXrecord
280
     1
 90
        1
330
87
  0
DICTIONARY
  5
66
102
{ACAD_REACTORS
330
C
102
}
330
C
100
AcDbDictionary
281
     1
  3
CANNOSCALE
350
249
  3
CMLEADERSTYLE
350
247
  3
CTABLESTYLE
350
89
  3
DIMASSOC
350
67
  3
HIDETEXT
350
6B
  3
INDEXCTL
350
13B6
  3
LAYEREVAL
350
24B
  3
LAYERNOTIFY
350
24C
  3
LIGHTINGUNITS
350
24A
  3
MSLTSCALE
350
248
  3
SORTENTS
350
13B5
  3
XCLIPFRAME
350
22F0
  0
XRECORD
  5
245C
102
{ACAD_REACTORS
330
C
102
}
330
C
100
AcDbXrecord
280
     1
  1
DWGPROPS COOKIE
  2

  3

  4

  6

  7

  8
imamura
  9

300
仕入先=
301
材質=
302
質量=170g
303
=
304
=
305
=
306
=
307
=
308
=
309
=
 40
0.0637217824074074
 41
2455916.549312338
 42
2457618.669209028
  1

 90
        3
  0
DICTIONARY
  5
DE
102
{ACAD_REACTORS
330
DD
102
}
330
DD
100
AcDbDictionary
281
     1
  0
XRECORD
  5
13AF
102
{ACAD_REACTORS
330
13AE
102
}
330
13AE
100
AcDbXrecord
280
     1
290
     1
  0
SORTENTSTABLE
  5
AB8
102
{ACAD_REACTORS
330
AB7
102
}
330
AB7
100
AcDbSortentsTable
330
1F
331
235D
  5
1FE0
331
2359
  5
1FEE
331
1FAF
  5
23EA
331
1F35
  5
235A
331
2355
  5
2004
331
2394
  5
1F7E
331
1F31
  5
2356
331
2351
  5
20A7
331
2390
  5
1F9D
331
1F6C
  5
239F
331
1FE6
  5
241A
331
1F2D
  5
2352
331
1FA7
  5
23DB
331
1F68
  5
239B
331
1FA3
  5
23D6
331
1F29
  5
234E
331
1E46
  5
1F0B
331
ADD
  5
1E88
331
A96
  5
1E61
331
1EBC
  5
1FA4
331
1E42
  5
1F01
331
1290
  5
1EE8
331
12CF
  5
3EE
331
AD9
  5
1E84
331
A92
  5
1E5F
331
1E7D
  5
1F43
331
1EF7
  5
2010
331
1E3E
  5
1EFD
331
1EB8
  5
1FA0
331
12CB
  5
3EA
331
1E79
  5
1F3E
331
1288
  5
1EE2
331
1EF3
  5
200B
331
1E3A
  5
1EF9
331
1EB4
  5
1F7B
331
1EB0
  5
1F77
331
130C
  5
42B
331
1308
  5
427
331
1347
  5
466
331
244F
  5
178C
331
1304
  5
423
331
23D4
  5
1EC0
331
244B
  5
1794
331
1300
  5
41F
331
2447
  5
1796
331
23D0
  5
1EBC
331
240F
  5
1342
331
23CC
  5
1EB6
331
2443
  5
179C
331
23C8
  5
1EB2
331
234D
  5
2364
331
238C
  5
1F99
331
2349
  5
2360
331
2388
  5
1F95
331
1F64
  5
2397
331
2345
  5
2378
331
2384
  5
1F91
331
1FDE
  5
2414
331
1F25
  5
234A
331
1F9F
  5
23D2
331
1F60
  5
2393
331
2341
  5
2374
331
2380
  5
1F8D
331
1FDA
  5
2410
331
1F21
  5
2346
331
1F9B
  5
23CE
331
1F5C
  5
238F
331
1F97
  5
23CA
331
1F1D
  5
2342
331
1F58
  5
238B
331
1FD2
  5
240A
331
1F19
  5
233E
331
1F93
  5
23C6
331
AD5
  5
1E80
331
12C7
  5
3E6
331
AD1
  5
1E7C
331
1E75
  5
1F3A
331
1284
  5
1EDA
331
1EEF
  5
2007
331
1E36
  5
1EF5
331
12C3
  5
3E2
331
ACD
  5
1E78
331
A8E
  5
1E5C
331
1EEB
  5
2002
331
1E71
  5
1F36
331
1EAC
  5
1F73
331
12BF
  5
3DE
331
AC9
  5
1E74
331
A8A
  5
1E59
331
1EE7
  5
1FFE
331
1E6D
  5
1F32
331
1EA8
  5
1F6F
331
12BB
  5
3DA
331
1EE3
  5
1FFA
331
1E69
  5
1F2E
331
1EA4
  5
1F6B
331
2014
  5
1F02
331
133F
  5
45E
331
2010
  5
20B6
331
1EA0
  5
1F67
331
12FC
  5
41B
331
133B
  5
45A
331
200C
  5
2440
331
12F8
  5
417
331
1337
  5
456
331
2008
  5
243C
331
243F
  5
179F
331
12F4
  5
413
331
1333
  5
452
331
243B
  5
17A6
331
23C4
  5
1EAE
331
2403
  5
1790
331
12F0
  5
40F
331
23C0
  5
1EAA
331
2437
  5
17AC
331
23BC
  5
1EA6
331
2433
  5
1E3A
331
23B8
  5
1EA2
331
233D
  5
23D9
331
237C
  5
1FBF
331
2339
  5
23E3
331
2378
  5
1FBB
331
1F54
  5
2387
331
2374
  5
1FD8
331
1F8F
  5
23C2
331
1F15
  5
233A
331
1F50
  5
2383
331
2370
  5
1FD4
331
1F8B
  5
23BE
331
1F11
  5
2336
331
1F4C
  5
237F
331
1FC6
  5
2401
331
1F0D
  5
20B0
331
1F87
  5
23BA
331
1F48
  5
237B
331
1FC2
  5
23FD
331
1F09
  5
20AC
331
1F83
  5
23B6
331
AC5
  5
1E70
331
12B7
  5
3D6
331
AC1
  5
1E6C
331
1E65
  5
1F2A
331
12B3
  5
3D2
331
1EDF
  5
1FF6
331
1366
  5
485
331
1E61
  5
1F26
331
1EDB
  5
1FF2
331
1E9C
  5
1F63
331
1362
  5
481
331
12AF
  5
3CE
331
1E5D
  5
1F22
331
12AB
  5
3CA
331
1E98
  5
1F5F
331
135E
  5
47D
331
1E59
  5
1F1E
331
1ED3
  5
1FC5
331
2004
  5
2438
331
1E94
  5
1F5B
331
135A
  5
479
331
132F
  5
44E
331
20B7
  5
2459
331
1E90
  5
1F57
331
2000
  5
2434
331
12EC
  5
40B
331
132B
  5
44A
331
20B3
  5
2456
331
1FFC
  5
2430
331
1327
  5
446
331
1FF8
  5
242C
331
242F
  5
1E3E
331
23F7
  5
17A4
331
1323
  5
442
331
23B4
  5
1E9E
331
242B
  5
1E40
331
12D0
  5
3EF
331
23B0
  5
1E9A
331
2427
  5
1E46
331
23AC
  5
1E96
331
2423
  5
1E4A
331
23A8
  5
1E92
331
236C
  5
1FD0
331
2368
  5
1FEC
331
1F44
  5
2370
331
2364
  5
1FE7
331
1FBE
  5
23F9
331
1F05
  5
20A8
331
1F7F
  5
23B2
331
1F40
  5
236C
331
2360
  5
1FE3
331
1FBA
  5
23F5
331
1F01
  5
20A0
331
1F7B
  5
23AE
331
1F3C
  5
2368
331
1FB6
  5
23F1
331
1EFD
  5
201D
331
1F77
  5
23AA
331
1F38
  5
235D
331
1FB2
  5
23ED
331
1EF9
  5
2012
331
1F73
  5
23A6
331
AA9
  5
1E68
331
1E55
  5
1F1A
331
12A3
  5
3C2
331
1ECF
  5
1FB9
331
1356
  5
475
331
AA5
  5
1E66
331
1E51
  5
1F16
331
AE8
  5
1ED3
331
129F
  5
3BE
331
1ECB
  5
1FB5
331
1E8C
  5
1F53
331
1352
  5
471
331
129B
  5
1EEC
331
AA1
  5
1E65
331
1E4D
  5
1F12
331
AE4
  5
1ECF
331
1EC7
  5
1FB0
331
20AF
  5
2452
331
1E88
  5
1F4F
331
134E
  5
46D
331
1E49
  5
1F0E
331
AE0
  5
1E8B
331
1EC3
  5
1FAB
331
20AB
  5
244E
331
1E84
  5
1F4A
331
1FF4
  5
2428
331
134A
  5
469
331
131F
  5
43E
331
20A7
  5
244A
331
1E80
  5
1F46
331
1FF0
  5
2424
331
131B
  5
43A
331
20A3
  5
2446
331
1FEC
  5
2420
331
1317
  5
436
331
1FE8
  5
241C
331
241F
  5
1E4C
331
1313
  5
432
331
23A4
  5
1E8E
331
241B
  5
1E52
331
23A0
  5
1F8A
331
23DF
  5
1ECB
331
2417
  5
1E54
331
2456
  5
1355
331
239C
  5
1F86
331
23DB
  5
1EC7
331
2452
  5
136C
331
2398
  5
1F82
331
235C
  5
1FDF
331
2358
  5
1FF1
331
2397
  5
1F81
331
1FAE
  5
23E9
331
1F34
  5
2359
331
2354
  5
20A4
331
2393
  5
1F7D
331
1F6F
  5
23A2
331
2350
  5
20A6
331
1FAA
  5
23DE
331
1F30
  5
2355
331
1F6B
  5
239E
331
1F2C
  5
2351
331
1FE1
  5
2417
331
1F28
  5
234D
331
1FA2
  5
23D5
331
A9D
  5
1E64
331
1EBF
  5
1FA7
331
1E45
  5
1F09
331
ADC
  5
1E87
331
A95
  5
1E60
331
1EBB
  5
1FA3
331
1E41
  5
1F00
331
128F
  5
1EE7
331
12CE
  5
3ED
331
AD8
  5
1E83
331
1E7C
  5
1F42
331
1EF6
  5
200F
331
1E3D
  5
1EFC
331
209F
  5
2442
331
1EB7
  5
1F9F
331
12CA
  5
3E9
331
1E78
  5
1F3D
331
1EF2
  5
200A
331
1E39
  5
1EF8
331
1EB3
  5
1F7A
331
130F
  5
42E
331
130B
  5
42A
331
1307
  5
426
331
1346
  5
465
331
23D7
  5
1EC3
331
244E
  5
13AD
331
1303
  5
422
331
1342
  5
461
331
23D3
  5
1EBF
331
244A
  5
1793
331
2446
  5
1795
331
23CF
  5
1EBB
331
240E
  5
1341
331
2442
  5
179B
331
23CB
  5
1EB5
331
240A
  5
135F
331
238F
  5
1F9C
331
234C
  5
2363
331
238B
  5
1F98
331
1F67
  5
239A
331
2348
  5
235F
331
2387
  5
1F94
331
1F63
  5
2396
331
2344
  5
2377
331
2383
  5
1F90
331
1FDD
  5
2413
331
1F24
  5
2349
331
1F9E
  5
23D1
331
1F5F
  5
2392
331
2340
  5
2373
331
1FD9
  5
240F
331
1F20
  5
2345
331
1F9A
  5
23CD
331
1F5B
  5
238E
331
1F96
  5
23C9
331
1F1C
  5
2341
331
1F92
  5
23C5
331
1F18
  5
233D
331
AD4
  5
1E7F
331
1287
  5
1EE1
331
12C6
  5
3E5
331
AD0
  5
1E7B
331
1E74
  5
1F39
331
1283
  5
1ED9
331
1EEE
  5
2006
331
1E35
  5
1EF4
331
1EAF
  5
1F76
331
12C2
  5
3E1
331
ACC
  5
1E77
331
A8D
  5
1E5A
331
1EEA
  5
2001
331
1E70
  5
1F35
331
1EAB
  5
1F72
331
12BE
  5
3DD
331
AC8
  5
1E73
331
1EE6
  5
1FFD
331
1E6C
  5
1F31
331
1EA7
  5
1F6E
331
12BA
  5
3D9
331
1E68
  5
1F2D
331
1EE2
  5
1FF9
331
1EA3
  5
1F6A
331
2013
  5
1F0A
331
133E
  5
45D
331
1369
  5
488
331
12FF
  5
41E
331
200F
  5
20B3
331
12FB
  5
41A
331
133A
  5
459
331
200B
  5
243F
331
12F7
  5
416
331
1336
  5
455
331
23C7
  5
1EB1
331
243E
  5
17A2
331
12F3
  5
412
331
1332
  5
451
331
243A
  5
17AB
331
23C3
  5
1EAD
331
2402
  5
178E
331
2436
  5
1E37
331
23BF
  5
1EA9
331
23FE
  5
179E
331
23BB
  5
1EA5
331
2432
  5
1E39
331
2022
  5
2407
331
237F
  5
1FC2
331
233C
  5
23E6
331
237B
  5
1FBE
331
2338
  5
23E2
331
2377
  5
1FBA
331
1F57
  5
238A
331
1F53
  5
2386
331
2373
  5
1FD7
331
1F8E
  5
23C1
331
1F14
  5
2339
331
1F4F
  5
2382
331
1FC9
  5
2404
331
1F10
  5
20B7
331
1F8A
  5
23BD
331
1F4B
  5
237E
331
1FC5
  5
2400
331
1F0C
  5
20AF
331
1F86
  5
23B9
331
1FC1
  5
23FC
331
1F08
  5
20AB
331
1F82
  5
23B5
331
AC4
  5
1E6F
331
11A7
  5
1ED8
331
12B6
  5
3D5
331
AC0
  5
1E6B
331
1E64
  5
1F29
331
12B2
  5
3D1
331
1EDE
  5
1FF5
331
1E9F
  5
1F66
331
1365
  5
484
331
1E60
  5
1F25
331
1E9B
  5
1F62
331
1361
  5
480
331
12AE
  5
3CD
331
1E5C
  5
1F21
331
12AA
  5
3C9
331
1ED6
  5
1FC8
331
2007
  5
243B
331
1E97
  5
1F5E
331
135D
  5
47C
331
1E58
  5
1F1D
331
1ED2
  5
1FC4
331
2003
  5
2437
331
1E93
  5
1F5A
331
1359
  5
478
331
12EF
  5
40E
331
132E
  5
44D
331
20B6
  5
2458
331
1FFF
  5
2433
331
12EB
  5
40A
331
132A
  5
449
331
20B2
  5
2455
331
1FFB
  5
242F
331
1326
  5
445
331
242E
  5
1E3D
331
23B7
  5
1EA1
331
23F6
  5
17A3
331
1322
  5
441
331
242A
  5
1E43
331
23B3
  5
1E9D
331
23F2
  5
1E34
331
23AF
  5
1E99
331
2426
  5
1E45
331
23AB
  5
1E95
331
2422
  5
1E49
331
236F
  5
1FD3
331
236B
  5
1FCF
331
1F47
  5
237A
331
2367
  5
1FEB
331
1FBD
  5
23F8
331
1F43
  5
236F
331
2363
  5
1FE6
331
1F7E
  5
23B1
331
1F3F
  5
236B
331
1FB9
  5
23F4
331
1F00
  5
209F
331
1F7A
  5
23AD
331
1F3B
  5
2367
331
1FB5
  5
23F0
331
1EFC
  5
2015
331
1F76
  5
23A9
331
1FB1
  5
23EC
331
1EF8
  5
2011
331
1F72
  5
23A5
331
12A6
  5
3C5
331
AA8
  5
1E67
331
1E54
  5
1F19
331
AEB
  5
1ED7
331
12A2
  5
3C1
331
1ECE
  5
1FB8
331
1E8F
  5
1F56
331
1355
  5
474
331
129E
  5
1EEF
331
1E50
  5
1F15
331
AE7
  5
1ED2
331
1ECA
  5
1FB4
331
1E8B
  5
1F52
331
1351
  5
470
331
1E4C
  5
1F11
331
129A
  5
1EEB
331
1EC6
  5
1FAF
331
20AE
  5
2451
331
1E87
  5
1F4D
331
1FF7
  5
242B
331
134D
  5
46C
331
1E48
  5
1F0D
331
1EC2
  5
1FAA
331
20AA
  5
244D
331
1E83
  5
1F49
331
1FF3
  5
2427
331
1349
  5
468
331
131E
  5
43D
331
20A6
  5
2449
331
1FEF
  5
2423
331
131A
  5
439
331
20A2
  5
2445
331
1FEB
  5
241F
331
1316
  5
435
331
23A7
  5
1E91
331
241E
  5
1E4F
331
1312
  5
431
331
23A3
  5
1E8D
331
241A
  5
1E51
331
2459
  5
1347
331
239F
  5
1F89
331
23DE
  5
1ECA
331
2416
  5
1E57
331
2455
  5
1354
331
239B
  5
1F85
331
23DA
  5
1EC6
331
2451
  5
1361
331
235F
  5
1FE2
331
235B
  5
1FDC
331
1F37
  5
235C
331
2357
  5
1FF0
331
2396
  5
1F80
331
1FAD
  5
23E8
331
1F33
  5
2358
331
2353
  5
20A3
331
2392
  5
1F7C
331
1F6E
  5
23A1
331
1FA9
  5
23DD
331
1F2F
  5
2354
331
1F6A
  5
239D
331
1FE4
  5
2419
331
1F2B
  5
2350
331
1FA5
  5
23D8
331
1FE0
  5
2416
331
1FA1
  5
23D4
331
A9C
  5
1E63
331
1EBE
  5
1FA6
331
1E44
  5
1F05
331
1292
  5
1EEA
331
ADF
  5
1E8A
331
ADB
  5
1E86
331
1E7F
  5
1F45
331
128E
  5
1EE6
331
1EBA
  5
1FA2
331
1E40
  5
1EFF
331
12CD
  5
3EC
331
A90
  5
1E5E
331
1E7B
  5
1F40
331
128A
  5
1EE4
331
1EF5
  5
200E
331
1E3C
  5
1EFB
331
12C9
  5
3E8
331
1EF1
  5
2009
331
1E38
  5
1EF7
331
1EB2
  5
1F79
331
130E
  5
42D
331
130A
  5
429
331
1306
  5
425
331
1345
  5
464
331
1341
  5
460
331
23D6
  5
1EC2
331
244D
  5
136D
331
1302
  5
421
331
23D2
  5
1EBE
331
2449
  5
1792
331
23CE
  5
1EB8
331
2445
  5
1798
331
2441
  5
17A1
331
23CA
  5
1EB4
331
2409
  5
135C
331
234F
  5
20A5
331
238E
  5
1F9B
331
234B
  5
2362
331
238A
  5
1F97
331
1F66
  5
2399
331
2347
  5
235E
331
2386
  5
1F93
331
AB2
  5
1E69
331
1F27
  5
234C
331
1F62
  5
2395
331
2343
  5
2376
331
2382
  5
1F8F
331
1FDC
  5
2412
331
1F23
  5
2348
331
1F9D
  5
23D0
331
1F5E
  5
2391
331
1FD8
  5
240E
331
1F1F
  5
2344
331
1F99
  5
23CC
331
1F5A
  5
238D
331
1FD4
  5
240C
331
1F1B
  5
2340
331
1F95
  5
23C8
331
1FD0
  5
2409
331
1F91
  5
23C4
331
AD7
  5
1E82
331
AD3
  5
1E7E
331
1E77
  5
1F3C
331
1286
  5
1EE0
331
12C5
  5
3E4
331
ACF
  5
1E7A
331
1E73
  5
1F38
331
1EAE
  5
1F75
331
1E34
  5
1EF3
331
12C1
  5
3E0
331
ACB
  5
1E76
331
A8C
  5
1E5B
331
1EE9
  5
2000
331
1E6F
  5
1F34
331
1EAA
  5
1F71
331
12BD
  5
3DC
331
1EE5
  5
1FFC
331
1E6B
  5
1F30
331
2016
  5
2333
331
1EA6
  5
1F6D
331
12B9
  5
3D8
331
1EE1
  5
1FF8
331
1EA2
  5
1F69
331
2012
  5
1F04
331
133D
  5
45C
331
1368
  5
487
331
12FE
  5
41D
331
12FA
  5
419
331
1339
  5
458
331
200A
  5
243E
331
12F6
  5
415
331
1335
  5
454
331
23C6
  5
1EB0
331
243D
  5
17A8
331
12F2
  5
411
331
1331
  5
450
331
23C2
  5
1EAC
331
2439
  5
17AA
331
2435
  5
1E36
331
23BE
  5
1EA8
331
23FD
  5
179A
331
23BA
  5
1EA4
331
2431
  5
1E38
331
2021
  5
2405
331
233F
  5
2372
331
237E
  5
1FC1
331
233B
  5
23E5
331
237A
  5
1FBD
331
2337
  5
23E1
331
2376
  5
1FDB
331
1F56
  5
2389
331
1F17
  5
233C
331
2333
  5
23DF
331
2372
  5
1FD6
331
1F52
  5
2385
331
1FCC
  5
2406
331
1F13
  5
2338
331
1F8D
  5
23C0
331
1F4E
  5
2381
331
1FC8
  5
2403
331
1F0F
  5
20B5
331
1F89
  5
23BC
331
1F4A
  5
237D
331
1FC4
  5
23FF
331
1F0B
  5
20AE
331
1F85
  5
23B8
331
1FC0
  5
23FB
331
1F81
  5
23B4
331
AC7
  5
1E72
331
AC3
  5
1E6E
331
1E67
  5
1F2C
331
12B5
  5
3D4
331
ABF
  5
1E6A
331
1E63
  5
1F28
331
12B1
  5
3D0
331
1EDD
  5
1FF4
331
1E9E
  5
1F65
331
1364
  5
483
331
1E5F
  5
1F24
331
12AD
  5
3CC
331
1E9A
  5
1F61
331
1360
  5
47F
331
1E5B
  5
1F20
331
12A9
  5
3C8
331
1ED5
  5
1FC7
331
2006
  5
243A
331
1E96
  5
1F5D
331
135C
  5
47B
331
1ED1
  5
1FC3
331
2002
  5
2436
331
1E92
  5
1F59
331
132D
  5
44C
331
1358
  5
477
331
12EE
  5
40D
331
20B5
  5
2457
331
1FFE
  5
2432
331
12EA
  5
409
331
1329
  5
448
331
20B1
  5
2454
331
1FFA
  5
242E
331
1325
  5
444
331
23B6
  5
1EA0
331
242D
  5
1E3C
331
12D2
  5
3F1
331
1321
  5
440
331
2429
  5
1E42
331
23B2
  5
1E9C
331
23F1
  5
1E33
331
23AE
  5
1E98
331
2425
  5
1E44
331
23AA
  5
1E94
331
2421
  5
1E48
331
236E
  5
1FD2
331
236A
  5
1FCC
331
1F07
  5
20AA
331
2366
  5
1FE9
331
1FBC
  5
23F7
331
1F42
  5
236E
331
2362
  5
1FE5
331
1F7D
  5
23B0
331
1F3E
  5
236A
331
1FB8
  5
23F3
331
1EFF
  5
2022
331
1F79
  5
23AC
331
1F3A
  5
2366
331
1FB4
  5
23EF
331
1EFB
  5
2014
331
1F75
  5
23A8
331
1FB0
  5
23EB
331
1F71
  5
23A4
331
1E57
  5
1F1C
331
12A5
  5
3C4
331
1E53
  5
1F18
331
AEA
  5
1ED6
331
12A1
  5
3C0
331
1ECD
  5
1FB7
331
1E8E
  5
1F55
331
1354
  5
473
331
129D
  5
1EEE
331
1E4F
  5
1F14
331
AE6
  5
1ED1
331
1EC9
  5
1FB2
331
1E8A
  5
1F51
331
1350
  5
46F
331
1E4B
  5
1F10
331
AE2
  5
1ECE
331
1EC5
  5
1FAD
331
20AD
  5
2450
331
1E86
  5
1F4C
331
1FF6
  5
242A
331
134C
  5
46B
331
1EC1
  5
1FA9
331
20A9
  5
244C
331
1E82
  5
1F48
331
1FF2
  5
2426
331
1348
  5
467
331
131D
  5
43C
331
20A5
  5
2448
331
1FEE
  5
2422
331
1319
  5
438
331
20A1
  5
2444
331
1FEA
  5
241E
331
1315
  5
434
331
23A6
  5
1E90
331
241D
  5
1E4E
331
1311
  5
430
331
23A2
  5
1F8C
331
23E1
  5
1ECD
331
2419
  5
1E50
331
2458
  5
1346
331
239E
  5
1F88
331
23DD
  5
1EC9
331
2415
  5
1E56
331
2454
  5
134F
331
2450
  5
1360
331
239A
  5
1F84
331
23D9
  5
1EC5
331
235E
  5
1FE1
331
235A
  5
1FEF
331
1F36
  5
235B
331
2356
  5
2005
331
2395
  5
1F7F
331
1FAC
  5
23E7
331
1F32
  5
2357
331
2352
  5
20A2
331
2391
  5
1F9E
331
1F6D
  5
23A0
331
1FE7
  5
241B
331
1F2E
  5
2353
331
1FA8
  5
23DC
331
1F69
  5
239C
331
1FE3
  5
2418
331
1F2A
  5
234F
331
1FA4
  5
23D7
331
1FA0
  5
23D3
331
1E47
  5
1F0C
331
A9B
  5
1E62
331
1EBD
  5
1FA5
331
1E43
  5
1F03
331
1291
  5
1EE9
331
ADE
  5
1E89
331
ADA
  5
1E85
331
1E7E
  5
1F44
331
128D
  5
1EE5
331
1EB9
  5
1FA1
331
1E3F
  5
1EFE
331
12CC
  5
3EB
331
1E7A
  5
1F3F
331
1289
  5
1EE3
331
1EF4
  5
200C
331
1E3B
  5
1EFA
331
12C8
  5
3E7
331
1EF0
  5
2008
331
1EB1
  5
1F78
331
130D
  5
42C
331
201D
  5
2441
331
1309
  5
428
331
1305
  5
424
331
1344
  5
463
331
1340
  5
45F
331
23D5
  5
1EC1
331
244C
  5
178D
331
1301
  5
420
331
23D1
  5
1EBD
331
2448
  5
1797
331
23CD
  5
1EB7
331
2444
  5
179D
331
2440
  5
17A0
331
23C9
  5
1EB3
331
2408
  5
135A
331
234E
  5
2365
331
238D
  5
1F9A
331
234A
  5
2361
331
2389
  5
1F96
331
1F65
  5
2398
331
2346
  5
2379
331
2385
  5
1F92
331
1FDF
  5
2415
331
1F26
  5
234B
331
1F61
  5
2394
331
2342
  5
2375
331
2381
  5
1F8E
331
1FDB
  5
2411
331
1F22
  5
2347
331
1F9C
  5
23CF
331
1F5D
  5
2390
331
1FD7
  5
240D
331
1F1E
  5
2343
331
1F98
  5
23CB
331
1F59
  5
238C
331
1FD3
  5
240B
331
1F1A
  5
233F
331
1F94
  5
23C7
331
1F90
  5
23C3
331
AD6
  5
1E81
331
AD2
  5
1E7D
331
1E76
  5
1F3B
331
1285
  5
1EDF
331
1E37
  5
1EF6
331
12C4
  5
3E3
331
ACE
  5
1E79
331
A8F
  5
1E5D
331
1E72
  5
1F37
331
1EEC
  5
2003
331
1E33
  5
1EF2
331
1EAD
  5
1F74
331
12C0
  5
3DF
331
ACA
  5
1E75
331
A8B
  5
1E58
331
1EE8
  5
1FFF
331
1E6E
  5
1F33
331
1EA9
  5
1F70
331
12BC
  5
3DB
331
1EE4
  5
1FFB
331
1E6A
  5
1F2F
331
2015
  5
20B1
331
1EA5
  5
1F6C
331
12B8
  5
3D7
331
1EE0
  5
1FF7
331
1EA1
  5
1F68
331
2011
  5
1F06
331
12FD
  5
41C
331
133C
  5
45B
331
12F9
  5
418
331
1338
  5
457
331
2009
  5
243D
331
12F5
  5
414
331
1334
  5
453
331
1330
  5
44F
331
243C
  5
17A7
331
23C5
  5
1EAF
331
2404
  5
1791
331
12F1
  5
410
331
23C1
  5
1EAB
331
2438
  5
17A9
331
2434
  5
1E35
331
23BD
  5
1EA7
331
23FC
  5
1799
331
2430
  5
1E3B
331
23B9
  5
1EA3
331
23F8
  5
17A5
331
233E
  5
23DA
331
237D
  5
1FC0
331
233A
  5
23E4
331
2379
  5
1FBC
331
13AD
  5
1EF0
331
2336
  5
23E0
331
2375
  5
1FDA
331
1F55
  5
2388
331
1FCF
  5
2408
331
1F16
  5
233B
331
1F51
  5
2384
331
2371
  5
1FD5
331
1F8C
  5
23BF
331
1F12
  5
2337
331
1F4D
  5
2380
331
1FC7
  5
2402
331
1F0E
  5
20B2
331
1F88
  5
23BB
331
1F49
  5
237C
331
1FC3
  5
23FE
331
1F0A
  5
20AD
331
1F84
  5
23B7
331
1F80
  5
23B3
331
AC6
  5
1E71
331
AC2
  5
1E6D
331
1E66
  5
1F2B
331
12B4
  5
3D3
331
1367
  5
486
331
1E62
  5
1F27
331
12B0
  5
3CF
331
1EDC
  5
1FF3
331
1E9D
  5
1F64
331
1363
  5
482
331
1E5E
  5
1F23
331
12AC
  5
3CB
331
1E99
  5
1F60
331
135F
  5
47E
331
1E5A
  5
1F1F
331
12A8
  5
3C7
331
1ED4
  5
1FC6
331
2005
  5
2439
331
1E95
  5
1F5C
331
135B
  5
47A
331
2001
  5
2435
331
1E91
  5
1F58
331
132C
  5
44B
331
12ED
  5
40C
331
1FFD
  5
2431
331
12E9
  5
408
331
1328
  5
447
331
20B0
  5
2453
331
1FF9
  5
242D
331
1324
  5
443
331
23B5
  5
1E9F
331
242C
  5
1E3F
331
12D1
  5
3F0
331
1320
  5
43F
331
2428
  5
1E41
331
23B1
  5
1E9B
331
23F0
  5
17AD
331
23AD
  5
1E97
331
2424
  5
1E47
331
23A9
  5
1E93
331
2420
  5
1E4B
331
236D
  5
1FD1
331
2369
  5
1FC9
331
1F45
  5
2371
331
2365
  5
1FE8
331
1FBF
  5
23FA
331
1F06
  5
20A9
331
1F41
  5
236D
331
2361
  5
1FE4
331
1FBB
  5
23F6
331
1F02
  5
20A1
331
1F7C
  5
23AF
331
1F3D
  5
2369
331
1FB7
  5
23F2
331
1EFE
  5
2021
331
1F78
  5
23AB
331
1FB3
  5
23EE
331
1EFA
  5
2013
331
1F74
  5
23A7
331
1F70
  5
23A3
331
1E56
  5
1F1B
331
12A4
  5
3C3
331
1357
  5
476
331
1E52
  5
1F17
331
AE9
  5
1ED5
331
12A0
  5
3BF
331
1ECC
  5
1FB6
331
1E8D
  5
1F54
331
1353
  5
472
331
129C
  5
1EED
331
1E4E
  5
1F13
331
AE5
  5
1ED0
331
1EC8
  5
1FB1
331
1E89
  5
1F50
331
134F
  5
46E
331
1E4A
  5
1F0F
331
AE1
  5
1E8C
331
1EC4
  5
1FAC
331
20AC
  5
244F
331
1E85
  5
1F4B
331
1FF5
  5
2429
331
134B
  5
46A
331
1EC0
  5
1FA8
331
20A8
  5
244B
331
1E81
  5
1F47
331
1FF1
  5
2425
331
131C
  5
43B
331
20A4
  5
2447
331
1FED
  5
2421
331
1318
  5
437
331
20A0
  5
2443
331
1FE9
  5
241D
331
1314
  5
433
331
23A5
  5
1E8F
331
241C
  5
1E4D
331
1310
  5
42F
331
23A1
  5
1F8B
331
23E0
  5
1ECC
331
2418
  5
1E53
331
2457
  5
1343
331
239D
  5
1F87
331
23DC
  5
1EC8
331
2414
  5
1E55
331
2453
  5
1359
331
2399
  5
1F83
331
23D8
  5
1EC4
331
2410
  5
1343
  0
XRECORD
  5
245F
102
{ACAD_REACTORS
330
245D
102
}
330
245D
100
AcDbXrecord
280
     1
 70
     2
  0
XRECORD
  5
245E
102
{ACAD_REACTORS
330
245D
102
}
330
245D
100
AcDbXrecord
280
     1
 40
1.25
  0
XRECORD
  5
2460
102
{ACAD_REACTORS
330
245D
102
}
330
245D
100
AcDbXrecord
280
     1
 40
1.570796326794896
  0
LAYOUT
  5
22
102
{ACAD_XDICTIONARY
360
2461
102
}
102
{ACAD_REACTORS
330
1A
102
}
330
1A
100
AcDbPlotSettings
  1

  2
none_device
  4
ANSI_A_(8.50_x_11.00_Inches)
  6

 40
6.349999904632567
 41
19.04999923706055
 42
6.350006103515625
 43
19.04998779296875
 44
215.8999938964844
 45
279.3999938964844
 46
0.0
 47
0.0
 48
0.0
 49
0.0
140
0.0
141
0.0
142
1.0
143
2.584895464708373
 70
 11952
 72
     0
 73
     1
 74
     0
  7

 75
     0
147
0.3868628397755418
148
0.0
149
0.0
100
AcDbLayout
  1
Model
 70
     1
 71
     0
 10
0.0
 20
0.0
 11
12.0
 21
9.0
 12
0.0
 22
0.0
 32
0.0
 14
0.0
 24
0.0
 34
0.0
 15
0.0
 25
0.0
 35
0.0
146
0.0
 13
0.0
 23
0.0
 33
0.0
 16
1.0
 26
0.0
 36
0.0
 17
0.0
 27
1.0
 37
0.0
 76
     0
330
1F
331
94
  0
LAYOUT
  5
59
102
{ACAD_XDICTIONARY
360
2463
102
}
102
{ACAD_REACTORS
330
1A
102
}
330
1A
100
AcDbPlotSettings
  1

  2
None
  4

  6

 40
0.0
 41
0.0
 42
0.0
 43
0.0
 44
0.0
 45
0.0
 46
0.0
 47
0.0
 48
0.0
 49
0.0
140
0.0
141
0.0
142
1.0
143
1.0
 70
   688
 72
     0
 73
     0
 74
     5
  7

 75
    16
147
1.0
148
0.0
149
0.0
100
AcDbLayout
  1
レイアウト1
 70
     1
 71
     1
 10
0.0
 20
0.0
 11
12.0
 21
9.0
 12
0.0
 22
0.0
 32
0.0
 14
0.0
 24
0.0
 34
0.0
 15
0.0
 25
0.0
 35
0.0
146
0.0
 13
0.0
 23
0.0
 33
0.0
 16
1.0
 26
0.0
 36
0.0
 17
0.0
 27
1.0
 37
0.0
 76
     0
330
58
  0
LAYOUT
  5
5E
102
{ACAD_XDICTIONARY
360
2465
102
}
102
{ACAD_REACTORS
330
1A
102
}
330
1A
100
AcDbPlotSettings
  1

  2
None
  4

  6

 40
0.0
 41
0.0
 42
0.0
 43
0.0
 44
0.0
 45
0.0
 46
0.0
 47
0.0
 48
0.0
 49
0.0
140
0.0
141
0.0
142
1.0
143
1.0
 70
   688
 72
     0
 73
     0
 74
     5
  7

 75
    16
147
1.0
148
0.0
149
0.0
100
AcDbLayout
  1
レイアウト2
 70
     1
 71
     2
 10
0.0
 20
0.0
 11
12.0
 21
9.0
 12
0.0
 22
0.0
 32
0.0
 14
0.0
 24
0.0
 34
0.0
 15
0.0
 25
0.0
 35
0.0
146
0.0
 13
0.0
 23
0.0
 33
0.0
 16
1.0
 26
0.0
 36
0.0
 17
0.0
 27
1.0
 37
0.0
 76
     0
330
5D
  0
MATERIAL
  5
97
102
{ACAD_XDICTIONARY
360
15CF
102
}
102
{ACAD_REACTORS
330
72
102
}
330
72
100
AcDbMaterial
  1
ByBlock
 73
     1
 78
     1
172
     1
176
     1
270
     1
274
     1
  0
MATERIAL
  5
96
102
{ACAD_XDICTIONARY
360
15CD
102
}
102
{ACAD_REACTORS
330
72
102
}
330
72
100
AcDbMaterial
  1
ByLayer
 73
     1
 78
     1
172
     1
176
     1
270
     1
274
     1
  0
MATERIAL
  5
98
102
{ACAD_XDICTIONARY
360
15D1
102
}
102
{ACAD_REACTORS
330
72
102
}
330
72
100
AcDbMaterial
  1
Global
 73
     1
 78
     1
172
     1
176
     1
270
     1
274
     1
  0
MLEADERSTYLE
  5
169
102
{ACAD_REACTORS
330
168
102
}
330
168
100
AcDbMLeaderStyle
170
     2
171
     1
172
     0
 90
        2
 40
0.0
 41
0.0
173
     1
 91
-1056964608
340
14
 92
       -2
290
     1
 42
2.0
291
     1
 43
0.36
  3
Standard
 44
4.0
300

342
11
174
     1
178
     6
175
     1
176
     0
 93
-1056964608
 45
4.0
292
     0
297
     0
 46
4.0
 94
-1056964608
 47
1.0
 49
1.0
140
1.0
293
     1
141
0.0
294
     1
177
     0
142
1.0
295
     0
296
     0
143
0.125
1001
ACAD_MLEADERVER
1070
     2
  0
MLINESTYLE
  5
18
102
{ACAD_REACTORS
330
17
102
}
330
17
100
AcDbMlineStyle
  2
STANDARD
 70
     0
  3

 62
   256
 51
90.0
 52
90.0
 71
     2
 49
0.5
 62
   256
  6
BYLAYER
 49
-0.5
 62
   256
  6
BYLAYER
  0
ACDBPLACEHOLDER
  5
F
102
{ACAD_REACTORS
330
E
102
}
330
E
  0
SCALE
  5
157
102
{ACAD_REACTORS
330
156
102
}
330
156
100
AcDbScale
 70
     0
300
1:1
140
1.0
141
1.0
290
     1
  0
SCALE
  5
158
102
{ACAD_REACTORS
330
156
102
}
330
156
100
AcDbScale
 70
     0
300
1:2
140
1.0
141
2.0
290
     0
  0
SCALE
  5
159
102
{ACAD_REACTORS
330
156
102
}
330
156
100
AcDbScale
 70
     0
300
1:4
140
1.0
141
4.0
290
     0
  0
SCALE
  5
15A
102
{ACAD_REACTORS
330
156
102
}
330
156
100
AcDbScale
 70
     0
300
1:5
140
1.0
141
5.0
290
     0
  0
SCALE
  5
15B
102
{ACAD_REACTORS
330
156
102
}
330
156
100
AcDbScale
 70
     0
300
1:8
140
1.0
141
8.0
290
     0
  0
SCALE
  5
15C
102
{ACAD_REACTORS
330
156
102
}
330
156
100
AcDbScale
 70
     0
300
1:10
140
1.0
141
10.0
290
     0
  0
SCALE
  5
15D
102
{ACAD_REACTORS
330
156
102
}
330
156
100
AcDbScale
 70
     0
300
1:16
140
1.0
141
16.0
290
     0
  0
SCALE
  5
15E
102
{ACAD_REACTORS
330
156
102
}
330
156
100
AcDbScale
 70
     0
300
1:20
140
1.0
141
20.0
290
     0
  0
SCALE
  5
15F
102
{ACAD_REACTORS
330
156
102
}
330
156
100
AcDbScale
 70
     0
300
1:30
140
1.0
141
30.0
290
     0
  0
SCALE
  5
160
102
{ACAD_REACTORS
330
156
102
}
330
156
100
AcDbScale
 70
     0
300
1:40
140
1.0
141
40.0
290
     0
  0
SCALE
  5
161
102
{ACAD_REACTORS
330
156
102
}
330
156
100
AcDbScale
 70
     0
300
1:50
140
1.0
141
50.0
290
     0
  0
SCALE
  5
162
102
{ACAD_REACTORS
330
156
102
}
330
156
100
AcDbScale
 70
     0
300
1:100
140
1.0
141
100.0
290
     0
  0
SCALE
  5
163
102
{ACAD_REACTORS
330
156
102
}
330
156
100
AcDbScale
 70
     0
300
2:1
140
2.0
141
1.0
290
     0
  0
SCALE
  5
164
102
{ACAD_REACTORS
330
156
102
}
330
156
100
AcDbScale
 70
     0
300
4:1
140
4.0
141
1.0
290
     0
  0
SCALE
  5
165
102
{ACAD_REACTORS
330
156
102
}
330
156
100
AcDbScale
 70
     0
300
8:1
140
8.0
141
1.0
290
     0
  0
SCALE
  5
166
102
{ACAD_REACTORS
330
156
102
}
330
156
100
AcDbScale
 70
     0
300
10:1
140
10.0
141
1.0
290
     0
  0
SCALE
  5
167
102
{ACAD_REACTORS
330
156
102
}
330
156
100
AcDbScale
 70
     0
300
100:1
140
100.0
141
1.0
290
     0
  0
TABLESTYLE
  5
87
102
{ACAD_XDICTIONARY
360
15BE
102
}
102
{ACAD_REACTORS
330
86
102
}
330
86
100
AcDbTableStyle
  3
Standard
 70
     0
 71
     0
 40
0.06
 41
0.06
280
     0
281
     0
  7
Standard
140
0.18
170
     2
 62
     0
 63
     7
283
     0
274
    -2
284
     1
 64
     0
275
    -2
285
     1
 65
     0
276
    -2
286
     1
 66
     0
277
    -2
287
     1
 67
     0
278
    -2
288
     1
 68
     0
279
    -2
289
     1
 69
     0
  7
Standard
140
0.25
170
     5
 62
     0
 63
     7
283
     0
274
    -2
284
     1
 64
     0
275
    -2
285
     1
 65
     0
276
    -2
286
     1
 66
     0
277
    -2
287
     1
 67
     0
278
    -2
288
     1
 68
     0
279
    -2
289
     1
 69
     0
  7
Standard
140
0.18
170
     5
 62
     0
 63
     7
283
     0
274
    -2
284
     1
 64
     0
275
    -2
285
     1
 65
     0
276
    -2
286
     1
 66
     0
277
    -2
287
     1
 67
     0
278
    -2
288
     1
 68
     0
279
    -2
289
     1
 69
     0
  0
VISUALSTYLE
  5
9F
102
{ACAD_XDICTIONARY
360
2472
102
}
102
{ACAD_REACTORS
330
99
102
}
330
99
100
AcDbVisualStyle
  2

 70
     4
 71
     0
 72
     2
 73
     1
 90
        0
 40
-0.6
 41
-30.0
 62
     5
 63
     7
 74
     1
 91
        4
 64
     7
 65
   257
 75
     1
175
     1
 42
1.0
 92
        0
 66
   257
 43
1.0
 76
     1
 77
     6
 78
     2
 67
     7
 79
     5
170
     0
171
     0
290
     0
174
     0
 93
        1
 44
0.0
173
     0
291
     0
 45
0.0
1001
ACAD
1000
AcDbSavedByObjectVersion
1070
     0
  0
VISUALSTYLE
  5
A1
102
{ACAD_XDICTIONARY
360
2476
102
}
102
{ACAD_REACTORS
330
99
102
}
330
99
100
AcDbVisualStyle
  2

 70
     6
 71
     1
 72
     2
 73
     2
 90
        0
 40
-0.6
 41
-30.0
 62
     5
 63
     7
 74
     2
 91
        2
 64
     7
 65
   257
 75
     2
175
     1
 42
40.0
 92
        0
 66
   257
 43
1.0
 76
     1
 77
     6
 78
     2
 67
     7
 79
     3
170
     0
171
     0
290
     0
174
     0
 93
        1
 44
0.0
173
     0
291
     0
 45
0.0
1001
ACAD
1000
AcDbSavedByObjectVersion
1070
     0
  0
VISUALSTYLE
  5
A0
102
{ACAD_XDICTIONARY
360
2474
102
}
102
{ACAD_REACTORS
330
99
102
}
330
99
100
AcDbVisualStyle
  2

 70
     5
 71
     0
 72
     2
 73
     1
 90
        0
 40
-0.6
 41
-30.0
 62
     5
 63
     7
 74
     1
 91
        4
 64
     7
 65
   257
 75
     1
175
     1
 42
1.0
 92
        0
 66
   257
 43
1.0
 76
     1
 77
     6
 78
     2
 67
     7
 79
     5
170
     0
171
     0
290
     0
174
     0
 93
        1
 44
0.0
173
     0
291
     0
 45
0.0
1001
ACAD
1000
AcDbSavedByObjectVersion
1070
     0
  0
VISUALSTYLE
  5
9E
102
{ACAD_XDICTIONARY
360
2470
102
}
102
{ACAD_REACTORS
330
99
102
}
330
99
100
AcDbVisualStyle
  2

 70
     7
 71
     1
 72
     0
 73
     1
 90
        0
 40
-0.6
 41
-30.0
 62
     5
 63
     7
 74
     0
 91
        4
 64
     7
 65
   257
 75
     1
175
     1
 42
1.0
 92
        8
 66
     7
 43
1.0
 76
     1
 77
     6
 78
     2
 67
     7
 79
     5
170
     0
171
     0
290
     0
174
     0
 93
        1
 44
0.0
173
     0
291
     1
 45
0.0
1001
ACAD
1000
AcDbSavedByObjectVersion
1070
     0
  0
VISUALSTYLE
  5
A5
102
{ACAD_XDICTIONARY
360
247E
102
}
102
{ACAD_REACTORS
330
99
102
}
330
99
100
AcDbVisualStyle
  2

 70
    12
 71
     2
 72
     2
 73
     1
 90
        0
 40
-0.6
 41
-30.0
 62
     5
 63
     7
 74
     1
 91
        4
 64
     7
 65
   257
 75
     1
175
     1
 42
1.0
 92
        8
 66
     7
 43
1.0
 76
     1
 77
     6
 78
     2
 67
     7
 79
     5
170
     0
171
     0
290
     0
174
     0
 93
        1
 44
50.0
173
     0
291
     1
 45
0.0
1001
ACAD
1000
AcDbSavedByObjectVersion
1070
     0
  0
VISUALSTYLE
  5
A9
102
{ACAD_XDICTIONARY
360
2486
102
}
102
{ACAD_REACTORS
330
99
102
}
330
99
100
AcDbVisualStyle
  2

 70
    16
 71
     2
 72
     2
 73
     3
 90
        0
 40
-0.6
 41
-30.0
 62
     5
 63
     8
 74
     1
 91
        4
 64
     7
 65
   257
 75
     1
175
     1
 42
1.0
 92
        8
 66
     8
 43
1.0
 76
     1
 77
     6
 78
     2
 67
     7
 79
     5
170
     0
171
     0
290
     0
174
     0
 93
        1
 44
0.0
173
     0
291
     1
 45
0.0
1001
ACAD
1000
AcDbSavedByObjectVersion
1070
     0
  0
VISUALSTYLE
  5
A2
102
{ACAD_XDICTIONARY
360
2478
102
}
102
{ACAD_REACTORS
330
99
102
}
330
99
100
AcDbVisualStyle
  2

 70
     9
 71
     3
 72
     2
 73
     1
 90
        0
 40
-0.6
 41
-30.0
 62
     5
 63
     7
 74
     2
 91
        2
 64
     7
 65
   257
 75
     1
175
     1
 42
40.0
 92
        8
 66
     7
 43
1.0
 76
     1
 77
     6
 78
     2
 67
     7
 79
     3
170
     0
171
     0
290
     0
174
     0
 93
        1
 44
0.0
173
     0
291
     0
 45
0.0
1001
ACAD
1000
AcDbSavedByObjectVersion
1070
     0
  0
VISUALSTYLE
  5
A4
102
{ACAD_XDICTIONARY
360
247C
102
}
102
{ACAD_REACTORS
330
99
102
}
330
99
100
AcDbVisualStyle
  2

 70
    11
 71
     2
 72
     2
 73
     1
 90
        0
 40
-0.6
 41
-30.0
 62
     5
 63
     7
 74
     1
 91
        4
 64
     7
 65
   257
 75
     1
175
     1
 42
1.0
 92
        8
 66
     7
 43
1.0
 76
     1
 77
     6
 78
     2
 67
     7
 79
     5
170
     0
171
     0
290
     0
174
     0
 93
        1
 44
-50.0
173
     0
291
     1
 45
0.0
1001
ACAD
1000
AcDbSavedByObjectVersion
1070
     0
  0
VISUALSTYLE
  5
155
102
{ACAD_XDICTIONARY
360
249A
102
}
102
{ACAD_REACTORS
330
99
102
}
330
99
100
AcDbVisualStyle
  2

 70
    22
 71
     2
 72
     2
 73
     0
 90
        0
 40
-0.6
 41
-30.0
 62
     5
 63
     7
 74
     1
 91
        4
 64
     7
 65
   257
 75
     1
175
     1
 42
1.0
 92
        8
 66
     7
 43
1.0
 76
     1
 77
     6
 78
     2
 67
     7
 79
     5
170
     0
171
     0
290
     0
174
     0
 93
        1
 44
0.0
173
     0
291
     1
 45
0.0
1001
ACAD
1000
AcDbSavedByObjectVersion
1070
     0
  0
VISUALSTYLE
  5
A8
102
{ACAD_XDICTIONARY
360
2484
102
}
102
{ACAD_REACTORS
330
99
102
}
330
99
100
AcDbVisualStyle
  2

 70
    15
 71
     2
 72
     2
 73
     1
 90
        0
 40
-0.6
 41
-30.0
 62
     5
 63
     7
 74
     1
 91
        4
 64
     7
 65
   257
 75
     1
175
     1
 42
1.0
 92
        8
 66
     7
 43
1.0
 76
     1
 77
     6
 78
     2
 67
     7
 79
     5
170
     0
171
     0
290
     0
174
     0
 93
        1
 44
0.0
173
     0
291
     1
 45
0.0
1001
ACAD
1000
AcDbSavedByObjectVersion
1070
     0
  0
VISUALSTYLE
  5
9A
102
{ACAD_XDICTIONARY
360
2468
102
}
102
{ACAD_REACTORS
330
99
102
}
330
99
100
AcDbVisualStyle
  2

 70
     0
 71
     2
 72
     1
 73
     1
 90
        2
 40
-0.6
 41
30.0
 62
     5
 63
     7
 74
     0
 91
        4
 64
     7
 65
   257
 75
     1
175
     1
 42
1.0
 92
        8
 66
     7
 43
1.0
 76
     1
 77
     6
 78
     2
 67
     7
 79
     5
170
     0
171
     0
290
     0
174
     0
 93
        1
 44
0.0
173
     0
291
     1
 45
0.0
1001
ACAD
1000
AcDbSavedByObjectVersion
1070
     0
  0
VISUALSTYLE
  5
9B
102
{ACAD_XDICTIONARY
360
246A
102
}
102
{ACAD_REACTORS
330
99
102
}
330
99
100
AcDbVisualStyle
  2

 70
     1
 71
     2
 72
     1
 73
     1
 90
        2
 40
-0.6
 41
30.0
 62
     5
 63
     7
 74
     1
 91
        4
 64
     7
 65
   257
 75
     1
175
     1
 42
1.0
 92
        0
 66
   257
 43
1.0
 76
     1
 77
     6
 78
     2
 67
     7
 79
     5
170
     0
171
     0
290
     0
174
     0
 93
        1
 44
0.0
173
     0
291
     1
 45
0.0
1001
ACAD
1000
AcDbSavedByObjectVersion
1070
     0
  0
VISUALSTYLE
  5
9C
102
{ACAD_XDICTIONARY
360
246C
102
}
102
{ACAD_REACTORS
330
99
102
}
330
99
100
AcDbVisualStyle
  2

 70
     2
 71
     2
 72
     2
 73
     1
 90
        2
 40
-0.6
 41
30.0
 62
     5
 63
     7
 74
     0
 91
        4
 64
     7
 65
   257
 75
     1
175
     1
 42
1.0
 92
        0
 66
     7
 43
1.0
 76
     1
 77
     6
 78
     2
 67
     7
 79
     5
170
     0
171
     0
290
     0
174
     0
 93
        1
 44
0.0
173
     0
291
     1
 45
0.0
1001
ACAD
1000
AcDbSavedByObjectVersion
1070
     0
  0
VISUALSTYLE
  5
9D
102
{ACAD_XDICTIONARY
360
246E
102
}
102
{ACAD_REACTORS
330
99
102
}
330
99
100
AcDbVisualStyle
  2

 70
     3
 71
     2
 72
     2
 73
     1
 90
        2
 40
-0.6
 41
30.0
 62
     5
 63
     7
 74
     1
 91
        4
 64
     7
 65
   257
 75
     1
175
     1
 42
1.0
 92
        0
 66
   257
 43
1.0
 76
     1
 77
     6
 78
     2
 67
     7
 79
     5
170
     0
171
     0
290
     0
174
     0
 93
        1
 44
0.0
173
     0
291
     1
 45
0.0
1001
ACAD
1000
AcDbSavedByObjectVersion
1070
     0
  0
VISUALSTYLE
  5
14D
102
{ACAD_XDICTIONARY
360
248A
102
}
102
{ACAD_REACTORS
330
99
102
}
330
99
100
AcDbVisualStyle
  2

 70
     6
 71
     1
 72
     2
 73
     2
 90
        0
 40
-0.6
 41
-30.0
 62
     5
 63
     7
 74
     2
 91
        2
 64
     7
 65
   257
 75
     2
175
     1
 42
40.0
 92
        0
 66
   257
 43
1.0
 76
     1
 77
     6
 78
     2
 67
     7
 79
     3
170
     0
171
     0
290
     0
174
     0
 93
        1
 44
0.0
173
     0
291
     0
 45
0.0
1001
ACAD
1000
AcDbSavedByObjectVersion
1070
     0
  0
VISUALSTYLE
  5
153
102
{ACAD_XDICTIONARY
360
2496
102
}
102
{ACAD_REACTORS
330
99
102
}
330
99
100
AcDbVisualStyle
  2

 70
    20
 71
     2
 72
     2
 73
     0
 90
        0
 40
-0.6
 41
-30.0
 62
     5
 63
     7
 74
     1
 91
        4
 64
     7
 65
   257
 75
     1
175
     1
 42
1.0
 92
       10
 66
     7
 43
1.0
 76
     1
 77
     6
 78
     2
 67
     7
 79
     5
170
     0
171
     0
290
     0
174
     0
 93
        1
 44
0.0
173
     0
291
     1
 45
0.0
1001
ACAD
1000
AcDbSavedByObjectVersion
1070
     0
  0
VISUALSTYLE
  5
A7
102
{ACAD_XDICTIONARY
360
2482
102
}
102
{ACAD_REACTORS
330
99
102
}
330
99
100
AcDbVisualStyle
  2

 70
    14
 71
     2
 72
     2
 73
     1
 90
        0
 40
-0.6
 41
-30.0
 62
     5
 63
     7
 74
     1
 91
        4
 64
     7
 65
   257
 75
     7
175
     7
 42
1.0
 92
        8
 66
     7
 43
1.0
 76
     1
 77
     6
 78
     2
 67
     7
 79
     5
170
     0
171
     0
290
     0
174
     0
 93
        1
 44
0.0
173
     0
291
     1
 45
0.0
1001
ACAD
1000
AcDbSavedByObjectVersion
1070
     0
  0
VISUALSTYLE
  5
154
102
{ACAD_XDICTIONARY
360
2498
102
}
102
{ACAD_REACTORS
330
99
102
}
330
99
100
AcDbVisualStyle
  2

 70
    21
 71
     2
 72
     2
 73
     0
 90
        0
 40
-0.6
 41
-30.0
 62
     5
 63
     7
 74
     1
 91
        4
 64
     7
 65
   257
 75
     1
175
     1
 42
1.0
 92
        9
 66
     7
 43
1.0
 76
     1
 77
     6
 78
     2
 67
     7
 79
     5
170
     0
171
     0
290
     0
174
     0
 93
        1
 44
0.0
173
     0
291
     1
 45
0.0
1001
ACAD
1000
AcDbSavedByObjectVersion
1070
     0
  0
VISUALSTYLE
  5
A3
102
{ACAD_XDICTIONARY
360
247A
102
}
102
{ACAD_REACTORS
330
99
102
}
330
99
100
AcDbVisualStyle
  2

 70
     8
 71
     2
 72
     2
 73
     1
 90
        0
 40
-0.6
 41
-30.0
 62
     5
 63
     7
 74
     1
 91
        0
 64
     7
 65
   257
 75
     1
175
     1
 42
1.0
 92
        8
 66
     8
 43
1.0
 76
     1
 77
     6
 78
     2
 67
     7
 79
     5
170
     0
171
     0
290
     0
174
     0
 93
       13
 44
0.0
173
     0
291
     0
 45
0.0
1001
ACAD
1000
AcDbSavedByObjectVersion
1070
     0
  0
VISUALSTYLE
  5
152
102
{ACAD_XDICTIONARY
360
2494
102
}
102
{ACAD_REACTORS
330
99
102
}
330
99
100
AcDbVisualStyle
  2

 70
    27
 71
     2
 72
     2
 73
     1
 90
        2
 40
-0.6
 41
30.0
 62
     5
 63
     7
 74
     0
 91
        4
 64
     7
 65
   257
 75
     1
175
     1
 42
1.0
 92
        8
 66
   257
 43
1.0
 76
     1
 77
     6
 78
     2
 67
     8
 79
     3
170
     0
171
     0
290
     0
174
     0
 93
        5
 44
0.0
173
     0
291
     0
 45
0.0
1001
ACAD
1000
AcDbSavedByObjectVersion
1070
     0
  0
VISUALSTYLE
  5
151
102
{ACAD_XDICTIONARY
360
2492
102
}
102
{ACAD_REACTORS
330
99
102
}
330
99
100
AcDbVisualStyle
  2

 70
    26
 71
     2
 72
     2
 73
     1
 90
        2
 40
-0.6
 41
30.0
 62
     5
 63
     7
 74
     1
 91
       10
 64
     7
 65
   257
 75
     2
175
     1
 42
1.0
 92
        8
 66
   257
 43
1.0
 76
     1
 77
     6
 78
     2
 67
     7
 79
     3
170
     0
171
     0
290
     0
174
     0
 93
        5
 44
0.0
173
     0
291
     0
 45
0.0
1001
ACAD
1000
AcDbSavedByObjectVersion
1070
     0
  0
VISUALSTYLE
  5
14E
102
{ACAD_XDICTIONARY
360
248C
102
}
102
{ACAD_REACTORS
330
99
102
}
330
99
100
AcDbVisualStyle
  2

 70
    23
 71
     2
 72
     2
 73
     3
 90
        0
 40
-0.6
 41
-30.0
 62
     5
 63
     7
 74
     2
 91
        2
 64
     7
 65
     7
 75
     1
175
     1
 42
40.0
 92
        8
 66
     7
 43
1.0
 76
     1
 77
     6
 78
     2
 67
     7
 79
     3
170
     0
171
     0
290
     0
174
     0
 93
        1
 44
0.0
173
     0
291
     0
 45
0.0
1001
ACAD
1000
AcDbSavedByObjectVersion
1070
     0
  0
VISUALSTYLE
  5
14F
102
{ACAD_XDICTIONARY
360
248E
102
}
102
{ACAD_REACTORS
330
99
102
}
330
99
100
AcDbVisualStyle
  2

 70
    24
 71
     1
 72
     2
 73
     2
 90
        0
 40
-0.6
 41
-30.0
 62
     5
 63
     7
 74
     2
 91
        2
 64
     7
 65
     7
 75
     1
175
     1
 42
40.0
 92
       11
 66
     7
 43
1.0
 76
     1
 77
     6
 78
     2
 67
     7
 79
     6
170
     0
171
     0
290
     0
174
     0
 93
        1
 44
0.0
173
     0
291
     0
 45
0.0
1001
ACAD
1000
AcDbSavedByObjectVersion
1070
     0
  0
VISUALSTYLE
  5
A6
102
{ACAD_XDICTIONARY
360
2480
102
}
102
{ACAD_REACTORS
330
99
102
}
330
99
100
AcDbVisualStyle
  2

 70
    13
 71
     2
 72
     2
 73
     1
 90
        0
 40
-0.6
 41
-30.0
 62
     5
 63
     7
 74
     1
 91
        4
 64
     7
 65
   257
 75
     1
175
     1
 42
1.0
 92
       12
 66
     7
 43
1.0
 76
     1
 77
     6
 78
     2
 67
     7
 79
     5
170
     0
171
     0
290
     0
174
     0
 93
        1
 44
0.0
173
     0
291
     1
 45
0.0
1001
ACAD
1000
AcDbSavedByObjectVersion
1070
     0
  0
VISUALSTYLE
  5
14C
102
{ACAD_XDICTIONARY
360
2488
102
}
102
{ACAD_REACTORS
330
99
102
}
330
99
100
AcDbVisualStyle
  2

 70
     5
 71
     0
 72
     2
 73
     0
 90
        0
 40
-0.6
 41
-30.0
 62
     5
 63
     7
 74
     1
 91
        4
 64
     7
 65
   257
 75
     1
175
     1
 42
1.0
 92
        0
 66
   257
 43
1.0
 76
     1
 77
     6
 78
     2
 67
     7
 79
     3
170
     0
171
     0
290
     0
174
     0
 93
        1
 44
0.0
173
     0
291
     0
 45
0.0
1001
ACAD
1000
AcDbSavedByObjectVersion
1070
     0
  0
VISUALSTYLE
  5
150
102
{ACAD_XDICTIONARY
360
2490
102
}
102
{ACAD_REACTORS
330
99
102
}
330
99
100
AcDbVisualStyle
  2

 70
    25
 71
     2
 72
     2
 73
     1
 90
        1
 40
0.5
 41
-30.0
 62
     5
 63
     7
 74
     1
 91
        0
 64
     7
 65
   257
 75
     1
175
     1
 42
1.0
 92
        8
 66
     7
 43
1.0
 76
     1
 77
     6
 78
     2
 67
     7
 79
     3
170
     0
171
     0
290
     0
174
     0
 93
       13
 44
0.0
173
     0
291
     0
 45
0.0
1001
ACAD
1000
AcDbSavedByObjectVersion
1070
     0
  0
DICTIONARYVAR
  5
249
102
{ACAD_REACTORS
330
66
102
}
330
66
100
DictionaryVariables
280
     0
  1
1:1
  0
DICTIONARYVAR
  5
247
102
{ACAD_REACTORS
330
66
102
}
330
66
100
DictionaryVariables
280
     0
  1
STANDARD
  0
DICTIONARYVAR
  5
89
102
{ACAD_REACTORS
330
66
102
}
330
66
100
DictionaryVariables
280
     0
  1
STANDARD
  0
DICTIONARYVAR
  5
67
102
{ACAD_REACTORS
330
66
102
}
330
66
100
DictionaryVariables
280
     0
  1
2
  0
DICTIONARYVAR
  5
6B
102
{ACAD_REACTORS
330
66
102
}
330
66
100
DictionaryVariables
280
     0
  1
1
  0
DICTIONARYVAR
  5
13B6
102
{ACAD_REACTORS
330
66
102
}
330
66
100
DictionaryVariables
280
     0
  1
0
  0
DICTIONARYVAR
  5
24B
102
{ACAD_REACTORS
330
66
102
}
330
66
100
DictionaryVariables
280
     0
  1
1
  0
DICTIONARYVAR
  5
24C
102
{ACAD_REACTORS
330
66
102
}
330
66
100
DictionaryVariables
280
     0
  1
15
  0
DICTIONARYVAR
  5
24A
102
{ACAD_REACTORS
330
66
102
}
330
66
100
DictionaryVariables
280
     0
  1
0
  0
DICTIONARYVAR
  5
248
102
{ACAD_REACTORS
330
66
102
}
330
66
100
DictionaryVariables
280
     0
  1
0
  0
DICTIONARYVAR
  5
13B5
102
{ACAD_REACTORS
330
66
102
}
330
66
100
DictionaryVariables
280
     0
  1
127
  0
DICTIONARYVAR
  5
22F0
102
{ACAD_REACTORS
330
66
102
}
330
66
100
DictionaryVariables
280
     0
  1
2
  0
DICTIONARY
  5
2461
330
22
100
AcDbDictionary
280
     1
281
     1
  3
ACAD_XREC_ROUNDTRIP
360
2462
  0
DICTIONARY
  5
2463
330
59
100
AcDbDictionary
280
     1
281
     1
  3
ACAD_XREC_ROUNDTRIP
360
2464
  0
DICTIONARY
  5
2465
330
5E
100
AcDbDictionary
280
     1
281
     1
  3
ACAD_XREC_ROUNDTRIP
360
2466
  0
DICTIONARY
  5
15CF
330
97
100
AcDbDictionary
280
     1
281
     1
  3
ACAD_XREC_ROUNDTRIP
360
15D0
  0
DICTIONARY
  5
15CD
330
96
100
AcDbDictionary
280
     1
281
     1
  3
ACAD_XREC_ROUNDTRIP
360
15CE
  0
DICTIONARY
  5
15D1
330
98
100
AcDbDictionary
280
     1
281
     1
  3
ACAD_XREC_ROUNDTRIP
360
15D2
  0
DICTIONARY
  5
15BE
330
87
100
AcDbDictionary
280
     1
281
     1
  3
ACAD_ROUNDTRIP_2008_TABLESTYLE_CELLSTYLEMAP
360
245A
  3
ACAD_XREC_ROUNDTRIP
360
2467
  0
DICTIONARY
  5
2472
330
9F
100
AcDbDictionary
280
     1
281
     1
  3
ACAD_XREC_ROUNDTRIP
360
2473
  0
DICTIONARY
  5
2476
330
A1
100
AcDbDictionary
280
     1
281
     1
  3
ACAD_XREC_ROUNDTRIP
360
2477
  0
DICTIONARY
  5
2474
330
A0
100
AcDbDictionary
280
     1
281
     1
  3
ACAD_XREC_ROUNDTRIP
360
2475
  0
DICTIONARY
  5
2470
330
9E
100
AcDbDictionary
280
     1
281
     1
  3
ACAD_XREC_ROUNDTRIP
360
2471
  0
DICTIONARY
  5
247E
330
A5
100
AcDbDictionary
280
     1
281
     1
  3
ACAD_XREC_ROUNDTRIP
360
247F
  0
DICTIONARY
  5
2486
330
A9
100
AcDbDictionary
280
     1
281
     1
  3
ACAD_XREC_ROUNDTRIP
360
2487
  0
DICTIONARY
  5
2478
330
A2
100
AcDbDictionary
280
     1
281
     1
  3
ACAD_XREC_ROUNDTRIP
360
2479
  0
DICTIONARY
  5
247C
330
A4
100
AcDbDictionary
280
     1
281
     1
  3
ACAD_XREC_ROUNDTRIP
360
247D
  0
DICTIONARY
  5
249A
330
155
100
AcDbDictionary
280
     1
281
     1
  3
ACAD_XREC_ROUNDTRIP
360
249B
  0
DICTIONARY
  5
2484
330
A8
100
AcDbDictionary
280
     1
281
     1
  3
ACAD_XREC_ROUNDTRIP
360
2485
  0
DICTIONARY
  5
2468
330
9A
100
AcDbDictionary
280
     1
281
     1
  3
ACAD_XREC_ROUNDTRIP
360
2469
  0
DICTIONARY
  5
246A
330
9B
100
AcDbDictionary
280
     1
281
     1
  3
ACAD_XREC_ROUNDTRIP
360
246B
  0
DICTIONARY
  5
246C
330
9C
100
AcDbDictionary
280
     1
281
     1
  3
ACAD_XREC_ROUNDTRIP
360
246D
  0
DICTIONARY
  5
246E
330
9D
100
AcDbDictionary
280
     1
281
     1
  3
ACAD_XREC_ROUNDTRIP
360
246F
  0
DICTIONARY
  5
248A
330
14D
100
AcDbDictionary
280
     1
281
     1
  3
ACAD_XREC_ROUNDTRIP
360
248B
  0
DICTIONARY
  5
2496
330
153
100
AcDbDictionary
280
     1
281
     1
  3
ACAD_XREC_ROUNDTRIP
360
2497
  0
DICTIONARY
  5
2482
330
A7
100
AcDbDictionary
280
     1
281
     1
  3
ACAD_XREC_ROUNDTRIP
360
2483
  0
DICTIONARY
  5
2498
330
154
100
AcDbDictionary
280
     1
281
     1
  3
ACAD_XREC_ROUNDTRIP
360
2499
  0
DICTIONARY
  5
247A
330
A3
100
AcDbDictionary
280
     1
281
     1
  3
ACAD_XREC_ROUNDTRIP
360
247B
  0
DICTIONARY
  5
2494
330
152
100
AcDbDictionary
280
     1
281
     1
  3
ACAD_XREC_ROUNDTRIP
360
2495
  0
DICTIONARY
  5
2492
330
151
100
AcDbDictionary
280
     1
281
     1
  3
ACAD_XREC_ROUNDTRIP
360
2493
  0
DICTIONARY
  5
248C
330
14E
100
AcDbDictionary
280
     1
281
     1
  3
ACAD_XREC_ROUNDTRIP
360
248D
  0
DICTIONARY
  5
248E
330
14F
100
AcDbDictionary
280
     1
281
     1
  3
ACAD_XREC_ROUNDTRIP
360
248F
  0
DICTIONARY
  5
2480
330
A6
100
AcDbDictionary
280
     1
281
     1
  3
ACAD_XREC_ROUNDTRIP
360
2481
  0
DICTIONARY
  5
2488
330
14C
100
AcDbDictionary
280
     1
281
     1
  3
ACAD_XREC_ROUNDTRIP
360
2489
  0
DICTIONARY
  5
2490
330
150
100
AcDbDictionary
280
     1
281
     1
  3
ACAD_XREC_ROUNDTRIP
360
2491
  0
XRECORD
  5
2462
102
{ACAD_REACTORS
330
2461
102
}
330
2461
100
AcDbXrecord
280
     1
102
SHADEPLOT
 70
     0
102
SHADEPLOTRESLEVEL
 70
     2
102
SHADEPLOTCUSTOMDPI
 70
   300
  0
XRECORD
  5
2464
102
{ACAD_REACTORS
330
2463
102
}
330
2463
100
AcDbXrecord
280
     1
102
SHADEPLOT
 70
     0
102
SHADEPLOTRESLEVEL
 70
     2
102
SHADEPLOTCUSTOMDPI
 70
   300
  0
XRECORD
  5
2466
102
{ACAD_REACTORS
330
2465
102
}
330
2465
100
AcDbXrecord
280
     1
102
SHADEPLOT
 70
     0
102
SHADEPLOTRESLEVEL
 70
     2
102
SHADEPLOTCUSTOMDPI
 70
   300
  0
XRECORD
  5
15D0
102
{ACAD_REACTORS
330
15CF
102
}
330
15CF
100
AcDbXrecord
280
     1
102
MATERIAL
148
0.0
149
0.0
149
0.0
 93
        0
 94
      127
282
     0
 72
     1
 77
     1
171
     1
175
     1
179
     1
273
     0
  0
XRECORD
  5
15CE
102
{ACAD_REACTORS
330
15CD
102
}
330
15CD
100
AcDbXrecord
280
     1
102
MATERIAL
148
0.0
149
0.0
149
0.0
 93
        0
 94
      127
282
     0
 72
     1
 77
     1
171
     1
175
     1
179
     1
273
     0
  0
XRECORD
  5
15D2
102
{ACAD_REACTORS
330
15D1
102
}
330
15D1
100
AcDbXrecord
280
     1
102
MATERIAL
148
0.0
149
0.0
149
0.0
 93
        0
 94
      127
282
     0
 72
     1
 77
     1
171
     1
175
     1
179
     1
273
     0
  0
CELLSTYLEMAP
  5
245A
102
{ACAD_REACTORS
330
15BE
102
}
330
15BE
100
AcDbCellStyleMap
 90
        3
300
CELLSTYLE
  1
TABLEFORMAT_BEGIN
 90
        5
170
     1
 91
        0
 92
    32768
 62
   257
 93
        1
300
CONTENTFORMAT
  1
CONTENTFORMAT_BEGIN
 90
        0
 91
        0
 92
      512
 93
        0
300

 40
0.0
140
1.0
 94
        5
 62
     0
340
11
144
0.25
309
CONTENTFORMAT_END
171
     1
301
MARGIN
  1
CELLMARGIN_BEGIN
 40
0.06
 40
0.06
 40
0.06
 40
0.06
 40
0.18
 40
0.18
309
CELLMARGIN_END
 94
        6
 95
        1
302
GRIDFORMAT
  1
GRIDFORMAT_BEGIN
 90
        0
 91
        1
 62
     0
 92
       -2
340
0
 93
        0
 40
0.045
309
GRIDFORMAT_END
 95
        2
302
GRIDFORMAT
  1
GRIDFORMAT_BEGIN
 90
        0
 91
        1
 62
     0
 92
       -2
340
0
 93
        0
 40
0.045
309
GRIDFORMAT_END
 95
        4
302
GRIDFORMAT
  1
GRIDFORMAT_BEGIN
 90
        0
 91
        1
 62
     0
 92
       -2
340
0
 93
        0
 40
0.045
309
GRIDFORMAT_END
 95
        8
302
GRIDFORMAT
  1
GRIDFORMAT_BEGIN
 90
        0
 91
        1
 62
     0
 92
       -2
340
0
 93
        0
 40
0.045
309
GRIDFORMAT_END
 95
       16
302
GRIDFORMAT
  1
GRIDFORMAT_BEGIN
 90
        0
 91
        1
 62
     0
 92
       -2
340
0
 93
        0
 40
0.045
309
GRIDFORMAT_END
 95
       32
302
GRIDFORMAT
  1
GRIDFORMAT_BEGIN
 90
        0
 91
        1
 62
     0
 92
       -2
340
0
 93
        0
 40
0.045
309
GRIDFORMAT_END
309
TABLEFORMAT_END
  1
CELLSTYLE_BEGIN
 90
        1
 91
        1
300
_TITLE
309
CELLSTYLE_END
300
CELLSTYLE
  1
TABLEFORMAT_BEGIN
 90
        5
170
     1
 91
        0
 92
        0
 62
   257
 93
        1
300
CONTENTFORMAT
  1
CONTENTFORMAT_BEGIN
 90
        0
 91
        0
 92
      512
 93
        0
300

 40
0.0
140
1.0
 94
        5
 62
     0
340
11
144
0.18
309
CONTENTFORMAT_END
171
     1
301
MARGIN
  1
CELLMARGIN_BEGIN
 40
0.06
 40
0.06
 40
0.06
 40
0.06
 40
0.18
 40
0.18
309
CELLMARGIN_END
 94
        6
 95
        1
302
GRIDFORMAT
  1
GRIDFORMAT_BEGIN
 90
        0
 91
        1
 62
     0
 92
       -2
340
0
 93
        0
 40
0.045
309
GRIDFORMAT_END
 95
        2
302
GRIDFORMAT
  1
GRIDFORMAT_BEGIN
 90
        0
 91
        1
 62
     0
 92
       -2
340
0
 93
        0
 40
0.045
309
GRIDFORMAT_END
 95
        4
302
GRIDFORMAT
  1
GRIDFORMAT_BEGIN
 90
        0
 91
        1
 62
     0
 92
       -2
340
0
 93
        0
 40
0.045
309
GRIDFORMAT_END
 95
        8
302
GRIDFORMAT
  1
GRIDFORMAT_BEGIN
 90
        0
 91
        1
 62
     0
 92
       -2
340
0
 93
        0
 40
0.045
309
GRIDFORMAT_END
 95
       16
302
GRIDFORMAT
  1
GRIDFORMAT_BEGIN
 90
        0
 91
        1
 62
     0
 92
       -2
340
0
 93
        0
 40
0.045
309
GRIDFORMAT_END
 95
       32
302
GRIDFORMAT
  1
GRIDFORMAT_BEGIN
 90
        0
 91
        1
 62
     0
 92
       -2
340
0
 93
        0
 40
0.045
309
GRIDFORMAT_END
309
TABLEFORMAT_END
  1
CELLSTYLE_BEGIN
 90
        2
 91
        1
300
_HEADER
309
CELLSTYLE_END
300
CELLSTYLE
  1
TABLEFORMAT_BEGIN
 90
        5
170
     1
 91
        0
 92
        0
 62
   257
 93
        1
300
CONTENTFORMAT
  1
CONTENTFORMAT_BEGIN
 90
        0
 91
        0
 92
      512
 93
        0
300

 40
0.0
140
1.0
 94
        2
 62
     0
340
11
144
0.18
309
CONTENTFORMAT_END
171
     1
301
MARGIN
  1
CELLMARGIN_BEGIN
 40
0.06
 40
0.06
 40
0.06
 40
0.06
 40
0.18
 40
0.18
309
CELLMARGIN_END
 94
        6
 95
        1
302
GRIDFORMAT
  1
GRIDFORMAT_BEGIN
 90
        0
 91
        1
 62
     0
 92
       -2
340
0
 93
        0
 40
0.045
309
GRIDFORMAT_END
 95
        2
302
GRIDFORMAT
  1
GRIDFORMAT_BEGIN
 90
        0
 91
        1
 62
     0
 92
       -2
340
0
 93
        0
 40
0.045
309
GRIDFORMAT_END
 95
        4
302
GRIDFORMAT
  1
GRIDFORMAT_BEGIN
 90
        0
 91
        1
 62
     0
 92
       -2
340
0
 93
        0
 40
0.045
309
GRIDFORMAT_END
 95
        8
302
GRIDFORMAT
  1
GRIDFORMAT_BEGIN
 90
        0
 91
        1
 62
     0
 92
       -2
340
0
 93
        0
 40
0.045
309
GRIDFORMAT_END
 95
       16
302
GRIDFORMAT
  1
GRIDFORMAT_BEGIN
 90
        0
 91
        1
 62
     0
 92
       -2
340
0
 93
        0
 40
0.045
309
GRIDFORMAT_END
 95
       32
302
GRIDFORMAT
  1
GRIDFORMAT_BEGIN
 90
        0
 91
        1
 62
     0
 92
       -2
340
0
 93
        0
 40
0.045
309
GRIDFORMAT_END
309
TABLEFORMAT_END
  1
CELLSTYLE_BEGIN
 90
        3
 91
        2
300
_DATA
309
CELLSTYLE_END
  0
XRECORD
  5
2467
102
{ACAD_REACTORS
330
15BE
102
}
330
15BE
100
AcDbXrecord
280
     1
102
ACAD_ROUNDTRIP_PRE2007_TABLESTYLE
 90
      512
 91
        0
  1

 92
      512
 93
        0
  2

 94
      512
 95
        0
  3

  0
XRECORD
  5
2473
102
{ACAD_REACTORS
330
2472
102
}
330
2472
100
AcDbXrecord
280
     1
102
RTVSPropertyOp0
 70
     1
102
RTVSPropertyOp1
 70
     1
102
RTVSPropertyOp2
 70
     1
102
RTVSPropertyOp3
 70
     1
102
RTVSPropertyOp4
 70
     1
102
RTVSPropertyOp5
 70
     1
102
RTVSPropertyOp6
 70
     1
102
RTVSPropertyOp7
 70
     1
102
RTVSPropertyOp8
 70
     1
102
RTVSPropertyOp9
 70
     1
102
RTVSPropertyOp10
 70
     1
102
RTVSPropertyOp11
 70
     1
102
RTVSPropertyOp12
 70
     1
102
RTVSPropertyOp13
 70
     1
102
RTVSPropertyOp14
 70
     1
102
RTVSPropertyOp15
 70
     1
102
RTVSPropertyOp16
 70
     1
102
RTVSPropertyOp17
 70
     1
102
RTVSPropertyOp18
 70
     1
102
RTVSPropertyOp19
 70
     1
102
RTVSPropertyOp20
 70
     1
102
RTVSPropertyOp21
 70
     1
102
RTVSPropertyOp22
 70
     1
102
RTVSPropertyOp23
 70
     1
102
RTVSPropertyOp24
 70
     1
102
RTVSPropertyOp25
 70
     1
102
RTVSPropertyOp26
 70
     1
102
RTVSPropertyOp27
 70
     1
102
RTVSPropertyOp28
 70
     1
102
RTVSPropertyOp29
 70
     1
102
RTVSPropertyOp30
 70
     1
102
RTVSPropertyOp31
 70
     1
102
RTVSPropertyOp32
 70
     1
  0
XRECORD
  5
2477
102
{ACAD_REACTORS
330
2476
102
}
330
2476
100
AcDbXrecord
280
     1
102
RTVSPropertyOp0
 70
     1
102
RTVSPropertyOp1
 70
     1
102
RTVSPropertyOp2
 70
     1
102
RTVSPropertyOp3
 70
     1
102
RTVSPropertyOp4
 70
     1
102
RTVSPropertyOp5
 70
     1
102
RTVSPropertyOp6
 70
     1
102
RTVSPropertyOp7
 70
     1
102
RTVSPropertyOp8
 70
     1
102
RTVSPropertyOp9
 70
     1
102
RTVSPropertyOp10
 70
     1
102
RTVSPropertyOp11
 70
     1
102
RTVSPropertyOp12
 70
     1
102
RTVSPropertyOp13
 70
     1
102
RTVSPropertyOp14
 70
     1
102
RTVSPropertyOp15
 70
     1
102
RTVSPropertyOp16
 70
     1
102
RTVSPropertyOp17
 70
     1
102
RTVSPropertyOp18
 70
     1
102
RTVSPropertyOp19
 70
     1
102
RTVSPropertyOp20
 70
     1
102
RTVSPropertyOp21
 70
     1
102
RTVSPropertyOp22
 70
     1
102
RTVSPropertyOp23
 70
     1
102
RTVSPropertyOp24
 70
     1
102
RTVSPropertyOp25
 70
     1
102
RTVSPropertyOp26
 70
     1
102
RTVSPropertyOp27
 70
     1
102
RTVSPropertyOp28
 70
     1
102
RTVSPropertyOp29
 70
     1
102
RTVSPropertyOp30
 70
     1
102
RTVSPropertyOp31
 70
     1
102
RTVSPropertyOp32
 70
     1
  0
XRECORD
  5
2475
102
{ACAD_REACTORS
330
2474
102
}
330
2474
100
AcDbXrecord
280
     1
102
RTVSPropertyOp0
 70
     1
102
RTVSPropertyOp1
 70
     1
102
RTVSPropertyOp2
 70
     1
102
RTVSPropertyOp3
 70
     1
102
RTVSPropertyOp4
 70
     1
102
RTVSPropertyOp5
 70
     1
102
RTVSPropertyOp6
 70
     1
102
RTVSPropertyOp7
 70
     1
102
RTVSPropertyOp8
 70
     1
102
RTVSPropertyOp9
 70
     1
102
RTVSPropertyOp10
 70
     1
102
RTVSPropertyOp11
 70
     1
102
RTVSPropertyOp12
 70
     1
102
RTVSPropertyOp13
 70
     1
102
RTVSPropertyOp14
 70
     1
102
RTVSPropertyOp15
 70
     1
102
RTVSPropertyOp16
 70
     1
102
RTVSPropertyOp17
 70
     1
102
RTVSPropertyOp18
 70
     1
102
RTVSPropertyOp19
 70
     1
102
RTVSPropertyOp20
 70
     1
102
RTVSPropertyOp21
 70
     1
102
RTVSPropertyOp22
 70
     1
102
RTVSPropertyOp23
 70
     1
102
RTVSPropertyOp24
 70
     1
102
RTVSPropertyOp25
 70
     1
102
RTVSPropertyOp26
 70
     1
102
RTVSPropertyOp27
 70
     1
102
RTVSPropertyOp28
 70
     1
102
RTVSPropertyOp29
 70
     1
102
RTVSPropertyOp30
 70
     1
102
RTVSPropertyOp31
 70
     1
102
RTVSPropertyOp32
 70
     1
  0
XRECORD
  5
2471
102
{ACAD_REACTORS
330
2470
102
}
330
2470
100
AcDbXrecord
280
     1
102
RTVSPropertyOp0
 70
     1
102
RTVSPropertyOp1
 70
     1
102
RTVSPropertyOp2
 70
     1
102
RTVSPropertyOp3
 70
     1
102
RTVSPropertyOp4
 70
     1
102
RTVSPropertyOp5
 70
     1
102
RTVSPropertyOp6
 70
     1
102
RTVSPropertyOp7
 70
     1
102
RTVSPropertyOp8
 70
     1
102
RTVSPropertyOp9
 70
     1
102
RTVSPropertyOp10
 70
     1
102
RTVSPropertyOp11
 70
     1
102
RTVSPropertyOp12
 70
     1
102
RTVSPropertyOp13
 70
     1
102
RTVSPropertyOp14
 70
     1
102
RTVSPropertyOp15
 70
     1
102
RTVSPropertyOp16
 70
     1
102
RTVSPropertyOp17
 70
     1
102
RTVSPropertyOp18
 70
     1
102
RTVSPropertyOp19
 70
     1
102
RTVSPropertyOp20
 70
     1
102
RTVSPropertyOp21
 70
     1
102
RTVSPropertyOp22
 70
     1
102
RTVSPropertyOp23
 70
     1
102
RTVSPropertyOp24
 70
     1
102
RTVSPropertyOp25
 70
     1
102
RTVSPropertyOp26
 70
     1
102
RTVSPropertyOp27
 70
     1
102
RTVSPropertyOp28
 70
     1
102
RTVSPropertyOp29
 70
     1
102
RTVSPropertyOp30
 70
     1
102
RTVSPropertyOp31
 70
     1
102
RTVSPropertyOp32
 70
     1
  0
XRECORD
  5
247F
102
{ACAD_REACTORS
330
247E
102
}
330
247E
100
AcDbXrecord
280
     1
102
RTVSPropertyOp0
 70
     1
102
RTVSPropertyOp1
 70
     1
102
RTVSPropertyOp2
 70
     1
102
RTVSPropertyOp3
 70
     1
102
RTVSPropertyOp4
 70
     1
102
RTVSPropertyOp5
 70
     1
102
RTVSPropertyOp6
 70
     1
102
RTVSPropertyOp7
 70
     1
102
RTVSPropertyOp8
 70
     1
102
RTVSPropertyOp9
 70
     1
102
RTVSPropertyOp10
 70
     1
102
RTVSPropertyOp11
 70
     1
102
RTVSPropertyOp12
 70
     1
102
RTVSPropertyOp13
 70
     1
102
RTVSPropertyOp14
 70
     1
102
RTVSPropertyOp15
 70
     1
102
RTVSPropertyOp16
 70
     1
102
RTVSPropertyOp17
 70
     1
102
RTVSPropertyOp18
 70
     1
102
RTVSPropertyOp19
 70
     1
102
RTVSPropertyOp20
 70
     1
102
RTVSPropertyOp21
 70
     1
102
RTVSPropertyOp22
 70
     1
102
RTVSPropertyOp23
 70
     1
102
RTVSPropertyOp24
 70
     1
102
RTVSPropertyOp25
 70
     1
102
RTVSPropertyOp26
 70
     1
102
RTVSPropertyOp27
 70
     1
102
RTVSPropertyOp28
 70
     1
102
RTVSPropertyOp29
 70
     1
102
RTVSPropertyOp30
 70
     1
102
RTVSPropertyOp31
 70
     1
102
RTVSPropertyOp32
 70
     1
  0
XRECORD
  5
2487
102
{ACAD_REACTORS
330
2486
102
}
330
2486
100
AcDbXrecord
280
     1
102
RTVSPropertyOp0
 70
     1
102
RTVSPropertyOp1
 70
     1
102
RTVSPropertyOp2
 70
     1
102
RTVSPropertyOp3
 70
     1
102
RTVSPropertyOp4
 70
     1
102
RTVSPropertyOp5
 70
     1
102
RTVSPropertyOp6
 70
     1
102
RTVSPropertyOp7
 70
     1
102
RTVSPropertyOp8
 70
     1
102
RTVSPropertyOp9
 70
     1
102
RTVSPropertyOp10
 70
     1
102
RTVSPropertyOp11
 70
     1
102
RTVSPropertyOp12
 70
     1
102
RTVSPropertyOp13
 70
     1
102
RTVSPropertyOp14
 70
     1
102
RTVSPropertyOp15
 70
     1
102
RTVSPropertyOp16
 70
     1
102
RTVSPropertyOp17
 70
     1
102
RTVSPropertyOp18
 70
     1
102
RTVSPropertyOp19
 70
     1
102
RTVSPropertyOp20
 70
     1
102
RTVSPropertyOp21
 70
     1
102
RTVSPropertyOp22
 70
     1
102
RTVSPropertyOp23
 70
     1
102
RTVSPropertyOp24
 70
     1
102
RTVSPropertyOp25
 70
     1
102
RTVSPropertyOp26
 70
     1
102
RTVSPropertyOp27
 70
     1
102
RTVSPropertyOp28
 70
     1
102
RTVSPropertyOp29
 70
     1
102
RTVSPropertyOp30
 70
     1
102
RTVSPropertyOp31
 70
     1
102
RTVSPropertyOp32
 70
     1
  0
XRECORD
  5
2479
102
{ACAD_REACTORS
330
2478
102
}
330
2478
100
AcDbXrecord
280
     1
102
RTVSPropertyOp0
 70
     1
102
RTVSPropertyOp1
 70
     1
102
RTVSPropertyOp2
 70
     1
102
RTVSPropertyOp3
 70
     1
102
RTVSPropertyOp4
 70
     1
102
RTVSPropertyOp5
 70
     1
102
RTVSPropertyOp6
 70
     1
102
RTVSPropertyOp7
 70
     1
102
RTVSPropertyOp8
 70
     1
102
RTVSPropertyOp9
 70
     1
102
RTVSPropertyOp10
 70
     1
102
RTVSPropertyOp11
 70
     1
102
RTVSPropertyOp12
 70
     1
102
RTVSPropertyOp13
 70
     1
102
RTVSPropertyOp14
 70
     1
102
RTVSPropertyOp15
 70
     1
102
RTVSPropertyOp16
 70
     1
102
RTVSPropertyOp17
 70
     1
102
RTVSPropertyOp18
 70
     1
102
RTVSPropertyOp19
 70
     1
102
RTVSPropertyOp20
 70
     1
102
RTVSPropertyOp21
 70
     1
102
RTVSPropertyOp22
 70
     1
102
RTVSPropertyOp23
 70
     1
102
RTVSPropertyOp24
 70
     1
102
RTVSPropertyOp25
 70
     1
102
RTVSPropertyOp26
 70
     1
102
RTVSPropertyOp27
 70
     1
102
RTVSPropertyOp28
 70
     1
102
RTVSPropertyOp29
 70
     1
102
RTVSPropertyOp30
 70
     1
102
RTVSPropertyOp31
 70
     1
102
RTVSPropertyOp32
 70
     1
  0
XRECORD
  5
247D
102
{ACAD_REACTORS
330
247C
102
}
330
247C
100
AcDbXrecord
280
     1
102
RTVSPropertyOp0
 70
     1
102
RTVSPropertyOp1
 70
     1
102
RTVSPropertyOp2
 70
     1
102
RTVSPropertyOp3
 70
     1
102
RTVSPropertyOp4
 70
     1
102
RTVSPropertyOp5
 70
     1
102
RTVSPropertyOp6
 70
     1
102
RTVSPropertyOp7
 70
     1
102
RTVSPropertyOp8
 70
     1
102
RTVSPropertyOp9
 70
     1
102
RTVSPropertyOp10
 70
     1
102
RTVSPropertyOp11
 70
     1
102
RTVSPropertyOp12
 70
     1
102
RTVSPropertyOp13
 70
     1
102
RTVSPropertyOp14
 70
     1
102
RTVSPropertyOp15
 70
     1
102
RTVSPropertyOp16
 70
     1
102
RTVSPropertyOp17
 70
     1
102
RTVSPropertyOp18
 70
     1
102
RTVSPropertyOp19
 70
     1
102
RTVSPropertyOp20
 70
     1
102
RTVSPropertyOp21
 70
     1
102
RTVSPropertyOp22
 70
     1
102
RTVSPropertyOp23
 70
     1
102
RTVSPropertyOp24
 70
     1
102
RTVSPropertyOp25
 70
     1
102
RTVSPropertyOp26
 70
     1
102
RTVSPropertyOp27
 70
     1
102
RTVSPropertyOp28
 70
     1
102
RTVSPropertyOp29
 70
     1
102
RTVSPropertyOp30
 70
     1
102
RTVSPropertyOp31
 70
     1
102
RTVSPropertyOp32
 70
     1
  0
XRECORD
  5
249B
102
{ACAD_REACTORS
330
249A
102
}
330
249A
100
AcDbXrecord
280
     1
102
RTVSPropertyOp0
 70
     0
102
RTVSPropertyOp1
 70
     0
102
RTVSPropertyOp2
 70
     0
102
RTVSPropertyOp3
 70
     0
102
RTVSPropertyOp4
 70
     0
102
RTVSPropertyOp5
 70
     0
102
RTVSPropertyOp6
 70
     0
102
RTVSPropertyOp7
 70
     0
102
RTVSPropertyOp8
 70
     0
102
RTVSPropertyOp9
 70
     0
102
RTVSPropertyOp10
 70
     0
102
RTVSPropertyOp11
 70
     0
102
RTVSPropertyOp12
 70
     0
102
RTVSPropertyOp13
 70
     0
102
RTVSPropertyOp14
 70
     2
102
RTVSPropertyOp15
 70
     0
102
RTVSPropertyOp16
 70
     0
102
RTVSPropertyOp17
 70
     0
102
RTVSPropertyOp18
 70
     0
102
RTVSPropertyOp19
 70
     0
102
RTVSPropertyOp20
 70
     0
102
RTVSPropertyOp21
 70
     0
102
RTVSPropertyOp22
 70
     0
102
RTVSPropertyOp23
 70
     0
102
RTVSPropertyOp24
 70
     0
102
RTVSPropertyOp25
 70
     0
102
RTVSPropertyOp26
 70
     0
102
RTVSPropertyOp27
 70
     0
102
RTVSPropertyOp28
 70
     1
102
RTVSPropertyOp29
 70
     1
102
RTVSPropertyOp30
 70
     1
102
RTVSPropertyOp31
 70
     1
102
RTVSPropertyOp32
 70
     1
  0
XRECORD
  5
2485
102
{ACAD_REACTORS
330
2484
102
}
330
2484
100
AcDbXrecord
280
     1
102
RTVSPropertyOp0
 70
     1
102
RTVSPropertyOp1
 70
     1
102
RTVSPropertyOp2
 70
     1
102
RTVSPropertyOp3
 70
     1
102
RTVSPropertyOp4
 70
     1
102
RTVSPropertyOp5
 70
     1
102
RTVSPropertyOp6
 70
     1
102
RTVSPropertyOp7
 70
     1
102
RTVSPropertyOp8
 70
     1
102
RTVSPropertyOp9
 70
     1
102
RTVSPropertyOp10
 70
     1
102
RTVSPropertyOp11
 70
     1
102
RTVSPropertyOp12
 70
     1
102
RTVSPropertyOp13
 70
     1
102
RTVSPropertyOp14
 70
     1
102
RTVSPropertyOp15
 70
     1
102
RTVSPropertyOp16
 70
     1
102
RTVSPropertyOp17
 70
     1
102
RTVSPropertyOp18
 70
     1
102
RTVSPropertyOp19
 70
     1
102
RTVSPropertyOp20
 70
     1
102
RTVSPropertyOp21
 70
     1
102
RTVSPropertyOp22
 70
     1
102
RTVSPropertyOp23
 70
     1
102
RTVSPropertyOp24
 70
     1
102
RTVSPropertyOp25
 70
     1
102
RTVSPropertyOp26
 70
     1
102
RTVSPropertyOp27
 70
     1
102
RTVSPropertyOp28
 70
     1
102
RTVSPropertyOp29
 70
     1
102
RTVSPropertyOp30
 70
     1
102
RTVSPropertyOp31
 70
     1
102
RTVSPropertyOp32
 70
     1
  0
XRECORD
  5
2469
102
{ACAD_REACTORS
330
2468
102
}
330
2468
100
AcDbXrecord
280
     1
102
RTVSPropertyOp0
 70
     1
102
RTVSPropertyOp1
 70
     1
102
RTVSPropertyOp2
 70
     1
102
RTVSPropertyOp3
 70
     1
102
RTVSPropertyOp4
 70
     1
102
RTVSPropertyOp5
 70
     1
102
RTVSPropertyOp6
 70
     1
102
RTVSPropertyOp7
 70
     1
102
RTVSPropertyOp8
 70
     1
102
RTVSPropertyOp9
 70
     1
102
RTVSPropertyOp10
 70
     1
102
RTVSPropertyOp11
 70
     1
102
RTVSPropertyOp12
 70
     1
102
RTVSPropertyOp13
 70
     1
102
RTVSPropertyOp14
 70
     1
102
RTVSPropertyOp15
 70
     1
102
RTVSPropertyOp16
 70
     1
102
RTVSPropertyOp17
 70
     1
102
RTVSPropertyOp18
 70
     1
102
RTVSPropertyOp19
 70
     1
102
RTVSPropertyOp20
 70
     1
102
RTVSPropertyOp21
 70
     1
102
RTVSPropertyOp22
 70
     1
102
RTVSPropertyOp23
 70
     1
102
RTVSPropertyOp24
 70
     1
102
RTVSPropertyOp25
 70
     1
102
RTVSPropertyOp26
 70
     1
102
RTVSPropertyOp27
 70
     1
102
RTVSPropertyOp28
 70
     1
102
RTVSPropertyOp29
 70
     1
102
RTVSPropertyOp30
 70
     1
102
RTVSPropertyOp31
 70
     1
102
RTVSPropertyOp32
 70
     1
  0
XRECORD
  5
246B
102
{ACAD_REACTORS
330
246A
102
}
330
246A
100
AcDbXrecord
280
     1
102
RTVSPropertyOp0
 70
     1
102
RTVSPropertyOp1
 70
     1
102
RTVSPropertyOp2
 70
     1
102
RTVSPropertyOp3
 70
     1
102
RTVSPropertyOp4
 70
     1
102
RTVSPropertyOp5
 70
     1
102
RTVSPropertyOp6
 70
     1
102
RTVSPropertyOp7
 70
     1
102
RTVSPropertyOp8
 70
     1
102
RTVSPropertyOp9
 70
     1
102
RTVSPropertyOp10
 70
     1
102
RTVSPropertyOp11
 70
     1
102
RTVSPropertyOp12
 70
     1
102
RTVSPropertyOp13
 70
     1
102
RTVSPropertyOp14
 70
     1
102
RTVSPropertyOp15
 70
     1
102
RTVSPropertyOp16
 70
     1
102
RTVSPropertyOp17
 70
     1
102
RTVSPropertyOp18
 70
     1
102
RTVSPropertyOp19
 70
     1
102
RTVSPropertyOp20
 70
     1
102
RTVSPropertyOp21
 70
     1
102
RTVSPropertyOp22
 70
     1
102
RTVSPropertyOp23
 70
     1
102
RTVSPropertyOp24
 70
     1
102
RTVSPropertyOp25
 70
     1
102
RTVSPropertyOp26
 70
     1
102
RTVSPropertyOp27
 70
     1
102
RTVSPropertyOp28
 70
     1
102
RTVSPropertyOp29
 70
     1
102
RTVSPropertyOp30
 70
     1
102
RTVSPropertyOp31
 70
     1
102
RTVSPropertyOp32
 70
     1
  0
XRECORD
  5
246D
102
{ACAD_REACTORS
330
246C
102
}
330
246C
100
AcDbXrecord
280
     1
102
RTVSPropertyOp0
 70
     1
102
RTVSPropertyOp1
 70
     1
102
RTVSPropertyOp2
 70
     1
102
RTVSPropertyOp3
 70
     1
102
RTVSPropertyOp4
 70
     1
102
RTVSPropertyOp5
 70
     1
102
RTVSPropertyOp6
 70
     1
102
RTVSPropertyOp7
 70
     1
102
RTVSPropertyOp8
 70
     1
102
RTVSPropertyOp9
 70
     1
102
RTVSPropertyOp10
 70
     1
102
RTVSPropertyOp11
 70
     1
102
RTVSPropertyOp12
 70
     1
102
RTVSPropertyOp13
 70
     1
102
RTVSPropertyOp14
 70
     1
102
RTVSPropertyOp15
 70
     1
102
RTVSPropertyOp16
 70
     1
102
RTVSPropertyOp17
 70
     1
102
RTVSPropertyOp18
 70
     1
102
RTVSPropertyOp19
 70
     1
102
RTVSPropertyOp20
 70
     1
102
RTVSPropertyOp21
 70
     1
102
RTVSPropertyOp22
 70
     1
102
RTVSPropertyOp23
 70
     1
102
RTVSPropertyOp24
 70
     1
102
RTVSPropertyOp25
 70
     1
102
RTVSPropertyOp26
 70
     1
102
RTVSPropertyOp27
 70
     1
102
RTVSPropertyOp28
 70
     1
102
RTVSPropertyOp29
 70
     1
102
RTVSPropertyOp30
 70
     1
102
RTVSPropertyOp31
 70
     1
102
RTVSPropertyOp32
 70
     1
  0
XRECORD
  5
246F
102
{ACAD_REACTORS
330
246E
102
}
330
246E
100
AcDbXrecord
280
     1
102
RTVSPropertyOp0
 70
     1
102
RTVSPropertyOp1
 70
     1
102
RTVSPropertyOp2
 70
     1
102
RTVSPropertyOp3
 70
     1
102
RTVSPropertyOp4
 70
     1
102
RTVSPropertyOp5
 70
     1
102
RTVSPropertyOp6
 70
     1
102
RTVSPropertyOp7
 70
     1
102
RTVSPropertyOp8
 70
     1
102
RTVSPropertyOp9
 70
     1
102
RTVSPropertyOp10
 70
     1
102
RTVSPropertyOp11
 70
     1
102
RTVSPropertyOp12
 70
     1
102
RTVSPropertyOp13
 70
     1
102
RTVSPropertyOp14
 70
     1
102
RTVSPropertyOp15
 70
     1
102
RTVSPropertyOp16
 70
     1
102
RTVSPropertyOp17
 70
     1
102
RTVSPropertyOp18
 70
     1
102
RTVSPropertyOp19
 70
     1
102
RTVSPropertyOp20
 70
     1
102
RTVSPropertyOp21
 70
     1
102
RTVSPropertyOp22
 70
     1
102
RTVSPropertyOp23
 70
     1
102
RTVSPropertyOp24
 70
     1
102
RTVSPropertyOp25
 70
     1
102
RTVSPropertyOp26
 70
     1
102
RTVSPropertyOp27
 70
     1
102
RTVSPropertyOp28
 70
     1
102
RTVSPropertyOp29
 70
     1
102
RTVSPropertyOp30
 70
     1
102
RTVSPropertyOp31
 70
     1
102
RTVSPropertyOp32
 70
     1
  0
XRECORD
  5
248B
102
{ACAD_REACTORS
330
248A
102
}
330
248A
100
AcDbXrecord
280
     1
102
RTVSPropertyOp0
 70
     1
102
RTVSPropertyOp1
 70
     1
102
RTVSPropertyOp2
 70
     1
102
RTVSPropertyOp3
 70
     1
102
RTVSPropertyOp4
 70
     1
102
RTVSPropertyOp5
 70
     1
102
RTVSPropertyOp6
 70
     1
102
RTVSPropertyOp7
 70
     1
102
RTVSPropertyOp8
 70
     1
102
RTVSPropertyOp9
 70
     1
102
RTVSPropertyOp10
 70
     1
102
RTVSPropertyOp11
 70
     1
102
RTVSPropertyOp12
 70
     1
102
RTVSPropertyOp13
 70
     1
102
RTVSPropertyOp14
 70
     1
102
RTVSPropertyOp15
 70
     1
102
RTVSPropertyOp16
 70
     1
102
RTVSPropertyOp17
 70
     1
102
RTVSPropertyOp18
 70
     1
102
RTVSPropertyOp19
 70
     1
102
RTVSPropertyOp20
 70
     1
102
RTVSPropertyOp21
 70
     1
102
RTVSPropertyOp22
 70
     1
102
RTVSPropertyOp23
 70
     1
102
RTVSPropertyOp24
 70
     1
102
RTVSPropertyOp25
 70
     1
102
RTVSPropertyOp26
 70
     1
102
RTVSPropertyOp27
 70
     1
102
RTVSPropertyOp28
 70
     1
102
RTVSPropertyOp29
 70
     1
102
RTVSPropertyOp30
 70
     1
102
RTVSPropertyOp31
 70
     1
102
RTVSPropertyOp32
 70
     1
  0
XRECORD
  5
2497
102
{ACAD_REACTORS
330
2496
102
}
330
2496
100
AcDbXrecord
280
     1
102
RTVSPropertyOp0
 70
     0
102
RTVSPropertyOp1
 70
     0
102
RTVSPropertyOp2
 70
     0
102
RTVSPropertyOp3
 70
     0
102
RTVSPropertyOp4
 70
     0
102
RTVSPropertyOp5
 70
     0
102
RTVSPropertyOp6
 70
     0
102
RTVSPropertyOp7
 70
     0
102
RTVSPropertyOp8
 70
     0
102
RTVSPropertyOp9
 70
     0
102
RTVSPropertyOp10
 70
     0
102
RTVSPropertyOp11
 70
     0
102
RTVSPropertyOp12
 70
     0
102
RTVSPropertyOp13
 70
     0
102
RTVSPropertyOp14
 70
     2
102
RTVSPropertyOp15
 70
     0
102
RTVSPropertyOp16
 70
     0
102
RTVSPropertyOp17
 70
     0
102
RTVSPropertyOp18
 70
     0
102
RTVSPropertyOp19
 70
     0
102
RTVSPropertyOp20
 70
     0
102
RTVSPropertyOp21
 70
     0
102
RTVSPropertyOp22
 70
     0
102
RTVSPropertyOp23
 70
     0
102
RTVSPropertyOp24
 70
     0
102
RTVSPropertyOp25
 70
     0
102
RTVSPropertyOp26
 70
     0
102
RTVSPropertyOp27
 70
     0
102
RTVSPropertyOp28
 70
     1
102
RTVSPropertyOp29
 70
     1
102
RTVSPropertyOp30
 70
     1
102
RTVSPropertyOp31
 70
     1
102
RTVSPropertyOp32
 70
     1
  0
XRECORD
  5
2483
102
{ACAD_REACTORS
330
2482
102
}
330
2482
100
AcDbXrecord
280
     1
102
RTVSPropertyOp0
 70
     1
102
RTVSPropertyOp1
 70
     1
102
RTVSPropertyOp2
 70
     1
102
RTVSPropertyOp3
 70
     1
102
RTVSPropertyOp4
 70
     1
102
RTVSPropertyOp5
 70
     1
102
RTVSPropertyOp6
 70
     1
102
RTVSPropertyOp7
 70
     1
102
RTVSPropertyOp8
 70
     1
102
RTVSPropertyOp9
 70
     1
102
RTVSPropertyOp10
 70
     1
102
RTVSPropertyOp11
 70
     1
102
RTVSPropertyOp12
 70
     1
102
RTVSPropertyOp13
 70
     1
102
RTVSPropertyOp14
 70
     1
102
RTVSPropertyOp15
 70
     1
102
RTVSPropertyOp16
 70
     1
102
RTVSPropertyOp17
 70
     1
102
RTVSPropertyOp18
 70
     1
102
RTVSPropertyOp19
 70
     1
102
RTVSPropertyOp20
 70
     1
102
RTVSPropertyOp21
 70
     1
102
RTVSPropertyOp22
 70
     1
102
RTVSPropertyOp23
 70
     1
102
RTVSPropertyOp24
 70
     1
102
RTVSPropertyOp25
 70
     1
102
RTVSPropertyOp26
 70
     1
102
RTVSPropertyOp27
 70
     1
102
RTVSPropertyOp28
 70
     1
102
RTVSPropertyOp29
 70
     1
102
RTVSPropertyOp30
 70
     1
102
RTVSPropertyOp31
 70
     1
102
RTVSPropertyOp32
 70
     1
  0
XRECORD
  5
2499
102
{ACAD_REACTORS
330
2498
102
}
330
2498
100
AcDbXrecord
280
     1
102
RTVSPropertyOp0
 70
     0
102
RTVSPropertyOp1
 70
     0
102
RTVSPropertyOp2
 70
     0
102
RTVSPropertyOp3
 70
     0
102
RTVSPropertyOp4
 70
     0
102
RTVSPropertyOp5
 70
     0
102
RTVSPropertyOp6
 70
     0
102
RTVSPropertyOp7
 70
     0
102
RTVSPropertyOp8
 70
     0
102
RTVSPropertyOp9
 70
     0
102
RTVSPropertyOp10
 70
     0
102
RTVSPropertyOp11
 70
     0
102
RTVSPropertyOp12
 70
     0
102
RTVSPropertyOp13
 70
     0
102
RTVSPropertyOp14
 70
     2
102
RTVSPropertyOp15
 70
     0
102
RTVSPropertyOp16
 70
     0
102
RTVSPropertyOp17
 70
     0
102
RTVSPropertyOp18
 70
     0
102
RTVSPropertyOp19
 70
     0
102
RTVSPropertyOp20
 70
     0
102
RTVSPropertyOp21
 70
     0
102
RTVSPropertyOp22
 70
     0
102
RTVSPropertyOp23
 70
     0
102
RTVSPropertyOp24
 70
     0
102
RTVSPropertyOp25
 70
     0
102
RTVSPropertyOp26
 70
     0
102
RTVSPropertyOp27
 70
     0
102
RTVSPropertyOp28
 70
     1
102
RTVSPropertyOp29
 70
     1
102
RTVSPropertyOp30
 70
     1
102
RTVSPropertyOp31
 70
     1
102
RTVSPropertyOp32
 70
     1
  0
XRECORD
  5
247B
102
{ACAD_REACTORS
330
247A
102
}
330
247A
100
AcDbXrecord
280
     1
102
RTVSPropertyOp0
 70
     1
102
RTVSPropertyOp1
 70
     1
102
RTVSPropertyOp2
 70
     1
102
RTVSPropertyOp3
 70
     1
102
RTVSPropertyOp4
 70
     1
102
RTVSPropertyOp5
 70
     1
102
RTVSPropertyOp6
 70
     1
102
RTVSPropertyOp7
 70
     1
102
RTVSPropertyOp8
 70
     1
102
RTVSPropertyOp9
 70
     1
102
RTVSPropertyOp10
 70
     1
102
RTVSPropertyOp11
 70
     1
102
RTVSPropertyOp12
 70
     1
102
RTVSPropertyOp13
 70
     1
102
RTVSPropertyOp14
 70
     1
102
RTVSPropertyOp15
 70
     1
102
RTVSPropertyOp16
 70
     1
102
RTVSPropertyOp17
 70
     1
102
RTVSPropertyOp18
 70
     1
102
RTVSPropertyOp19
 70
     1
102
RTVSPropertyOp20
 70
     1
102
RTVSPropertyOp21
 70
     1
102
RTVSPropertyOp22
 70
     1
102
RTVSPropertyOp23
 70
     1
102
RTVSPropertyOp24
 70
     1
102
RTVSPropertyOp25
 70
     1
102
RTVSPropertyOp26
 70
     1
102
RTVSPropertyOp27
 70
     1
102
RTVSPropertyOp28
 70
     1
102
RTVSPropertyOp29
 70
     1
102
RTVSPropertyOp30
 70
     1
102
RTVSPropertyOp31
 70
     1
102
RTVSPropertyOp32
 70
     1
  0
XRECORD
  5
2495
102
{ACAD_REACTORS
330
2494
102
}
330
2494
100
AcDbXrecord
280
     1
102
RTVSPropertyOp0
 70
     1
102
RTVSPropertyOp1
 70
     1
102
RTVSPropertyOp2
 70
     1
102
RTVSPropertyOp3
 70
     1
102
RTVSPropertyOp4
 70
     1
102
RTVSPropertyOp5
 70
     1
102
RTVSPropertyOp6
 70
     1
102
RTVSPropertyOp7
 70
     1
102
RTVSPropertyOp8
 70
     1
102
RTVSPropertyOp9
 70
     1
102
RTVSPropertyOp10
 70
     1
102
RTVSPropertyOp11
 70
     1
102
RTVSPropertyOp12
 70
     1
102
RTVSPropertyOp13
 70
     1
102
RTVSPropertyOp14
 70
     1
102
RTVSPropertyOp15
 70
     1
102
RTVSPropertyOp16
 70
     1
102
RTVSPropertyOp17
 70
     1
102
RTVSPropertyOp18
 70
     1
102
RTVSPropertyOp19
 70
     1
102
RTVSPropertyOp20
 70
     1
102
RTVSPropertyOp21
 70
     1
102
RTVSPropertyOp22
 70
     1
102
RTVSPropertyOp23
 70
     1
102
RTVSPropertyOp24
 70
     1
102
RTVSPropertyOp25
 70
     1
102
RTVSPropertyOp26
 70
     1
102
RTVSPropertyOp27
 70
     1
102
RTVSPropertyOp28
 70
     1
102
RTVSPropertyOp29
 70
     1
102
RTVSPropertyOp30
 70
     1
102
RTVSPropertyOp31
 70
     1
102
RTVSPropertyOp32
 70
     1
  0
XRECORD
  5
2493
102
{ACAD_REACTORS
330
2492
102
}
330
2492
100
AcDbXrecord
280
     1
102
RTVSPropertyOp0
 70
     1
102
RTVSPropertyOp1
 70
     1
102
RTVSPropertyOp2
 70
     1
102
RTVSPropertyOp3
 70
     1
102
RTVSPropertyOp4
 70
     1
102
RTVSPropertyOp5
 70
     1
102
RTVSPropertyOp6
 70
     1
102
RTVSPropertyOp7
 70
     1
102
RTVSPropertyOp8
 70
     1
102
RTVSPropertyOp9
 70
     1
102
RTVSPropertyOp10
 70
     1
102
RTVSPropertyOp11
 70
     1
102
RTVSPropertyOp12
 70
     1
102
RTVSPropertyOp13
 70
     1
102
RTVSPropertyOp14
 70
     1
102
RTVSPropertyOp15
 70
     1
102
RTVSPropertyOp16
 70
     1
102
RTVSPropertyOp17
 70
     1
102
RTVSPropertyOp18
 70
     1
102
RTVSPropertyOp19
 70
     1
102
RTVSPropertyOp20
 70
     1
102
RTVSPropertyOp21
 70
     1
102
RTVSPropertyOp22
 70
     1
102
RTVSPropertyOp23
 70
     1
102
RTVSPropertyOp24
 70
     1
102
RTVSPropertyOp25
 70
     1
102
RTVSPropertyOp26
 70
     1
102
RTVSPropertyOp27
 70
     1
102
RTVSPropertyOp28
 70
     1
102
RTVSPropertyOp29
 70
     1
102
RTVSPropertyOp30
 70
     1
102
RTVSPropertyOp31
 70
     1
102
RTVSPropertyOp32
 70
     1
  0
XRECORD
  5
248D
102
{ACAD_REACTORS
330
248C
102
}
330
248C
100
AcDbXrecord
280
     1
102
RTVSPropertyOp0
 70
     1
102
RTVSPropertyOp1
 70
     1
102
RTVSPropertyOp2
 70
     1
102
RTVSPropertyOp3
 70
     1
102
RTVSPropertyOp4
 70
     1
102
RTVSPropertyOp5
 70
     1
102
RTVSPropertyOp6
 70
     1
102
RTVSPropertyOp7
 70
     1
102
RTVSPropertyOp8
 70
     1
102
RTVSPropertyOp9
 70
     1
102
RTVSPropertyOp10
 70
     1
102
RTVSPropertyOp11
 70
     1
102
RTVSPropertyOp12
 70
     1
102
RTVSPropertyOp13
 70
     1
102
RTVSPropertyOp14
 70
     1
102
RTVSPropertyOp15
 70
     1
102
RTVSPropertyOp16
 70
     1
102
RTVSPropertyOp17
 70
     1
102
RTVSPropertyOp18
 70
     1
102
RTVSPropertyOp19
 70
     1
102
RTVSPropertyOp20
 70
     1
102
RTVSPropertyOp21
 70
     1
102
RTVSPropertyOp22
 70
     1
102
RTVSPropertyOp23
 70
     1
102
RTVSPropertyOp24
 70
     1
102
RTVSPropertyOp25
 70
     1
102
RTVSPropertyOp26
 70
     1
102
RTVSPropertyOp27
 70
     1
102
RTVSPropertyOp28
 70
     1
102
RTVSPropertyOp29
 70
     1
102
RTVSPropertyOp30
 70
     1
102
RTVSPropertyOp31
 70
     1
102
RTVSPropertyOp32
 70
     1
  0
XRECORD
  5
248F
102
{ACAD_REACTORS
330
248E
102
}
330
248E
100
AcDbXrecord
280
     1
102
RTVSPropertyOp0
 70
     1
102
RTVSPropertyOp1
 70
     1
102
RTVSPropertyOp2
 70
     1
102
RTVSPropertyOp3
 70
     1
102
RTVSPropertyOp4
 70
     1
102
RTVSPropertyOp5
 70
     1
102
RTVSPropertyOp6
 70
     1
102
RTVSPropertyOp7
 70
     1
102
RTVSPropertyOp8
 70
     1
102
RTVSPropertyOp9
 70
     1
102
RTVSPropertyOp10
 70
     1
102
RTVSPropertyOp11
 70
     1
102
RTVSPropertyOp12
 70
     1
102
RTVSPropertyOp13
 70
     1
102
RTVSPropertyOp14
 70
     1
102
RTVSPropertyOp15
 70
     1
102
RTVSPropertyOp16
 70
     1
102
RTVSPropertyOp17
 70
     1
102
RTVSPropertyOp18
 70
     1
102
RTVSPropertyOp19
 70
     1
102
RTVSPropertyOp20
 70
     1
102
RTVSPropertyOp21
 70
     1
102
RTVSPropertyOp22
 70
     1
102
RTVSPropertyOp23
 70
     1
102
RTVSPropertyOp24
 70
     1
102
RTVSPropertyOp25
 70
     1
102
RTVSPropertyOp26
 70
     1
102
RTVSPropertyOp27
 70
     1
102
RTVSPropertyOp28
 70
     1
102
RTVSPropertyOp29
 70
     1
102
RTVSPropertyOp30
 70
     1
102
RTVSPropertyOp31
 70
     1
102
RTVSPropertyOp32
 70
     1
  0
XRECORD
  5
2481
102
{ACAD_REACTORS
330
2480
102
}
330
2480
100
AcDbXrecord
280
     1
102
RTVSPropertyOp0
 70
     1
102
RTVSPropertyOp1
 70
     1
102
RTVSPropertyOp2
 70
     1
102
RTVSPropertyOp3
 70
     1
102
RTVSPropertyOp4
 70
     1
102
RTVSPropertyOp5
 70
     1
102
RTVSPropertyOp6
 70
     1
102
RTVSPropertyOp7
 70
     1
102
RTVSPropertyOp8
 70
     1
102
RTVSPropertyOp9
 70
     1
102
RTVSPropertyOp10
 70
     1
102
RTVSPropertyOp11
 70
     1
102
RTVSPropertyOp12
 70
     1
102
RTVSPropertyOp13
 70
     1
102
RTVSPropertyOp14
 70
     1
102
RTVSPropertyOp15
 70
     1
102
RTVSPropertyOp16
 70
     1
102
RTVSPropertyOp17
 70
     1
102
RTVSPropertyOp18
 70
     1
102
RTVSPropertyOp19
 70
     1
102
RTVSPropertyOp20
 70
     1
102
RTVSPropertyOp21
 70
     1
102
RTVSPropertyOp22
 70
     1
102
RTVSPropertyOp23
 70
     1
102
RTVSPropertyOp24
 70
     1
102
RTVSPropertyOp25
 70
     1
102
RTVSPropertyOp26
 70
     1
102
RTVSPropertyOp27
 70
     1
102
RTVSPropertyOp28
 70
     1
102
RTVSPropertyOp29
 70
     1
102
RTVSPropertyOp30
 70
     1
102
RTVSPropertyOp31
 70
     1
102
RTVSPropertyOp32
 70
     1
  0
XRECORD
  5
2489
102
{ACAD_REACTORS
330
2488
102
}
330
2488
100
AcDbXrecord
280
     1
102
RTVSPropertyOp0
 70
     1
102
RTVSPropertyOp1
 70
     1
102
RTVSPropertyOp2
 70
     1
102
RTVSPropertyOp3
 70
     1
102
RTVSPropertyOp4
 70
     1
102
RTVSPropertyOp5
 70
     1
102
RTVSPropertyOp6
 70
     1
102
RTVSPropertyOp7
 70
     1
102
RTVSPropertyOp8
 70
     1
102
RTVSPropertyOp9
 70
     1
102
RTVSPropertyOp10
 70
     1
102
RTVSPropertyOp11
 70
     1
102
RTVSPropertyOp12
 70
     1
102
RTVSPropertyOp13
 70
     1
102
RTVSPropertyOp14
 70
     1
102
RTVSPropertyOp15
 70
     1
102
RTVSPropertyOp16
 70
     1
102
RTVSPropertyOp17
 70
     1
102
RTVSPropertyOp18
 70
     1
102
RTVSPropertyOp19
 70
     1
102
RTVSPropertyOp20
 70
     1
102
RTVSPropertyOp21
 70
     1
102
RTVSPropertyOp22
 70
     1
102
RTVSPropertyOp23
 70
     1
102
RTVSPropertyOp24
 70
     1
102
RTVSPropertyOp25
 70
     1
102
RTVSPropertyOp26
 70
     1
102
RTVSPropertyOp27
 70
     1
102
RTVSPropertyOp28
 70
     1
102
RTVSPropertyOp29
 70
     1
102
RTVSPropertyOp30
 70
     1
102
RTVSPropertyOp31
 70
     1
102
RTVSPropertyOp32
 70
     1
  0
XRECORD
  5
2491
102
{ACAD_REACTORS
330
2490
102
}
330
2490
100
AcDbXrecord
280
     1
102
RTVSPropertyOp0
 70
     1
102
RTVSPropertyOp1
 70
     1
102
RTVSPropertyOp2
 70
     1
102
RTVSPropertyOp3
 70
     1
102
RTVSPropertyOp4
 70
     1
102
RTVSPropertyOp5
 70
     1
102
RTVSPropertyOp6
 70
     1
102
RTVSPropertyOp7
 70
     1
102
RTVSPropertyOp8
 70
     1
102
RTVSPropertyOp9
 70
     1
102
RTVSPropertyOp10
 70
     1
102
RTVSPropertyOp11
 70
     1
102
RTVSPropertyOp12
 70
     1
102
RTVSPropertyOp13
 70
     1
102
RTVSPropertyOp14
 70
     1
102
RTVSPropertyOp15
 70
     1
102
RTVSPropertyOp16
 70
     1
102
RTVSPropertyOp17
 70
     1
102
RTVSPropertyOp18
 70
     1
102
RTVSPropertyOp19
 70
     1
102
RTVSPropertyOp20
 70
     1
102
RTVSPropertyOp21
 70
     1
102
RTVSPropertyOp22
 70
     1
102
RTVSPropertyOp23
 70
     1
102
RTVSPropertyOp24
 70
     1
102
RTVSPropertyOp25
 70
     1
102
RTVSPropertyOp26
 70
     1
102
RTVSPropertyOp27
 70
     1
102
RTVSPropertyOp28
 70
     1
102
RTVSPropertyOp29
 70
     1
102
RTVSPropertyOp30
 70
     1
102
RTVSPropertyOp31
 70
     1
102
RTVSPropertyOp32
 70
     1
  0
ENDSEC
  0
EOF
