  0
SECTION
  2
HEADER
  9
$ACADVER
  1
AC1015
  9
$ACADMAINTVER
 70
    20
  9
$DWGCODEPAGE
  3
ANSI_932
  9
$INSBASE
 10
0.0
 20
0.0
 30
0.0
  9
$EXTMIN
 10
809.2657871116022
 20
7.862441997889161
 30
0.0
  9
$EXTMAX
 10
1001.265787111602
 20
288.9845707278892
 30
0.0
  9
$LIMMIN
 10
0.0
 20
0.0
  9
$LIMMAX
 10
12.0
 20
9.0
  9
$ORTHOMODE
 70
     1
  9
$REGENMODE
 70
     1
  9
$FILLMODE
 70
     1
  9
$QTEXTMODE
 70
     0
  9
$MIRRTEXT
 70
     0
  9
$LTSCALE
 40
1.0
  9
$ATTMODE
 70
     1
  9
$TEXTSIZE
 40
3.2
  9
$TRACEWID
 40
0.05
  9
$TEXTSTYLE
  7
高3.2
  9
$CLAYER
  8
0
  9
$CELTYPE
  6
ByLayer
  9
$CECOLOR
 62
   256
  9
$CELTSCALE
 40
1.0
  9
$DISPSILH
 70
     0
  9
$DIMSCALE
 40
1.0
  9
$DIMASZ
 40
2.5
  9
$DIMEXO
 40
0.25
  9
$DIMDLI
 40
0.2
  9
$DIMRND
 40
0.0
  9
$DIMDLE
 40
0.0
  9
$DIMEXE
 40
1.25
  9
$DIMTP
 40
0.0
  9
$DIMTM
 40
0.0
  9
$DIMTXT
 40
3.0
  9
$DIMCEN
 40
0.0
  9
$DIMTSZ
 40
0.0
  9
$DIMTOL
 70
     0
  9
$DIMLIM
 70
     0
  9
$DIMTIH
 70
     0
  9
$DIMTOH
 70
     0
  9
$DIMSE1
 70
     0
  9
$DIMSE2
 70
     0
  9
$DIMTAD
 70
     3
  9
$DIMZIN
 70
     8
  9
$DIMBLK
  1
Open30
  9
$DIMASO
 70
     1
  9
$DIMSHO
 70
     1
  9
$DIMPOST
  1

  9
$DIMAPOST
  1

  9
$DIMALT
 70
     0
  9
$DIMALTD
 70
     3
  9
$DIMALTF
 40
0.03937007874016
  9
$DIMLFAC
 40
1.0
  9
$DIMTOFL
 70
     1
  9
$DIMTVP
 40
0.0
  9
$DIMTIX
 70
     0
  9
$DIMSOXD
 70
     0
  9
$DIMSAH
 70
     0
  9
$DIMBLK1
  1

  9
$DIMBLK2
  1

  9
$DIMSTYLE
  2
1：1
  9
$DIMCLRD
 70
     0
  9
$DIMCLRE
 70
     0
  9
$DIMCLRT
 70
     4
  9
$DIMTFAC
 40
1.0
  9
$DIMGAP
 40
0.625
  9
$DIMJUST
 70
     0
  9
$DIMSD1
 70
     0
  9
$DIMSD2
 70
     0
  9
$DIMTOLJ
 70
     0
  9
$DIMTZIN
 70
     8
  9
$DIMALTZ
 70
     0
  9
$DIMALTTZ
 70
     0
  9
$DIMUPT
 70
     1
  9
$DIMDEC
 70
     2
  9
$DIMTDEC
 70
     2
  9
$DIMALTU
 70
     2
  9
$DIMALTTD
 70
     3
  9
$DIMTXSTY
  7
Standard
  9
$DIMAUNIT
 70
     0
  9
$DIMADEC
 70
     1
  9
$DIMALTRND
 40
0.0
  9
$DIMAZIN
 70
     2
  9
$DIMDSEP
 70
    46
  9
$DIMATFIT
 70
     0
  9
$DIMFRAC
 70
     0
  9
$DIMLDRBLK
  1
Open30
  9
$DIMLUNIT
 70
     2
  9
$DIMLWD
 70
    -2
  9
$DIMLWE
 70
    -2
  9
$DIMTMOVE
 70
     0
  9
$LUNITS
 70
     2
  9
$LUPREC
 70
     4
  9
$SKETCHINC
 40
0.1
  9
$FILLETRAD
 40
0.0
  9
$AUNITS
 70
     0
  9
$AUPREC
 70
     0
  9
$MENU
  1
.
  9
$ELEVATION
 40
0.0
  9
$PELEVATION
 40
0.0
  9
$THICKNESS
 40
0.0
  9
$LIMCHECK
 70
     0
  9
$CHAMFERA
 40
2.0
  9
$CHAMFERB
 40
2.0
  9
$CHAMFERC
 40
0.0
  9
$CHAMFERD
 40
0.0
  9
$SKPOLY
 70
     0
  9
$TDCREATE
 40
2456379.835428843
  9
$TDUCREATE
 40
2456379.460428843
  9
$TDUPDATE
 40
2456856.614056146
  9
$TDUUPDATE
 40
2456856.239056146
  9
$TDINDWG
 40
0.0274637847
  9
$TDUSRTIMER
 40
0.0274637731
  9
$USRTIMER
 70
     1
  9
$ANGBASE
 50
0.0
  9
$ANGDIR
 70
     0
  9
$PDMODE
 70
     0
  9
$PDSIZE
 40
0.0
  9
$PLINEWID
 40
0.0
  9
$SPLFRAME
 70
     0
  9
$SPLINETYPE
 70
     6
  9
$SPLINESEGS
 70
     8
  9
$HANDSEED
  5
B8F
  9
$SURFTAB1
 70
     6
  9
$SURFTAB2
 70
     6
  9
$SURFTYPE
 70
     6
  9
$SURFU
 70
     6
  9
$SURFV
 70
     6
  9
$UCSBASE
  2

  9
$UCSNAME
  2

  9
$UCSORG
 10
0.0
 20
0.0
 30
0.0
  9
$UCSXDIR
 10
1.0
 20
0.0
 30
0.0
  9
$UCSYDIR
 10
0.0
 20
1.0
 30
0.0
  9
$UCSORTHOREF
  2

  9
$UCSORTHOVIEW
 70
     0
  9
$UCSORGTOP
 10
0.0
 20
0.0
 30
0.0
  9
$UCSORGBOTTOM
 10
0.0
 20
0.0
 30
0.0
  9
$UCSORGLEFT
 10
0.0
 20
0.0
 30
0.0
  9
$UCSORGRIGHT
 10
0.0
 20
0.0
 30
0.0
  9
$UCSORGFRONT
 10
0.0
 20
0.0
 30
0.0
  9
$UCSORGBACK
 10
0.0
 20
0.0
 30
0.0
  9
$PUCSBASE
  2

  9
$PUCSNAME
  2

  9
$PUCSORG
 10
0.0
 20
0.0
 30
0.0
  9
$PUCSXDIR
 10
1.0
 20
0.0
 30
0.0
  9
$PUCSYDIR
 10
0.0
 20
1.0
 30
0.0
  9
$PUCSORTHOREF
  2

  9
$PUCSORTHOVIEW
 70
     0
  9
$PUCSORGTOP
 10
0.0
 20
0.0
 30
0.0
  9
$PUCSORGBOTTOM
 10
0.0
 20
0.0
 30
0.0
  9
$PUCSORGLEFT
 10
0.0
 20
0.0
 30
0.0
  9
$PUCSORGRIGHT
 10
0.0
 20
0.0
 30
0.0
  9
$PUCSORGFRONT
 10
0.0
 20
0.0
 30
0.0
  9
$PUCSORGBACK
 10
0.0
 20
0.0
 30
0.0
  9
$USERI1
 70
     0
  9
$USERI2
 70
     0
  9
$USERI3
 70
     0
  9
$USERI4
 70
     0
  9
$USERI5
 70
     0
  9
$USERR1
 40
0.0
  9
$USERR2
 40
0.0
  9
$USERR3
 40
0.0
  9
$USERR4
 40
0.0
  9
$USERR5
 40
0.0
  9
$WORLDVIEW
 70
     1
  9
$SHADEDGE
 70
     3
  9
$SHADEDIF
 70
    70
  9
$TILEMODE
 70
     1
  9
$MAXACTVP
 70
    64
  9
$PINSBASE
 10
0.0
 20
0.0
 30
0.0
  9
$PLIMCHECK
 70
     0
  9
$PEXTMIN
 10
0.0
 20
0.0
 30
0.0
  9
$PEXTMAX
 10
0.0
 20
0.0
 30
0.0
  9
$PLIMMIN
 10
0.0
 20
0.0
  9
$PLIMMAX
 10
12.0
 20
9.0
  9
$UNITMODE
 70
     0
  9
$VISRETAIN
 70
     1
  9
$PLINEGEN
 70
     0
  9
$PSLTSCALE
 70
     1
  9
$TREEDEPTH
 70
  3020
  9
$CMLSTYLE
  2
Standard
  9
$CMLJUST
 70
     0
  9
$CMLSCALE
 40
1.0
  9
$PROXYGRAPHICS
 70
     1
  9
$MEASUREMENT
 70
     1
  9
$CELWEIGHT
370
    -1
  9
$ENDCAPS
280
     0
  9
$JOINSTYLE
280
     0
  9
$LWDISPLAY
290
     0
  9
$INSUNITS
 70
     1
  9
$HYPERLINKBASE
  1

  9
$STYLESHEET
  1

  9
$XEDIT
290
     1
  9
$CEPSNTYPE
380
     0
  9
$PSTYLEMODE
290
     1
  9
$FINGERPRINTGUID
  2
{0452F429-81E7-456B-BCE4-2BB417FE1CCE}
  9
$VERSIONGUID
  2
{3967F454-F78E-42C0-903C-2E238F9BD8A2}
  9
$EXTNAMES
290
     1
  9
$PSVPSCALE
 40
0.0
  9
$OLESTARTUP
290
     0
  0
ENDSEC
  0
SECTION
  2
CLASSES
  0
CLASS
  1
ACDBDICTIONARYWDFLT
  2
AcDbDictionaryWithDefault
  3
ObjectDBX Classes
 90
        0
280
     0
281
     0
  0
CLASS
  1
ACDBPLACEHOLDER
  2
AcDbPlaceHolder
  3
ObjectDBX Classes
 90
        0
280
     0
281
     0
  0
CLASS
  1
LAYOUT
  2
AcDbLayout
  3
ObjectDBX Classes
 90
        0
280
     0
281
     0
  0
CLASS
  1
DICTIONARYVAR
  2
AcDbDictionaryVar
  3
ObjectDBX Classes
 90
        0
280
     0
281
     0
  0
CLASS
  1
TABLESTYLE
  2
AcDbTableStyle
  3
ObjectDBX Classes
 90
     4095
280
     0
281
     0
  0
CLASS
  1
MATERIAL
  2
AcDbMaterial
  3
ObjectDBX Classes
 90
     1153
280
     0
281
     0
  0
CLASS
  1
VISUALSTYLE
  2
AcDbVisualStyle
  3
ObjectDBX Classes
 90
     4095
280
     0
281
     0
  0
CLASS
  1
SORTENTSTABLE
  2
AcDbSortentsTable
  3
ObjectDBX Classes
 90
        0
280
     0
281
     0
  0
CLASS
  1
DIMASSOC
  2
AcDbDimAssoc
  3
"AcDbDimAssoc|Product Desc:     AcDim ARX App For Dimension|Company:          Autodesk, Inc.|WEB Address:      www.autodesk.com"
 90
        0
280
     0
281
     0
  0
CLASS
  1
SCALE
  2
AcDbScale
  3
ObjectDBX Classes
 90
     1153
280
     0
281
     0
  0
CLASS
  1
MLEADERSTYLE
  2
AcDbMLeaderStyle
  3
ACDB_MLEADERSTYLE_CLASS
 90
     4095
280
     0
281
     0
  0
CLASS
  1
CELLSTYLEMAP
  2
AcDbCellStyleMap
  3
ObjectDBX Classes
 90
     1152
280
     0
281
     0
  0
ENDSEC
  0
SECTION
  2
TABLES
  0
TABLE
  2
VPORT
  5
8
330
0
100
AcDbSymbolTable
 70
     1
  0
VPORT
  5
94
330
8
100
AcDbSymbolTableRecord
100
AcDbViewportTableRecord
  2
*Active
 70
     0
 10
0.0
 20
0.0
 11
1.0
 21
1.0
 12
923.7583394804833
 22
110.1451896617763
 13
0.0
 23
0.0
 14
0.5
 24
0.5
 15
0.5
 25
0.5
 16
0.0
 26
0.0
 36
1.0
 17
0.0
 27
0.0
 37
0.0
 40
619.5065423224109
 41
1.896032831737345
 42
50.0
 43
0.0
 44
0.0
 50
0.0
 51
0.0
 71
     0
 72
  1000
 73
     1
 74
     2
 75
     0
 76
     0
 77
     0
 78
     0
281
     0
 65
     1
110
0.0
120
0.0
130
0.0
111
1.0
121
0.0
131
0.0
112
0.0
122
1.0
132
0.0
 79
     0
146
0.0
  0
ENDTAB
  0
TABLE
  2
LTYPE
  5
5
330
0
100
AcDbSymbolTable
 70
     1
  0
LTYPE
  5
14
330
5
100
AcDbSymbolTableRecord
100
AcDbLinetypeTableRecord
  2
ByBlock
 70
     0
  3

 72
    65
 73
     0
 40
0.0
  0
LTYPE
  5
15
330
5
100
AcDbSymbolTableRecord
100
AcDbLinetypeTableRecord
  2
ByLayer
 70
     0
  3

 72
    65
 73
     0
 40
0.0
  0
LTYPE
  5
16
330
5
100
AcDbSymbolTableRecord
100
AcDbLinetypeTableRecord
  2
Continuous
 70
     0
  3
Solid line
 72
    65
 73
     0
 40
0.0
  0
ENDTAB
  0
TABLE
  2
LAYER
  5
2
102
{ACAD_XDICTIONARY
360
DD
102
}
330
0
100
AcDbSymbolTable
 70
     2
  0
LAYER
  5
10
102
{ACAD_XDICTIONARY
360
98C
102
}
330
2
100
AcDbSymbolTableRecord
100
AcDbLayerTableRecord
  2
0
 70
     0
 62
     7
  6
Continuous
370
    -3
390
F
  0
LAYER
  5
D8
330
2
100
AcDbSymbolTableRecord
100
AcDbLayerTableRecord
  2
Defpoints
 70
     0
 62
     7
  6
Continuous
290
     0
370
    -3
390
F
  0
ENDTAB
  0
TABLE
  2
STYLE
  5
3
330
0
100
AcDbSymbolTable
 70
     6
  0
STYLE
  5
11
330
3
100
AcDbSymbolTableRecord
100
AcDbTextStyleTableRecord
  2
Standard
 70
     0
 40
0.0
 41
1.0
 50
0.0
 71
     0
 42
0.2
  3
txt.shx
  4
bigfont.shx
  0
STYLE
  5
11D
330
3
100
AcDbSymbolTableRecord
100
AcDbTextStyleTableRecord
  2
高3.2
 70
     0
 40
3.2
 41
1.0
 50
0.0
 71
     0
 42
3.2
  3
txt.shx
  4
bigfont.shx
  0
STYLE
  5
11E
330
3
100
AcDbSymbolTableRecord
100
AcDbTextStyleTableRecord
  2
高6.3
 70
     0
 40
6.299999999999998
 41
1.0
 50
0.0
 71
     0
 42
6.299999999999998
  3
txt.shx
  4
bigfont.shx
  0
STYLE
  5
11F
330
3
100
AcDbSymbolTableRecord
100
AcDbTextStyleTableRecord
  2
高2.5
 70
     0
 40
2.5
 41
1.0
 50
0.0
 71
     0
 42
0.2
  3
txt.shx
  4
bigfont.shx
  0
STYLE
  5
146
330
3
100
AcDbSymbolTableRecord
100
AcDbTextStyleTableRecord
  2
高4.5
 70
     0
 40
4.5
 41
1.0
 50
0.0
 71
     0
 42
6.299999999999998
  3
txt.shx
  4
bigfont.shx
  0
STYLE
  5
171
330
3
100
AcDbSymbolTableRecord
100
AcDbTextStyleTableRecord
  2
高2
 70
     0
 40
2.0
 41
1.0
 50
0.0
 71
     0
 42
6.299999999999998
  3
txt.shx
  4
bigfont.shx
  0
ENDTAB
  0
TABLE
  2
VIEW
  5
6
330
0
100
AcDbSymbolTable
 70
     0
  0
ENDTAB
  0
TABLE
  2
UCS
  5
7
330
0
100
AcDbSymbolTable
 70
     0
  0
ENDTAB
  0
TABLE
  2
APPID
  5
9
330
0
100
AcDbSymbolTable
 70
     9
  0
APPID
  5
12
330
9
100
AcDbSymbolTableRecord
100
AcDbRegAppTableRecord
  2
ACAD
 70
     0
  0
APPID
  5
DC
330
9
100
AcDbSymbolTableRecord
100
AcDbRegAppTableRecord
  2
ACAD_DSTYLE_DIMJOGGED_JOGANGLE_SYMBOL
 70
     0
  0
APPID
  5
566
330
9
100
AcDbSymbolTableRecord
100
AcDbRegAppTableRecord
  2
ACAD_EXEMPT_FROM_CAD_STANDARDS
 70
     0
  0
APPID
  5
647
330
9
100
AcDbSymbolTableRecord
100
AcDbRegAppTableRecord
  2
ACAD_DSTYLE_DIMJAG
 70
     0
  0
APPID
  5
648
330
9
100
AcDbSymbolTableRecord
100
AcDbRegAppTableRecord
  2
ACAD_DSTYLE_DIMBREAK
 70
     0
  0
APPID
  5
649
330
9
100
AcDbSymbolTableRecord
100
AcDbRegAppTableRecord
  2
ACAD_DSTYLE_DIMTALN
 70
     0
  0
APPID
  5
9C8
330
9
100
AcDbSymbolTableRecord
100
AcDbRegAppTableRecord
  2
ACAD_DSTYLE_DIMARC_LENGTH_SYMBOL
 70
     0
  0
APPID
  5
9C9
330
9
100
AcDbSymbolTableRecord
100
AcDbRegAppTableRecord
  2
ACAD_DSTYLE_DIMEXT_LENGTH
 70
     0
  0
APPID
  5
9DE
330
9
100
AcDbSymbolTableRecord
100
AcDbRegAppTableRecord
  2
ACAD_MLEADERVER
 70
     0
  0
ENDTAB
  0
TABLE
  2
DIMSTYLE
  5
A
330
0
100
AcDbSymbolTable
 70
     1
100
AcDbDimStyleTable
 71
     1
340
D9
  0
DIMSTYLE
105
D9
330
A
100
AcDbSymbolTableRecord
100
AcDbDimStyleTableRecord
  2
1：1
 70
     0
 41
2.5
 42
0.25
 43
0.2
 44
1.25
 73
     0
 74
     0
 77
     3
 78
     8
 79
     2
140
3.0
141
0.0
143
0.03937007874016
147
0.625
171
     3
172
     1
178
     4
179
     1
271
     2
272
     2
274
     3
283
     0
284
     8
288
     1
289
     0
340
11
341
C6
342
C6
1001
ACAD_DSTYLE_DIMARC_LENGTH_SYMBOL
1070
   379
1070
     2
1001
ACAD_DSTYLE_DIMEXT_LENGTH
1070
   378
1040
1.25
1001
ACAD_DSTYLE_DIMJOGGED_JOGANGLE_SYMBOL
1070
   384
1040
1.570796326794896
  0
ENDTAB
  0
TABLE
  2
BLOCK_RECORD
  5
1
330
0
100
AcDbSymbolTable
 70
     5
  0
BLOCK_RECORD
  5
1F
102
{ACAD_XDICTIONARY
360
31A
102
}
330
1
100
AcDbSymbolTableRecord
100
AcDbBlockTableRecord
  2
*Model_Space
340
22
  0
BLOCK_RECORD
  5
58
330
1
100
AcDbSymbolTableRecord
100
AcDbBlockTableRecord
  2
*Paper_Space
340
59
  0
BLOCK_RECORD
  5
5D
330
1
100
AcDbSymbolTableRecord
100
AcDbBlockTableRecord
  2
*Paper_Space0
340
5E
  0
BLOCK_RECORD
  5
C6
330
1
100
AcDbSymbolTableRecord
100
AcDbBlockTableRecord
  2
_Open30
340
0
102
{BLKREFS
331
A85
331
A86
331
A8E
331
A8F
331
A99
331
A9A
102
}
  0
BLOCK_RECORD
  5
837
330
1
100
AcDbSymbolTableRecord
100
AcDbBlockTableRecord
  2
*D2
340
0
  0
BLOCK_RECORD
  5
84F
330
1
100
AcDbSymbolTableRecord
100
AcDbBlockTableRecord
  2
*D3
340
0
  0
BLOCK_RECORD
  5
882
330
1
100
AcDbSymbolTableRecord
100
AcDbBlockTableRecord
  2
*D4
340
0
  0
ENDTAB
  0
ENDSEC
  0
SECTION
  2
BLOCKS
  0
BLOCK
  5
20
330
1F
100
AcDbEntity
  8
0
100
AcDbBlockBegin
  2
*Model_Space
 70
     0
 10
0.0
 20
0.0
 30
0.0
  3
*Model_Space
  1

  0
ENDBLK
  5
21
330
1F
100
AcDbEntity
  8
0
100
AcDbBlockEnd
  0
BLOCK
  5
5A
330
58
100
AcDbEntity
 67
     1
  8
0
100
AcDbBlockBegin
  2
*Paper_Space
 70
     0
 10
0.0
 20
0.0
 30
0.0
  3
*Paper_Space
  1

  0
ENDBLK
  5
5B
330
58
100
AcDbEntity
 67
     1
  8
0
100
AcDbBlockEnd
  0
BLOCK
  5
5F
330
5D
100
AcDbEntity
 67
     1
  8
0
100
AcDbBlockBegin
  2
*Paper_Space0
 70
     0
 10
0.0
 20
0.0
 30
0.0
  3
*Paper_Space0
  1

  0
ENDBLK
  5
60
330
5D
100
AcDbEntity
 67
     1
  8
0
100
AcDbBlockEnd
  0
BLOCK
  5
C7
330
C6
100
AcDbEntity
  8
0
100
AcDbBlockBegin
  2
_Open30
 70
     0
 10
0.0
 20
0.0
 30
0.0
  3
_Open30
  1

  0
LINE
  5
C8
330
C6
100
AcDbEntity
  8
0
  6
ByBlock
 62
     0
370
    -2
100
AcDbLine
 10
-1.0
 20
0.267949
 30
0.0
 11
0.0
 21
0.0
 31
0.0
  0
LINE
  5
C9
330
C6
100
AcDbEntity
  8
0
  6
ByBlock
 62
     0
370
    -2
100
AcDbLine
 10
0.0
 20
0.0
 30
0.0
 11
-1.0
 21
-0.267949
 31
0.0
  0
LINE
  5
CA
330
C6
100
AcDbEntity
  8
0
  6
ByBlock
 62
     0
370
    -2
100
AcDbLine
 10
0.0
 20
0.0
 30
0.0
 11
-1.0
 21
0.0
 31
0.0
  0
ENDBLK
  5
CB
330
C6
100
AcDbEntity
  8
0
100
AcDbBlockEnd
  0
BLOCK
  5
838
330
837
100
AcDbEntity
  8
0
100
AcDbBlockBegin
  2
*D2
 70
     1
 10
0.0
 20
0.0
 30
0.0
  3
*D2
  1

  0
LINE
  5
A82
330
837
100
AcDbEntity
  8
0
 62
     0
370
    -2
100
AcDbLine
 10
957.1666407252822
 20
203.0753395822994
 30
0.0
 11
957.1666407252822
 21
222.516778114596
 31
0.0
  0
LINE
  5
A83
330
837
100
AcDbEntity
  8
0
 62
     0
370
    -2
100
AcDbLine
 10
848.1666407252822
 20
203.0753395822994
 30
0.0
 11
848.1666407252822
 21
222.516778114596
 31
0.0
  0
LINE
  5
A84
330
837
100
AcDbEntity
  8
0
 62
     0
370
    -2
100
AcDbLine
 10
954.6666407252823
 20
221.266778114596
 30
0.0
 11
850.6666407252822
 21
221.266778114596
 31
0.0
  0
INSERT
  5
A85
330
837
100
AcDbEntity
  8
0
 62
     0
370
    -2
100
AcDbBlockReference
  2
_Open30
 10
957.1666407252822
 20
221.266778114596
 30
0.0
 41
2.5
 42
2.5
 43
2.5
  0
INSERT
  5
A86
330
837
100
AcDbEntity
  8
0
 62
     0
370
    -2
100
AcDbBlockReference
  2
_Open30
 10
848.1666407252822
 20
221.266778114596
 30
0.0
 41
2.5
 42
2.5
 43
2.5
 50
180.0
  0
MTEXT
  5
A87
330
837
100
AcDbEntity
  8
0
 62
     4
100
AcDbMText
 10
902.6666407252822
 20
223.391778114596
 30
0.0
 40
3.0
 41
0.0
 71
     5
 72
     1
  1
109
 73
     1
 44
1.0
1001
ACAD
1000
MTEXTBEGIN
1070
    73
1070
     1
1070
    44
1040
1.0
1070
    74
1070
     0
1000
MTEXTEND
  0
POINT
  5
A88
330
837
100
AcDbEntity
  8
Defpoints
 62
     0
100
AcDbPoint
 10
957.1666407252822
 20
202.8253395822994
 30
0.0
  0
POINT
  5
A89
330
837
100
AcDbEntity
  8
Defpoints
 62
     0
100
AcDbPoint
 10
848.1666407252822
 20
202.8253395822994
 30
0.0
  0
POINT
  5
A8A
330
837
100
AcDbEntity
  8
Defpoints
 62
     0
100
AcDbPoint
 10
848.1666407252822
 20
221.266778114596
 30
0.0
  0
ENDBLK
  5
839
330
837
100
AcDbEntity
  8
0
100
AcDbBlockEnd
  0
BLOCK
  5
850
330
84F
100
AcDbEntity
  8
0
100
AcDbBlockBegin
  2
*D3
 70
     1
 10
0.0
 20
0.0
 30
0.0
  3
*D3
  1

  0
LINE
  5
A8B
330
84F
100
AcDbEntity
  8
0
 62
     0
370
    -2
100
AcDbLine
 10
955.4166407252822
 20
204.8253395822994
 30
0.0
 11
967.3784920437132
 21
204.8253395822994
 31
0.0
  0
LINE
  5
A8C
330
84F
100
AcDbEntity
  8
0
 62
     0
370
    -2
100
AcDbLine
 10
955.4166407252822
 20
101.8253395822994
 30
0.0
 11
967.3784920437132
 21
101.8253395822994
 31
0.0
  0
LINE
  5
A8D
330
84F
100
AcDbEntity
  8
0
 62
     0
370
    -2
100
AcDbLine
 10
966.1284920437132
 20
202.3253395822994
 30
0.0
 11
966.1284920437132
 21
104.3253395822994
 31
0.0
  0
INSERT
  5
A8E
330
84F
100
AcDbEntity
  8
0
 62
     0
370
    -2
100
AcDbBlockReference
  2
_Open30
 10
966.1284920437132
 20
204.8253395822994
 30
0.0
 41
2.5
 42
2.5
 43
2.5
 50
90.0
  0
INSERT
  5
A8F
330
84F
100
AcDbEntity
  8
0
 62
     0
370
    -2
100
AcDbBlockReference
  2
_Open30
 10
966.1284920437132
 20
101.8253395822994
 30
0.0
 41
2.5
 42
2.5
 43
2.5
 50
270.0
  0
MTEXT
  5
A90
330
84F
100
AcDbEntity
  8
0
 62
     4
100
AcDbMText
 10
964.0034920437132
 20
155.5526676924587
 30
0.0
 40
3.0
 41
0.0
 71
     5
 72
     1
  1
103
 11
0.0000000000000001
 21
1.0
 31
0.0
 73
     1
 44
1.0
1001
ACAD
1000
MTEXTBEGIN
1070
    73
1070
     1
1070
    44
1040
1.0
1070
    74
1070
     0
1000
MTEXTEND
  0
POINT
  5
A91
330
84F
100
AcDbEntity
  8
Defpoints
 62
     0
100
AcDbPoint
 10
955.1666407252822
 20
204.8253395822994
 30
0.0
  0
POINT
  5
A92
330
84F
100
AcDbEntity
  8
Defpoints
 62
     0
100
AcDbPoint
 10
955.1666407252822
 20
101.8253395822994
 30
0.0
  0
POINT
  5
A93
330
84F
100
AcDbEntity
  8
Defpoints
 62
     0
100
AcDbPoint
 10
966.1284920437132
 20
101.8253395822994
 30
0.0
  0
ENDBLK
  5
851
330
84F
100
AcDbEntity
  8
0
100
AcDbBlockEnd
  0
BLOCK
  5
883
330
882
100
AcDbEntity
  8
0
100
AcDbBlockBegin
  2
*D4
 70
     1
 10
0.0
 20
0.0
 30
0.0
  3
*D4
  1

  0
LINE
  5
A94
330
882
100
AcDbEntity
  8
0
 62
     0
370
    -2
100
AcDbLine
 10
975.1569302403419
 20
205.0753395822994
 30
0.0
 11
975.1569302403419
 21
222.4045100972141
 31
0.0
  0
LINE
  5
A95
330
882
100
AcDbEntity
  8
0
 62
     0
370
    -2
100
AcDbLine
 10
979.1569302403418
 20
205.0753395822994
 30
0.0
 11
979.1569302403418
 21
222.4045100972141
 31
0.0
  0
LINE
  5
A96
330
882
100
AcDbEntity
  8
0
 62
     0
370
    -2
100
AcDbLine
 10
972.6569302403419
 20
221.1545100972141
 30
0.0
 11
970.1569302403418
 21
221.1545100972141
 31
0.0
  0
LINE
  5
A97
330
882
100
AcDbEntity
  8
0
 62
     0
370
    -2
100
AcDbLine
 10
981.6569302403419
 20
221.1545100972141
 30
0.0
 11
993.4069302403418
 21
221.1545100972141
 31
0.0
  0
LINE
  5
A98
330
882
100
AcDbEntity
  8
0
 62
     0
370
    -2
100
AcDbLine
 10
975.1569302403419
 20
221.1545100972141
 30
0.0
 11
979.1569302403418
 21
221.1545100972141
 31
0.0
  0
INSERT
  5
A99
330
882
100
AcDbEntity
  8
0
 62
     0
370
    -2
100
AcDbBlockReference
  2
_Open30
 10
975.1569302403419
 20
221.1545100972141
 30
0.0
 41
2.5
 42
2.5
 43
2.5
  0
INSERT
  5
A9A
330
882
100
AcDbEntity
  8
0
 62
     0
370
    -2
100
AcDbBlockReference
  2
_Open30
 10
979.1569302403418
 20
221.1545100972141
 30
0.0
 41
2.5
 42
2.5
 43
2.5
 50
180.0
  0
MTEXT
  5
A9B
330
882
100
AcDbEntity
  8
0
 62
     4
100
AcDbMText
 10
988.7819302403419
 20
223.2795100972141
 30
0.0
 40
3.0
 41
0.0
 71
     5
 72
     1
  1
t=4
 73
     1
 44
1.0
1001
ACAD
1000
MTEXTBEGIN
1070
    73
1070
     1
1070
    44
1040
1.0
1070
    74
1070
     0
1000
MTEXTEND
  0
POINT
  5
A9C
330
882
100
AcDbEntity
  8
Defpoints
 62
     0
100
AcDbPoint
 10
975.1569302403419
 20
204.8253395822994
 30
0.0
  0
POINT
  5
A9D
330
882
100
AcDbEntity
  8
Defpoints
 62
     0
100
AcDbPoint
 10
979.1569302403418
 20
204.8253395822994
 30
0.0
  0
POINT
  5
A9E
330
882
100
AcDbEntity
  8
Defpoints
 62
     0
100
AcDbPoint
 10
979.1569302403418
 20
221.1545100972141
 30
0.0
  0
ENDBLK
  5
884
330
882
100
AcDbEntity
  8
0
100
AcDbBlockEnd
  0
ENDSEC
  0
SECTION
  2
ENTITIES
  0
LINE
  5
822
330
1F
100
AcDbEntity
  8
0
 62
     3
100
AcDbLine
 10
955.1666407252822
 20
101.8253395822994
 30
0.0
 11
850.1666407252821
 21
101.8253395822994
 31
0.0
  0
LINE
  5
823
330
1F
100
AcDbEntity
  8
0
 62
     3
100
AcDbLine
 10
955.1666407252822
 20
204.8253395822994
 30
0.0
 11
850.1666407252821
 21
204.8253395822994
 31
0.0
  0
LINE
  5
824
330
1F
100
AcDbEntity
  8
0
 62
     3
100
AcDbLine
 10
848.1666407252822
 20
202.8253395822994
 30
0.0
 11
848.1666407252822
 21
103.8253395822994
 31
0.0
  0
LINE
  5
825
330
1F
100
AcDbEntity
  8
0
 62
     3
100
AcDbLine
 10
957.1666407252822
 20
202.8253395822994
 30
0.0
 11
957.1666407252822
 21
103.8253395822994
 31
0.0
  0
LINE
  5
826
330
1F
100
AcDbEntity
  8
0
 62
     3
100
AcDbLine
 10
975.1569302403419
 20
101.8253395822994
 30
0.0
 11
975.1569302403419
 21
204.8253395822994
 31
0.0
  0
LINE
  5
827
330
1F
100
AcDbEntity
  8
0
 62
     3
100
AcDbLine
 10
979.1569302403418
 20
101.8253395822994
 30
0.0
 11
979.1569302403418
 21
204.8253395822994
 31
0.0
  0
LINE
  5
828
330
1F
100
AcDbEntity
  8
0
 62
     3
100
AcDbLine
 10
979.1569302403418
 20
202.8253395822994
 30
0.0
 11
975.1569302403419
 21
202.8253395822994
 31
0.0
  0
LINE
  5
829
330
1F
100
AcDbEntity
  8
0
 62
     3
100
AcDbLine
 10
979.1569302403418
 20
103.8253395822994
 30
0.0
 11
975.1569302403419
 21
103.8253395822994
 31
0.0
  0
LINE
  5
82A
330
1F
100
AcDbEntity
  8
0
 62
     3
100
AcDbLine
 10
975.1569302403419
 20
101.8253395822994
 30
0.0
 11
979.1569302403418
 21
101.8253395822994
 31
0.0
  0
LINE
  5
82B
330
1F
100
AcDbEntity
  8
0
 62
     3
100
AcDbLine
 10
975.1569302403419
 20
204.8253395822994
 30
0.0
 11
979.1569302403418
 21
204.8253395822994
 31
0.0
  0
LINE
  5
832
330
1F
100
AcDbEntity
  8
0
 62
     3
100
AcDbLine
 10
955.1666407252822
 20
204.8253395822994
 30
0.0
 11
957.1666407252822
 21
202.8253395822994
 31
0.0
  0
LINE
  5
833
330
1F
100
AcDbEntity
  8
0
 62
     3
100
AcDbLine
 10
850.1666407252821
 20
204.8253395822994
 30
0.0
 11
848.1666407252822
 21
202.8253395822994
 31
0.0
  0
LINE
  5
834
330
1F
100
AcDbEntity
  8
0
 62
     3
100
AcDbLine
 10
848.1666407252822
 20
103.8253395822994
 30
0.0
 11
850.1666407252821
 21
101.8253395822994
 31
0.0
  0
LINE
  5
835
330
1F
100
AcDbEntity
  8
0
 62
     3
100
AcDbLine
 10
955.1666407252822
 20
101.8253395822994
 30
0.0
 11
957.1666407252822
 21
103.8253395822994
 31
0.0
  0
LINE
  5
8B3
330
1F
100
AcDbEntity
  8
0
 62
     3
100
AcDbLine
 10
809.7537139416022
 20
146.3624419978891
 30
0.0
 11
809.2657871116022
 21
146.3624419978891
 31
0.0
  0
LINE
  5
8B4
330
1F
100
AcDbEntity
  8
0
 62
     3
100
AcDbLine
 10
821.2657871116023
 20
284.8624419978892
 30
0.0
 11
821.2657871116023
 21
7.862441997889161
 31
0.0
  0
LINE
  5
8B6
330
1F
100
AcDbEntity
  8
0
 62
     3
100
AcDbLine
 10
1001.265787111602
 20
7.862441997889161
 30
0.0
 11
1001.265787111602
 21
284.8624419978892
 31
0.0
  0
LINE
  5
8B7
330
1F
100
AcDbEntity
  8
0
 62
     3
100
AcDbLine
 10
821.2657871116023
 20
7.862441997889161
 30
0.0
 11
1001.265787111602
 21
7.862441997889161
 31
0.0
  0
LINE
  5
8B8
330
1F
100
AcDbEntity
  8
0
 62
     3
100
AcDbLine
 10
858.3501391316023
 20
286.6498860978892
 30
0.0
 11
858.7858870416024
 21
286.4224179578891
 31
0.0
  0
LINE
  5
8B9
330
1F
100
AcDbEntity
  8
0
 62
     3
100
AcDbLine
 10
858.3501391316023
 20
282.9192556178892
 30
0.0
 11
858.7858870416024
 21
283.1467237578891
 31
0.0
  0
LINE
  5
8BA
330
1F
100
AcDbEntity
  8
0
 62
     3
100
AcDbLine
 10
858.7858870416024
 20
286.4224179578891
 30
0.0
 11
858.7858870416024
 21
283.1467237578891
 31
0.0
  0
LINE
  5
8BB
330
1F
100
AcDbEntity
  8
0
 62
     3
100
AcDbLine
 10
859.8894044616024
 20
282.9192556178892
 30
0.0
 11
859.4536565516023
 21
283.1467237578891
 31
0.0
  0
LINE
  5
8BC
330
1F
100
AcDbEntity
  8
0
 62
     3
100
AcDbLine
 10
859.4536565516023
 20
285.1435825678891
 30
0.0
 11
859.4536565516023
 21
283.1467237578891
 31
0.0
  0
LINE
  5
8BD
330
1F
100
AcDbEntity
  8
0
 62
     3
100
AcDbLine
 10
862.4312672416023
 20
286.6498860978892
 30
0.0
 11
861.9955193316025
 21
286.4224179578891
 31
0.0
  0
LINE
  5
8BE
330
1F
100
AcDbEntity
  8
0
 62
     3
100
AcDbLine
 10
860.8920019116023
 20
286.6498860978892
 30
0.0
 11
861.3277498216023
 21
286.4224179578891
 31
0.0
  0
LINE
  5
8BF
330
1F
100
AcDbEntity
  8
0
 62
     3
100
AcDbLine
 10
861.3277498216023
 20
286.4224179578891
 30
0.0
 11
861.3277498216023
 21
284.9800808978891
 31
0.0
  0
LINE
  5
8C0
330
1F
100
AcDbEntity
  8
0
 62
     3
100
AcDbLine
 10
861.9955193316025
 20
286.4224179578891
 30
0.0
 11
861.9955193316025
 21
282.7076944778891
 31
0.0
  0
LINE
  5
8C1
330
1F
100
AcDbEntity
  8
0
 62
     3
100
AcDbLine
 10
862.6465644416024
 20
286.6498834678891
 30
0.0
 11
863.0823107816025
 21
286.4224123278892
 31
0.0
  0
LINE
  5
8C2
330
1F
100
AcDbEntity
  8
0
 62
     3
100
AcDbLine
 10
862.6464864716025
 20
282.9193055978891
 30
0.0
 11
863.0822423216025
 21
283.1467585178891
 31
0.0
  0
LINE
  5
8C3
330
1F
100
AcDbEntity
  8
0
 62
     3
100
AcDbLine
 10
863.0823107816025
 20
286.4224123278892
 30
0.0
 11
863.0823107816025
 21
283.1467585178891
 31
0.0
  0
LINE
  5
8C4
330
1F
100
AcDbEntity
  8
0
 62
     3
100
AcDbLine
 10
864.5761008416025
 20
286.6498597978891
 30
0.0
 11
864.1403497516025
 21
286.4223977678891
 31
0.0
  0
LINE
  5
8C5
330
1F
100
AcDbEntity
  8
0
 62
     3
100
AcDbLine
 10
864.1403497516025
 20
286.4223977678891
 30
0.0
 11
864.1403497516025
 21
283.1467439478891
 31
0.0
  0
LINE
  5
8C6
330
1F
100
AcDbEntity
  8
0
 62
     3
100
AcDbLine
 10
864.5761008416025
 20
282.9192819178892
 30
0.0
 11
864.1403497516025
 21
283.1467439478891
 31
0.0
  0
LINE
  5
8C7
330
1F
100
AcDbEntity
  8
0
 62
     3
100
AcDbLine
 10
868.2663542816023
 20
286.6498187978891
 30
0.0
 11
868.7021014016025
 21
286.4223491578891
 31
0.0
  0
LINE
  5
8C8
330
1F
100
AcDbEntity
  8
0
 62
     3
100
AcDbLine
 10
868.7021014016025
 20
286.4223491578891
 30
0.0
 11
868.7020442316024
 21
283.1466953478891
 31
0.0
  0
LINE
  5
8C9
330
1F
100
AcDbEntity
  8
0
 62
     3
100
AcDbLine
 10
868.2662891716024
 20
282.9192409178892
 30
0.0
 11
868.7020442316024
 21
283.1466953478891
 31
0.0
  0
LINE
  5
8CA
330
1F
100
AcDbEntity
  8
0
 62
     3
100
AcDbLine
 10
870.2186152416025
 20
286.6498187978891
 30
0.0
 11
869.7828681216023
 21
286.4223491578891
 31
0.0
  0
LINE
  5
8CB
330
1F
100
AcDbEntity
  8
0
 62
     3
100
AcDbLine
 10
870.2186803516022
 20
282.9192409178892
 30
0.0
 11
869.7829252916022
 21
283.1466953478891
 31
0.0
  0
LINE
  5
8CC
330
1F
100
AcDbEntity
  8
0
 62
     3
100
AcDbLine
 10
870.4223431016025
 20
286.6498187978891
 30
0.0
 11
870.8580902316024
 21
286.4223491578891
 31
0.0
  0
LINE
  5
8CD
330
1F
100
AcDbEntity
  8
0
 62
     3
100
AcDbLine
 10
870.4222779916023
 20
282.9192409178892
 30
0.0
 11
870.8580330516022
 21
283.1466953478891
 31
0.0
  0
LINE
  5
8CE
330
1F
100
AcDbEntity
  8
0
 62
     3
100
AcDbLine
 10
872.3746040716022
 20
286.6498187978891
 30
0.0
 11
871.9388569516025
 21
286.4223491578891
 31
0.0
  0
LINE
  5
8CF
330
1F
100
AcDbEntity
  8
0
 62
     3
100
AcDbLine
 10
871.9388569516025
 20
286.4223491578891
 30
0.0
 11
871.9389141216025
 21
283.1466953478891
 31
0.0
  0
LINE
  5
8D0
330
1F
100
AcDbEntity
  8
0
 62
     3
100
AcDbLine
 10
872.3746691816025
 20
282.9192409178892
 30
0.0
 11
871.9389141216025
 21
283.1466953478891
 31
0.0
  0
LINE
  5
8D1
330
1F
100
AcDbEntity
  8
0
 62
     3
100
AcDbLine
 10
870.8580653216023
 20
284.9952160378891
 30
0.0
 11
869.7828930316022
 21
284.9952160378891
 31
0.0
  0
LINE
  5
8D2
330
1F
100
AcDbEntity
  8
0
 62
     3
100
AcDbLine
 10
870.8580579616024
 20
284.5739256778892
 30
0.0
 11
869.7829003816023
 21
284.5739256778892
 31
0.0
  0
LINE
  5
8D3
330
1F
100
AcDbEntity
  8
0
 62
     3
100
AcDbLine
 10
870.8580902316024
 20
286.4223491578891
 30
0.0
 11
870.8580653216023
 21
284.9952160378891
 31
0.0
  0
LINE
  5
8D4
330
1F
100
AcDbEntity
  8
0
 62
     3
100
AcDbLine
 10
870.8580579616024
 20
284.5739256778892
 30
0.0
 11
870.8580330516022
 21
283.1466953478891
 31
0.0
  0
LINE
  5
8D5
330
1F
100
AcDbEntity
  8
0
 62
     3
100
AcDbLine
 10
869.7828681216023
 20
286.4223491578891
 30
0.0
 11
869.7828930316022
 21
284.9952160378891
 31
0.0
  0
LINE
  5
8D6
330
1F
100
AcDbEntity
  8
0
 62
     3
100
AcDbLine
 10
869.7829003816023
 20
284.5739256778892
 30
0.0
 11
869.7829252916022
 21
283.1466953478891
 31
0.0
  0
LINE
  5
8D7
330
1F
100
AcDbEntity
  8
0
 62
     3
100
AcDbLine
 10
872.5815631916022
 20
286.6498187978891
 30
0.0
 11
873.0173103116023
 21
286.4223491578891
 31
0.0
  0
LINE
  5
8D8
330
1F
100
AcDbEntity
  8
0
 62
     3
100
AcDbLine
 10
873.0173103116023
 20
286.4223491578891
 30
0.0
 11
873.0172531416023
 21
283.1466953478891
 31
0.0
  0
LINE
  5
8D9
330
1F
100
AcDbEntity
  8
0
 62
     3
100
AcDbLine
 10
872.5814980816023
 20
282.9192409178892
 30
0.0
 11
873.0172531416023
 21
283.1466953478891
 31
0.0
  0
LINE
  5
8DA
330
1F
100
AcDbEntity
  8
0
 62
     3
100
AcDbLine
 10
874.5110734616025
 20
286.6498187978891
 30
0.0
 11
874.0753263416022
 21
286.4223491578891
 31
0.0
  0
LINE
  5
8DB
330
1F
100
AcDbEntity
  8
0
 62
     3
100
AcDbLine
 10
874.0753263416022
 20
286.4223491578891
 30
0.0
 11
874.0753835116024
 21
283.1466953478891
 31
0.0
  0
LINE
  5
8DC
330
1F
100
AcDbEntity
  8
0
 62
     3
100
AcDbLine
 10
874.5111385716025
 20
282.9192409178892
 30
0.0
 11
874.0753835116024
 21
283.1466953478891
 31
0.0
  0
LINE
  5
8DD
330
1F
100
AcDbEntity
  8
0
 62
     3
100
AcDbLine
 10
874.7254330316025
 20
286.6498187978891
 30
0.0
 11
875.1611801516023
 21
286.4223491578891
 31
0.0
  0
LINE
  5
8DE
330
1F
100
AcDbEntity
  8
0
 62
     3
100
AcDbLine
 10
875.1611801516023
 20
286.4223491578891
 30
0.0
 11
875.1611229816024
 21
283.1466953478891
 31
0.0
  0
LINE
  5
8DF
330
1F
100
AcDbEntity
  8
0
 62
     3
100
AcDbLine
 10
874.7253679216024
 20
282.9192409178892
 30
0.0
 11
875.1611229816024
 21
283.1466953478891
 31
0.0
  0
ARC
  5
8E0
330
1F
100
AcDbEntity
  8
0
 62
     3
100
AcDbCircle
 10
866.8744430116023
 20
284.7939606178892
 30
0.0
 40
2.086285909999999
100
AcDbArc
 50
97.70152350999721
 51
270.0
  0
ARC
  5
8E1
330
1F
100
AcDbEntity
  8
0
 62
     3
100
AcDbCircle
 10
879.7550438516022
 20
284.7730039878892
 30
0.0
 40
2.108943379999999
100
AcDbArc
 50
0.3142502699992948
 51
69.00558244999614
  0
ARC
  5
8E2
330
1F
100
AcDbEntity
  8
0
 62
     3
100
AcDbCircle
 10
880.2157191716023
 20
284.7730039878892
 30
0.0
 40
2.108943379999999
100
AcDbArc
 50
110.9944175499969
 51
148.1166110200035
  0
ARC
  5
8E3
330
1F
100
AcDbEntity
  8
0
 62
     3
100
AcDbCircle
 10
879.7550438516022
 20
284.7961377278892
 30
0.0
 40
2.108943379999999
100
AcDbArc
 50
290.9944175500038
 51
359.6857497300006
  0
ARC
  5
8E4
330
1F
100
AcDbEntity
  8
0
 62
     3
100
AcDbCircle
 10
880.2157191716023
 20
284.7961377278892
 30
0.0
 40
2.108943379999999
100
AcDbArc
 50
211.8833889799965
 51
249.0055824499961
  0
ARC
  5
8E5
330
1F
100
AcDbEntity
  8
0
 62
     3
100
AcDbCircle
 10
879.9853815116025
 20
285.6473762478891
 30
0.0
 40
1.214070989999997
100
AcDbArc
 50
64.36517189999968
 51
115.6348281000003
  0
ARC
  5
8E6
330
1F
100
AcDbEntity
  8
0
 62
     3
100
AcDbCircle
 10
879.9853815116025
 20
283.9217654678892
 30
0.0
 40
1.214070989999997
100
AcDbArc
 50
244.3651718999997
 51
295.6348281000003
  0
ARC
  5
8E7
330
1F
100
AcDbEntity
  8
0
 62
     3
100
AcDbCircle
 10
879.9853815116025
 20
285.6704379278891
 30
0.0
 40
0.59585563
100
AcDbArc
 50
19.48660554000285
 51
160.5133944599971
  0
ARC
  5
8E8
330
1F
100
AcDbEntity
  8
0
 62
     3
100
AcDbCircle
 10
879.9853815116025
 20
283.9217654678892
 30
0.0
 40
1.214070989999997
100
AcDbArc
 50
244.3651718999997
 51
295.6348281000003
  0
ARC
  5
8E9
330
1F
100
AcDbEntity
  8
0
 62
     3
100
AcDbCircle
 10
879.9853815116025
 20
283.8987037878892
 30
0.0
 40
0.59585563
100
AcDbArc
 50
199.4866055400028
 51
340.5133944599969
  0
ARC
  5
8EA
330
1F
100
AcDbEntity
  8
0
 62
     3
100
AcDbCircle
 10
875.2429090116024
 20
262.5565110178892
 30
0.0
 40
26.04
100
AcDbArc
 50
69.50571480000146
 51
81.68998806999736
  0
ARC
  5
8EB
330
1F
100
AcDbEntity
  8
0
 62
     3
100
AcDbCircle
 10
875.2429090116024
 20
307.0126306978892
 30
0.0
 40
26.04
100
AcDbArc
 50
278.3100119300026
 51
290.4942851999986
  0
ARC
  5
8EC
330
1F
100
AcDbEntity
  8
0
 62
     3
100
AcDbCircle
 10
883.5511131416025
 20
284.7845708578891
 30
0.0
 40
2.31
100
AcDbArc
 50
290.4942851999986
 51
69.50571480000146
  0
ARC
  5
8ED
330
1F
100
AcDbEntity
  8
0
 62
     3
100
AcDbCircle
 10
856.2511131416025
 20
284.7845708578891
 30
0.0
 40
2.31
100
AcDbArc
 50
110.4942851999985
 51
249.5057147999945
  0
ARC
  5
8EE
330
1F
100
AcDbEntity
  8
0
 62
     3
100
AcDbCircle
 10
864.5593172616024
 20
262.5565110178892
 30
0.0
 40
26.04
100
AcDbArc
 50
98.31001192999607
 51
110.4942851999985
  0
ARC
  5
8EF
330
1F
100
AcDbEntity
  8
0
 62
     3
100
AcDbCircle
 10
864.5593172616024
 20
307.0126306978892
 30
0.0
 40
26.04
100
AcDbArc
 50
249.5057147999945
 51
261.6899880699973
  0
ARC
  5
8F0
330
1F
100
AcDbEntity
  8
0
 62
     3
100
AcDbCircle
 10
869.9011131416025
 20
225.9845708578892
 30
0.0
 40
62.99999987
100
AcDbArc
 50
81.68998806999736
 51
98.31001192999607
  0
ARC
  5
8F1
330
1F
100
AcDbEntity
  8
0
 62
     3
100
AcDbCircle
 10
869.9011131416025
 20
343.5845708578892
 30
0.0
 40
62.99999987
100
AcDbArc
 50
261.6899880699973
 51
278.3100119300026
  0
ARC
  5
8F2
330
1F
100
AcDbEntity
  8
0
 62
     3
100
AcDbCircle
 10
869.9011131416025
 20
225.9845708578892
 30
0.0
 40
62.36999987
100
AcDbArc
 50
81.68998806999736
 51
98.31001192999607
  0
ARC
  5
8F3
330
1F
100
AcDbEntity
  8
0
 62
     3
100
AcDbCircle
 10
869.9011131416025
 20
343.5845708578892
 30
0.0
 40
62.36999987
100
AcDbArc
 50
261.6899880699973
 51
278.3100119300026
  0
ARC
  5
8F4
330
1F
100
AcDbEntity
  8
0
 62
     3
100
AcDbCircle
 10
875.2429090116024
 20
307.0126306978892
 30
0.0
 40
25.41
100
AcDbArc
 50
278.3100119300026
 51
290.4942851999986
  0
ARC
  5
8F5
330
1F
100
AcDbEntity
  8
0
 62
     3
100
AcDbCircle
 10
875.2429090116024
 20
262.5565110178892
 30
0.0
 40
25.41
100
AcDbArc
 50
69.50571480000146
 51
81.68998806999736
  0
ARC
  5
8F6
330
1F
100
AcDbEntity
  8
0
 62
     3
100
AcDbCircle
 10
883.5511131416025
 20
284.7845708578891
 30
0.0
 40
1.679999999999999
100
AcDbArc
 50
290.4942851999986
 51
69.50571480000146
  0
ARC
  5
8F7
330
1F
100
AcDbEntity
  8
0
 62
     3
100
AcDbCircle
 10
856.2511131416025
 20
284.7845708578891
 30
0.0
 40
1.679999999999999
100
AcDbArc
 50
110.4942851999985
 51
249.5057147999945
  0
ARC
  5
8F8
330
1F
100
AcDbEntity
  8
0
 62
     3
100
AcDbCircle
 10
864.5593172616024
 20
262.5565110178892
 30
0.0
 40
25.41
100
AcDbArc
 50
98.31001192999607
 51
110.4942851999985
  0
ARC
  5
8F9
330
1F
100
AcDbEntity
  8
0
 62
     3
100
AcDbCircle
 10
864.5593172616024
 20
307.0126306978892
 30
0.0
 40
25.41
100
AcDbArc
 50
249.5057147999945
 51
261.6899880699973
  0
LINE
  5
8FA
330
1F
100
AcDbEntity
  8
0
 62
     3
100
AcDbLine
 10
874.5110742416025
 20
282.7076944778891
 30
0.0
 11
872.5815624116023
 21
282.7076944778891
 31
0.0
  0
LINE
  5
8FB
330
1F
100
AcDbEntity
  8
0
 62
     3
100
AcDbLine
 10
874.5110742416025
 20
282.9192556178892
 30
0.0
 11
874.5110742416025
 21
282.7076944778891
 31
0.0
  0
LINE
  5
8FC
330
1F
100
AcDbEntity
  8
0
 62
     3
100
AcDbLine
 10
872.3746048516025
 20
286.8613485178892
 30
0.0
 11
870.4223423216022
 21
286.8613485178892
 31
0.0
  0
LINE
  5
8FD
330
1F
100
AcDbEntity
  8
0
 62
     3
100
AcDbLine
 10
872.3746048516025
 20
286.8613485178892
 30
0.0
 11
872.3746048516025
 21
286.6498860978892
 31
0.0
  0
LINE
  5
8FE
330
1F
100
AcDbEntity
  8
0
 62
     3
100
AcDbLine
 10
872.3746048516025
 20
282.9192556178892
 30
0.0
 11
872.3746048516025
 21
282.7075957678892
 31
0.0
  0
LINE
  5
8FF
330
1F
100
AcDbEntity
  8
0
 62
     3
100
AcDbLine
 10
872.3746048516025
 20
282.7075957678892
 30
0.0
 11
870.4223423216022
 21
282.7075957678892
 31
0.0
  0
LINE
  5
900
330
1F
100
AcDbEntity
  8
0
 62
     3
100
AcDbLine
 10
874.5110742416025
 20
286.8614472378892
 30
0.0
 11
874.5110742416025
 21
286.6498860978892
 31
0.0
  0
LINE
  5
901
330
1F
100
AcDbEntity
  8
0
 62
     3
100
AcDbLine
 10
874.5110742416025
 20
286.8614472378892
 30
0.0
 11
872.5815624116023
 21
286.8614472378892
 31
0.0
  0
LINE
  5
902
330
1F
100
AcDbEntity
  8
0
 62
     3
100
AcDbLine
 10
872.5815624116023
 20
286.8614472378892
 30
0.0
 11
872.5815624116023
 21
286.6498860978892
 31
0.0
  0
LINE
  5
903
330
1F
100
AcDbEntity
  8
0
 62
     3
100
AcDbLine
 10
874.7254322416024
 20
282.9192556178892
 30
0.0
 11
874.7254322416024
 21
282.7076944778891
 31
0.0
  0
LINE
  5
904
330
1F
100
AcDbEntity
  8
0
 62
     3
100
AcDbLine
 10
876.7097328016022
 20
282.7076944778891
 30
0.0
 11
874.7254322416024
 21
282.7076944778891
 31
0.0
  0
LINE
  5
905
330
1F
100
AcDbEntity
  8
0
 62
     3
100
AcDbLine
 10
876.2191961716025
 20
286.1936777178891
 30
0.0
 11
876.2191961716025
 21
283.3754639978891
 31
0.0
  0
LINE
  5
906
330
1F
100
AcDbEntity
  8
0
 62
     3
100
AcDbLine
 10
876.2191961716025
 20
283.3754639978891
 30
0.0
 11
876.4092451416024
 21
283.3754639978891
 31
0.0
  0
ARC
  5
907
330
1F
100
AcDbEntity
  8
0
 62
     3
100
AcDbCircle
 10
875.4374594016024
 20
284.7845708578891
 30
0.0
 40
1.71170957
100
AcDbArc
 50
304.5919552700023
 51
55.4080447299977
  0
LINE
  5
908
330
1F
100
AcDbEntity
  8
0
 62
     3
100
AcDbLine
 10
876.7097328016022
 20
286.8614472378892
 30
0.0
 11
874.7254322416024
 21
286.8614472378892
 31
0.0
  0
LINE
  5
909
330
1F
100
AcDbEntity
  8
0
 62
     3
100
AcDbLine
 10
874.7254322416024
 20
286.8614472378892
 30
0.0
 11
874.7254322416024
 21
286.6498860978892
 31
0.0
  0
LINE
  5
90A
330
1F
100
AcDbEntity
  8
0
 62
     3
100
AcDbLine
 10
872.5815624116023
 20
282.9192556178892
 30
0.0
 11
872.5815624116023
 21
282.7076944778891
 31
0.0
  0
LINE
  5
90B
330
1F
100
AcDbEntity
  8
0
 62
     3
100
AcDbLine
 10
876.2191961716025
 20
286.1936777178891
 30
0.0
 11
876.4092451416024
 21
286.1936777178891
 31
0.0
  0
LINE
  5
90C
330
1F
100
AcDbEntity
  8
0
 62
     3
100
AcDbLine
 10
864.5760365116023
 20
282.9192556178892
 30
0.0
 11
864.5760328216024
 21
282.7076747078892
 31
0.0
  0
LINE
  5
90D
330
1F
100
AcDbEntity
  8
0
 62
     3
100
AcDbLine
 10
862.6465209816023
 20
282.7077142478891
 30
0.0
 11
864.5760328216024
 21
282.7076805778892
 31
0.0
  0
LINE
  5
90E
330
1F
100
AcDbEntity
  8
0
 62
     3
100
AcDbLine
 10
858.3501391316023
 20
282.7076944778891
 30
0.0
 11
859.8894044616024
 21
282.7076944778891
 31
0.0
  0
ARC
  5
90F
330
1F
100
AcDbEntity
  8
0
 62
     3
100
AcDbCircle
 10
853.3681964516024
 20
284.8334774778892
 30
0.0
 40
14.71356563
100
AcDbArc
 50
353.8660061899995
 51
357.6940342600001
  0
LINE
  5
910
330
1F
100
AcDbEntity
  8
0
 62
     3
100
AcDbLine
 10
867.0847763116025
 20
284.2451098278892
 30
0.0
 11
868.0698472016024
 21
284.2414649478892
 31
0.0
  0
LINE
  5
912
330
1F
100
AcDbEntity
  8
0
 62
     3
100
AcDbLine
 10
867.0887547316024
 20
285.3203245678892
 30
0.0
 11
868.0738256116022
 21
285.3166796978892
 31
0.0
  0
ARC
  5
913
330
1F
100
AcDbEntity
  8
0
 62
     3
100
AcDbCircle
 10
853.3681964516024
 20
284.8334774778892
 30
0.0
 40
14.71356563
100
AcDbArc
 50
1.88196573999942
 51
5.709993809999878
  0
LINE
  5
914
330
1F
100
AcDbEntity
  8
0
 62
     3
100
AcDbLine
 10
864.5761053116023
 20
286.8614274678892
 30
0.0
 11
864.5761016216024
 21
286.6498860978892
 31
0.0
  0
LINE
  5
915
330
1F
100
AcDbEntity
  8
0
 62
     3
100
AcDbLine
 10
862.6465934816023
 20
286.8614670078891
 30
0.0
 11
864.5761053116023
 21
286.8614333278891
 31
0.0
  0
LINE
  5
916
330
1F
100
AcDbEntity
  8
0
 62
     3
100
AcDbLine
 10
862.6465246716023
 20
282.9192556178892
 30
0.0
 11
862.6465209816023
 21
282.7077142478891
 31
0.0
  0
LINE
  5
917
330
1F
100
AcDbEntity
  8
0
 62
     3
100
AcDbLine
 10
862.6465934816023
 20
286.8614670078891
 30
0.0
 11
862.6465897916023
 21
286.6498860978892
 31
0.0
  0
LINE
  5
918
330
1F
100
AcDbEntity
  8
0
 62
     3
100
AcDbLine
 10
859.8894044616024
 20
282.9192556178892
 30
0.0
 11
859.8894044616024
 21
282.7076944778891
 31
0.0
  0
LINE
  5
919
330
1F
100
AcDbEntity
  8
0
 62
     3
100
AcDbLine
 10
859.4536565516023
 20
285.1435825678891
 30
0.0
 11
860.9760866116022
 21
282.7076944778891
 31
0.0
  0
LINE
  5
91A
330
1F
100
AcDbEntity
  8
0
 62
     3
100
AcDbLine
 10
860.9760866116022
 20
282.7076944778891
 30
0.0
 11
861.9955193316025
 21
282.7076944778891
 31
0.0
  0
LINE
  5
91B
330
1F
100
AcDbEntity
  8
0
 62
     3
100
AcDbLine
 10
862.4312672416023
 20
286.8614472378892
 30
0.0
 11
862.4312672416023
 21
286.6498860978892
 31
0.0
  0
LINE
  5
91C
330
1F
100
AcDbEntity
  8
0
 62
     3
100
AcDbLine
 10
860.8920019116023
 20
286.8614472378892
 30
0.0
 11
862.4312672416023
 21
286.8614472378892
 31
0.0
  0
LINE
  5
91D
330
1F
100
AcDbEntity
  8
0
 62
     3
100
AcDbLine
 10
860.8920019116023
 20
286.8614472378892
 30
0.0
 11
860.8920019116023
 21
286.6498860978892
 31
0.0
  0
LINE
  5
91E
330
1F
100
AcDbEntity
  8
0
 62
     3
100
AcDbLine
 10
861.3277498216023
 20
284.9800808978891
 30
0.0
 11
860.0931031516024
 21
286.8614472378892
 31
0.0
  0
LINE
  5
91F
330
1F
100
AcDbEntity
  8
0
 62
     3
100
AcDbLine
 10
858.3501391316023
 20
286.8614472378892
 30
0.0
 11
860.0931031516024
 21
286.8614472378892
 31
0.0
  0
LINE
  5
920
330
1F
100
AcDbEntity
  8
0
 62
     3
100
AcDbLine
 10
868.2663534916024
 20
286.8613485178892
 30
0.0
 11
870.2186160316022
 21
286.8613485178892
 31
0.0
  0
LINE
  5
921
330
1F
100
AcDbEntity
  8
0
 62
     3
100
AcDbLine
 10
868.2663534916024
 20
286.6498860978892
 30
0.0
 11
868.2663534916024
 21
286.8613485178892
 31
0.0
  0
LINE
  5
922
330
1F
100
AcDbEntity
  8
0
 62
     3
100
AcDbLine
 10
868.2663534916024
 20
282.7075957678892
 30
0.0
 11
868.2663534916024
 21
282.9192556178892
 31
0.0
  0
LINE
  5
923
330
1F
100
AcDbEntity
  8
0
 62
     3
100
AcDbLine
 10
868.2663534916024
 20
282.7075957678892
 30
0.0
 11
870.2186160316022
 21
282.7075957678892
 31
0.0
  0
LINE
  5
924
330
1F
100
AcDbEntity
  8
0
 62
     3
100
AcDbLine
 10
870.4223423216022
 20
282.9192556178892
 30
0.0
 11
870.4223423216022
 21
282.7075957678892
 31
0.0
  0
LINE
  5
925
330
1F
100
AcDbEntity
  8
0
 62
     3
100
AcDbLine
 10
870.2186160316022
 20
282.9192556178892
 30
0.0
 11
870.2186160316022
 21
282.7075957678892
 31
0.0
  0
LINE
  5
926
330
1F
100
AcDbEntity
  8
0
 62
     3
100
AcDbLine
 10
870.2186160316022
 20
286.6498860978892
 30
0.0
 11
870.2186160316022
 21
286.8613485178892
 31
0.0
  0
LINE
  5
927
330
1F
100
AcDbEntity
  8
0
 62
     3
100
AcDbLine
 10
870.4223423216022
 20
286.6498860978892
 30
0.0
 11
870.4223423216022
 21
286.8613485178892
 31
0.0
  0
LINE
  5
928
330
1F
100
AcDbEntity
  8
0
 62
     3
100
AcDbLine
 10
858.3501391316023
 20
282.9192556178892
 30
0.0
 11
858.3501391316023
 21
282.7076944778891
 31
0.0
  0
LINE
  5
929
330
1F
100
AcDbEntity
  8
0
 62
     3
100
AcDbLine
 10
858.3501391316023
 20
286.8614472378892
 30
0.0
 11
858.3501391316023
 21
286.6498860978892
 31
0.0
  0
ARC
  5
92A
330
1F
100
AcDbEntity
  8
0
 62
     3
100
AcDbCircle
 10
876.9197328016025
 20
285.2203187678891
 30
0.0
 40
1.641128469999999
100
AcDbArc
 50
17.30874898000033
 51
23.76507095999699
  0
ARC
  5
92B
330
1F
100
AcDbEntity
  8
0
 62
     3
100
AcDbCircle
 10
875.5214594016022
 20
284.7845708578891
 30
0.0
 40
3.105725599999998
100
AcDbArc
 50
342.6912510199997
 51
17.3085664400021
  0
ARC
  5
92C
330
1F
100
AcDbEntity
  8
0
 62
     3
100
AcDbCircle
 10
876.9197328016025
 20
284.3488229578892
 30
0.0
 40
1.641128469999999
100
AcDbArc
 50
336.2349290399962
 51
342.6912510199997
  0
ARC
  5
92D
330
1F
100
AcDbEntity
  8
0
 62
     3
100
AcDbCircle
 10
876.7097328016022
 20
285.2203187678891
 30
0.0
 40
1.641128469999999
100
AcDbArc
 50
17.30874898000033
 51
90.0
  0
ARC
  5
92E
330
1F
100
AcDbEntity
  8
0
 62
     3
100
AcDbCircle
 10
875.3114594016023
 20
284.7845708578891
 30
0.0
 40
3.105725599999998
100
AcDbArc
 50
342.6912510199997
 51
17.3085664400021
  0
ARC
  5
92F
330
1F
100
AcDbEntity
  8
0
 62
     3
100
AcDbCircle
 10
876.7097328016022
 20
284.3488229578892
 30
0.0
 40
1.641128469999999
100
AcDbArc
 50
270.0
 51
342.6912510199997
  0
ARC
  5
930
330
1F
100
AcDbEntity
  8
0
 62
     3
100
AcDbCircle
 10
866.5857924316023
 20
284.7845708578891
 30
0.0
 40
2.076876379999998
100
AcDbArc
 50
46.75287961000136
 51
89.74999828999569
  0
ARC
  5
931
330
1F
100
AcDbEntity
  8
0
 62
     3
100
AcDbCircle
 10
866.5857924316023
 20
284.7845708578891
 30
0.0
 40
2.076876379999998
100
AcDbArc
 50
273.976333149997
 51
312.8231203899985
  0
ARC
  5
932
330
1F
100
AcDbEntity
  8
0
 62
     3
100
AcDbCircle
 10
878.0276003716023
 20
284.7525093278891
 30
0.0
 40
2.755888999999998
100
AcDbArc
 50
0.6665840599997753
 51
23.90392827000148
  0
ARC
  5
933
330
1F
100
AcDbEntity
  8
0
 62
     3
100
AcDbCircle
 10
881.9431626516022
 20
284.7525093278891
 30
0.0
 40
2.755888999999998
100
AcDbArc
 50
156.0960717299985
 51
179.3334159400002
  0
ARC
  5
934
330
1F
100
AcDbEntity
  8
0
 62
     3
100
AcDbCircle
 10
878.0276003716023
 20
284.8166323878892
 30
0.0
 40
2.755888999999998
100
AcDbArc
 50
336.0960717299985
 51
359.3334159400003
  0
ARC
  5
935
330
1F
100
AcDbEntity
  8
0
 62
     3
100
AcDbCircle
 10
881.9431626516022
 20
284.8166323878892
 30
0.0
 40
2.755888999999998
100
AcDbArc
 50
180.6665840599997
 51
203.9039282700014
  0
LINE
  5
936
330
1F
100
AcDbEntity
  8
0
 62
     3
100
AcDbLine
 10
886.5934497416022
 20
284.8624419978892
 30
0.0
 11
1001.265787111602
 21
284.8624419978892
 31
0.0
  0
LINE
  5
938
330
1F
100
AcDbEntity
  8
0
 62
     3
100
AcDbLine
 10
853.1807032216024
 20
284.8624419978892
 30
0.0
 11
821.2657871116023
 21
284.8624419978892
 31
0.0
  0
LINE
  5
939
330
1F
100
AcDbEntity
  8
0
 62
     3
100
AcDbLine
 10
949.2657871116023
 20
7.862441997889161
 30
0.0
 11
949.2657871116023
 21
47.86244199788916
 31
0.0
  0
LINE
  5
93A
330
1F
100
AcDbEntity
  8
0
 62
     3
100
AcDbLine
 10
962.2657871116023
 20
17.86244199788916
 30
0.0
 11
962.2657871116023
 21
47.86244199788916
 31
0.0
  0
LINE
  5
93B
330
1F
100
AcDbEntity
  8
0
 62
     3
100
AcDbLine
 10
922.2657871116023
 20
17.86244199788916
 30
0.0
 11
922.2657871116023
 21
31.86244199788916
 31
0.0
  0
LINE
  5
93C
330
1F
100
AcDbEntity
  8
0
 62
     3
100
AcDbLine
 10
932.2657871116023
 20
31.86244199788916
 30
0.0
 11
932.2657871116023
 21
7.862441997889161
 31
0.0
  0
LINE
  5
93D
330
1F
100
AcDbEntity
  8
0
 62
     3
100
AcDbLine
 10
903.2657871116024
 20
47.86244199788916
 30
0.0
 11
903.2657871116024
 21
24.86244199788917
 31
0.0
  0
LINE
  5
93F
330
1F
100
AcDbEntity
  8
0
 62
     3
100
AcDbLine
 10
975.2657871116023
 20
24.86244199788917
 30
0.0
 11
975.2657871116023
 21
47.86244199788916
 31
0.0
  0
LINE
  5
940
330
1F
100
AcDbEntity
  8
0
 62
     3
100
AcDbLine
 10
1001.265787111602
 20
47.86244199788916
 30
0.0
 11
890.0203524716026
 21
47.86244199788917
 31
0.0
  0
LINE
  5
941
330
1F
100
AcDbEntity
  8
0
 62
     3
100
AcDbLine
 10
1001.265787111602
 20
38.86244199788917
 30
0.0
 11
890.0203524716022
 21
38.86244199788917
 31
0.0
  0
LINE
  5
942
330
1F
100
AcDbEntity
  8
0
 62
     3
100
AcDbLine
 10
1001.265787111602
 20
24.86244199788917
 30
0.0
 11
890.0203524716022
 21
24.86244199788917
 31
0.0
  0
LINE
  5
943
330
1F
100
AcDbEntity
  8
0
 62
     3
100
AcDbLine
 10
1001.265787111602
 20
17.86244199788916
 30
0.0
 11
889.9623446116024
 21
17.86244199788916
 31
0.0
  0
LINE
  5
944
330
1F
100
AcDbEntity
  8
0
 62
     3
100
AcDbLine
 10
988.2657871116023
 20
24.86244199788917
 30
0.0
 11
988.2657871116023
 21
47.86244199788916
 31
0.0
  0
LINE
  5
945
330
1F
100
AcDbEntity
  8
0
 62
     3
100
AcDbLine
 10
890.0203524716022
 20
47.86244199788917
 30
0.0
 11
890.0203524716022
 21
7.862441997889161
 31
0.0
  0
LINE
  5
946
330
1F
100
AcDbEntity
  8
0
 62
     3
100
AcDbLine
 10
949.2657871116023
 20
31.86244199788916
 30
0.0
 11
890.0203524716022
 21
31.86244199788915
 31
0.0
  0
LINE
  5
947
330
1F
100
AcDbEntity
  8
0
 62
     3
100
AcDbLine
 10
932.5441120416023
 20
12.69530325788915
 30
0.0
 11
949.2657871116023
 21
12.69530325788915
 31
0.0
  0
LINE
  5
948
330
1F
100
AcDbEntity
  8
0
 62
     3
100
AcDbLine
 10
936.2657871116024
 20
38.86244199788917
 30
0.0
 11
944.2657871116024
 21
38.86244199788917
 31
0.0
  0
TEXT
  5
949
330
1F
100
AcDbEntity
  8
0
 62
     3
100
AcDbText
 10
933.4301125249181
 20
26.93553885125452
 30
0.0
 40
2.5
  1
透明
  7
高2.5
100
AcDbText
  0
TEXT
  5
94A
330
1F
100
AcDbEntity
  8
0
 62
     3
100
AcDbText
 10
904.4621558068547
 20
27.16025640287308
 30
0.0
 40
2.5
  1
PC
  7
高2.5
100
AcDbText
  0
TEXT
  5
94B
330
1F
100
AcDbEntity
  8
0
 62
     3
100
AcDbText
 10
904.727063561552
 20
40.17469152164705
 30
0.0
 40
4.5
  1
ポリカカバー
  7
高4.5
100
AcDbText
1001
ACAD
1000
ACAD_MTEXT_DEFINED_HEIGHT_BEGIN
1070
    46
1040
0.0
1000
ACAD_MTEXT_DEFINED_HEIGHT_END
  0
TEXT
  5
94C
330
1F
100
AcDbEntity
  8
0
 62
     3
100
AcDbText
 10
991.3313762050764
 20
44.37613409659276
 30
0.0
 40
2.0
  1
DEF
  7
高2
100
AcDbText
  0
TEXT
  5
94D
330
1F
100
AcDbEntity
  8
0
 62
     3
100
AcDbText
 10
977.3922778513682
 20
44.37613409659267
 30
0.0
 40
2.0
  1
DESN
  7
高2
100
AcDbText
  0
TEXT
  5
94E
330
1F
100
AcDbEntity
  8
0
 62
     3
100
AcDbText
 10
951.1379109113679
 20
44.37613409659276
 30
0.0
 40
2.0
  1
APPD
  7
高2
100
AcDbText
  0
TEXT
  5
94F
330
1F
100
AcDbEntity
  8
0
 62
     3
100
AcDbText
 10
964.2506470116023
 20
44.37613409659276
 30
0.0
 40
2.0
  1
CHCK
  7
高2
100
AcDbText
  0
TEXT
  5
950
330
1F
100
AcDbEntity
  8
0
 62
     3
100
AcDbText
 10
923.1929527507553
 20
22.03084082111988
 30
0.0
 40
2.0
  1
SCALE
 41
0.8
  7
高2
100
AcDbText
  0
TEXT
  5
951
330
1F
100
AcDbEntity
  8
0
 62
     3
100
AcDbText
 10
891.7049311746485
 20
22.0308408211199
 30
0.0
 40
2.0
  1
3AD　ANGLE
 41
1.5
  7
高2
100
AcDbText
  0
TEXT
  5
952
330
1F
100
AcDbEntity
  8
0
 62
     3
100
AcDbText
 10
922.4623584416036
 20
28.78237889007699
 30
0.0
 40
2.0
  1
REMARKS
 41
0.7
  7
高2
100
AcDbText
  0
TEXT
  5
953
330
1F
100
AcDbEntity
  8
0
 62
     3
100
AcDbText
 10
891.4880228216022
 20
28.86244199788917
 30
0.0
 40
2.0
  1
MATERIAL
 41
0.7
  7
高2
100
AcDbText
  0
TEXT
  5
954
330
1F
100
AcDbEntity
  8
0
 62
     3
100
AcDbText
 10
892.0645100243564
 20
35.86244199788915
 30
0.0
 40
2.0
  1
MODEL
  7
高2
100
AcDbText
  0
TEXT
  5
955
330
1F
100
AcDbEntity
  8
0
 62
     3
100
AcDbText
 10
891.7014309056877
 20
44.56946334848818
 30
0.0
 40
2.0
  1
CONPONENTS
 41
0.5
  7
高2
100
AcDbText
  0
TEXT
  5
956
330
1F
100
AcDbEntity
  8
0
 62
     3
100
AcDbText
 10
904.4085463768546
 20
32.94992312570111
 30
0.0
 40
4.5
  1
LEN-PC-F10
  7
高4.5
100
AcDbText
  0
TEXT
  5
957
330
1F
100
AcDbEntity
  8
0
 62
     3
100
AcDbText
 10
952.330832842221
 20
9.097073081373082
 30
0.0
 40
6.299999999999998
  1
LEN-PC-F10
 41
0.8
  7
高6.3
100
AcDbText
1001
ACAD
1000
ACAD_MTEXT_DEFINED_HEIGHT_BEGIN
1070
    46
1040
0.0
1000
ACAD_MTEXT_DEFINED_HEIGHT_END
  0
TEXT
  5
958
330
1F
100
AcDbEntity
  8
0
 62
     3
100
AcDbText
 10
965.8292968619321
 20
18.96333115612217
 30
0.0
 40
3.2
  1
2013.03.27
  7
高3.2
100
AcDbText
1001
ACAD
1000
ACAD_MTEXT_DEFINED_HEIGHT_BEGIN
1070
    46
1040
0.0
1000
ACAD_MTEXT_DEFINED_HEIGHT_END
  0
TEXT
  5
959
330
1F
100
AcDbEntity
  8
0
 62
     3
100
AcDbText
 10
936.0533850062488
 20
18.96335900045703
 30
0.0
 40
3.2
  1
1/1
  7
高3.2
100
AcDbText
  0
TEXT
  5
95A
330
1F
100
AcDbEntity
  8
0
 62
     3
100
AcDbText
 10
933.1307139816022
 20
8.679320171025125
 30
0.0
 40
3.2
  1
ZK-A4Y
 41
0.8
  7
高3.2
100
AcDbText
  0
TEXT
  5
95B
330
1F
100
AcDbEntity
  8
0
 62
     3
100
AcDbText
 10
890.8510535116024
 20
14.38706242007699
 30
0.0
 40
2.0
  1
NICHIDO IND.CO.LTD
 41
1.3
  7
高2
100
AcDbText
  0
TEXT
  5
95C
330
1F
100
AcDbEntity
  8
0
 62
     3
100
AcDbText
 10
892.0325767765596
 20
40.00297020577407
 30
0.0
 40
3.2
  1
品 名
  7
高3.2
100
AcDbText
1001
ACAD
1000
ACAD_MTEXT_DEFINED_HEIGHT_BEGIN
1070
    46
1040
0.0
1000
ACAD_MTEXT_DEFINED_HEIGHT_END
  0
TEXT
  5
95D
330
1F
100
AcDbEntity
  8
0
 62
     3
100
AcDbText
 10
892.0325767765596
 20
32.36244199788915
 30
0.0
 40
3.2
  1
型 式
  7
高3.2
100
AcDbText
1001
ACAD
1000
ACAD_MTEXT_DEFINED_HEIGHT_BEGIN
1070
    46
1040
3.064735913775953
1000
ACAD_MTEXT_DEFINED_HEIGHT_END
  0
TEXT
  5
95E
330
1F
100
AcDbEntity
  8
0
 62
     3
100
AcDbText
 10
892.0325767765596
 20
25.36244199788917
 30
0.0
 40
3.2
  1
材 質
  7
高3.2
100
AcDbText
1001
ACAD
1000
ACAD_MTEXT_DEFINED_HEIGHT_BEGIN
1070
    46
1040
0.0
1000
ACAD_MTEXT_DEFINED_HEIGHT_END
  0
TEXT
  5
95F
330
1F
100
AcDbEntity
  8
0
 62
     3
100
AcDbText
 10
891.7275418265596
 20
18.3298819901354
 30
0.0
 40
3.2
  1
第 三 角 法
  7
高3.2
100
AcDbText
1001
ACAD
1000
ACAD_MTEXT_DEFINED_HEIGHT_BEGIN
1070
    46
1040
0.0
1000
ACAD_MTEXT_DEFINED_HEIGHT_END
  0
TEXT
  5
960
330
1F
100
AcDbEntity
  8
0
 62
     3
100
AcDbText
 10
890.1340744340885
 20
9.002970205774097
 30
0.0
 40
3.2
  1
日動工業株式会社
 41
1.199999999999999
  7
高3.2
100
AcDbText
1001
ACAD
1000
ACAD_MTEXT_DEFINED_HEIGHT_BEGIN
1070
    46
1040
0.0
1000
ACAD_MTEXT_DEFINED_HEIGHT_END
  0
TEXT
  5
961
330
1F
100
AcDbEntity
  8
0
 62
     3
100
AcDbText
 10
923.7696986335667
 20
25.24702053105672
 30
0.0
 40
3.2
  1
備考
  7
高3.2
100
AcDbText
1001
ACAD
1000
ACAD_MTEXT_DEFINED_HEIGHT_BEGIN
1070
    46
1040
0.0
1000
ACAD_MTEXT_DEFINED_HEIGHT_END
  0
TEXT
  5
962
330
1F
100
AcDbEntity
  8
0
 62
     3
100
AcDbText
 10
933.4187560806023
 20
14.00867202345946
 30
0.0
 40
2.5
  1
出図コード
  7
高2.5
100
AcDbText
1001
ACAD
1000
ACAD_MTEXT_DEFINED_HEIGHT_BEGIN
1070
    46
1040
0.0
1000
ACAD_MTEXT_DEFINED_HEIGHT_END
  0
TEXT
  5
963
330
1F
100
AcDbEntity
  8
0
 62
     3
100
AcDbText
 10
923.6109325154794
 20
18.31567690830208
 30
0.0
 40
3.2
  1
尺度
  7
高3.2
100
AcDbText
1001
ACAD
1000
ACAD_MTEXT_DEFINED_HEIGHT_BEGIN
1070
    46
1040
0.0
1000
ACAD_MTEXT_DEFINED_HEIGHT_END
  0
TEXT
  5
964
330
1F
100
AcDbEntity
  8
0
 62
     3
100
AcDbText
 10
950.757193997258
 20
19.44715535641957
 30
0.0
 40
3.2
  1
作成日
  7
高3.2
100
AcDbText
1001
ACAD
1000
ACAD_MTEXT_DEFINED_HEIGHT_BEGIN
1070
    46
1040
0.0
1000
ACAD_MTEXT_DEFINED_HEIGHT_END
  0
TEXT
  5
965
330
1F
100
AcDbEntity
  8
0
 62
     3
100
AcDbText
 10
950.6516680041224
 20
40.00297020577407
 30
0.0
 40
3.2
  1
承 認
  7
高3.2
100
AcDbText
1001
ACAD
1000
ACAD_MTEXT_DEFINED_HEIGHT_BEGIN
1070
    46
1040
0.0
1000
ACAD_MTEXT_DEFINED_HEIGHT_END
  0
TEXT
  5
966
330
1F
100
AcDbEntity
  8
0
 62
     3
100
AcDbText
 10
963.651668004122
 20
40.00297020577407
 30
0.0
 40
3.2
  1
検 図
  7
高3.2
100
AcDbText
1001
ACAD
1000
ACAD_MTEXT_DEFINED_HEIGHT_BEGIN
1070
    46
1040
0.0
1000
ACAD_MTEXT_DEFINED_HEIGHT_END
  0
TEXT
  5
967
330
1F
100
AcDbEntity
  8
0
 62
     3
100
AcDbText
 10
976.651668004122
 20
40.00297020577407
 30
0.0
 40
3.2
  1
設 計
  7
高3.2
100
AcDbText
1001
ACAD
1000
ACAD_MTEXT_DEFINED_HEIGHT_BEGIN
1070
    46
1040
0.0
1000
ACAD_MTEXT_DEFINED_HEIGHT_END
  0
TEXT
  5
968
330
1F
100
AcDbEntity
  8
0
 62
     3
100
AcDbText
 10
989.9523045241222
 20
40.00297020577407
 30
0.0
 40
3.2
  1
製 図
  7
高3.2
100
AcDbText
1001
ACAD
1000
ACAD_MTEXT_DEFINED_HEIGHT_BEGIN
1070
    46
1040
0.0
1000
ACAD_MTEXT_DEFINED_HEIGHT_END
  0
TEXT
  5
969
330
1F
100
AcDbEntity
  8
0
 62
     3
100
AcDbText
 10
988.7657871116022
 20
275.3624419978891
 30
0.0
 40
3.2
  1
担　当
  7
高3.2
100
AcDbText
  0
TEXT
  5
96A
330
1F
100
AcDbEntity
  8
0
 62
     3
100
AcDbText
 10
944.7657871116023
 20
275.3624419978891
 30
0.0
 40
3.2
  1
変更・追記内容
  7
高3.2
100
AcDbText
  0
TEXT
  5
96B
330
1F
100
AcDbEntity
  8
0
 62
     3
100
AcDbText
 10
919.8793021119417
 20
270.6919034879809
 30
0.0
 40
2.0
  1
1
  7
高2
100
AcDbText
  0
TEXT
  5
96C
330
1F
100
AcDbEntity
  8
0
 62
     3
100
AcDbText
 10
919.5707906351843
 20
265.522086775708
 30
0.0
 40
2.0
  1
2
  7
高2
100
AcDbText
  0
TEXT
  5
96D
330
1F
100
AcDbEntity
  8
0
 62
     3
100
AcDbText
 10
926.7657871116023
 20
275.3624419978891
 30
0.0
 40
3.2
  1
日　付
  7
高3.2
100
AcDbText
  0
TEXT
  5
96E
330
1F
100
AcDbEntity
  8
0
 62
     3
100
AcDbText
 10
926.7657871116023
 20
280.3624419978892
 30
0.0
 40
3.2
  1
図　　　　面　　　　略　　　　歴
  7
高3.2
100
AcDbText
  0
TEXT
  5
96F
330
1F
100
AcDbEntity
  8
0
 62
     3
100
AcDbText
 10
916.7657871116023
 20
275.3624419978891
 30
0.0
 40
3.2
  1
記号
  7
高3.2
100
AcDbText
  0
LINE
  5
970
330
1F
100
AcDbEntity
  8
0
 62
     7
100
AcDbLine
 10
920.2657871116024
 20
268.6533379978893
 30
0.0
 11
918.3657871116023
 21
265.3624419978892
 31
0.0
  0
LINE
  5
971
330
1F
100
AcDbEntity
  8
0
 62
     7
100
AcDbLine
 10
920.2657871116024
 20
268.6533379978893
 30
0.0
 11
922.1657871116022
 21
265.3624419978892
 31
0.0
  0
LINE
  5
972
330
1F
100
AcDbEntity
  8
0
 62
     7
100
AcDbLine
 10
918.3657871116023
 20
265.3624419978892
 30
0.0
 11
922.1657871116022
 21
265.3624419978892
 31
0.0
  0
LINE
  5
973
330
1F
100
AcDbEntity
  8
0
 62
     7
100
AcDbLine
 10
920.2657871116024
 20
273.6533389978892
 30
0.0
 11
918.3657871116023
 21
270.3624419978892
 31
0.0
  0
LINE
  5
974
330
1F
100
AcDbEntity
  8
0
 62
     7
100
AcDbLine
 10
920.2657871116024
 20
273.6533389978892
 30
0.0
 11
922.1657871116022
 21
270.3624419978892
 31
0.0
  0
LINE
  5
975
330
1F
100
AcDbEntity
  8
0
 62
     7
100
AcDbLine
 10
918.3657871116023
 20
270.3624419978892
 30
0.0
 11
922.1657871116022
 21
270.3624419978892
 31
0.0
  0
LINE
  5
976
330
1F
100
AcDbEntity
  8
0
 62
     3
100
AcDbLine
 10
915.2657871116023
 20
279.8624419978892
 30
0.0
 11
1001.265787111602
 21
279.8624419978892
 31
0.0
  0
LINE
  5
977
330
1F
100
AcDbEntity
  8
0
 62
     3
100
AcDbLine
 10
915.2657871116023
 20
274.8624419978892
 30
0.0
 11
1001.265787111602
 21
274.8624419978892
 31
0.0
  0
LINE
  5
978
330
1F
100
AcDbEntity
  8
0
 62
     7
100
AcDbLine
 10
915.2657871116023
 20
269.8624419978892
 30
0.0
 11
1001.265787111602
 21
269.8624419978892
 31
0.0
  0
LINE
  5
979
330
1F
100
AcDbEntity
  8
0
 62
     3
100
AcDbLine
 10
915.2657871116023
 20
264.8624419978891
 30
0.0
 11
1001.265787111602
 21
264.8624419978891
 31
0.0
  0
LINE
  5
97A
330
1F
100
AcDbEntity
  8
0
 62
     7
100
AcDbLine
 10
987.2657871116023
 20
264.8624419978891
 30
0.0
 11
987.2657871116023
 21
279.8624419978892
 31
0.0
  0
LINE
  5
97B
330
1F
100
AcDbEntity
  8
0
 62
     7
100
AcDbLine
 10
943.2657871116022
 20
264.8624419978891
 30
0.0
 11
943.2657871116022
 21
279.8624419978892
 31
0.0
  0
LINE
  5
97C
330
1F
100
AcDbEntity
  8
0
 62
     7
100
AcDbLine
 10
925.2657871116023
 20
264.8624419978891
 30
0.0
 11
925.2657871116023
 21
279.8624419978892
 31
0.0
  0
LINE
  5
97D
330
1F
100
AcDbEntity
  8
0
 62
     3
100
AcDbLine
 10
915.2657871116023
 20
264.8624419978891
 30
0.0
 11
915.2657871116023
 21
284.8624419978892
 31
0.0
  0
TEXT
  5
988
330
1F
100
AcDbEntity
  8
0
100
AcDbText
 10
993.6321490944873
 20
28.82776208496171
 30
0.0
 40
3.2
  1
I
  7
高3.2
100
AcDbText
  0
LINE
  5
989
330
1F
100
AcDbEntity
  8
0
 62
     3
100
AcDbLine
 10
1001.265787111602
 20
53.86244199788918
 30
0.0
 11
949.2657871116026
 21
53.86244199788919
 31
0.0
  0
TEXT
  5
98A
330
1F
100
AcDbEntity
  8
0
 62
     3
100
AcDbText
 10
978.7027776512127
 20
48.38071184819842
 30
0.0
 40
4.5
  1
55184
  7
高4.5
100
AcDbText
  0
TEXT
  5
98B
330
1F
100
AcDbEntity
  8
0
 62
     3
100
AcDbText
 10
952.6467239721808
 20
48.38071184819842
 30
0.0
 40
4.5
  1
コード
  7
高4.5
100
AcDbText
  0
LINE
  5
AA0
330
1F
100
AcDbEntity
  8
0
 62
     3
100
AcDbLine
 10
975.2657871116023
 20
47.86244199788916
 30
0.0
 11
975.2657871116023
 21
53.86244199788918
 31
0.0
  0
LINE
  5
AA1
330
1F
100
AcDbEntity
  8
0
 62
     3
100
AcDbLine
 10
949.2657871116023
 20
47.86244199788916
 30
0.0
 11
949.2657871116023
 21
53.86244199788918
 31
0.0
  0
LINE
  5
AE5
330
1F
100
AcDbEntity
  8
0
100
AcDbLine
 10
975.1569302403419
 20
205.0753395822994
 30
0.0
 11
975.1569302403419
 21
222.4045100972141
 31
0.0
  0
LINE
  5
AE6
330
1F
100
AcDbEntity
  8
0
100
AcDbLine
 10
979.1569302403418
 20
205.0753395822994
 30
0.0
 11
979.1569302403418
 21
222.4045100972141
 31
0.0
  0
LINE
  5
AE7
330
1F
100
AcDbEntity
  8
0
100
AcDbLine
 10
972.6569302403419
 20
221.1545100972141
 30
0.0
 11
970.1569302403418
 21
221.1545100972141
 31
0.0
  0
LINE
  5
AE8
330
1F
100
AcDbEntity
  8
0
100
AcDbLine
 10
981.6569302403419
 20
221.1545100972141
 30
0.0
 11
993.4069302403418
 21
221.1545100972141
 31
0.0
  0
LINE
  5
AE9
330
1F
100
AcDbEntity
  8
0
100
AcDbLine
 10
975.1569302403419
 20
221.1545100972141
 30
0.0
 11
979.1569302403418
 21
221.1545100972141
 31
0.0
  0
LINE
  5
AED
330
1F
100
AcDbEntity
  8
0
100
AcDbLine
 10
955.4166407252822
 20
204.8253395822994
 30
0.0
 11
967.3784920437132
 21
204.8253395822994
 31
0.0
  0
LINE
  5
AEE
330
1F
100
AcDbEntity
  8
0
100
AcDbLine
 10
955.4166407252822
 20
101.8253395822994
 30
0.0
 11
967.3784920437132
 21
101.8253395822994
 31
0.0
  0
LINE
  5
AEF
330
1F
100
AcDbEntity
  8
0
100
AcDbLine
 10
966.1284920437132
 20
202.3253395822994
 30
0.0
 11
966.1284920437132
 21
104.3253395822994
 31
0.0
  0
LINE
  5
AF3
330
1F
100
AcDbEntity
  8
0
100
AcDbLine
 10
957.1666407252822
 20
203.0753395822994
 30
0.0
 11
957.1666407252822
 21
222.516778114596
 31
0.0
  0
LINE
  5
AF4
330
1F
100
AcDbEntity
  8
0
100
AcDbLine
 10
848.1666407252822
 20
203.0753395822994
 30
0.0
 11
848.1666407252822
 21
222.516778114596
 31
0.0
  0
LINE
  5
AF5
330
1F
100
AcDbEntity
  8
0
100
AcDbLine
 10
954.6666407252823
 20
221.266778114596
 30
0.0
 11
850.6666407252822
 21
221.266778114596
 31
0.0
  0
LINE
  5
AF9
330
1F
100
AcDbEntity
  8
0
 62
     3
100
AcDbLine
 10
867.0887547316024
 20
285.3203245678892
 30
0.0
 11
867.0701272016025
 21
285.4395923378892
 31
0.0
  0
LINE
  5
AFA
330
1F
100
AcDbEntity
  8
0
 62
     3
100
AcDbLine
 10
867.0701272016025
 20
285.4395923378892
 30
0.0
 11
867.0477560216024
 21
285.5537971178892
 31
0.0
  0
LINE
  5
AFB
330
1F
100
AcDbEntity
  8
0
 62
     3
100
AcDbLine
 10
867.0477560216024
 20
285.5537971178892
 30
0.0
 11
867.0218140916023
 21
285.6620561778892
 31
0.0
  0
LINE
  5
AFC
330
1F
100
AcDbEntity
  8
0
 62
     3
100
AcDbLine
 10
867.0218140916023
 20
285.6620561778892
 30
0.0
 11
866.9925019516025
 21
285.7635327278891
 31
0.0
  0
LINE
  5
AFD
330
1F
100
AcDbEntity
  8
0
 62
     3
100
AcDbLine
 10
866.9925019516025
 20
285.7635327278891
 30
0.0
 11
866.9600461416022
 21
285.8574424078891
 31
0.0
  0
LINE
  5
AFE
330
1F
100
AcDbEntity
  8
0
 62
     3
100
AcDbLine
 10
866.9600461416022
 20
285.8574424078891
 30
0.0
 11
866.9246975516022
 21
285.9430593478892
 31
0.0
  0
LINE
  5
AFF
330
1F
100
AcDbEntity
  8
0
 62
     3
100
AcDbLine
 10
866.9246975516022
 20
285.9430593478892
 30
0.0
 11
866.8867294016022
 21
286.0197217578892
 31
0.0
  0
LINE
  5
B00
330
1F
100
AcDbEntity
  8
0
 62
     3
100
AcDbLine
 10
866.8867294016022
 20
286.0197217578892
 30
0.0
 11
866.8464351516025
 21
286.0868370978892
 31
0.0
  0
LINE
  5
B01
330
1F
100
AcDbEntity
  8
0
 62
     3
100
AcDbLine
 10
866.8464351516025
 20
286.0868370978892
 30
0.0
 11
866.8041262816023
 21
286.1438865878891
 31
0.0
  0
LINE
  5
B02
330
1F
100
AcDbEntity
  8
0
 62
     3
100
AcDbLine
 10
866.8041262816023
 20
286.1438865878891
 30
0.0
 11
866.7601297916023
 21
286.1904292578891
 31
0.0
  0
LINE
  5
B03
330
1F
100
AcDbEntity
  8
0
 62
     3
100
AcDbLine
 10
866.7601297916023
 20
286.1904292578891
 30
0.0
 11
866.7147857716024
 21
286.2261053778892
 31
0.0
  0
LINE
  5
B04
330
1F
100
AcDbEntity
  8
0
 62
     3
100
AcDbLine
 10
866.7147857716024
 20
286.2261053778892
 30
0.0
 11
866.6684447016022
 21
286.2506391678892
 31
0.0
  0
LINE
  5
B05
330
1F
100
AcDbEntity
  8
0
 62
     3
100
AcDbLine
 10
866.6684447016022
 20
286.2506391678892
 30
0.0
 11
866.6214647616023
 21
286.2638410178892
 31
0.0
  0
LINE
  5
B06
330
1F
100
AcDbEntity
  8
0
 62
     3
100
AcDbLine
 10
866.6214647616023
 20
286.2638410178892
 30
0.0
 11
866.5742091016024
 21
286.2656088578892
 31
0.0
  0
LINE
  5
B07
330
1F
100
AcDbEntity
  8
0
 62
     3
100
AcDbLine
 10
866.5742091016024
 20
286.2656088578892
 30
0.0
 11
866.5270429716024
 21
286.2559290478891
 31
0.0
  0
LINE
  5
B08
330
1F
100
AcDbEntity
  8
0
 62
     3
100
AcDbLine
 10
866.5270429716024
 20
286.2559290478891
 30
0.0
 11
866.4803309416024
 21
286.2348763878891
 31
0.0
  0
LINE
  5
B09
330
1F
100
AcDbEntity
  8
0
 62
     3
100
AcDbLine
 10
866.4803309416024
 20
286.2348763878891
 30
0.0
 11
866.4344340816024
 21
286.2026136178891
 31
0.0
  0
LINE
  5
B0A
330
1F
100
AcDbEntity
  8
0
 62
     3
100
AcDbLine
 10
866.4344340816024
 20
286.2026136178891
 30
0.0
 11
866.3897071416025
 21
286.1593901078892
 31
0.0
  0
LINE
  5
B0B
330
1F
100
AcDbEntity
  8
0
 62
     3
100
AcDbLine
 10
866.3897071416025
 20
286.1593901078892
 30
0.0
 11
866.3464958316025
 21
286.1055399478892
 31
0.0
  0
LINE
  5
B0C
330
1F
100
AcDbEntity
  8
0
 62
     3
100
AcDbLine
 10
866.3464958316025
 20
286.1055399478892
 30
0.0
 11
866.3051341716025
 21
286.0414793778892
 31
0.0
  0
LINE
  5
B0D
330
1F
100
AcDbEntity
  8
0
 62
     3
100
AcDbLine
 10
866.3051341716025
 20
286.0414793778892
 30
0.0
 11
866.2659418516025
 21
285.9677035578892
 31
0.0
  0
LINE
  5
B0E
330
1F
100
AcDbEntity
  8
0
 62
     3
100
AcDbLine
 10
866.2659418516025
 20
285.9677035578892
 30
0.0
 11
866.2292218116023
 21
285.8847827278891
 31
0.0
  0
LINE
  5
B0F
330
1F
100
AcDbEntity
  8
0
 62
     3
100
AcDbLine
 10
866.2292218116023
 20
285.8847827278891
 30
0.0
 11
866.1952578816023
 21
285.7933578178892
 31
0.0
  0
LINE
  5
B10
330
1F
100
AcDbEntity
  8
0
 62
     3
100
AcDbLine
 10
866.1952578816023
 20
285.7933578178892
 30
0.0
 11
866.1643125816024
 21
285.6941355178891
 31
0.0
  0
LINE
  5
B11
330
1F
100
AcDbEntity
  8
0
 62
     3
100
AcDbLine
 10
866.1643125816024
 20
285.6941355178891
 30
0.0
 11
866.1366251016023
 21
285.5878827478891
 31
0.0
  0
LINE
  5
B12
330
1F
100
AcDbEntity
  8
0
 62
     3
100
AcDbLine
 10
866.1366251016023
 20
285.5878827478891
 30
0.0
 11
866.1124094516022
 21
285.4754207878892
 31
0.0
  0
LINE
  5
B13
330
1F
100
AcDbEntity
  8
0
 62
     3
100
AcDbLine
 10
866.1124094516022
 20
285.4754207878892
 30
0.0
 11
866.0918528116022
 21
285.3576189078891
 31
0.0
  0
LINE
  5
B14
330
1F
100
AcDbEntity
  8
0
 62
     3
100
AcDbLine
 10
866.0918528116022
 20
285.3576189078891
 30
0.0
 11
866.0751140716023
 21
285.2353876678892
 31
0.0
  0
LINE
  5
B15
330
1F
100
AcDbEntity
  8
0
 62
     3
100
AcDbLine
 10
866.0751140716023
 20
285.2353876678892
 30
0.0
 11
866.0623226116022
 21
285.1096718478892
 31
0.0
  0
LINE
  5
B16
330
1F
100
AcDbEntity
  8
0
 62
     3
100
AcDbLine
 10
866.0623226116022
 20
285.1096718478892
 30
0.0
 11
866.0535773016023
 21
284.9814431678892
 31
0.0
  0
LINE
  5
B17
330
1F
100
AcDbEntity
  8
0
 62
     3
100
AcDbLine
 10
866.0535773016023
 20
284.9814431678892
 30
0.0
 11
866.0489457416025
 21
284.8516927578891
 31
0.0
  0
LINE
  5
B18
330
1F
100
AcDbEntity
  8
0
 62
     3
100
AcDbLine
 10
866.0489457416025
 20
284.8516927578891
 30
0.0
 11
866.0484637316022
 21
284.7214235278892
 31
0.0
  0
LINE
  5
B19
330
1F
100
AcDbEntity
  8
0
 62
     3
100
AcDbLine
 10
866.0484637316022
 20
284.7214235278892
 30
0.0
 11
866.0521349916022
 21
284.5916424078891
 31
0.0
  0
LINE
  5
B1A
330
1F
100
AcDbEntity
  8
0
 62
     3
100
AcDbLine
 10
866.0521349916022
 20
284.5916424078891
 30
0.0
 11
866.0599311516023
 21
284.4633525178892
 31
0.0
  0
LINE
  5
B1B
330
1F
100
AcDbEntity
  8
0
 62
     3
100
AcDbLine
 10
866.0599311516023
 20
284.4633525178892
 30
0.0
 11
866.0717919516024
 21
284.3375454778892
 31
0.0
  0
LINE
  5
B1C
330
1F
100
AcDbEntity
  8
0
 62
     3
100
AcDbLine
 10
866.0717919516024
 20
284.3375454778892
 30
0.0
 11
866.0876257116022
 21
284.2151937078892
 31
0.0
  0
LINE
  5
B1D
330
1F
100
AcDbEntity
  8
0
 62
     3
100
AcDbLine
 10
866.0876257116022
 20
284.2151937078892
 30
0.0
 11
866.1073100316023
 21
284.0972429378892
 31
0.0
  0
LINE
  5
B1E
330
1F
100
AcDbEntity
  8
0
 62
     3
100
AcDbLine
 10
866.1073100316023
 20
284.0972429378892
 30
0.0
 11
866.1306927916022
 21
283.9846048678892
 31
0.0
  0
LINE
  5
B1F
330
1F
100
AcDbEntity
  8
0
 62
     3
100
AcDbLine
 10
866.1306927916022
 20
283.9846048678892
 30
0.0
 11
866.1575932216022
 21
283.8781501078892
 31
0.0
  0
LINE
  5
B20
330
1F
100
AcDbEntity
  8
0
 62
     3
100
AcDbLine
 10
866.1575932216022
 20
283.8781501078892
 30
0.0
 11
866.1878034216025
 21
283.7787015178892
 31
0.0
  0
LINE
  5
B21
330
1F
100
AcDbEntity
  8
0
 62
     3
100
AcDbLine
 10
866.1878034216025
 20
283.7787015178892
 30
0.0
 11
866.2210898716024
 21
283.6870277878892
 31
0.0
  0
LINE
  5
B22
330
1F
100
AcDbEntity
  8
0
 62
     3
100
AcDbLine
 10
866.2210898716024
 20
283.6870277878892
 30
0.0
 11
866.2571952716023
 21
283.6038374878892
 31
0.0
  0
LINE
  5
B23
330
1F
100
AcDbEntity
  8
0
 62
     3
100
AcDbLine
 10
866.2571952716023
 20
283.6038374878892
 30
0.0
 11
866.2958405716024
 21
283.5297736578892
 31
0.0
  0
LINE
  5
B24
330
1F
100
AcDbEntity
  8
0
 62
     3
100
AcDbLine
 10
866.2958405716024
 20
283.5297736578892
 30
0.0
 11
866.3367270516022
 21
283.4654087678891
 31
0.0
  0
LINE
  5
B25
330
1F
100
AcDbEntity
  8
0
 62
     3
100
AcDbLine
 10
866.3367270516022
 20
283.4654087678891
 30
0.0
 11
866.3795386716023
 21
283.4112403178892
 31
0.0
  0
LINE
  5
B26
330
1F
100
AcDbEntity
  8
0
 62
     3
100
AcDbLine
 10
866.3795386716023
 20
283.4112403178892
 30
0.0
 11
866.4239445316026
 21
283.3676869978892
 31
0.0
  0
LINE
  5
B27
330
1F
100
AcDbEntity
  8
0
 62
     3
100
AcDbLine
 10
866.4239445316026
 20
283.3676869978892
 30
0.0
 11
866.4696013816023
 21
283.3350854678892
 31
0.0
  0
LINE
  5
B28
330
1F
100
AcDbEntity
  8
0
 62
     3
100
AcDbLine
 10
866.4696013816023
 20
283.3350854678892
 30
0.0
 11
866.5161563416024
 21
283.3136877078891
 31
0.0
  0
LINE
  5
B29
330
1F
100
AcDbEntity
  8
0
 62
     3
100
AcDbLine
 10
866.5161563416024
 20
283.3136877078891
 30
0.0
 11
866.5632495516025
 21
283.3036591278892
 31
0.0
  0
LINE
  5
B2A
330
1F
100
AcDbEntity
  8
0
 62
     3
100
AcDbLine
 10
866.5632495516025
 20
283.3036591278892
 30
0.0
 11
866.6105170016024
 21
283.3050772278891
 31
0.0
  0
LINE
  5
B2B
330
1F
100
AcDbEntity
  8
0
 62
     3
100
AcDbLine
 10
866.6105170016024
 20
283.3050772278891
 30
0.0
 11
866.6575933416025
 21
283.3179310478891
 31
0.0
  0
LINE
  5
B2C
330
1F
100
AcDbEntity
  8
0
 62
     3
100
AcDbLine
 10
866.6575933416025
 20
283.3179310478891
 30
0.0
 11
866.7041147016023
 21
283.3421212478892
 31
0.0
  0
LINE
  5
B2D
330
1F
100
AcDbEntity
  8
0
 62
     3
100
AcDbLine
 10
866.7041147016023
 20
283.3421212478892
 30
0.0
 11
866.7497214916025
 21
283.3774608278892
 31
0.0
  0
LINE
  5
B2E
330
1F
100
AcDbEntity
  8
0
 62
     3
100
AcDbLine
 10
866.7497214916025
 20
283.3774608278892
 30
0.0
 11
866.7940611916023
 21
283.4236766478891
 31
0.0
  0
LINE
  5
B2F
330
1F
100
AcDbEntity
  8
0
 62
     3
100
AcDbLine
 10
866.7940611916023
 20
283.4236766478891
 30
0.0
 11
866.8367910816025
 21
283.4804114878892
 31
0.0
  0
LINE
  5
B30
330
1F
100
AcDbEntity
  8
0
 62
     3
100
AcDbLine
 10
866.8367910816025
 20
283.4804114878892
 30
0.0
 11
866.8775808816022
 21
283.5472267978892
 31
0.0
  0
LINE
  5
B31
330
1F
100
AcDbEntity
  8
0
 62
     3
100
AcDbLine
 10
866.8775808816022
 20
283.5472267978892
 30
0.0
 11
866.9161153116023
 21
283.6236061478892
 31
0.0
  0
LINE
  5
B32
330
1F
100
AcDbEntity
  8
0
 62
     3
100
AcDbLine
 10
866.9161153116023
 20
283.6236061478892
 30
0.0
 11
866.9520965116022
 21
283.7089591578891
 31
0.0
  0
LINE
  5
B33
330
1F
100
AcDbEntity
  8
0
 62
     3
100
AcDbLine
 10
866.9520965116022
 20
283.7089591578891
 30
0.0
 11
866.9852463716024
 21
283.8026260878891
 31
0.0
  0
LINE
  5
B34
330
1F
100
AcDbEntity
  8
0
 62
     3
100
AcDbLine
 10
866.9852463716024
 20
283.8026260878891
 30
0.0
 11
867.0153086516025
 21
283.9038829478892
 31
0.0
  0
LINE
  5
B35
330
1F
100
AcDbEntity
  8
0
 62
     3
100
AcDbLine
 10
867.0153086516025
 20
283.9038829478892
 30
0.0
 11
867.0420510016024
 21
284.0119470678892
 31
0.0
  0
LINE
  5
B36
330
1F
100
AcDbEntity
  8
0
 62
     3
100
AcDbLine
 10
867.0420510016024
 20
284.0119470678892
 30
0.0
 11
867.0652667016025
 21
284.1259831778891
 31
0.0
  0
LINE
  5
B37
330
1F
100
AcDbEntity
  8
0
 62
     3
100
AcDbLine
 10
867.0652667016025
 20
284.1259831778891
 30
0.0
 11
867.0847763116025
 21
284.2451098278892
 31
0.0
  0
TEXT
  5
B38
330
1F
100
AcDbEntity
  8
0
 62
     4
100
AcDbText
 10
984.7819302403419
 20
221.7795100972141
 30
0.0
 40
3.0
  1
t=4
100
AcDbText
  0
LINE
  5
B39
330
1F
100
AcDbEntity
  8
0
  6
ByBlock
 62
     0
370
    -2
100
AcDbLine
 10
981.6569302403419
 20
220.4846375972141
 30
0.0
 11
979.1569302403418
 21
221.1545100972141
 31
0.0
  0
LINE
  5
B3A
330
1F
100
AcDbEntity
  8
0
  6
ByBlock
 62
     0
370
    -2
100
AcDbLine
 10
979.1569302403418
 20
221.1545100972141
 30
0.0
 11
981.6569302403419
 21
221.8243825972141
 31
0.0
  0
LINE
  5
B3B
330
1F
100
AcDbEntity
  8
0
  6
ByBlock
 62
     0
370
    -2
100
AcDbLine
 10
979.1569302403418
 20
221.1545100972141
 30
0.0
 11
981.6569302403419
 21
221.1545100972141
 31
0.0
  0
LINE
  5
B3C
330
1F
100
AcDbEntity
  8
0
  6
ByBlock
 62
     0
370
    -2
100
AcDbLine
 10
972.6569302403419
 20
221.8243825972141
 30
0.0
 11
975.1569302403419
 21
221.1545100972141
 31
0.0
  0
LINE
  5
B3D
330
1F
100
AcDbEntity
  8
0
  6
ByBlock
 62
     0
370
    -2
100
AcDbLine
 10
975.1569302403419
 20
221.1545100972141
 30
0.0
 11
972.6569302403419
 21
220.4846375972141
 31
0.0
  0
LINE
  5
B3E
330
1F
100
AcDbEntity
  8
0
  6
ByBlock
 62
     0
370
    -2
100
AcDbLine
 10
975.1569302403419
 20
221.1545100972141
 30
0.0
 11
972.6569302403419
 21
221.1545100972141
 31
0.0
  0
TEXT
  5
B3F
330
1F
100
AcDbEntity
  8
0
 62
     4
100
AcDbText
 10
965.5034920437131
 20
152.3026676924587
 30
0.0
 40
3.0
  1
103
 50
90.0
100
AcDbText
  0
LINE
  5
B40
330
1F
100
AcDbEntity
  8
0
  6
ByBlock
 62
     0
370
    -2
100
AcDbLine
 10
966.7983645437132
 20
104.3253395822994
 30
0.0
 11
966.1284920437132
 21
101.8253395822994
 31
0.0
  0
LINE
  5
B41
330
1F
100
AcDbEntity
  8
0
  6
ByBlock
 62
     0
370
    -2
100
AcDbLine
 10
966.1284920437132
 20
101.8253395822994
 30
0.0
 11
965.4586195437131
 21
104.3253395822994
 31
0.0
  0
LINE
  5
B42
330
1F
100
AcDbEntity
  8
0
  6
ByBlock
 62
     0
370
    -2
100
AcDbLine
 10
966.1284920437132
 20
101.8253395822994
 30
0.0
 11
966.1284920437132
 21
104.3253395822994
 31
0.0
  0
LINE
  5
B43
330
1F
100
AcDbEntity
  8
0
  6
ByBlock
 62
     0
370
    -2
100
AcDbLine
 10
965.4586195437131
 20
202.3253395822994
 30
0.0
 11
966.1284920437132
 21
204.8253395822994
 31
0.0
  0
LINE
  5
B44
330
1F
100
AcDbEntity
  8
0
  6
ByBlock
 62
     0
370
    -2
100
AcDbLine
 10
966.1284920437132
 20
204.8253395822994
 30
0.0
 11
966.7983645437132
 21
202.3253395822994
 31
0.0
  0
LINE
  5
B45
330
1F
100
AcDbEntity
  8
0
  6
ByBlock
 62
     0
370
    -2
100
AcDbLine
 10
966.1284920437132
 20
204.8253395822994
 30
0.0
 11
966.1284920437132
 21
202.3253395822994
 31
0.0
  0
TEXT
  5
B46
330
1F
100
AcDbEntity
  8
0
 62
     4
100
AcDbText
 10
899.4166407252823
 20
221.891778114596
 30
0.0
 40
3.0
  1
109
100
AcDbText
  0
LINE
  5
B47
330
1F
100
AcDbEntity
  8
0
  6
ByBlock
 62
     0
370
    -2
100
AcDbLine
 10
850.6666407252822
 20
220.596905614596
 30
0.0
 11
848.1666407252822
 21
221.266778114596
 31
0.0
  0
LINE
  5
B48
330
1F
100
AcDbEntity
  8
0
  6
ByBlock
 62
     0
370
    -2
100
AcDbLine
 10
848.1666407252822
 20
221.266778114596
 30
0.0
 11
850.6666407252822
 21
221.936650614596
 31
0.0
  0
LINE
  5
B49
330
1F
100
AcDbEntity
  8
0
  6
ByBlock
 62
     0
370
    -2
100
AcDbLine
 10
848.1666407252822
 20
221.266778114596
 30
0.0
 11
850.6666407252822
 21
221.266778114596
 31
0.0
  0
LINE
  5
B4A
330
1F
100
AcDbEntity
  8
0
  6
ByBlock
 62
     0
370
    -2
100
AcDbLine
 10
954.6666407252823
 20
221.936650614596
 30
0.0
 11
957.1666407252822
 21
221.266778114596
 31
0.0
  0
LINE
  5
B4B
330
1F
100
AcDbEntity
  8
0
  6
ByBlock
 62
     0
370
    -2
100
AcDbLine
 10
957.1666407252822
 20
221.266778114596
 30
0.0
 11
954.6666407252823
 21
220.596905614596
 31
0.0
  0
LINE
  5
B4C
330
1F
100
AcDbEntity
  8
0
  6
ByBlock
 62
     0
370
    -2
100
AcDbLine
 10
957.1666407252822
 20
221.266778114596
 30
0.0
 11
954.6666407252823
 21
221.266778114596
 31
0.0
  0
ENDSEC
  0
SECTION
  2
OBJECTS
  0
DICTIONARY
  5
C
330
0
100
AcDbDictionary
281
     1
  3
ACAD_2007HEADERVARS_RT
350
B50
  3
ACAD_COLOR
350
73
  3
ACAD_GROUP
350
D
  3
ACAD_LAYOUT
350
1A
  3
ACAD_MATERIAL
350
72
  3
ACAD_MLEADERSTYLE
350
168
  3
ACAD_MLINESTYLE
350
17
  3
ACAD_PLOTSETTINGS
350
19
  3
ACAD_PLOTSTYLENAME
350
E
  3
ACAD_SCALELIST
350
156
  3
ACAD_TABLESTYLE
350
86
  3
ACAD_VISUALSTYLE
350
99
  3
ACDB_RECOMPOSE_DATA
350
B4E
  3
AcDbVariableDictionary
350
66
  3
DWGPROPS
350
B4F
  0
DICTIONARY
  5
DD
330
2
100
AcDbDictionary
280
     1
281
     1
  3
ACAD_LAYERSTATES
360
DE
  0
DICTIONARY
  5
98C
330
10
100
AcDbDictionary
280
     1
281
     1
  3
ADSK_XREC_LAYER_RECONCILED
360
98D
  0
DICTIONARY
  5
31A
330
1F
100
AcDbDictionary
280
     1
281
     1
  3
ACAD_SORTENTS
360
31B
  0
DICTIONARY
  5
B50
102
{ACAD_REACTORS
330
C
102
}
330
C
100
AcDbDictionary
281
     1
  3
DIMARCSYM
350
B52
  3
DIMFXL
350
B51
  3
DIMJOGANG
350
B53
  0
DICTIONARY
  5
73
102
{ACAD_REACTORS
330
C
102
}
330
C
100
AcDbDictionary
281
     1
  0
DICTIONARY
  5
D
102
{ACAD_REACTORS
330
C
102
}
330
C
100
AcDbDictionary
281
     1
  0
DICTIONARY
  5
1A
102
{ACAD_REACTORS
330
C
102
}
330
C
100
AcDbDictionary
281
     1
  3
Model
350
22
  3
レイアウト1
350
59
  3
レイアウト2
350
5E
  0
DICTIONARY
  5
72
102
{ACAD_REACTORS
330
C
102
}
330
C
100
AcDbDictionary
281
     1
  3
ByBlock
350
97
  3
ByLayer
350
96
  3
Global
350
98
  0
DICTIONARY
  5
168
102
{ACAD_REACTORS
330
C
102
}
330
C
100
AcDbDictionary
281
     1
  3
Standard
350
169
  0
DICTIONARY
  5
17
102
{ACAD_REACTORS
330
C
102
}
330
C
100
AcDbDictionary
281
     1
  3
Standard
350
18
  0
DICTIONARY
  5
19
102
{ACAD_REACTORS
330
C
102
}
330
C
100
AcDbDictionary
281
     1
  0
ACDBDICTIONARYWDFLT
  5
E
102
{ACAD_REACTORS
330
C
102
}
330
C
100
AcDbDictionary
281
     1
  3
Normal
350
F
100
AcDbDictionaryWithDefault
340
F
  0
DICTIONARY
  5
156
102
{ACAD_REACTORS
330
C
102
}
330
C
100
AcDbDictionary
281
     1
  3
A0
350
157
  3
A1
350
158
  3
A2
350
159
  3
A3
350
15A
  3
A4
350
15B
  3
A5
350
15C
  3
A6
350
15D
  3
A7
350
15E
  3
A8
350
15F
  3
A9
350
160
  3
B0
350
161
  3
B1
350
162
  3
B2
350
163
  3
B3
350
164
  3
B4
350
165
  3
B5
350
166
  3
B6
350
167
  0
DICTIONARY
  5
86
102
{ACAD_REACTORS
330
C
102
}
330
C
100
AcDbDictionary
281
     1
  3
Standard
350
87
  0
DICTIONARY
  5
99
102
{ACAD_REACTORS
330
C
102
}
330
C
100
AcDbDictionary
281
     1
  3
2dWireframe
350
9F
  3
3D Hidden
350
A1
  3
3dWireframe
350
A0
  3
Basic
350
9E
  3
Brighten
350
A5
  3
ColorChange
350
A9
  3
Conceptual
350
A2
  3
Dim
350
A4
  3
EdgeColorOff
350
155
  3
Facepattern
350
A8
  3
Flat
350
9A
  3
FlatWithEdges
350
9B
  3
Gouraud
350
9C
  3
GouraudWithEdges
350
9D
  3
Hidden
350
14D
  3
JitterOff
350
153
  3
Linepattern
350
A7
  3
OverhangOff
350
154
  3
Realistic
350
A3
  3
Shaded
350
152
  3
Shaded with edges
350
151
  3
Shades of Gray
350
14E
  3
Sketchy
350
14F
  3
Thicken
350
A6
  3
Wireframe
350
14C
  3
X-Ray
350
150
  0
XRECORD
  5
B4E
102
{ACAD_REACTORS
330
C
102
}
330
C
100
AcDbXrecord
280
     1
 90
        1
330
87
  0
DICTIONARY
  5
66
102
{ACAD_REACTORS
330
C
102
}
330
C
100
AcDbDictionary
281
     1
  3
CANNOSCALE
350
245
  3
CMLEADERSTYLE
350
243
  3
CTABLESTYLE
350
89
  3
DIMASSOC
350
67
  3
HIDETEXT
350
6B
  3
INDEXCTL
350
991
  3
LAYEREVAL
350
247
  3
LAYERNOTIFY
350
248
  3
LIGHTINGUNITS
350
246
  3
MSLTSCALE
350
244
  3
SORTENTS
350
990
  3
XCLIPFRAME
350
AA2
  0
XRECORD
  5
B4F
102
{ACAD_REACTORS
330
C
102
}
330
C
100
AcDbXrecord
280
     1
  1
DWGPROPS COOKIE
  2

  3

  4

  6

  7

  8
imamura
  9

300
=
301
=
302
=
303
=
304
=
305
=
306
=
307
=
308
=
309
=
 40
0.0274636921296296
 41
2456379.835428843
 42
2456856.614056146
  1

 90
        0
  0
DICTIONARY
  5
DE
102
{ACAD_REACTORS
330
DD
102
}
330
DD
100
AcDbDictionary
281
     1
  0
XRECORD
  5
98D
102
{ACAD_REACTORS
330
98C
102
}
330
98C
100
AcDbXrecord
280
     1
290
     1
  0
SORTENTSTABLE
  5
31B
102
{ACAD_REACTORS
330
31A
102
}
330
31A
100
AcDbSortentsTable
330
1F
331
92F
  5
95F
331
92B
  5
95B
331
966
  5
AFB
331
927
  5
957
331
8EC
  5
8DB
331
962
  5
AF7
331
AF4
  5
B22
331
923
  5
953
331
8E8
  5
8D7
331
B2D
  5
937
331
B29
  5
933
331
B25
  5
92F
331
B21
  5
92A
331
835
  5
B20
331
95E
  5
AF3
331
91F
  5
94F
331
8E4
  5
8D3
331
95A
  5
AEF
331
91B
  5
94B
331
8E0
  5
8CF
331
956
  5
AEB
331
AE8
  5
B41
331
917
  5
947
331
8DC
  5
8CB
331
952
  5
AE7
331
913
  5
943
331
8D8
  5
8C7
331
AA1
  5
969
331
B1D
  5
925
331
B19
  5
921
331
B15
  5
91D
331
B11
  5
919
331
94E
  5
AA0
331
8D4
  5
8C3
331
90F
  5
8FE
331
98A
  5
B4B
331
94A
  5
97B
331
8D0
  5
8BF
331
90B
  5
8FA
331
946
  5
977
331
8CC
  5
8BB
331
907
  5
8F6
331
829
  5
B15
331
942
  5
973
331
8C8
  5
8B7
331
97D
  5
B12
331
903
  5
8F2
331
979
  5
B0E
331
B4C
  5
B29
331
B0D
  5
915
331
B48
  5
B2E
331
B09
  5
911
331
B44
  5
B38
331
B05
  5
90D
331
B40
  5
B3A
331
B01
  5
909
331
8FF
  5
8EE
331
8C4
  5
8B3
331
93A
  5
96A
331
8C0
  5
835
331
975
  5
B0A
331
8FB
  5
8EA
331
825
  5
B1A
331
936
  5
966
331
8BC
  5
82B
331
971
  5
B06
331
8F7
  5
8E6
331
932
  5
962
331
8B8
  5
827
331
96D
  5
B02
331
8F3
  5
8E2
331
969
  5
AFE
331
B3C
  5
B43
331
AFD
  5
905
331
B38
  5
B49
331
AF9
  5
901
331
B34
  5
93E
331
B30
  5
93A
331
92E
  5
95E
331
8B4
  5
823
331
92A
  5
95A
331
8EF
  5
8DE
331
965
  5
AFA
331
926
  5
956
331
8EB
  5
8DA
331
961
  5
AF6
331
AF3
  5
B21
331
922
  5
952
331
B2C
  5
936
331
B28
  5
932
331
B24
  5
92E
331
B20
  5
929
331
834
  5
B1F
331
8E7
  5
8D6
331
95D
  5
AF2
331
AEF
  5
B36
331
91E
  5
94E
331
8E3
  5
8D2
331
959
  5
AEE
331
91A
  5
94A
331
8DF
  5
8CE
331
955
  5
AEA
331
AE7
  5
B40
331
916
  5
946
331
8DB
  5
8CA
331
951
  5
AE6
331
912
  5
942
331
AA0
  5
96F
331
B1C
  5
924
331
B18
  5
920
331
B14
  5
91C
331
B10
  5
918
331
8D7
  5
8C6
331
94D
  5
98B
331
8D3
  5
8C2
331
90E
  5
8FD
331
989
  5
971
331
949
  5
97A
331
8CF
  5
8BE
331
90A
  5
8F9
331
945
  5
976
331
8CB
  5
8BA
331
906
  5
8F5
331
828
  5
B18
331
941
  5
972
331
97C
  5
B11
331
902
  5
8F1
331
978
  5
B0D
331
B4B
  5
B28
331
B0C
  5
914
331
B47
  5
B2D
331
B08
  5
910
331
B43
  5
B37
331
B04
  5
90C
331
B00
  5
908
331
8C7
  5
8B6
331
93D
  5
96D
331
8C3
  5
881
331
8FE
  5
8ED
331
939
  5
968
331
8BF
  5
834
331
974
  5
B09
331
8FA
  5
8E9
331
824
  5
B19
331
935
  5
965
331
8BB
  5
82A
331
970
  5
B05
331
8F6
  5
8E5
331
931
  5
961
331
96C
  5
B01
331
8F2
  5
8E1
331
968
  5
AFD
331
B3F
  5
B3D
331
B3B
  5
B48
331
AFC
  5
904
331
B37
  5
941
331
B33
  5
93D
331
8B7
  5
826
331
92D
  5
95D
331
8B3
  5
822
331
929
  5
959
331
8EE
  5
8DD
331
964
  5
AF9
331
925
  5
955
331
8EA
  5
8D9
331
960
  5
AF5
331
921
  5
951
331
B2F
  5
939
331
B2B
  5
935
331
B27
  5
931
331
B23
  5
92C
331
833
  5
B1E
331
8E6
  5
8D5
331
95C
  5
AF1
331
AEE
  5
B35
331
91D
  5
94D
331
8E2
  5
8D1
331
958
  5
AED
331
919
  5
949
331
8DE
  5
8CD
331
954
  5
AE9
331
AE6
  5
B3F
331
915
  5
945
331
8DA
  5
8C9
331
950
  5
AE5
331
B1F
  5
928
331
B1B
  5
923
331
B17
  5
91F
331
B13
  5
91B
331
8D6
  5
8C5
331
94C
  5
97D
331
8D2
  5
8C1
331
90D
  5
8FC
331
988
  5
B4A
331
948
  5
979
331
8CE
  5
8BD
331
909
  5
8F8
331
82B
  5
B17
331
944
  5
975
331
8CA
  5
8B9
331
905
  5
8F4
331
940
  5
970
331
97B
  5
B10
331
901
  5
8F0
331
B0F
  5
917
331
B4A
  5
B27
331
B0B
  5
913
331
B46
  5
B30
331
B07
  5
90F
331
B42
  5
B3C
331
B03
  5
90B
331
8C6
  5
8B5
331
93C
  5
96C
331
8C2
  5
84E
331
977
  5
B0C
331
8FD
  5
8EC
331
827
  5
B1C
331
938
  5
967
331
8BE
  5
833
331
973
  5
B08
331
8F9
  5
8E8
331
823
  5
B16
331
934
  5
964
331
8BA
  5
829
331
96F
  5
B04
331
8F5
  5
8E4
331
930
  5
960
331
96B
  5
B00
331
8F1
  5
8E0
331
B3E
  5
B45
331
AFF
  5
907
331
B3A
  5
B47
331
AFB
  5
903
331
B36
  5
940
331
B32
  5
93C
331
8B6
  5
825
331
92C
  5
95C
331
967
  5
AFC
331
928
  5
958
331
8ED
  5
8DC
331
963
  5
AF8
331
AF5
  5
B23
331
924
  5
954
331
8E9
  5
8D8
331
920
  5
950
331
B2E
  5
938
331
B2A
  5
934
331
B26
  5
930
331
B22
  5
92B
331
832
  5
B1D
331
95F
  5
AF4
331
8E5
  5
8D4
331
95B
  5
AF0
331
AED
  5
B31
331
91C
  5
94C
331
8E1
  5
8D0
331
957
  5
AEC
331
AE9
  5
B42
331
918
  5
948
331
8DD
  5
8CC
331
953
  5
AE8
331
AE5
  5
B3E
331
914
  5
944
331
8D9
  5
8C8
331
910
  5
8FF
331
B1E
  5
927
331
B1A
  5
922
331
B16
  5
91E
331
B12
  5
91A
331
94F
  5
AA1
331
8D5
  5
8C4
331
98B
  5
B4C
331
94B
  5
97C
331
8D1
  5
8C0
331
90C
  5
8FB
331
947
  5
978
331
8CD
  5
8BC
331
908
  5
8F7
331
82A
  5
B14
331
943
  5
974
331
8C9
  5
8B8
331
904
  5
8F3
331
97A
  5
B0F
331
900
  5
8EF
331
B0E
  5
916
331
B49
  5
B2F
331
B0A
  5
912
331
B45
  5
B39
331
B06
  5
90E
331
B41
  5
B3B
331
B02
  5
90A
331
93F
  5
96E
331
8C5
  5
8B4
331
93B
  5
96B
331
8C1
  5
836
331
976
  5
B0B
331
8FC
  5
8EB
331
826
  5
B1B
331
8BD
  5
832
331
972
  5
B07
331
8F8
  5
8E7
331
822
  5
B13
331
933
  5
963
331
8B9
  5
828
331
96E
  5
B03
331
8F4
  5
8E3
331
96A
  5
AFF
331
8F0
  5
8DF
331
B3D
  5
B44
331
AFE
  5
906
331
B39
  5
B46
331
AFA
  5
902
331
B35
  5
93F
331
B31
  5
93B
  0
XRECORD
  5
B52
102
{ACAD_REACTORS
330
B50
102
}
330
B50
100
AcDbXrecord
280
     1
 70
     2
  0
XRECORD
  5
B51
102
{ACAD_REACTORS
330
B50
102
}
330
B50
100
AcDbXrecord
280
     1
 40
1.25
  0
XRECORD
  5
B53
102
{ACAD_REACTORS
330
B50
102
}
330
B50
100
AcDbXrecord
280
     1
 40
1.570796326794896
  0
LAYOUT
  5
22
102
{ACAD_XDICTIONARY
360
B54
102
}
102
{ACAD_REACTORS
330
1A
102
}
330
1A
100
AcDbPlotSettings
  1

  2
none_device
  4
ANSI_A_(8.50_x_11.00_Inches)
  6

 40
6.349999904632567
 41
19.04999923706055
 42
6.350006103515625
 43
19.04998779296875
 44
215.8999938964844
 45
279.3999938964844
 46
0.0
 47
0.0
 48
0.0
 49
0.0
140
0.0
141
0.0
142
1.0
143
2.584895464708373
 70
 11952
 72
     0
 73
     1
 74
     0
  7

 75
     0
147
0.3868628397755418
148
0.0
149
0.0
100
AcDbLayout
  1
Model
 70
     1
 71
     0
 10
0.0
 20
0.0
 11
12.0
 21
9.0
 12
0.0
 22
0.0
 32
0.0
 14
0.0
 24
0.0
 34
0.0
 15
0.0
 25
0.0
 35
0.0
146
0.0
 13
0.0
 23
0.0
 33
0.0
 16
1.0
 26
0.0
 36
0.0
 17
0.0
 27
1.0
 37
0.0
 76
     0
330
1F
331
94
  0
LAYOUT
  5
59
102
{ACAD_XDICTIONARY
360
B56
102
}
102
{ACAD_REACTORS
330
1A
102
}
330
1A
100
AcDbPlotSettings
  1

  2
None
  4

  6

 40
0.0
 41
0.0
 42
0.0
 43
0.0
 44
0.0
 45
0.0
 46
0.0
 47
0.0
 48
0.0
 49
0.0
140
0.0
141
0.0
142
1.0
143
1.0
 70
   688
 72
     0
 73
     0
 74
     5
  7

 75
    16
147
1.0
148
0.0
149
0.0
100
AcDbLayout
  1
レイアウト1
 70
     1
 71
     1
 10
0.0
 20
0.0
 11
12.0
 21
9.0
 12
0.0
 22
0.0
 32
0.0
 14
0.0
 24
0.0
 34
0.0
 15
0.0
 25
0.0
 35
0.0
146
0.0
 13
0.0
 23
0.0
 33
0.0
 16
1.0
 26
0.0
 36
0.0
 17
0.0
 27
1.0
 37
0.0
 76
     0
330
58
  0
LAYOUT
  5
5E
102
{ACAD_XDICTIONARY
360
B58
102
}
102
{ACAD_REACTORS
330
1A
102
}
330
1A
100
AcDbPlotSettings
  1

  2
None
  4

  6

 40
0.0
 41
0.0
 42
0.0
 43
0.0
 44
0.0
 45
0.0
 46
0.0
 47
0.0
 48
0.0
 49
0.0
140
0.0
141
0.0
142
1.0
143
1.0
 70
   688
 72
     0
 73
     0
 74
     5
  7

 75
    16
147
1.0
148
0.0
149
0.0
100
AcDbLayout
  1
レイアウト2
 70
     1
 71
     2
 10
0.0
 20
0.0
 11
12.0
 21
9.0
 12
0.0
 22
0.0
 32
0.0
 14
0.0
 24
0.0
 34
0.0
 15
0.0
 25
0.0
 35
0.0
146
0.0
 13
0.0
 23
0.0
 33
0.0
 16
1.0
 26
0.0
 36
0.0
 17
0.0
 27
1.0
 37
0.0
 76
     0
330
5D
  0
MATERIAL
  5
97
102
{ACAD_XDICTIONARY
360
9A4
102
}
102
{ACAD_REACTORS
330
72
102
}
330
72
100
AcDbMaterial
  1
ByBlock
 73
     1
 78
     1
172
     1
176
     1
270
     1
274
     1
  0
MATERIAL
  5
96
102
{ACAD_XDICTIONARY
360
9A2
102
}
102
{ACAD_REACTORS
330
72
102
}
330
72
100
AcDbMaterial
  1
ByLayer
 73
     1
 78
     1
172
     1
176
     1
270
     1
274
     1
  0
MATERIAL
  5
98
102
{ACAD_XDICTIONARY
360
9A6
102
}
102
{ACAD_REACTORS
330
72
102
}
330
72
100
AcDbMaterial
  1
Global
 73
     1
 78
     1
172
     1
176
     1
270
     1
274
     1
  0
MLEADERSTYLE
  5
169
102
{ACAD_REACTORS
330
168
102
}
330
168
100
AcDbMLeaderStyle
170
     2
171
     1
172
     0
 90
        2
 40
0.0
 41
0.0
173
     1
 91
-1056964608
340
14
 92
       -2
290
     1
 42
2.0
291
     1
 43
0.36
  3
Standard
 44
4.0
300

342
11
174
     1
178
     6
175
     1
176
     0
 93
-1056964608
 45
4.0
292
     0
297
     0
 46
4.0
 94
-1056964608
 47
1.0
 49
1.0
140
1.0
293
     1
141
0.0
294
     1
177
     0
142
1.0
295
     0
296
     0
143
0.125
1001
ACAD_MLEADERVER
1070
     2
  0
MLINESTYLE
  5
18
102
{ACAD_REACTORS
330
17
102
}
330
17
100
AcDbMlineStyle
  2
STANDARD
 70
     0
  3

 62
   256
 51
90.0
 52
90.0
 71
     2
 49
0.5
 62
   256
  6
BYLAYER
 49
-0.5
 62
   256
  6
BYLAYER
  0
ACDBPLACEHOLDER
  5
F
102
{ACAD_REACTORS
330
E
102
}
330
E
  0
SCALE
  5
157
102
{ACAD_REACTORS
330
156
102
}
330
156
100
AcDbScale
 70
     0
300
1:1
140
1.0
141
1.0
290
     1
  0
SCALE
  5
158
102
{ACAD_REACTORS
330
156
102
}
330
156
100
AcDbScale
 70
     0
300
1:2
140
1.0
141
2.0
290
     0
  0
SCALE
  5
159
102
{ACAD_REACTORS
330
156
102
}
330
156
100
AcDbScale
 70
     0
300
1:4
140
1.0
141
4.0
290
     0
  0
SCALE
  5
15A
102
{ACAD_REACTORS
330
156
102
}
330
156
100
AcDbScale
 70
     0
300
1:5
140
1.0
141
5.0
290
     0
  0
SCALE
  5
15B
102
{ACAD_REACTORS
330
156
102
}
330
156
100
AcDbScale
 70
     0
300
1:8
140
1.0
141
8.0
290
     0
  0
SCALE
  5
15C
102
{ACAD_REACTORS
330
156
102
}
330
156
100
AcDbScale
 70
     0
300
1:10
140
1.0
141
10.0
290
     0
  0
SCALE
  5
15D
102
{ACAD_REACTORS
330
156
102
}
330
156
100
AcDbScale
 70
     0
300
1:16
140
1.0
141
16.0
290
     0
  0
SCALE
  5
15E
102
{ACAD_REACTORS
330
156
102
}
330
156
100
AcDbScale
 70
     0
300
1:20
140
1.0
141
20.0
290
     0
  0
SCALE
  5
15F
102
{ACAD_REACTORS
330
156
102
}
330
156
100
AcDbScale
 70
     0
300
1:30
140
1.0
141
30.0
290
     0
  0
SCALE
  5
160
102
{ACAD_REACTORS
330
156
102
}
330
156
100
AcDbScale
 70
     0
300
1:40
140
1.0
141
40.0
290
     0
  0
SCALE
  5
161
102
{ACAD_REACTORS
330
156
102
}
330
156
100
AcDbScale
 70
     0
300
1:50
140
1.0
141
50.0
290
     0
  0
SCALE
  5
162
102
{ACAD_REACTORS
330
156
102
}
330
156
100
AcDbScale
 70
     0
300
1:100
140
1.0
141
100.0
290
     0
  0
SCALE
  5
163
102
{ACAD_REACTORS
330
156
102
}
330
156
100
AcDbScale
 70
     0
300
2:1
140
2.0
141
1.0
290
     0
  0
SCALE
  5
164
102
{ACAD_REACTORS
330
156
102
}
330
156
100
AcDbScale
 70
     0
300
4:1
140
4.0
141
1.0
290
     0
  0
SCALE
  5
165
102
{ACAD_REACTORS
330
156
102
}
330
156
100
AcDbScale
 70
     0
300
8:1
140
8.0
141
1.0
290
     0
  0
SCALE
  5
166
102
{ACAD_REACTORS
330
156
102
}
330
156
100
AcDbScale
 70
     0
300
10:1
140
10.0
141
1.0
290
     0
  0
SCALE
  5
167
102
{ACAD_REACTORS
330
156
102
}
330
156
100
AcDbScale
 70
     0
300
100:1
140
100.0
141
1.0
290
     0
  0
TABLESTYLE
  5
87
102
{ACAD_XDICTIONARY
360
993
102
}
102
{ACAD_REACTORS
330
86
102
}
330
86
100
AcDbTableStyle
  3
Standard
 70
     0
 71
     0
 40
0.06
 41
0.06
280
     0
281
     0
  7
Standard
140
0.18
170
     2
 62
     0
 63
     7
283
     0
274
    -2
284
     1
 64
     0
275
    -2
285
     1
 65
     0
276
    -2
286
     1
 66
     0
277
    -2
287
     1
 67
     0
278
    -2
288
     1
 68
     0
279
    -2
289
     1
 69
     0
  7
Standard
140
0.25
170
     5
 62
     0
 63
     7
283
     0
274
    -2
284
     1
 64
     0
275
    -2
285
     1
 65
     0
276
    -2
286
     1
 66
     0
277
    -2
287
     1
 67
     0
278
    -2
288
     1
 68
     0
279
    -2
289
     1
 69
     0
  7
Standard
140
0.18
170
     5
 62
     0
 63
     7
283
     0
274
    -2
284
     1
 64
     0
275
    -2
285
     1
 65
     0
276
    -2
286
     1
 66
     0
277
    -2
287
     1
 67
     0
278
    -2
288
     1
 68
     0
279
    -2
289
     1
 69
     0
  0
VISUALSTYLE
  5
9F
102
{ACAD_XDICTIONARY
360
B65
102
}
102
{ACAD_REACTORS
330
99
102
}
330
99
100
AcDbVisualStyle
  2

 70
     4
 71
     0
 72
     2
 73
     1
 90
        0
 40
-0.6
 41
-30.0
 62
     5
 63
     7
 74
     1
 91
        4
 64
     7
 65
   257
 75
     1
175
     1
 42
1.0
 92
        0
 66
   257
 43
1.0
 76
     1
 77
     6
 78
     2
 67
     7
 79
     5
170
     0
171
     0
290
     0
174
     0
 93
        1
 44
0.0
173
     0
291
     0
 45
0.0
1001
ACAD
1000
AcDbSavedByObjectVersion
1070
     0
  0
VISUALSTYLE
  5
A1
102
{ACAD_XDICTIONARY
360
B69
102
}
102
{ACAD_REACTORS
330
99
102
}
330
99
100
AcDbVisualStyle
  2

 70
     6
 71
     1
 72
     2
 73
     2
 90
        0
 40
-0.6
 41
-30.0
 62
     5
 63
     7
 74
     2
 91
        2
 64
     7
 65
   257
 75
     2
175
     1
 42
40.0
 92
        0
 66
   257
 43
1.0
 76
     1
 77
     6
 78
     2
 67
     7
 79
     3
170
     0
171
     0
290
     0
174
     0
 93
        1
 44
0.0
173
     0
291
     0
 45
0.0
1001
ACAD
1000
AcDbSavedByObjectVersion
1070
     0
  0
VISUALSTYLE
  5
A0
102
{ACAD_XDICTIONARY
360
B67
102
}
102
{ACAD_REACTORS
330
99
102
}
330
99
100
AcDbVisualStyle
  2

 70
     5
 71
     0
 72
     2
 73
     1
 90
        0
 40
-0.6
 41
-30.0
 62
     5
 63
     7
 74
     1
 91
        4
 64
     7
 65
   257
 75
     1
175
     1
 42
1.0
 92
        0
 66
   257
 43
1.0
 76
     1
 77
     6
 78
     2
 67
     7
 79
     5
170
     0
171
     0
290
     0
174
     0
 93
        1
 44
0.0
173
     0
291
     0
 45
0.0
1001
ACAD
1000
AcDbSavedByObjectVersion
1070
     0
  0
VISUALSTYLE
  5
9E
102
{ACAD_XDICTIONARY
360
B63
102
}
102
{ACAD_REACTORS
330
99
102
}
330
99
100
AcDbVisualStyle
  2

 70
     7
 71
     1
 72
     0
 73
     1
 90
        0
 40
-0.6
 41
-30.0
 62
     5
 63
     7
 74
     0
 91
        4
 64
     7
 65
   257
 75
     1
175
     1
 42
1.0
 92
        8
 66
     7
 43
1.0
 76
     1
 77
     6
 78
     2
 67
     7
 79
     5
170
     0
171
     0
290
     0
174
     0
 93
        1
 44
0.0
173
     0
291
     1
 45
0.0
1001
ACAD
1000
AcDbSavedByObjectVersion
1070
     0
  0
VISUALSTYLE
  5
A5
102
{ACAD_XDICTIONARY
360
B71
102
}
102
{ACAD_REACTORS
330
99
102
}
330
99
100
AcDbVisualStyle
  2

 70
    12
 71
     2
 72
     2
 73
     1
 90
        0
 40
-0.6
 41
-30.0
 62
     5
 63
     7
 74
     1
 91
        4
 64
     7
 65
   257
 75
     1
175
     1
 42
1.0
 92
        8
 66
     7
 43
1.0
 76
     1
 77
     6
 78
     2
 67
     7
 79
     5
170
     0
171
     0
290
     0
174
     0
 93
        1
 44
50.0
173
     0
291
     1
 45
0.0
1001
ACAD
1000
AcDbSavedByObjectVersion
1070
     0
  0
VISUALSTYLE
  5
A9
102
{ACAD_XDICTIONARY
360
B79
102
}
102
{ACAD_REACTORS
330
99
102
}
330
99
100
AcDbVisualStyle
  2

 70
    16
 71
     2
 72
     2
 73
     3
 90
        0
 40
-0.6
 41
-30.0
 62
     5
 63
     8
 74
     1
 91
        4
 64
     7
 65
   257
 75
     1
175
     1
 42
1.0
 92
        8
 66
     8
 43
1.0
 76
     1
 77
     6
 78
     2
 67
     7
 79
     5
170
     0
171
     0
290
     0
174
     0
 93
        1
 44
0.0
173
     0
291
     1
 45
0.0
1001
ACAD
1000
AcDbSavedByObjectVersion
1070
     0
  0
VISUALSTYLE
  5
A2
102
{ACAD_XDICTIONARY
360
B6B
102
}
102
{ACAD_REACTORS
330
99
102
}
330
99
100
AcDbVisualStyle
  2

 70
     9
 71
     3
 72
     2
 73
     1
 90
        0
 40
-0.6
 41
-30.0
 62
     5
 63
     7
 74
     2
 91
        2
 64
     7
 65
   257
 75
     1
175
     1
 42
40.0
 92
        8
 66
     7
 43
1.0
 76
     1
 77
     6
 78
     2
 67
     7
 79
     3
170
     0
171
     0
290
     0
174
     0
 93
        1
 44
0.0
173
     0
291
     0
 45
0.0
1001
ACAD
1000
AcDbSavedByObjectVersion
1070
     0
  0
VISUALSTYLE
  5
A4
102
{ACAD_XDICTIONARY
360
B6F
102
}
102
{ACAD_REACTORS
330
99
102
}
330
99
100
AcDbVisualStyle
  2

 70
    11
 71
     2
 72
     2
 73
     1
 90
        0
 40
-0.6
 41
-30.0
 62
     5
 63
     7
 74
     1
 91
        4
 64
     7
 65
   257
 75
     1
175
     1
 42
1.0
 92
        8
 66
     7
 43
1.0
 76
     1
 77
     6
 78
     2
 67
     7
 79
     5
170
     0
171
     0
290
     0
174
     0
 93
        1
 44
-50.0
173
     0
291
     1
 45
0.0
1001
ACAD
1000
AcDbSavedByObjectVersion
1070
     0
  0
VISUALSTYLE
  5
155
102
{ACAD_XDICTIONARY
360
B8D
102
}
102
{ACAD_REACTORS
330
99
102
}
330
99
100
AcDbVisualStyle
  2

 70
    22
 71
     2
 72
     2
 73
     0
 90
        0
 40
-0.6
 41
-30.0
 62
     5
 63
     7
 74
     1
 91
        4
 64
     7
 65
   257
 75
     1
175
     1
 42
1.0
 92
        8
 66
     7
 43
1.0
 76
     1
 77
     6
 78
     2
 67
     7
 79
     5
170
     0
171
     0
290
     0
174
     0
 93
        1
 44
0.0
173
     0
291
     1
 45
0.0
1001
ACAD
1000
AcDbSavedByObjectVersion
1070
     0
  0
VISUALSTYLE
  5
A8
102
{ACAD_XDICTIONARY
360
B77
102
}
102
{ACAD_REACTORS
330
99
102
}
330
99
100
AcDbVisualStyle
  2

 70
    15
 71
     2
 72
     2
 73
     1
 90
        0
 40
-0.6
 41
-30.0
 62
     5
 63
     7
 74
     1
 91
        4
 64
     7
 65
   257
 75
     1
175
     1
 42
1.0
 92
        8
 66
     7
 43
1.0
 76
     1
 77
     6
 78
     2
 67
     7
 79
     5
170
     0
171
     0
290
     0
174
     0
 93
        1
 44
0.0
173
     0
291
     1
 45
0.0
1001
ACAD
1000
AcDbSavedByObjectVersion
1070
     0
  0
VISUALSTYLE
  5
9A
102
{ACAD_XDICTIONARY
360
B5B
102
}
102
{ACAD_REACTORS
330
99
102
}
330
99
100
AcDbVisualStyle
  2

 70
     0
 71
     2
 72
     1
 73
     1
 90
        2
 40
-0.6
 41
30.0
 62
     5
 63
     7
 74
     0
 91
        4
 64
     7
 65
   257
 75
     1
175
     1
 42
1.0
 92
        8
 66
     7
 43
1.0
 76
     1
 77
     6
 78
     2
 67
     7
 79
     5
170
     0
171
     0
290
     0
174
     0
 93
        1
 44
0.0
173
     0
291
     1
 45
0.0
1001
ACAD
1000
AcDbSavedByObjectVersion
1070
     0
  0
VISUALSTYLE
  5
9B
102
{ACAD_XDICTIONARY
360
B5D
102
}
102
{ACAD_REACTORS
330
99
102
}
330
99
100
AcDbVisualStyle
  2

 70
     1
 71
     2
 72
     1
 73
     1
 90
        2
 40
-0.6
 41
30.0
 62
     5
 63
     7
 74
     1
 91
        4
 64
     7
 65
   257
 75
     1
175
     1
 42
1.0
 92
        0
 66
   257
 43
1.0
 76
     1
 77
     6
 78
     2
 67
     7
 79
     5
170
     0
171
     0
290
     0
174
     0
 93
        1
 44
0.0
173
     0
291
     1
 45
0.0
1001
ACAD
1000
AcDbSavedByObjectVersion
1070
     0
  0
VISUALSTYLE
  5
9C
102
{ACAD_XDICTIONARY
360
B5F
102
}
102
{ACAD_REACTORS
330
99
102
}
330
99
100
AcDbVisualStyle
  2

 70
     2
 71
     2
 72
     2
 73
     1
 90
        2
 40
-0.6
 41
30.0
 62
     5
 63
     7
 74
     0
 91
        4
 64
     7
 65
   257
 75
     1
175
     1
 42
1.0
 92
        0
 66
     7
 43
1.0
 76
     1
 77
     6
 78
     2
 67
     7
 79
     5
170
     0
171
     0
290
     0
174
     0
 93
        1
 44
0.0
173
     0
291
     1
 45
0.0
1001
ACAD
1000
AcDbSavedByObjectVersion
1070
     0
  0
VISUALSTYLE
  5
9D
102
{ACAD_XDICTIONARY
360
B61
102
}
102
{ACAD_REACTORS
330
99
102
}
330
99
100
AcDbVisualStyle
  2

 70
     3
 71
     2
 72
     2
 73
     1
 90
        2
 40
-0.6
 41
30.0
 62
     5
 63
     7
 74
     1
 91
        4
 64
     7
 65
   257
 75
     1
175
     1
 42
1.0
 92
        0
 66
   257
 43
1.0
 76
     1
 77
     6
 78
     2
 67
     7
 79
     5
170
     0
171
     0
290
     0
174
     0
 93
        1
 44
0.0
173
     0
291
     1
 45
0.0
1001
ACAD
1000
AcDbSavedByObjectVersion
1070
     0
  0
VISUALSTYLE
  5
14D
102
{ACAD_XDICTIONARY
360
B7D
102
}
102
{ACAD_REACTORS
330
99
102
}
330
99
100
AcDbVisualStyle
  2

 70
     6
 71
     1
 72
     2
 73
     2
 90
        0
 40
-0.6
 41
-30.0
 62
     5
 63
     7
 74
     2
 91
        2
 64
     7
 65
   257
 75
     2
175
     1
 42
40.0
 92
        0
 66
   257
 43
1.0
 76
     1
 77
     6
 78
     2
 67
     7
 79
     3
170
     0
171
     0
290
     0
174
     0
 93
        1
 44
0.0
173
     0
291
     0
 45
0.0
1001
ACAD
1000
AcDbSavedByObjectVersion
1070
     0
  0
VISUALSTYLE
  5
153
102
{ACAD_XDICTIONARY
360
B89
102
}
102
{ACAD_REACTORS
330
99
102
}
330
99
100
AcDbVisualStyle
  2

 70
    20
 71
     2
 72
     2
 73
     0
 90
        0
 40
-0.6
 41
-30.0
 62
     5
 63
     7
 74
     1
 91
        4
 64
     7
 65
   257
 75
     1
175
     1
 42
1.0
 92
       10
 66
     7
 43
1.0
 76
     1
 77
     6
 78
     2
 67
     7
 79
     5
170
     0
171
     0
290
     0
174
     0
 93
        1
 44
0.0
173
     0
291
     1
 45
0.0
1001
ACAD
1000
AcDbSavedByObjectVersion
1070
     0
  0
VISUALSTYLE
  5
A7
102
{ACAD_XDICTIONARY
360
B75
102
}
102
{ACAD_REACTORS
330
99
102
}
330
99
100
AcDbVisualStyle
  2

 70
    14
 71
     2
 72
     2
 73
     1
 90
        0
 40
-0.6
 41
-30.0
 62
     5
 63
     7
 74
     1
 91
        4
 64
     7
 65
   257
 75
     7
175
     7
 42
1.0
 92
        8
 66
     7
 43
1.0
 76
     1
 77
     6
 78
     2
 67
     7
 79
     5
170
     0
171
     0
290
     0
174
     0
 93
        1
 44
0.0
173
     0
291
     1
 45
0.0
1001
ACAD
1000
AcDbSavedByObjectVersion
1070
     0
  0
VISUALSTYLE
  5
154
102
{ACAD_XDICTIONARY
360
B8B
102
}
102
{ACAD_REACTORS
330
99
102
}
330
99
100
AcDbVisualStyle
  2

 70
    21
 71
     2
 72
     2
 73
     0
 90
        0
 40
-0.6
 41
-30.0
 62
     5
 63
     7
 74
     1
 91
        4
 64
     7
 65
   257
 75
     1
175
     1
 42
1.0
 92
        9
 66
     7
 43
1.0
 76
     1
 77
     6
 78
     2
 67
     7
 79
     5
170
     0
171
     0
290
     0
174
     0
 93
        1
 44
0.0
173
     0
291
     1
 45
0.0
1001
ACAD
1000
AcDbSavedByObjectVersion
1070
     0
  0
VISUALSTYLE
  5
A3
102
{ACAD_XDICTIONARY
360
B6D
102
}
102
{ACAD_REACTORS
330
99
102
}
330
99
100
AcDbVisualStyle
  2

 70
     8
 71
     2
 72
     2
 73
     1
 90
        0
 40
-0.6
 41
-30.0
 62
     5
 63
     7
 74
     1
 91
        0
 64
     7
 65
   257
 75
     1
175
     1
 42
1.0
 92
        8
 66
     8
 43
1.0
 76
     1
 77
     6
 78
     2
 67
     7
 79
     5
170
     0
171
     0
290
     0
174
     0
 93
       13
 44
0.0
173
     0
291
     0
 45
0.0
1001
ACAD
1000
AcDbSavedByObjectVersion
1070
     0
  0
VISUALSTYLE
  5
152
102
{ACAD_XDICTIONARY
360
B87
102
}
102
{ACAD_REACTORS
330
99
102
}
330
99
100
AcDbVisualStyle
  2

 70
    27
 71
     2
 72
     2
 73
     1
 90
        2
 40
-0.6
 41
30.0
 62
     5
 63
     7
 74
     0
 91
        4
 64
     7
 65
   257
 75
     1
175
     1
 42
1.0
 92
        8
 66
   257
 43
1.0
 76
     1
 77
     6
 78
     2
 67
     8
 79
     3
170
     0
171
     0
290
     0
174
     0
 93
        5
 44
0.0
173
     0
291
     0
 45
0.0
1001
ACAD
1000
AcDbSavedByObjectVersion
1070
     0
  0
VISUALSTYLE
  5
151
102
{ACAD_XDICTIONARY
360
B85
102
}
102
{ACAD_REACTORS
330
99
102
}
330
99
100
AcDbVisualStyle
  2

 70
    26
 71
     2
 72
     2
 73
     1
 90
        2
 40
-0.6
 41
30.0
 62
     5
 63
     7
 74
     1
 91
       10
 64
     7
 65
   257
 75
     2
175
     1
 42
1.0
 92
        8
 66
   257
 43
1.0
 76
     1
 77
     6
 78
     2
 67
     7
 79
     3
170
     0
171
     0
290
     0
174
     0
 93
        5
 44
0.0
173
     0
291
     0
 45
0.0
1001
ACAD
1000
AcDbSavedByObjectVersion
1070
     0
  0
VISUALSTYLE
  5
14E
102
{ACAD_XDICTIONARY
360
B7F
102
}
102
{ACAD_REACTORS
330
99
102
}
330
99
100
AcDbVisualStyle
  2

 70
    23
 71
     2
 72
     2
 73
     3
 90
        0
 40
-0.6
 41
-30.0
 62
     5
 63
     7
 74
     2
 91
        2
 64
     7
 65
     7
 75
     1
175
     1
 42
40.0
 92
        8
 66
     7
 43
1.0
 76
     1
 77
     6
 78
     2
 67
     7
 79
     3
170
     0
171
     0
290
     0
174
     0
 93
        1
 44
0.0
173
     0
291
     0
 45
0.0
1001
ACAD
1000
AcDbSavedByObjectVersion
1070
     0
  0
VISUALSTYLE
  5
14F
102
{ACAD_XDICTIONARY
360
B81
102
}
102
{ACAD_REACTORS
330
99
102
}
330
99
100
AcDbVisualStyle
  2

 70
    24
 71
     1
 72
     2
 73
     2
 90
        0
 40
-0.6
 41
-30.0
 62
     5
 63
     7
 74
     2
 91
        2
 64
     7
 65
     7
 75
     1
175
     1
 42
40.0
 92
       11
 66
     7
 43
1.0
 76
     1
 77
     6
 78
     2
 67
     7
 79
     6
170
     0
171
     0
290
     0
174
     0
 93
        1
 44
0.0
173
     0
291
     0
 45
0.0
1001
ACAD
1000
AcDbSavedByObjectVersion
1070
     0
  0
VISUALSTYLE
  5
A6
102
{ACAD_XDICTIONARY
360
B73
102
}
102
{ACAD_REACTORS
330
99
102
}
330
99
100
AcDbVisualStyle
  2

 70
    13
 71
     2
 72
     2
 73
     1
 90
        0
 40
-0.6
 41
-30.0
 62
     5
 63
     7
 74
     1
 91
        4
 64
     7
 65
   257
 75
     1
175
     1
 42
1.0
 92
       12
 66
     7
 43
1.0
 76
     1
 77
     6
 78
     2
 67
     7
 79
     5
170
     0
171
     0
290
     0
174
     0
 93
        1
 44
0.0
173
     0
291
     1
 45
0.0
1001
ACAD
1000
AcDbSavedByObjectVersion
1070
     0
  0
VISUALSTYLE
  5
14C
102
{ACAD_XDICTIONARY
360
B7B
102
}
102
{ACAD_REACTORS
330
99
102
}
330
99
100
AcDbVisualStyle
  2

 70
     5
 71
     0
 72
     2
 73
     0
 90
        0
 40
-0.6
 41
-30.0
 62
     5
 63
     7
 74
     1
 91
        4
 64
     7
 65
   257
 75
     1
175
     1
 42
1.0
 92
        0
 66
   257
 43
1.0
 76
     1
 77
     6
 78
     2
 67
     7
 79
     3
170
     0
171
     0
290
     0
174
     0
 93
        1
 44
0.0
173
     0
291
     0
 45
0.0
1001
ACAD
1000
AcDbSavedByObjectVersion
1070
     0
  0
VISUALSTYLE
  5
150
102
{ACAD_XDICTIONARY
360
B83
102
}
102
{ACAD_REACTORS
330
99
102
}
330
99
100
AcDbVisualStyle
  2

 70
    25
 71
     2
 72
     2
 73
     1
 90
        1
 40
0.5
 41
-30.0
 62
     5
 63
     7
 74
     1
 91
        0
 64
     7
 65
   257
 75
     1
175
     1
 42
1.0
 92
        8
 66
     7
 43
1.0
 76
     1
 77
     6
 78
     2
 67
     7
 79
     3
170
     0
171
     0
290
     0
174
     0
 93
       13
 44
0.0
173
     0
291
     0
 45
0.0
1001
ACAD
1000
AcDbSavedByObjectVersion
1070
     0
  0
DICTIONARYVAR
  5
245
102
{ACAD_REACTORS
330
66
102
}
330
66
100
DictionaryVariables
280
     0
  1
1:1
  0
DICTIONARYVAR
  5
243
102
{ACAD_REACTORS
330
66
102
}
330
66
100
DictionaryVariables
280
     0
  1
STANDARD
  0
DICTIONARYVAR
  5
89
102
{ACAD_REACTORS
330
66
102
}
330
66
100
DictionaryVariables
280
     0
  1
STANDARD
  0
DICTIONARYVAR
  5
67
102
{ACAD_REACTORS
330
66
102
}
330
66
100
DictionaryVariables
280
     0
  1
2
  0
DICTIONARYVAR
  5
6B
102
{ACAD_REACTORS
330
66
102
}
330
66
100
DictionaryVariables
280
     0
  1
1
  0
DICTIONARYVAR
  5
991
102
{ACAD_REACTORS
330
66
102
}
330
66
100
DictionaryVariables
280
     0
  1
0
  0
DICTIONARYVAR
  5
247
102
{ACAD_REACTORS
330
66
102
}
330
66
100
DictionaryVariables
280
     0
  1
1
  0
DICTIONARYVAR
  5
248
102
{ACAD_REACTORS
330
66
102
}
330
66
100
DictionaryVariables
280
     0
  1
15
  0
DICTIONARYVAR
  5
246
102
{ACAD_REACTORS
330
66
102
}
330
66
100
DictionaryVariables
280
     0
  1
0
  0
DICTIONARYVAR
  5
244
102
{ACAD_REACTORS
330
66
102
}
330
66
100
DictionaryVariables
280
     0
  1
0
  0
DICTIONARYVAR
  5
990
102
{ACAD_REACTORS
330
66
102
}
330
66
100
DictionaryVariables
280
     0
  1
127
  0
DICTIONARYVAR
  5
AA2
102
{ACAD_REACTORS
330
66
102
}
330
66
100
DictionaryVariables
280
     0
  1
2
  0
DICTIONARY
  5
B54
330
22
100
AcDbDictionary
280
     1
281
     1
  3
ACAD_XREC_ROUNDTRIP
360
B55
  0
DICTIONARY
  5
B56
330
59
100
AcDbDictionary
280
     1
281
     1
  3
ACAD_XREC_ROUNDTRIP
360
B57
  0
DICTIONARY
  5
B58
330
5E
100
AcDbDictionary
280
     1
281
     1
  3
ACAD_XREC_ROUNDTRIP
360
B59
  0
DICTIONARY
  5
9A4
330
97
100
AcDbDictionary
280
     1
281
     1
  3
ACAD_XREC_ROUNDTRIP
360
9A5
  0
DICTIONARY
  5
9A2
330
96
100
AcDbDictionary
280
     1
281
     1
  3
ACAD_XREC_ROUNDTRIP
360
9A3
  0
DICTIONARY
  5
9A6
330
98
100
AcDbDictionary
280
     1
281
     1
  3
ACAD_XREC_ROUNDTRIP
360
9A7
  0
DICTIONARY
  5
993
330
87
100
AcDbDictionary
280
     1
281
     1
  3
ACAD_ROUNDTRIP_2008_TABLESTYLE_CELLSTYLEMAP
360
B4D
  3
ACAD_XREC_ROUNDTRIP
360
B5A
  0
DICTIONARY
  5
B65
330
9F
100
AcDbDictionary
280
     1
281
     1
  3
ACAD_XREC_ROUNDTRIP
360
B66
  0
DICTIONARY
  5
B69
330
A1
100
AcDbDictionary
280
     1
281
     1
  3
ACAD_XREC_ROUNDTRIP
360
B6A
  0
DICTIONARY
  5
B67
330
A0
100
AcDbDictionary
280
     1
281
     1
  3
ACAD_XREC_ROUNDTRIP
360
B68
  0
DICTIONARY
  5
B63
330
9E
100
AcDbDictionary
280
     1
281
     1
  3
ACAD_XREC_ROUNDTRIP
360
B64
  0
DICTIONARY
  5
B71
330
A5
100
AcDbDictionary
280
     1
281
     1
  3
ACAD_XREC_ROUNDTRIP
360
B72
  0
DICTIONARY
  5
B79
330
A9
100
AcDbDictionary
280
     1
281
     1
  3
ACAD_XREC_ROUNDTRIP
360
B7A
  0
DICTIONARY
  5
B6B
330
A2
100
AcDbDictionary
280
     1
281
     1
  3
ACAD_XREC_ROUNDTRIP
360
B6C
  0
DICTIONARY
  5
B6F
330
A4
100
AcDbDictionary
280
     1
281
     1
  3
ACAD_XREC_ROUNDTRIP
360
B70
  0
DICTIONARY
  5
B8D
330
155
100
AcDbDictionary
280
     1
281
     1
  3
ACAD_XREC_ROUNDTRIP
360
B8E
  0
DICTIONARY
  5
B77
330
A8
100
AcDbDictionary
280
     1
281
     1
  3
ACAD_XREC_ROUNDTRIP
360
B78
  0
DICTIONARY
  5
B5B
330
9A
100
AcDbDictionary
280
     1
281
     1
  3
ACAD_XREC_ROUNDTRIP
360
B5C
  0
DICTIONARY
  5
B5D
330
9B
100
AcDbDictionary
280
     1
281
     1
  3
ACAD_XREC_ROUNDTRIP
360
B5E
  0
DICTIONARY
  5
B5F
330
9C
100
AcDbDictionary
280
     1
281
     1
  3
ACAD_XREC_ROUNDTRIP
360
B60
  0
DICTIONARY
  5
B61
330
9D
100
AcDbDictionary
280
     1
281
     1
  3
ACAD_XREC_ROUNDTRIP
360
B62
  0
DICTIONARY
  5
B7D
330
14D
100
AcDbDictionary
280
     1
281
     1
  3
ACAD_XREC_ROUNDTRIP
360
B7E
  0
DICTIONARY
  5
B89
330
153
100
AcDbDictionary
280
     1
281
     1
  3
ACAD_XREC_ROUNDTRIP
360
B8A
  0
DICTIONARY
  5
B75
330
A7
100
AcDbDictionary
280
     1
281
     1
  3
ACAD_XREC_ROUNDTRIP
360
B76
  0
DICTIONARY
  5
B8B
330
154
100
AcDbDictionary
280
     1
281
     1
  3
ACAD_XREC_ROUNDTRIP
360
B8C
  0
DICTIONARY
  5
B6D
330
A3
100
AcDbDictionary
280
     1
281
     1
  3
ACAD_XREC_ROUNDTRIP
360
B6E
  0
DICTIONARY
  5
B87
330
152
100
AcDbDictionary
280
     1
281
     1
  3
ACAD_XREC_ROUNDTRIP
360
B88
  0
DICTIONARY
  5
B85
330
151
100
AcDbDictionary
280
     1
281
     1
  3
ACAD_XREC_ROUNDTRIP
360
B86
  0
DICTIONARY
  5
B7F
330
14E
100
AcDbDictionary
280
     1
281
     1
  3
ACAD_XREC_ROUNDTRIP
360
B80
  0
DICTIONARY
  5
B81
330
14F
100
AcDbDictionary
280
     1
281
     1
  3
ACAD_XREC_ROUNDTRIP
360
B82
  0
DICTIONARY
  5
B73
330
A6
100
AcDbDictionary
280
     1
281
     1
  3
ACAD_XREC_ROUNDTRIP
360
B74
  0
DICTIONARY
  5
B7B
330
14C
100
AcDbDictionary
280
     1
281
     1
  3
ACAD_XREC_ROUNDTRIP
360
B7C
  0
DICTIONARY
  5
B83
330
150
100
AcDbDictionary
280
     1
281
     1
  3
ACAD_XREC_ROUNDTRIP
360
B84
  0
XRECORD
  5
B55
102
{ACAD_REACTORS
330
B54
102
}
330
B54
100
AcDbXrecord
280
     1
102
SHADEPLOT
 70
     0
102
SHADEPLOTRESLEVEL
 70
     2
102
SHADEPLOTCUSTOMDPI
 70
   300
  0
XRECORD
  5
B57
102
{ACAD_REACTORS
330
B56
102
}
330
B56
100
AcDbXrecord
280
     1
102
SHADEPLOT
 70
     0
102
SHADEPLOTRESLEVEL
 70
     2
102
SHADEPLOTCUSTOMDPI
 70
   300
  0
XRECORD
  5
B59
102
{ACAD_REACTORS
330
B58
102
}
330
B58
100
AcDbXrecord
280
     1
102
SHADEPLOT
 70
     0
102
SHADEPLOTRESLEVEL
 70
     2
102
SHADEPLOTCUSTOMDPI
 70
   300
  0
XRECORD
  5
9A5
102
{ACAD_REACTORS
330
9A4
102
}
330
9A4
100
AcDbXrecord
280
     1
102
MATERIAL
148
0.0
149
0.0
149
0.0
 93
        0
 94
      127
282
     0
 72
     1
 77
     1
171
     1
175
     1
179
     1
273
     0
  0
XRECORD
  5
9A3
102
{ACAD_REACTORS
330
9A2
102
}
330
9A2
100
AcDbXrecord
280
     1
102
MATERIAL
148
0.0
149
0.0
149
0.0
 93
        0
 94
      127
282
     0
 72
     1
 77
     1
171
     1
175
     1
179
     1
273
     0
  0
XRECORD
  5
9A7
102
{ACAD_REACTORS
330
9A6
102
}
330
9A6
100
AcDbXrecord
280
     1
102
MATERIAL
148
0.0
149
0.0
149
0.0
 93
        0
 94
      127
282
     0
 72
     1
 77
     1
171
     1
175
     1
179
     1
273
     0
  0
CELLSTYLEMAP
  5
B4D
102
{ACAD_REACTORS
330
993
102
}
330
993
100
AcDbCellStyleMap
 90
        3
300
CELLSTYLE
  1
TABLEFORMAT_BEGIN
 90
        5
170
     1
 91
        0
 92
    32768
 62
   257
 93
        1
300
CONTENTFORMAT
  1
CONTENTFORMAT_BEGIN
 90
        0
 91
        0
 92
      512
 93
        0
300

 40
0.0
140
1.0
 94
        5
 62
     0
340
11
144
0.25
309
CONTENTFORMAT_END
171
     1
301
MARGIN
  1
CELLMARGIN_BEGIN
 40
0.06
 40
0.06
 40
0.06
 40
0.06
 40
0.18
 40
0.18
309
CELLMARGIN_END
 94
        6
 95
        1
302
GRIDFORMAT
  1
GRIDFORMAT_BEGIN
 90
        0
 91
        1
 62
     0
 92
       -2
340
0
 93
        0
 40
0.045
309
GRIDFORMAT_END
 95
        2
302
GRIDFORMAT
  1
GRIDFORMAT_BEGIN
 90
        0
 91
        1
 62
     0
 92
       -2
340
0
 93
        0
 40
0.045
309
GRIDFORMAT_END
 95
        4
302
GRIDFORMAT
  1
GRIDFORMAT_BEGIN
 90
        0
 91
        1
 62
     0
 92
       -2
340
0
 93
        0
 40
0.045
309
GRIDFORMAT_END
 95
        8
302
GRIDFORMAT
  1
GRIDFORMAT_BEGIN
 90
        0
 91
        1
 62
     0
 92
       -2
340
0
 93
        0
 40
0.045
309
GRIDFORMAT_END
 95
       16
302
GRIDFORMAT
  1
GRIDFORMAT_BEGIN
 90
        0
 91
        1
 62
     0
 92
       -2
340
0
 93
        0
 40
0.045
309
GRIDFORMAT_END
 95
       32
302
GRIDFORMAT
  1
GRIDFORMAT_BEGIN
 90
        0
 91
        1
 62
     0
 92
       -2
340
0
 93
        0
 40
0.045
309
GRIDFORMAT_END
309
TABLEFORMAT_END
  1
CELLSTYLE_BEGIN
 90
        1
 91
        1
300
_TITLE
309
CELLSTYLE_END
300
CELLSTYLE
  1
TABLEFORMAT_BEGIN
 90
        5
170
     1
 91
        0
 92
        0
 62
   257
 93
        1
300
CONTENTFORMAT
  1
CONTENTFORMAT_BEGIN
 90
        0
 91
        0
 92
      512
 93
        0
300

 40
0.0
140
1.0
 94
        5
 62
     0
340
11
144
0.18
309
CONTENTFORMAT_END
171
     1
301
MARGIN
  1
CELLMARGIN_BEGIN
 40
0.06
 40
0.06
 40
0.06
 40
0.06
 40
0.18
 40
0.18
309
CELLMARGIN_END
 94
        6
 95
        1
302
GRIDFORMAT
  1
GRIDFORMAT_BEGIN
 90
        0
 91
        1
 62
     0
 92
       -2
340
0
 93
        0
 40
0.045
309
GRIDFORMAT_END
 95
        2
302
GRIDFORMAT
  1
GRIDFORMAT_BEGIN
 90
        0
 91
        1
 62
     0
 92
       -2
340
0
 93
        0
 40
0.045
309
GRIDFORMAT_END
 95
        4
302
GRIDFORMAT
  1
GRIDFORMAT_BEGIN
 90
        0
 91
        1
 62
     0
 92
       -2
340
0
 93
        0
 40
0.045
309
GRIDFORMAT_END
 95
        8
302
GRIDFORMAT
  1
GRIDFORMAT_BEGIN
 90
        0
 91
        1
 62
     0
 92
       -2
340
0
 93
        0
 40
0.045
309
GRIDFORMAT_END
 95
       16
302
GRIDFORMAT
  1
GRIDFORMAT_BEGIN
 90
        0
 91
        1
 62
     0
 92
       -2
340
0
 93
        0
 40
0.045
309
GRIDFORMAT_END
 95
       32
302
GRIDFORMAT
  1
GRIDFORMAT_BEGIN
 90
        0
 91
        1
 62
     0
 92
       -2
340
0
 93
        0
 40
0.045
309
GRIDFORMAT_END
309
TABLEFORMAT_END
  1
CELLSTYLE_BEGIN
 90
        2
 91
        1
300
_HEADER
309
CELLSTYLE_END
300
CELLSTYLE
  1
TABLEFORMAT_BEGIN
 90
        5
170
     1
 91
        0
 92
        0
 62
   257
 93
        1
300
CONTENTFORMAT
  1
CONTENTFORMAT_BEGIN
 90
        0
 91
        0
 92
      512
 93
        0
300

 40
0.0
140
1.0
 94
        2
 62
     0
340
11
144
0.18
309
CONTENTFORMAT_END
171
     1
301
MARGIN
  1
CELLMARGIN_BEGIN
 40
0.06
 40
0.06
 40
0.06
 40
0.06
 40
0.18
 40
0.18
309
CELLMARGIN_END
 94
        6
 95
        1
302
GRIDFORMAT
  1
GRIDFORMAT_BEGIN
 90
        0
 91
        1
 62
     0
 92
       -2
340
0
 93
        0
 40
0.045
309
GRIDFORMAT_END
 95
        2
302
GRIDFORMAT
  1
GRIDFORMAT_BEGIN
 90
        0
 91
        1
 62
     0
 92
       -2
340
0
 93
        0
 40
0.045
309
GRIDFORMAT_END
 95
        4
302
GRIDFORMAT
  1
GRIDFORMAT_BEGIN
 90
        0
 91
        1
 62
     0
 92
       -2
340
0
 93
        0
 40
0.045
309
GRIDFORMAT_END
 95
        8
302
GRIDFORMAT
  1
GRIDFORMAT_BEGIN
 90
        0
 91
        1
 62
     0
 92
       -2
340
0
 93
        0
 40
0.045
309
GRIDFORMAT_END
 95
       16
302
GRIDFORMAT
  1
GRIDFORMAT_BEGIN
 90
        0
 91
        1
 62
     0
 92
       -2
340
0
 93
        0
 40
0.045
309
GRIDFORMAT_END
 95
       32
302
GRIDFORMAT
  1
GRIDFORMAT_BEGIN
 90
        0
 91
        1
 62
     0
 92
       -2
340
0
 93
        0
 40
0.045
309
GRIDFORMAT_END
309
TABLEFORMAT_END
  1
CELLSTYLE_BEGIN
 90
        3
 91
        2
300
_DATA
309
CELLSTYLE_END
  0
XRECORD
  5
B5A
102
{ACAD_REACTORS
330
993
102
}
330
993
100
AcDbXrecord
280
     1
102
ACAD_ROUNDTRIP_PRE2007_TABLESTYLE
 90
      512
 91
        0
  1

 92
      512
 93
        0
  2

 94
      512
 95
        0
  3

  0
XRECORD
  5
B66
102
{ACAD_REACTORS
330
B65
102
}
330
B65
100
AcDbXrecord
280
     1
102
RTVSPropertyOp0
 70
     1
102
RTVSPropertyOp1
 70
     1
102
RTVSPropertyOp2
 70
     1
102
RTVSPropertyOp3
 70
     1
102
RTVSPropertyOp4
 70
     1
102
RTVSPropertyOp5
 70
     1
102
RTVSPropertyOp6
 70
     1
102
RTVSPropertyOp7
 70
     1
102
RTVSPropertyOp8
 70
     1
102
RTVSPropertyOp9
 70
     1
102
RTVSPropertyOp10
 70
     1
102
RTVSPropertyOp11
 70
     1
102
RTVSPropertyOp12
 70
     1
102
RTVSPropertyOp13
 70
     1
102
RTVSPropertyOp14
 70
     1
102
RTVSPropertyOp15
 70
     1
102
RTVSPropertyOp16
 70
     1
102
RTVSPropertyOp17
 70
     1
102
RTVSPropertyOp18
 70
     1
102
RTVSPropertyOp19
 70
     1
102
RTVSPropertyOp20
 70
     1
102
RTVSPropertyOp21
 70
     1
102
RTVSPropertyOp22
 70
     1
102
RTVSPropertyOp23
 70
     1
102
RTVSPropertyOp24
 70
     1
102
RTVSPropertyOp25
 70
     1
102
RTVSPropertyOp26
 70
     1
102
RTVSPropertyOp27
 70
     1
102
RTVSPropertyOp28
 70
     1
102
RTVSPropertyOp29
 70
     1
102
RTVSPropertyOp30
 70
     1
102
RTVSPropertyOp31
 70
     1
102
RTVSPropertyOp32
 70
     1
  0
XRECORD
  5
B6A
102
{ACAD_REACTORS
330
B69
102
}
330
B69
100
AcDbXrecord
280
     1
102
RTVSPropertyOp0
 70
     1
102
RTVSPropertyOp1
 70
     1
102
RTVSPropertyOp2
 70
     1
102
RTVSPropertyOp3
 70
     1
102
RTVSPropertyOp4
 70
     1
102
RTVSPropertyOp5
 70
     1
102
RTVSPropertyOp6
 70
     1
102
RTVSPropertyOp7
 70
     1
102
RTVSPropertyOp8
 70
     1
102
RTVSPropertyOp9
 70
     1
102
RTVSPropertyOp10
 70
     1
102
RTVSPropertyOp11
 70
     1
102
RTVSPropertyOp12
 70
     1
102
RTVSPropertyOp13
 70
     1
102
RTVSPropertyOp14
 70
     1
102
RTVSPropertyOp15
 70
     1
102
RTVSPropertyOp16
 70
     1
102
RTVSPropertyOp17
 70
     1
102
RTVSPropertyOp18
 70
     1
102
RTVSPropertyOp19
 70
     1
102
RTVSPropertyOp20
 70
     1
102
RTVSPropertyOp21
 70
     1
102
RTVSPropertyOp22
 70
     1
102
RTVSPropertyOp23
 70
     1
102
RTVSPropertyOp24
 70
     1
102
RTVSPropertyOp25
 70
     1
102
RTVSPropertyOp26
 70
     1
102
RTVSPropertyOp27
 70
     1
102
RTVSPropertyOp28
 70
     1
102
RTVSPropertyOp29
 70
     1
102
RTVSPropertyOp30
 70
     1
102
RTVSPropertyOp31
 70
     1
102
RTVSPropertyOp32
 70
     1
  0
XRECORD
  5
B68
102
{ACAD_REACTORS
330
B67
102
}
330
B67
100
AcDbXrecord
280
     1
102
RTVSPropertyOp0
 70
     1
102
RTVSPropertyOp1
 70
     1
102
RTVSPropertyOp2
 70
     1
102
RTVSPropertyOp3
 70
     1
102
RTVSPropertyOp4
 70
     1
102
RTVSPropertyOp5
 70
     1
102
RTVSPropertyOp6
 70
     1
102
RTVSPropertyOp7
 70
     1
102
RTVSPropertyOp8
 70
     1
102
RTVSPropertyOp9
 70
     1
102
RTVSPropertyOp10
 70
     1
102
RTVSPropertyOp11
 70
     1
102
RTVSPropertyOp12
 70
     1
102
RTVSPropertyOp13
 70
     1
102
RTVSPropertyOp14
 70
     1
102
RTVSPropertyOp15
 70
     1
102
RTVSPropertyOp16
 70
     1
102
RTVSPropertyOp17
 70
     1
102
RTVSPropertyOp18
 70
     1
102
RTVSPropertyOp19
 70
     1
102
RTVSPropertyOp20
 70
     1
102
RTVSPropertyOp21
 70
     1
102
RTVSPropertyOp22
 70
     1
102
RTVSPropertyOp23
 70
     1
102
RTVSPropertyOp24
 70
     1
102
RTVSPropertyOp25
 70
     1
102
RTVSPropertyOp26
 70
     1
102
RTVSPropertyOp27
 70
     1
102
RTVSPropertyOp28
 70
     1
102
RTVSPropertyOp29
 70
     1
102
RTVSPropertyOp30
 70
     1
102
RTVSPropertyOp31
 70
     1
102
RTVSPropertyOp32
 70
     1
  0
XRECORD
  5
B64
102
{ACAD_REACTORS
330
B63
102
}
330
B63
100
AcDbXrecord
280
     1
102
RTVSPropertyOp0
 70
     1
102
RTVSPropertyOp1
 70
     1
102
RTVSPropertyOp2
 70
     1
102
RTVSPropertyOp3
 70
     1
102
RTVSPropertyOp4
 70
     1
102
RTVSPropertyOp5
 70
     1
102
RTVSPropertyOp6
 70
     1
102
RTVSPropertyOp7
 70
     1
102
RTVSPropertyOp8
 70
     1
102
RTVSPropertyOp9
 70
     1
102
RTVSPropertyOp10
 70
     1
102
RTVSPropertyOp11
 70
     1
102
RTVSPropertyOp12
 70
     1
102
RTVSPropertyOp13
 70
     1
102
RTVSPropertyOp14
 70
     1
102
RTVSPropertyOp15
 70
     1
102
RTVSPropertyOp16
 70
     1
102
RTVSPropertyOp17
 70
     1
102
RTVSPropertyOp18
 70
     1
102
RTVSPropertyOp19
 70
     1
102
RTVSPropertyOp20
 70
     1
102
RTVSPropertyOp21
 70
     1
102
RTVSPropertyOp22
 70
     1
102
RTVSPropertyOp23
 70
     1
102
RTVSPropertyOp24
 70
     1
102
RTVSPropertyOp25
 70
     1
102
RTVSPropertyOp26
 70
     1
102
RTVSPropertyOp27
 70
     1
102
RTVSPropertyOp28
 70
     1
102
RTVSPropertyOp29
 70
     1
102
RTVSPropertyOp30
 70
     1
102
RTVSPropertyOp31
 70
     1
102
RTVSPropertyOp32
 70
     1
  0
XRECORD
  5
B72
102
{ACAD_REACTORS
330
B71
102
}
330
B71
100
AcDbXrecord
280
     1
102
RTVSPropertyOp0
 70
     1
102
RTVSPropertyOp1
 70
     1
102
RTVSPropertyOp2
 70
     1
102
RTVSPropertyOp3
 70
     1
102
RTVSPropertyOp4
 70
     1
102
RTVSPropertyOp5
 70
     1
102
RTVSPropertyOp6
 70
     1
102
RTVSPropertyOp7
 70
     1
102
RTVSPropertyOp8
 70
     1
102
RTVSPropertyOp9
 70
     1
102
RTVSPropertyOp10
 70
     1
102
RTVSPropertyOp11
 70
     1
102
RTVSPropertyOp12
 70
     1
102
RTVSPropertyOp13
 70
     1
102
RTVSPropertyOp14
 70
     1
102
RTVSPropertyOp15
 70
     1
102
RTVSPropertyOp16
 70
     1
102
RTVSPropertyOp17
 70
     1
102
RTVSPropertyOp18
 70
     1
102
RTVSPropertyOp19
 70
     1
102
RTVSPropertyOp20
 70
     1
102
RTVSPropertyOp21
 70
     1
102
RTVSPropertyOp22
 70
     1
102
RTVSPropertyOp23
 70
     1
102
RTVSPropertyOp24
 70
     1
102
RTVSPropertyOp25
 70
     1
102
RTVSPropertyOp26
 70
     1
102
RTVSPropertyOp27
 70
     1
102
RTVSPropertyOp28
 70
     1
102
RTVSPropertyOp29
 70
     1
102
RTVSPropertyOp30
 70
     1
102
RTVSPropertyOp31
 70
     1
102
RTVSPropertyOp32
 70
     1
  0
XRECORD
  5
B7A
102
{ACAD_REACTORS
330
B79
102
}
330
B79
100
AcDbXrecord
280
     1
102
RTVSPropertyOp0
 70
     1
102
RTVSPropertyOp1
 70
     1
102
RTVSPropertyOp2
 70
     1
102
RTVSPropertyOp3
 70
     1
102
RTVSPropertyOp4
 70
     1
102
RTVSPropertyOp5
 70
     1
102
RTVSPropertyOp6
 70
     1
102
RTVSPropertyOp7
 70
     1
102
RTVSPropertyOp8
 70
     1
102
RTVSPropertyOp9
 70
     1
102
RTVSPropertyOp10
 70
     1
102
RTVSPropertyOp11
 70
     1
102
RTVSPropertyOp12
 70
     1
102
RTVSPropertyOp13
 70
     1
102
RTVSPropertyOp14
 70
     1
102
RTVSPropertyOp15
 70
     1
102
RTVSPropertyOp16
 70
     1
102
RTVSPropertyOp17
 70
     1
102
RTVSPropertyOp18
 70
     1
102
RTVSPropertyOp19
 70
     1
102
RTVSPropertyOp20
 70
     1
102
RTVSPropertyOp21
 70
     1
102
RTVSPropertyOp22
 70
     1
102
RTVSPropertyOp23
 70
     1
102
RTVSPropertyOp24
 70
     1
102
RTVSPropertyOp25
 70
     1
102
RTVSPropertyOp26
 70
     1
102
RTVSPropertyOp27
 70
     1
102
RTVSPropertyOp28
 70
     1
102
RTVSPropertyOp29
 70
     1
102
RTVSPropertyOp30
 70
     1
102
RTVSPropertyOp31
 70
     1
102
RTVSPropertyOp32
 70
     1
  0
XRECORD
  5
B6C
102
{ACAD_REACTORS
330
B6B
102
}
330
B6B
100
AcDbXrecord
280
     1
102
RTVSPropertyOp0
 70
     1
102
RTVSPropertyOp1
 70
     1
102
RTVSPropertyOp2
 70
     1
102
RTVSPropertyOp3
 70
     1
102
RTVSPropertyOp4
 70
     1
102
RTVSPropertyOp5
 70
     1
102
RTVSPropertyOp6
 70
     1
102
RTVSPropertyOp7
 70
     1
102
RTVSPropertyOp8
 70
     1
102
RTVSPropertyOp9
 70
     1
102
RTVSPropertyOp10
 70
     1
102
RTVSPropertyOp11
 70
     1
102
RTVSPropertyOp12
 70
     1
102
RTVSPropertyOp13
 70
     1
102
RTVSPropertyOp14
 70
     1
102
RTVSPropertyOp15
 70
     1
102
RTVSPropertyOp16
 70
     1
102
RTVSPropertyOp17
 70
     1
102
RTVSPropertyOp18
 70
     1
102
RTVSPropertyOp19
 70
     1
102
RTVSPropertyOp20
 70
     1
102
RTVSPropertyOp21
 70
     1
102
RTVSPropertyOp22
 70
     1
102
RTVSPropertyOp23
 70
     1
102
RTVSPropertyOp24
 70
     1
102
RTVSPropertyOp25
 70
     1
102
RTVSPropertyOp26
 70
     1
102
RTVSPropertyOp27
 70
     1
102
RTVSPropertyOp28
 70
     1
102
RTVSPropertyOp29
 70
     1
102
RTVSPropertyOp30
 70
     1
102
RTVSPropertyOp31
 70
     1
102
RTVSPropertyOp32
 70
     1
  0
XRECORD
  5
B70
102
{ACAD_REACTORS
330
B6F
102
}
330
B6F
100
AcDbXrecord
280
     1
102
RTVSPropertyOp0
 70
     1
102
RTVSPropertyOp1
 70
     1
102
RTVSPropertyOp2
 70
     1
102
RTVSPropertyOp3
 70
     1
102
RTVSPropertyOp4
 70
     1
102
RTVSPropertyOp5
 70
     1
102
RTVSPropertyOp6
 70
     1
102
RTVSPropertyOp7
 70
     1
102
RTVSPropertyOp8
 70
     1
102
RTVSPropertyOp9
 70
     1
102
RTVSPropertyOp10
 70
     1
102
RTVSPropertyOp11
 70
     1
102
RTVSPropertyOp12
 70
     1
102
RTVSPropertyOp13
 70
     1
102
RTVSPropertyOp14
 70
     1
102
RTVSPropertyOp15
 70
     1
102
RTVSPropertyOp16
 70
     1
102
RTVSPropertyOp17
 70
     1
102
RTVSPropertyOp18
 70
     1
102
RTVSPropertyOp19
 70
     1
102
RTVSPropertyOp20
 70
     1
102
RTVSPropertyOp21
 70
     1
102
RTVSPropertyOp22
 70
     1
102
RTVSPropertyOp23
 70
     1
102
RTVSPropertyOp24
 70
     1
102
RTVSPropertyOp25
 70
     1
102
RTVSPropertyOp26
 70
     1
102
RTVSPropertyOp27
 70
     1
102
RTVSPropertyOp28
 70
     1
102
RTVSPropertyOp29
 70
     1
102
RTVSPropertyOp30
 70
     1
102
RTVSPropertyOp31
 70
     1
102
RTVSPropertyOp32
 70
     1
  0
XRECORD
  5
B8E
102
{ACAD_REACTORS
330
B8D
102
}
330
B8D
100
AcDbXrecord
280
     1
102
RTVSPropertyOp0
 70
     0
102
RTVSPropertyOp1
 70
     0
102
RTVSPropertyOp2
 70
     0
102
RTVSPropertyOp3
 70
     0
102
RTVSPropertyOp4
 70
     0
102
RTVSPropertyOp5
 70
     0
102
RTVSPropertyOp6
 70
     0
102
RTVSPropertyOp7
 70
     0
102
RTVSPropertyOp8
 70
     0
102
RTVSPropertyOp9
 70
     0
102
RTVSPropertyOp10
 70
     0
102
RTVSPropertyOp11
 70
     0
102
RTVSPropertyOp12
 70
     0
102
RTVSPropertyOp13
 70
     0
102
RTVSPropertyOp14
 70
     2
102
RTVSPropertyOp15
 70
     0
102
RTVSPropertyOp16
 70
     0
102
RTVSPropertyOp17
 70
     0
102
RTVSPropertyOp18
 70
     0
102
RTVSPropertyOp19
 70
     0
102
RTVSPropertyOp20
 70
     0
102
RTVSPropertyOp21
 70
     0
102
RTVSPropertyOp22
 70
     0
102
RTVSPropertyOp23
 70
     0
102
RTVSPropertyOp24
 70
     0
102
RTVSPropertyOp25
 70
     0
102
RTVSPropertyOp26
 70
     0
102
RTVSPropertyOp27
 70
     0
102
RTVSPropertyOp28
 70
     1
102
RTVSPropertyOp29
 70
     1
102
RTVSPropertyOp30
 70
     1
102
RTVSPropertyOp31
 70
     1
102
RTVSPropertyOp32
 70
     1
  0
XRECORD
  5
B78
102
{ACAD_REACTORS
330
B77
102
}
330
B77
100
AcDbXrecord
280
     1
102
RTVSPropertyOp0
 70
     1
102
RTVSPropertyOp1
 70
     1
102
RTVSPropertyOp2
 70
     1
102
RTVSPropertyOp3
 70
     1
102
RTVSPropertyOp4
 70
     1
102
RTVSPropertyOp5
 70
     1
102
RTVSPropertyOp6
 70
     1
102
RTVSPropertyOp7
 70
     1
102
RTVSPropertyOp8
 70
     1
102
RTVSPropertyOp9
 70
     1
102
RTVSPropertyOp10
 70
     1
102
RTVSPropertyOp11
 70
     1
102
RTVSPropertyOp12
 70
     1
102
RTVSPropertyOp13
 70
     1
102
RTVSPropertyOp14
 70
     1
102
RTVSPropertyOp15
 70
     1
102
RTVSPropertyOp16
 70
     1
102
RTVSPropertyOp17
 70
     1
102
RTVSPropertyOp18
 70
     1
102
RTVSPropertyOp19
 70
     1
102
RTVSPropertyOp20
 70
     1
102
RTVSPropertyOp21
 70
     1
102
RTVSPropertyOp22
 70
     1
102
RTVSPropertyOp23
 70
     1
102
RTVSPropertyOp24
 70
     1
102
RTVSPropertyOp25
 70
     1
102
RTVSPropertyOp26
 70
     1
102
RTVSPropertyOp27
 70
     1
102
RTVSPropertyOp28
 70
     1
102
RTVSPropertyOp29
 70
     1
102
RTVSPropertyOp30
 70
     1
102
RTVSPropertyOp31
 70
     1
102
RTVSPropertyOp32
 70
     1
  0
XRECORD
  5
B5C
102
{ACAD_REACTORS
330
B5B
102
}
330
B5B
100
AcDbXrecord
280
     1
102
RTVSPropertyOp0
 70
     1
102
RTVSPropertyOp1
 70
     1
102
RTVSPropertyOp2
 70
     1
102
RTVSPropertyOp3
 70
     1
102
RTVSPropertyOp4
 70
     1
102
RTVSPropertyOp5
 70
     1
102
RTVSPropertyOp6
 70
     1
102
RTVSPropertyOp7
 70
     1
102
RTVSPropertyOp8
 70
     1
102
RTVSPropertyOp9
 70
     1
102
RTVSPropertyOp10
 70
     1
102
RTVSPropertyOp11
 70
     1
102
RTVSPropertyOp12
 70
     1
102
RTVSPropertyOp13
 70
     1
102
RTVSPropertyOp14
 70
     1
102
RTVSPropertyOp15
 70
     1
102
RTVSPropertyOp16
 70
     1
102
RTVSPropertyOp17
 70
     1
102
RTVSPropertyOp18
 70
     1
102
RTVSPropertyOp19
 70
     1
102
RTVSPropertyOp20
 70
     1
102
RTVSPropertyOp21
 70
     1
102
RTVSPropertyOp22
 70
     1
102
RTVSPropertyOp23
 70
     1
102
RTVSPropertyOp24
 70
     1
102
RTVSPropertyOp25
 70
     1
102
RTVSPropertyOp26
 70
     1
102
RTVSPropertyOp27
 70
     1
102
RTVSPropertyOp28
 70
     1
102
RTVSPropertyOp29
 70
     1
102
RTVSPropertyOp30
 70
     1
102
RTVSPropertyOp31
 70
     1
102
RTVSPropertyOp32
 70
     1
  0
XRECORD
  5
B5E
102
{ACAD_REACTORS
330
B5D
102
}
330
B5D
100
AcDbXrecord
280
     1
102
RTVSPropertyOp0
 70
     1
102
RTVSPropertyOp1
 70
     1
102
RTVSPropertyOp2
 70
     1
102
RTVSPropertyOp3
 70
     1
102
RTVSPropertyOp4
 70
     1
102
RTVSPropertyOp5
 70
     1
102
RTVSPropertyOp6
 70
     1
102
RTVSPropertyOp7
 70
     1
102
RTVSPropertyOp8
 70
     1
102
RTVSPropertyOp9
 70
     1
102
RTVSPropertyOp10
 70
     1
102
RTVSPropertyOp11
 70
     1
102
RTVSPropertyOp12
 70
     1
102
RTVSPropertyOp13
 70
     1
102
RTVSPropertyOp14
 70
     1
102
RTVSPropertyOp15
 70
     1
102
RTVSPropertyOp16
 70
     1
102
RTVSPropertyOp17
 70
     1
102
RTVSPropertyOp18
 70
     1
102
RTVSPropertyOp19
 70
     1
102
RTVSPropertyOp20
 70
     1
102
RTVSPropertyOp21
 70
     1
102
RTVSPropertyOp22
 70
     1
102
RTVSPropertyOp23
 70
     1
102
RTVSPropertyOp24
 70
     1
102
RTVSPropertyOp25
 70
     1
102
RTVSPropertyOp26
 70
     1
102
RTVSPropertyOp27
 70
     1
102
RTVSPropertyOp28
 70
     1
102
RTVSPropertyOp29
 70
     1
102
RTVSPropertyOp30
 70
     1
102
RTVSPropertyOp31
 70
     1
102
RTVSPropertyOp32
 70
     1
  0
XRECORD
  5
B60
102
{ACAD_REACTORS
330
B5F
102
}
330
B5F
100
AcDbXrecord
280
     1
102
RTVSPropertyOp0
 70
     1
102
RTVSPropertyOp1
 70
     1
102
RTVSPropertyOp2
 70
     1
102
RTVSPropertyOp3
 70
     1
102
RTVSPropertyOp4
 70
     1
102
RTVSPropertyOp5
 70
     1
102
RTVSPropertyOp6
 70
     1
102
RTVSPropertyOp7
 70
     1
102
RTVSPropertyOp8
 70
     1
102
RTVSPropertyOp9
 70
     1
102
RTVSPropertyOp10
 70
     1
102
RTVSPropertyOp11
 70
     1
102
RTVSPropertyOp12
 70
     1
102
RTVSPropertyOp13
 70
     1
102
RTVSPropertyOp14
 70
     1
102
RTVSPropertyOp15
 70
     1
102
RTVSPropertyOp16
 70
     1
102
RTVSPropertyOp17
 70
     1
102
RTVSPropertyOp18
 70
     1
102
RTVSPropertyOp19
 70
     1
102
RTVSPropertyOp20
 70
     1
102
RTVSPropertyOp21
 70
     1
102
RTVSPropertyOp22
 70
     1
102
RTVSPropertyOp23
 70
     1
102
RTVSPropertyOp24
 70
     1
102
RTVSPropertyOp25
 70
     1
102
RTVSPropertyOp26
 70
     1
102
RTVSPropertyOp27
 70
     1
102
RTVSPropertyOp28
 70
     1
102
RTVSPropertyOp29
 70
     1
102
RTVSPropertyOp30
 70
     1
102
RTVSPropertyOp31
 70
     1
102
RTVSPropertyOp32
 70
     1
  0
XRECORD
  5
B62
102
{ACAD_REACTORS
330
B61
102
}
330
B61
100
AcDbXrecord
280
     1
102
RTVSPropertyOp0
 70
     1
102
RTVSPropertyOp1
 70
     1
102
RTVSPropertyOp2
 70
     1
102
RTVSPropertyOp3
 70
     1
102
RTVSPropertyOp4
 70
     1
102
RTVSPropertyOp5
 70
     1
102
RTVSPropertyOp6
 70
     1
102
RTVSPropertyOp7
 70
     1
102
RTVSPropertyOp8
 70
     1
102
RTVSPropertyOp9
 70
     1
102
RTVSPropertyOp10
 70
     1
102
RTVSPropertyOp11
 70
     1
102
RTVSPropertyOp12
 70
     1
102
RTVSPropertyOp13
 70
     1
102
RTVSPropertyOp14
 70
     1
102
RTVSPropertyOp15
 70
     1
102
RTVSPropertyOp16
 70
     1
102
RTVSPropertyOp17
 70
     1
102
RTVSPropertyOp18
 70
     1
102
RTVSPropertyOp19
 70
     1
102
RTVSPropertyOp20
 70
     1
102
RTVSPropertyOp21
 70
     1
102
RTVSPropertyOp22
 70
     1
102
RTVSPropertyOp23
 70
     1
102
RTVSPropertyOp24
 70
     1
102
RTVSPropertyOp25
 70
     1
102
RTVSPropertyOp26
 70
     1
102
RTVSPropertyOp27
 70
     1
102
RTVSPropertyOp28
 70
     1
102
RTVSPropertyOp29
 70
     1
102
RTVSPropertyOp30
 70
     1
102
RTVSPropertyOp31
 70
     1
102
RTVSPropertyOp32
 70
     1
  0
XRECORD
  5
B7E
102
{ACAD_REACTORS
330
B7D
102
}
330
B7D
100
AcDbXrecord
280
     1
102
RTVSPropertyOp0
 70
     1
102
RTVSPropertyOp1
 70
     1
102
RTVSPropertyOp2
 70
     1
102
RTVSPropertyOp3
 70
     1
102
RTVSPropertyOp4
 70
     1
102
RTVSPropertyOp5
 70
     1
102
RTVSPropertyOp6
 70
     1
102
RTVSPropertyOp7
 70
     1
102
RTVSPropertyOp8
 70
     1
102
RTVSPropertyOp9
 70
     1
102
RTVSPropertyOp10
 70
     1
102
RTVSPropertyOp11
 70
     1
102
RTVSPropertyOp12
 70
     1
102
RTVSPropertyOp13
 70
     1
102
RTVSPropertyOp14
 70
     1
102
RTVSPropertyOp15
 70
     1
102
RTVSPropertyOp16
 70
     1
102
RTVSPropertyOp17
 70
     1
102
RTVSPropertyOp18
 70
     1
102
RTVSPropertyOp19
 70
     1
102
RTVSPropertyOp20
 70
     1
102
RTVSPropertyOp21
 70
     1
102
RTVSPropertyOp22
 70
     1
102
RTVSPropertyOp23
 70
     1
102
RTVSPropertyOp24
 70
     1
102
RTVSPropertyOp25
 70
     1
102
RTVSPropertyOp26
 70
     1
102
RTVSPropertyOp27
 70
     1
102
RTVSPropertyOp28
 70
     1
102
RTVSPropertyOp29
 70
     1
102
RTVSPropertyOp30
 70
     1
102
RTVSPropertyOp31
 70
     1
102
RTVSPropertyOp32
 70
     1
  0
XRECORD
  5
B8A
102
{ACAD_REACTORS
330
B89
102
}
330
B89
100
AcDbXrecord
280
     1
102
RTVSPropertyOp0
 70
     0
102
RTVSPropertyOp1
 70
     0
102
RTVSPropertyOp2
 70
     0
102
RTVSPropertyOp3
 70
     0
102
RTVSPropertyOp4
 70
     0
102
RTVSPropertyOp5
 70
     0
102
RTVSPropertyOp6
 70
     0
102
RTVSPropertyOp7
 70
     0
102
RTVSPropertyOp8
 70
     0
102
RTVSPropertyOp9
 70
     0
102
RTVSPropertyOp10
 70
     0
102
RTVSPropertyOp11
 70
     0
102
RTVSPropertyOp12
 70
     0
102
RTVSPropertyOp13
 70
     0
102
RTVSPropertyOp14
 70
     2
102
RTVSPropertyOp15
 70
     0
102
RTVSPropertyOp16
 70
     0
102
RTVSPropertyOp17
 70
     0
102
RTVSPropertyOp18
 70
     0
102
RTVSPropertyOp19
 70
     0
102
RTVSPropertyOp20
 70
     0
102
RTVSPropertyOp21
 70
     0
102
RTVSPropertyOp22
 70
     0
102
RTVSPropertyOp23
 70
     0
102
RTVSPropertyOp24
 70
     0
102
RTVSPropertyOp25
 70
     0
102
RTVSPropertyOp26
 70
     0
102
RTVSPropertyOp27
 70
     0
102
RTVSPropertyOp28
 70
     1
102
RTVSPropertyOp29
 70
     1
102
RTVSPropertyOp30
 70
     1
102
RTVSPropertyOp31
 70
     1
102
RTVSPropertyOp32
 70
     1
  0
XRECORD
  5
B76
102
{ACAD_REACTORS
330
B75
102
}
330
B75
100
AcDbXrecord
280
     1
102
RTVSPropertyOp0
 70
     1
102
RTVSPropertyOp1
 70
     1
102
RTVSPropertyOp2
 70
     1
102
RTVSPropertyOp3
 70
     1
102
RTVSPropertyOp4
 70
     1
102
RTVSPropertyOp5
 70
     1
102
RTVSPropertyOp6
 70
     1
102
RTVSPropertyOp7
 70
     1
102
RTVSPropertyOp8
 70
     1
102
RTVSPropertyOp9
 70
     1
102
RTVSPropertyOp10
 70
     1
102
RTVSPropertyOp11
 70
     1
102
RTVSPropertyOp12
 70
     1
102
RTVSPropertyOp13
 70
     1
102
RTVSPropertyOp14
 70
     1
102
RTVSPropertyOp15
 70
     1
102
RTVSPropertyOp16
 70
     1
102
RTVSPropertyOp17
 70
     1
102
RTVSPropertyOp18
 70
     1
102
RTVSPropertyOp19
 70
     1
102
RTVSPropertyOp20
 70
     1
102
RTVSPropertyOp21
 70
     1
102
RTVSPropertyOp22
 70
     1
102
RTVSPropertyOp23
 70
     1
102
RTVSPropertyOp24
 70
     1
102
RTVSPropertyOp25
 70
     1
102
RTVSPropertyOp26
 70
     1
102
RTVSPropertyOp27
 70
     1
102
RTVSPropertyOp28
 70
     1
102
RTVSPropertyOp29
 70
     1
102
RTVSPropertyOp30
 70
     1
102
RTVSPropertyOp31
 70
     1
102
RTVSPropertyOp32
 70
     1
  0
XRECORD
  5
B8C
102
{ACAD_REACTORS
330
B8B
102
}
330
B8B
100
AcDbXrecord
280
     1
102
RTVSPropertyOp0
 70
     0
102
RTVSPropertyOp1
 70
     0
102
RTVSPropertyOp2
 70
     0
102
RTVSPropertyOp3
 70
     0
102
RTVSPropertyOp4
 70
     0
102
RTVSPropertyOp5
 70
     0
102
RTVSPropertyOp6
 70
     0
102
RTVSPropertyOp7
 70
     0
102
RTVSPropertyOp8
 70
     0
102
RTVSPropertyOp9
 70
     0
102
RTVSPropertyOp10
 70
     0
102
RTVSPropertyOp11
 70
     0
102
RTVSPropertyOp12
 70
     0
102
RTVSPropertyOp13
 70
     0
102
RTVSPropertyOp14
 70
     2
102
RTVSPropertyOp15
 70
     0
102
RTVSPropertyOp16
 70
     0
102
RTVSPropertyOp17
 70
     0
102
RTVSPropertyOp18
 70
     0
102
RTVSPropertyOp19
 70
     0
102
RTVSPropertyOp20
 70
     0
102
RTVSPropertyOp21
 70
     0
102
RTVSPropertyOp22
 70
     0
102
RTVSPropertyOp23
 70
     0
102
RTVSPropertyOp24
 70
     0
102
RTVSPropertyOp25
 70
     0
102
RTVSPropertyOp26
 70
     0
102
RTVSPropertyOp27
 70
     0
102
RTVSPropertyOp28
 70
     1
102
RTVSPropertyOp29
 70
     1
102
RTVSPropertyOp30
 70
     1
102
RTVSPropertyOp31
 70
     1
102
RTVSPropertyOp32
 70
     1
  0
XRECORD
  5
B6E
102
{ACAD_REACTORS
330
B6D
102
}
330
B6D
100
AcDbXrecord
280
     1
102
RTVSPropertyOp0
 70
     1
102
RTVSPropertyOp1
 70
     1
102
RTVSPropertyOp2
 70
     1
102
RTVSPropertyOp3
 70
     1
102
RTVSPropertyOp4
 70
     1
102
RTVSPropertyOp5
 70
     1
102
RTVSPropertyOp6
 70
     1
102
RTVSPropertyOp7
 70
     1
102
RTVSPropertyOp8
 70
     1
102
RTVSPropertyOp9
 70
     1
102
RTVSPropertyOp10
 70
     1
102
RTVSPropertyOp11
 70
     1
102
RTVSPropertyOp12
 70
     1
102
RTVSPropertyOp13
 70
     1
102
RTVSPropertyOp14
 70
     1
102
RTVSPropertyOp15
 70
     1
102
RTVSPropertyOp16
 70
     1
102
RTVSPropertyOp17
 70
     1
102
RTVSPropertyOp18
 70
     1
102
RTVSPropertyOp19
 70
     1
102
RTVSPropertyOp20
 70
     1
102
RTVSPropertyOp21
 70
     1
102
RTVSPropertyOp22
 70
     1
102
RTVSPropertyOp23
 70
     1
102
RTVSPropertyOp24
 70
     1
102
RTVSPropertyOp25
 70
     1
102
RTVSPropertyOp26
 70
     1
102
RTVSPropertyOp27
 70
     1
102
RTVSPropertyOp28
 70
     1
102
RTVSPropertyOp29
 70
     1
102
RTVSPropertyOp30
 70
     1
102
RTVSPropertyOp31
 70
     1
102
RTVSPropertyOp32
 70
     1
  0
XRECORD
  5
B88
102
{ACAD_REACTORS
330
B87
102
}
330
B87
100
AcDbXrecord
280
     1
102
RTVSPropertyOp0
 70
     1
102
RTVSPropertyOp1
 70
     1
102
RTVSPropertyOp2
 70
     1
102
RTVSPropertyOp3
 70
     1
102
RTVSPropertyOp4
 70
     1
102
RTVSPropertyOp5
 70
     1
102
RTVSPropertyOp6
 70
     1
102
RTVSPropertyOp7
 70
     1
102
RTVSPropertyOp8
 70
     1
102
RTVSPropertyOp9
 70
     1
102
RTVSPropertyOp10
 70
     1
102
RTVSPropertyOp11
 70
     1
102
RTVSPropertyOp12
 70
     1
102
RTVSPropertyOp13
 70
     1
102
RTVSPropertyOp14
 70
     1
102
RTVSPropertyOp15
 70
     1
102
RTVSPropertyOp16
 70
     1
102
RTVSPropertyOp17
 70
     1
102
RTVSPropertyOp18
 70
     1
102
RTVSPropertyOp19
 70
     1
102
RTVSPropertyOp20
 70
     1
102
RTVSPropertyOp21
 70
     1
102
RTVSPropertyOp22
 70
     1
102
RTVSPropertyOp23
 70
     1
102
RTVSPropertyOp24
 70
     1
102
RTVSPropertyOp25
 70
     1
102
RTVSPropertyOp26
 70
     1
102
RTVSPropertyOp27
 70
     1
102
RTVSPropertyOp28
 70
     1
102
RTVSPropertyOp29
 70
     1
102
RTVSPropertyOp30
 70
     1
102
RTVSPropertyOp31
 70
     1
102
RTVSPropertyOp32
 70
     1
  0
XRECORD
  5
B86
102
{ACAD_REACTORS
330
B85
102
}
330
B85
100
AcDbXrecord
280
     1
102
RTVSPropertyOp0
 70
     1
102
RTVSPropertyOp1
 70
     1
102
RTVSPropertyOp2
 70
     1
102
RTVSPropertyOp3
 70
     1
102
RTVSPropertyOp4
 70
     1
102
RTVSPropertyOp5
 70
     1
102
RTVSPropertyOp6
 70
     1
102
RTVSPropertyOp7
 70
     1
102
RTVSPropertyOp8
 70
     1
102
RTVSPropertyOp9
 70
     1
102
RTVSPropertyOp10
 70
     1
102
RTVSPropertyOp11
 70
     1
102
RTVSPropertyOp12
 70
     1
102
RTVSPropertyOp13
 70
     1
102
RTVSPropertyOp14
 70
     1
102
RTVSPropertyOp15
 70
     1
102
RTVSPropertyOp16
 70
     1
102
RTVSPropertyOp17
 70
     1
102
RTVSPropertyOp18
 70
     1
102
RTVSPropertyOp19
 70
     1
102
RTVSPropertyOp20
 70
     1
102
RTVSPropertyOp21
 70
     1
102
RTVSPropertyOp22
 70
     1
102
RTVSPropertyOp23
 70
     1
102
RTVSPropertyOp24
 70
     1
102
RTVSPropertyOp25
 70
     1
102
RTVSPropertyOp26
 70
     1
102
RTVSPropertyOp27
 70
     1
102
RTVSPropertyOp28
 70
     1
102
RTVSPropertyOp29
 70
     1
102
RTVSPropertyOp30
 70
     1
102
RTVSPropertyOp31
 70
     1
102
RTVSPropertyOp32
 70
     1
  0
XRECORD
  5
B80
102
{ACAD_REACTORS
330
B7F
102
}
330
B7F
100
AcDbXrecord
280
     1
102
RTVSPropertyOp0
 70
     1
102
RTVSPropertyOp1
 70
     1
102
RTVSPropertyOp2
 70
     1
102
RTVSPropertyOp3
 70
     1
102
RTVSPropertyOp4
 70
     1
102
RTVSPropertyOp5
 70
     1
102
RTVSPropertyOp6
 70
     1
102
RTVSPropertyOp7
 70
     1
102
RTVSPropertyOp8
 70
     1
102
RTVSPropertyOp9
 70
     1
102
RTVSPropertyOp10
 70
     1
102
RTVSPropertyOp11
 70
     1
102
RTVSPropertyOp12
 70
     1
102
RTVSPropertyOp13
 70
     1
102
RTVSPropertyOp14
 70
     1
102
RTVSPropertyOp15
 70
     1
102
RTVSPropertyOp16
 70
     1
102
RTVSPropertyOp17
 70
     1
102
RTVSPropertyOp18
 70
     1
102
RTVSPropertyOp19
 70
     1
102
RTVSPropertyOp20
 70
     1
102
RTVSPropertyOp21
 70
     1
102
RTVSPropertyOp22
 70
     1
102
RTVSPropertyOp23
 70
     1
102
RTVSPropertyOp24
 70
     1
102
RTVSPropertyOp25
 70
     1
102
RTVSPropertyOp26
 70
     1
102
RTVSPropertyOp27
 70
     1
102
RTVSPropertyOp28
 70
     1
102
RTVSPropertyOp29
 70
     1
102
RTVSPropertyOp30
 70
     1
102
RTVSPropertyOp31
 70
     1
102
RTVSPropertyOp32
 70
     1
  0
XRECORD
  5
B82
102
{ACAD_REACTORS
330
B81
102
}
330
B81
100
AcDbXrecord
280
     1
102
RTVSPropertyOp0
 70
     1
102
RTVSPropertyOp1
 70
     1
102
RTVSPropertyOp2
 70
     1
102
RTVSPropertyOp3
 70
     1
102
RTVSPropertyOp4
 70
     1
102
RTVSPropertyOp5
 70
     1
102
RTVSPropertyOp6
 70
     1
102
RTVSPropertyOp7
 70
     1
102
RTVSPropertyOp8
 70
     1
102
RTVSPropertyOp9
 70
     1
102
RTVSPropertyOp10
 70
     1
102
RTVSPropertyOp11
 70
     1
102
RTVSPropertyOp12
 70
     1
102
RTVSPropertyOp13
 70
     1
102
RTVSPropertyOp14
 70
     1
102
RTVSPropertyOp15
 70
     1
102
RTVSPropertyOp16
 70
     1
102
RTVSPropertyOp17
 70
     1
102
RTVSPropertyOp18
 70
     1
102
RTVSPropertyOp19
 70
     1
102
RTVSPropertyOp20
 70
     1
102
RTVSPropertyOp21
 70
     1
102
RTVSPropertyOp22
 70
     1
102
RTVSPropertyOp23
 70
     1
102
RTVSPropertyOp24
 70
     1
102
RTVSPropertyOp25
 70
     1
102
RTVSPropertyOp26
 70
     1
102
RTVSPropertyOp27
 70
     1
102
RTVSPropertyOp28
 70
     1
102
RTVSPropertyOp29
 70
     1
102
RTVSPropertyOp30
 70
     1
102
RTVSPropertyOp31
 70
     1
102
RTVSPropertyOp32
 70
     1
  0
XRECORD
  5
B74
102
{ACAD_REACTORS
330
B73
102
}
330
B73
100
AcDbXrecord
280
     1
102
RTVSPropertyOp0
 70
     1
102
RTVSPropertyOp1
 70
     1
102
RTVSPropertyOp2
 70
     1
102
RTVSPropertyOp3
 70
     1
102
RTVSPropertyOp4
 70
     1
102
RTVSPropertyOp5
 70
     1
102
RTVSPropertyOp6
 70
     1
102
RTVSPropertyOp7
 70
     1
102
RTVSPropertyOp8
 70
     1
102
RTVSPropertyOp9
 70
     1
102
RTVSPropertyOp10
 70
     1
102
RTVSPropertyOp11
 70
     1
102
RTVSPropertyOp12
 70
     1
102
RTVSPropertyOp13
 70
     1
102
RTVSPropertyOp14
 70
     1
102
RTVSPropertyOp15
 70
     1
102
RTVSPropertyOp16
 70
     1
102
RTVSPropertyOp17
 70
     1
102
RTVSPropertyOp18
 70
     1
102
RTVSPropertyOp19
 70
     1
102
RTVSPropertyOp20
 70
     1
102
RTVSPropertyOp21
 70
     1
102
RTVSPropertyOp22
 70
     1
102
RTVSPropertyOp23
 70
     1
102
RTVSPropertyOp24
 70
     1
102
RTVSPropertyOp25
 70
     1
102
RTVSPropertyOp26
 70
     1
102
RTVSPropertyOp27
 70
     1
102
RTVSPropertyOp28
 70
     1
102
RTVSPropertyOp29
 70
     1
102
RTVSPropertyOp30
 70
     1
102
RTVSPropertyOp31
 70
     1
102
RTVSPropertyOp32
 70
     1
  0
XRECORD
  5
B7C
102
{ACAD_REACTORS
330
B7B
102
}
330
B7B
100
AcDbXrecord
280
     1
102
RTVSPropertyOp0
 70
     1
102
RTVSPropertyOp1
 70
     1
102
RTVSPropertyOp2
 70
     1
102
RTVSPropertyOp3
 70
     1
102
RTVSPropertyOp4
 70
     1
102
RTVSPropertyOp5
 70
     1
102
RTVSPropertyOp6
 70
     1
102
RTVSPropertyOp7
 70
     1
102
RTVSPropertyOp8
 70
     1
102
RTVSPropertyOp9
 70
     1
102
RTVSPropertyOp10
 70
     1
102
RTVSPropertyOp11
 70
     1
102
RTVSPropertyOp12
 70
     1
102
RTVSPropertyOp13
 70
     1
102
RTVSPropertyOp14
 70
     1
102
RTVSPropertyOp15
 70
     1
102
RTVSPropertyOp16
 70
     1
102
RTVSPropertyOp17
 70
     1
102
RTVSPropertyOp18
 70
     1
102
RTVSPropertyOp19
 70
     1
102
RTVSPropertyOp20
 70
     1
102
RTVSPropertyOp21
 70
     1
102
RTVSPropertyOp22
 70
     1
102
RTVSPropertyOp23
 70
     1
102
RTVSPropertyOp24
 70
     1
102
RTVSPropertyOp25
 70
     1
102
RTVSPropertyOp26
 70
     1
102
RTVSPropertyOp27
 70
     1
102
RTVSPropertyOp28
 70
     1
102
RTVSPropertyOp29
 70
     1
102
RTVSPropertyOp30
 70
     1
102
RTVSPropertyOp31
 70
     1
102
RTVSPropertyOp32
 70
     1
  0
XRECORD
  5
B84
102
{ACAD_REACTORS
330
B83
102
}
330
B83
100
AcDbXrecord
280
     1
102
RTVSPropertyOp0
 70
     1
102
RTVSPropertyOp1
 70
     1
102
RTVSPropertyOp2
 70
     1
102
RTVSPropertyOp3
 70
     1
102
RTVSPropertyOp4
 70
     1
102
RTVSPropertyOp5
 70
     1
102
RTVSPropertyOp6
 70
     1
102
RTVSPropertyOp7
 70
     1
102
RTVSPropertyOp8
 70
     1
102
RTVSPropertyOp9
 70
     1
102
RTVSPropertyOp10
 70
     1
102
RTVSPropertyOp11
 70
     1
102
RTVSPropertyOp12
 70
     1
102
RTVSPropertyOp13
 70
     1
102
RTVSPropertyOp14
 70
     1
102
RTVSPropertyOp15
 70
     1
102
RTVSPropertyOp16
 70
     1
102
RTVSPropertyOp17
 70
     1
102
RTVSPropertyOp18
 70
     1
102
RTVSPropertyOp19
 70
     1
102
RTVSPropertyOp20
 70
     1
102
RTVSPropertyOp21
 70
     1
102
RTVSPropertyOp22
 70
     1
102
RTVSPropertyOp23
 70
     1
102
RTVSPropertyOp24
 70
     1
102
RTVSPropertyOp25
 70
     1
102
RTVSPropertyOp26
 70
     1
102
RTVSPropertyOp27
 70
     1
102
RTVSPropertyOp28
 70
     1
102
RTVSPropertyOp29
 70
     1
102
RTVSPropertyOp30
 70
     1
102
RTVSPropertyOp31
 70
     1
102
RTVSPropertyOp32
 70
     1
  0
ENDSEC
  0
EOF
