  0
SECTION
  2
HEADER
  9
$ACADVER
  1
AC1015
  9
$ACADMAINTVER
 70
    20
  9
$DWGCODEPAGE
  3
ANSI_932
  9
$INSBASE
 10
0.0
 20
0.0
 30
0.0
  9
$EXTMIN
 10
44.87226256088212
 20
-39.22795630919211
 30
0.0
  9
$EXTMAX
 10
654.2054812634634
 20
234.7720436908078
 30
0.0
  9
$LIMMIN
 10
0.0
 20
0.0
  9
$LIMMAX
 10
12.0
 20
9.0
  9
$ORTHOMODE
 70
     1
  9
$REGENMODE
 70
     1
  9
$FILLMODE
 70
     1
  9
$QTEXTMODE
 70
     0
  9
$MIRRTEXT
 70
     0
  9
$LTSCALE
 40
1.0
  9
$ATTMODE
 70
     1
  9
$TEXTSIZE
 40
3.2
  9
$TRACEWID
 40
0.05
  9
$TEXTSTYLE
  7
高3.2
  9
$CLAYER
  8
0
  9
$CELTYPE
  6
ByLayer
  9
$CECOLOR
 62
   256
  9
$CELTSCALE
 40
1.0
  9
$DISPSILH
 70
     0
  9
$DIMSCALE
 40
1.0
  9
$DIMASZ
 40
2.5
  9
$DIMEXO
 40
0.25
  9
$DIMDLI
 40
0.2
  9
$DIMRND
 40
0.0
  9
$DIMDLE
 40
0.0
  9
$DIMEXE
 40
1.25
  9
$DIMTP
 40
0.0
  9
$DIMTM
 40
0.0
  9
$DIMTXT
 40
3.0
  9
$DIMCEN
 40
0.0
  9
$DIMTSZ
 40
0.0
  9
$DIMTOL
 70
     0
  9
$DIMLIM
 70
     0
  9
$DIMTIH
 70
     0
  9
$DIMTOH
 70
     0
  9
$DIMSE1
 70
     0
  9
$DIMSE2
 70
     0
  9
$DIMTAD
 70
     3
  9
$DIMZIN
 70
     8
  9
$DIMBLK
  1
Open30
  9
$DIMASO
 70
     1
  9
$DIMSHO
 70
     1
  9
$DIMPOST
  1

  9
$DIMAPOST
  1

  9
$DIMALT
 70
     0
  9
$DIMALTD
 70
     3
  9
$DIMALTF
 40
0.03937007874016
  9
$DIMLFAC
 40
4.0
  9
$DIMTOFL
 70
     1
  9
$DIMTVP
 40
0.0
  9
$DIMTIX
 70
     0
  9
$DIMSOXD
 70
     0
  9
$DIMSAH
 70
     0
  9
$DIMBLK1
  1

  9
$DIMBLK2
  1

  9
$DIMSTYLE
  2
1／4
  9
$DIMCLRD
 70
     0
  9
$DIMCLRE
 70
     0
  9
$DIMCLRT
 70
     4
  9
$DIMTFAC
 40
1.0
  9
$DIMGAP
 40
0.625
  9
$DIMJUST
 70
     0
  9
$DIMSD1
 70
     0
  9
$DIMSD2
 70
     0
  9
$DIMTOLJ
 70
     0
  9
$DIMTZIN
 70
     8
  9
$DIMALTZ
 70
     0
  9
$DIMALTTZ
 70
     0
  9
$DIMUPT
 70
     1
  9
$DIMDEC
 70
     2
  9
$DIMTDEC
 70
     2
  9
$DIMALTU
 70
     2
  9
$DIMALTTD
 70
     3
  9
$DIMTXSTY
  7
Standard
  9
$DIMAUNIT
 70
     0
  9
$DIMADEC
 70
     1
  9
$DIMALTRND
 40
0.0
  9
$DIMAZIN
 70
     2
  9
$DIMDSEP
 70
    46
  9
$DIMATFIT
 70
     0
  9
$DIMFRAC
 70
     0
  9
$DIMLDRBLK
  1
Open30
  9
$DIMLUNIT
 70
     2
  9
$DIMLWD
 70
    -2
  9
$DIMLWE
 70
    -2
  9
$DIMTMOVE
 70
     0
  9
$LUNITS
 70
     2
  9
$LUPREC
 70
     4
  9
$SKETCHINC
 40
0.1
  9
$FILLETRAD
 40
0.0
  9
$AUNITS
 70
     0
  9
$AUPREC
 70
     0
  9
$MENU
  1
.
  9
$ELEVATION
 40
0.0
  9
$PELEVATION
 40
0.0
  9
$THICKNESS
 40
0.0
  9
$LIMCHECK
 70
     0
  9
$CHAMFERA
 40
0.0
  9
$CHAMFERB
 40
0.0
  9
$CHAMFERC
 40
0.0
  9
$CHAMFERD
 40
0.0
  9
$SKPOLY
 70
     0
  9
$TDCREATE
 40
2455916.651792894
  9
$TDUCREATE
 40
2455916.276792894
  9
$TDUPDATE
 40
2456856.609546991
  9
$TDUUPDATE
 40
2456856.234546991
  9
$TDINDWG
 40
0.0213735301
  9
$TDUSRTIMER
 40
0.0213733449
  9
$USRTIMER
 70
     1
  9
$ANGBASE
 50
0.0
  9
$ANGDIR
 70
     0
  9
$PDMODE
 70
     0
  9
$PDSIZE
 40
0.0
  9
$PLINEWID
 40
0.0
  9
$SPLFRAME
 70
     0
  9
$SPLINETYPE
 70
     6
  9
$SPLINESEGS
 70
     8
  9
$HANDSEED
  5
9B4
  9
$SURFTAB1
 70
     6
  9
$SURFTAB2
 70
     6
  9
$SURFTYPE
 70
     6
  9
$SURFU
 70
     6
  9
$SURFV
 70
     6
  9
$UCSBASE
  2

  9
$UCSNAME
  2

  9
$UCSORG
 10
0.0
 20
0.0
 30
0.0
  9
$UCSXDIR
 10
1.0
 20
0.0
 30
0.0
  9
$UCSYDIR
 10
0.0
 20
1.0
 30
0.0
  9
$UCSORTHOREF
  2

  9
$UCSORTHOVIEW
 70
     0
  9
$UCSORGTOP
 10
0.0
 20
0.0
 30
0.0
  9
$UCSORGBOTTOM
 10
0.0
 20
0.0
 30
0.0
  9
$UCSORGLEFT
 10
0.0
 20
0.0
 30
0.0
  9
$UCSORGRIGHT
 10
0.0
 20
0.0
 30
0.0
  9
$UCSORGFRONT
 10
0.0
 20
0.0
 30
0.0
  9
$UCSORGBACK
 10
0.0
 20
0.0
 30
0.0
  9
$PUCSBASE
  2

  9
$PUCSNAME
  2

  9
$PUCSORG
 10
0.0
 20
0.0
 30
0.0
  9
$PUCSXDIR
 10
1.0
 20
0.0
 30
0.0
  9
$PUCSYDIR
 10
0.0
 20
1.0
 30
0.0
  9
$PUCSORTHOREF
  2

  9
$PUCSORTHOVIEW
 70
     0
  9
$PUCSORGTOP
 10
0.0
 20
0.0
 30
0.0
  9
$PUCSORGBOTTOM
 10
0.0
 20
0.0
 30
0.0
  9
$PUCSORGLEFT
 10
0.0
 20
0.0
 30
0.0
  9
$PUCSORGRIGHT
 10
0.0
 20
0.0
 30
0.0
  9
$PUCSORGFRONT
 10
0.0
 20
0.0
 30
0.0
  9
$PUCSORGBACK
 10
0.0
 20
0.0
 30
0.0
  9
$USERI1
 70
     0
  9
$USERI2
 70
     0
  9
$USERI3
 70
     0
  9
$USERI4
 70
     0
  9
$USERI5
 70
     0
  9
$USERR1
 40
0.0
  9
$USERR2
 40
0.0
  9
$USERR3
 40
0.0
  9
$USERR4
 40
0.0
  9
$USERR5
 40
0.0
  9
$WORLDVIEW
 70
     1
  9
$SHADEDGE
 70
     3
  9
$SHADEDIF
 70
    70
  9
$TILEMODE
 70
     1
  9
$MAXACTVP
 70
    64
  9
$PINSBASE
 10
0.0
 20
0.0
 30
0.0
  9
$PLIMCHECK
 70
     0
  9
$PEXTMIN
 10
0.0
 20
0.0
 30
0.0
  9
$PEXTMAX
 10
0.0
 20
0.0
 30
0.0
  9
$PLIMMIN
 10
0.0
 20
0.0
  9
$PLIMMAX
 10
12.0
 20
9.0
  9
$UNITMODE
 70
     0
  9
$VISRETAIN
 70
     1
  9
$PLINEGEN
 70
     0
  9
$PSLTSCALE
 70
     1
  9
$TREEDEPTH
 70
  3020
  9
$CMLSTYLE
  2
Standard
  9
$CMLJUST
 70
     0
  9
$CMLSCALE
 40
1.0
  9
$PROXYGRAPHICS
 70
     1
  9
$MEASUREMENT
 70
     1
  9
$CELWEIGHT
370
    -1
  9
$ENDCAPS
280
     0
  9
$JOINSTYLE
280
     0
  9
$LWDISPLAY
290
     0
  9
$INSUNITS
 70
     1
  9
$HYPERLINKBASE
  1

  9
$STYLESHEET
  1

  9
$XEDIT
290
     1
  9
$CEPSNTYPE
380
     0
  9
$PSTYLEMODE
290
     1
  9
$FINGERPRINTGUID
  2
{68CE8D82-2027-4C37-BD4A-0E89827720B8}
  9
$VERSIONGUID
  2
{8C9C544B-C39F-441B-B468-4E8CE08934C5}
  9
$EXTNAMES
290
     1
  9
$PSVPSCALE
 40
0.0
  9
$OLESTARTUP
290
     0
  0
ENDSEC
  0
SECTION
  2
CLASSES
  0
CLASS
  1
ACDBDICTIONARYWDFLT
  2
AcDbDictionaryWithDefault
  3
ObjectDBX Classes
 90
        0
280
     0
281
     0
  0
CLASS
  1
ACDBPLACEHOLDER
  2
AcDbPlaceHolder
  3
ObjectDBX Classes
 90
        0
280
     0
281
     0
  0
CLASS
  1
LAYOUT
  2
AcDbLayout
  3
ObjectDBX Classes
 90
        0
280
     0
281
     0
  0
CLASS
  1
DICTIONARYVAR
  2
AcDbDictionaryVar
  3
ObjectDBX Classes
 90
        0
280
     0
281
     0
  0
CLASS
  1
TABLESTYLE
  2
AcDbTableStyle
  3
ObjectDBX Classes
 90
     4095
280
     0
281
     0
  0
CLASS
  1
MATERIAL
  2
AcDbMaterial
  3
ObjectDBX Classes
 90
     1153
280
     0
281
     0
  0
CLASS
  1
VISUALSTYLE
  2
AcDbVisualStyle
  3
ObjectDBX Classes
 90
     4095
280
     0
281
     0
  0
CLASS
  1
SORTENTSTABLE
  2
AcDbSortentsTable
  3
ObjectDBX Classes
 90
        0
280
     0
281
     0
  0
CLASS
  1
DIMASSOC
  2
AcDbDimAssoc
  3
"AcDbDimAssoc|Product Desc:     AcDim ARX App For Dimension|Company:          Autodesk, Inc.|WEB Address:      www.autodesk.com"
 90
        0
280
     0
281
     0
  0
CLASS
  1
SCALE
  2
AcDbScale
  3
ObjectDBX Classes
 90
     1153
280
     0
281
     0
  0
CLASS
  1
MLEADERSTYLE
  2
AcDbMLeaderStyle
  3
ACDB_MLEADERSTYLE_CLASS
 90
     4095
280
     0
281
     0
  0
CLASS
  1
CELLSTYLEMAP
  2
AcDbCellStyleMap
  3
ObjectDBX Classes
 90
     1152
280
     0
281
     0
  0
ENDSEC
  0
SECTION
  2
TABLES
  0
TABLE
  2
VPORT
  5
8
330
0
100
AcDbSymbolTable
 70
     1
  0
VPORT
  5
94
330
8
100
AcDbSymbolTableRecord
100
AcDbViewportTableRecord
  2
*Active
 70
     0
 10
0.0
 20
0.0
 11
1.0
 21
1.0
 12
265.5799894494121
 22
121.5674600614479
 13
0.0
 23
0.0
 14
0.5
 24
0.5
 15
0.5
 25
0.5
 16
0.0
 26
0.0
 36
1.0
 17
0.0
 27
0.0
 37
0.0
 40
538.3760906934462
 41
1.995440729483282
 42
50.0
 43
0.0
 44
0.0
 50
0.0
 51
0.0
 71
     0
 72
  1000
 73
     1
 74
     2
 75
     0
 76
     0
 77
     0
 78
     0
281
     0
 65
     1
110
0.0
120
0.0
130
0.0
111
1.0
121
0.0
131
0.0
112
0.0
122
1.0
132
0.0
 79
     0
146
0.0
  0
ENDTAB
  0
TABLE
  2
LTYPE
  5
5
330
0
100
AcDbSymbolTable
 70
     1
  0
LTYPE
  5
14
330
5
100
AcDbSymbolTableRecord
100
AcDbLinetypeTableRecord
  2
ByBlock
 70
     0
  3

 72
    65
 73
     0
 40
0.0
  0
LTYPE
  5
15
330
5
100
AcDbSymbolTableRecord
100
AcDbLinetypeTableRecord
  2
ByLayer
 70
     0
  3

 72
    65
 73
     0
 40
0.0
  0
LTYPE
  5
16
330
5
100
AcDbSymbolTableRecord
100
AcDbLinetypeTableRecord
  2
Continuous
 70
     0
  3
Solid line
 72
    65
 73
     0
 40
0.0
  0
ENDTAB
  0
TABLE
  2
LAYER
  5
2
102
{ACAD_XDICTIONARY
360
DD
102
}
330
0
100
AcDbSymbolTable
 70
     2
  0
LAYER
  5
10
102
{ACAD_XDICTIONARY
360
60C
102
}
330
2
100
AcDbSymbolTableRecord
100
AcDbLayerTableRecord
  2
0
 70
     0
 62
     7
  6
Continuous
370
    -3
390
F
  0
LAYER
  5
D8
330
2
100
AcDbSymbolTableRecord
100
AcDbLayerTableRecord
  2
Defpoints
 70
     0
 62
     7
  6
Continuous
290
     0
370
    -3
390
F
  0
ENDTAB
  0
TABLE
  2
STYLE
  5
3
330
0
100
AcDbSymbolTable
 70
     6
  0
STYLE
  5
11
330
3
100
AcDbSymbolTableRecord
100
AcDbTextStyleTableRecord
  2
Standard
 70
     0
 40
0.0
 41
1.0
 50
0.0
 71
     0
 42
0.2
  3
txt.shx
  4
bigfont.shx
  0
STYLE
  5
11D
330
3
100
AcDbSymbolTableRecord
100
AcDbTextStyleTableRecord
  2
高3.2
 70
     0
 40
3.2
 41
1.0
 50
0.0
 71
     0
 42
3.2
  3
txt.shx
  4
bigfont.shx
  0
STYLE
  5
11E
330
3
100
AcDbSymbolTableRecord
100
AcDbTextStyleTableRecord
  2
高6.3
 70
     0
 40
6.299999999999998
 41
1.0
 50
0.0
 71
     0
 42
6.299999999999998
  3
txt.shx
  4
bigfont.shx
  0
STYLE
  5
11F
330
3
100
AcDbSymbolTableRecord
100
AcDbTextStyleTableRecord
  2
高2.5
 70
     0
 40
2.5
 41
1.0
 50
0.0
 71
     0
 42
0.2
  3
txt.shx
  4
bigfont.shx
  0
STYLE
  5
146
330
3
100
AcDbSymbolTableRecord
100
AcDbTextStyleTableRecord
  2
高4.5
 70
     0
 40
4.5
 41
1.0
 50
0.0
 71
     0
 42
6.299999999999998
  3
txt.shx
  4
bigfont.shx
  0
STYLE
  5
171
330
3
100
AcDbSymbolTableRecord
100
AcDbTextStyleTableRecord
  2
高2
 70
     0
 40
2.0
 41
1.0
 50
0.0
 71
     0
 42
6.299999999999998
  3
txt.shx
  4
bigfont.shx
  0
ENDTAB
  0
TABLE
  2
VIEW
  5
6
330
0
100
AcDbSymbolTable
 70
     0
  0
ENDTAB
  0
TABLE
  2
UCS
  5
7
330
0
100
AcDbSymbolTable
 70
     0
  0
ENDTAB
  0
TABLE
  2
APPID
  5
9
330
0
100
AcDbSymbolTable
 70
    10
  0
APPID
  5
12
330
9
100
AcDbSymbolTableRecord
100
AcDbRegAppTableRecord
  2
ACAD
 70
     0
  0
APPID
  5
DC
330
9
100
AcDbSymbolTableRecord
100
AcDbRegAppTableRecord
  2
ACAD_DSTYLE_DIMJOGGED_JOGANGLE_SYMBOL
 70
     0
  0
APPID
  5
4F2
330
9
100
AcDbSymbolTableRecord
100
AcDbRegAppTableRecord
  2
ACAD_DSTYLE_DIMJAG
 70
     0
  0
APPID
  5
4F3
330
9
100
AcDbSymbolTableRecord
100
AcDbRegAppTableRecord
  2
ACAD_DSTYLE_DIMBREAK
 70
     0
  0
APPID
  5
4F4
330
9
100
AcDbSymbolTableRecord
100
AcDbRegAppTableRecord
  2
ACAD_DSTYLE_DIMTALN
 70
     0
  0
APPID
  5
5E6
330
9
100
AcDbSymbolTableRecord
100
AcDbRegAppTableRecord
  2
ACAD_PSEXT
 70
     0
  0
APPID
  5
5F7
330
9
100
AcDbSymbolTableRecord
100
AcDbRegAppTableRecord
  2
ACAD_EXEMPT_FROM_CAD_STANDARDS
 70
     0
  0
APPID
  5
649
330
9
100
AcDbSymbolTableRecord
100
AcDbRegAppTableRecord
  2
ACAD_DSTYLE_DIMARC_LENGTH_SYMBOL
 70
     0
  0
APPID
  5
64A
330
9
100
AcDbSymbolTableRecord
100
AcDbRegAppTableRecord
  2
ACAD_DSTYLE_DIMEXT_LENGTH
 70
     0
  0
APPID
  5
65F
330
9
100
AcDbSymbolTableRecord
100
AcDbRegAppTableRecord
  2
ACAD_MLEADERVER
 70
     0
  0
ENDTAB
  0
TABLE
  2
DIMSTYLE
  5
A
330
0
100
AcDbSymbolTable
 70
    11
100
AcDbDimStyleTable
 71
     1
340
4F5
  0
DIMSTYLE
105
4F5
102
{ACAD_REACTORS
330
450
102
}
330
A
100
AcDbSymbolTableRecord
100
AcDbDimStyleTableRecord
  2
1／4
 70
     0
 41
2.5
 42
0.25
 43
0.2
 44
1.25
 73
     0
 74
     0
 77
     3
 78
     8
 79
     2
140
3.0
141
0.0
143
0.03937007874016
144
4.0
147
0.625
171
     3
172
     1
178
     4
179
     1
271
     2
272
     2
274
     3
283
     0
284
     8
288
     1
289
     0
340
11
341
C6
342
C6
1001
ACAD_DSTYLE_DIMBREAK
1070
   391
1040
3.75
1001
ACAD_DSTYLE_DIMJAG
1070
   388
1040
1.5
1001
ACAD_DSTYLE_DIMTALN
1070
   392
1070
     0
1001
ACAD_DSTYLE_DIMARC_LENGTH_SYMBOL
1070
   379
1070
     2
1001
ACAD_DSTYLE_DIMEXT_LENGTH
1070
   378
1040
1.25
1001
ACAD_DSTYLE_DIMJOGGED_JOGANGLE_SYMBOL
1070
   384
1040
1.570796326794896
  0
DIMSTYLE
105
5E5
330
A
100
AcDbSymbolTableRecord
100
AcDbDimStyleTableRecord
  2
Standard
 70
     0
340
11
  0
DIMSTYLE
105
772
102
{ACAD_REACTORS
330
77E
102
}
330
A
100
AcDbSymbolTableRecord
100
AcDbDimStyleTableRecord
  2
1：1
 70
     0
 41
2.5
 42
0.25
 43
0.2
 44
1.25
 73
     0
 74
     0
 77
     3
 78
     8
 79
     2
140
3.0
141
0.0
143
0.03937007874016
147
0.625
171
     3
172
     1
178
     4
179
     1
271
     2
272
     2
274
     3
283
     0
284
     8
288
     1
289
     0
340
11
341
C6
342
C6
1001
ACAD_DSTYLE_DIMARC_LENGTH_SYMBOL
1070
   379
1070
     2
1001
ACAD_DSTYLE_DIMEXT_LENGTH
1070
   378
1040
1.25
1001
ACAD_DSTYLE_DIMJOGGED_JOGANGLE_SYMBOL
1070
   384
1040
1.570796326794896
  0
DIMSTYLE
105
773
102
{ACAD_REACTORS
330
783
102
}
330
A
100
AcDbSymbolTableRecord
100
AcDbDimStyleTableRecord
  2
2：1
 70
     0
 41
2.5
 42
0.25
 43
0.2
 44
1.25
 73
     0
 74
     0
 77
     3
 78
     8
 79
     2
140
3.0
141
0.0
143
0.03937007874016
144
0.5
147
0.625
171
     3
172
     1
178
     4
179
     1
271
     2
272
     2
274
     3
283
     0
284
     8
288
     1
289
     0
340
11
341
C6
342
C6
1001
ACAD_DSTYLE_DIMARC_LENGTH_SYMBOL
1070
   379
1070
     2
1001
ACAD_DSTYLE_DIMEXT_LENGTH
1070
   378
1040
1.25
1001
ACAD_DSTYLE_DIMJOGGED_JOGANGLE_SYMBOL
1070
   384
1040
1.570796326794896
  0
DIMSTYLE
105
774
102
{ACAD_REACTORS
330
784
102
}
330
A
100
AcDbSymbolTableRecord
100
AcDbDimStyleTableRecord
  2
5：1
 70
     0
 41
2.5
 42
0.25
 43
0.2
 44
1.25
 73
     0
 74
     0
 77
     3
 78
     8
 79
     2
140
3.0
141
0.0
143
0.03937007874016
144
0.2
147
0.625
171
     3
172
     1
178
     4
179
     1
271
     2
272
     2
274
     3
283
     0
284
     8
288
     1
289
     0
340
11
341
C6
342
C6
1001
ACAD_DSTYLE_DIMARC_LENGTH_SYMBOL
1070
   379
1070
     2
1001
ACAD_DSTYLE_DIMEXT_LENGTH
1070
   378
1040
1.25
1001
ACAD_DSTYLE_DIMJOGGED_JOGANGLE_SYMBOL
1070
   384
1040
1.570796326794896
  0
DIMSTYLE
105
775
102
{ACAD_REACTORS
330
782
102
}
330
A
100
AcDbSymbolTableRecord
100
AcDbDimStyleTableRecord
  2
10：1
 70
     0
 41
2.5
 42
0.25
 43
0.2
 44
1.25
 73
     0
 74
     0
 77
     3
 78
     8
 79
     2
140
3.0
141
0.0
143
0.03937007874016
144
0.1
147
0.625
171
     3
172
     1
178
     4
179
     1
271
     2
272
     2
274
     3
283
     0
284
     8
288
     1
289
     0
340
11
341
C6
342
C6
1001
ACAD_DSTYLE_DIMARC_LENGTH_SYMBOL
1070
   379
1070
     2
1001
ACAD_DSTYLE_DIMEXT_LENGTH
1070
   378
1040
1.25
1001
ACAD_DSTYLE_DIMJOGGED_JOGANGLE_SYMBOL
1070
   384
1040
1.570796326794896
  0
DIMSTYLE
105
776
102
{ACAD_REACTORS
330
780
102
}
330
A
100
AcDbSymbolTableRecord
100
AcDbDimStyleTableRecord
  2
1／2
 70
     0
 41
2.5
 42
0.25
 43
0.2
 44
1.25
 73
     0
 74
     0
 77
     3
 78
     8
 79
     2
140
3.0
141
0.0
143
0.03937007874016
144
2.0
147
0.625
171
     3
172
     1
178
     4
179
     1
271
     2
272
     2
274
     3
283
     0
284
     8
288
     1
289
     0
340
11
341
C6
342
C6
1001
ACAD_DSTYLE_DIMARC_LENGTH_SYMBOL
1070
   379
1070
     2
1001
ACAD_DSTYLE_DIMEXT_LENGTH
1070
   378
1040
1.25
1001
ACAD_DSTYLE_DIMJOGGED_JOGANGLE_SYMBOL
1070
   384
1040
1.570796326794896
  0
DIMSTYLE
105
777
102
{ACAD_REACTORS
330
77F
102
}
330
A
100
AcDbSymbolTableRecord
100
AcDbDimStyleTableRecord
  2
1／5
 70
     0
 41
2.5
 42
0.25
 43
0.2
 44
1.25
 73
     0
 74
     0
 77
     3
 78
     8
 79
     2
140
3.0
141
0.0
143
0.03937007874016
144
5.0
147
0.625
171
     3
172
     1
178
     4
179
     1
271
     2
272
     2
274
     3
283
     0
284
     8
288
     1
289
     0
340
11
341
C6
342
C6
1001
ACAD_DSTYLE_DIMARC_LENGTH_SYMBOL
1070
   379
1070
     2
1001
ACAD_DSTYLE_DIMEXT_LENGTH
1070
   378
1040
1.25
1001
ACAD_DSTYLE_DIMJOGGED_JOGANGLE_SYMBOL
1070
   384
1040
1.570796326794896
  0
DIMSTYLE
105
778
102
{ACAD_REACTORS
330
781
102
}
330
A
100
AcDbSymbolTableRecord
100
AcDbDimStyleTableRecord
  2
1／10
 70
     0
 41
2.5
 42
0.25
 43
0.2
 44
1.25
 73
     0
 74
     0
 77
     3
 78
     8
 79
     2
140
3.0
141
0.0
143
0.03937007874016
144
10.0
147
0.625
171
     3
172
     1
178
     4
179
     1
271
     2
272
     2
274
     3
283
     0
284
     8
288
     1
289
     0
340
11
341
C6
342
C6
1001
ACAD_DSTYLE_DIMARC_LENGTH_SYMBOL
1070
   379
1070
     2
1001
ACAD_DSTYLE_DIMEXT_LENGTH
1070
   378
1040
1.25
1001
ACAD_DSTYLE_DIMJOGGED_JOGANGLE_SYMBOL
1070
   384
1040
1.570796326794896
  0
DIMSTYLE
105
779
102
{ACAD_REACTORS
330
786
102
}
330
A
100
AcDbSymbolTableRecord
100
AcDbDimStyleTableRecord
  2
1／3
 70
     0
 41
2.5
 42
0.25
 43
0.2
 44
1.25
 73
     0
 74
     0
 77
     3
 78
     8
 79
     2
140
3.0
141
0.0
143
0.03937007874016
144
3.0
147
0.625
171
     3
172
     1
178
     4
179
     1
271
     2
272
     2
274
     3
283
     0
284
     8
288
     1
289
     0
340
11
341
C6
342
C6
1001
ACAD_DSTYLE_DIMARC_LENGTH_SYMBOL
1070
   379
1070
     2
1001
ACAD_DSTYLE_DIMEXT_LENGTH
1070
   378
1040
1.25
1001
ACAD_DSTYLE_DIMJOGGED_JOGANGLE_SYMBOL
1070
   384
1040
1.570796326794896
  0
DIMSTYLE
105
77A
102
{ACAD_REACTORS
330
787
102
}
330
A
100
AcDbSymbolTableRecord
100
AcDbDimStyleTableRecord
  2
FREE
 70
     0
 41
2.5
 42
0.25
 43
0.2
 44
1.25
 73
     0
 74
     0
 77
     3
 78
     8
 79
     2
140
3.0
141
0.0
143
0.03937007874016
147
0.625
171
     3
172
     1
178
     4
179
     1
271
     2
272
     2
274
     3
283
     0
284
     8
288
     1
289
     0
340
11
341
C6
342
C6
1001
ACAD_DSTYLE_DIMBREAK
1070
   391
1040
3.75
1001
ACAD_DSTYLE_DIMJAG
1070
   388
1040
1.5
1001
ACAD_DSTYLE_DIMTALN
1070
   392
1070
     0
1001
ACAD_DSTYLE_DIMARC_LENGTH_SYMBOL
1070
   379
1070
     2
1001
ACAD_DSTYLE_DIMEXT_LENGTH
1070
   378
1040
1.25
1001
ACAD_DSTYLE_DIMJOGGED_JOGANGLE_SYMBOL
1070
   384
1040
1.570796326794896
  0
ENDTAB
  0
TABLE
  2
BLOCK_RECORD
  5
1
330
0
100
AcDbSymbolTable
 70
    26
  0
BLOCK_RECORD
  5
1F
102
{ACAD_XDICTIONARY
360
5E2
102
}
330
1
100
AcDbSymbolTableRecord
100
AcDbBlockTableRecord
  2
*Model_Space
340
22
  0
BLOCK_RECORD
  5
58
330
1
100
AcDbSymbolTableRecord
100
AcDbBlockTableRecord
  2
*Paper_Space
340
59
  0
BLOCK_RECORD
  5
5D
330
1
100
AcDbSymbolTableRecord
100
AcDbBlockTableRecord
  2
*Paper_Space0
340
5E
  0
BLOCK_RECORD
  5
C6
330
1
100
AcDbSymbolTableRecord
100
AcDbBlockTableRecord
  2
_Open30
340
0
102
{BLKREFS
331
6CF
331
6D0
331
6D8
331
6D9
331
6E1
331
6E2
331
6EF
331
6F0
331
6FD
331
6FE
331
70B
331
70C
331
719
331
71A
331
727
331
728
331
735
331
736
331
743
331
744
331
751
331
752
331
75F
331
760
331
76B
331
76C
331
854
331
855
331
85F
331
860
331
86A
331
86B
331
875
331
876
331
880
331
881
331
88B
331
88C
331
896
331
897
331
8A1
331
8A2
331
8AC
331
8AD
331
8B5
331
8B6
102
}
  0
BLOCK_RECORD
  5
453
330
1
100
AcDbSymbolTableRecord
100
AcDbBlockTableRecord
  2
*D2
340
0
  0
BLOCK_RECORD
  5
45F
330
1
100
AcDbSymbolTableRecord
100
AcDbBlockTableRecord
  2
*D3
340
0
  0
BLOCK_RECORD
  5
46B
330
1
100
AcDbSymbolTableRecord
100
AcDbBlockTableRecord
  2
*D4
340
0
  0
BLOCK_RECORD
  5
6E8
330
1
100
AcDbSymbolTableRecord
100
AcDbBlockTableRecord
  2
*D5
340
0
  0
BLOCK_RECORD
  5
6F6
330
1
100
AcDbSymbolTableRecord
100
AcDbBlockTableRecord
  2
*D6
340
0
  0
BLOCK_RECORD
  5
704
330
1
100
AcDbSymbolTableRecord
100
AcDbBlockTableRecord
  2
*D7
340
0
  0
BLOCK_RECORD
  5
712
330
1
100
AcDbSymbolTableRecord
100
AcDbBlockTableRecord
  2
*D8
340
0
  0
BLOCK_RECORD
  5
720
330
1
100
AcDbSymbolTableRecord
100
AcDbBlockTableRecord
  2
*D9
340
0
  0
BLOCK_RECORD
  5
72E
330
1
100
AcDbSymbolTableRecord
100
AcDbBlockTableRecord
  2
*D10
340
0
  0
BLOCK_RECORD
  5
73C
330
1
100
AcDbSymbolTableRecord
100
AcDbBlockTableRecord
  2
*D11
340
0
  0
BLOCK_RECORD
  5
74A
330
1
100
AcDbSymbolTableRecord
100
AcDbBlockTableRecord
  2
*D12
340
0
  0
BLOCK_RECORD
  5
758
330
1
100
AcDbSymbolTableRecord
100
AcDbBlockTableRecord
  2
*D13
340
0
  0
BLOCK_RECORD
  5
766
330
1
100
AcDbSymbolTableRecord
100
AcDbBlockTableRecord
  2
*D14
340
0
  0
BLOCK_RECORD
  5
7C5
330
1
100
AcDbSymbolTableRecord
100
AcDbBlockTableRecord
  2
*D16
340
0
  0
BLOCK_RECORD
  5
7D3
330
1
100
AcDbSymbolTableRecord
100
AcDbBlockTableRecord
  2
*D17
340
0
  0
BLOCK_RECORD
  5
7E1
330
1
100
AcDbSymbolTableRecord
100
AcDbBlockTableRecord
  2
*D18
340
0
  0
BLOCK_RECORD
  5
7EF
330
1
100
AcDbSymbolTableRecord
100
AcDbBlockTableRecord
  2
*D19
340
0
  0
BLOCK_RECORD
  5
7FD
330
1
100
AcDbSymbolTableRecord
100
AcDbBlockTableRecord
  2
*D20
340
0
  0
BLOCK_RECORD
  5
80B
330
1
100
AcDbSymbolTableRecord
100
AcDbBlockTableRecord
  2
*D21
340
0
  0
BLOCK_RECORD
  5
819
330
1
100
AcDbSymbolTableRecord
100
AcDbBlockTableRecord
  2
*D22
340
0
  0
BLOCK_RECORD
  5
827
330
1
100
AcDbSymbolTableRecord
100
AcDbBlockTableRecord
  2
*D23
340
0
  0
BLOCK_RECORD
  5
835
330
1
100
AcDbSymbolTableRecord
100
AcDbBlockTableRecord
  2
*D24
340
0
  0
BLOCK_RECORD
  5
843
330
1
100
AcDbSymbolTableRecord
100
AcDbBlockTableRecord
  2
*D25
340
0
  0
ENDTAB
  0
ENDSEC
  0
SECTION
  2
BLOCKS
  0
BLOCK
  5
20
330
1F
100
AcDbEntity
  8
0
100
AcDbBlockBegin
  2
*Model_Space
 70
     0
 10
0.0
 20
0.0
 30
0.0
  3
*Model_Space
  1

  0
ENDBLK
  5
21
330
1F
100
AcDbEntity
  8
0
100
AcDbBlockEnd
  0
BLOCK
  5
5A
330
58
100
AcDbEntity
 67
     1
  8
0
100
AcDbBlockBegin
  2
*Paper_Space
 70
     0
 10
0.0
 20
0.0
 30
0.0
  3
*Paper_Space
  1

  0
ENDBLK
  5
5B
330
58
100
AcDbEntity
 67
     1
  8
0
100
AcDbBlockEnd
  0
BLOCK
  5
5F
330
5D
100
AcDbEntity
 67
     1
  8
0
100
AcDbBlockBegin
  2
*Paper_Space0
 70
     0
 10
0.0
 20
0.0
 30
0.0
  3
*Paper_Space0
  1

  0
ENDBLK
  5
60
330
5D
100
AcDbEntity
 67
     1
  8
0
100
AcDbBlockEnd
  0
BLOCK
  5
C7
330
C6
100
AcDbEntity
  8
0
100
AcDbBlockBegin
  2
_Open30
 70
     0
 10
0.0
 20
0.0
 30
0.0
  3
_Open30
  1

  0
LINE
  5
C8
330
C6
100
AcDbEntity
  8
0
  6
ByBlock
 62
     0
370
    -2
100
AcDbLine
 10
-1.0
 20
0.267949
 30
0.0
 11
0.0
 21
0.0
 31
0.0
  0
LINE
  5
C9
330
C6
100
AcDbEntity
  8
0
  6
ByBlock
 62
     0
370
    -2
100
AcDbLine
 10
0.0
 20
0.0
 30
0.0
 11
-1.0
 21
-0.267949
 31
0.0
  0
LINE
  5
CA
330
C6
100
AcDbEntity
  8
0
  6
ByBlock
 62
     0
370
    -2
100
AcDbLine
 10
0.0
 20
0.0
 30
0.0
 11
-1.0
 21
0.0
 31
0.0
  0
ENDBLK
  5
CB
330
C6
100
AcDbEntity
  8
0
100
AcDbBlockEnd
  0
BLOCK
  5
454
330
453
100
AcDbEntity
  8
0
100
AcDbBlockBegin
  2
*D2
 70
     1
 10
0.0
 20
0.0
 30
0.0
  3
*D2
  1

  0
LINE
  5
6DE
330
453
100
AcDbEntity
  8
0
 62
     0
370
    -2
100
AcDbLine
 10
177.6263236254349
 20
128.0816901724375
 30
0.0
 11
177.6263236254349
 21
143.2216620056889
 31
0.0
  0
LINE
  5
6DF
330
453
100
AcDbEntity
  8
0
 62
     0
370
    -2
100
AcDbLine
 10
122.8763236254349
 20
128.0816901724375
 30
0.0
 11
122.8763236254349
 21
143.2216620056889
 31
0.0
  0
LINE
  5
6E0
330
453
100
AcDbEntity
  8
0
 62
     0
370
    -2
100
AcDbLine
 10
175.1263236254349
 20
141.971662005689
 30
0.0
 11
125.3763236254349
 21
141.971662005689
 31
0.0
  0
INSERT
  5
6E1
330
453
100
AcDbEntity
  8
0
 62
     0
370
    -2
100
AcDbBlockReference
  2
_Open30
 10
177.6263236254349
 20
141.971662005689
 30
0.0
 41
2.5
 42
2.5
 43
2.5
  0
INSERT
  5
6E2
330
453
100
AcDbEntity
  8
0
 62
     0
370
    -2
100
AcDbBlockReference
  2
_Open30
 10
122.8763236254349
 20
141.971662005689
 30
0.0
 41
2.5
 42
2.5
 43
2.5
 50
180.0
  0
MTEXT
  5
6E3
330
453
100
AcDbEntity
  8
0
 62
     4
100
AcDbMText
 10
150.6178045305
 20
144.0966620056889
 30
0.0
 40
3.0
 41
0.0
 71
     5
 72
     1
  1
219
 73
     1
 44
1.0
1001
ACAD
1000
MTEXTBEGIN
1070
    73
1070
     1
1070
    44
1040
1.0
1070
    74
1070
     0
1000
MTEXTEND
  0
POINT
  5
6E4
330
453
100
AcDbEntity
  8
Defpoints
 62
     0
100
AcDbPoint
 10
177.6263236254349
 20
127.8316901724375
 30
0.0
  0
POINT
  5
6E5
330
453
100
AcDbEntity
  8
Defpoints
 62
     0
100
AcDbPoint
 10
122.8763236254349
 20
127.8316901724375
 30
0.0
  0
POINT
  5
6E6
330
453
100
AcDbEntity
  8
Defpoints
 62
     0
100
AcDbPoint
 10
122.8763236254349
 20
141.971662005689
 30
0.0
  0
ENDBLK
  5
455
330
453
100
AcDbEntity
  8
0
100
AcDbBlockEnd
  0
BLOCK
  5
460
330
45F
100
AcDbEntity
  8
0
100
AcDbBlockBegin
  2
*D3
 70
     1
 10
0.0
 20
0.0
 30
0.0
  3
*D3
  1

  0
LINE
  5
6D5
330
45F
100
AcDbEntity
  8
0
 62
     0
370
    -2
100
AcDbLine
 10
126.3763236254349
 20
131.5816901724375
 30
0.0
 11
108.043149975233
 21
131.5816901724375
 31
0.0
  0
LINE
  5
6D6
330
45F
100
AcDbEntity
  8
0
 62
     0
370
    -2
100
AcDbLine
 10
126.3763236254349
 20
86.83169017243754
 30
0.0
 11
108.043149975233
 21
86.83169017243754
 31
0.0
  0
LINE
  5
6D7
330
45F
100
AcDbEntity
  8
0
 62
     0
370
    -2
100
AcDbLine
 10
109.293149975233
 20
129.0816901724375
 30
0.0
 11
109.293149975233
 21
89.33169017243754
 31
0.0
  0
INSERT
  5
6D8
330
45F
100
AcDbEntity
  8
0
 62
     0
370
    -2
100
AcDbBlockReference
  2
_Open30
 10
109.293149975233
 20
131.5816901724375
 30
0.0
 41
2.5
 42
2.5
 43
2.5
 50
90.0
  0
INSERT
  5
6D9
330
45F
100
AcDbEntity
  8
0
 62
     0
370
    -2
100
AcDbBlockReference
  2
_Open30
 10
109.293149975233
 20
86.83169017243754
 30
0.0
 41
2.5
 42
2.5
 43
2.5
 50
270.0
  0
MTEXT
  5
6DA
330
45F
100
AcDbEntity
  8
0
 62
     4
100
AcDbMText
 10
107.168149975233
 20
107.6479215240903
 30
0.0
 40
3.0
 41
0.0
 71
     5
 72
     1
  1
179
 11
0.0000000000000001
 21
1.0
 31
0.0
 73
     1
 44
1.0
1001
ACAD
1000
MTEXTBEGIN
1070
    73
1070
     1
1070
    44
1040
1.0
1070
    74
1070
     0
1000
MTEXTEND
  0
POINT
  5
6DB
330
45F
100
AcDbEntity
  8
Defpoints
 62
     0
100
AcDbPoint
 10
126.6263236254349
 20
131.5816901724375
 30
0.0
  0
POINT
  5
6DC
330
45F
100
AcDbEntity
  8
Defpoints
 62
     0
100
AcDbPoint
 10
126.6263236254349
 20
86.83169017243754
 30
0.0
  0
POINT
  5
6DD
330
45F
100
AcDbEntity
  8
Defpoints
 62
     0
100
AcDbPoint
 10
109.293149975233
 20
86.83169017243754
 30
0.0
  0
ENDBLK
  5
461
330
45F
100
AcDbEntity
  8
0
100
AcDbBlockEnd
  0
BLOCK
  5
46C
330
46B
100
AcDbEntity
  8
0
100
AcDbBlockBegin
  2
*D4
 70
     1
 10
0.0
 20
0.0
 30
0.0
  3
*D4
  1

  0
LINE
  5
6CA
330
46B
100
AcDbEntity
  8
0
 62
     0
370
    -2
100
AcDbLine
 10
223.8226360971863
 20
131.8316901724375
 30
0.0
 11
223.8226360971863
 21
137.8458090613416
 31
0.0
  0
LINE
  5
6CB
330
46B
100
AcDbEntity
  8
0
 62
     0
370
    -2
100
AcDbLine
 10
222.8226360971863
 20
131.8316901724375
 30
0.0
 11
222.8226360971863
 21
137.8458090613416
 31
0.0
  0
LINE
  5
6CC
330
46B
100
AcDbEntity
  8
0
 62
     0
370
    -2
100
AcDbLine
 10
226.3226360971863
 20
136.5958090613416
 30
0.0
 11
228.8226360971863
 21
136.5958090613416
 31
0.0
  0
LINE
  5
6CD
330
46B
100
AcDbEntity
  8
0
 62
     0
370
    -2
100
AcDbLine
 10
220.3226360971863
 20
136.5958090613416
 30
0.0
 11
208.5726360971863
 21
136.5958090613416
 31
0.0
  0
LINE
  5
6CE
330
46B
100
AcDbEntity
  8
0
 62
     0
370
    -2
100
AcDbLine
 10
223.8226360971863
 20
136.5958090613416
 30
0.0
 11
222.8226360971863
 21
136.5958090613416
 31
0.0
  0
INSERT
  5
6CF
330
46B
100
AcDbEntity
  8
0
 62
     0
370
    -2
100
AcDbBlockReference
  2
_Open30
 10
223.8226360971863
 20
136.5958090613416
 30
0.0
 41
2.5
 42
2.5
 43
2.5
 50
180.0
  0
INSERT
  5
6D0
330
46B
100
AcDbEntity
  8
0
 62
     0
370
    -2
100
AcDbBlockReference
  2
_Open30
 10
222.8226360971863
 20
136.5958090613416
 30
0.0
 41
2.5
 42
2.5
 43
2.5
  0
MTEXT
  5
6D1
330
46B
100
AcDbEntity
  8
0
 62
     4
100
AcDbMText
 10
213.1976360971863
 20
138.7208090613416
 30
0.0
 40
3.0
 41
0.0
 71
     5
 72
     1
  1
t=4
 73
     1
 44
1.0
1001
ACAD
1000
MTEXTBEGIN
1070
    73
1070
     1
1070
    44
1040
1.0
1070
    74
1070
     0
1000
MTEXTEND
  0
POINT
  5
6D2
330
46B
100
AcDbEntity
  8
Defpoints
 62
     0
100
AcDbPoint
 10
223.8226360971863
 20
131.5816901724375
 30
0.0
  0
POINT
  5
6D3
330
46B
100
AcDbEntity
  8
Defpoints
 62
     0
100
AcDbPoint
 10
222.8226360971863
 20
131.5816901724375
 30
0.0
  0
POINT
  5
6D4
330
46B
100
AcDbEntity
  8
Defpoints
 62
     0
100
AcDbPoint
 10
222.8226360971863
 20
136.5958090613416
 30
0.0
  0
ENDBLK
  5
46D
330
46B
100
AcDbEntity
  8
0
100
AcDbBlockEnd
  0
BLOCK
  5
6E9
330
6E8
100
AcDbEntity
  8
0
100
AcDbBlockBegin
  2
*D5
 70
     1
 10
0.0
 20
0.0
 30
0.0
  3
*D5
  1

  0
LINE
  5
6EA
330
6E8
100
AcDbEntity
  8
0
 62
     0
370
    -2
100
AcDbLine
 10
-178.2339678749101
 20
-812.0370112307897
 30
0.0
 11
-178.2339678749101
 21
-814.9466426527986
 31
0.0
  0
LINE
  5
6EB
330
6E8
100
AcDbEntity
  8
0
 62
     0
370
    -2
100
AcDbLine
 10
-180.6911549290304
 20
-812.0370112307897
 30
0.0
 11
-180.6911549290304
 21
-814.9466426527986
 31
0.0
  0
LINE
  5
6EC
330
6E8
100
AcDbEntity
  8
0
 62
     0
370
    -2
100
AcDbLine
 10
-175.7339678749101
 20
-813.6966426527985
 30
0.0
 11
-173.2339678749101
 21
-813.6966426527985
 31
0.0
  0
LINE
  5
6ED
330
6E8
100
AcDbEntity
  8
0
 62
     0
370
    -2
100
AcDbLine
 10
-183.1911549290304
 20
-813.6966426527985
 30
0.0
 11
-195.9411549290304
 21
-813.6966426527985
 31
0.0
  0
LINE
  5
6EE
330
6E8
100
AcDbEntity
  8
0
 62
     0
370
    -2
100
AcDbLine
 10
-178.2339678749101
 20
-813.6966426527985
 30
0.0
 11
-180.6911549290304
 21
-813.6966426527985
 31
0.0
  0
INSERT
  5
6EF
330
6E8
100
AcDbEntity
  8
0
 62
     0
370
    -2
100
AcDbBlockReference
  2
_Open30
 10
-178.2339678749101
 20
-813.6966426527985
 30
0.0
 41
2.5
 42
2.5
 43
2.5
 50
180.0
  0
INSERT
  5
6F0
330
6E8
100
AcDbEntity
  8
0
 62
     0
370
    -2
100
AcDbBlockReference
  2
_Open30
 10
-180.6911549290304
 20
-813.6966426527985
 30
0.0
 41
2.5
 42
2.5
 43
2.5
  0
MTEXT
  5
6F1
330
6E8
100
AcDbEntity
  8
0
 62
     4
100
AcDbMText
 10
-190.8161549290304
 20
-811.5716426527985
 30
0.0
 40
3.0
 41
0.0
 71
     5
 72
     1
  1
2.46
 73
     1
 44
1.0
1001
ACAD
1000
MTEXTBEGIN
1070
    73
1070
     1
1070
    44
1040
1.0
1070
    74
1070
     0
1000
MTEXTEND
  0
POINT
  5
6F2
330
6E8
100
AcDbEntity
  8
Defpoints
 62
     0
100
AcDbPoint
 10
-178.2339678749101
 20
-811.7870112307898
 30
0.0
  0
POINT
  5
6F3
330
6E8
100
AcDbEntity
  8
Defpoints
 62
     0
100
AcDbPoint
 10
-180.6911549290304
 20
-811.7870112307898
 30
0.0
  0
POINT
  5
6F4
330
6E8
100
AcDbEntity
  8
Defpoints
 62
     0
100
AcDbPoint
 10
-180.6911549290304
 20
-813.6966426527985
 30
0.0
  0
ENDBLK
  5
6F5
330
6E8
100
AcDbEntity
  8
0
100
AcDbBlockEnd
  0
BLOCK
  5
6F7
330
6F6
100
AcDbEntity
  8
0
100
AcDbBlockBegin
  2
*D6
 70
     1
 10
0.0
 20
0.0
 30
0.0
  3
*D6
  1

  0
LINE
  5
6F8
330
6F6
100
AcDbEntity
  8
0
 62
     0
370
    -2
100
AcDbLine
 10
-176.5958429688369
 20
-817.4931008035521
 30
0.0
 11
-176.5958429688369
 21
-820.0389928730155
 31
0.0
  0
LINE
  5
6F9
330
6F6
100
AcDbEntity
  8
0
 62
     0
370
    -2
100
AcDbLine
 10
-179.6900787669798
 20
-817.4931008035521
 30
0.0
 11
-179.6900787669798
 21
-820.0389928730155
 31
0.0
  0
LINE
  5
6FA
330
6F6
100
AcDbEntity
  8
0
 62
     0
370
    -2
100
AcDbLine
 10
-174.0958429688369
 20
-818.7889928730154
 30
0.0
 11
-171.5958429688369
 21
-818.7889928730154
 31
0.0
  0
LINE
  5
6FB
330
6F6
100
AcDbEntity
  8
0
 62
     0
370
    -2
100
AcDbLine
 10
-182.1900787669798
 20
-818.7889928730154
 30
0.0
 11
-196.0234121003131
 21
-818.7889928730154
 31
0.0
  0
LINE
  5
6FC
330
6F6
100
AcDbEntity
  8
0
 62
     0
370
    -2
100
AcDbLine
 10
-176.5958429688369
 20
-818.7889928730154
 30
0.0
 11
-179.6900787669798
 21
-818.7889928730154
 31
0.0
  0
INSERT
  5
6FD
330
6F6
100
AcDbEntity
  8
0
 62
     0
370
    -2
100
AcDbBlockReference
  2
_Open30
 10
-176.5958429688369
 20
-818.7889928730154
 30
0.0
 41
2.5
 42
2.5
 43
2.5
 50
180.0
  0
INSERT
  5
6FE
330
6F6
100
AcDbEntity
  8
0
 62
     0
370
    -2
100
AcDbBlockReference
  2
_Open30
 10
-179.6900787669798
 20
-818.7889928730154
 30
0.0
 41
2.5
 42
2.5
 43
2.5
  0
MTEXT
  5
6FF
330
6F6
100
AcDbEntity
  8
0
 62
     4
100
AcDbMText
 10
-190.8150787669798
 20
-816.9139928730155
 30
0.0
 40
2.5
 41
0.0
 71
     5
 72
     1
  1
15.47
  7
高2.5
 73
     1
 44
1.0
1001
ACAD
1000
MTEXTBEGIN
1070
    73
1070
     1
1070
    44
1040
1.0
1070
    74
1070
     0
1000
MTEXTEND
  0
POINT
  5
700
330
6F6
100
AcDbEntity
  8
Defpoints
 62
     0
100
AcDbPoint
 10
-176.5958429688369
 20
-817.2431008035522
 30
0.0
  0
POINT
  5
701
330
6F6
100
AcDbEntity
  8
Defpoints
 62
     0
100
AcDbPoint
 10
-179.6900787669798
 20
-817.2431008035522
 30
0.0
  0
POINT
  5
702
330
6F6
100
AcDbEntity
  8
Defpoints
 62
     0
100
AcDbPoint
 10
-179.6900787669798
 20
-818.7889928730154
 30
0.0
  0
ENDBLK
  5
703
330
6F6
100
AcDbEntity
  8
0
100
AcDbBlockEnd
  0
BLOCK
  5
705
330
704
100
AcDbEntity
  8
0
100
AcDbBlockBegin
  2
*D7
 70
     1
 10
0.0
 20
0.0
 30
0.0
  3
*D7
  1

  0
LINE
  5
706
330
704
100
AcDbEntity
  8
0
 62
     0
370
    -2
100
AcDbLine
 10
-174.8667113607514
 20
-822.9491905193986
 30
0.0
 11
-174.8667113607514
 21
-825.2222781817659
 31
0.0
  0
LINE
  5
707
330
704
100
AcDbEntity
  8
0
 62
     0
370
    -2
100
AcDbLine
 10
-178.8710163139432
 20
-822.9491905193986
 30
0.0
 11
-178.8710163139432
 21
-825.2222781817659
 31
0.0
  0
LINE
  5
708
330
704
100
AcDbEntity
  8
0
 62
     0
370
    -2
100
AcDbLine
 10
-172.3667113607514
 20
-823.9722781817658
 30
0.0
 11
-169.8667113607514
 21
-823.9722781817658
 31
0.0
  0
LINE
  5
709
330
704
100
AcDbEntity
  8
0
 62
     0
370
    -2
100
AcDbLine
 10
-181.3710163139432
 20
-823.9722781817658
 30
0.0
 11
-193.1210163139432
 21
-823.9722781817658
 31
0.0
  0
LINE
  5
70A
330
704
100
AcDbEntity
  8
0
 62
     0
370
    -2
100
AcDbLine
 10
-174.8667113607514
 20
-823.9722781817658
 30
0.0
 11
-178.8710163139432
 21
-823.9722781817658
 31
0.0
  0
INSERT
  5
70B
330
704
100
AcDbEntity
  8
0
 62
     0
370
    -2
100
AcDbBlockReference
  2
_Open30
 10
-174.8667113607514
 20
-823.9722781817658
 30
0.0
 41
2.5
 42
2.5
 43
2.5
 50
180.0
  0
INSERT
  5
70C
330
704
100
AcDbEntity
  8
0
 62
     0
370
    -2
100
AcDbBlockReference
  2
_Open30
 10
-178.8710163139432
 20
-823.9722781817658
 30
0.0
 41
2.5
 42
2.5
 43
2.5
  0
MTEXT
  5
70D
330
704
100
AcDbEntity
  8
0
 62
     4
100
AcDbMText
 10
-188.4960163139432
 20
-821.7472781817658
 30
0.0
 40
3.2
 41
0.0
 71
     5
 72
     1
  1
8.01
  7
高3.2
 73
     1
 44
1.0
1001
ACAD
1000
MTEXTBEGIN
1070
    73
1070
     1
1070
    44
1040
1.0
1070
    74
1070
     0
1000
MTEXTEND
  0
POINT
  5
70E
330
704
100
AcDbEntity
  8
Defpoints
 62
     0
100
AcDbPoint
 10
-174.8667113607514
 20
-822.6991905193985
 30
0.0
  0
POINT
  5
70F
330
704
100
AcDbEntity
  8
Defpoints
 62
     0
100
AcDbPoint
 10
-178.8710163139432
 20
-822.6991905193985
 30
0.0
  0
POINT
  5
710
330
704
100
AcDbEntity
  8
Defpoints
 62
     0
100
AcDbPoint
 10
-178.8710163139432
 20
-823.9722781817658
 30
0.0
  0
ENDBLK
  5
711
330
704
100
AcDbEntity
  8
0
100
AcDbBlockEnd
  0
BLOCK
  5
713
330
712
100
AcDbEntity
  8
0
100
AcDbBlockBegin
  2
*D8
 70
     1
 10
0.0
 20
0.0
 30
0.0
  3
*D8
  1

  0
LINE
  5
714
330
712
100
AcDbEntity
  8
0
 62
     0
370
    -2
100
AcDbLine
 10
-174.9577180627637
 20
-828.2234104874302
 30
0.0
 11
-174.9577180627637
 21
-830.0418239948866
 31
0.0
  0
LINE
  5
715
330
712
100
AcDbEntity
  8
0
 62
     0
370
    -2
100
AcDbLine
 10
-179.6900787669798
 20
-828.2234104874302
 30
0.0
 11
-179.6900787669798
 21
-830.0418239948866
 31
0.0
  0
LINE
  5
716
330
712
100
AcDbEntity
  8
0
 62
     0
370
    -2
100
AcDbLine
 10
-172.4577180627637
 20
-828.7918239948865
 30
0.0
 11
-169.9577180627637
 21
-828.7918239948865
 31
0.0
  0
LINE
  5
717
330
712
100
AcDbEntity
  8
0
 62
     0
370
    -2
100
AcDbLine
 10
-182.1900787669798
 20
-828.7918239948865
 30
0.0
 11
-203.9400787669798
 21
-828.7918239948865
 31
0.0
  0
LINE
  5
718
330
712
100
AcDbEntity
  8
0
 62
     0
370
    -2
100
AcDbLine
 10
-174.9577180627637
 20
-828.7918239948865
 30
0.0
 11
-179.6900787669798
 21
-828.7918239948865
 31
0.0
  0
INSERT
  5
719
330
712
100
AcDbEntity
  8
0
 62
     0
370
    -2
100
AcDbBlockReference
  2
_Open30
 10
-174.9577180627637
 20
-828.7918239948865
 30
0.0
 41
2.5
 42
2.5
 43
2.5
 50
180.0
  0
INSERT
  5
71A
330
712
100
AcDbEntity
  8
0
 62
     0
370
    -2
100
AcDbBlockReference
  2
_Open30
 10
-179.6900787669798
 20
-828.7918239948865
 30
0.0
 41
2.5
 42
2.5
 43
2.5
  0
MTEXT
  5
71B
330
712
100
AcDbEntity
  8
0
 62
     4
100
AcDbMText
 10
-194.3150787669798
 20
-825.9168239948866
 30
0.0
 40
4.5
 41
0.0
 71
     5
 72
     1
  1
47.32
  7
高4.5
 73
     1
 44
1.0
1001
ACAD
1000
MTEXTBEGIN
1070
    73
1070
     1
1070
    44
1040
1.0
1070
    74
1070
     0
1000
MTEXTEND
  0
POINT
  5
71C
330
712
100
AcDbEntity
  8
Defpoints
 62
     0
100
AcDbPoint
 10
-174.9577180627637
 20
-827.9734104874302
 30
0.0
  0
POINT
  5
71D
330
712
100
AcDbEntity
  8
Defpoints
 62
     0
100
AcDbPoint
 10
-179.6900787669798
 20
-827.9734104874302
 30
0.0
  0
POINT
  5
71E
330
712
100
AcDbEntity
  8
Defpoints
 62
     0
100
AcDbPoint
 10
-179.6900787669798
 20
-828.7918239948865
 30
0.0
  0
ENDBLK
  5
71F
330
712
100
AcDbEntity
  8
0
100
AcDbBlockEnd
  0
BLOCK
  5
721
330
720
100
AcDbEntity
  8
0
100
AcDbBlockBegin
  2
*D9
 70
     1
 10
0.0
 20
0.0
 30
0.0
  3
*D9
  1

  0
LINE
  5
722
330
720
100
AcDbEntity
  8
0
 62
     0
370
    -2
100
AcDbLine
 10
-153.4800817947562
 20
-812.0370112307897
 30
0.0
 11
-153.4800817947562
 21
-814.9466426527986
 31
0.0
  0
LINE
  5
723
330
720
100
AcDbEntity
  8
0
 62
     0
370
    -2
100
AcDbLine
 10
-155.9372688488765
 20
-812.0370112307897
 30
0.0
 11
-155.9372688488765
 21
-814.9466426527986
 31
0.0
  0
LINE
  5
724
330
720
100
AcDbEntity
  8
0
 62
     0
370
    -2
100
AcDbLine
 10
-150.9800817947562
 20
-813.6966426527985
 30
0.0
 11
-148.4800817947562
 21
-813.6966426527985
 31
0.0
  0
LINE
  5
725
330
720
100
AcDbEntity
  8
0
 62
     0
370
    -2
100
AcDbLine
 10
-158.4372688488765
 20
-813.6966426527985
 30
0.0
 11
-180.0372688488765
 21
-813.6966426527985
 31
0.0
  0
LINE
  5
726
330
720
100
AcDbEntity
  8
0
 62
     0
370
    -2
100
AcDbLine
 10
-153.4800817947562
 20
-813.6966426527985
 30
0.0
 11
-155.9372688488765
 21
-813.6966426527985
 31
0.0
  0
INSERT
  5
727
330
720
100
AcDbEntity
  8
0
 62
     0
370
    -2
100
AcDbBlockReference
  2
_Open30
 10
-153.4800817947562
 20
-813.6966426527985
 30
0.0
 41
2.5
 42
2.5
 43
2.5
 50
180.0
  0
INSERT
  5
728
330
720
100
AcDbEntity
  8
0
 62
     0
370
    -2
100
AcDbBlockReference
  2
_Open30
 10
-155.9372688488765
 20
-813.6966426527985
 30
0.0
 41
2.5
 42
2.5
 43
2.5
  0
MTEXT
  5
729
330
720
100
AcDbEntity
  8
0
 62
     4
100
AcDbMText
 10
-170.4872688488765
 20
-809.9216426527986
 30
0.0
 40
6.299999999999999
 41
0.0
 71
     5
 72
     1
  1
0.25
  7
高6.3
 73
     1
 44
1.0
1001
ACAD
1000
MTEXTBEGIN
1070
    73
1070
     1
1070
    44
1040
1.0
1070
    74
1070
     0
1000
MTEXTEND
  0
POINT
  5
72A
330
720
100
AcDbEntity
  8
Defpoints
 62
     0
100
AcDbPoint
 10
-153.4800817947562
 20
-811.7870112307898
 30
0.0
  0
POINT
  5
72B
330
720
100
AcDbEntity
  8
Defpoints
 62
     0
100
AcDbPoint
 10
-155.9372688488765
 20
-811.7870112307898
 30
0.0
  0
POINT
  5
72C
330
720
100
AcDbEntity
  8
Defpoints
 62
     0
100
AcDbPoint
 10
-155.9372688488765
 20
-813.6966426527985
 30
0.0
  0
ENDBLK
  5
72D
330
720
100
AcDbEntity
  8
0
100
AcDbBlockEnd
  0
BLOCK
  5
72F
330
72E
100
AcDbEntity
  8
0
100
AcDbBlockBegin
  2
*D10
 70
     1
 10
0.0
 20
0.0
 30
0.0
  3
*D10
  1

  0
LINE
  5
730
330
72E
100
AcDbEntity
  8
0
 62
     0
370
    -2
100
AcDbLine
 10
-151.841956888683
 20
-817.4931008035521
 30
0.0
 11
-151.841956888683
 21
-820.0389928730155
 31
0.0
  0
LINE
  5
731
330
72E
100
AcDbEntity
  8
0
 62
     0
370
    -2
100
AcDbLine
 10
-154.9361926868259
 20
-817.4931008035521
 30
0.0
 11
-154.9361926868259
 21
-820.0389928730155
 31
0.0
  0
LINE
  5
732
330
72E
100
AcDbEntity
  8
0
 62
     0
370
    -2
100
AcDbLine
 10
-149.341956888683
 20
-818.7889928730154
 30
0.0
 11
-146.841956888683
 21
-818.7889928730154
 31
0.0
  0
LINE
  5
733
330
72E
100
AcDbEntity
  8
0
 62
     0
370
    -2
100
AcDbLine
 10
-157.4361926868259
 20
-818.7889928730154
 30
0.0
 11
-169.4361926868259
 21
-818.7889928730154
 31
0.0
  0
LINE
  5
734
330
72E
100
AcDbEntity
  8
0
 62
     0
370
    -2
100
AcDbLine
 10
-151.841956888683
 20
-818.7889928730154
 30
0.0
 11
-154.9361926868259
 21
-818.7889928730154
 31
0.0
  0
INSERT
  5
735
330
72E
100
AcDbEntity
  8
0
 62
     0
370
    -2
100
AcDbBlockReference
  2
_Open30
 10
-151.841956888683
 20
-818.7889928730154
 30
0.0
 41
2.5
 42
2.5
 43
2.5
 50
180.0
  0
INSERT
  5
736
330
72E
100
AcDbEntity
  8
0
 62
     0
370
    -2
100
AcDbBlockReference
  2
_Open30
 10
-154.9361926868259
 20
-818.7889928730154
 30
0.0
 41
2.5
 42
2.5
 43
2.5
  0
MTEXT
  5
737
330
72E
100
AcDbEntity
  8
0
 62
     4
100
AcDbMText
 10
-164.8111926868259
 20
-816.6639928730154
 30
0.0
 40
3.0
 41
0.0
 71
     5
 72
     1
  1
1.55
 73
     1
 44
1.0
1001
ACAD
1000
MTEXTBEGIN
1070
    73
1070
     1
1070
    44
1040
1.0
1070
    74
1070
     0
1000
MTEXTEND
  0
POINT
  5
738
330
72E
100
AcDbEntity
  8
Defpoints
 62
     0
100
AcDbPoint
 10
-151.841956888683
 20
-817.2431008035522
 30
0.0
  0
POINT
  5
739
330
72E
100
AcDbEntity
  8
Defpoints
 62
     0
100
AcDbPoint
 10
-154.9361926868259
 20
-817.2431008035522
 30
0.0
  0
POINT
  5
73A
330
72E
100
AcDbEntity
  8
Defpoints
 62
     0
100
AcDbPoint
 10
-154.9361926868259
 20
-818.7889928730154
 30
0.0
  0
ENDBLK
  5
73B
330
72E
100
AcDbEntity
  8
0
100
AcDbBlockEnd
  0
BLOCK
  5
73D
330
73C
100
AcDbEntity
  8
0
100
AcDbBlockBegin
  2
*D11
 70
     1
 10
0.0
 20
0.0
 30
0.0
  3
*D11
  1

  0
LINE
  5
73E
330
73C
100
AcDbEntity
  8
0
 62
     0
370
    -2
100
AcDbLine
 10
-150.1128252805975
 20
-822.9491905193986
 30
0.0
 11
-150.1128252805975
 21
-825.2222781817659
 31
0.0
  0
LINE
  5
73F
330
73C
100
AcDbEntity
  8
0
 62
     0
370
    -2
100
AcDbLine
 10
-154.1171302337894
 20
-822.9491905193986
 30
0.0
 11
-154.1171302337894
 21
-825.2222781817659
 31
0.0
  0
LINE
  5
740
330
73C
100
AcDbEntity
  8
0
 62
     0
370
    -2
100
AcDbLine
 10
-147.6128252805976
 20
-823.9722781817658
 30
0.0
 11
-145.1128252805975
 21
-823.9722781817658
 31
0.0
  0
LINE
  5
741
330
73C
100
AcDbEntity
  8
0
 62
     0
370
    -2
100
AcDbLine
 10
-156.6171302337894
 20
-823.9722781817658
 30
0.0
 11
-164.9504635671227
 21
-823.9722781817658
 31
0.0
  0
LINE
  5
742
330
73C
100
AcDbEntity
  8
0
 62
     0
370
    -2
100
AcDbLine
 10
-150.1128252805975
 20
-823.9722781817658
 30
0.0
 11
-154.1171302337894
 21
-823.9722781817658
 31
0.0
  0
INSERT
  5
743
330
73C
100
AcDbEntity
  8
0
 62
     0
370
    -2
100
AcDbBlockReference
  2
_Open30
 10
-150.1128252805975
 20
-823.9722781817658
 30
0.0
 41
2.5
 42
2.5
 43
2.5
 50
180.0
  0
INSERT
  5
744
330
73C
100
AcDbEntity
  8
0
 62
     0
370
    -2
100
AcDbBlockReference
  2
_Open30
 10
-154.1171302337894
 20
-823.9722781817658
 30
0.0
 41
2.5
 42
2.5
 43
2.5
  0
MTEXT
  5
745
330
73C
100
AcDbEntity
  8
0
 62
     4
100
AcDbMText
 10
-162.4921302337894
 20
-822.3472781817658
 30
0.0
 40
2.0
 41
0.0
 71
     5
 72
     1
  1
0.8
  7
高2
 73
     1
 44
1.0
1001
ACAD
1000
MTEXTBEGIN
1070
    73
1070
     1
1070
    44
1040
1.0
1070
    74
1070
     0
1000
MTEXTEND
  0
POINT
  5
746
330
73C
100
AcDbEntity
  8
Defpoints
 62
     0
100
AcDbPoint
 10
-150.1128252805975
 20
-822.6991905193985
 30
0.0
  0
POINT
  5
747
330
73C
100
AcDbEntity
  8
Defpoints
 62
     0
100
AcDbPoint
 10
-154.1171302337894
 20
-822.6991905193985
 30
0.0
  0
POINT
  5
748
330
73C
100
AcDbEntity
  8
Defpoints
 62
     0
100
AcDbPoint
 10
-154.1171302337894
 20
-823.9722781817658
 30
0.0
  0
ENDBLK
  5
749
330
73C
100
AcDbEntity
  8
0
100
AcDbBlockEnd
  0
BLOCK
  5
74B
330
74A
100
AcDbEntity
  8
0
100
AcDbBlockBegin
  2
*D12
 70
     1
 10
0.0
 20
0.0
 30
0.0
  3
*D12
  1

  0
LINE
  5
74C
330
74A
100
AcDbEntity
  8
0
 62
     0
370
    -2
100
AcDbLine
 10
-150.2038319826098
 20
-828.2234104874302
 30
0.0
 11
-150.2038319826098
 21
-830.0418239948866
 31
0.0
  0
LINE
  5
74D
330
74A
100
AcDbEntity
  8
0
 62
     0
370
    -2
100
AcDbLine
 10
-154.9361926868259
 20
-828.2234104874302
 30
0.0
 11
-154.9361926868259
 21
-830.0418239948866
 31
0.0
  0
LINE
  5
74E
330
74A
100
AcDbEntity
  8
0
 62
     0
370
    -2
100
AcDbLine
 10
-147.7038319826099
 20
-828.7918239948865
 30
0.0
 11
-145.2038319826098
 21
-828.7918239948865
 31
0.0
  0
LINE
  5
74F
330
74A
100
AcDbEntity
  8
0
 62
     0
370
    -2
100
AcDbLine
 10
-157.4361926868259
 20
-828.7918239948865
 30
0.0
 11
-172.1861926868259
 21
-828.7918239948865
 31
0.0
  0
LINE
  5
750
330
74A
100
AcDbEntity
  8
0
 62
     0
370
    -2
100
AcDbLine
 10
-150.2038319826098
 20
-828.7918239948865
 30
0.0
 11
-154.9361926868259
 21
-828.7918239948865
 31
0.0
  0
INSERT
  5
751
330
74A
100
AcDbEntity
  8
0
 62
     0
370
    -2
100
AcDbBlockReference
  2
_Open30
 10
-150.2038319826098
 20
-828.7918239948865
 30
0.0
 41
2.5
 42
2.5
 43
2.5
 50
180.0
  0
INSERT
  5
752
330
74A
100
AcDbEntity
  8
0
 62
     0
370
    -2
100
AcDbBlockReference
  2
_Open30
 10
-154.9361926868259
 20
-828.7918239948865
 30
0.0
 41
2.5
 42
2.5
 43
2.5
  0
MTEXT
  5
753
330
74A
100
AcDbEntity
  8
0
 62
     4
100
AcDbMText
 10
-166.0611926868259
 20
-826.6668239948867
 30
0.0
 40
3.0
 41
0.0
 71
     5
 72
     1
  1
18.93
 73
     1
 44
1.0
1001
ACAD
1000
MTEXTBEGIN
1070
    73
1070
     1
1070
    44
1040
1.0
1070
    74
1070
     0
1000
MTEXTEND
  0
POINT
  5
754
330
74A
100
AcDbEntity
  8
Defpoints
 62
     0
100
AcDbPoint
 10
-150.2038319826098
 20
-827.9734104874302
 30
0.0
  0
POINT
  5
755
330
74A
100
AcDbEntity
  8
Defpoints
 62
     0
100
AcDbPoint
 10
-154.9361926868259
 20
-827.9734104874302
 30
0.0
  0
POINT
  5
756
330
74A
100
AcDbEntity
  8
Defpoints
 62
     0
100
AcDbPoint
 10
-154.9361926868259
 20
-828.7918239948865
 30
0.0
  0
ENDBLK
  5
757
330
74A
100
AcDbEntity
  8
0
100
AcDbBlockEnd
  0
BLOCK
  5
759
330
758
100
AcDbEntity
  8
0
100
AcDbBlockBegin
  2
*D13
 70
     1
 10
0.0
 20
0.0
 30
0.0
  3
*D13
  1

  0
LINE
  5
75A
330
758
100
AcDbEntity
  8
0
 62
     0
370
    -2
100
AcDbLine
 10
-153.0082588337482
 20
-833.2792506940199
 30
0.0
 11
-153.0082588337482
 21
-835.5891717708955
 31
0.0
  0
LINE
  5
75B
330
758
100
AcDbEntity
  8
0
 62
     0
370
    -2
100
AcDbLine
 10
-157.5969340358961
 20
-833.2792506940199
 30
0.0
 11
-157.5969340358961
 21
-835.5891717708955
 31
0.0
  0
LINE
  5
75C
330
758
100
AcDbEntity
  8
0
 62
     0
370
    -2
100
AcDbLine
 10
-150.5082588337482
 20
-834.3391717708955
 30
0.0
 11
-148.0082588337482
 21
-834.3391717708955
 31
0.0
  0
LINE
  5
75D
330
758
100
AcDbEntity
  8
0
 62
     0
370
    -2
100
AcDbLine
 10
-160.0969340358961
 20
-834.3391717708955
 30
0.0
 11
-174.8469340358961
 21
-834.3391717708955
 31
0.0
  0
LINE
  5
75E
330
758
100
AcDbEntity
  8
0
 62
     0
370
    -2
100
AcDbLine
 10
-153.0082588337482
 20
-834.3391717708955
 30
0.0
 11
-157.5969340358961
 21
-834.3391717708955
 31
0.0
  0
INSERT
  5
75F
330
758
100
AcDbEntity
  8
0
 62
     0
370
    -2
100
AcDbBlockReference
  2
_Open30
 10
-153.0082588337482
 20
-834.3391717708955
 30
0.0
 41
2.5
 42
2.5
 43
2.5
 50
180.0
  0
INSERT
  5
760
330
758
100
AcDbEntity
  8
0
 62
     0
370
    -2
100
AcDbBlockReference
  2
_Open30
 10
-157.5969340358961
 20
-834.3391717708955
 30
0.0
 41
2.5
 42
2.5
 43
2.5
  0
MTEXT
  5
761
330
758
100
AcDbEntity
  8
0
 62
     4
100
AcDbMText
 10
-168.7219340358961
 20
-832.2141717708955
 30
0.0
 40
3.0
 41
0.0
 71
     5
 72
     1
  1
13.77
 73
     1
 44
1.0
1001
ACAD
1000
MTEXTBEGIN
1070
    73
1070
     1
1070
    44
1040
1.0
1070
    74
1070
     0
1000
MTEXTEND
  0
POINT
  5
762
330
758
100
AcDbEntity
  8
Defpoints
 62
     0
100
AcDbPoint
 10
-153.0082588337482
 20
-833.02925069402
 30
0.0
  0
POINT
  5
763
330
758
100
AcDbEntity
  8
Defpoints
 62
     0
100
AcDbPoint
 10
-157.5969340358961
 20
-833.02925069402
 30
0.0
  0
POINT
  5
764
330
758
100
AcDbEntity
  8
Defpoints
 62
     0
100
AcDbPoint
 10
-157.5969340358961
 20
-834.3391717708955
 30
0.0
  0
ENDBLK
  5
765
330
758
100
AcDbEntity
  8
0
100
AcDbBlockEnd
  0
BLOCK
  5
767
330
766
100
AcDbEntity
  8
0
100
AcDbBlockBegin
  2
*D14
 70
     1
 10
0.0
 20
0.0
 30
0.0
  3
*D14
  1

  0
LINE
  5
768
330
766
100
AcDbEntity
  8
0
 62
     0
370
    -2
100
AcDbLine
 10
-160.1045416668985
 20
-802.3497593757456
 30
0.0
 11
-160.1045416668985
 21
-794.9532258978079
 31
0.0
  0
LINE
  5
769
330
766
100
AcDbEntity
  8
0
 62
     0
370
    -2
100
AcDbLine
 10
-170.0430160363885
 20
-802.3497593757456
 30
0.0
 11
-170.0430160363885
 21
-794.9532258978079
 31
0.0
  0
LINE
  5
76A
330
766
100
AcDbEntity
  8
0
 62
     0
370
    -2
100
AcDbLine
 10
-162.6045416668985
 20
-796.2032258978078
 30
0.0
 11
-167.5430160363885
 21
-796.2032258978078
 31
0.0
  0
INSERT
  5
76B
330
766
100
AcDbEntity
  8
0
 62
     0
370
    -2
100
AcDbBlockReference
  2
_Open30
 10
-160.1045416668985
 20
-796.2032258978078
 30
0.0
 41
2.5
 42
2.5
 43
2.5
  0
INSERT
  5
76C
330
766
100
AcDbEntity
  8
0
 62
     0
370
    -2
100
AcDbBlockReference
  2
_Open30
 10
-170.0430160363885
 20
-796.2032258978078
 30
0.0
 41
2.5
 42
2.5
 43
2.5
 50
180.0
  0
MTEXT
  5
76D
330
766
100
AcDbEntity
  8
0
 62
     4
100
AcDbMText
 10
-165.0737788516435
 20
-793.1282258978078
 30
0.0
 40
3.0
 41
0.0
 71
     5
 72
     1
  1
9.94\H0.7X;\S+0^ -0.02;
 73
     1
 44
1.0
1001
ACAD
1000
MTEXTBEGIN
1070
    73
1070
     1
1070
    44
1040
1.0
1070
    74
1070
     0
1000
MTEXTEND
  0
POINT
  5
76E
330
766
100
AcDbEntity
  8
Defpoints
 62
     0
100
AcDbPoint
 10
-160.1045416668985
 20
-802.5997593757455
 30
0.0
  0
POINT
  5
76F
330
766
100
AcDbEntity
  8
Defpoints
 62
     0
100
AcDbPoint
 10
-170.0430160363885
 20
-802.5997593757455
 30
0.0
  0
POINT
  5
770
330
766
100
AcDbEntity
  8
Defpoints
 62
     0
100
AcDbPoint
 10
-170.0430160363885
 20
-796.2032258978078
 30
0.0
  0
ENDBLK
  5
771
330
766
100
AcDbEntity
  8
0
100
AcDbBlockEnd
  0
BLOCK
  5
7C6
330
7C5
100
AcDbEntity
  8
0
100
AcDbBlockBegin
  2
*D16
 70
     1
 10
0.0
 20
0.0
 30
0.0
  3
*D16
  1

  0
LINE
  5
84F
330
7C5
100
AcDbEntity
  8
0
 62
     0
370
    -2
100
AcDbLine
 10
621.0843386691508
 20
173.6614608563563
 30
0.0
 11
621.0843386691508
 21
170.7518294343475
 31
0.0
  0
LINE
  5
850
330
7C5
100
AcDbEntity
  8
0
 62
     0
370
    -2
100
AcDbLine
 10
618.6271516150306
 20
173.6614608563563
 30
0.0
 11
618.6271516150306
 21
170.7518294343475
 31
0.0
  0
LINE
  5
851
330
7C5
100
AcDbEntity
  8
0
 62
     0
370
    -2
100
AcDbLine
 10
623.5843386691508
 20
172.0018294343475
 30
0.0
 11
626.0843386691508
 21
172.0018294343475
 31
0.0
  0
LINE
  5
852
330
7C5
100
AcDbEntity
  8
0
 62
     0
370
    -2
100
AcDbLine
 10
616.1271516150305
 20
172.0018294343475
 30
0.0
 11
603.3771516150306
 21
172.0018294343475
 31
0.0
  0
LINE
  5
853
330
7C5
100
AcDbEntity
  8
0
 62
     0
370
    -2
100
AcDbLine
 10
621.0843386691508
 20
172.0018294343475
 30
0.0
 11
618.6271516150306
 21
172.0018294343475
 31
0.0
  0
INSERT
  5
854
330
7C5
100
AcDbEntity
  8
0
 62
     0
370
    -2
100
AcDbBlockReference
  2
_Open30
 10
621.0843386691508
 20
172.0018294343475
 30
0.0
 41
2.5
 42
2.5
 43
2.5
 50
180.0
  0
INSERT
  5
855
330
7C5
100
AcDbEntity
  8
0
 62
     0
370
    -2
100
AcDbBlockReference
  2
_Open30
 10
618.6271516150306
 20
172.0018294343475
 30
0.0
 41
2.5
 42
2.5
 43
2.5
  0
MTEXT
  5
856
330
7C5
100
AcDbEntity
  8
0
 62
     4
100
AcDbMText
 10
608.5021516150305
 20
174.1268294343475
 30
0.0
 40
3.0
 41
0.0
 71
     5
 72
     1
  1
2.46
 73
     1
 44
1.0
1001
ACAD
1000
MTEXTBEGIN
1070
    73
1070
     1
1070
    44
1040
1.0
1070
    74
1070
     0
1000
MTEXTEND
  0
POINT
  5
857
330
7C5
100
AcDbEntity
  8
Defpoints
 62
     0
100
AcDbPoint
 10
621.0843386691508
 20
173.9114608563563
 30
0.0
  0
POINT
  5
858
330
7C5
100
AcDbEntity
  8
Defpoints
 62
     0
100
AcDbPoint
 10
618.6271516150306
 20
173.9114608563563
 30
0.0
  0
POINT
  5
859
330
7C5
100
AcDbEntity
  8
Defpoints
 62
     0
100
AcDbPoint
 10
618.6271516150306
 20
172.0018294343475
 30
0.0
  0
ENDBLK
  5
7C7
330
7C5
100
AcDbEntity
  8
0
100
AcDbBlockEnd
  0
BLOCK
  5
7D4
330
7D3
100
AcDbEntity
  8
0
100
AcDbBlockBegin
  2
*D17
 70
     1
 10
0.0
 20
0.0
 30
0.0
  3
*D17
  1

  0
LINE
  5
85A
330
7D3
100
AcDbEntity
  8
0
 62
     0
370
    -2
100
AcDbLine
 10
622.722463575224
 20
168.205371283594
 30
0.0
 11
622.722463575224
 21
165.6594792141306
 31
0.0
  0
LINE
  5
85B
330
7D3
100
AcDbEntity
  8
0
 62
     0
370
    -2
100
AcDbLine
 10
619.6282277770811
 20
168.205371283594
 30
0.0
 11
619.6282277770811
 21
165.6594792141306
 31
0.0
  0
LINE
  5
85C
330
7D3
100
AcDbEntity
  8
0
 62
     0
370
    -2
100
AcDbLine
 10
625.2224635752241
 20
166.9094792141306
 30
0.0
 11
627.722463575224
 21
166.9094792141306
 31
0.0
  0
LINE
  5
85D
330
7D3
100
AcDbEntity
  8
0
 62
     0
370
    -2
100
AcDbLine
 10
617.1282277770812
 20
166.9094792141306
 30
0.0
 11
603.2948944437479
 21
166.9094792141306
 31
0.0
  0
LINE
  5
85E
330
7D3
100
AcDbEntity
  8
0
 62
     0
370
    -2
100
AcDbLine
 10
622.722463575224
 20
166.9094792141306
 30
0.0
 11
619.6282277770811
 21
166.9094792141306
 31
0.0
  0
INSERT
  5
85F
330
7D3
100
AcDbEntity
  8
0
 62
     0
370
    -2
100
AcDbBlockReference
  2
_Open30
 10
622.722463575224
 20
166.9094792141306
 30
0.0
 41
2.5
 42
2.5
 43
2.5
 50
180.0
  0
INSERT
  5
860
330
7D3
100
AcDbEntity
  8
0
 62
     0
370
    -2
100
AcDbBlockReference
  2
_Open30
 10
619.6282277770811
 20
166.9094792141306
 30
0.0
 41
2.5
 42
2.5
 43
2.5
  0
MTEXT
  5
861
330
7D3
100
AcDbEntity
  8
0
 62
     4
100
AcDbMText
 10
608.5032277770811
 20
168.7844792141306
 30
0.0
 40
2.5
 41
0.0
 71
     5
 72
     1
  1
15.47
  7
高2.5
 73
     1
 44
1.0
1001
ACAD
1000
MTEXTBEGIN
1070
    73
1070
     1
1070
    44
1040
1.0
1070
    74
1070
     0
1000
MTEXTEND
  0
POINT
  5
862
330
7D3
100
AcDbEntity
  8
Defpoints
 62
     0
100
AcDbPoint
 10
622.722463575224
 20
168.455371283594
 30
0.0
  0
POINT
  5
863
330
7D3
100
AcDbEntity
  8
Defpoints
 62
     0
100
AcDbPoint
 10
619.6282277770811
 20
168.455371283594
 30
0.0
  0
POINT
  5
864
330
7D3
100
AcDbEntity
  8
Defpoints
 62
     0
100
AcDbPoint
 10
619.6282277770811
 20
166.9094792141306
 30
0.0
  0
ENDBLK
  5
7D5
330
7D3
100
AcDbEntity
  8
0
100
AcDbBlockEnd
  0
BLOCK
  5
7E2
330
7E1
100
AcDbEntity
  8
0
100
AcDbBlockBegin
  2
*D18
 70
     1
 10
0.0
 20
0.0
 30
0.0
  3
*D18
  1

  0
LINE
  5
865
330
7E1
100
AcDbEntity
  8
0
 62
     0
370
    -2
100
AcDbLine
 10
624.4515951833095
 20
162.7492815677475
 30
0.0
 11
624.4515951833095
 21
160.4761939053802
 31
0.0
  0
LINE
  5
866
330
7E1
100
AcDbEntity
  8
0
 62
     0
370
    -2
100
AcDbLine
 10
620.4472902301176
 20
162.7492815677475
 30
0.0
 11
620.4472902301176
 21
160.4761939053802
 31
0.0
  0
LINE
  5
867
330
7E1
100
AcDbEntity
  8
0
 62
     0
370
    -2
100
AcDbLine
 10
626.9515951833096
 20
161.7261939053802
 30
0.0
 11
629.4515951833095
 21
161.7261939053802
 31
0.0
  0
LINE
  5
868
330
7E1
100
AcDbEntity
  8
0
 62
     0
370
    -2
100
AcDbLine
 10
617.9472902301177
 20
161.7261939053802
 30
0.0
 11
606.1972902301176
 21
161.7261939053802
 31
0.0
  0
LINE
  5
869
330
7E1
100
AcDbEntity
  8
0
 62
     0
370
    -2
100
AcDbLine
 10
624.4515951833095
 20
161.7261939053802
 30
0.0
 11
620.4472902301176
 21
161.7261939053802
 31
0.0
  0
INSERT
  5
86A
330
7E1
100
AcDbEntity
  8
0
 62
     0
370
    -2
100
AcDbBlockReference
  2
_Open30
 10
624.4515951833095
 20
161.7261939053802
 30
0.0
 41
2.5
 42
2.5
 43
2.5
 50
180.0
  0
INSERT
  5
86B
330
7E1
100
AcDbEntity
  8
0
 62
     0
370
    -2
100
AcDbBlockReference
  2
_Open30
 10
620.4472902301176
 20
161.7261939053802
 30
0.0
 41
2.5
 42
2.5
 43
2.5
  0
MTEXT
  5
86C
330
7E1
100
AcDbEntity
  8
0
 62
     4
100
AcDbMText
 10
610.8222902301177
 20
163.9511939053802
 30
0.0
 40
3.2
 41
0.0
 71
     5
 72
     1
  1
8.01
  7
高3.2
 73
     1
 44
1.0
1001
ACAD
1000
MTEXTBEGIN
1070
    73
1070
     1
1070
    44
1040
1.0
1070
    74
1070
     0
1000
MTEXTEND
  0
POINT
  5
86D
330
7E1
100
AcDbEntity
  8
Defpoints
 62
     0
100
AcDbPoint
 10
624.4515951833095
 20
162.9992815677475
 30
0.0
  0
POINT
  5
86E
330
7E1
100
AcDbEntity
  8
Defpoints
 62
     0
100
AcDbPoint
 10
620.4472902301176
 20
162.9992815677475
 30
0.0
  0
POINT
  5
86F
330
7E1
100
AcDbEntity
  8
Defpoints
 62
     0
100
AcDbPoint
 10
620.4472902301176
 20
161.7261939053802
 30
0.0
  0
ENDBLK
  5
7E3
330
7E1
100
AcDbEntity
  8
0
100
AcDbBlockEnd
  0
BLOCK
  5
7F0
330
7EF
100
AcDbEntity
  8
0
100
AcDbBlockBegin
  2
*D19
 70
     1
 10
0.0
 20
0.0
 30
0.0
  3
*D19
  1

  0
LINE
  5
870
330
7EF
100
AcDbEntity
  8
0
 62
     0
370
    -2
100
AcDbLine
 10
624.3605884812973
 20
157.4750615997159
 30
0.0
 11
624.3605884812973
 21
155.6566480922595
 31
0.0
  0
LINE
  5
871
330
7EF
100
AcDbEntity
  8
0
 62
     0
370
    -2
100
AcDbLine
 10
619.6282277770811
 20
157.4750615997159
 30
0.0
 11
619.6282277770811
 21
155.6566480922595
 31
0.0
  0
LINE
  5
872
330
7EF
100
AcDbEntity
  8
0
 62
     0
370
    -2
100
AcDbLine
 10
626.8605884812973
 20
156.9066480922595
 30
0.0
 11
629.3605884812973
 21
156.9066480922595
 31
0.0
  0
LINE
  5
873
330
7EF
100
AcDbEntity
  8
0
 62
     0
370
    -2
100
AcDbLine
 10
617.1282277770812
 20
156.9066480922595
 30
0.0
 11
595.3782277770812
 21
156.9066480922595
 31
0.0
  0
LINE
  5
874
330
7EF
100
AcDbEntity
  8
0
 62
     0
370
    -2
100
AcDbLine
 10
624.3605884812973
 20
156.9066480922595
 30
0.0
 11
619.6282277770811
 21
156.9066480922595
 31
0.0
  0
INSERT
  5
875
330
7EF
100
AcDbEntity
  8
0
 62
     0
370
    -2
100
AcDbBlockReference
  2
_Open30
 10
624.3605884812973
 20
156.9066480922595
 30
0.0
 41
2.5
 42
2.5
 43
2.5
 50
180.0
  0
INSERT
  5
876
330
7EF
100
AcDbEntity
  8
0
 62
     0
370
    -2
100
AcDbBlockReference
  2
_Open30
 10
619.6282277770811
 20
156.9066480922595
 30
0.0
 41
2.5
 42
2.5
 43
2.5
  0
MTEXT
  5
877
330
7EF
100
AcDbEntity
  8
0
 62
     4
100
AcDbMText
 10
605.0032277770811
 20
159.7816480922595
 30
0.0
 40
4.5
 41
0.0
 71
     5
 72
     1
  1
47.32
  7
高4.5
 73
     1
 44
1.0
1001
ACAD
1000
MTEXTBEGIN
1070
    73
1070
     1
1070
    44
1040
1.0
1070
    74
1070
     0
1000
MTEXTEND
  0
POINT
  5
878
330
7EF
100
AcDbEntity
  8
Defpoints
 62
     0
100
AcDbPoint
 10
624.3605884812973
 20
157.7250615997159
 30
0.0
  0
POINT
  5
879
330
7EF
100
AcDbEntity
  8
Defpoints
 62
     0
100
AcDbPoint
 10
619.6282277770811
 20
157.7250615997159
 30
0.0
  0
POINT
  5
87A
330
7EF
100
AcDbEntity
  8
Defpoints
 62
     0
100
AcDbPoint
 10
619.6282277770811
 20
156.9066480922595
 30
0.0
  0
ENDBLK
  5
7F1
330
7EF
100
AcDbEntity
  8
0
100
AcDbBlockEnd
  0
BLOCK
  5
7FE
330
7FD
100
AcDbEntity
  8
0
100
AcDbBlockBegin
  2
*D20
 70
     1
 10
0.0
 20
0.0
 30
0.0
  3
*D20
  1

  0
LINE
  5
87B
330
7FD
100
AcDbEntity
  8
0
 62
     0
370
    -2
100
AcDbLine
 10
645.8382247493048
 20
173.6614608563563
 30
0.0
 11
645.8382247493048
 21
170.7518294343475
 31
0.0
  0
LINE
  5
87C
330
7FD
100
AcDbEntity
  8
0
 62
     0
370
    -2
100
AcDbLine
 10
643.3810376951844
 20
173.6614608563563
 30
0.0
 11
643.3810376951844
 21
170.7518294343475
 31
0.0
  0
LINE
  5
87D
330
7FD
100
AcDbEntity
  8
0
 62
     0
370
    -2
100
AcDbLine
 10
648.3382247493048
 20
172.0018294343475
 30
0.0
 11
650.8382247493048
 21
172.0018294343475
 31
0.0
  0
LINE
  5
87E
330
7FD
100
AcDbEntity
  8
0
 62
     0
370
    -2
100
AcDbLine
 10
640.8810376951844
 20
172.0018294343475
 30
0.0
 11
619.2810376951844
 21
172.0018294343475
 31
0.0
  0
LINE
  5
87F
330
7FD
100
AcDbEntity
  8
0
 62
     0
370
    -2
100
AcDbLine
 10
645.8382247493048
 20
172.0018294343475
 30
0.0
 11
643.3810376951844
 21
172.0018294343475
 31
0.0
  0
INSERT
  5
880
330
7FD
100
AcDbEntity
  8
0
 62
     0
370
    -2
100
AcDbBlockReference
  2
_Open30
 10
645.8382247493048
 20
172.0018294343475
 30
0.0
 41
2.5
 42
2.5
 43
2.5
 50
180.0
  0
INSERT
  5
881
330
7FD
100
AcDbEntity
  8
0
 62
     0
370
    -2
100
AcDbBlockReference
  2
_Open30
 10
643.3810376951844
 20
172.0018294343475
 30
0.0
 41
2.5
 42
2.5
 43
2.5
  0
MTEXT
  5
882
330
7FD
100
AcDbEntity
  8
0
 62
     4
100
AcDbMText
 10
628.8310376951844
 20
175.7768294343475
 30
0.0
 40
6.299999999999998
 41
0.0
 71
     5
 72
     1
  1
0.25
  7
高6.3
 73
     1
 44
1.0
1001
ACAD
1000
MTEXTBEGIN
1070
    73
1070
     1
1070
    44
1040
1.0
1070
    74
1070
     0
1000
MTEXTEND
  0
POINT
  5
883
330
7FD
100
AcDbEntity
  8
Defpoints
 62
     0
100
AcDbPoint
 10
645.8382247493048
 20
173.9114608563563
 30
0.0
  0
POINT
  5
884
330
7FD
100
AcDbEntity
  8
Defpoints
 62
     0
100
AcDbPoint
 10
643.3810376951844
 20
173.9114608563563
 30
0.0
  0
POINT
  5
885
330
7FD
100
AcDbEntity
  8
Defpoints
 62
     0
100
AcDbPoint
 10
643.3810376951844
 20
172.0018294343475
 30
0.0
  0
ENDBLK
  5
7FF
330
7FD
100
AcDbEntity
  8
0
100
AcDbBlockEnd
  0
BLOCK
  5
80C
330
80B
100
AcDbEntity
  8
0
100
AcDbBlockBegin
  2
*D21
 70
     1
 10
0.0
 20
0.0
 30
0.0
  3
*D21
  1

  0
LINE
  5
886
330
80B
100
AcDbEntity
  8
0
 62
     0
370
    -2
100
AcDbLine
 10
647.4763496553779
 20
168.205371283594
 30
0.0
 11
647.4763496553779
 21
165.6594792141306
 31
0.0
  0
LINE
  5
887
330
80B
100
AcDbEntity
  8
0
 62
     0
370
    -2
100
AcDbLine
 10
644.382113857235
 20
168.205371283594
 30
0.0
 11
644.382113857235
 21
165.6594792141306
 31
0.0
  0
LINE
  5
888
330
80B
100
AcDbEntity
  8
0
 62
     0
370
    -2
100
AcDbLine
 10
649.9763496553779
 20
166.9094792141306
 30
0.0
 11
652.4763496553779
 21
166.9094792141306
 31
0.0
  0
LINE
  5
889
330
80B
100
AcDbEntity
  8
0
 62
     0
370
    -2
100
AcDbLine
 10
641.882113857235
 20
166.9094792141306
 30
0.0
 11
629.882113857235
 21
166.9094792141306
 31
0.0
  0
LINE
  5
88A
330
80B
100
AcDbEntity
  8
0
 62
     0
370
    -2
100
AcDbLine
 10
647.4763496553779
 20
166.9094792141306
 30
0.0
 11
644.382113857235
 21
166.9094792141306
 31
0.0
  0
INSERT
  5
88B
330
80B
100
AcDbEntity
  8
0
 62
     0
370
    -2
100
AcDbBlockReference
  2
_Open30
 10
647.4763496553779
 20
166.9094792141306
 30
0.0
 41
2.5
 42
2.5
 43
2.5
 50
180.0
  0
INSERT
  5
88C
330
80B
100
AcDbEntity
  8
0
 62
     0
370
    -2
100
AcDbBlockReference
  2
_Open30
 10
644.382113857235
 20
166.9094792141306
 30
0.0
 41
2.5
 42
2.5
 43
2.5
  0
MTEXT
  5
88D
330
80B
100
AcDbEntity
  8
0
 62
     4
100
AcDbMText
 10
634.507113857235
 20
169.0344792141307
 30
0.0
 40
3.0
 41
0.0
 71
     5
 72
     1
  1
1.55
 73
     1
 44
1.0
1001
ACAD
1000
MTEXTBEGIN
1070
    73
1070
     1
1070
    44
1040
1.0
1070
    74
1070
     0
1000
MTEXTEND
  0
POINT
  5
88E
330
80B
100
AcDbEntity
  8
Defpoints
 62
     0
100
AcDbPoint
 10
647.4763496553779
 20
168.455371283594
 30
0.0
  0
POINT
  5
88F
330
80B
100
AcDbEntity
  8
Defpoints
 62
     0
100
AcDbPoint
 10
644.382113857235
 20
168.455371283594
 30
0.0
  0
POINT
  5
890
330
80B
100
AcDbEntity
  8
Defpoints
 62
     0
100
AcDbPoint
 10
644.382113857235
 20
166.9094792141306
 30
0.0
  0
ENDBLK
  5
80D
330
80B
100
AcDbEntity
  8
0
100
AcDbBlockEnd
  0
BLOCK
  5
81A
330
819
100
AcDbEntity
  8
0
100
AcDbBlockBegin
  2
*D22
 70
     1
 10
0.0
 20
0.0
 30
0.0
  3
*D22
  1

  0
LINE
  5
891
330
819
100
AcDbEntity
  8
0
 62
     0
370
    -2
100
AcDbLine
 10
649.2054812634634
 20
162.7492815677475
 30
0.0
 11
649.2054812634634
 21
160.4761939053802
 31
0.0
  0
LINE
  5
892
330
819
100
AcDbEntity
  8
0
 62
     0
370
    -2
100
AcDbLine
 10
645.2011763102716
 20
162.7492815677475
 30
0.0
 11
645.2011763102716
 21
160.4761939053802
 31
0.0
  0
LINE
  5
893
330
819
100
AcDbEntity
  8
0
 62
     0
370
    -2
100
AcDbLine
 10
651.7054812634634
 20
161.7261939053802
 30
0.0
 11
654.2054812634634
 21
161.7261939053802
 31
0.0
  0
LINE
  5
894
330
819
100
AcDbEntity
  8
0
 62
     0
370
    -2
100
AcDbLine
 10
642.7011763102716
 20
161.7261939053802
 30
0.0
 11
634.3678429769384
 21
161.7261939053802
 31
0.0
  0
LINE
  5
895
330
819
100
AcDbEntity
  8
0
 62
     0
370
    -2
100
AcDbLine
 10
649.2054812634634
 20
161.7261939053802
 30
0.0
 11
645.2011763102716
 21
161.7261939053802
 31
0.0
  0
INSERT
  5
896
330
819
100
AcDbEntity
  8
0
 62
     0
370
    -2
100
AcDbBlockReference
  2
_Open30
 10
649.2054812634634
 20
161.7261939053802
 30
0.0
 41
2.5
 42
2.5
 43
2.5
 50
180.0
  0
INSERT
  5
897
330
819
100
AcDbEntity
  8
0
 62
     0
370
    -2
100
AcDbBlockReference
  2
_Open30
 10
645.2011763102716
 20
161.7261939053802
 30
0.0
 41
2.5
 42
2.5
 43
2.5
  0
MTEXT
  5
898
330
819
100
AcDbEntity
  8
0
 62
     4
100
AcDbMText
 10
636.8261763102716
 20
163.3511939053802
 30
0.0
 40
2.0
 41
0.0
 71
     5
 72
     1
  1
0.8
  7
高2
 73
     1
 44
1.0
1001
ACAD
1000
MTEXTBEGIN
1070
    73
1070
     1
1070
    44
1040
1.0
1070
    74
1070
     0
1000
MTEXTEND
  0
POINT
  5
899
330
819
100
AcDbEntity
  8
Defpoints
 62
     0
100
AcDbPoint
 10
649.2054812634634
 20
162.9992815677475
 30
0.0
  0
POINT
  5
89A
330
819
100
AcDbEntity
  8
Defpoints
 62
     0
100
AcDbPoint
 10
645.2011763102716
 20
162.9992815677475
 30
0.0
  0
POINT
  5
89B
330
819
100
AcDbEntity
  8
Defpoints
 62
     0
100
AcDbPoint
 10
645.2011763102716
 20
161.7261939053802
 30
0.0
  0
ENDBLK
  5
81B
330
819
100
AcDbEntity
  8
0
100
AcDbBlockEnd
  0
BLOCK
  5
828
330
827
100
AcDbEntity
  8
0
100
AcDbBlockBegin
  2
*D23
 70
     1
 10
0.0
 20
0.0
 30
0.0
  3
*D23
  1

  0
LINE
  5
89C
330
827
100
AcDbEntity
  8
0
 62
     0
370
    -2
100
AcDbLine
 10
649.114474561451
 20
157.4750615997159
 30
0.0
 11
649.114474561451
 21
155.6566480922595
 31
0.0
  0
LINE
  5
89D
330
827
100
AcDbEntity
  8
0
 62
     0
370
    -2
100
AcDbLine
 10
644.382113857235
 20
157.4750615997159
 30
0.0
 11
644.382113857235
 21
155.6566480922595
 31
0.0
  0
LINE
  5
89E
330
827
100
AcDbEntity
  8
0
 62
     0
370
    -2
100
AcDbLine
 10
651.6144745614511
 20
156.9066480922595
 30
0.0
 11
654.114474561451
 21
156.9066480922595
 31
0.0
  0
LINE
  5
89F
330
827
100
AcDbEntity
  8
0
 62
     0
370
    -2
100
AcDbLine
 10
641.882113857235
 20
156.9066480922595
 30
0.0
 11
627.132113857235
 21
156.9066480922595
 31
0.0
  0
LINE
  5
8A0
330
827
100
AcDbEntity
  8
0
 62
     0
370
    -2
100
AcDbLine
 10
649.114474561451
 20
156.9066480922595
 30
0.0
 11
644.382113857235
 21
156.9066480922595
 31
0.0
  0
INSERT
  5
8A1
330
827
100
AcDbEntity
  8
0
 62
     0
370
    -2
100
AcDbBlockReference
  2
_Open30
 10
649.114474561451
 20
156.9066480922595
 30
0.0
 41
2.5
 42
2.5
 43
2.5
 50
180.0
  0
INSERT
  5
8A2
330
827
100
AcDbEntity
  8
0
 62
     0
370
    -2
100
AcDbBlockReference
  2
_Open30
 10
644.382113857235
 20
156.9066480922595
 30
0.0
 41
2.5
 42
2.5
 43
2.5
  0
MTEXT
  5
8A3
330
827
100
AcDbEntity
  8
0
 62
     4
100
AcDbMText
 10
633.257113857235
 20
159.0316480922595
 30
0.0
 40
3.0
 41
0.0
 71
     5
 72
     1
  1
18.93
 73
     1
 44
1.0
1001
ACAD
1000
MTEXTBEGIN
1070
    73
1070
     1
1070
    44
1040
1.0
1070
    74
1070
     0
1000
MTEXTEND
  0
POINT
  5
8A4
330
827
100
AcDbEntity
  8
Defpoints
 62
     0
100
AcDbPoint
 10
649.114474561451
 20
157.7250615997159
 30
0.0
  0
POINT
  5
8A5
330
827
100
AcDbEntity
  8
Defpoints
 62
     0
100
AcDbPoint
 10
644.382113857235
 20
157.7250615997159
 30
0.0
  0
POINT
  5
8A6
330
827
100
AcDbEntity
  8
Defpoints
 62
     0
100
AcDbPoint
 10
644.382113857235
 20
156.9066480922595
 30
0.0
  0
ENDBLK
  5
829
330
827
100
AcDbEntity
  8
0
100
AcDbBlockEnd
  0
BLOCK
  5
836
330
835
100
AcDbEntity
  8
0
100
AcDbBlockBegin
  2
*D24
 70
     1
 10
0.0
 20
0.0
 30
0.0
  3
*D24
  1

  0
LINE
  5
8A7
330
835
100
AcDbEntity
  8
0
 62
     0
370
    -2
100
AcDbLine
 10
646.3100477103128
 20
152.4192213931261
 30
0.0
 11
646.3100477103128
 21
150.1093003162506
 31
0.0
  0
LINE
  5
8A8
330
835
100
AcDbEntity
  8
0
 62
     0
370
    -2
100
AcDbLine
 10
641.7213725081649
 20
152.4192213931261
 30
0.0
 11
641.7213725081649
 21
150.1093003162506
 31
0.0
  0
LINE
  5
8A9
330
835
100
AcDbEntity
  8
0
 62
     0
370
    -2
100
AcDbLine
 10
648.8100477103127
 20
151.3593003162506
 30
0.0
 11
651.3100477103128
 21
151.3593003162506
 31
0.0
  0
LINE
  5
8AA
330
835
100
AcDbEntity
  8
0
 62
     0
370
    -2
100
AcDbLine
 10
639.2213725081648
 20
151.3593003162506
 30
0.0
 11
624.4713725081648
 21
151.3593003162506
 31
0.0
  0
LINE
  5
8AB
330
835
100
AcDbEntity
  8
0
 62
     0
370
    -2
100
AcDbLine
 10
646.3100477103128
 20
151.3593003162506
 30
0.0
 11
641.7213725081649
 21
151.3593003162506
 31
0.0
  0
INSERT
  5
8AC
330
835
100
AcDbEntity
  8
0
 62
     0
370
    -2
100
AcDbBlockReference
  2
_Open30
 10
646.3100477103128
 20
151.3593003162506
 30
0.0
 41
2.5
 42
2.5
 43
2.5
 50
180.0
  0
INSERT
  5
8AD
330
835
100
AcDbEntity
  8
0
 62
     0
370
    -2
100
AcDbBlockReference
  2
_Open30
 10
641.7213725081649
 20
151.3593003162506
 30
0.0
 41
2.5
 42
2.5
 43
2.5
  0
MTEXT
  5
8AE
330
835
100
AcDbEntity
  8
0
 62
     4
100
AcDbMText
 10
630.5963725081649
 20
153.4843003162506
 30
0.0
 40
3.0
 41
0.0
 71
     5
 72
     1
  1
13.77
 73
     1
 44
1.0
1001
ACAD
1000
MTEXTBEGIN
1070
    73
1070
     1
1070
    44
1040
1.0
1070
    74
1070
     0
1000
MTEXTEND
  0
POINT
  5
8AF
330
835
100
AcDbEntity
  8
Defpoints
 62
     0
100
AcDbPoint
 10
646.3100477103128
 20
152.6692213931261
 30
0.0
  0
POINT
  5
8B0
330
835
100
AcDbEntity
  8
Defpoints
 62
     0
100
AcDbPoint
 10
641.7213725081649
 20
152.6692213931261
 30
0.0
  0
POINT
  5
8B1
330
835
100
AcDbEntity
  8
Defpoints
 62
     0
100
AcDbPoint
 10
641.7213725081649
 20
151.3593003162506
 30
0.0
  0
ENDBLK
  5
837
330
835
100
AcDbEntity
  8
0
100
AcDbBlockEnd
  0
BLOCK
  5
844
330
843
100
AcDbEntity
  8
0
100
AcDbBlockBegin
  2
*D25
 70
     1
 10
0.0
 20
0.0
 30
0.0
  3
*D25
  1

  0
LINE
  5
8B2
330
843
100
AcDbEntity
  8
0
 62
     0
370
    -2
100
AcDbLine
 10
639.2137648771624
 20
183.3487127114004
 30
0.0
 11
639.2137648771624
 21
190.7452461893382
 31
0.0
  0
LINE
  5
8B3
330
843
100
AcDbEntity
  8
0
 62
     0
370
    -2
100
AcDbLine
 10
629.2752905076724
 20
183.3487127114004
 30
0.0
 11
629.2752905076724
 21
190.7452461893382
 31
0.0
  0
LINE
  5
8B4
330
843
100
AcDbEntity
  8
0
 62
     0
370
    -2
100
AcDbLine
 10
636.7137648771624
 20
189.4952461893382
 30
0.0
 11
631.7752905076725
 21
189.4952461893382
 31
0.0
  0
INSERT
  5
8B5
330
843
100
AcDbEntity
  8
0
 62
     0
370
    -2
100
AcDbBlockReference
  2
_Open30
 10
639.2137648771624
 20
189.4952461893382
 30
0.0
 41
2.5
 42
2.5
 43
2.5
  0
INSERT
  5
8B6
330
843
100
AcDbEntity
  8
0
 62
     0
370
    -2
100
AcDbBlockReference
  2
_Open30
 10
629.2752905076724
 20
189.4952461893382
 30
0.0
 41
2.5
 42
2.5
 43
2.5
 50
180.0
  0
MTEXT
  5
8B7
330
843
100
AcDbEntity
  8
0
 62
     4
100
AcDbMText
 10
634.2445276924174
 20
192.5702461893382
 30
0.0
 40
3.0
 41
0.0
 71
     5
 72
     1
  1
9.94\H0.7X;\S+0^ -0.02;
 73
     1
 44
1.0
1001
ACAD
1000
MTEXTBEGIN
1070
    73
1070
     1
1070
    44
1040
1.0
1070
    74
1070
     0
1000
MTEXTEND
  0
POINT
  5
8B8
330
843
100
AcDbEntity
  8
Defpoints
 62
     0
100
AcDbPoint
 10
639.2137648771624
 20
183.0987127114005
 30
0.0
  0
POINT
  5
8B9
330
843
100
AcDbEntity
  8
Defpoints
 62
     0
100
AcDbPoint
 10
629.2752905076724
 20
183.0987127114005
 30
0.0
  0
POINT
  5
8BA
330
843
100
AcDbEntity
  8
Defpoints
 62
     0
100
AcDbPoint
 10
629.2752905076724
 20
189.4952461893382
 30
0.0
  0
ENDBLK
  5
845
330
843
100
AcDbEntity
  8
0
100
AcDbBlockEnd
  0
ENDSEC
  0
SECTION
  2
ENTITIES
  0
LINE
  5
369
330
1F
100
AcDbEntity
  8
0
 62
     3
100
AcDbLine
 10
126.6263236254349
 20
86.83169017243754
 30
0.0
 11
173.8763236254349
 21
86.83169017243754
 31
0.0
  0
LINE
  5
36A
330
1F
100
AcDbEntity
  8
0
 62
     3
100
AcDbLine
 10
173.8763236254349
 20
131.5816901724375
 30
0.0
 11
126.6263236254349
 21
131.5816901724375
 31
0.0
  0
LINE
  5
36B
330
1F
100
AcDbEntity
  8
0
 62
     3
100
AcDbLine
 10
122.8763236254349
 20
127.8316901724375
 30
0.0
 11
122.8763236254349
 21
90.58169017243754
 31
0.0
  0
LINE
  5
36C
330
1F
100
AcDbEntity
  8
0
 62
     3
100
AcDbLine
 10
177.6263236254349
 20
127.8316901724375
 30
0.0
 11
177.6263236254349
 21
90.58169017243754
 31
0.0
  0
LINE
  5
36D
330
1F
100
AcDbEntity
  8
0
 62
     3
100
AcDbLine
 10
177.6263236254349
 20
127.8316901724375
 30
0.0
 11
173.8763236254349
 21
131.5816901724375
 31
0.0
  0
LINE
  5
36E
330
1F
100
AcDbEntity
  8
0
 62
     3
100
AcDbLine
 10
126.6263236254349
 20
131.5816901724375
 30
0.0
 11
122.8763236254349
 21
127.8316901724375
 31
0.0
  0
LINE
  5
36F
330
1F
100
AcDbEntity
  8
0
 62
     3
100
AcDbLine
 10
122.8763236254349
 20
90.58169017243754
 30
0.0
 11
126.6263236254349
 21
86.83169017243754
 31
0.0
  0
LINE
  5
370
330
1F
100
AcDbEntity
  8
0
 62
     3
100
AcDbLine
 10
173.8763236254349
 20
86.83169017243754
 30
0.0
 11
177.6263236254349
 21
90.58169017243754
 31
0.0
  0
LINE
  5
371
330
1F
100
AcDbEntity
  8
0
 62
     3
100
AcDbLine
 10
222.8226360971863
 20
131.5816901724375
 30
0.0
 11
223.8226360971863
 21
131.5816901724375
 31
0.0
  0
LINE
  5
372
330
1F
100
AcDbEntity
  8
0
 62
     3
100
AcDbLine
 10
222.8226360971863
 20
86.83169017243754
 30
0.0
 11
223.8226360971863
 21
86.83169017243754
 31
0.0
  0
LINE
  5
373
330
1F
100
AcDbEntity
  8
0
 62
     3
100
AcDbLine
 10
222.8226360971863
 20
131.5816901724375
 30
0.0
 11
222.8226360971863
 21
86.83169017243754
 31
0.0
  0
LINE
  5
374
330
1F
100
AcDbEntity
  8
0
 62
     3
100
AcDbLine
 10
223.8226360971863
 20
131.5816901724375
 30
0.0
 11
223.8226360971863
 21
86.83169017243754
 31
0.0
  0
LINE
  5
375
330
1F
100
AcDbEntity
  8
0
 62
     3
100
AcDbLine
 10
223.8226360971863
 20
127.8316901724375
 30
0.0
 11
222.8226360971863
 21
127.8316901724375
 31
0.0
  0
LINE
  5
376
330
1F
100
AcDbEntity
  8
0
 62
     3
100
AcDbLine
 10
223.8226360971863
 20
90.58169017243754
 30
0.0
 11
222.8226360971863
 21
90.58169017243754
 31
0.0
  0
LINE
  5
513
330
1F
100
AcDbEntity
  8
0
 62
     3
100
AcDbLine
 10
44.87226256088212
 20
190.6566014360051
 30
0.0
 11
44.87226256088212
 21
10.65660143600527
 31
0.0
  0
LINE
  5
514
330
1F
100
AcDbEntity
  8
0
 62
     3
100
AcDbLine
 10
321.8722625608821
 20
10.65660143600527
 30
0.0
 11
321.8722625608821
 21
190.6566014360051
 31
0.0
  0
LINE
  5
515
330
1F
100
AcDbEntity
  8
0
 62
     3
100
AcDbLine
 10
44.87226256088212
 20
10.65660143600527
 30
0.0
 11
321.8722625608821
 21
10.65660143600527
 31
0.0
  0
LINE
  5
516
330
1F
100
AcDbEntity
  8
0
 62
     3
100
AcDbLine
 10
270.1728990808822
 20
10.65660143600527
 30
0.0
 11
270.1728990808821
 21
50.32232396600524
 31
0.0
  0
LINE
  5
517
330
1F
100
AcDbEntity
  8
0
 62
     3
100
AcDbLine
 10
283.1728990808821
 20
20.32232396600526
 30
0.0
 11
283.1728990808821
 21
50.32232396600526
 31
0.0
  0
LINE
  5
518
330
1F
100
AcDbEntity
  8
0
 62
     3
100
AcDbLine
 10
243.1192896508821
 20
20.32232396600526
 30
0.0
 11
243.1192896508821
 21
34.32232396600524
 31
0.0
  0
LINE
  5
519
330
1F
100
AcDbEntity
  8
0
 62
     3
100
AcDbLine
 10
253.4512240108821
 20
34.32232396600524
 30
0.0
 11
253.4512240108821
 21
10.65660143600527
 31
0.0
  0
LINE
  5
51A
330
1F
100
AcDbEntity
  8
0
 62
     3
100
AcDbLine
 10
223.8142547008821
 20
50.32232396600524
 30
0.0
 11
223.8142547008821
 21
27.32232396600526
 31
0.0
  0
LINE
  5
51C
330
1F
100
AcDbEntity
  8
0
 62
     3
100
AcDbLine
 10
296.1728990808822
 20
27.32232396600526
 30
0.0
 11
296.1728990808822
 21
50.32232396600526
 31
0.0
  0
LINE
  5
51D
330
1F
100
AcDbEntity
  8
0
 62
     3
100
AcDbLine
 10
321.8722625608821
 20
50.32232396600526
 30
0.0
 11
210.5688200608821
 21
50.32232396600526
 31
0.0
  0
LINE
  5
51E
330
1F
100
AcDbEntity
  8
0
 62
     3
100
AcDbLine
 10
321.8722625608821
 20
41.32232396600524
 30
0.0
 11
210.5688200608821
 21
41.32232396600524
 31
0.0
  0
LINE
  5
51F
330
1F
100
AcDbEntity
  8
0
 62
     3
100
AcDbLine
 10
321.8722625608821
 20
27.32232396600526
 30
0.0
 11
210.5688200608821
 21
27.32232396600526
 31
0.0
  0
LINE
  5
520
330
1F
100
AcDbEntity
  8
0
 62
     3
100
AcDbLine
 10
321.8722625608821
 20
20.32232396600526
 30
0.0
 11
210.5688200608821
 21
20.32232396600526
 31
0.0
  0
LINE
  5
521
330
1F
100
AcDbEntity
  8
0
 62
     3
100
AcDbLine
 10
309.1728990808821
 20
27.32232396600526
 30
0.0
 11
309.1728990808821
 21
50.32232396600526
 31
0.0
  0
LINE
  5
522
330
1F
100
AcDbEntity
  8
0
 62
     3
100
AcDbLine
 10
210.5688200608821
 20
50.32232396600526
 30
0.0
 11
210.5688200608821
 21
10.65660143600527
 31
0.0
  0
LINE
  5
523
330
1F
100
AcDbEntity
  8
0
 62
     3
100
AcDbLine
 10
270.1728990808821
 20
34.32232396600524
 30
0.0
 11
210.5688200608821
 21
34.32232396600524
 31
0.0
  0
LINE
  5
524
330
1F
100
AcDbEntity
  8
0
 62
     3
100
AcDbLine
 10
253.4512240108821
 20
15.48946269600526
 30
0.0
 11
270.1728990808821
 21
15.48946269600526
 31
0.0
  0
LINE
  5
525
330
1F
100
AcDbEntity
  8
0
 62
     3
100
AcDbLine
 10
257.1728990808821
 20
41.32232396600524
 30
0.0
 11
265.1728990808821
 21
41.32232396600524
 31
0.0
  0
TEXT
  5
526
330
1F
100
AcDbEntity
  8
0
 62
     3
100
AcDbText
 10
254.0378259508821
 20
29.39542081937061
 30
0.0
 40
2.5
  1
クリア
  7
高2.5
100
AcDbText
  0
TEXT
  5
527
330
1F
100
AcDbEntity
  8
0
 62
     3
100
AcDbText
 10
225.3156583461342
 20
29.62013837098915
 30
0.0
 40
2.5
  1
PC
  7
高2.5
100
AcDbText
  0
TEXT
  5
528
330
1F
100
AcDbEntity
  8
0
 62
     3
100
AcDbText
 10
225.6341755308318
 20
42.63457348976314
 30
0.0
 40
4.5
  1
エコナイター30用前面パネル
 41
0.6
  7
高4.5
100
AcDbText
1001
ACAD
1000
ACAD_MTEXT_DEFINED_HEIGHT_BEGIN
1070
    46
1040
0.0
1000
ACAD_MTEXT_DEFINED_HEIGHT_END
  0
TEXT
  5
529
330
1F
100
AcDbEntity
  8
0
 62
     3
100
AcDbText
 10
311.9378516543562
 20
46.83601606470884
 30
0.0
 40
2.0
  1
DEF
  7
高2
100
AcDbText
  0
TEXT
  5
52A
330
1F
100
AcDbEntity
  8
0
 62
     3
100
AcDbText
 10
298.2993898206479
 20
46.83601606470875
 30
0.0
 40
2.0
  1
DESN
  7
高2
100
AcDbText
  0
TEXT
  5
52B
330
1F
100
AcDbEntity
  8
0
 62
     3
100
AcDbText
 10
272.0450228806477
 20
46.83601606470884
 30
0.0
 40
2.0
  1
APPD
  7
高2
100
AcDbText
  0
TEXT
  5
52C
330
1F
100
AcDbEntity
  8
0
 62
     3
100
AcDbText
 10
285.1577589808822
 20
46.83601606470886
 30
0.0
 40
2.0
  1
CHCK
  7
高2
100
AcDbText
  0
TEXT
  5
52D
330
1F
100
AcDbEntity
  8
0
 62
     3
100
AcDbText
 10
244.3783896500348
 20
24.49072278923598
 30
0.0
 40
2.0
  1
SCALE
 41
0.8
  7
高2
100
AcDbText
  0
TEXT
  5
52E
330
1F
100
AcDbEntity
  8
0
 62
     3
100
AcDbText
 10
222.7655965037628
 20
24.49072278923589
 30
0.0
 40
2.0
  1
ANGLE
 41
1.5
  7
高2
100
AcDbText
  0
TEXT
  5
52F
330
1F
100
AcDbEntity
  8
0
 62
     3
100
AcDbText
 10
212.2533987639282
 20
24.49072278923598
 30
0.0
 40
2.0
  1
3AD
 41
1.5
  7
高2
100
AcDbText
  0
TEXT
  5
530
330
1F
100
AcDbEntity
  8
0
 62
     3
100
AcDbText
 10
243.6477953408835
 20
31.24226085819308
 30
0.0
 40
2.0
  1
REMARKS
 41
0.7
  7
高2
100
AcDbText
  0
TEXT
  5
531
330
1F
100
AcDbEntity
  8
0
 62
     3
100
AcDbText
 10
212.0364904108821
 20
31.24226085819308
 30
0.0
 40
2.0
  1
MATERIAL
 41
0.7
  7
高2
100
AcDbText
  0
TEXT
  5
532
330
1F
100
AcDbEntity
  8
0
 62
     3
100
AcDbText
 10
211.9920463006375
 20
38.57806350033442
 30
0.0
 40
2.0
  1
MODEL
  7
高2
100
AcDbText
  0
TEXT
  5
533
330
1F
100
AcDbEntity
  8
0
 62
     3
100
AcDbText
 10
212.2498984949674
 20
47.02934531660426
 30
0.0
 40
2.0
  1
CONPONENTS
 41
0.5
  7
高2
100
AcDbText
  0
TEXT
  5
534
330
1F
100
AcDbEntity
  8
0
 62
     3
100
AcDbText
 10
225.3156583461343
 20
35.40980509381721
 30
0.0
 40
4.5
  1
LEN-PC-30
  7
高4.5
100
AcDbText
  0
TEXT
  5
535
330
1F
100
AcDbEntity
  8
0
 62
     3
100
AcDbText
 10
273.2379448115007
 20
12.69506283137086
 30
0.0
 40
6.299999999999998
  1
LEN-PC-30
 41
0.8
  7
高6.3
100
AcDbText
1001
ACAD
1000
ACAD_MTEXT_DEFINED_HEIGHT_BEGIN
1070
    46
1040
0.0
1000
ACAD_MTEXT_DEFINED_HEIGHT_END
  0
TEXT
  5
536
330
1F
100
AcDbEntity
  8
0
 62
     3
100
AcDbText
 10
286.7364088312117
 20
21.42321312423825
 30
0.0
 40
3.2
  1
2011.12.20
  7
高3.2
100
AcDbText
1001
ACAD
1000
ACAD_MTEXT_DEFINED_HEIGHT_BEGIN
1070
    46
1040
0.0
1000
ACAD_MTEXT_DEFINED_HEIGHT_END
  0
TEXT
  5
537
330
1F
100
AcDbEntity
  8
0
 62
     3
100
AcDbText
 10
256.9604969755284
 20
21.42324096857313
 30
0.0
 40
3.2
  1
1/4
  7
高3.2
100
AcDbText
  0
TEXT
  5
538
330
1F
100
AcDbEntity
  8
0
 62
     3
100
AcDbText
 10
254.0378259508821
 20
11.47347960914124
 30
0.0
 40
3.2
  1
ZK-A4X
 41
0.8
  7
高3.2
100
AcDbText
  0
TEXT
  5
539
330
1F
100
AcDbEntity
  8
0
 62
     3
100
AcDbText
 10
212.0364904108821
 20
17.1812218581931
 30
0.0
 40
2.0
  1
NICHIDO IND.CO.LTD
 41
1.3
  7
高2
100
AcDbText
  0
TEXT
  5
53A
330
1F
100
AcDbEntity
  8
0
 62
     3
100
AcDbText
 10
212.5810443658393
 20
42.46285217389018
 30
0.0
 40
3.2
  1
品 名
  7
高3.2
100
AcDbText
1001
ACAD
1000
ACAD_MTEXT_DEFINED_HEIGHT_BEGIN
1070
    46
1040
0.0
1000
ACAD_MTEXT_DEFINED_HEIGHT_END
  0
TEXT
  5
53B
330
1F
100
AcDbEntity
  8
0
 62
     3
100
AcDbText
 10
212.5810443658393
 20
34.93238017874788
 30
0.0
 40
3.2
  1
型 式
  7
高3.2
100
AcDbText
1001
ACAD
1000
ACAD_MTEXT_DEFINED_HEIGHT_BEGIN
1070
    46
1040
3.064735913775953
1000
ACAD_MTEXT_DEFINED_HEIGHT_END
  0
TEXT
  5
53C
330
1F
100
AcDbEntity
  8
0
 62
     3
100
AcDbText
 10
212.5810443658393
 20
27.57034055123544
 30
0.0
 40
3.2
  1
材 質
  7
高3.2
100
AcDbText
1001
ACAD
1000
ACAD_MTEXT_DEFINED_HEIGHT_BEGIN
1070
    46
1040
0.0
1000
ACAD_MTEXT_DEFINED_HEIGHT_END
  0
TEXT
  5
53D
330
1F
100
AcDbEntity
  8
0
 62
     3
100
AcDbText
 10
212.5810443658393
 20
20.78976395825149
 30
0.0
 40
3.2
  1
第 三 角 法
  7
高3.2
100
AcDbText
1001
ACAD
1000
ACAD_MTEXT_DEFINED_HEIGHT_BEGIN
1070
    46
1040
0.0
1000
ACAD_MTEXT_DEFINED_HEIGHT_END
  0
TEXT
  5
53E
330
1F
100
AcDbEntity
  8
0
 62
     3
100
AcDbText
 10
211.3195113333681
 20
11.7971296438902
 30
0.0
 40
3.2
  1
日動工業株式会社
 41
1.199999999999999
  7
高3.2
100
AcDbText
1001
ACAD
1000
ACAD_MTEXT_DEFINED_HEIGHT_BEGIN
1070
    46
1040
0.0
1000
ACAD_MTEXT_DEFINED_HEIGHT_END
  0
TEXT
  5
53F
330
1F
100
AcDbEntity
  8
0
 62
     3
100
AcDbText
 10
244.7605404775726
 20
27.7069024991728
 30
0.0
 40
3.2
  1
備考
  7
高3.2
100
AcDbText
1001
ACAD
1000
ACAD_MTEXT_DEFINED_HEIGHT_BEGIN
1070
    46
1040
0.0
1000
ACAD_MTEXT_DEFINED_HEIGHT_END
  0
TEXT
  5
540
330
1F
100
AcDbEntity
  8
0
 62
     3
100
AcDbText
 10
254.3258680498821
 20
16.80283146157556
 30
0.0
 40
2.5
  1
出図コード
  7
高2.5
100
AcDbText
1001
ACAD
1000
ACAD_MTEXT_DEFINED_HEIGHT_BEGIN
1070
    46
1040
0.0
1000
ACAD_MTEXT_DEFINED_HEIGHT_END
  0
TEXT
  5
541
330
1F
100
AcDbEntity
  8
0
 62
     3
100
AcDbText
 10
244.6017743594851
 20
20.77555887641816
 30
0.0
 40
3.2
  1
尺度
  7
高3.2
100
AcDbText
1001
ACAD
1000
ACAD_MTEXT_DEFINED_HEIGHT_BEGIN
1070
    46
1040
0.0
1000
ACAD_MTEXT_DEFINED_HEIGHT_END
  0
TEXT
  5
542
330
1F
100
AcDbEntity
  8
0
 62
     3
100
AcDbText
 10
271.664305966538
 20
21.90703732453565
 30
0.0
 40
3.2
  1
作成日
  7
高3.2
100
AcDbText
1001
ACAD
1000
ACAD_MTEXT_DEFINED_HEIGHT_BEGIN
1070
    46
1040
0.0
1000
ACAD_MTEXT_DEFINED_HEIGHT_END
  0
TEXT
  5
543
330
1F
100
AcDbEntity
  8
0
 62
     3
100
AcDbText
 10
271.4232820161381
 20
42.46285217389018
 30
0.0
 40
3.2
  1
承 認
  7
高3.2
100
AcDbText
1001
ACAD
1000
ACAD_MTEXT_DEFINED_HEIGHT_BEGIN
1070
    46
1040
0.0
1000
ACAD_MTEXT_DEFINED_HEIGHT_END
  0
TEXT
  5
544
330
1F
100
AcDbEntity
  8
0
 62
     3
100
AcDbText
 10
284.423282016138
 20
42.46285217389018
 30
0.0
 40
3.2
  1
検 図
  7
高3.2
100
AcDbText
1001
ACAD
1000
ACAD_MTEXT_DEFINED_HEIGHT_BEGIN
1070
    46
1040
0.0
1000
ACAD_MTEXT_DEFINED_HEIGHT_END
  0
TEXT
  5
545
330
1F
100
AcDbEntity
  8
0
 62
     3
100
AcDbText
 10
297.423282016138
 20
42.46285217389018
 30
0.0
 40
3.2
  1
設 計
  7
高3.2
100
AcDbText
1001
ACAD
1000
ACAD_MTEXT_DEFINED_HEIGHT_BEGIN
1070
    46
1040
0.0
1000
ACAD_MTEXT_DEFINED_HEIGHT_END
  0
TEXT
  5
546
330
1F
100
AcDbEntity
  8
0
 62
     3
100
AcDbText
 10
310.4232820161381
 20
42.46285217389018
 30
0.0
 40
3.2
  1
製 図
  7
高3.2
100
AcDbText
1001
ACAD
1000
ACAD_MTEXT_DEFINED_HEIGHT_BEGIN
1070
    46
1040
0.0
1000
ACAD_MTEXT_DEFINED_HEIGHT_END
  0
LINE
  5
55D
330
1F
100
AcDbEntity
  8
0
 62
     3
100
AcDbLine
 10
183.3722625608821
 20
199.1292187360052
 30
0.0
 11
183.3722625608821
 21
197.8806596260053
 31
0.0
  0
LINE
  5
55E
330
1F
100
AcDbEntity
  8
0
 62
     3
100
AcDbLine
 10
171.4589238408821
 20
192.4899291560051
 30
0.0
 11
171.8946717508821
 21
192.2624610160051
 31
0.0
  0
LINE
  5
55F
330
1F
100
AcDbEntity
  8
0
 62
     3
100
AcDbLine
 10
171.4589238408821
 20
188.7592986860051
 30
0.0
 11
171.8946717508821
 21
188.9867668160052
 31
0.0
  0
LINE
  5
560
330
1F
100
AcDbEntity
  8
0
 62
     3
100
AcDbLine
 10
171.8946717508821
 20
192.2624610160051
 30
0.0
 11
171.8946717508821
 21
188.9867668160052
 31
0.0
  0
LINE
  5
561
330
1F
100
AcDbEntity
  8
0
 62
     3
100
AcDbLine
 10
172.9981891708821
 20
188.7592986860051
 30
0.0
 11
172.5624412608821
 21
188.9867668160052
 31
0.0
  0
LINE
  5
562
330
1F
100
AcDbEntity
  8
0
 62
     3
100
AcDbLine
 10
172.5624412608821
 20
190.9836256360051
 30
0.0
 11
172.5624412608821
 21
188.9867668160052
 31
0.0
  0
LINE
  5
563
330
1F
100
AcDbEntity
  8
0
 62
     3
100
AcDbLine
 10
175.5400519508822
 20
192.4899291560051
 30
0.0
 11
175.1043040408821
 21
192.2624610160051
 31
0.0
  0
LINE
  5
564
330
1F
100
AcDbEntity
  8
0
 62
     3
100
AcDbLine
 10
174.0007866208821
 20
192.4899291560051
 30
0.0
 11
174.4365345308821
 21
192.2624610160051
 31
0.0
  0
LINE
  5
565
330
1F
100
AcDbEntity
  8
0
 62
     3
100
AcDbLine
 10
174.4365345308821
 20
192.2624610160051
 30
0.0
 11
174.4365345308821
 21
190.8201239560052
 31
0.0
  0
LINE
  5
566
330
1F
100
AcDbEntity
  8
0
 62
     3
100
AcDbLine
 10
175.1043040408821
 20
192.2624610160051
 30
0.0
 11
175.1043040408821
 21
188.5477375360052
 31
0.0
  0
LINE
  5
567
330
1F
100
AcDbEntity
  8
0
 62
     3
100
AcDbLine
 10
175.7553491508821
 20
192.4899265260052
 30
0.0
 11
176.1910954908821
 21
192.2624553960052
 31
0.0
  0
LINE
  5
568
330
1F
100
AcDbEntity
  8
0
 62
     3
100
AcDbLine
 10
175.7552711808822
 20
188.7593486560051
 30
0.0
 11
176.1910270308821
 21
188.9868015860051
 31
0.0
  0
LINE
  5
569
330
1F
100
AcDbEntity
  8
0
 62
     3
100
AcDbLine
 10
176.1910954908821
 20
192.2624553960052
 30
0.0
 11
176.1910954908821
 21
188.9868015860051
 31
0.0
  0
LINE
  5
56A
330
1F
100
AcDbEntity
  8
0
 62
     3
100
AcDbLine
 10
177.6848855508821
 20
192.4899028560051
 30
0.0
 11
177.2491344508821
 21
192.2624408260051
 31
0.0
  0
LINE
  5
56B
330
1F
100
AcDbEntity
  8
0
 62
     3
100
AcDbLine
 10
177.2491344508821
 20
192.2624408260051
 30
0.0
 11
177.2491344508821
 21
188.9867870160052
 31
0.0
  0
LINE
  5
56C
330
1F
100
AcDbEntity
  8
0
 62
     3
100
AcDbLine
 10
177.6848855508821
 20
188.7593249760053
 30
0.0
 11
177.2491344508821
 21
188.9867870160052
 31
0.0
  0
LINE
  5
56D
330
1F
100
AcDbEntity
  8
0
 62
     3
100
AcDbLine
 10
181.3751389908821
 20
192.4898618560052
 30
0.0
 11
181.8108861108821
 21
192.2623922160051
 31
0.0
  0
LINE
  5
56E
330
1F
100
AcDbEntity
  8
0
 62
     3
100
AcDbLine
 10
181.8108861108821
 20
192.2623922160051
 30
0.0
 11
181.8108289408822
 21
188.9867384060051
 31
0.0
  0
LINE
  5
56F
330
1F
100
AcDbEntity
  8
0
 62
     3
100
AcDbLine
 10
181.3750738708821
 20
188.7592839760053
 30
0.0
 11
181.8108289408822
 21
188.9867384060051
 31
0.0
  0
LINE
  5
570
330
1F
100
AcDbEntity
  8
0
 62
     3
100
AcDbLine
 10
183.3273999508822
 20
192.4898618560052
 30
0.0
 11
182.8916528308821
 21
192.2623922160051
 31
0.0
  0
LINE
  5
571
330
1F
100
AcDbEntity
  8
0
 62
     3
100
AcDbLine
 10
183.3274650608821
 20
188.7592839760053
 30
0.0
 11
182.8917100008821
 21
188.9867384060051
 31
0.0
  0
LINE
  5
572
330
1F
100
AcDbEntity
  8
0
 62
     3
100
AcDbLine
 10
183.5311278108821
 20
192.4898618560052
 30
0.0
 11
183.9668749308821
 21
192.2623922160051
 31
0.0
  0
LINE
  5
573
330
1F
100
AcDbEntity
  8
0
 62
     3
100
AcDbLine
 10
183.5310627008821
 20
188.7592839760053
 30
0.0
 11
183.9668177608821
 21
188.9867384060051
 31
0.0
  0
LINE
  5
574
330
1F
100
AcDbEntity
  8
0
 62
     3
100
AcDbLine
 10
185.4833887808821
 20
192.4898618560052
 30
0.0
 11
185.0476416608821
 21
192.2623922160051
 31
0.0
  0
LINE
  5
575
330
1F
100
AcDbEntity
  8
0
 62
     3
100
AcDbLine
 10
185.0476416608821
 20
192.2623922160051
 30
0.0
 11
185.0476988308821
 21
188.9867384060051
 31
0.0
  0
LINE
  5
576
330
1F
100
AcDbEntity
  8
0
 62
     3
100
AcDbLine
 10
185.4834538908822
 20
188.7592839760053
 30
0.0
 11
185.0476988308821
 21
188.9867384060051
 31
0.0
  0
LINE
  5
577
330
1F
100
AcDbEntity
  8
0
 62
     3
100
AcDbLine
 10
183.9668500308821
 20
190.8352590960051
 30
0.0
 11
182.8916777408821
 21
190.8352590960051
 31
0.0
  0
LINE
  5
578
330
1F
100
AcDbEntity
  8
0
 62
     3
100
AcDbLine
 10
183.9668426708821
 20
190.4139687360051
 30
0.0
 11
182.8916850908821
 21
190.4139687360051
 31
0.0
  0
LINE
  5
579
330
1F
100
AcDbEntity
  8
0
 62
     3
100
AcDbLine
 10
183.9668749308821
 20
192.2623922160051
 30
0.0
 11
183.9668500308821
 21
190.8352590960051
 31
0.0
  0
LINE
  5
57A
330
1F
100
AcDbEntity
  8
0
 62
     3
100
AcDbLine
 10
183.9668426708821
 20
190.4139687360051
 30
0.0
 11
183.9668177608821
 21
188.9867384060051
 31
0.0
  0
LINE
  5
57B
330
1F
100
AcDbEntity
  8
0
 62
     3
100
AcDbLine
 10
182.8916528308821
 20
192.2623922160051
 30
0.0
 11
182.8916777408821
 21
190.8352590960051
 31
0.0
  0
LINE
  5
57C
330
1F
100
AcDbEntity
  8
0
 62
     3
100
AcDbLine
 10
182.8916850908821
 20
190.4139687360051
 30
0.0
 11
182.8917100008821
 21
188.9867384060051
 31
0.0
  0
LINE
  5
57D
330
1F
100
AcDbEntity
  8
0
 62
     3
100
AcDbLine
 10
185.6903479008821
 20
192.4898618560052
 30
0.0
 11
186.1260950208821
 21
192.2623922160051
 31
0.0
  0
LINE
  5
57E
330
1F
100
AcDbEntity
  8
0
 62
     3
100
AcDbLine
 10
186.1260950208821
 20
192.2623922160051
 30
0.0
 11
186.1260378508821
 21
188.9867384060051
 31
0.0
  0
LINE
  5
57F
330
1F
100
AcDbEntity
  8
0
 62
     3
100
AcDbLine
 10
185.6902827908822
 20
188.7592839760053
 30
0.0
 11
186.1260378508821
 21
188.9867384060051
 31
0.0
  0
LINE
  5
580
330
1F
100
AcDbEntity
  8
0
 62
     3
100
AcDbLine
 10
187.6198581708821
 20
192.4898618560052
 30
0.0
 11
187.1841110508821
 21
192.2623922160051
 31
0.0
  0
LINE
  5
581
330
1F
100
AcDbEntity
  8
0
 62
     3
100
AcDbLine
 10
187.1841110508821
 20
192.2623922160051
 30
0.0
 11
187.1841682208821
 21
188.9867384060051
 31
0.0
  0
LINE
  5
582
330
1F
100
AcDbEntity
  8
0
 62
     3
100
AcDbLine
 10
187.6199232808821
 20
188.7592839760053
 30
0.0
 11
187.1841682208821
 21
188.9867384060051
 31
0.0
  0
LINE
  5
583
330
1F
100
AcDbEntity
  8
0
 62
     3
100
AcDbLine
 10
187.8342177308821
 20
192.4898618560052
 30
0.0
 11
188.2699648608821
 21
192.2623922160051
 31
0.0
  0
LINE
  5
584
330
1F
100
AcDbEntity
  8
0
 62
     3
100
AcDbLine
 10
188.2699648608821
 20
192.2623922160051
 30
0.0
 11
188.2699076908822
 21
188.9867384060051
 31
0.0
  0
LINE
  5
585
330
1F
100
AcDbEntity
  8
0
 62
     3
100
AcDbLine
 10
187.8341526208821
 20
188.7592839760053
 30
0.0
 11
188.2699076908822
 21
188.9867384060051
 31
0.0
  0
ARC
  5
586
330
1F
100
AcDbEntity
  8
0
 62
     3
100
AcDbCircle
 10
179.9832277208821
 20
190.6340036760053
 30
0.0
 40
2.086285909999999
100
AcDbArc
 50
97.70152351000051
 51
270.0
  0
ARC
  5
587
330
1F
100
AcDbEntity
  8
0
 62
     3
100
AcDbCircle
 10
192.8638285608821
 20
190.6130470460053
 30
0.0
 40
2.108943379999999
100
AcDbArc
 50
0.3142502700000956
 51
69.00558244999962
  0
ARC
  5
588
330
1F
100
AcDbEntity
  8
0
 62
     3
100
AcDbCircle
 10
193.3245038808821
 20
190.6130470460053
 30
0.0
 40
2.108943379999999
100
AcDbArc
 50
110.9944175500004
 51
148.1166110199997
  0
ARC
  5
589
330
1F
100
AcDbEntity
  8
0
 62
     3
100
AcDbCircle
 10
192.8638285608821
 20
190.6361807860053
 30
0.0
 40
2.108943379999999
100
AcDbArc
 50
290.9944175500003
 51
359.6857497299998
  0
ARC
  5
58A
330
1F
100
AcDbEntity
  8
0
 62
     3
100
AcDbCircle
 10
193.3245038808821
 20
190.6361807860053
 30
0.0
 40
2.108943379999999
100
AcDbArc
 50
211.8833889800002
 51
249.0055824499996
  0
ARC
  5
58B
330
1F
100
AcDbEntity
  8
0
 62
     3
100
AcDbCircle
 10
193.0941662208822
 20
191.487419316005
 30
0.0
 40
1.214070989999997
100
AcDbArc
 50
64.36517189999965
 51
115.6348281000003
  0
ARC
  5
58C
330
1F
100
AcDbEntity
  8
0
 62
     3
100
AcDbCircle
 10
193.0941662208822
 20
189.7618085260052
 30
0.0
 40
1.214070989999997
100
AcDbArc
 50
244.3651718999997
 51
295.6348281000003
  0
ARC
  5
58D
330
1F
100
AcDbEntity
  8
0
 62
     3
100
AcDbCircle
 10
193.0941662208822
 20
191.5104809960052
 30
0.0
 40
0.59585563
100
AcDbArc
 50
19.48660554000009
 51
160.5133944599999
  0
ARC
  5
58E
330
1F
100
AcDbEntity
  8
0
 62
     3
100
AcDbCircle
 10
193.0941662208822
 20
189.7618085260052
 30
0.0
 40
1.214070989999997
100
AcDbArc
 50
244.3651718999997
 51
295.6348281000003
  0
ARC
  5
58F
330
1F
100
AcDbEntity
  8
0
 62
     3
100
AcDbCircle
 10
193.0941662208822
 20
189.7387468460052
 30
0.0
 40
0.59585563
100
AcDbArc
 50
199.4866055400001
 51
340.5133944599999
  0
ARC
  5
590
330
1F
100
AcDbEntity
  8
0
 62
     3
100
AcDbCircle
 10
188.3516937208821
 20
168.3965540760052
 30
0.0
 40
26.04
100
AcDbArc
 50
69.505714799998
 51
81.68998807000065
  0
ARC
  5
591
330
1F
100
AcDbEntity
  8
0
 62
     3
100
AcDbCircle
 10
188.3516937208821
 20
212.8526737560052
 30
0.0
 40
26.04
100
AcDbArc
 50
278.3100119299994
 51
290.4942851999986
  0
ARC
  5
592
330
1F
100
AcDbEntity
  8
0
 62
     3
100
AcDbCircle
 10
196.6598978408821
 20
190.6246139160051
 30
0.0
 40
2.31
100
AcDbArc
 50
290.4942851999986
 51
69.505714799998
  0
ARC
  5
593
330
1F
100
AcDbEntity
  8
0
 62
     3
100
AcDbCircle
 10
169.3598978408822
 20
190.6246139160051
 30
0.0
 40
2.31
100
AcDbArc
 50
110.494285200002
 51
249.505714799998
  0
ARC
  5
594
330
1F
100
AcDbEntity
  8
0
 62
     3
100
AcDbCircle
 10
177.6681019708821
 20
168.3965540760052
 30
0.0
 40
26.04
100
AcDbArc
 50
98.31001192999934
 51
110.494285200002
  0
ARC
  5
595
330
1F
100
AcDbEntity
  8
0
 62
     3
100
AcDbCircle
 10
177.6681019708821
 20
212.8526737560052
 30
0.0
 40
26.04
100
AcDbArc
 50
249.505714799998
 51
261.6899880700007
  0
ARC
  5
596
330
1F
100
AcDbEntity
  8
0
 62
     3
100
AcDbCircle
 10
183.0098978408821
 20
131.8246139160052
 30
0.0
 40
62.99999987
100
AcDbArc
 50
81.68998807000065
 51
98.31001192999934
  0
ARC
  5
597
330
1F
100
AcDbEntity
  8
0
 62
     3
100
AcDbCircle
 10
183.0098978408821
 20
249.4246139160053
 30
0.0
 40
62.99999987
100
AcDbArc
 50
261.6899880700007
 51
278.3100119299994
  0
ARC
  5
598
330
1F
100
AcDbEntity
  8
0
 62
     3
100
AcDbCircle
 10
183.0098978408821
 20
131.8246139160052
 30
0.0
 40
62.36999987
100
AcDbArc
 50
81.68998807000065
 51
98.31001192999934
  0
ARC
  5
599
330
1F
100
AcDbEntity
  8
0
 62
     3
100
AcDbCircle
 10
183.0098978408821
 20
249.4246139160053
 30
0.0
 40
62.36999987
100
AcDbArc
 50
261.6899880700007
 51
278.3100119299994
  0
ARC
  5
59A
330
1F
100
AcDbEntity
  8
0
 62
     3
100
AcDbCircle
 10
188.3516937208821
 20
212.8526737560052
 30
0.0
 40
25.41
100
AcDbArc
 50
278.3100119299994
 51
290.4942851999986
  0
ARC
  5
59B
330
1F
100
AcDbEntity
  8
0
 62
     3
100
AcDbCircle
 10
188.3516937208821
 20
168.3965540760052
 30
0.0
 40
25.41
100
AcDbArc
 50
69.505714799998
 51
81.68998807000065
  0
ARC
  5
59C
330
1F
100
AcDbEntity
  8
0
 62
     3
100
AcDbCircle
 10
196.6598978408821
 20
190.6246139160051
 30
0.0
 40
1.679999999999999
100
AcDbArc
 50
290.4942851999986
 51
69.505714799998
  0
ARC
  5
59D
330
1F
100
AcDbEntity
  8
0
 62
     3
100
AcDbCircle
 10
169.3598978408822
 20
190.6246139160051
 30
0.0
 40
1.679999999999999
100
AcDbArc
 50
110.494285200002
 51
249.505714799998
  0
ARC
  5
59E
330
1F
100
AcDbEntity
  8
0
 62
     3
100
AcDbCircle
 10
177.6681019708821
 20
168.3965540760052
 30
0.0
 40
25.41
100
AcDbArc
 50
98.31001192999934
 51
110.494285200002
  0
ARC
  5
59F
330
1F
100
AcDbEntity
  8
0
 62
     3
100
AcDbCircle
 10
177.6681019708821
 20
212.8526737560052
 30
0.0
 40
25.41
100
AcDbArc
 50
249.505714799998
 51
261.6899880700007
  0
LINE
  5
5A0
330
1F
100
AcDbEntity
  8
0
 62
     3
100
AcDbLine
 10
187.6198589508821
 20
188.5477375360052
 30
0.0
 11
185.6903471208821
 21
188.5477375360052
 31
0.0
  0
LINE
  5
5A1
330
1F
100
AcDbEntity
  8
0
 62
     3
100
AcDbLine
 10
187.6198589508821
 20
188.7592986860051
 30
0.0
 11
187.6198589508821
 21
188.5477375360052
 31
0.0
  0
LINE
  5
5A2
330
1F
100
AcDbEntity
  8
0
 62
     3
100
AcDbLine
 10
185.4833895608821
 20
192.7013915860051
 30
0.0
 11
183.5311270308821
 21
192.7013915860051
 31
0.0
  0
LINE
  5
5A3
330
1F
100
AcDbEntity
  8
0
 62
     3
100
AcDbLine
 10
185.4833895608821
 20
192.7013915860051
 30
0.0
 11
185.4833895608821
 21
192.4899291560051
 31
0.0
  0
LINE
  5
5A4
330
1F
100
AcDbEntity
  8
0
 62
     3
100
AcDbLine
 10
185.4833895608821
 20
188.7592986860051
 30
0.0
 11
185.4833895608821
 21
188.5476388260052
 31
0.0
  0
LINE
  5
5A5
330
1F
100
AcDbEntity
  8
0
 62
     3
100
AcDbLine
 10
185.4833895608821
 20
188.5476388260052
 30
0.0
 11
183.5311270308821
 21
188.5476388260052
 31
0.0
  0
LINE
  5
5A6
330
1F
100
AcDbEntity
  8
0
 62
     3
100
AcDbLine
 10
187.6198589508821
 20
192.7014902960052
 30
0.0
 11
187.6198589508821
 21
192.4899291560051
 31
0.0
  0
LINE
  5
5A7
330
1F
100
AcDbEntity
  8
0
 62
     3
100
AcDbLine
 10
187.6198589508821
 20
192.7014902960052
 30
0.0
 11
185.6903471208821
 21
192.7014902960052
 31
0.0
  0
LINE
  5
5A8
330
1F
100
AcDbEntity
  8
0
 62
     3
100
AcDbLine
 10
185.6903471208821
 20
192.7014902960052
 30
0.0
 11
185.6903471208821
 21
192.4899291560051
 31
0.0
  0
LINE
  5
5A9
330
1F
100
AcDbEntity
  8
0
 62
     3
100
AcDbLine
 10
187.8342169508821
 20
188.7592986860051
 30
0.0
 11
187.8342169508821
 21
188.5477375360052
 31
0.0
  0
LINE
  5
5AA
330
1F
100
AcDbEntity
  8
0
 62
     3
100
AcDbLine
 10
189.8185175108821
 20
188.5477375360052
 30
0.0
 11
187.8342169508821
 21
188.5477375360052
 31
0.0
  0
LINE
  5
5AB
330
1F
100
AcDbEntity
  8
0
 62
     3
100
AcDbLine
 10
189.3279808808821
 20
192.0337207760051
 30
0.0
 11
189.3279808808821
 21
189.2155070560052
 31
0.0
  0
LINE
  5
5AC
330
1F
100
AcDbEntity
  8
0
 62
     3
100
AcDbLine
 10
189.3279808808821
 20
189.2155070560052
 30
0.0
 11
189.5180298508821
 21
189.2155070560052
 31
0.0
  0
ARC
  5
5AD
330
1F
100
AcDbEntity
  8
0
 62
     3
100
AcDbCircle
 10
188.5462441108822
 20
190.6246139160051
 30
0.0
 40
1.71170957
100
AcDbArc
 50
304.591955270002
 51
55.40804472999764
  0
LINE
  5
5AE
330
1F
100
AcDbEntity
  8
0
 62
     3
100
AcDbLine
 10
189.8185175108821
 20
192.7014902960052
 30
0.0
 11
187.8342169508821
 21
192.7014902960052
 31
0.0
  0
LINE
  5
5AF
330
1F
100
AcDbEntity
  8
0
 62
     3
100
AcDbLine
 10
187.8342169508821
 20
192.7014902960052
 30
0.0
 11
187.8342169508821
 21
192.4899291560051
 31
0.0
  0
LINE
  5
5B0
330
1F
100
AcDbEntity
  8
0
 62
     3
100
AcDbLine
 10
185.6903471208821
 20
188.7592986860051
 30
0.0
 11
185.6903471208821
 21
188.5477375360052
 31
0.0
  0
LINE
  5
5B1
330
1F
100
AcDbEntity
  8
0
 62
     3
100
AcDbLine
 10
189.3279808808821
 20
192.0337207760051
 30
0.0
 11
189.5180298508821
 21
192.0337207760051
 31
0.0
  0
LINE
  5
5B2
330
1F
100
AcDbEntity
  8
0
 62
     3
100
AcDbLine
 10
177.6848212208821
 20
188.7592986860051
 30
0.0
 11
177.6848175308822
 21
188.5477177660052
 31
0.0
  0
LINE
  5
5B3
330
1F
100
AcDbEntity
  8
0
 62
     3
100
AcDbLine
 10
175.7553056908821
 20
188.5477573060051
 30
0.0
 11
177.6848175308822
 21
188.5477236360052
 31
0.0
  0
LINE
  5
5B4
330
1F
100
AcDbEntity
  8
0
 62
     3
100
AcDbLine
 10
171.4589238408821
 20
188.5477375360052
 30
0.0
 11
172.9981891708821
 21
188.5477375360052
 31
0.0
  0
ARC
  5
5B5
330
1F
100
AcDbEntity
  8
0
 62
     3
100
AcDbCircle
 10
166.4769811608821
 20
190.6735205460051
 30
0.0
 40
14.71356563
100
AcDbArc
 50
353.8660061900003
 51
357.69403426
  0
LINE
  5
5B6
330
1F
100
AcDbEntity
  8
0
 62
     3
100
AcDbLine
 10
180.1935610208821
 20
190.0851528860052
 30
0.0
 11
181.1786319108821
 21
190.0815080160051
 31
0.0
  0
LINE
  5
5B8
330
1F
100
AcDbEntity
  8
0
 62
     3
100
AcDbLine
 10
180.1975394408821
 20
191.1603676360051
 30
0.0
 11
181.1826103208821
 21
191.1567227560052
 31
0.0
  0
ARC
  5
5B9
330
1F
100
AcDbEntity
  8
0
 62
     3
100
AcDbCircle
 10
166.4769811608821
 20
190.6735205460051
 30
0.0
 40
14.71356563
100
AcDbArc
 50
1.881965739999665
 51
5.709993810000499
  0
LINE
  5
5BA
330
1F
100
AcDbEntity
  8
0
 62
     3
100
AcDbLine
 10
177.6848900208821
 20
192.7014705260052
 30
0.0
 11
177.6848863308821
 21
192.4899291560051
 31
0.0
  0
LINE
  5
5BB
330
1F
100
AcDbEntity
  8
0
 62
     3
100
AcDbLine
 10
175.7553781908821
 20
192.7015100660051
 30
0.0
 11
177.6848900208821
 21
192.7014763960052
 31
0.0
  0
LINE
  5
5BC
330
1F
100
AcDbEntity
  8
0
 62
     3
100
AcDbLine
 10
175.7553093808821
 20
188.7592986860051
 30
0.0
 11
175.7553056908821
 21
188.5477573060051
 31
0.0
  0
LINE
  5
5BD
330
1F
100
AcDbEntity
  8
0
 62
     3
100
AcDbLine
 10
175.7553781908821
 20
192.7015100660051
 30
0.0
 11
175.7553744908821
 21
192.4899291560051
 31
0.0
  0
LINE
  5
5BE
330
1F
100
AcDbEntity
  8
0
 62
     3
100
AcDbLine
 10
172.9981891708821
 20
188.7592986860051
 30
0.0
 11
172.9981891708821
 21
188.5477375360052
 31
0.0
  0
LINE
  5
5BF
330
1F
100
AcDbEntity
  8
0
 62
     3
100
AcDbLine
 10
172.5624412608821
 20
190.9836256360051
 30
0.0
 11
174.0848713208821
 21
188.5477375360052
 31
0.0
  0
LINE
  5
5C0
330
1F
100
AcDbEntity
  8
0
 62
     3
100
AcDbLine
 10
174.0848713208821
 20
188.5477375360052
 30
0.0
 11
175.1043040408821
 21
188.5477375360052
 31
0.0
  0
LINE
  5
5C1
330
1F
100
AcDbEntity
  8
0
 62
     3
100
AcDbLine
 10
175.5400519508822
 20
192.7014902960052
 30
0.0
 11
175.5400519508822
 21
192.4899291560051
 31
0.0
  0
LINE
  5
5C2
330
1F
100
AcDbEntity
  8
0
 62
     3
100
AcDbLine
 10
174.0007866208821
 20
192.7014902960052
 30
0.0
 11
175.5400519508822
 21
192.7014902960052
 31
0.0
  0
LINE
  5
5C3
330
1F
100
AcDbEntity
  8
0
 62
     3
100
AcDbLine
 10
174.0007866208821
 20
192.7014902960052
 30
0.0
 11
174.0007866208821
 21
192.4899291560051
 31
0.0
  0
LINE
  5
5C4
330
1F
100
AcDbEntity
  8
0
 62
     3
100
AcDbLine
 10
174.4365345308821
 20
190.8201239560052
 30
0.0
 11
173.2018878608821
 21
192.7014902960052
 31
0.0
  0
LINE
  5
5C5
330
1F
100
AcDbEntity
  8
0
 62
     3
100
AcDbLine
 10
171.4589238408821
 20
192.7014902960052
 30
0.0
 11
173.2018878608821
 21
192.7014902960052
 31
0.0
  0
LINE
  5
5C6
330
1F
100
AcDbEntity
  8
0
 62
     3
100
AcDbLine
 10
181.3751382008821
 20
192.7013915860051
 30
0.0
 11
183.3274007408822
 21
192.7013915860051
 31
0.0
  0
LINE
  5
5C7
330
1F
100
AcDbEntity
  8
0
 62
     3
100
AcDbLine
 10
181.3751382008821
 20
192.4899291560051
 30
0.0
 11
181.3751382008821
 21
192.7013915860051
 31
0.0
  0
LINE
  5
5C8
330
1F
100
AcDbEntity
  8
0
 62
     3
100
AcDbLine
 10
181.3751382008821
 20
188.5476388260052
 30
0.0
 11
181.3751382008821
 21
188.7592986860051
 31
0.0
  0
LINE
  5
5C9
330
1F
100
AcDbEntity
  8
0
 62
     3
100
AcDbLine
 10
181.3751382008821
 20
188.5476388260052
 30
0.0
 11
183.3274007408822
 21
188.5476388260052
 31
0.0
  0
LINE
  5
5CA
330
1F
100
AcDbEntity
  8
0
 62
     3
100
AcDbLine
 10
183.5311270308821
 20
188.7592986860051
 30
0.0
 11
183.5311270308821
 21
188.5476388260052
 31
0.0
  0
LINE
  5
5CB
330
1F
100
AcDbEntity
  8
0
 62
     3
100
AcDbLine
 10
183.3274007408822
 20
188.7592986860051
 30
0.0
 11
183.3274007408822
 21
188.5476388260052
 31
0.0
  0
LINE
  5
5CC
330
1F
100
AcDbEntity
  8
0
 62
     3
100
AcDbLine
 10
183.3274007408822
 20
192.4899291560051
 30
0.0
 11
183.3274007408822
 21
192.7013915860051
 31
0.0
  0
LINE
  5
5CD
330
1F
100
AcDbEntity
  8
0
 62
     3
100
AcDbLine
 10
183.5311270308821
 20
192.4899291560051
 30
0.0
 11
183.5311270308821
 21
192.7013915860051
 31
0.0
  0
LINE
  5
5CE
330
1F
100
AcDbEntity
  8
0
 62
     3
100
AcDbLine
 10
171.4589238408821
 20
188.7592986860051
 30
0.0
 11
171.4589238408821
 21
188.5477375360052
 31
0.0
  0
LINE
  5
5CF
330
1F
100
AcDbEntity
  8
0
 62
     3
100
AcDbLine
 10
171.4589238408821
 20
192.7014902960052
 30
0.0
 11
171.4589238408821
 21
192.4899291560051
 31
0.0
  0
ARC
  5
5D0
330
1F
100
AcDbEntity
  8
0
 62
     3
100
AcDbCircle
 10
190.0285175108822
 20
191.0603618260051
 30
0.0
 40
1.641128469999999
100
AcDbArc
 50
17.30874898000052
 51
23.76507096000029
  0
ARC
  5
5D1
330
1F
100
AcDbEntity
  8
0
 62
     3
100
AcDbCircle
 10
188.6302441108821
 20
190.6246139160051
 30
0.0
 40
3.105725599999998
100
AcDbArc
 50
342.6912510199993
 51
17.30856643999931
  0
ARC
  5
5D2
330
1F
100
AcDbEntity
  8
0
 62
     3
100
AcDbCircle
 10
190.0285175108822
 20
190.1888660160053
 30
0.0
 40
1.641128469999999
100
AcDbArc
 50
336.2349290399996
 51
342.6912510199993
  0
ARC
  5
5D3
330
1F
100
AcDbEntity
  8
0
 62
     3
100
AcDbCircle
 10
189.8185175108821
 20
191.0603618260051
 30
0.0
 40
1.641128469999999
100
AcDbArc
 50
17.30874898000052
 51
90.0
  0
ARC
  5
5D4
330
1F
100
AcDbEntity
  8
0
 62
     3
100
AcDbCircle
 10
188.4202441108821
 20
190.6246139160051
 30
0.0
 40
3.105725599999998
100
AcDbArc
 50
342.6912510199993
 51
17.30856643999931
  0
ARC
  5
5D5
330
1F
100
AcDbEntity
  8
0
 62
     3
100
AcDbCircle
 10
189.8185175108821
 20
190.1888660160053
 30
0.0
 40
1.641128469999999
100
AcDbArc
 50
270.0
 51
342.6912510199993
  0
ARC
  5
5D6
330
1F
100
AcDbEntity
  8
0
 62
     3
100
AcDbCircle
 10
179.6945771408821
 20
190.6246139160051
 30
0.0
 40
2.076876379999998
100
AcDbArc
 50
46.75287961000092
 51
89.74999828999893
  0
ARC
  5
5D7
330
1F
100
AcDbEntity
  8
0
 62
     3
100
AcDbCircle
 10
179.6945771408821
 20
190.6246139160051
 30
0.0
 40
2.076876379999998
100
AcDbArc
 50
273.9763331500004
 51
312.823120389999
  0
ARC
  5
5D8
330
1F
100
AcDbEntity
  8
0
 62
     3
100
AcDbCircle
 10
191.1363850808822
 20
190.5925523860051
 30
0.0
 40
2.755888999999998
100
AcDbArc
 50
0.6665840599998499
 51
23.90392827000075
  0
ARC
  5
5D9
330
1F
100
AcDbEntity
  8
0
 62
     3
100
AcDbCircle
 10
195.0519473608821
 20
190.5925523860051
 30
0.0
 40
2.755888999999998
100
AcDbArc
 50
156.0960717299991
 51
179.3334159400002
  0
ARC
  5
5DA
330
1F
100
AcDbEntity
  8
0
 62
     3
100
AcDbCircle
 10
191.1363850808822
 20
190.6566754460051
 30
0.0
 40
2.755888999999998
100
AcDbArc
 50
336.0960717299992
 51
359.3334159400002
  0
ARC
  5
5DB
330
1F
100
AcDbEntity
  8
0
 62
     3
100
AcDbCircle
 10
195.0519473608821
 20
190.6566754460051
 30
0.0
 40
2.755888999999998
100
AcDbArc
 50
180.6665840599998
 51
203.9039282700007
  0
LINE
  5
5DC
330
1F
100
AcDbEntity
  8
0
 62
     3
100
AcDbLine
 10
165.6287073808821
 20
190.6566014360051
 30
0.0
 11
44.87226256088212
 21
190.6566014360051
 31
0.0
  0
LINE
  5
5DD
330
1F
100
AcDbEntity
  8
0
 62
     3
100
AcDbLine
 10
321.8722625608821
 20
190.6566014360051
 30
0.0
 11
200.4338006208822
 21
190.6566014360051
 31
0.0
  0
LINE
  5
5F2
330
1F
100
AcDbEntity
  8
0
  6
Continuous
 62
     3
100
AcDbLine
 10
270.1728995608821
 20
50.32232396600528
 30
0.0
 11
270.1728995608821
 21
56.90716991635518
 31
0.0
  0
LINE
  5
5F3
330
1F
100
AcDbEntity
  8
0
  6
Continuous
 62
     3
100
AcDbLine
 10
270.1728995608821
 20
56.90716991635518
 30
0.0
 11
321.8722625608821
 21
56.90716991635518
 31
0.0
  0
LINE
  5
5F4
330
1F
100
AcDbEntity
  8
0
  6
Continuous
 62
     3
100
AcDbLine
 10
296.1728995608821
 20
50.32232396600528
 30
0.0
 11
296.1728995608821
 21
56.90716991635518
 31
0.0
  0
TEXT
  5
5F5
330
1F
100
AcDbEntity
  8
0
 62
     3
100
AcDbText
 10
276.1676654603422
 20
51.26044903179046
 30
0.0
 40
4.5
  1
コード
  7
高4.5
100
AcDbText
  0
TEXT
  5
5F6
330
1F
100
AcDbEntity
  8
0
 62
     3
100
AcDbText
 10
297.9988880014322
 20
51.40212528941296
 30
0.0
 40
4.5
  1
54464
  7
高4.5
100
AcDbText
  0
TEXT
  5
5F9
330
1F
100
AcDbEntity
  8
0
100
AcDbText
 10
314.5323300526694
 20
30.36379377197983
 30
0.0
 40
4.5
  1
I
  7
高4.5
100
AcDbText
  0
TEXT
  5
7B0
330
1F
100
AcDbEntity
  8
0
 62
     3
100
AcDbText
 10
309.372262560882
 20
181.1566014360051
 30
0.0
 40
3.2
  1
担　当
  7
高3.2
100
AcDbText
  0
TEXT
  5
7B1
330
1F
100
AcDbEntity
  8
0
 62
     3
100
AcDbText
 10
265.372262560882
 20
181.1566014360051
 30
0.0
 40
3.2
  1
変更・追記内容
  7
高3.2
100
AcDbText
  0
TEXT
  5
7B2
330
1F
100
AcDbEntity
  8
0
 62
     3
100
AcDbText
 10
240.4857775612212
 20
176.4860629260968
 30
0.0
 40
2.0
  1
1
  7
高2
100
AcDbText
  0
TEXT
  5
7B3
330
1F
100
AcDbEntity
  8
0
 62
     3
100
AcDbText
 10
240.177266084464
 20
171.3162462138239
 30
0.0
 40
2.0
  1
2
  7
高2
100
AcDbText
  0
TEXT
  5
7B4
330
1F
100
AcDbEntity
  8
0
 62
     3
100
AcDbText
 10
247.372262560882
 20
181.1566014360051
 30
0.0
 40
3.2
  1
日　付
  7
高3.2
100
AcDbText
  0
TEXT
  5
7B5
330
1F
100
AcDbEntity
  8
0
 62
     3
100
AcDbText
 10
247.372262560882
 20
186.1566014360051
 30
0.0
 40
3.2
  1
図　　　　面　　　　略　　　　歴
  7
高3.2
100
AcDbText
  0
TEXT
  5
7B6
330
1F
100
AcDbEntity
  8
0
 62
     3
100
AcDbText
 10
237.372262560882
 20
181.1566014360051
 30
0.0
 40
3.2
  1
記号
  7
高3.2
100
AcDbText
  0
LINE
  5
7B7
330
1F
100
AcDbEntity
  8
0
 62
     7
100
AcDbLine
 10
240.872262560882
 20
174.4474974360052
 30
0.0
 11
238.972262560882
 21
171.1566014360051
 31
0.0
  0
LINE
  5
7B8
330
1F
100
AcDbEntity
  8
0
 62
     7
100
AcDbLine
 10
240.872262560882
 20
174.4474974360052
 30
0.0
 11
242.772262560882
 21
171.1566014360051
 31
0.0
  0
LINE
  5
7B9
330
1F
100
AcDbEntity
  8
0
 62
     7
100
AcDbLine
 10
238.972262560882
 20
171.1566014360051
 30
0.0
 11
242.772262560882
 21
171.1566014360051
 31
0.0
  0
LINE
  5
7BA
330
1F
100
AcDbEntity
  8
0
 62
     7
100
AcDbLine
 10
240.872262560882
 20
179.4474984360052
 30
0.0
 11
238.972262560882
 21
176.1566014360051
 31
0.0
  0
LINE
  5
7BB
330
1F
100
AcDbEntity
  8
0
 62
     7
100
AcDbLine
 10
240.872262560882
 20
179.4474984360052
 30
0.0
 11
242.772262560882
 21
176.1566014360051
 31
0.0
  0
LINE
  5
7BC
330
1F
100
AcDbEntity
  8
0
 62
     7
100
AcDbLine
 10
238.972262560882
 20
176.1566014360051
 30
0.0
 11
242.772262560882
 21
176.1566014360051
 31
0.0
  0
LINE
  5
7BD
330
1F
100
AcDbEntity
  8
0
 62
     3
100
AcDbLine
 10
235.872262560882
 20
185.6566014360051
 30
0.0
 11
321.872262560882
 21
185.6566014360051
 31
0.0
  0
LINE
  5
7BE
330
1F
100
AcDbEntity
  8
0
 62
     3
100
AcDbLine
 10
235.872262560882
 20
180.6566014360051
 30
0.0
 11
321.872262560882
 21
180.6566014360051
 31
0.0
  0
LINE
  5
7BF
330
1F
100
AcDbEntity
  8
0
 62
     7
100
AcDbLine
 10
235.872262560882
 20
175.6566014360051
 30
0.0
 11
321.872262560882
 21
175.6566014360051
 31
0.0
  0
LINE
  5
7C0
330
1F
100
AcDbEntity
  8
0
 62
     3
100
AcDbLine
 10
235.872262560882
 20
170.6566014360051
 30
0.0
 11
321.872262560882
 21
170.6566014360051
 31
0.0
  0
LINE
  5
7C1
330
1F
100
AcDbEntity
  8
0
 62
     7
100
AcDbLine
 10
307.8722625608819
 20
170.6566014360051
 30
0.0
 11
307.872262560882
 21
185.6566014360051
 31
0.0
  0
LINE
  5
7C2
330
1F
100
AcDbEntity
  8
0
 62
     7
100
AcDbLine
 10
263.872262560882
 20
170.6566014360051
 30
0.0
 11
263.872262560882
 21
185.6566014360051
 31
0.0
  0
LINE
  5
7C3
330
1F
100
AcDbEntity
  8
0
 62
     7
100
AcDbLine
 10
245.872262560882
 20
170.6566014360051
 30
0.0
 11
245.872262560882
 21
185.6566014360051
 31
0.0
  0
LINE
  5
7C4
330
1F
100
AcDbEntity
  8
0
 62
     3
100
AcDbLine
 10
235.872262560882
 20
170.6566014360051
 30
0.0
 11
235.872262560882
 21
190.6566014360051
 31
0.0
  0
TEXT
  5
900
330
1F
100
AcDbEntity
  8
0
 62
     4
100
AcDbText
 10
181.5316665223576
 20
83.4593493310332
 30
0.0
 40
3.2
  1
4-C15
 50
315.0
  7
高3.2
100
AcDbText
1001
ACAD
1000
MTEXTBEGIN
1070
    73
1070
     1
1070
    44
1040
1.0
1070
    74
1070
     0
1000
MTEXTEND
  0
LINE
  5
903
330
1F
100
AcDbEntity
  8
0
100
AcDbLine
 10
223.8226360971863
 20
131.8316901724375
 30
0.0
 11
223.8226360971863
 21
137.8458090613416
 31
0.0
  0
LINE
  5
904
330
1F
100
AcDbEntity
  8
0
100
AcDbLine
 10
222.8226360971863
 20
131.8316901724375
 30
0.0
 11
222.8226360971863
 21
137.8458090613416
 31
0.0
  0
LINE
  5
905
330
1F
100
AcDbEntity
  8
0
100
AcDbLine
 10
226.3226360971863
 20
136.5958090613416
 30
0.0
 11
228.8226360971863
 21
136.5958090613416
 31
0.0
  0
LINE
  5
906
330
1F
100
AcDbEntity
  8
0
100
AcDbLine
 10
220.3226360971863
 20
136.5958090613416
 30
0.0
 11
208.5726360971863
 21
136.5958090613416
 31
0.0
  0
LINE
  5
907
330
1F
100
AcDbEntity
  8
0
100
AcDbLine
 10
223.8226360971863
 20
136.5958090613416
 30
0.0
 11
222.8226360971863
 21
136.5958090613416
 31
0.0
  0
LINE
  5
90B
330
1F
100
AcDbEntity
  8
0
100
AcDbLine
 10
126.3763236254349
 20
131.5816901724375
 30
0.0
 11
108.043149975233
 21
131.5816901724375
 31
0.0
  0
LINE
  5
90C
330
1F
100
AcDbEntity
  8
0
100
AcDbLine
 10
126.3763236254349
 20
86.83169017243754
 30
0.0
 11
108.043149975233
 21
86.83169017243754
 31
0.0
  0
LINE
  5
90D
330
1F
100
AcDbEntity
  8
0
100
AcDbLine
 10
109.293149975233
 20
129.0816901724375
 30
0.0
 11
109.293149975233
 21
89.33169017243754
 31
0.0
  0
LINE
  5
911
330
1F
100
AcDbEntity
  8
0
100
AcDbLine
 10
177.6263236254349
 20
128.0816901724375
 30
0.0
 11
177.6263236254349
 21
143.2216620056889
 31
0.0
  0
LINE
  5
912
330
1F
100
AcDbEntity
  8
0
100
AcDbLine
 10
122.8763236254349
 20
128.0816901724375
 30
0.0
 11
122.8763236254349
 21
143.2216620056889
 31
0.0
  0
LINE
  5
913
330
1F
100
AcDbEntity
  8
0
100
AcDbLine
 10
175.1263236254349
 20
141.971662005689
 30
0.0
 11
125.3763236254349
 21
141.971662005689
 31
0.0
  0
LINE
  5
917
330
1F
100
AcDbEntity
  8
0
 62
     3
100
AcDbLine
 10
180.1975394408821
 20
191.1603676360051
 30
0.0
 11
180.1789119108821
 21
191.2796353960052
 31
0.0
  0
LINE
  5
918
330
1F
100
AcDbEntity
  8
0
 62
     3
100
AcDbLine
 10
180.1789119108821
 20
191.2796353960052
 30
0.0
 11
180.1565407308821
 21
191.3938401760051
 31
0.0
  0
LINE
  5
919
330
1F
100
AcDbEntity
  8
0
 62
     3
100
AcDbLine
 10
180.1565407308821
 20
191.3938401760051
 30
0.0
 11
180.1305988008822
 21
191.5020992360051
 31
0.0
  0
LINE
  5
91A
330
1F
100
AcDbEntity
  8
0
 62
     3
100
AcDbLine
 10
180.1305988008822
 20
191.5020992360051
 30
0.0
 11
180.1012866608822
 21
191.6035757860053
 31
0.0
  0
LINE
  5
91B
330
1F
100
AcDbEntity
  8
0
 62
     3
100
AcDbLine
 10
180.1012866608822
 20
191.6035757860053
 30
0.0
 11
180.0688308508821
 21
191.6974854660051
 31
0.0
  0
LINE
  5
91C
330
1F
100
AcDbEntity
  8
0
 62
     3
100
AcDbLine
 10
180.0688308508821
 20
191.6974854660051
 30
0.0
 11
180.0334822608822
 21
191.7831024060052
 31
0.0
  0
LINE
  5
91D
330
1F
100
AcDbEntity
  8
0
 62
     3
100
AcDbLine
 10
180.0334822608822
 20
191.7831024060052
 30
0.0
 11
179.9955141108821
 21
191.8597648260051
 31
0.0
  0
LINE
  5
91E
330
1F
100
AcDbEntity
  8
0
 62
     3
100
AcDbLine
 10
179.9955141108821
 20
191.8597648260051
 30
0.0
 11
179.9552198608821
 21
191.9268801560052
 31
0.0
  0
LINE
  5
91F
330
1F
100
AcDbEntity
  8
0
 62
     3
100
AcDbLine
 10
179.9552198608821
 20
191.9268801560052
 30
0.0
 11
179.9129109908821
 21
191.9839296460052
 31
0.0
  0
LINE
  5
920
330
1F
100
AcDbEntity
  8
0
 62
     3
100
AcDbLine
 10
179.9129109908821
 20
191.9839296460052
 30
0.0
 11
179.8689145008822
 21
192.0304723260051
 31
0.0
  0
LINE
  5
921
330
1F
100
AcDbEntity
  8
0
 62
     3
100
AcDbLine
 10
179.8689145008822
 20
192.0304723260051
 30
0.0
 11
179.8235704808821
 21
192.0661484360051
 31
0.0
  0
LINE
  5
922
330
1F
100
AcDbEntity
  8
0
 62
     3
100
AcDbLine
 10
179.8235704808821
 20
192.0661484360051
 30
0.0
 11
179.7772294108821
 21
192.0906822360051
 31
0.0
  0
LINE
  5
923
330
1F
100
AcDbEntity
  8
0
 62
     3
100
AcDbLine
 10
179.7772294108821
 20
192.0906822360051
 30
0.0
 11
179.7302494708821
 21
192.1038840760052
 31
0.0
  0
LINE
  5
924
330
1F
100
AcDbEntity
  8
0
 62
     3
100
AcDbLine
 10
179.7302494708821
 20
192.1038840760052
 30
0.0
 11
179.6829938108821
 21
192.1056519160051
 31
0.0
  0
LINE
  5
925
330
1F
100
AcDbEntity
  8
0
 62
     3
100
AcDbLine
 10
179.6829938108821
 20
192.1056519160051
 30
0.0
 11
179.6358276808821
 21
192.0959721060052
 31
0.0
  0
LINE
  5
926
330
1F
100
AcDbEntity
  8
0
 62
     3
100
AcDbLine
 10
179.6358276808821
 20
192.0959721060052
 30
0.0
 11
179.5891156508821
 21
192.074919446005
 31
0.0
  0
LINE
  5
927
330
1F
100
AcDbEntity
  8
0
 62
     3
100
AcDbLine
 10
179.5891156508821
 20
192.074919446005
 30
0.0
 11
179.5432187908821
 21
192.0426566760052
 31
0.0
  0
LINE
  5
928
330
1F
100
AcDbEntity
  8
0
 62
     3
100
AcDbLine
 10
179.5432187908821
 20
192.0426566760052
 30
0.0
 11
179.4984918508821
 21
191.9994331660051
 31
0.0
  0
LINE
  5
929
330
1F
100
AcDbEntity
  8
0
 62
     3
100
AcDbLine
 10
179.4984918508821
 20
191.9994331660051
 30
0.0
 11
179.4552805408821
 21
191.9455830060051
 31
0.0
  0
LINE
  5
92A
330
1F
100
AcDbEntity
  8
0
 62
     3
100
AcDbLine
 10
179.4552805408821
 20
191.9455830060051
 30
0.0
 11
179.4139188808821
 21
191.8815224360051
 31
0.0
  0
LINE
  5
92B
330
1F
100
AcDbEntity
  8
0
 62
     3
100
AcDbLine
 10
179.4139188808821
 20
191.8815224360051
 30
0.0
 11
179.3747265608821
 21
191.8077466160051
 31
0.0
  0
LINE
  5
92C
330
1F
100
AcDbEntity
  8
0
 62
     3
100
AcDbLine
 10
179.3747265608821
 20
191.8077466160051
 30
0.0
 11
179.3380065208822
 21
191.7248257860052
 31
0.0
  0
LINE
  5
92D
330
1F
100
AcDbEntity
  8
0
 62
     3
100
AcDbLine
 10
179.3380065208822
 20
191.7248257860052
 30
0.0
 11
179.3040425908821
 21
191.6334008860052
 31
0.0
  0
LINE
  5
92E
330
1F
100
AcDbEntity
  8
0
 62
     3
100
AcDbLine
 10
179.3040425908821
 20
191.6334008860052
 30
0.0
 11
179.2730972908821
 21
191.5341785760051
 31
0.0
  0
LINE
  5
92F
330
1F
100
AcDbEntity
  8
0
 62
     3
100
AcDbLine
 10
179.2730972908821
 20
191.5341785760051
 30
0.0
 11
179.2454098108821
 21
191.4279258060051
 31
0.0
  0
LINE
  5
930
330
1F
100
AcDbEntity
  8
0
 62
     3
100
AcDbLine
 10
179.2454098108821
 20
191.4279258060051
 30
0.0
 11
179.2211941608821
 21
191.3154638460051
 31
0.0
  0
LINE
  5
931
330
1F
100
AcDbEntity
  8
0
 62
     3
100
AcDbLine
 10
179.2211941608821
 20
191.3154638460051
 30
0.0
 11
179.2006375208821
 21
191.1976619660052
 31
0.0
  0
LINE
  5
932
330
1F
100
AcDbEntity
  8
0
 62
     3
100
AcDbLine
 10
179.2006375208821
 20
191.1976619660052
 30
0.0
 11
179.1838987808821
 21
191.0754307260052
 31
0.0
  0
LINE
  5
933
330
1F
100
AcDbEntity
  8
0
 62
     3
100
AcDbLine
 10
179.1838987808821
 20
191.0754307260052
 30
0.0
 11
179.1711073208822
 21
190.9497149060051
 31
0.0
  0
LINE
  5
934
330
1F
100
AcDbEntity
  8
0
 62
     3
100
AcDbLine
 10
179.1711073208822
 20
190.9497149060051
 30
0.0
 11
179.1623620108821
 21
190.8214862260051
 31
0.0
  0
LINE
  5
935
330
1F
100
AcDbEntity
  8
0
 62
     3
100
AcDbLine
 10
179.1623620108821
 20
190.8214862260051
 30
0.0
 11
179.1577304508822
 21
190.6917358160051
 31
0.0
  0
LINE
  5
936
330
1F
100
AcDbEntity
  8
0
 62
     3
100
AcDbLine
 10
179.1577304508822
 20
190.6917358160051
 30
0.0
 11
179.1572484408821
 21
190.5614665960051
 31
0.0
  0
LINE
  5
937
330
1F
100
AcDbEntity
  8
0
 62
     3
100
AcDbLine
 10
179.1572484408821
 20
190.5614665960051
 30
0.0
 11
179.1609197008821
 21
190.4316854660051
 31
0.0
  0
LINE
  5
938
330
1F
100
AcDbEntity
  8
0
 62
     3
100
AcDbLine
 10
179.1609197008821
 20
190.4316854660051
 30
0.0
 11
179.1687158608821
 21
190.3033955760053
 31
0.0
  0
LINE
  5
939
330
1F
100
AcDbEntity
  8
0
 62
     3
100
AcDbLine
 10
179.1687158608821
 20
190.3033955760053
 30
0.0
 11
179.1805766608821
 21
190.177588536005
 31
0.0
  0
LINE
  5
93A
330
1F
100
AcDbEntity
  8
0
 62
     3
100
AcDbLine
 10
179.1805766608821
 20
190.177588536005
 30
0.0
 11
179.1964104108821
 21
190.0552367760053
 31
0.0
  0
LINE
  5
93B
330
1F
100
AcDbEntity
  8
0
 62
     3
100
AcDbLine
 10
179.1964104108821
 20
190.0552367760053
 30
0.0
 11
179.2160947408822
 21
189.9372860060051
 31
0.0
  0
LINE
  5
93C
330
1F
100
AcDbEntity
  8
0
 62
     3
100
AcDbLine
 10
179.2160947408822
 20
189.9372860060051
 30
0.0
 11
179.2394774908821
 21
189.8246479260052
 31
0.0
  0
LINE
  5
93D
330
1F
100
AcDbEntity
  8
0
 62
     3
100
AcDbLine
 10
179.2394774908821
 20
189.8246479260052
 30
0.0
 11
179.2663779308822
 21
189.7181931660052
 31
0.0
  0
LINE
  5
93E
330
1F
100
AcDbEntity
  8
0
 62
     3
100
AcDbLine
 10
179.2663779308822
 20
189.7181931660052
 30
0.0
 11
179.2965881308822
 21
189.6187445860051
 31
0.0
  0
LINE
  5
93F
330
1F
100
AcDbEntity
  8
0
 62
     3
100
AcDbLine
 10
179.2965881308822
 20
189.6187445860051
 30
0.0
 11
179.3298745708821
 21
189.5270708460053
 31
0.0
  0
LINE
  5
940
330
1F
100
AcDbEntity
  8
0
 62
     3
100
AcDbLine
 10
179.3298745708821
 20
189.5270708460053
 30
0.0
 11
179.3659799808821
 21
189.4438805560053
 31
0.0
  0
LINE
  5
941
330
1F
100
AcDbEntity
  8
0
 62
     3
100
AcDbLine
 10
179.3659799808821
 20
189.4438805560053
 30
0.0
 11
179.4046252808821
 21
189.3698167160051
 31
0.0
  0
LINE
  5
942
330
1F
100
AcDbEntity
  8
0
 62
     3
100
AcDbLine
 10
179.4046252808821
 20
189.3698167160051
 30
0.0
 11
179.4455117608821
 21
189.3054518260051
 31
0.0
  0
LINE
  5
943
330
1F
100
AcDbEntity
  8
0
 62
     3
100
AcDbLine
 10
179.4455117608821
 20
189.3054518260051
 30
0.0
 11
179.4883233808821
 21
189.2512833760052
 31
0.0
  0
LINE
  5
944
330
1F
100
AcDbEntity
  8
0
 62
     3
100
AcDbLine
 10
179.4883233808821
 20
189.2512833760052
 30
0.0
 11
179.5327292308822
 21
189.2077300560051
 31
0.0
  0
LINE
  5
945
330
1F
100
AcDbEntity
  8
0
 62
     3
100
AcDbLine
 10
179.5327292308822
 20
189.2077300560051
 30
0.0
 11
179.5783860908821
 21
189.1751285260052
 31
0.0
  0
LINE
  5
946
330
1F
100
AcDbEntity
  8
0
 62
     3
100
AcDbLine
 10
179.5783860908821
 20
189.1751285260052
 30
0.0
 11
179.6249410508822
 21
189.1537307760051
 31
0.0
  0
LINE
  5
947
330
1F
100
AcDbEntity
  8
0
 62
     3
100
AcDbLine
 10
179.6249410508822
 20
189.1537307760051
 30
0.0
 11
179.6720342508822
 21
189.1437021860052
 31
0.0
  0
LINE
  5
948
330
1F
100
AcDbEntity
  8
0
 62
     3
100
AcDbLine
 10
179.6720342508822
 20
189.1437021860052
 30
0.0
 11
179.7193017108821
 21
189.1451202860053
 31
0.0
  0
LINE
  5
949
330
1F
100
AcDbEntity
  8
0
 62
     3
100
AcDbLine
 10
179.7193017108821
 20
189.1451202860053
 30
0.0
 11
179.7663780508822
 21
189.1579741060052
 31
0.0
  0
LINE
  5
94A
330
1F
100
AcDbEntity
  8
0
 62
     3
100
AcDbLine
 10
179.7663780508822
 20
189.1579741060052
 30
0.0
 11
179.8128994108821
 21
189.1821643060053
 31
0.0
  0
LINE
  5
94B
330
1F
100
AcDbEntity
  8
0
 62
     3
100
AcDbLine
 10
179.8128994108821
 20
189.1821643060053
 30
0.0
 11
179.8585062008821
 21
189.2175038860052
 31
0.0
  0
LINE
  5
94C
330
1F
100
AcDbEntity
  8
0
 62
     3
100
AcDbLine
 10
179.8585062008821
 20
189.2175038860052
 30
0.0
 11
179.9028459008821
 21
189.2637197160052
 31
0.0
  0
LINE
  5
94D
330
1F
100
AcDbEntity
  8
0
 62
     3
100
AcDbLine
 10
179.9028459008821
 20
189.2637197160052
 30
0.0
 11
179.9455757908821
 21
189.3204545460053
 31
0.0
  0
LINE
  5
94E
330
1F
100
AcDbEntity
  8
0
 62
     3
100
AcDbLine
 10
179.9455757908821
 20
189.3204545460053
 30
0.0
 11
179.9863655908821
 21
189.3872698660052
 31
0.0
  0
LINE
  5
94F
330
1F
100
AcDbEntity
  8
0
 62
     3
100
AcDbLine
 10
179.9863655908821
 20
189.3872698660052
 30
0.0
 11
180.0249000208822
 21
189.4636492060053
 31
0.0
  0
LINE
  5
950
330
1F
100
AcDbEntity
  8
0
 62
     3
100
AcDbLine
 10
180.0249000208822
 20
189.4636492060053
 30
0.0
 11
180.0608812208821
 21
189.5490022160053
 31
0.0
  0
LINE
  5
951
330
1F
100
AcDbEntity
  8
0
 62
     3
100
AcDbLine
 10
180.0608812208821
 20
189.5490022160053
 30
0.0
 11
180.0940310808821
 21
189.6426691460052
 31
0.0
  0
LINE
  5
952
330
1F
100
AcDbEntity
  8
0
 62
     3
100
AcDbLine
 10
180.0940310808821
 20
189.6426691460052
 30
0.0
 11
180.1240933608822
 21
189.7439260060052
 31
0.0
  0
LINE
  5
953
330
1F
100
AcDbEntity
  8
0
 62
     3
100
AcDbLine
 10
180.1240933608822
 20
189.7439260060052
 30
0.0
 11
180.1508357108821
 21
189.8519901260051
 31
0.0
  0
LINE
  5
954
330
1F
100
AcDbEntity
  8
0
 62
     3
100
AcDbLine
 10
180.1508357108821
 20
189.8519901260051
 30
0.0
 11
180.1740514108821
 21
189.9660262360051
 31
0.0
  0
LINE
  5
955
330
1F
100
AcDbEntity
  8
0
 62
     3
100
AcDbLine
 10
180.1740514108821
 20
189.9660262360051
 30
0.0
 11
180.1935610208821
 21
190.0851528860052
 31
0.0
  0
LINE
  5
956
330
1F
100
AcDbEntity
  8
0
100
AcDbLine
 10
177.4777733210625
 20
86.89854984368333
 30
0.0
 11
183.1668509538515
 21
80.94028142305612
 31
0.0
  0
LINE
  5
957
330
1F
100
AcDbEntity
  8
0
100
AcDbLine
 10
183.1668509538515
 20
80.94028142305612
 30
0.0
 11
183.608792692093
 21
80.49833968481452
 31
0.0
  0
LINE
  5
958
330
1F
100
AcDbEntity
  8
0
  6
ByBlock
 62
     0
370
    -2
100
AcDbLine
 10
176.9932839281131
 20
86.43594937418962
 30
0.0
 11
175.7513236254349
 21
88.70669017243754
 31
0.0
  0
LINE
  5
959
330
1F
100
AcDbEntity
  8
0
  6
ByBlock
 62
     0
370
    -2
100
AcDbLine
 10
175.7513236254349
 20
88.70669017243754
 30
0.0
 11
177.9622627140119
 21
87.36115031317705
 31
0.0
  0
LINE
  5
95A
330
1F
100
AcDbEntity
  8
0
  6
ByBlock
 62
     0
370
    -2
100
AcDbLine
 10
175.7513236254349
 20
88.70669017243754
 30
0.0
 11
177.4777733210625
 21
86.89854984368333
 31
0.0
  0
TEXT
  5
95B
330
1F
100
AcDbEntity
  8
0
 62
     4
100
AcDbText
 10
209.1976360971863
 20
137.2208090613415
 30
0.0
 40
3.0
  1
t=4
100
AcDbText
  0
LINE
  5
95C
330
1F
100
AcDbEntity
  8
0
  6
ByBlock
 62
     0
370
    -2
100
AcDbLine
 10
220.3226360971863
 20
137.2656815613416
 30
0.0
 11
222.8226360971863
 21
136.5958090613416
 31
0.0
  0
LINE
  5
95D
330
1F
100
AcDbEntity
  8
0
  6
ByBlock
 62
     0
370
    -2
100
AcDbLine
 10
222.8226360971863
 20
136.5958090613416
 30
0.0
 11
220.3226360971863
 21
135.9259365613416
 31
0.0
  0
LINE
  5
95E
330
1F
100
AcDbEntity
  8
0
  6
ByBlock
 62
     0
370
    -2
100
AcDbLine
 10
222.8226360971863
 20
136.5958090613416
 30
0.0
 11
220.3226360971863
 21
136.5958090613416
 31
0.0
  0
LINE
  5
95F
330
1F
100
AcDbEntity
  8
0
  6
ByBlock
 62
     0
370
    -2
100
AcDbLine
 10
226.3226360971863
 20
135.9259365613416
 30
0.0
 11
223.8226360971863
 21
136.5958090613416
 31
0.0
  0
LINE
  5
960
330
1F
100
AcDbEntity
  8
0
  6
ByBlock
 62
     0
370
    -2
100
AcDbLine
 10
223.8226360971863
 20
136.5958090613416
 30
0.0
 11
226.3226360971863
 21
137.2656815613416
 31
0.0
  0
LINE
  5
961
330
1F
100
AcDbEntity
  8
0
  6
ByBlock
 62
     0
370
    -2
100
AcDbLine
 10
223.8226360971863
 20
136.5958090613416
 30
0.0
 11
226.3226360971863
 21
136.5958090613416
 31
0.0
  0
TEXT
  5
962
330
1F
100
AcDbEntity
  8
0
 62
     4
100
AcDbText
 10
108.668149975233
 20
104.1479215240903
 30
0.0
 40
3.0
  1
179
 50
90.0
100
AcDbText
  0
LINE
  5
963
330
1F
100
AcDbEntity
  8
0
  6
ByBlock
 62
     0
370
    -2
100
AcDbLine
 10
109.963022475233
 20
89.33169017243754
 30
0.0
 11
109.293149975233
 21
86.83169017243754
 31
0.0
  0
LINE
  5
964
330
1F
100
AcDbEntity
  8
0
  6
ByBlock
 62
     0
370
    -2
100
AcDbLine
 10
109.293149975233
 20
86.83169017243754
 30
0.0
 11
108.623277475233
 21
89.33169017243754
 31
0.0
  0
LINE
  5
965
330
1F
100
AcDbEntity
  8
0
  6
ByBlock
 62
     0
370
    -2
100
AcDbLine
 10
109.293149975233
 20
86.83169017243754
 30
0.0
 11
109.293149975233
 21
89.33169017243754
 31
0.0
  0
LINE
  5
966
330
1F
100
AcDbEntity
  8
0
  6
ByBlock
 62
     0
370
    -2
100
AcDbLine
 10
108.623277475233
 20
129.0816901724375
 30
0.0
 11
109.293149975233
 21
131.5816901724375
 31
0.0
  0
LINE
  5
967
330
1F
100
AcDbEntity
  8
0
  6
ByBlock
 62
     0
370
    -2
100
AcDbLine
 10
109.293149975233
 20
131.5816901724375
 30
0.0
 11
109.963022475233
 21
129.0816901724375
 31
0.0
  0
LINE
  5
968
330
1F
100
AcDbEntity
  8
0
  6
ByBlock
 62
     0
370
    -2
100
AcDbLine
 10
109.293149975233
 20
131.5816901724375
 30
0.0
 11
109.293149975233
 21
129.0816901724375
 31
0.0
  0
TEXT
  5
969
330
1F
100
AcDbEntity
  8
0
 62
     4
100
AcDbText
 10
147.1178045305
 20
142.596662005689
 30
0.0
 40
3.0
  1
219
100
AcDbText
  0
LINE
  5
96A
330
1F
100
AcDbEntity
  8
0
  6
ByBlock
 62
     0
370
    -2
100
AcDbLine
 10
125.3763236254349
 20
141.301789505689
 30
0.0
 11
122.8763236254349
 21
141.971662005689
 31
0.0
  0
LINE
  5
96B
330
1F
100
AcDbEntity
  8
0
  6
ByBlock
 62
     0
370
    -2
100
AcDbLine
 10
122.8763236254349
 20
141.971662005689
 30
0.0
 11
125.3763236254349
 21
142.641534505689
 31
0.0
  0
LINE
  5
96C
330
1F
100
AcDbEntity
  8
0
  6
ByBlock
 62
     0
370
    -2
100
AcDbLine
 10
122.8763236254349
 20
141.971662005689
 30
0.0
 11
125.3763236254349
 21
141.971662005689
 31
0.0
  0
LINE
  5
96D
330
1F
100
AcDbEntity
  8
0
  6
ByBlock
 62
     0
370
    -2
100
AcDbLine
 10
175.1263236254349
 20
142.641534505689
 30
0.0
 11
177.6263236254349
 21
141.971662005689
 31
0.0
  0
LINE
  5
96E
330
1F
100
AcDbEntity
  8
0
  6
ByBlock
 62
     0
370
    -2
100
AcDbLine
 10
177.6263236254349
 20
141.971662005689
 30
0.0
 11
175.1263236254349
 21
141.301789505689
 31
0.0
  0
LINE
  5
96F
330
1F
100
AcDbEntity
  8
0
  6
ByBlock
 62
     0
370
    -2
100
AcDbLine
 10
177.6263236254349
 20
141.971662005689
 30
0.0
 11
175.1263236254349
 21
141.971662005689
 31
0.0
  0
ENDSEC
  0
SECTION
  2
OBJECTS
  0
DICTIONARY
  5
C
330
0
100
AcDbDictionary
281
     1
  3
ACAD_2007HEADERVARS_RT
350
974
  3
ACAD_COLOR
350
73
  3
ACAD_GROUP
350
D
  3
ACAD_LAYOUT
350
1A
  3
ACAD_MATERIAL
350
72
  3
ACAD_MLEADERSTYLE
350
168
  3
ACAD_MLINESTYLE
350
17
  3
ACAD_PLOTSETTINGS
350
19
  3
ACAD_PLOTSTYLENAME
350
E
  3
ACAD_SCALELIST
350
156
  3
ACAD_TABLESTYLE
350
86
  3
ACAD_VISUALSTYLE
350
99
  3
ACDB_RECOMPOSE_DATA
350
972
  3
AcDbVariableDictionary
350
66
  3
DWGPROPS
350
973
  0
DICTIONARY
  5
DD
330
2
100
AcDbDictionary
280
     1
281
     1
  3
ACAD_LAYERSTATES
360
DE
  0
DICTIONARY
  5
60C
330
10
100
AcDbDictionary
280
     1
281
     1
  3
ADSK_XREC_LAYER_RECONCILED
360
60D
  0
DICTIONARY
  5
5E2
330
1F
100
AcDbDictionary
280
     1
281
     1
  3
ACAD_SORTENTS
360
5E3
  0
DICTIONARY
  5
974
102
{ACAD_REACTORS
330
C
102
}
330
C
100
AcDbDictionary
281
     1
  3
DIMARCSYM
350
976
  3
DIMFXL
350
975
  3
DIMJOGANG
350
977
  0
DICTIONARY
  5
73
102
{ACAD_REACTORS
330
C
102
}
330
C
100
AcDbDictionary
281
     1
  0
DICTIONARY
  5
D
102
{ACAD_REACTORS
330
C
102
}
330
C
100
AcDbDictionary
281
     1
  0
DICTIONARY
  5
1A
102
{ACAD_REACTORS
330
C
102
}
330
C
100
AcDbDictionary
281
     1
  3
Model
350
22
  3
レイアウト1
350
59
  3
レイアウト2
350
5E
  0
DICTIONARY
  5
72
102
{ACAD_REACTORS
330
C
102
}
330
C
100
AcDbDictionary
281
     1
  3
ByBlock
350
97
  3
ByLayer
350
96
  3
Global
350
98
  0
DICTIONARY
  5
168
102
{ACAD_REACTORS
330
C
102
}
330
C
100
AcDbDictionary
281
     1
  3
Standard
350
169
  0
DICTIONARY
  5
17
102
{ACAD_REACTORS
330
C
102
}
330
C
100
AcDbDictionary
281
     1
  3
Standard
350
18
  0
DICTIONARY
  5
19
102
{ACAD_REACTORS
330
C
102
}
330
C
100
AcDbDictionary
281
     1
  0
ACDBDICTIONARYWDFLT
  5
E
102
{ACAD_REACTORS
330
C
102
}
330
C
100
AcDbDictionary
281
     1
  3
Normal
350
F
100
AcDbDictionaryWithDefault
340
F
  0
DICTIONARY
  5
156
102
{ACAD_REACTORS
330
C
102
}
330
C
100
AcDbDictionary
281
     1
  3
A0
350
157
  3
A1
350
158
  3
A2
350
159
  3
A3
350
15A
  3
A4
350
15B
  3
A5
350
15C
  3
A6
350
15D
  3
A7
350
15E
  3
A8
350
15F
  3
A9
350
160
  3
B0
350
161
  3
B1
350
162
  3
B2
350
163
  3
B3
350
164
  3
B4
350
165
  3
B5
350
166
  3
B6
350
167
  0
DICTIONARY
  5
86
102
{ACAD_REACTORS
330
C
102
}
330
C
100
AcDbDictionary
281
     1
  3
Standard
350
87
  3
部品表
350
77B
  0
DICTIONARY
  5
99
102
{ACAD_REACTORS
330
C
102
}
330
C
100
AcDbDictionary
281
     1
  3
2dWireframe
350
9F
  3
3D Hidden
350
A1
  3
3dWireframe
350
A0
  3
Basic
350
9E
  3
Brighten
350
A5
  3
ColorChange
350
A9
  3
Conceptual
350
A2
  3
Dim
350
A4
  3
EdgeColorOff
350
155
  3
Facepattern
350
A8
  3
Flat
350
9A
  3
FlatWithEdges
350
9B
  3
Gouraud
350
9C
  3
GouraudWithEdges
350
9D
  3
Hidden
350
14D
  3
JitterOff
350
153
  3
Linepattern
350
A7
  3
OverhangOff
350
154
  3
Realistic
350
A3
  3
Shaded
350
152
  3
Shaded with edges
350
151
  3
Shades of Gray
350
14E
  3
Sketchy
350
14F
  3
Thicken
350
A6
  3
Wireframe
350
14C
  3
X-Ray
350
150
  0
XRECORD
  5
972
102
{ACAD_REACTORS
330
C
102
}
330
C
100
AcDbXrecord
280
     1
 90
        1
330
87
330
77B
  0
DICTIONARY
  5
66
102
{ACAD_REACTORS
330
C
102
}
330
C
100
AcDbDictionary
281
     1
  3
CANNOSCALE
350
249
  3
CMLEADERSTYLE
350
247
  3
CTABLESTYLE
350
89
  3
DIMASSOC
350
67
  3
HIDETEXT
350
6B
  3
INDEXCTL
350
612
  3
LAYEREVAL
350
24B
  3
LAYERNOTIFY
350
24C
  3
LIGHTINGUNITS
350
24A
  3
MSLTSCALE
350
248
  3
SORTENTS
350
611
  3
XCLIPFRAME
350
8BB
  0
XRECORD
  5
973
102
{ACAD_REACTORS
330
C
102
}
330
C
100
AcDbXrecord
280
     1
  1
DWGPROPS COOKIE
  2

  3

  4

  6

  7

  8
imamura
  9

300
=
301
=
302
=
303
=
304
=
305
=
306
=
307
=
308
=
309
=
 40
0.0213733449074074
 41
2455916.651792894
 42
2456856.609546991
  1

 90
        0
  0
DICTIONARY
  5
DE
102
{ACAD_REACTORS
330
DD
102
}
330
DD
100
AcDbDictionary
281
     1
  0
XRECORD
  5
60D
102
{ACAD_REACTORS
330
60C
102
}
330
60C
100
AcDbXrecord
280
     1
290
     1
  0
SORTENTSTABLE
  5
5E3
102
{ACAD_REACTORS
330
5E2
102
}
330
5E2
100
AcDbSortentsTable
330
1F
331
5F6
  5
959
331
5F2
  5
955
331
90B
  5
934
331
907
  5
947
331
946
  5
441
331
903
  5
943
331
942
  5
43D
331
5AF
  5
405
331
5AB
  5
401
331
5A7
  5
3FD
331
535
  5
38B
331
531
  5
387
331
5A3
  5
3F9
331
52D
  5
383
331
56C
  5
3C2
331
529
  5
37F
331
568
  5
3BE
331
93E
  5
439
331
93A
  5
431
331
936
  5
42D
331
932
  5
429
331
96E
  5
92B
331
59F
  5
3F5
331
96A
  5
930
331
5DA
  5
912
331
59B
  5
3F1
331
5D6
  5
90E
331
564
  5
3BA
331
597
  5
3ED
331
5D2
  5
90A
331
560
  5
3B6
331
593
  5
3E9
331
525
  5
37B
331
521
  5
377
331
92E
  5
425
331
92A
  5
421
331
966
  5
93C
331
926
  5
41D
331
962
  5
942
331
922
  5
419
331
7C3
  5
96E
331
95E
  5
94D
331
5CE
  5
906
331
58F
  5
3E5
331
7BF
  5
96A
331
95A
  5
951
331
5CA
  5
902
331
58B
  5
3E1
331
7BB
  5
966
331
5C6
  5
7C3
331
587
  5
3DD
331
51D
  5
373
331
5C2
  5
7BF
331
583
  5
3D9
331
519
  5
36F
331
515
  5
36B
331
91E
  5
415
331
91A
  5
411
331
956
  5
952
331
912
  5
925
331
7B7
  5
962
331
952
  5
7B1
331
7B3
  5
95E
331
94E
  5
5F5
331
5BE
  5
7BB
331
57F
  5
3D5
331
5BA
  5
7B7
331
94A
  5
445
331
57B
  5
3D1
331
577
  5
3CD
331
5B6
  5
40C
331
375
  5
922
331
544
  5
39A
331
371
  5
91E
331
540
  5
396
331
573
  5
3C9
331
5B2
  5
408
331
36D
  5
91A
331
53C
  5
392
331
369
  5
916
331
538
  5
38E
331
5F5
  5
958
331
906
  5
946
331
945
  5
440
331
941
  5
43C
331
5AE
  5
404
331
5AA
  5
400
331
5A6
  5
3FC
331
534
  5
38A
331
5F9
  5
95A
331
530
  5
386
331
56F
  5
3C5
331
5A2
  5
3F8
331
52C
  5
382
331
56B
  5
3C1
331
528
  5
37E
331
93D
  5
438
331
939
  5
430
331
935
  5
42C
331
931
  5
428
331
96D
  5
92A
331
5DD
  5
915
331
59E
  5
3F4
331
969
  5
933
331
5D9
  5
911
331
59A
  5
3F0
331
567
  5
3BD
331
5D5
  5
90D
331
563
  5
3B9
331
596
  5
3EC
331
5D1
  5
909
331
55F
  5
3B5
331
592
  5
3E8
331
524
  5
37A
331
520
  5
376
331
92D
  5
424
331
929
  5
420
331
965
  5
941
331
925
  5
41C
331
961
  5
94A
331
921
  5
418
331
7C2
  5
96D
331
95D
  5
94C
331
5CD
  5
905
331
58E
  5
3E4
331
7BE
  5
969
331
959
  5
950
331
5C9
  5
901
331
58A
  5
3E0
331
7BA
  5
965
331
5C5
  5
7C2
331
51C
  5
372
331
586
  5
3DC
331
5C1
  5
7BE
331
582
  5
3D8
331
518
  5
36E
331
514
  5
36A
331
91D
  5
414
331
919
  5
410
331
955
  5
7B4
331
911
  5
924
331
7B6
  5
961
331
951
  5
7B0
331
7B2
  5
95D
331
94D
  5
5F4
331
5BD
  5
7BA
331
57E
  5
3D4
331
5B9
  5
7B6
331
949
  5
444
331
57A
  5
3D0
331
576
  5
3CC
331
5B5
  5
40B
331
374
  5
921
331
543
  5
399
331
370
  5
91D
331
53F
  5
395
331
572
  5
3C8
331
5B1
  5
407
331
36C
  5
919
331
53B
  5
391
331
5F4
  5
957
331
90D
  5
93B
331
905
  5
945
331
944
  5
43F
331
940
  5
43B
331
5AD
  5
403
331
5A9
  5
3FF
331
537
  5
38D
331
5A5
  5
3FB
331
533
  5
389
331
52F
  5
385
331
56E
  5
3C4
331
5A1
  5
3F7
331
52B
  5
381
331
56A
  5
3C0
331
93C
  5
433
331
938
  5
42F
331
934
  5
42B
331
930
  5
427
331
96C
  5
932
331
5DC
  5
914
331
59D
  5
3F3
331
968
  5
93E
331
5D8
  5
910
331
599
  5
3EF
331
566
  5
3BC
331
5D4
  5
90C
331
562
  5
3B8
331
595
  5
3EB
331
5D0
  5
908
331
527
  5
37D
331
55E
  5
3B4
331
591
  5
3E7
331
523
  5
379
331
92C
  5
423
331
928
  5
41F
331
964
  5
940
331
924
  5
41B
331
960
  5
949
331
920
  5
417
331
7C1
  5
96C
331
95C
  5
94B
331
5CC
  5
904
331
58D
  5
3E3
331
7BD
  5
968
331
958
  5
94F
331
5C8
  5
900
331
589
  5
3DF
331
51F
  5
375
331
7B9
  5
964
331
5C4
  5
7C1
331
585
  5
3DB
331
5C0
  5
7BD
331
517
  5
36D
331
581
  5
3D7
331
513
  5
369
331
91C
  5
413
331
918
  5
40F
331
954
  5
7B3
331
7B5
  5
960
331
950
  5
5F9
331
7B1
  5
95C
331
94C
  5
5F3
331
5BC
  5
7B9
331
57D
  5
3D3
331
5B8
  5
7B5
331
948
  5
443
331
579
  5
3CF
331
546
  5
39C
331
373
  5
920
331
542
  5
398
331
575
  5
3CB
331
5B4
  5
40A
331
5B0
  5
406
331
36F
  5
91C
331
53E
  5
394
331
571
  5
3C7
331
36B
  5
918
331
53A
  5
390
331
5F3
  5
956
331
90C
  5
93A
331
947
  5
442
331
904
  5
944
331
943
  5
43E
331
900
  5
954
331
5AC
  5
402
331
5A8
  5
3FE
331
536
  5
38C
331
5A4
  5
3FA
331
532
  5
388
331
52E
  5
384
331
56D
  5
3C3
331
5A0
  5
3F6
331
52A
  5
380
331
569
  5
3BF
331
93F
  5
43A
331
93B
  5
432
331
937
  5
42E
331
933
  5
42A
331
96F
  5
92C
331
96B
  5
931
331
5DB
  5
913
331
59C
  5
3F2
331
5D7
  5
90F
331
598
  5
3EE
331
565
  5
3BB
331
5D3
  5
90B
331
561
  5
3B7
331
594
  5
3EA
331
526
  5
37C
331
55D
  5
3B3
331
590
  5
3E6
331
522
  5
378
331
92F
  5
426
331
92B
  5
422
331
967
  5
93D
331
927
  5
41E
331
963
  5
93F
331
923
  5
41A
331
7C4
  5
96F
331
95F
  5
948
331
5CF
  5
907
331
7C0
  5
96B
331
95B
  5
94E
331
5CB
  5
903
331
58C
  5
3E2
331
7BC
  5
967
331
5C7
  5
7C4
331
588
  5
3DE
331
51E
  5
374
331
7B8
  5
963
331
5C3
  5
7C0
331
51A
  5
370
331
584
  5
3DA
331
516
  5
36C
331
580
  5
3D6
331
91F
  5
416
331
91B
  5
412
331
957
  5
953
331
917
  5
40E
331
913
  5
926
331
953
  5
7B2
331
7B4
  5
95F
331
94F
  5
5F6
331
5BF
  5
7BC
331
7B0
  5
95B
331
94B
  5
5F2
331
5BB
  5
7B8
331
57C
  5
3D2
331
578
  5
3CE
331
376
  5
923
331
545
  5
39B
331
372
  5
91F
331
541
  5
397
331
574
  5
3CA
331
5B3
  5
409
331
36E
  5
91B
331
53D
  5
393
331
570
  5
3C6
331
36A
  5
917
331
539
  5
38F
  0
XRECORD
  5
976
102
{ACAD_REACTORS
330
974
102
}
330
974
100
AcDbXrecord
280
     1
 70
     2
  0
XRECORD
  5
975
102
{ACAD_REACTORS
330
974
102
}
330
974
100
AcDbXrecord
280
     1
 40
1.25
  0
XRECORD
  5
977
102
{ACAD_REACTORS
330
974
102
}
330
974
100
AcDbXrecord
280
     1
 40
1.570796326794896
  0
LAYOUT
  5
22
102
{ACAD_XDICTIONARY
360
978
102
}
102
{ACAD_REACTORS
330
1A
102
}
330
1A
100
AcDbPlotSettings
  1

  2
none_device
  4
ANSI_A_(8.50_x_11.00_Inches)
  6

 40
6.349999904632567
 41
19.04999923706055
 42
6.350006103515625
 43
19.04998779296875
 44
215.8999938964844
 45
279.3999938964844
 46
0.0
 47
0.0
 48
0.0
 49
0.0
140
0.0
141
0.0
142
1.0
143
2.584895464708373
 70
 11952
 72
     0
 73
     1
 74
     0
  7

 75
     0
147
0.3868628397755418
148
0.0
149
0.0
100
AcDbLayout
  1
Model
 70
     1
 71
     0
 10
0.0
 20
0.0
 11
12.0
 21
9.0
 12
0.0
 22
0.0
 32
0.0
 14
0.0
 24
0.0
 34
0.0
 15
0.0
 25
0.0
 35
0.0
146
0.0
 13
0.0
 23
0.0
 33
0.0
 16
1.0
 26
0.0
 36
0.0
 17
0.0
 27
1.0
 37
0.0
 76
     0
330
1F
331
94
  0
LAYOUT
  5
59
102
{ACAD_XDICTIONARY
360
97A
102
}
102
{ACAD_REACTORS
330
1A
102
}
330
1A
100
AcDbPlotSettings
  1

  2
None
  4

  6

 40
0.0
 41
0.0
 42
0.0
 43
0.0
 44
0.0
 45
0.0
 46
0.0
 47
0.0
 48
0.0
 49
0.0
140
0.0
141
0.0
142
1.0
143
1.0
 70
   688
 72
     0
 73
     0
 74
     5
  7

 75
    16
147
1.0
148
0.0
149
0.0
100
AcDbLayout
  1
レイアウト1
 70
     1
 71
     1
 10
0.0
 20
0.0
 11
12.0
 21
9.0
 12
0.0
 22
0.0
 32
0.0
 14
0.0
 24
0.0
 34
0.0
 15
0.0
 25
0.0
 35
0.0
146
0.0
 13
0.0
 23
0.0
 33
0.0
 16
1.0
 26
0.0
 36
0.0
 17
0.0
 27
1.0
 37
0.0
 76
     0
330
58
  0
LAYOUT
  5
5E
102
{ACAD_XDICTIONARY
360
97C
102
}
102
{ACAD_REACTORS
330
1A
102
}
330
1A
100
AcDbPlotSettings
  1

  2
None
  4

  6

 40
0.0
 41
0.0
 42
0.0
 43
0.0
 44
0.0
 45
0.0
 46
0.0
 47
0.0
 48
0.0
 49
0.0
140
0.0
141
0.0
142
1.0
143
1.0
 70
   688
 72
     0
 73
     0
 74
     5
  7

 75
    16
147
1.0
148
0.0
149
0.0
100
AcDbLayout
  1
レイアウト2
 70
     1
 71
     2
 10
0.0
 20
0.0
 11
12.0
 21
9.0
 12
0.0
 22
0.0
 32
0.0
 14
0.0
 24
0.0
 34
0.0
 15
0.0
 25
0.0
 35
0.0
146
0.0
 13
0.0
 23
0.0
 33
0.0
 16
1.0
 26
0.0
 36
0.0
 17
0.0
 27
1.0
 37
0.0
 76
     0
330
5D
  0
MATERIAL
  5
97
102
{ACAD_XDICTIONARY
360
625
102
}
102
{ACAD_REACTORS
330
72
102
}
330
72
100
AcDbMaterial
  1
ByBlock
 73
     1
 78
     1
172
     1
176
     1
270
     1
274
     1
  0
MATERIAL
  5
96
102
{ACAD_XDICTIONARY
360
623
102
}
102
{ACAD_REACTORS
330
72
102
}
330
72
100
AcDbMaterial
  1
ByLayer
 73
     1
 78
     1
172
     1
176
     1
270
     1
274
     1
  0
MATERIAL
  5
98
102
{ACAD_XDICTIONARY
360
627
102
}
102
{ACAD_REACTORS
330
72
102
}
330
72
100
AcDbMaterial
  1
Global
 73
     1
 78
     1
172
     1
176
     1
270
     1
274
     1
  0
MLEADERSTYLE
  5
169
102
{ACAD_REACTORS
330
168
102
}
330
168
100
AcDbMLeaderStyle
170
     2
171
     1
172
     0
 90
        2
 40
0.0
 41
0.0
173
     1
 91
-1056964608
340
14
 92
       -2
290
     1
 42
2.0
291
     1
 43
0.36
  3
Standard
 44
4.0
300

342
11
174
     1
178
     6
175
     1
176
     0
 93
-1056964608
 45
4.0
292
     0
297
     0
 46
4.0
 94
-1056964608
 47
1.0
 49
1.0
140
1.0
293
     1
141
0.0
294
     1
177
     0
142
1.0
295
     0
296
     0
143
0.125
1001
ACAD_MLEADERVER
1070
     2
  0
MLINESTYLE
  5
18
102
{ACAD_REACTORS
330
17
102
}
330
17
100
AcDbMlineStyle
  2
STANDARD
 70
     0
  3

 62
   256
 51
90.0
 52
90.0
 71
     2
 49
0.5
 62
   256
  6
BYLAYER
 49
-0.5
 62
   256
  6
BYLAYER
  0
ACDBPLACEHOLDER
  5
F
102
{ACAD_REACTORS
330
E
102
}
330
E
  0
SCALE
  5
157
102
{ACAD_REACTORS
330
156
102
}
330
156
100
AcDbScale
 70
     0
300
1:1
140
1.0
141
1.0
290
     1
  0
SCALE
  5
158
102
{ACAD_REACTORS
330
156
102
}
330
156
100
AcDbScale
 70
     0
300
1:2
140
1.0
141
2.0
290
     0
  0
SCALE
  5
159
102
{ACAD_REACTORS
330
156
102
}
330
156
100
AcDbScale
 70
     0
300
1:4
140
1.0
141
4.0
290
     0
  0
SCALE
  5
15A
102
{ACAD_REACTORS
330
156
102
}
330
156
100
AcDbScale
 70
     0
300
1:5
140
1.0
141
5.0
290
     0
  0
SCALE
  5
15B
102
{ACAD_REACTORS
330
156
102
}
330
156
100
AcDbScale
 70
     0
300
1:8
140
1.0
141
8.0
290
     0
  0
SCALE
  5
15C
102
{ACAD_REACTORS
330
156
102
}
330
156
100
AcDbScale
 70
     0
300
1:10
140
1.0
141
10.0
290
     0
  0
SCALE
  5
15D
102
{ACAD_REACTORS
330
156
102
}
330
156
100
AcDbScale
 70
     0
300
1:16
140
1.0
141
16.0
290
     0
  0
SCALE
  5
15E
102
{ACAD_REACTORS
330
156
102
}
330
156
100
AcDbScale
 70
     0
300
1:20
140
1.0
141
20.0
290
     0
  0
SCALE
  5
15F
102
{ACAD_REACTORS
330
156
102
}
330
156
100
AcDbScale
 70
     0
300
1:30
140
1.0
141
30.0
290
     0
  0
SCALE
  5
160
102
{ACAD_REACTORS
330
156
102
}
330
156
100
AcDbScale
 70
     0
300
1:40
140
1.0
141
40.0
290
     0
  0
SCALE
  5
161
102
{ACAD_REACTORS
330
156
102
}
330
156
100
AcDbScale
 70
     0
300
1:50
140
1.0
141
50.0
290
     0
  0
SCALE
  5
162
102
{ACAD_REACTORS
330
156
102
}
330
156
100
AcDbScale
 70
     0
300
1:100
140
1.0
141
100.0
290
     0
  0
SCALE
  5
163
102
{ACAD_REACTORS
330
156
102
}
330
156
100
AcDbScale
 70
     0
300
2:1
140
2.0
141
1.0
290
     0
  0
SCALE
  5
164
102
{ACAD_REACTORS
330
156
102
}
330
156
100
AcDbScale
 70
     0
300
4:1
140
4.0
141
1.0
290
     0
  0
SCALE
  5
165
102
{ACAD_REACTORS
330
156
102
}
330
156
100
AcDbScale
 70
     0
300
8:1
140
8.0
141
1.0
290
     0
  0
SCALE
  5
166
102
{ACAD_REACTORS
330
156
102
}
330
156
100
AcDbScale
 70
     0
300
10:1
140
10.0
141
1.0
290
     0
  0
SCALE
  5
167
102
{ACAD_REACTORS
330
156
102
}
330
156
100
AcDbScale
 70
     0
300
100:1
140
100.0
141
1.0
290
     0
  0
TABLESTYLE
  5
87
102
{ACAD_XDICTIONARY
360
614
102
}
102
{ACAD_REACTORS
330
86
102
}
330
86
100
AcDbTableStyle
  3
Standard
 70
     0
 71
     0
 40
0.06
 41
0.06
280
     0
281
     0
  7
Standard
140
0.18
170
     2
 62
     0
 63
     7
283
     0
274
    -2
284
     1
 64
     0
275
    -2
285
     1
 65
     0
276
    -2
286
     1
 66
     0
277
    -2
287
     1
 67
     0
278
    -2
288
     1
 68
     0
279
    -2
289
     1
 69
     0
  7
Standard
140
0.25
170
     5
 62
     0
 63
     7
283
     0
274
    -2
284
     1
 64
     0
275
    -2
285
     1
 65
     0
276
    -2
286
     1
 66
     0
277
    -2
287
     1
 67
     0
278
    -2
288
     1
 68
     0
279
    -2
289
     1
 69
     0
  7
Standard
140
0.18
170
     5
 62
     0
 63
     7
283
     0
274
    -2
284
     1
 64
     0
275
    -2
285
     1
 65
     0
276
    -2
286
     1
 66
     0
277
    -2
287
     1
 67
     0
278
    -2
288
     1
 68
     0
279
    -2
289
     1
 69
     0
  0
TABLESTYLE
  5
77B
102
{ACAD_XDICTIONARY
360
77C
102
}
102
{ACAD_REACTORS
330
86
102
}
330
86
100
AcDbTableStyle
  3
Standard
 70
     1
 71
     0
 40
1.5
 41
0.5
280
     0
281
     0
  7
高3.2
140
0.18
170
     7
 62
     3
 63
     7
283
     0
274
    -2
284
     1
 64
     3
275
    -2
285
     1
 65
     7
276
    -2
286
     1
 66
     3
277
    -2
287
     1
 67
     3
278
    -2
288
     1
 68
     7
279
    -2
289
     1
 69
     3
  7
高3.2
140
0.25
170
     8
 62
     3
 63
     7
283
     0
274
    -2
284
     1
 64
     0
275
    -2
285
     1
 65
     0
276
    -2
286
     1
 66
     0
277
    -2
287
     1
 67
     0
278
    -2
288
     1
 68
     0
279
    -2
289
     1
 69
     0
  7
高3.2
140
0.18
170
     7
 62
     3
 63
     7
283
     0
274
    -2
284
     1
 64
     3
275
    -2
285
     1
 65
     7
276
    -2
286
     1
 66
     3
277
    -2
287
     1
 67
     3
278
    -2
288
     1
 68
     7
279
    -2
289
     1
 69
     3
  0
VISUALSTYLE
  5
9F
102
{ACAD_XDICTIONARY
360
989
102
}
102
{ACAD_REACTORS
330
99
102
}
330
99
100
AcDbVisualStyle
  2

 70
     4
 71
     0
 72
     2
 73
     1
 90
        0
 40
-0.6
 41
-30.0
 62
     5
 63
     7
 74
     1
 91
        4
 64
     7
 65
   257
 75
     1
175
     1
 42
1.0
 92
        0
 66
   257
 43
1.0
 76
     1
 77
     6
 78
     2
 67
     7
 79
     5
170
     0
171
     0
290
     0
174
     0
 93
        1
 44
0.0
173
     0
291
     0
 45
0.0
1001
ACAD
1000
AcDbSavedByObjectVersion
1070
     0
  0
VISUALSTYLE
  5
A1
102
{ACAD_XDICTIONARY
360
98D
102
}
102
{ACAD_REACTORS
330
99
102
}
330
99
100
AcDbVisualStyle
  2

 70
     6
 71
     1
 72
     2
 73
     2
 90
        0
 40
-0.6
 41
-30.0
 62
     5
 63
     7
 74
     2
 91
        2
 64
     7
 65
   257
 75
     2
175
     1
 42
40.0
 92
        0
 66
   257
 43
1.0
 76
     1
 77
     6
 78
     2
 67
     7
 79
     3
170
     0
171
     0
290
     0
174
     0
 93
        1
 44
0.0
173
     0
291
     0
 45
0.0
1001
ACAD
1000
AcDbSavedByObjectVersion
1070
     0
  0
VISUALSTYLE
  5
A0
102
{ACAD_XDICTIONARY
360
98B
102
}
102
{ACAD_REACTORS
330
99
102
}
330
99
100
AcDbVisualStyle
  2

 70
     5
 71
     0
 72
     2
 73
     1
 90
        0
 40
-0.6
 41
-30.0
 62
     5
 63
     7
 74
     1
 91
        4
 64
     7
 65
   257
 75
     1
175
     1
 42
1.0
 92
        0
 66
   257
 43
1.0
 76
     1
 77
     6
 78
     2
 67
     7
 79
     5
170
     0
171
     0
290
     0
174
     0
 93
        1
 44
0.0
173
     0
291
     0
 45
0.0
1001
ACAD
1000
AcDbSavedByObjectVersion
1070
     0
  0
VISUALSTYLE
  5
9E
102
{ACAD_XDICTIONARY
360
987
102
}
102
{ACAD_REACTORS
330
99
102
}
330
99
100
AcDbVisualStyle
  2

 70
     7
 71
     1
 72
     0
 73
     1
 90
        0
 40
-0.6
 41
-30.0
 62
     5
 63
     7
 74
     0
 91
        4
 64
     7
 65
   257
 75
     1
175
     1
 42
1.0
 92
        8
 66
     7
 43
1.0
 76
     1
 77
     6
 78
     2
 67
     7
 79
     5
170
     0
171
     0
290
     0
174
     0
 93
        1
 44
0.0
173
     0
291
     1
 45
0.0
1001
ACAD
1000
AcDbSavedByObjectVersion
1070
     0
  0
VISUALSTYLE
  5
A5
102
{ACAD_XDICTIONARY
360
995
102
}
102
{ACAD_REACTORS
330
99
102
}
330
99
100
AcDbVisualStyle
  2

 70
    12
 71
     2
 72
     2
 73
     1
 90
        0
 40
-0.6
 41
-30.0
 62
     5
 63
     7
 74
     1
 91
        4
 64
     7
 65
   257
 75
     1
175
     1
 42
1.0
 92
        8
 66
     7
 43
1.0
 76
     1
 77
     6
 78
     2
 67
     7
 79
     5
170
     0
171
     0
290
     0
174
     0
 93
        1
 44
50.0
173
     0
291
     1
 45
0.0
1001
ACAD
1000
AcDbSavedByObjectVersion
1070
     0
  0
VISUALSTYLE
  5
A9
102
{ACAD_XDICTIONARY
360
99D
102
}
102
{ACAD_REACTORS
330
99
102
}
330
99
100
AcDbVisualStyle
  2

 70
    16
 71
     2
 72
     2
 73
     3
 90
        0
 40
-0.6
 41
-30.0
 62
     5
 63
     8
 74
     1
 91
        4
 64
     7
 65
   257
 75
     1
175
     1
 42
1.0
 92
        8
 66
     8
 43
1.0
 76
     1
 77
     6
 78
     2
 67
     7
 79
     5
170
     0
171
     0
290
     0
174
     0
 93
        1
 44
0.0
173
     0
291
     1
 45
0.0
1001
ACAD
1000
AcDbSavedByObjectVersion
1070
     0
  0
VISUALSTYLE
  5
A2
102
{ACAD_XDICTIONARY
360
98F
102
}
102
{ACAD_REACTORS
330
99
102
}
330
99
100
AcDbVisualStyle
  2

 70
     9
 71
     3
 72
     2
 73
     1
 90
        0
 40
-0.6
 41
-30.0
 62
     5
 63
     7
 74
     2
 91
        2
 64
     7
 65
   257
 75
     1
175
     1
 42
40.0
 92
        8
 66
     7
 43
1.0
 76
     1
 77
     6
 78
     2
 67
     7
 79
     3
170
     0
171
     0
290
     0
174
     0
 93
        1
 44
0.0
173
     0
291
     0
 45
0.0
1001
ACAD
1000
AcDbSavedByObjectVersion
1070
     0
  0
VISUALSTYLE
  5
A4
102
{ACAD_XDICTIONARY
360
993
102
}
102
{ACAD_REACTORS
330
99
102
}
330
99
100
AcDbVisualStyle
  2

 70
    11
 71
     2
 72
     2
 73
     1
 90
        0
 40
-0.6
 41
-30.0
 62
     5
 63
     7
 74
     1
 91
        4
 64
     7
 65
   257
 75
     1
175
     1
 42
1.0
 92
        8
 66
     7
 43
1.0
 76
     1
 77
     6
 78
     2
 67
     7
 79
     5
170
     0
171
     0
290
     0
174
     0
 93
        1
 44
-50.0
173
     0
291
     1
 45
0.0
1001
ACAD
1000
AcDbSavedByObjectVersion
1070
     0
  0
VISUALSTYLE
  5
155
102
{ACAD_XDICTIONARY
360
9B1
102
}
102
{ACAD_REACTORS
330
99
102
}
330
99
100
AcDbVisualStyle
  2

 70
    22
 71
     2
 72
     2
 73
     0
 90
        0
 40
-0.6
 41
-30.0
 62
     5
 63
     7
 74
     1
 91
        4
 64
     7
 65
   257
 75
     1
175
     1
 42
1.0
 92
        8
 66
     7
 43
1.0
 76
     1
 77
     6
 78
     2
 67
     7
 79
     5
170
     0
171
     0
290
     0
174
     0
 93
        1
 44
0.0
173
     0
291
     1
 45
0.0
1001
ACAD
1000
AcDbSavedByObjectVersion
1070
     0
  0
VISUALSTYLE
  5
A8
102
{ACAD_XDICTIONARY
360
99B
102
}
102
{ACAD_REACTORS
330
99
102
}
330
99
100
AcDbVisualStyle
  2

 70
    15
 71
     2
 72
     2
 73
     1
 90
        0
 40
-0.6
 41
-30.0
 62
     5
 63
     7
 74
     1
 91
        4
 64
     7
 65
   257
 75
     1
175
     1
 42
1.0
 92
        8
 66
     7
 43
1.0
 76
     1
 77
     6
 78
     2
 67
     7
 79
     5
170
     0
171
     0
290
     0
174
     0
 93
        1
 44
0.0
173
     0
291
     1
 45
0.0
1001
ACAD
1000
AcDbSavedByObjectVersion
1070
     0
  0
VISUALSTYLE
  5
9A
102
{ACAD_XDICTIONARY
360
97F
102
}
102
{ACAD_REACTORS
330
99
102
}
330
99
100
AcDbVisualStyle
  2

 70
     0
 71
     2
 72
     1
 73
     1
 90
        2
 40
-0.6
 41
30.0
 62
     5
 63
     7
 74
     0
 91
        4
 64
     7
 65
   257
 75
     1
175
     1
 42
1.0
 92
        8
 66
     7
 43
1.0
 76
     1
 77
     6
 78
     2
 67
     7
 79
     5
170
     0
171
     0
290
     0
174
     0
 93
        1
 44
0.0
173
     0
291
     1
 45
0.0
1001
ACAD
1000
AcDbSavedByObjectVersion
1070
     0
  0
VISUALSTYLE
  5
9B
102
{ACAD_XDICTIONARY
360
981
102
}
102
{ACAD_REACTORS
330
99
102
}
330
99
100
AcDbVisualStyle
  2

 70
     1
 71
     2
 72
     1
 73
     1
 90
        2
 40
-0.6
 41
30.0
 62
     5
 63
     7
 74
     1
 91
        4
 64
     7
 65
   257
 75
     1
175
     1
 42
1.0
 92
        0
 66
   257
 43
1.0
 76
     1
 77
     6
 78
     2
 67
     7
 79
     5
170
     0
171
     0
290
     0
174
     0
 93
        1
 44
0.0
173
     0
291
     1
 45
0.0
1001
ACAD
1000
AcDbSavedByObjectVersion
1070
     0
  0
VISUALSTYLE
  5
9C
102
{ACAD_XDICTIONARY
360
983
102
}
102
{ACAD_REACTORS
330
99
102
}
330
99
100
AcDbVisualStyle
  2

 70
     2
 71
     2
 72
     2
 73
     1
 90
        2
 40
-0.6
 41
30.0
 62
     5
 63
     7
 74
     0
 91
        4
 64
     7
 65
   257
 75
     1
175
     1
 42
1.0
 92
        0
 66
     7
 43
1.0
 76
     1
 77
     6
 78
     2
 67
     7
 79
     5
170
     0
171
     0
290
     0
174
     0
 93
        1
 44
0.0
173
     0
291
     1
 45
0.0
1001
ACAD
1000
AcDbSavedByObjectVersion
1070
     0
  0
VISUALSTYLE
  5
9D
102
{ACAD_XDICTIONARY
360
985
102
}
102
{ACAD_REACTORS
330
99
102
}
330
99
100
AcDbVisualStyle
  2

 70
     3
 71
     2
 72
     2
 73
     1
 90
        2
 40
-0.6
 41
30.0
 62
     5
 63
     7
 74
     1
 91
        4
 64
     7
 65
   257
 75
     1
175
     1
 42
1.0
 92
        0
 66
   257
 43
1.0
 76
     1
 77
     6
 78
     2
 67
     7
 79
     5
170
     0
171
     0
290
     0
174
     0
 93
        1
 44
0.0
173
     0
291
     1
 45
0.0
1001
ACAD
1000
AcDbSavedByObjectVersion
1070
     0
  0
VISUALSTYLE
  5
14D
102
{ACAD_XDICTIONARY
360
9A1
102
}
102
{ACAD_REACTORS
330
99
102
}
330
99
100
AcDbVisualStyle
  2

 70
     6
 71
     1
 72
     2
 73
     2
 90
        0
 40
-0.6
 41
-30.0
 62
     5
 63
     7
 74
     2
 91
        2
 64
     7
 65
   257
 75
     2
175
     1
 42
40.0
 92
        0
 66
   257
 43
1.0
 76
     1
 77
     6
 78
     2
 67
     7
 79
     3
170
     0
171
     0
290
     0
174
     0
 93
        1
 44
0.0
173
     0
291
     0
 45
0.0
1001
ACAD
1000
AcDbSavedByObjectVersion
1070
     0
  0
VISUALSTYLE
  5
153
102
{ACAD_XDICTIONARY
360
9AD
102
}
102
{ACAD_REACTORS
330
99
102
}
330
99
100
AcDbVisualStyle
  2

 70
    20
 71
     2
 72
     2
 73
     0
 90
        0
 40
-0.6
 41
-30.0
 62
     5
 63
     7
 74
     1
 91
        4
 64
     7
 65
   257
 75
     1
175
     1
 42
1.0
 92
       10
 66
     7
 43
1.0
 76
     1
 77
     6
 78
     2
 67
     7
 79
     5
170
     0
171
     0
290
     0
174
     0
 93
        1
 44
0.0
173
     0
291
     1
 45
0.0
1001
ACAD
1000
AcDbSavedByObjectVersion
1070
     0
  0
VISUALSTYLE
  5
A7
102
{ACAD_XDICTIONARY
360
999
102
}
102
{ACAD_REACTORS
330
99
102
}
330
99
100
AcDbVisualStyle
  2

 70
    14
 71
     2
 72
     2
 73
     1
 90
        0
 40
-0.6
 41
-30.0
 62
     5
 63
     7
 74
     1
 91
        4
 64
     7
 65
   257
 75
     7
175
     7
 42
1.0
 92
        8
 66
     7
 43
1.0
 76
     1
 77
     6
 78
     2
 67
     7
 79
     5
170
     0
171
     0
290
     0
174
     0
 93
        1
 44
0.0
173
     0
291
     1
 45
0.0
1001
ACAD
1000
AcDbSavedByObjectVersion
1070
     0
  0
VISUALSTYLE
  5
154
102
{ACAD_XDICTIONARY
360
9AF
102
}
102
{ACAD_REACTORS
330
99
102
}
330
99
100
AcDbVisualStyle
  2

 70
    21
 71
     2
 72
     2
 73
     0
 90
        0
 40
-0.6
 41
-30.0
 62
     5
 63
     7
 74
     1
 91
        4
 64
     7
 65
   257
 75
     1
175
     1
 42
1.0
 92
        9
 66
     7
 43
1.0
 76
     1
 77
     6
 78
     2
 67
     7
 79
     5
170
     0
171
     0
290
     0
174
     0
 93
        1
 44
0.0
173
     0
291
     1
 45
0.0
1001
ACAD
1000
AcDbSavedByObjectVersion
1070
     0
  0
VISUALSTYLE
  5
A3
102
{ACAD_XDICTIONARY
360
991
102
}
102
{ACAD_REACTORS
330
99
102
}
330
99
100
AcDbVisualStyle
  2

 70
     8
 71
     2
 72
     2
 73
     1
 90
        0
 40
-0.6
 41
-30.0
 62
     5
 63
     7
 74
     1
 91
        0
 64
     7
 65
   257
 75
     1
175
     1
 42
1.0
 92
        8
 66
     8
 43
1.0
 76
     1
 77
     6
 78
     2
 67
     7
 79
     5
170
     0
171
     0
290
     0
174
     0
 93
       13
 44
0.0
173
     0
291
     0
 45
0.0
1001
ACAD
1000
AcDbSavedByObjectVersion
1070
     0
  0
VISUALSTYLE
  5
152
102
{ACAD_XDICTIONARY
360
9AB
102
}
102
{ACAD_REACTORS
330
99
102
}
330
99
100
AcDbVisualStyle
  2

 70
    27
 71
     2
 72
     2
 73
     1
 90
        2
 40
-0.6
 41
30.0
 62
     5
 63
     7
 74
     0
 91
        4
 64
     7
 65
   257
 75
     1
175
     1
 42
1.0
 92
        8
 66
   257
 43
1.0
 76
     1
 77
     6
 78
     2
 67
     8
 79
     3
170
     0
171
     0
290
     0
174
     0
 93
        5
 44
0.0
173
     0
291
     0
 45
0.0
1001
ACAD
1000
AcDbSavedByObjectVersion
1070
     0
  0
VISUALSTYLE
  5
151
102
{ACAD_XDICTIONARY
360
9A9
102
}
102
{ACAD_REACTORS
330
99
102
}
330
99
100
AcDbVisualStyle
  2

 70
    26
 71
     2
 72
     2
 73
     1
 90
        2
 40
-0.6
 41
30.0
 62
     5
 63
     7
 74
     1
 91
       10
 64
     7
 65
   257
 75
     2
175
     1
 42
1.0
 92
        8
 66
   257
 43
1.0
 76
     1
 77
     6
 78
     2
 67
     7
 79
     3
170
     0
171
     0
290
     0
174
     0
 93
        5
 44
0.0
173
     0
291
     0
 45
0.0
1001
ACAD
1000
AcDbSavedByObjectVersion
1070
     0
  0
VISUALSTYLE
  5
14E
102
{ACAD_XDICTIONARY
360
9A3
102
}
102
{ACAD_REACTORS
330
99
102
}
330
99
100
AcDbVisualStyle
  2

 70
    23
 71
     2
 72
     2
 73
     3
 90
        0
 40
-0.6
 41
-30.0
 62
     5
 63
     7
 74
     2
 91
        2
 64
     7
 65
     7
 75
     1
175
     1
 42
40.0
 92
        8
 66
     7
 43
1.0
 76
     1
 77
     6
 78
     2
 67
     7
 79
     3
170
     0
171
     0
290
     0
174
     0
 93
        1
 44
0.0
173
     0
291
     0
 45
0.0
1001
ACAD
1000
AcDbSavedByObjectVersion
1070
     0
  0
VISUALSTYLE
  5
14F
102
{ACAD_XDICTIONARY
360
9A5
102
}
102
{ACAD_REACTORS
330
99
102
}
330
99
100
AcDbVisualStyle
  2

 70
    24
 71
     1
 72
     2
 73
     2
 90
        0
 40
-0.6
 41
-30.0
 62
     5
 63
     7
 74
     2
 91
        2
 64
     7
 65
     7
 75
     1
175
     1
 42
40.0
 92
       11
 66
     7
 43
1.0
 76
     1
 77
     6
 78
     2
 67
     7
 79
     6
170
     0
171
     0
290
     0
174
     0
 93
        1
 44
0.0
173
     0
291
     0
 45
0.0
1001
ACAD
1000
AcDbSavedByObjectVersion
1070
     0
  0
VISUALSTYLE
  5
A6
102
{ACAD_XDICTIONARY
360
997
102
}
102
{ACAD_REACTORS
330
99
102
}
330
99
100
AcDbVisualStyle
  2

 70
    13
 71
     2
 72
     2
 73
     1
 90
        0
 40
-0.6
 41
-30.0
 62
     5
 63
     7
 74
     1
 91
        4
 64
     7
 65
   257
 75
     1
175
     1
 42
1.0
 92
       12
 66
     7
 43
1.0
 76
     1
 77
     6
 78
     2
 67
     7
 79
     5
170
     0
171
     0
290
     0
174
     0
 93
        1
 44
0.0
173
     0
291
     1
 45
0.0
1001
ACAD
1000
AcDbSavedByObjectVersion
1070
     0
  0
VISUALSTYLE
  5
14C
102
{ACAD_XDICTIONARY
360
99F
102
}
102
{ACAD_REACTORS
330
99
102
}
330
99
100
AcDbVisualStyle
  2

 70
     5
 71
     0
 72
     2
 73
     0
 90
        0
 40
-0.6
 41
-30.0
 62
     5
 63
     7
 74
     1
 91
        4
 64
     7
 65
   257
 75
     1
175
     1
 42
1.0
 92
        0
 66
   257
 43
1.0
 76
     1
 77
     6
 78
     2
 67
     7
 79
     3
170
     0
171
     0
290
     0
174
     0
 93
        1
 44
0.0
173
     0
291
     0
 45
0.0
1001
ACAD
1000
AcDbSavedByObjectVersion
1070
     0
  0
VISUALSTYLE
  5
150
102
{ACAD_XDICTIONARY
360
9A7
102
}
102
{ACAD_REACTORS
330
99
102
}
330
99
100
AcDbVisualStyle
  2

 70
    25
 71
     2
 72
     2
 73
     1
 90
        1
 40
0.5
 41
-30.0
 62
     5
 63
     7
 74
     1
 91
        0
 64
     7
 65
   257
 75
     1
175
     1
 42
1.0
 92
        8
 66
     7
 43
1.0
 76
     1
 77
     6
 78
     2
 67
     7
 79
     3
170
     0
171
     0
290
     0
174
     0
 93
       13
 44
0.0
173
     0
291
     0
 45
0.0
1001
ACAD
1000
AcDbSavedByObjectVersion
1070
     0
  0
DICTIONARYVAR
  5
249
102
{ACAD_REACTORS
330
66
102
}
330
66
100
DictionaryVariables
280
     0
  1
1:1
  0
DICTIONARYVAR
  5
247
102
{ACAD_REACTORS
330
66
102
}
330
66
100
DictionaryVariables
280
     0
  1
STANDARD
  0
DICTIONARYVAR
  5
89
102
{ACAD_REACTORS
330
66
102
}
330
66
100
DictionaryVariables
280
     0
  1
STANDARD
  0
DICTIONARYVAR
  5
67
102
{ACAD_REACTORS
330
66
102
}
330
66
100
DictionaryVariables
280
     0
  1
2
  0
DICTIONARYVAR
  5
6B
102
{ACAD_REACTORS
330
66
102
}
330
66
100
DictionaryVariables
280
     0
  1
1
  0
DICTIONARYVAR
  5
612
102
{ACAD_REACTORS
330
66
102
}
330
66
100
DictionaryVariables
280
     0
  1
0
  0
DICTIONARYVAR
  5
24B
102
{ACAD_REACTORS
330
66
102
}
330
66
100
DictionaryVariables
280
     0
  1
1
  0
DICTIONARYVAR
  5
24C
102
{ACAD_REACTORS
330
66
102
}
330
66
100
DictionaryVariables
280
     0
  1
15
  0
DICTIONARYVAR
  5
24A
102
{ACAD_REACTORS
330
66
102
}
330
66
100
DictionaryVariables
280
     0
  1
0
  0
DICTIONARYVAR
  5
248
102
{ACAD_REACTORS
330
66
102
}
330
66
100
DictionaryVariables
280
     0
  1
0
  0
DICTIONARYVAR
  5
611
102
{ACAD_REACTORS
330
66
102
}
330
66
100
DictionaryVariables
280
     0
  1
127
  0
DICTIONARYVAR
  5
8BB
102
{ACAD_REACTORS
330
66
102
}
330
66
100
DictionaryVariables
280
     0
  1
2
  0
DICTIONARY
  5
978
330
22
100
AcDbDictionary
280
     1
281
     1
  3
ACAD_XREC_ROUNDTRIP
360
979
  0
DICTIONARY
  5
97A
330
59
100
AcDbDictionary
280
     1
281
     1
  3
ACAD_XREC_ROUNDTRIP
360
97B
  0
DICTIONARY
  5
97C
330
5E
100
AcDbDictionary
280
     1
281
     1
  3
ACAD_XREC_ROUNDTRIP
360
97D
  0
DICTIONARY
  5
625
330
97
100
AcDbDictionary
280
     1
281
     1
  3
ACAD_XREC_ROUNDTRIP
360
626
  0
DICTIONARY
  5
623
330
96
100
AcDbDictionary
280
     1
281
     1
  3
ACAD_XREC_ROUNDTRIP
360
624
  0
DICTIONARY
  5
627
330
98
100
AcDbDictionary
280
     1
281
     1
  3
ACAD_XREC_ROUNDTRIP
360
628
  0
DICTIONARY
  5
614
330
87
100
AcDbDictionary
280
     1
281
     1
  3
ACAD_ROUNDTRIP_2008_TABLESTYLE_CELLSTYLEMAP
360
970
  3
ACAD_XREC_ROUNDTRIP
360
97E
  0
DICTIONARY
  5
77C
330
77B
100
AcDbDictionary
280
     1
281
     1
  3
ACAD_ROUNDTRIP_2008_TABLESTYLE_CELLSTYLEMAP
360
971
  3
ACAD_XREC_ROUNDTRIP
360
9B3
  0
DICTIONARY
  5
989
330
9F
100
AcDbDictionary
280
     1
281
     1
  3
ACAD_XREC_ROUNDTRIP
360
98A
  0
DICTIONARY
  5
98D
330
A1
100
AcDbDictionary
280
     1
281
     1
  3
ACAD_XREC_ROUNDTRIP
360
98E
  0
DICTIONARY
  5
98B
330
A0
100
AcDbDictionary
280
     1
281
     1
  3
ACAD_XREC_ROUNDTRIP
360
98C
  0
DICTIONARY
  5
987
330
9E
100
AcDbDictionary
280
     1
281
     1
  3
ACAD_XREC_ROUNDTRIP
360
988
  0
DICTIONARY
  5
995
330
A5
100
AcDbDictionary
280
     1
281
     1
  3
ACAD_XREC_ROUNDTRIP
360
996
  0
DICTIONARY
  5
99D
330
A9
100
AcDbDictionary
280
     1
281
     1
  3
ACAD_XREC_ROUNDTRIP
360
99E
  0
DICTIONARY
  5
98F
330
A2
100
AcDbDictionary
280
     1
281
     1
  3
ACAD_XREC_ROUNDTRIP
360
990
  0
DICTIONARY
  5
993
330
A4
100
AcDbDictionary
280
     1
281
     1
  3
ACAD_XREC_ROUNDTRIP
360
994
  0
DICTIONARY
  5
9B1
330
155
100
AcDbDictionary
280
     1
281
     1
  3
ACAD_XREC_ROUNDTRIP
360
9B2
  0
DICTIONARY
  5
99B
330
A8
100
AcDbDictionary
280
     1
281
     1
  3
ACAD_XREC_ROUNDTRIP
360
99C
  0
DICTIONARY
  5
97F
330
9A
100
AcDbDictionary
280
     1
281
     1
  3
ACAD_XREC_ROUNDTRIP
360
980
  0
DICTIONARY
  5
981
330
9B
100
AcDbDictionary
280
     1
281
     1
  3
ACAD_XREC_ROUNDTRIP
360
982
  0
DICTIONARY
  5
983
330
9C
100
AcDbDictionary
280
     1
281
     1
  3
ACAD_XREC_ROUNDTRIP
360
984
  0
DICTIONARY
  5
985
330
9D
100
AcDbDictionary
280
     1
281
     1
  3
ACAD_XREC_ROUNDTRIP
360
986
  0
DICTIONARY
  5
9A1
330
14D
100
AcDbDictionary
280
     1
281
     1
  3
ACAD_XREC_ROUNDTRIP
360
9A2
  0
DICTIONARY
  5
9AD
330
153
100
AcDbDictionary
280
     1
281
     1
  3
ACAD_XREC_ROUNDTRIP
360
9AE
  0
DICTIONARY
  5
999
330
A7
100
AcDbDictionary
280
     1
281
     1
  3
ACAD_XREC_ROUNDTRIP
360
99A
  0
DICTIONARY
  5
9AF
330
154
100
AcDbDictionary
280
     1
281
     1
  3
ACAD_XREC_ROUNDTRIP
360
9B0
  0
DICTIONARY
  5
991
330
A3
100
AcDbDictionary
280
     1
281
     1
  3
ACAD_XREC_ROUNDTRIP
360
992
  0
DICTIONARY
  5
9AB
330
152
100
AcDbDictionary
280
     1
281
     1
  3
ACAD_XREC_ROUNDTRIP
360
9AC
  0
DICTIONARY
  5
9A9
330
151
100
AcDbDictionary
280
     1
281
     1
  3
ACAD_XREC_ROUNDTRIP
360
9AA
  0
DICTIONARY
  5
9A3
330
14E
100
AcDbDictionary
280
     1
281
     1
  3
ACAD_XREC_ROUNDTRIP
360
9A4
  0
DICTIONARY
  5
9A5
330
14F
100
AcDbDictionary
280
     1
281
     1
  3
ACAD_XREC_ROUNDTRIP
360
9A6
  0
DICTIONARY
  5
997
330
A6
100
AcDbDictionary
280
     1
281
     1
  3
ACAD_XREC_ROUNDTRIP
360
998
  0
DICTIONARY
  5
99F
330
14C
100
AcDbDictionary
280
     1
281
     1
  3
ACAD_XREC_ROUNDTRIP
360
9A0
  0
DICTIONARY
  5
9A7
330
150
100
AcDbDictionary
280
     1
281
     1
  3
ACAD_XREC_ROUNDTRIP
360
9A8
  0
XRECORD
  5
979
102
{ACAD_REACTORS
330
978
102
}
330
978
100
AcDbXrecord
280
     1
102
SHADEPLOT
 70
     0
102
SHADEPLOTRESLEVEL
 70
     2
102
SHADEPLOTCUSTOMDPI
 70
   300
  0
XRECORD
  5
97B
102
{ACAD_REACTORS
330
97A
102
}
330
97A
100
AcDbXrecord
280
     1
102
SHADEPLOT
 70
     0
102
SHADEPLOTRESLEVEL
 70
     2
102
SHADEPLOTCUSTOMDPI
 70
   300
  0
XRECORD
  5
97D
102
{ACAD_REACTORS
330
97C
102
}
330
97C
100
AcDbXrecord
280
     1
102
SHADEPLOT
 70
     0
102
SHADEPLOTRESLEVEL
 70
     2
102
SHADEPLOTCUSTOMDPI
 70
   300
  0
XRECORD
  5
626
102
{ACAD_REACTORS
330
625
102
}
330
625
100
AcDbXrecord
280
     1
102
MATERIAL
148
0.0
149
0.0
149
0.0
 93
        0
 94
      127
282
     0
 72
     1
 77
     1
171
     1
175
     1
179
     1
273
     0
  0
XRECORD
  5
624
102
{ACAD_REACTORS
330
623
102
}
330
623
100
AcDbXrecord
280
     1
102
MATERIAL
148
0.0
149
0.0
149
0.0
 93
        0
 94
      127
282
     0
 72
     1
 77
     1
171
     1
175
     1
179
     1
273
     0
  0
XRECORD
  5
628
102
{ACAD_REACTORS
330
627
102
}
330
627
100
AcDbXrecord
280
     1
102
MATERIAL
148
0.0
149
0.0
149
0.0
 93
        0
 94
      127
282
     0
 72
     1
 77
     1
171
     1
175
     1
179
     1
273
     0
  0
CELLSTYLEMAP
  5
970
102
{ACAD_REACTORS
330
614
102
}
330
614
100
AcDbCellStyleMap
 90
        3
300
CELLSTYLE
  1
TABLEFORMAT_BEGIN
 90
        5
170
     1
 91
        0
 92
    32768
 62
   257
 93
        1
300
CONTENTFORMAT
  1
CONTENTFORMAT_BEGIN
 90
        0
 91
        0
 92
      512
 93
        0
300

 40
0.0
140
1.0
 94
        5
 62
     0
340
11
144
0.25
309
CONTENTFORMAT_END
171
     1
301
MARGIN
  1
CELLMARGIN_BEGIN
 40
0.06
 40
0.06
 40
0.06
 40
0.06
 40
0.18
 40
0.18
309
CELLMARGIN_END
 94
        6
 95
        1
302
GRIDFORMAT
  1
GRIDFORMAT_BEGIN
 90
        0
 91
        1
 62
     0
 92
       -2
340
0
 93
        0
 40
0.045
309
GRIDFORMAT_END
 95
        2
302
GRIDFORMAT
  1
GRIDFORMAT_BEGIN
 90
        0
 91
        1
 62
     0
 92
       -2
340
0
 93
        0
 40
0.045
309
GRIDFORMAT_END
 95
        4
302
GRIDFORMAT
  1
GRIDFORMAT_BEGIN
 90
        0
 91
        1
 62
     0
 92
       -2
340
0
 93
        0
 40
0.045
309
GRIDFORMAT_END
 95
        8
302
GRIDFORMAT
  1
GRIDFORMAT_BEGIN
 90
        0
 91
        1
 62
     0
 92
       -2
340
0
 93
        0
 40
0.045
309
GRIDFORMAT_END
 95
       16
302
GRIDFORMAT
  1
GRIDFORMAT_BEGIN
 90
        0
 91
        1
 62
     0
 92
       -2
340
0
 93
        0
 40
0.045
309
GRIDFORMAT_END
 95
       32
302
GRIDFORMAT
  1
GRIDFORMAT_BEGIN
 90
        0
 91
        1
 62
     0
 92
       -2
340
0
 93
        0
 40
0.045
309
GRIDFORMAT_END
309
TABLEFORMAT_END
  1
CELLSTYLE_BEGIN
 90
        1
 91
        1
300
_TITLE
309
CELLSTYLE_END
300
CELLSTYLE
  1
TABLEFORMAT_BEGIN
 90
        5
170
     1
 91
        0
 92
        0
 62
   257
 93
        1
300
CONTENTFORMAT
  1
CONTENTFORMAT_BEGIN
 90
        0
 91
        0
 92
      512
 93
        0
300

 40
0.0
140
1.0
 94
        5
 62
     0
340
11
144
0.18
309
CONTENTFORMAT_END
171
     1
301
MARGIN
  1
CELLMARGIN_BEGIN
 40
0.06
 40
0.06
 40
0.06
 40
0.06
 40
0.18
 40
0.18
309
CELLMARGIN_END
 94
        6
 95
        1
302
GRIDFORMAT
  1
GRIDFORMAT_BEGIN
 90
        0
 91
        1
 62
     0
 92
       -2
340
0
 93
        0
 40
0.045
309
GRIDFORMAT_END
 95
        2
302
GRIDFORMAT
  1
GRIDFORMAT_BEGIN
 90
        0
 91
        1
 62
     0
 92
       -2
340
0
 93
        0
 40
0.045
309
GRIDFORMAT_END
 95
        4
302
GRIDFORMAT
  1
GRIDFORMAT_BEGIN
 90
        0
 91
        1
 62
     0
 92
       -2
340
0
 93
        0
 40
0.045
309
GRIDFORMAT_END
 95
        8
302
GRIDFORMAT
  1
GRIDFORMAT_BEGIN
 90
        0
 91
        1
 62
     0
 92
       -2
340
0
 93
        0
 40
0.045
309
GRIDFORMAT_END
 95
       16
302
GRIDFORMAT
  1
GRIDFORMAT_BEGIN
 90
        0
 91
        1
 62
     0
 92
       -2
340
0
 93
        0
 40
0.045
309
GRIDFORMAT_END
 95
       32
302
GRIDFORMAT
  1
GRIDFORMAT_BEGIN
 90
        0
 91
        1
 62
     0
 92
       -2
340
0
 93
        0
 40
0.045
309
GRIDFORMAT_END
309
TABLEFORMAT_END
  1
CELLSTYLE_BEGIN
 90
        2
 91
        1
300
_HEADER
309
CELLSTYLE_END
300
CELLSTYLE
  1
TABLEFORMAT_BEGIN
 90
        5
170
     1
 91
        0
 92
        0
 62
   257
 93
        1
300
CONTENTFORMAT
  1
CONTENTFORMAT_BEGIN
 90
        0
 91
        0
 92
      512
 93
        0
300

 40
0.0
140
1.0
 94
        2
 62
     0
340
11
144
0.18
309
CONTENTFORMAT_END
171
     1
301
MARGIN
  1
CELLMARGIN_BEGIN
 40
0.06
 40
0.06
 40
0.06
 40
0.06
 40
0.18
 40
0.18
309
CELLMARGIN_END
 94
        6
 95
        1
302
GRIDFORMAT
  1
GRIDFORMAT_BEGIN
 90
        0
 91
        1
 62
     0
 92
       -2
340
0
 93
        0
 40
0.045
309
GRIDFORMAT_END
 95
        2
302
GRIDFORMAT
  1
GRIDFORMAT_BEGIN
 90
        0
 91
        1
 62
     0
 92
       -2
340
0
 93
        0
 40
0.045
309
GRIDFORMAT_END
 95
        4
302
GRIDFORMAT
  1
GRIDFORMAT_BEGIN
 90
        0
 91
        1
 62
     0
 92
       -2
340
0
 93
        0
 40
0.045
309
GRIDFORMAT_END
 95
        8
302
GRIDFORMAT
  1
GRIDFORMAT_BEGIN
 90
        0
 91
        1
 62
     0
 92
       -2
340
0
 93
        0
 40
0.045
309
GRIDFORMAT_END
 95
       16
302
GRIDFORMAT
  1
GRIDFORMAT_BEGIN
 90
        0
 91
        1
 62
     0
 92
       -2
340
0
 93
        0
 40
0.045
309
GRIDFORMAT_END
 95
       32
302
GRIDFORMAT
  1
GRIDFORMAT_BEGIN
 90
        0
 91
        1
 62
     0
 92
       -2
340
0
 93
        0
 40
0.045
309
GRIDFORMAT_END
309
TABLEFORMAT_END
  1
CELLSTYLE_BEGIN
 90
        3
 91
        2
300
_DATA
309
CELLSTYLE_END
  0
XRECORD
  5
97E
102
{ACAD_REACTORS
330
614
102
}
330
614
100
AcDbXrecord
280
     1
102
ACAD_ROUNDTRIP_PRE2007_TABLESTYLE
 90
      512
 91
        0
  1

 92
      512
 93
        0
  2

 94
      512
 95
        0
  3

  0
CELLSTYLEMAP
  5
971
102
{ACAD_REACTORS
330
77C
102
}
330
77C
100
AcDbCellStyleMap
 90
        3
300
CELLSTYLE
  1
TABLEFORMAT_BEGIN
 90
        5
170
     1
 91
        0
 92
    32768
 62
   257
 93
        1
300
CONTENTFORMAT
  1
CONTENTFORMAT_BEGIN
 90
        0
 91
        0
 92
      512
 93
        0
300

 40
0.0
140
1.0
 94
        8
 62
     3
340
11D
144
0.25
309
CONTENTFORMAT_END
171
     1
301
MARGIN
  1
CELLMARGIN_BEGIN
 40
0.5
 40
10.0
 40
0.06
 40
0.06
 40
0.18
 40
0.18
309
CELLMARGIN_END
 94
        6
 95
        1
302
GRIDFORMAT
  1
GRIDFORMAT_BEGIN
 90
        0
 91
        1
 62
     0
 92
       -2
340
0
 93
        0
 40
0.045
309
GRIDFORMAT_END
 95
        2
302
GRIDFORMAT
  1
GRIDFORMAT_BEGIN
 90
        0
 91
        1
 62
     0
 92
       -2
340
0
 93
        0
 40
0.045
309
GRIDFORMAT_END
 95
        4
302
GRIDFORMAT
  1
GRIDFORMAT_BEGIN
 90
        0
 91
        1
 62
     0
 92
       -2
340
0
 93
        0
 40
0.045
309
GRIDFORMAT_END
 95
        8
302
GRIDFORMAT
  1
GRIDFORMAT_BEGIN
 90
        0
 91
        1
 62
     0
 92
       -2
340
0
 93
        0
 40
0.045
309
GRIDFORMAT_END
 95
       16
302
GRIDFORMAT
  1
GRIDFORMAT_BEGIN
 90
        0
 91
        1
 62
     0
 92
       -2
340
0
 93
        0
 40
0.045
309
GRIDFORMAT_END
 95
       32
302
GRIDFORMAT
  1
GRIDFORMAT_BEGIN
 90
        0
 91
        1
 62
     0
 92
       -2
340
0
 93
        0
 40
0.045
309
GRIDFORMAT_END
309
TABLEFORMAT_END
  1
CELLSTYLE_BEGIN
 90
        1
 91
        1
300
_TITLE
309
CELLSTYLE_END
300
CELLSTYLE
  1
TABLEFORMAT_BEGIN
 90
        5
170
     1
 91
        0
 92
        0
 62
   257
 93
        1
300
CONTENTFORMAT
  1
CONTENTFORMAT_BEGIN
 90
        0
 91
        0
 92
      512
 93
        0
300

 40
0.0
140
1.0
 94
        7
 62
     3
340
11D
144
0.18
309
CONTENTFORMAT_END
171
     1
301
MARGIN
  1
CELLMARGIN_BEGIN
 40
0.5
 40
1.5
 40
0.06
 40
0.06
 40
0.18
 40
0.18
309
CELLMARGIN_END
 94
        6
 95
        1
302
GRIDFORMAT
  1
GRIDFORMAT_BEGIN
 90
        0
 91
        1
 62
     3
 92
       -2
340
14
 93
        0
 40
0.045
309
GRIDFORMAT_END
 95
        2
302
GRIDFORMAT
  1
GRIDFORMAT_BEGIN
 90
        0
 91
        1
 62
     7
 92
       -2
340
14
 93
        0
 40
0.045
309
GRIDFORMAT_END
 95
        4
302
GRIDFORMAT
  1
GRIDFORMAT_BEGIN
 90
        0
 91
        1
 62
     3
 92
       -2
340
14
 93
        0
 40
0.045
309
GRIDFORMAT_END
 95
        8
302
GRIDFORMAT
  1
GRIDFORMAT_BEGIN
 90
        0
 91
        1
 62
     3
 92
       -2
340
14
 93
        0
 40
0.045
309
GRIDFORMAT_END
 95
       16
302
GRIDFORMAT
  1
GRIDFORMAT_BEGIN
 90
        0
 91
        1
 62
     7
 92
       -2
340
14
 93
        0
 40
0.045
309
GRIDFORMAT_END
 95
       32
302
GRIDFORMAT
  1
GRIDFORMAT_BEGIN
 90
        0
 91
        1
 62
     3
 92
       -2
340
14
 93
        0
 40
0.045
309
GRIDFORMAT_END
309
TABLEFORMAT_END
  1
CELLSTYLE_BEGIN
 90
        2
 91
        1
300
_HEADER
309
CELLSTYLE_END
300
CELLSTYLE
  1
TABLEFORMAT_BEGIN
 90
        5
170
     1
 91
        0
 92
        0
 62
   257
 93
        1
300
CONTENTFORMAT
  1
CONTENTFORMAT_BEGIN
 90
        0
 91
        0
 92
      512
 93
        0
300

 40
0.0
140
1.0
 94
        7
 62
     3
340
11D
144
0.18
309
CONTENTFORMAT_END
171
     1
301
MARGIN
  1
CELLMARGIN_BEGIN
 40
0.5
 40
1.5
 40
0.06
 40
0.06
 40
0.18
 40
0.18
309
CELLMARGIN_END
 94
        6
 95
        1
302
GRIDFORMAT
  1
GRIDFORMAT_BEGIN
 90
        0
 91
        1
 62
     3
 92
       -2
340
14
 93
        0
 40
0.045
309
GRIDFORMAT_END
 95
        2
302
GRIDFORMAT
  1
GRIDFORMAT_BEGIN
 90
        0
 91
        1
 62
     7
 92
       -2
340
14
 93
        0
 40
0.045
309
GRIDFORMAT_END
 95
        4
302
GRIDFORMAT
  1
GRIDFORMAT_BEGIN
 90
        0
 91
        1
 62
     3
 92
       -2
340
14
 93
        0
 40
0.045
309
GRIDFORMAT_END
 95
        8
302
GRIDFORMAT
  1
GRIDFORMAT_BEGIN
 90
        0
 91
        1
 62
     3
 92
       -2
340
14
 93
        0
 40
0.045
309
GRIDFORMAT_END
 95
       16
302
GRIDFORMAT
  1
GRIDFORMAT_BEGIN
 90
        0
 91
        1
 62
     7
 92
       -2
340
14
 93
        0
 40
0.045
309
GRIDFORMAT_END
 95
       32
302
GRIDFORMAT
  1
GRIDFORMAT_BEGIN
 90
        0
 91
        1
 62
     3
 92
       -2
340
14
 93
        0
 40
0.045
309
GRIDFORMAT_END
309
TABLEFORMAT_END
  1
CELLSTYLE_BEGIN
 90
        3
 91
        2
300
_DATA
309
CELLSTYLE_END
  0
XRECORD
  5
9B3
102
{ACAD_REACTORS
330
77C
102
}
330
77C
100
AcDbXrecord
280
     1
102
ACAD_ROUNDTRIP_PRE2007_TABLESTYLE
 90
      512
 91
        0
  1

 92
      512
 93
        0
  2

 94
      512
 95
        0
  3

  0
XRECORD
  5
98A
102
{ACAD_REACTORS
330
989
102
}
330
989
100
AcDbXrecord
280
     1
102
RTVSPropertyOp0
 70
     1
102
RTVSPropertyOp1
 70
     1
102
RTVSPropertyOp2
 70
     1
102
RTVSPropertyOp3
 70
     1
102
RTVSPropertyOp4
 70
     1
102
RTVSPropertyOp5
 70
     1
102
RTVSPropertyOp6
 70
     1
102
RTVSPropertyOp7
 70
     1
102
RTVSPropertyOp8
 70
     1
102
RTVSPropertyOp9
 70
     1
102
RTVSPropertyOp10
 70
     1
102
RTVSPropertyOp11
 70
     1
102
RTVSPropertyOp12
 70
     1
102
RTVSPropertyOp13
 70
     1
102
RTVSPropertyOp14
 70
     1
102
RTVSPropertyOp15
 70
     1
102
RTVSPropertyOp16
 70
     1
102
RTVSPropertyOp17
 70
     1
102
RTVSPropertyOp18
 70
     1
102
RTVSPropertyOp19
 70
     1
102
RTVSPropertyOp20
 70
     1
102
RTVSPropertyOp21
 70
     1
102
RTVSPropertyOp22
 70
     1
102
RTVSPropertyOp23
 70
     1
102
RTVSPropertyOp24
 70
     1
102
RTVSPropertyOp25
 70
     1
102
RTVSPropertyOp26
 70
     1
102
RTVSPropertyOp27
 70
     1
102
RTVSPropertyOp28
 70
     1
102
RTVSPropertyOp29
 70
     1
102
RTVSPropertyOp30
 70
     1
102
RTVSPropertyOp31
 70
     1
102
RTVSPropertyOp32
 70
     1
  0
XRECORD
  5
98E
102
{ACAD_REACTORS
330
98D
102
}
330
98D
100
AcDbXrecord
280
     1
102
RTVSPropertyOp0
 70
     1
102
RTVSPropertyOp1
 70
     1
102
RTVSPropertyOp2
 70
     1
102
RTVSPropertyOp3
 70
     1
102
RTVSPropertyOp4
 70
     1
102
RTVSPropertyOp5
 70
     1
102
RTVSPropertyOp6
 70
     1
102
RTVSPropertyOp7
 70
     1
102
RTVSPropertyOp8
 70
     1
102
RTVSPropertyOp9
 70
     1
102
RTVSPropertyOp10
 70
     1
102
RTVSPropertyOp11
 70
     1
102
RTVSPropertyOp12
 70
     1
102
RTVSPropertyOp13
 70
     1
102
RTVSPropertyOp14
 70
     1
102
RTVSPropertyOp15
 70
     1
102
RTVSPropertyOp16
 70
     1
102
RTVSPropertyOp17
 70
     1
102
RTVSPropertyOp18
 70
     1
102
RTVSPropertyOp19
 70
     1
102
RTVSPropertyOp20
 70
     1
102
RTVSPropertyOp21
 70
     1
102
RTVSPropertyOp22
 70
     1
102
RTVSPropertyOp23
 70
     1
102
RTVSPropertyOp24
 70
     1
102
RTVSPropertyOp25
 70
     1
102
RTVSPropertyOp26
 70
     1
102
RTVSPropertyOp27
 70
     1
102
RTVSPropertyOp28
 70
     1
102
RTVSPropertyOp29
 70
     1
102
RTVSPropertyOp30
 70
     1
102
RTVSPropertyOp31
 70
     1
102
RTVSPropertyOp32
 70
     1
  0
XRECORD
  5
98C
102
{ACAD_REACTORS
330
98B
102
}
330
98B
100
AcDbXrecord
280
     1
102
RTVSPropertyOp0
 70
     1
102
RTVSPropertyOp1
 70
     1
102
RTVSPropertyOp2
 70
     1
102
RTVSPropertyOp3
 70
     1
102
RTVSPropertyOp4
 70
     1
102
RTVSPropertyOp5
 70
     1
102
RTVSPropertyOp6
 70
     1
102
RTVSPropertyOp7
 70
     1
102
RTVSPropertyOp8
 70
     1
102
RTVSPropertyOp9
 70
     1
102
RTVSPropertyOp10
 70
     1
102
RTVSPropertyOp11
 70
     1
102
RTVSPropertyOp12
 70
     1
102
RTVSPropertyOp13
 70
     1
102
RTVSPropertyOp14
 70
     1
102
RTVSPropertyOp15
 70
     1
102
RTVSPropertyOp16
 70
     1
102
RTVSPropertyOp17
 70
     1
102
RTVSPropertyOp18
 70
     1
102
RTVSPropertyOp19
 70
     1
102
RTVSPropertyOp20
 70
     1
102
RTVSPropertyOp21
 70
     1
102
RTVSPropertyOp22
 70
     1
102
RTVSPropertyOp23
 70
     1
102
RTVSPropertyOp24
 70
     1
102
RTVSPropertyOp25
 70
     1
102
RTVSPropertyOp26
 70
     1
102
RTVSPropertyOp27
 70
     1
102
RTVSPropertyOp28
 70
     1
102
RTVSPropertyOp29
 70
     1
102
RTVSPropertyOp30
 70
     1
102
RTVSPropertyOp31
 70
     1
102
RTVSPropertyOp32
 70
     1
  0
XRECORD
  5
988
102
{ACAD_REACTORS
330
987
102
}
330
987
100
AcDbXrecord
280
     1
102
RTVSPropertyOp0
 70
     1
102
RTVSPropertyOp1
 70
     1
102
RTVSPropertyOp2
 70
     1
102
RTVSPropertyOp3
 70
     1
102
RTVSPropertyOp4
 70
     1
102
RTVSPropertyOp5
 70
     1
102
RTVSPropertyOp6
 70
     1
102
RTVSPropertyOp7
 70
     1
102
RTVSPropertyOp8
 70
     1
102
RTVSPropertyOp9
 70
     1
102
RTVSPropertyOp10
 70
     1
102
RTVSPropertyOp11
 70
     1
102
RTVSPropertyOp12
 70
     1
102
RTVSPropertyOp13
 70
     1
102
RTVSPropertyOp14
 70
     1
102
RTVSPropertyOp15
 70
     1
102
RTVSPropertyOp16
 70
     1
102
RTVSPropertyOp17
 70
     1
102
RTVSPropertyOp18
 70
     1
102
RTVSPropertyOp19
 70
     1
102
RTVSPropertyOp20
 70
     1
102
RTVSPropertyOp21
 70
     1
102
RTVSPropertyOp22
 70
     1
102
RTVSPropertyOp23
 70
     1
102
RTVSPropertyOp24
 70
     1
102
RTVSPropertyOp25
 70
     1
102
RTVSPropertyOp26
 70
     1
102
RTVSPropertyOp27
 70
     1
102
RTVSPropertyOp28
 70
     1
102
RTVSPropertyOp29
 70
     1
102
RTVSPropertyOp30
 70
     1
102
RTVSPropertyOp31
 70
     1
102
RTVSPropertyOp32
 70
     1
  0
XRECORD
  5
996
102
{ACAD_REACTORS
330
995
102
}
330
995
100
AcDbXrecord
280
     1
102
RTVSPropertyOp0
 70
     1
102
RTVSPropertyOp1
 70
     1
102
RTVSPropertyOp2
 70
     1
102
RTVSPropertyOp3
 70
     1
102
RTVSPropertyOp4
 70
     1
102
RTVSPropertyOp5
 70
     1
102
RTVSPropertyOp6
 70
     1
102
RTVSPropertyOp7
 70
     1
102
RTVSPropertyOp8
 70
     1
102
RTVSPropertyOp9
 70
     1
102
RTVSPropertyOp10
 70
     1
102
RTVSPropertyOp11
 70
     1
102
RTVSPropertyOp12
 70
     1
102
RTVSPropertyOp13
 70
     1
102
RTVSPropertyOp14
 70
     1
102
RTVSPropertyOp15
 70
     1
102
RTVSPropertyOp16
 70
     1
102
RTVSPropertyOp17
 70
     1
102
RTVSPropertyOp18
 70
     1
102
RTVSPropertyOp19
 70
     1
102
RTVSPropertyOp20
 70
     1
102
RTVSPropertyOp21
 70
     1
102
RTVSPropertyOp22
 70
     1
102
RTVSPropertyOp23
 70
     1
102
RTVSPropertyOp24
 70
     1
102
RTVSPropertyOp25
 70
     1
102
RTVSPropertyOp26
 70
     1
102
RTVSPropertyOp27
 70
     1
102
RTVSPropertyOp28
 70
     1
102
RTVSPropertyOp29
 70
     1
102
RTVSPropertyOp30
 70
     1
102
RTVSPropertyOp31
 70
     1
102
RTVSPropertyOp32
 70
     1
  0
XRECORD
  5
99E
102
{ACAD_REACTORS
330
99D
102
}
330
99D
100
AcDbXrecord
280
     1
102
RTVSPropertyOp0
 70
     1
102
RTVSPropertyOp1
 70
     1
102
RTVSPropertyOp2
 70
     1
102
RTVSPropertyOp3
 70
     1
102
RTVSPropertyOp4
 70
     1
102
RTVSPropertyOp5
 70
     1
102
RTVSPropertyOp6
 70
     1
102
RTVSPropertyOp7
 70
     1
102
RTVSPropertyOp8
 70
     1
102
RTVSPropertyOp9
 70
     1
102
RTVSPropertyOp10
 70
     1
102
RTVSPropertyOp11
 70
     1
102
RTVSPropertyOp12
 70
     1
102
RTVSPropertyOp13
 70
     1
102
RTVSPropertyOp14
 70
     1
102
RTVSPropertyOp15
 70
     1
102
RTVSPropertyOp16
 70
     1
102
RTVSPropertyOp17
 70
     1
102
RTVSPropertyOp18
 70
     1
102
RTVSPropertyOp19
 70
     1
102
RTVSPropertyOp20
 70
     1
102
RTVSPropertyOp21
 70
     1
102
RTVSPropertyOp22
 70
     1
102
RTVSPropertyOp23
 70
     1
102
RTVSPropertyOp24
 70
     1
102
RTVSPropertyOp25
 70
     1
102
RTVSPropertyOp26
 70
     1
102
RTVSPropertyOp27
 70
     1
102
RTVSPropertyOp28
 70
     1
102
RTVSPropertyOp29
 70
     1
102
RTVSPropertyOp30
 70
     1
102
RTVSPropertyOp31
 70
     1
102
RTVSPropertyOp32
 70
     1
  0
XRECORD
  5
990
102
{ACAD_REACTORS
330
98F
102
}
330
98F
100
AcDbXrecord
280
     1
102
RTVSPropertyOp0
 70
     1
102
RTVSPropertyOp1
 70
     1
102
RTVSPropertyOp2
 70
     1
102
RTVSPropertyOp3
 70
     1
102
RTVSPropertyOp4
 70
     1
102
RTVSPropertyOp5
 70
     1
102
RTVSPropertyOp6
 70
     1
102
RTVSPropertyOp7
 70
     1
102
RTVSPropertyOp8
 70
     1
102
RTVSPropertyOp9
 70
     1
102
RTVSPropertyOp10
 70
     1
102
RTVSPropertyOp11
 70
     1
102
RTVSPropertyOp12
 70
     1
102
RTVSPropertyOp13
 70
     1
102
RTVSPropertyOp14
 70
     1
102
RTVSPropertyOp15
 70
     1
102
RTVSPropertyOp16
 70
     1
102
RTVSPropertyOp17
 70
     1
102
RTVSPropertyOp18
 70
     1
102
RTVSPropertyOp19
 70
     1
102
RTVSPropertyOp20
 70
     1
102
RTVSPropertyOp21
 70
     1
102
RTVSPropertyOp22
 70
     1
102
RTVSPropertyOp23
 70
     1
102
RTVSPropertyOp24
 70
     1
102
RTVSPropertyOp25
 70
     1
102
RTVSPropertyOp26
 70
     1
102
RTVSPropertyOp27
 70
     1
102
RTVSPropertyOp28
 70
     1
102
RTVSPropertyOp29
 70
     1
102
RTVSPropertyOp30
 70
     1
102
RTVSPropertyOp31
 70
     1
102
RTVSPropertyOp32
 70
     1
  0
XRECORD
  5
994
102
{ACAD_REACTORS
330
993
102
}
330
993
100
AcDbXrecord
280
     1
102
RTVSPropertyOp0
 70
     1
102
RTVSPropertyOp1
 70
     1
102
RTVSPropertyOp2
 70
     1
102
RTVSPropertyOp3
 70
     1
102
RTVSPropertyOp4
 70
     1
102
RTVSPropertyOp5
 70
     1
102
RTVSPropertyOp6
 70
     1
102
RTVSPropertyOp7
 70
     1
102
RTVSPropertyOp8
 70
     1
102
RTVSPropertyOp9
 70
     1
102
RTVSPropertyOp10
 70
     1
102
RTVSPropertyOp11
 70
     1
102
RTVSPropertyOp12
 70
     1
102
RTVSPropertyOp13
 70
     1
102
RTVSPropertyOp14
 70
     1
102
RTVSPropertyOp15
 70
     1
102
RTVSPropertyOp16
 70
     1
102
RTVSPropertyOp17
 70
     1
102
RTVSPropertyOp18
 70
     1
102
RTVSPropertyOp19
 70
     1
102
RTVSPropertyOp20
 70
     1
102
RTVSPropertyOp21
 70
     1
102
RTVSPropertyOp22
 70
     1
102
RTVSPropertyOp23
 70
     1
102
RTVSPropertyOp24
 70
     1
102
RTVSPropertyOp25
 70
     1
102
RTVSPropertyOp26
 70
     1
102
RTVSPropertyOp27
 70
     1
102
RTVSPropertyOp28
 70
     1
102
RTVSPropertyOp29
 70
     1
102
RTVSPropertyOp30
 70
     1
102
RTVSPropertyOp31
 70
     1
102
RTVSPropertyOp32
 70
     1
  0
XRECORD
  5
9B2
102
{ACAD_REACTORS
330
9B1
102
}
330
9B1
100
AcDbXrecord
280
     1
102
RTVSPropertyOp0
 70
     0
102
RTVSPropertyOp1
 70
     0
102
RTVSPropertyOp2
 70
     0
102
RTVSPropertyOp3
 70
     0
102
RTVSPropertyOp4
 70
     0
102
RTVSPropertyOp5
 70
     0
102
RTVSPropertyOp6
 70
     0
102
RTVSPropertyOp7
 70
     0
102
RTVSPropertyOp8
 70
     0
102
RTVSPropertyOp9
 70
     0
102
RTVSPropertyOp10
 70
     0
102
RTVSPropertyOp11
 70
     0
102
RTVSPropertyOp12
 70
     0
102
RTVSPropertyOp13
 70
     0
102
RTVSPropertyOp14
 70
     2
102
RTVSPropertyOp15
 70
     0
102
RTVSPropertyOp16
 70
     0
102
RTVSPropertyOp17
 70
     0
102
RTVSPropertyOp18
 70
     0
102
RTVSPropertyOp19
 70
     0
102
RTVSPropertyOp20
 70
     0
102
RTVSPropertyOp21
 70
     0
102
RTVSPropertyOp22
 70
     0
102
RTVSPropertyOp23
 70
     0
102
RTVSPropertyOp24
 70
     0
102
RTVSPropertyOp25
 70
     0
102
RTVSPropertyOp26
 70
     0
102
RTVSPropertyOp27
 70
     0
102
RTVSPropertyOp28
 70
     1
102
RTVSPropertyOp29
 70
     1
102
RTVSPropertyOp30
 70
     1
102
RTVSPropertyOp31
 70
     1
102
RTVSPropertyOp32
 70
     1
  0
XRECORD
  5
99C
102
{ACAD_REACTORS
330
99B
102
}
330
99B
100
AcDbXrecord
280
     1
102
RTVSPropertyOp0
 70
     1
102
RTVSPropertyOp1
 70
     1
102
RTVSPropertyOp2
 70
     1
102
RTVSPropertyOp3
 70
     1
102
RTVSPropertyOp4
 70
     1
102
RTVSPropertyOp5
 70
     1
102
RTVSPropertyOp6
 70
     1
102
RTVSPropertyOp7
 70
     1
102
RTVSPropertyOp8
 70
     1
102
RTVSPropertyOp9
 70
     1
102
RTVSPropertyOp10
 70
     1
102
RTVSPropertyOp11
 70
     1
102
RTVSPropertyOp12
 70
     1
102
RTVSPropertyOp13
 70
     1
102
RTVSPropertyOp14
 70
     1
102
RTVSPropertyOp15
 70
     1
102
RTVSPropertyOp16
 70
     1
102
RTVSPropertyOp17
 70
     1
102
RTVSPropertyOp18
 70
     1
102
RTVSPropertyOp19
 70
     1
102
RTVSPropertyOp20
 70
     1
102
RTVSPropertyOp21
 70
     1
102
RTVSPropertyOp22
 70
     1
102
RTVSPropertyOp23
 70
     1
102
RTVSPropertyOp24
 70
     1
102
RTVSPropertyOp25
 70
     1
102
RTVSPropertyOp26
 70
     1
102
RTVSPropertyOp27
 70
     1
102
RTVSPropertyOp28
 70
     1
102
RTVSPropertyOp29
 70
     1
102
RTVSPropertyOp30
 70
     1
102
RTVSPropertyOp31
 70
     1
102
RTVSPropertyOp32
 70
     1
  0
XRECORD
  5
980
102
{ACAD_REACTORS
330
97F
102
}
330
97F
100
AcDbXrecord
280
     1
102
RTVSPropertyOp0
 70
     1
102
RTVSPropertyOp1
 70
     1
102
RTVSPropertyOp2
 70
     1
102
RTVSPropertyOp3
 70
     1
102
RTVSPropertyOp4
 70
     1
102
RTVSPropertyOp5
 70
     1
102
RTVSPropertyOp6
 70
     1
102
RTVSPropertyOp7
 70
     1
102
RTVSPropertyOp8
 70
     1
102
RTVSPropertyOp9
 70
     1
102
RTVSPropertyOp10
 70
     1
102
RTVSPropertyOp11
 70
     1
102
RTVSPropertyOp12
 70
     1
102
RTVSPropertyOp13
 70
     1
102
RTVSPropertyOp14
 70
     1
102
RTVSPropertyOp15
 70
     1
102
RTVSPropertyOp16
 70
     1
102
RTVSPropertyOp17
 70
     1
102
RTVSPropertyOp18
 70
     1
102
RTVSPropertyOp19
 70
     1
102
RTVSPropertyOp20
 70
     1
102
RTVSPropertyOp21
 70
     1
102
RTVSPropertyOp22
 70
     1
102
RTVSPropertyOp23
 70
     1
102
RTVSPropertyOp24
 70
     1
102
RTVSPropertyOp25
 70
     1
102
RTVSPropertyOp26
 70
     1
102
RTVSPropertyOp27
 70
     1
102
RTVSPropertyOp28
 70
     1
102
RTVSPropertyOp29
 70
     1
102
RTVSPropertyOp30
 70
     1
102
RTVSPropertyOp31
 70
     1
102
RTVSPropertyOp32
 70
     1
  0
XRECORD
  5
982
102
{ACAD_REACTORS
330
981
102
}
330
981
100
AcDbXrecord
280
     1
102
RTVSPropertyOp0
 70
     1
102
RTVSPropertyOp1
 70
     1
102
RTVSPropertyOp2
 70
     1
102
RTVSPropertyOp3
 70
     1
102
RTVSPropertyOp4
 70
     1
102
RTVSPropertyOp5
 70
     1
102
RTVSPropertyOp6
 70
     1
102
RTVSPropertyOp7
 70
     1
102
RTVSPropertyOp8
 70
     1
102
RTVSPropertyOp9
 70
     1
102
RTVSPropertyOp10
 70
     1
102
RTVSPropertyOp11
 70
     1
102
RTVSPropertyOp12
 70
     1
102
RTVSPropertyOp13
 70
     1
102
RTVSPropertyOp14
 70
     1
102
RTVSPropertyOp15
 70
     1
102
RTVSPropertyOp16
 70
     1
102
RTVSPropertyOp17
 70
     1
102
RTVSPropertyOp18
 70
     1
102
RTVSPropertyOp19
 70
     1
102
RTVSPropertyOp20
 70
     1
102
RTVSPropertyOp21
 70
     1
102
RTVSPropertyOp22
 70
     1
102
RTVSPropertyOp23
 70
     1
102
RTVSPropertyOp24
 70
     1
102
RTVSPropertyOp25
 70
     1
102
RTVSPropertyOp26
 70
     1
102
RTVSPropertyOp27
 70
     1
102
RTVSPropertyOp28
 70
     1
102
RTVSPropertyOp29
 70
     1
102
RTVSPropertyOp30
 70
     1
102
RTVSPropertyOp31
 70
     1
102
RTVSPropertyOp32
 70
     1
  0
XRECORD
  5
984
102
{ACAD_REACTORS
330
983
102
}
330
983
100
AcDbXrecord
280
     1
102
RTVSPropertyOp0
 70
     1
102
RTVSPropertyOp1
 70
     1
102
RTVSPropertyOp2
 70
     1
102
RTVSPropertyOp3
 70
     1
102
RTVSPropertyOp4
 70
     1
102
RTVSPropertyOp5
 70
     1
102
RTVSPropertyOp6
 70
     1
102
RTVSPropertyOp7
 70
     1
102
RTVSPropertyOp8
 70
     1
102
RTVSPropertyOp9
 70
     1
102
RTVSPropertyOp10
 70
     1
102
RTVSPropertyOp11
 70
     1
102
RTVSPropertyOp12
 70
     1
102
RTVSPropertyOp13
 70
     1
102
RTVSPropertyOp14
 70
     1
102
RTVSPropertyOp15
 70
     1
102
RTVSPropertyOp16
 70
     1
102
RTVSPropertyOp17
 70
     1
102
RTVSPropertyOp18
 70
     1
102
RTVSPropertyOp19
 70
     1
102
RTVSPropertyOp20
 70
     1
102
RTVSPropertyOp21
 70
     1
102
RTVSPropertyOp22
 70
     1
102
RTVSPropertyOp23
 70
     1
102
RTVSPropertyOp24
 70
     1
102
RTVSPropertyOp25
 70
     1
102
RTVSPropertyOp26
 70
     1
102
RTVSPropertyOp27
 70
     1
102
RTVSPropertyOp28
 70
     1
102
RTVSPropertyOp29
 70
     1
102
RTVSPropertyOp30
 70
     1
102
RTVSPropertyOp31
 70
     1
102
RTVSPropertyOp32
 70
     1
  0
XRECORD
  5
986
102
{ACAD_REACTORS
330
985
102
}
330
985
100
AcDbXrecord
280
     1
102
RTVSPropertyOp0
 70
     1
102
RTVSPropertyOp1
 70
     1
102
RTVSPropertyOp2
 70
     1
102
RTVSPropertyOp3
 70
     1
102
RTVSPropertyOp4
 70
     1
102
RTVSPropertyOp5
 70
     1
102
RTVSPropertyOp6
 70
     1
102
RTVSPropertyOp7
 70
     1
102
RTVSPropertyOp8
 70
     1
102
RTVSPropertyOp9
 70
     1
102
RTVSPropertyOp10
 70
     1
102
RTVSPropertyOp11
 70
     1
102
RTVSPropertyOp12
 70
     1
102
RTVSPropertyOp13
 70
     1
102
RTVSPropertyOp14
 70
     1
102
RTVSPropertyOp15
 70
     1
102
RTVSPropertyOp16
 70
     1
102
RTVSPropertyOp17
 70
     1
102
RTVSPropertyOp18
 70
     1
102
RTVSPropertyOp19
 70
     1
102
RTVSPropertyOp20
 70
     1
102
RTVSPropertyOp21
 70
     1
102
RTVSPropertyOp22
 70
     1
102
RTVSPropertyOp23
 70
     1
102
RTVSPropertyOp24
 70
     1
102
RTVSPropertyOp25
 70
     1
102
RTVSPropertyOp26
 70
     1
102
RTVSPropertyOp27
 70
     1
102
RTVSPropertyOp28
 70
     1
102
RTVSPropertyOp29
 70
     1
102
RTVSPropertyOp30
 70
     1
102
RTVSPropertyOp31
 70
     1
102
RTVSPropertyOp32
 70
     1
  0
XRECORD
  5
9A2
102
{ACAD_REACTORS
330
9A1
102
}
330
9A1
100
AcDbXrecord
280
     1
102
RTVSPropertyOp0
 70
     1
102
RTVSPropertyOp1
 70
     1
102
RTVSPropertyOp2
 70
     1
102
RTVSPropertyOp3
 70
     1
102
RTVSPropertyOp4
 70
     1
102
RTVSPropertyOp5
 70
     1
102
RTVSPropertyOp6
 70
     1
102
RTVSPropertyOp7
 70
     1
102
RTVSPropertyOp8
 70
     1
102
RTVSPropertyOp9
 70
     1
102
RTVSPropertyOp10
 70
     1
102
RTVSPropertyOp11
 70
     1
102
RTVSPropertyOp12
 70
     1
102
RTVSPropertyOp13
 70
     1
102
RTVSPropertyOp14
 70
     1
102
RTVSPropertyOp15
 70
     1
102
RTVSPropertyOp16
 70
     1
102
RTVSPropertyOp17
 70
     1
102
RTVSPropertyOp18
 70
     1
102
RTVSPropertyOp19
 70
     1
102
RTVSPropertyOp20
 70
     1
102
RTVSPropertyOp21
 70
     1
102
RTVSPropertyOp22
 70
     1
102
RTVSPropertyOp23
 70
     1
102
RTVSPropertyOp24
 70
     1
102
RTVSPropertyOp25
 70
     1
102
RTVSPropertyOp26
 70
     1
102
RTVSPropertyOp27
 70
     1
102
RTVSPropertyOp28
 70
     1
102
RTVSPropertyOp29
 70
     1
102
RTVSPropertyOp30
 70
     1
102
RTVSPropertyOp31
 70
     1
102
RTVSPropertyOp32
 70
     1
  0
XRECORD
  5
9AE
102
{ACAD_REACTORS
330
9AD
102
}
330
9AD
100
AcDbXrecord
280
     1
102
RTVSPropertyOp0
 70
     0
102
RTVSPropertyOp1
 70
     0
102
RTVSPropertyOp2
 70
     0
102
RTVSPropertyOp3
 70
     0
102
RTVSPropertyOp4
 70
     0
102
RTVSPropertyOp5
 70
     0
102
RTVSPropertyOp6
 70
     0
102
RTVSPropertyOp7
 70
     0
102
RTVSPropertyOp8
 70
     0
102
RTVSPropertyOp9
 70
     0
102
RTVSPropertyOp10
 70
     0
102
RTVSPropertyOp11
 70
     0
102
RTVSPropertyOp12
 70
     0
102
RTVSPropertyOp13
 70
     0
102
RTVSPropertyOp14
 70
     2
102
RTVSPropertyOp15
 70
     0
102
RTVSPropertyOp16
 70
     0
102
RTVSPropertyOp17
 70
     0
102
RTVSPropertyOp18
 70
     0
102
RTVSPropertyOp19
 70
     0
102
RTVSPropertyOp20
 70
     0
102
RTVSPropertyOp21
 70
     0
102
RTVSPropertyOp22
 70
     0
102
RTVSPropertyOp23
 70
     0
102
RTVSPropertyOp24
 70
     0
102
RTVSPropertyOp25
 70
     0
102
RTVSPropertyOp26
 70
     0
102
RTVSPropertyOp27
 70
     0
102
RTVSPropertyOp28
 70
     1
102
RTVSPropertyOp29
 70
     1
102
RTVSPropertyOp30
 70
     1
102
RTVSPropertyOp31
 70
     1
102
RTVSPropertyOp32
 70
     1
  0
XRECORD
  5
99A
102
{ACAD_REACTORS
330
999
102
}
330
999
100
AcDbXrecord
280
     1
102
RTVSPropertyOp0
 70
     1
102
RTVSPropertyOp1
 70
     1
102
RTVSPropertyOp2
 70
     1
102
RTVSPropertyOp3
 70
     1
102
RTVSPropertyOp4
 70
     1
102
RTVSPropertyOp5
 70
     1
102
RTVSPropertyOp6
 70
     1
102
RTVSPropertyOp7
 70
     1
102
RTVSPropertyOp8
 70
     1
102
RTVSPropertyOp9
 70
     1
102
RTVSPropertyOp10
 70
     1
102
RTVSPropertyOp11
 70
     1
102
RTVSPropertyOp12
 70
     1
102
RTVSPropertyOp13
 70
     1
102
RTVSPropertyOp14
 70
     1
102
RTVSPropertyOp15
 70
     1
102
RTVSPropertyOp16
 70
     1
102
RTVSPropertyOp17
 70
     1
102
RTVSPropertyOp18
 70
     1
102
RTVSPropertyOp19
 70
     1
102
RTVSPropertyOp20
 70
     1
102
RTVSPropertyOp21
 70
     1
102
RTVSPropertyOp22
 70
     1
102
RTVSPropertyOp23
 70
     1
102
RTVSPropertyOp24
 70
     1
102
RTVSPropertyOp25
 70
     1
102
RTVSPropertyOp26
 70
     1
102
RTVSPropertyOp27
 70
     1
102
RTVSPropertyOp28
 70
     1
102
RTVSPropertyOp29
 70
     1
102
RTVSPropertyOp30
 70
     1
102
RTVSPropertyOp31
 70
     1
102
RTVSPropertyOp32
 70
     1
  0
XRECORD
  5
9B0
102
{ACAD_REACTORS
330
9AF
102
}
330
9AF
100
AcDbXrecord
280
     1
102
RTVSPropertyOp0
 70
     0
102
RTVSPropertyOp1
 70
     0
102
RTVSPropertyOp2
 70
     0
102
RTVSPropertyOp3
 70
     0
102
RTVSPropertyOp4
 70
     0
102
RTVSPropertyOp5
 70
     0
102
RTVSPropertyOp6
 70
     0
102
RTVSPropertyOp7
 70
     0
102
RTVSPropertyOp8
 70
     0
102
RTVSPropertyOp9
 70
     0
102
RTVSPropertyOp10
 70
     0
102
RTVSPropertyOp11
 70
     0
102
RTVSPropertyOp12
 70
     0
102
RTVSPropertyOp13
 70
     0
102
RTVSPropertyOp14
 70
     2
102
RTVSPropertyOp15
 70
     0
102
RTVSPropertyOp16
 70
     0
102
RTVSPropertyOp17
 70
     0
102
RTVSPropertyOp18
 70
     0
102
RTVSPropertyOp19
 70
     0
102
RTVSPropertyOp20
 70
     0
102
RTVSPropertyOp21
 70
     0
102
RTVSPropertyOp22
 70
     0
102
RTVSPropertyOp23
 70
     0
102
RTVSPropertyOp24
 70
     0
102
RTVSPropertyOp25
 70
     0
102
RTVSPropertyOp26
 70
     0
102
RTVSPropertyOp27
 70
     0
102
RTVSPropertyOp28
 70
     1
102
RTVSPropertyOp29
 70
     1
102
RTVSPropertyOp30
 70
     1
102
RTVSPropertyOp31
 70
     1
102
RTVSPropertyOp32
 70
     1
  0
XRECORD
  5
992
102
{ACAD_REACTORS
330
991
102
}
330
991
100
AcDbXrecord
280
     1
102
RTVSPropertyOp0
 70
     1
102
RTVSPropertyOp1
 70
     1
102
RTVSPropertyOp2
 70
     1
102
RTVSPropertyOp3
 70
     1
102
RTVSPropertyOp4
 70
     1
102
RTVSPropertyOp5
 70
     1
102
RTVSPropertyOp6
 70
     1
102
RTVSPropertyOp7
 70
     1
102
RTVSPropertyOp8
 70
     1
102
RTVSPropertyOp9
 70
     1
102
RTVSPropertyOp10
 70
     1
102
RTVSPropertyOp11
 70
     1
102
RTVSPropertyOp12
 70
     1
102
RTVSPropertyOp13
 70
     1
102
RTVSPropertyOp14
 70
     1
102
RTVSPropertyOp15
 70
     1
102
RTVSPropertyOp16
 70
     1
102
RTVSPropertyOp17
 70
     1
102
RTVSPropertyOp18
 70
     1
102
RTVSPropertyOp19
 70
     1
102
RTVSPropertyOp20
 70
     1
102
RTVSPropertyOp21
 70
     1
102
RTVSPropertyOp22
 70
     1
102
RTVSPropertyOp23
 70
     1
102
RTVSPropertyOp24
 70
     1
102
RTVSPropertyOp25
 70
     1
102
RTVSPropertyOp26
 70
     1
102
RTVSPropertyOp27
 70
     1
102
RTVSPropertyOp28
 70
     1
102
RTVSPropertyOp29
 70
     1
102
RTVSPropertyOp30
 70
     1
102
RTVSPropertyOp31
 70
     1
102
RTVSPropertyOp32
 70
     1
  0
XRECORD
  5
9AC
102
{ACAD_REACTORS
330
9AB
102
}
330
9AB
100
AcDbXrecord
280
     1
102
RTVSPropertyOp0
 70
     1
102
RTVSPropertyOp1
 70
     1
102
RTVSPropertyOp2
 70
     1
102
RTVSPropertyOp3
 70
     1
102
RTVSPropertyOp4
 70
     1
102
RTVSPropertyOp5
 70
     1
102
RTVSPropertyOp6
 70
     1
102
RTVSPropertyOp7
 70
     1
102
RTVSPropertyOp8
 70
     1
102
RTVSPropertyOp9
 70
     1
102
RTVSPropertyOp10
 70
     1
102
RTVSPropertyOp11
 70
     1
102
RTVSPropertyOp12
 70
     1
102
RTVSPropertyOp13
 70
     1
102
RTVSPropertyOp14
 70
     1
102
RTVSPropertyOp15
 70
     1
102
RTVSPropertyOp16
 70
     1
102
RTVSPropertyOp17
 70
     1
102
RTVSPropertyOp18
 70
     1
102
RTVSPropertyOp19
 70
     1
102
RTVSPropertyOp20
 70
     1
102
RTVSPropertyOp21
 70
     1
102
RTVSPropertyOp22
 70
     1
102
RTVSPropertyOp23
 70
     1
102
RTVSPropertyOp24
 70
     1
102
RTVSPropertyOp25
 70
     1
102
RTVSPropertyOp26
 70
     1
102
RTVSPropertyOp27
 70
     1
102
RTVSPropertyOp28
 70
     1
102
RTVSPropertyOp29
 70
     1
102
RTVSPropertyOp30
 70
     1
102
RTVSPropertyOp31
 70
     1
102
RTVSPropertyOp32
 70
     1
  0
XRECORD
  5
9AA
102
{ACAD_REACTORS
330
9A9
102
}
330
9A9
100
AcDbXrecord
280
     1
102
RTVSPropertyOp0
 70
     1
102
RTVSPropertyOp1
 70
     1
102
RTVSPropertyOp2
 70
     1
102
RTVSPropertyOp3
 70
     1
102
RTVSPropertyOp4
 70
     1
102
RTVSPropertyOp5
 70
     1
102
RTVSPropertyOp6
 70
     1
102
RTVSPropertyOp7
 70
     1
102
RTVSPropertyOp8
 70
     1
102
RTVSPropertyOp9
 70
     1
102
RTVSPropertyOp10
 70
     1
102
RTVSPropertyOp11
 70
     1
102
RTVSPropertyOp12
 70
     1
102
RTVSPropertyOp13
 70
     1
102
RTVSPropertyOp14
 70
     1
102
RTVSPropertyOp15
 70
     1
102
RTVSPropertyOp16
 70
     1
102
RTVSPropertyOp17
 70
     1
102
RTVSPropertyOp18
 70
     1
102
RTVSPropertyOp19
 70
     1
102
RTVSPropertyOp20
 70
     1
102
RTVSPropertyOp21
 70
     1
102
RTVSPropertyOp22
 70
     1
102
RTVSPropertyOp23
 70
     1
102
RTVSPropertyOp24
 70
     1
102
RTVSPropertyOp25
 70
     1
102
RTVSPropertyOp26
 70
     1
102
RTVSPropertyOp27
 70
     1
102
RTVSPropertyOp28
 70
     1
102
RTVSPropertyOp29
 70
     1
102
RTVSPropertyOp30
 70
     1
102
RTVSPropertyOp31
 70
     1
102
RTVSPropertyOp32
 70
     1
  0
XRECORD
  5
9A4
102
{ACAD_REACTORS
330
9A3
102
}
330
9A3
100
AcDbXrecord
280
     1
102
RTVSPropertyOp0
 70
     1
102
RTVSPropertyOp1
 70
     1
102
RTVSPropertyOp2
 70
     1
102
RTVSPropertyOp3
 70
     1
102
RTVSPropertyOp4
 70
     1
102
RTVSPropertyOp5
 70
     1
102
RTVSPropertyOp6
 70
     1
102
RTVSPropertyOp7
 70
     1
102
RTVSPropertyOp8
 70
     1
102
RTVSPropertyOp9
 70
     1
102
RTVSPropertyOp10
 70
     1
102
RTVSPropertyOp11
 70
     1
102
RTVSPropertyOp12
 70
     1
102
RTVSPropertyOp13
 70
     1
102
RTVSPropertyOp14
 70
     1
102
RTVSPropertyOp15
 70
     1
102
RTVSPropertyOp16
 70
     1
102
RTVSPropertyOp17
 70
     1
102
RTVSPropertyOp18
 70
     1
102
RTVSPropertyOp19
 70
     1
102
RTVSPropertyOp20
 70
     1
102
RTVSPropertyOp21
 70
     1
102
RTVSPropertyOp22
 70
     1
102
RTVSPropertyOp23
 70
     1
102
RTVSPropertyOp24
 70
     1
102
RTVSPropertyOp25
 70
     1
102
RTVSPropertyOp26
 70
     1
102
RTVSPropertyOp27
 70
     1
102
RTVSPropertyOp28
 70
     1
102
RTVSPropertyOp29
 70
     1
102
RTVSPropertyOp30
 70
     1
102
RTVSPropertyOp31
 70
     1
102
RTVSPropertyOp32
 70
     1
  0
XRECORD
  5
9A6
102
{ACAD_REACTORS
330
9A5
102
}
330
9A5
100
AcDbXrecord
280
     1
102
RTVSPropertyOp0
 70
     1
102
RTVSPropertyOp1
 70
     1
102
RTVSPropertyOp2
 70
     1
102
RTVSPropertyOp3
 70
     1
102
RTVSPropertyOp4
 70
     1
102
RTVSPropertyOp5
 70
     1
102
RTVSPropertyOp6
 70
     1
102
RTVSPropertyOp7
 70
     1
102
RTVSPropertyOp8
 70
     1
102
RTVSPropertyOp9
 70
     1
102
RTVSPropertyOp10
 70
     1
102
RTVSPropertyOp11
 70
     1
102
RTVSPropertyOp12
 70
     1
102
RTVSPropertyOp13
 70
     1
102
RTVSPropertyOp14
 70
     1
102
RTVSPropertyOp15
 70
     1
102
RTVSPropertyOp16
 70
     1
102
RTVSPropertyOp17
 70
     1
102
RTVSPropertyOp18
 70
     1
102
RTVSPropertyOp19
 70
     1
102
RTVSPropertyOp20
 70
     1
102
RTVSPropertyOp21
 70
     1
102
RTVSPropertyOp22
 70
     1
102
RTVSPropertyOp23
 70
     1
102
RTVSPropertyOp24
 70
     1
102
RTVSPropertyOp25
 70
     1
102
RTVSPropertyOp26
 70
     1
102
RTVSPropertyOp27
 70
     1
102
RTVSPropertyOp28
 70
     1
102
RTVSPropertyOp29
 70
     1
102
RTVSPropertyOp30
 70
     1
102
RTVSPropertyOp31
 70
     1
102
RTVSPropertyOp32
 70
     1
  0
XRECORD
  5
998
102
{ACAD_REACTORS
330
997
102
}
330
997
100
AcDbXrecord
280
     1
102
RTVSPropertyOp0
 70
     1
102
RTVSPropertyOp1
 70
     1
102
RTVSPropertyOp2
 70
     1
102
RTVSPropertyOp3
 70
     1
102
RTVSPropertyOp4
 70
     1
102
RTVSPropertyOp5
 70
     1
102
RTVSPropertyOp6
 70
     1
102
RTVSPropertyOp7
 70
     1
102
RTVSPropertyOp8
 70
     1
102
RTVSPropertyOp9
 70
     1
102
RTVSPropertyOp10
 70
     1
102
RTVSPropertyOp11
 70
     1
102
RTVSPropertyOp12
 70
     1
102
RTVSPropertyOp13
 70
     1
102
RTVSPropertyOp14
 70
     1
102
RTVSPropertyOp15
 70
     1
102
RTVSPropertyOp16
 70
     1
102
RTVSPropertyOp17
 70
     1
102
RTVSPropertyOp18
 70
     1
102
RTVSPropertyOp19
 70
     1
102
RTVSPropertyOp20
 70
     1
102
RTVSPropertyOp21
 70
     1
102
RTVSPropertyOp22
 70
     1
102
RTVSPropertyOp23
 70
     1
102
RTVSPropertyOp24
 70
     1
102
RTVSPropertyOp25
 70
     1
102
RTVSPropertyOp26
 70
     1
102
RTVSPropertyOp27
 70
     1
102
RTVSPropertyOp28
 70
     1
102
RTVSPropertyOp29
 70
     1
102
RTVSPropertyOp30
 70
     1
102
RTVSPropertyOp31
 70
     1
102
RTVSPropertyOp32
 70
     1
  0
XRECORD
  5
9A0
102
{ACAD_REACTORS
330
99F
102
}
330
99F
100
AcDbXrecord
280
     1
102
RTVSPropertyOp0
 70
     1
102
RTVSPropertyOp1
 70
     1
102
RTVSPropertyOp2
 70
     1
102
RTVSPropertyOp3
 70
     1
102
RTVSPropertyOp4
 70
     1
102
RTVSPropertyOp5
 70
     1
102
RTVSPropertyOp6
 70
     1
102
RTVSPropertyOp7
 70
     1
102
RTVSPropertyOp8
 70
     1
102
RTVSPropertyOp9
 70
     1
102
RTVSPropertyOp10
 70
     1
102
RTVSPropertyOp11
 70
     1
102
RTVSPropertyOp12
 70
     1
102
RTVSPropertyOp13
 70
     1
102
RTVSPropertyOp14
 70
     1
102
RTVSPropertyOp15
 70
     1
102
RTVSPropertyOp16
 70
     1
102
RTVSPropertyOp17
 70
     1
102
RTVSPropertyOp18
 70
     1
102
RTVSPropertyOp19
 70
     1
102
RTVSPropertyOp20
 70
     1
102
RTVSPropertyOp21
 70
     1
102
RTVSPropertyOp22
 70
     1
102
RTVSPropertyOp23
 70
     1
102
RTVSPropertyOp24
 70
     1
102
RTVSPropertyOp25
 70
     1
102
RTVSPropertyOp26
 70
     1
102
RTVSPropertyOp27
 70
     1
102
RTVSPropertyOp28
 70
     1
102
RTVSPropertyOp29
 70
     1
102
RTVSPropertyOp30
 70
     1
102
RTVSPropertyOp31
 70
     1
102
RTVSPropertyOp32
 70
     1
  0
XRECORD
  5
9A8
102
{ACAD_REACTORS
330
9A7
102
}
330
9A7
100
AcDbXrecord
280
     1
102
RTVSPropertyOp0
 70
     1
102
RTVSPropertyOp1
 70
     1
102
RTVSPropertyOp2
 70
     1
102
RTVSPropertyOp3
 70
     1
102
RTVSPropertyOp4
 70
     1
102
RTVSPropertyOp5
 70
     1
102
RTVSPropertyOp6
 70
     1
102
RTVSPropertyOp7
 70
     1
102
RTVSPropertyOp8
 70
     1
102
RTVSPropertyOp9
 70
     1
102
RTVSPropertyOp10
 70
     1
102
RTVSPropertyOp11
 70
     1
102
RTVSPropertyOp12
 70
     1
102
RTVSPropertyOp13
 70
     1
102
RTVSPropertyOp14
 70
     1
102
RTVSPropertyOp15
 70
     1
102
RTVSPropertyOp16
 70
     1
102
RTVSPropertyOp17
 70
     1
102
RTVSPropertyOp18
 70
     1
102
RTVSPropertyOp19
 70
     1
102
RTVSPropertyOp20
 70
     1
102
RTVSPropertyOp21
 70
     1
102
RTVSPropertyOp22
 70
     1
102
RTVSPropertyOp23
 70
     1
102
RTVSPropertyOp24
 70
     1
102
RTVSPropertyOp25
 70
     1
102
RTVSPropertyOp26
 70
     1
102
RTVSPropertyOp27
 70
     1
102
RTVSPropertyOp28
 70
     1
102
RTVSPropertyOp29
 70
     1
102
RTVSPropertyOp30
 70
     1
102
RTVSPropertyOp31
 70
     1
102
RTVSPropertyOp32
 70
     1
  0
ENDSEC
  0
EOF
