  0
SECTION
  2
HEADER
  9
$ACADVER
  1
AC1015
  9
$ACADMAINTVER
 70
    20
  9
$DWGCODEPAGE
  3
ANSI_932
  9
$INSBASE
 10
0.0
 20
0.0
 30
0.0
  9
$EXTMIN
 10
516.2150552425098
 20
20.29299133829011
 30
0.0
  9
$EXTMAX
 10
1257.476010975591
 20
326.8565488248025
 30
0.0
  9
$LIMMIN
 10
0.0
 20
0.0
  9
$LIMMAX
 10
12.0
 20
9.0
  9
$ORTHOMODE
 70
     1
  9
$REGENMODE
 70
     1
  9
$FILLMODE
 70
     1
  9
$QTEXTMODE
 70
     0
  9
$MIRRTEXT
 70
     0
  9
$LTSCALE
 40
1.0
  9
$ATTMODE
 70
     1
  9
$TEXTSIZE
 40
3.2
  9
$TRACEWID
 40
0.05
  9
$TEXTSTYLE
  7
高3.2
  9
$CLAYER
  8
0
  9
$CELTYPE
  6
ByLayer
  9
$CECOLOR
 62
   256
  9
$CELTSCALE
 40
1.0
  9
$DISPSILH
 70
     0
  9
$DIMSCALE
 40
1.0
  9
$DIMASZ
 40
2.5
  9
$DIMEXO
 40
0.25
  9
$DIMDLI
 40
0.2
  9
$DIMRND
 40
0.0
  9
$DIMDLE
 40
0.0
  9
$DIMEXE
 40
1.25
  9
$DIMTP
 40
0.0
  9
$DIMTM
 40
0.0
  9
$DIMTXT
 40
3.0
  9
$DIMCEN
 40
0.0
  9
$DIMTSZ
 40
0.0
  9
$DIMTOL
 70
     0
  9
$DIMLIM
 70
     0
  9
$DIMTIH
 70
     0
  9
$DIMTOH
 70
     0
  9
$DIMSE1
 70
     0
  9
$DIMSE2
 70
     0
  9
$DIMTAD
 70
     3
  9
$DIMZIN
 70
     8
  9
$DIMBLK
  1
Open30
  9
$DIMASO
 70
     1
  9
$DIMSHO
 70
     1
  9
$DIMPOST
  1

  9
$DIMAPOST
  1

  9
$DIMALT
 70
     0
  9
$DIMALTD
 70
     3
  9
$DIMALTF
 40
0.03937007874016
  9
$DIMLFAC
 40
1.0
  9
$DIMTOFL
 70
     1
  9
$DIMTVP
 40
0.0
  9
$DIMTIX
 70
     0
  9
$DIMSOXD
 70
     0
  9
$DIMSAH
 70
     0
  9
$DIMBLK1
  1

  9
$DIMBLK2
  1

  9
$DIMSTYLE
  2
1：1
  9
$DIMCLRD
 70
     0
  9
$DIMCLRE
 70
     0
  9
$DIMCLRT
 70
     4
  9
$DIMTFAC
 40
1.0
  9
$DIMGAP
 40
0.625
  9
$DIMJUST
 70
     0
  9
$DIMSD1
 70
     0
  9
$DIMSD2
 70
     0
  9
$DIMTOLJ
 70
     0
  9
$DIMTZIN
 70
     8
  9
$DIMALTZ
 70
     0
  9
$DIMALTTZ
 70
     0
  9
$DIMUPT
 70
     1
  9
$DIMDEC
 70
     2
  9
$DIMTDEC
 70
     2
  9
$DIMALTU
 70
     2
  9
$DIMALTTD
 70
     3
  9
$DIMTXSTY
  7
Standard
  9
$DIMAUNIT
 70
     0
  9
$DIMADEC
 70
     1
  9
$DIMALTRND
 40
0.0
  9
$DIMAZIN
 70
     2
  9
$DIMDSEP
 70
    46
  9
$DIMATFIT
 70
     0
  9
$DIMFRAC
 70
     0
  9
$DIMLDRBLK
  1
Open30
  9
$DIMLUNIT
 70
     2
  9
$DIMLWD
 70
    -2
  9
$DIMLWE
 70
    -2
  9
$DIMTMOVE
 70
     0
  9
$LUNITS
 70
     2
  9
$LUPREC
 70
     4
  9
$SKETCHINC
 40
0.1
  9
$FILLETRAD
 40
0.0
  9
$AUNITS
 70
     0
  9
$AUPREC
 70
     0
  9
$MENU
  1
.
  9
$ELEVATION
 40
0.0
  9
$PELEVATION
 40
0.0
  9
$THICKNESS
 40
0.0
  9
$LIMCHECK
 70
     0
  9
$CHAMFERA
 40
0.0
  9
$CHAMFERB
 40
0.0
  9
$CHAMFERC
 40
0.0
  9
$CHAMFERD
 40
0.0
  9
$SKPOLY
 70
     0
  9
$TDCREATE
 40
2455650.791382373
  9
$TDUCREATE
 40
2455650.416382373
  9
$TDUPDATE
 40
2456856.610744225
  9
$TDUUPDATE
 40
2456856.235744225
  9
$TDINDWG
 40
0.0352314005
  9
$TDUSRTIMER
 40
0.0352247106
  9
$USRTIMER
 70
     1
  9
$ANGBASE
 50
0.0
  9
$ANGDIR
 70
     0
  9
$PDMODE
 70
     0
  9
$PDSIZE
 40
0.0
  9
$PLINEWID
 40
0.0
  9
$SPLFRAME
 70
     0
  9
$SPLINETYPE
 70
     6
  9
$SPLINESEGS
 70
     8
  9
$HANDSEED
  5
208C
  9
$SURFTAB1
 70
     6
  9
$SURFTAB2
 70
     6
  9
$SURFTYPE
 70
     6
  9
$SURFU
 70
     6
  9
$SURFV
 70
     6
  9
$UCSBASE
  2

  9
$UCSNAME
  2

  9
$UCSORG
 10
0.0
 20
0.0
 30
0.0
  9
$UCSXDIR
 10
1.0
 20
0.0
 30
0.0
  9
$UCSYDIR
 10
0.0
 20
1.0
 30
0.0
  9
$UCSORTHOREF
  2

  9
$UCSORTHOVIEW
 70
     0
  9
$UCSORGTOP
 10
0.0
 20
0.0
 30
0.0
  9
$UCSORGBOTTOM
 10
0.0
 20
0.0
 30
0.0
  9
$UCSORGLEFT
 10
0.0
 20
0.0
 30
0.0
  9
$UCSORGRIGHT
 10
0.0
 20
0.0
 30
0.0
  9
$UCSORGFRONT
 10
0.0
 20
0.0
 30
0.0
  9
$UCSORGBACK
 10
0.0
 20
0.0
 30
0.0
  9
$PUCSBASE
  2

  9
$PUCSNAME
  2

  9
$PUCSORG
 10
0.0
 20
0.0
 30
0.0
  9
$PUCSXDIR
 10
1.0
 20
0.0
 30
0.0
  9
$PUCSYDIR
 10
0.0
 20
1.0
 30
0.0
  9
$PUCSORTHOREF
  2

  9
$PUCSORTHOVIEW
 70
     0
  9
$PUCSORGTOP
 10
0.0
 20
0.0
 30
0.0
  9
$PUCSORGBOTTOM
 10
0.0
 20
0.0
 30
0.0
  9
$PUCSORGLEFT
 10
0.0
 20
0.0
 30
0.0
  9
$PUCSORGRIGHT
 10
0.0
 20
0.0
 30
0.0
  9
$PUCSORGFRONT
 10
0.0
 20
0.0
 30
0.0
  9
$PUCSORGBACK
 10
0.0
 20
0.0
 30
0.0
  9
$USERI1
 70
     0
  9
$USERI2
 70
     0
  9
$USERI3
 70
     0
  9
$USERI4
 70
     0
  9
$USERI5
 70
     0
  9
$USERR1
 40
0.0
  9
$USERR2
 40
0.0
  9
$USERR3
 40
0.0
  9
$USERR4
 40
0.0
  9
$USERR5
 40
0.0
  9
$WORLDVIEW
 70
     1
  9
$SHADEDGE
 70
     3
  9
$SHADEDIF
 70
    70
  9
$TILEMODE
 70
     1
  9
$MAXACTVP
 70
    64
  9
$PINSBASE
 10
0.0
 20
0.0
 30
0.0
  9
$PLIMCHECK
 70
     0
  9
$PEXTMIN
 10
0.0
 20
0.0
 30
0.0
  9
$PEXTMAX
 10
0.0
 20
0.0
 30
0.0
  9
$PLIMMIN
 10
0.0
 20
0.0
  9
$PLIMMAX
 10
12.0
 20
9.0
  9
$UNITMODE
 70
     0
  9
$VISRETAIN
 70
     1
  9
$PLINEGEN
 70
     0
  9
$PSLTSCALE
 70
     1
  9
$TREEDEPTH
 70
  3020
  9
$CMLSTYLE
  2
Standard
  9
$CMLJUST
 70
     0
  9
$CMLSCALE
 40
1.0
  9
$PROXYGRAPHICS
 70
     1
  9
$MEASUREMENT
 70
     1
  9
$CELWEIGHT
370
    -1
  9
$ENDCAPS
280
     0
  9
$JOINSTYLE
280
     0
  9
$LWDISPLAY
290
     0
  9
$INSUNITS
 70
     1
  9
$HYPERLINKBASE
  1

  9
$STYLESHEET
  1
N-PLOT.CTB
  9
$XEDIT
290
     1
  9
$CEPSNTYPE
380
     0
  9
$PSTYLEMODE
290
     1
  9
$FINGERPRINTGUID
  2
{8BECCCD2-9F64-4569-B793-E46FE6F52F63}
  9
$VERSIONGUID
  2
{27E0D3EA-60F2-47DF-9255-7D3E6FA3F068}
  9
$EXTNAMES
290
     1
  9
$PSVPSCALE
 40
0.0
  9
$OLESTARTUP
290
     0
  0
ENDSEC
  0
SECTION
  2
CLASSES
  0
CLASS
  1
ACDBDICTIONARYWDFLT
  2
AcDbDictionaryWithDefault
  3
ObjectDBX Classes
 90
        0
280
     0
281
     0
  0
CLASS
  1
ACDBPLACEHOLDER
  2
AcDbPlaceHolder
  3
ObjectDBX Classes
 90
        0
280
     0
281
     0
  0
CLASS
  1
LAYOUT
  2
AcDbLayout
  3
ObjectDBX Classes
 90
        0
280
     0
281
     0
  0
CLASS
  1
DICTIONARYVAR
  2
AcDbDictionaryVar
  3
ObjectDBX Classes
 90
        0
280
     0
281
     0
  0
CLASS
  1
TABLESTYLE
  2
AcDbTableStyle
  3
ObjectDBX Classes
 90
     4095
280
     0
281
     0
  0
CLASS
  1
MATERIAL
  2
AcDbMaterial
  3
ObjectDBX Classes
 90
     1153
280
     0
281
     0
  0
CLASS
  1
VISUALSTYLE
  2
AcDbVisualStyle
  3
ObjectDBX Classes
 90
     4095
280
     0
281
     0
  0
CLASS
  1
SORTENTSTABLE
  2
AcDbSortentsTable
  3
ObjectDBX Classes
 90
        0
280
     0
281
     0
  0
CLASS
  1
DIMASSOC
  2
AcDbDimAssoc
  3
"AcDbDimAssoc|Product Desc:     AcDim ARX App For Dimension|Company:          Autodesk, Inc.|WEB Address:      www.autodesk.com"
 90
        0
280
     0
281
     0
  0
CLASS
  1
SCALE
  2
AcDbScale
  3
ObjectDBX Classes
 90
     1153
280
     0
281
     0
  0
CLASS
  1
MLEADERSTYLE
  2
AcDbMLeaderStyle
  3
ACDB_MLEADERSTYLE_CLASS
 90
     4095
280
     0
281
     0
  0
CLASS
  1
CELLSTYLEMAP
  2
AcDbCellStyleMap
  3
ObjectDBX Classes
 90
     1152
280
     0
281
     0
  0
ENDSEC
  0
SECTION
  2
TABLES
  0
TABLE
  2
VPORT
  5
8
330
0
100
AcDbSymbolTable
 70
     1
  0
VPORT
  5
94
330
8
100
AcDbSymbolTableRecord
100
AcDbViewportTableRecord
  2
*Active
 70
     0
 10
0.0
 20
0.0
 11
1.0
 21
1.0
 12
904.5892837897419
 22
131.9302480157357
 13
0.0
 23
0.0
 14
0.5
 24
0.5
 15
0.5
 25
0.5
 16
0.0
 26
0.0
 36
1.0
 17
0.0
 27
0.0
 37
0.0
 40
745.3898897996196
 41
2.173835125448028
 42
50.0
 43
0.0
 44
0.0
 50
0.0
 51
0.0
 71
     0
 72
  1000
 73
     1
 74
     2
 75
     0
 76
     0
 77
     0
 78
     0
281
     0
 65
     1
110
0.0
120
0.0
130
0.0
111
1.0
121
0.0
131
0.0
112
0.0
122
1.0
132
0.0
 79
     0
146
0.0
  0
ENDTAB
  0
TABLE
  2
LTYPE
  5
5
330
0
100
AcDbSymbolTable
 70
     2
  0
LTYPE
  5
14
330
5
100
AcDbSymbolTableRecord
100
AcDbLinetypeTableRecord
  2
ByBlock
 70
     0
  3

 72
    65
 73
     0
 40
0.0
  0
LTYPE
  5
15
330
5
100
AcDbSymbolTableRecord
100
AcDbLinetypeTableRecord
  2
ByLayer
 70
     0
  3

 72
    65
 73
     0
 40
0.0
  0
LTYPE
  5
16
330
5
100
AcDbSymbolTableRecord
100
AcDbLinetypeTableRecord
  2
Continuous
 70
     0
  3
Solid line
 72
    65
 73
     0
 40
0.0
  0
LTYPE
  5
148
330
5
100
AcDbSymbolTableRecord
100
AcDbLinetypeTableRecord
  2
CENTER
 70
     0
  3
Center ____ _ ____ _ ____ _ ____ _ ____ _ ____
 72
    65
 73
     4
 40
50.8
 49
31.75
 74
     0
 49
-6.349999999999997
 74
     0
 49
6.349999999999997
 74
     0
 49
-6.349999999999997
 74
     0
  0
ENDTAB
  0
TABLE
  2
LAYER
  5
2
102
{ACAD_XDICTIONARY
360
DD
102
}
330
0
100
AcDbSymbolTable
 70
     2
  0
LAYER
  5
10
102
{ACAD_XDICTIONARY
360
72C
102
}
330
2
100
AcDbSymbolTableRecord
100
AcDbLayerTableRecord
  2
0
 70
     0
 62
     7
  6
Continuous
370
    -3
390
F
  0
LAYER
  5
D8
330
2
100
AcDbSymbolTableRecord
100
AcDbLayerTableRecord
  2
Defpoints
 70
     0
 62
     7
  6
Continuous
290
     0
370
    -3
390
F
  0
ENDTAB
  0
TABLE
  2
STYLE
  5
3
330
0
100
AcDbSymbolTable
 70
     6
  0
STYLE
  5
11
330
3
100
AcDbSymbolTableRecord
100
AcDbTextStyleTableRecord
  2
Standard
 70
     0
 40
0.0
 41
1.0
 50
0.0
 71
     0
 42
0.2
  3
txt.shx
  4
bigfont.shx
  0
STYLE
  5
11D
330
3
100
AcDbSymbolTableRecord
100
AcDbTextStyleTableRecord
  2
高3.2
 70
     0
 40
3.2
 41
1.0
 50
0.0
 71
     0
 42
3.2
  3
txt.shx
  4
bigfont.shx
  0
STYLE
  5
11E
330
3
100
AcDbSymbolTableRecord
100
AcDbTextStyleTableRecord
  2
高6.3
 70
     0
 40
6.299999999999998
 41
1.0
 50
0.0
 71
     0
 42
6.299999999999998
  3
txt.shx
  4
bigfont.shx
  0
STYLE
  5
11F
330
3
100
AcDbSymbolTableRecord
100
AcDbTextStyleTableRecord
  2
高2.5
 70
     0
 40
2.5
 41
1.0
 50
0.0
 71
     0
 42
0.2
  3
txt.shx
  4
bigfont.shx
  0
STYLE
  5
146
330
3
100
AcDbSymbolTableRecord
100
AcDbTextStyleTableRecord
  2
高4.5
 70
     0
 40
4.5
 41
1.0
 50
0.0
 71
     0
 42
6.299999999999998
  3
txt.shx
  4
bigfont.shx
  0
STYLE
  5
23A
330
3
100
AcDbSymbolTableRecord
100
AcDbTextStyleTableRecord
  2
高2
 70
     0
 40
2.0
 41
1.0
 50
0.0
 71
     0
 42
6.299999999999998
  3
txt.shx
  4
bigfont.shx
  0
ENDTAB
  0
TABLE
  2
VIEW
  5
6
330
0
100
AcDbSymbolTable
 70
     0
  0
ENDTAB
  0
TABLE
  2
UCS
  5
7
330
0
100
AcDbSymbolTable
 70
     0
  0
ENDTAB
  0
TABLE
  2
APPID
  5
9
330
0
100
AcDbSymbolTable
 70
    10
  0
APPID
  5
12
330
9
100
AcDbSymbolTableRecord
100
AcDbRegAppTableRecord
  2
ACAD
 70
     0
  0
APPID
  5
DC
330
9
100
AcDbSymbolTableRecord
100
AcDbRegAppTableRecord
  2
ACAD_DSTYLE_DIMJOGGED_JOGANGLE_SYMBOL
 70
     0
  0
APPID
  5
23C
330
9
100
AcDbSymbolTableRecord
100
AcDbRegAppTableRecord
  2
AcAecLayerStandard
 70
     0
  0
APPID
  5
76B
330
9
100
AcDbSymbolTableRecord
100
AcDbRegAppTableRecord
  2
ACAD_DSTYLE_DIMARC_LENGTH_SYMBOL
 70
     0
  0
APPID
  5
76C
330
9
100
AcDbSymbolTableRecord
100
AcDbRegAppTableRecord
  2
ACAD_DSTYLE_DIMEXT_LENGTH
 70
     0
  0
APPID
  5
781
330
9
100
AcDbSymbolTableRecord
100
AcDbRegAppTableRecord
  2
ACAD_MLEADERVER
 70
     0
  0
APPID
  5
8B5
330
9
100
AcDbSymbolTableRecord
100
AcDbRegAppTableRecord
  2
ACAD_EXEMPT_FROM_CAD_STANDARDS
 70
     0
  0
APPID
  5
1D56
330
9
100
AcDbSymbolTableRecord
100
AcDbRegAppTableRecord
  2
ACAD_DSTYLE_DIMJAG
 70
     0
  0
APPID
  5
1D57
330
9
100
AcDbSymbolTableRecord
100
AcDbRegAppTableRecord
  2
ACAD_DSTYLE_DIMBREAK
 70
     0
  0
APPID
  5
1D58
330
9
100
AcDbSymbolTableRecord
100
AcDbRegAppTableRecord
  2
ACAD_DSTYLE_DIMTALN
 70
     0
  0
ENDTAB
  0
TABLE
  2
DIMSTYLE
  5
A
330
0
100
AcDbSymbolTable
 70
    11
100
AcDbDimStyleTable
 71
     2
340
D9
340
128
  0
DIMSTYLE
105
D9
330
A
100
AcDbSymbolTableRecord
100
AcDbDimStyleTableRecord
  2
1：1
 70
     0
 41
2.5
 42
0.25
 43
0.2
 44
1.25
 73
     0
 74
     0
 77
     3
 78
     8
 79
     2
140
3.0
141
0.0
143
0.03937007874016
147
0.625
171
     3
172
     1
178
     4
179
     1
271
     2
272
     2
274
     3
283
     0
284
     8
288
     1
289
     0
340
11
341
C6
342
C6
1001
ACAD_DSTYLE_DIMARC_LENGTH_SYMBOL
1070
   379
1070
     2
1001
ACAD_DSTYLE_DIMEXT_LENGTH
1070
   378
1040
1.25
1001
ACAD_DSTYLE_DIMJOGGED_JOGANGLE_SYMBOL
1070
   384
1040
1.570796326794896
  0
DIMSTYLE
105
128
330
A
100
AcDbSymbolTableRecord
100
AcDbDimStyleTableRecord
  2
1／2
 70
     0
 41
2.5
 42
0.25
 43
0.2
 44
1.25
 73
     0
 74
     0
 77
     3
 78
     8
 79
     2
140
3.0
141
0.0
143
0.03937007874016
144
2.0
147
0.625
171
     3
172
     1
178
     4
179
     1
271
     2
272
     2
274
     3
283
     0
284
     8
288
     1
289
     0
340
11
341
C6
342
C6
1001
ACAD_DSTYLE_DIMARC_LENGTH_SYMBOL
1070
   379
1070
     2
1001
ACAD_DSTYLE_DIMEXT_LENGTH
1070
   378
1040
1.25
1001
ACAD_DSTYLE_DIMJOGGED_JOGANGLE_SYMBOL
1070
   384
1040
1.570796326794896
  0
DIMSTYLE
105
23B
330
A
100
AcDbSymbolTableRecord
100
AcDbDimStyleTableRecord
  2
Standard
 70
     0
140
3.0
340
11
  0
DIMSTYLE
105
1D4E
102
{ACAD_REACTORS
330
1D61
102
}
330
A
100
AcDbSymbolTableRecord
100
AcDbDimStyleTableRecord
  2
2：1
 70
     0
 41
2.5
 42
0.25
 43
0.2
 44
1.25
 73
     0
 74
     0
 77
     3
 78
     8
 79
     2
140
3.0
141
0.0
143
0.03937007874016
144
0.5
147
0.625
171
     3
172
     1
178
     4
179
     1
271
     2
272
     2
274
     3
283
     0
284
     8
288
     1
289
     0
340
11
341
C6
342
C6
1001
ACAD_DSTYLE_DIMARC_LENGTH_SYMBOL
1070
   379
1070
     2
1001
ACAD_DSTYLE_DIMEXT_LENGTH
1070
   378
1040
1.25
1001
ACAD_DSTYLE_DIMJOGGED_JOGANGLE_SYMBOL
1070
   384
1040
1.570796326794896
  0
DIMSTYLE
105
1D4F
102
{ACAD_REACTORS
330
1D62
102
}
330
A
100
AcDbSymbolTableRecord
100
AcDbDimStyleTableRecord
  2
5：1
 70
     0
 41
2.5
 42
0.25
 43
0.2
 44
1.25
 73
     0
 74
     0
 77
     3
 78
     8
 79
     2
140
3.0
141
0.0
143
0.03937007874016
144
0.2
147
0.625
171
     3
172
     1
178
     4
179
     1
271
     2
272
     2
274
     3
283
     0
284
     8
288
     1
289
     0
340
11
341
C6
342
C6
1001
ACAD_DSTYLE_DIMARC_LENGTH_SYMBOL
1070
   379
1070
     2
1001
ACAD_DSTYLE_DIMEXT_LENGTH
1070
   378
1040
1.25
1001
ACAD_DSTYLE_DIMJOGGED_JOGANGLE_SYMBOL
1070
   384
1040
1.570796326794896
  0
DIMSTYLE
105
1D50
102
{ACAD_REACTORS
330
1D60
102
}
330
A
100
AcDbSymbolTableRecord
100
AcDbDimStyleTableRecord
  2
10：1
 70
     0
 41
2.5
 42
0.25
 43
0.2
 44
1.25
 73
     0
 74
     0
 77
     3
 78
     8
 79
     2
140
3.0
141
0.0
143
0.03937007874016
144
0.1
147
0.625
171
     3
172
     1
178
     4
179
     1
271
     2
272
     2
274
     3
283
     0
284
     8
288
     1
289
     0
340
11
341
C6
342
C6
1001
ACAD_DSTYLE_DIMARC_LENGTH_SYMBOL
1070
   379
1070
     2
1001
ACAD_DSTYLE_DIMEXT_LENGTH
1070
   378
1040
1.25
1001
ACAD_DSTYLE_DIMJOGGED_JOGANGLE_SYMBOL
1070
   384
1040
1.570796326794896
  0
DIMSTYLE
105
1D51
102
{ACAD_REACTORS
330
1D5D
102
}
330
A
100
AcDbSymbolTableRecord
100
AcDbDimStyleTableRecord
  2
1／5
 70
     0
 41
2.5
 42
0.25
 43
0.2
 44
1.25
 73
     0
 74
     0
 77
     3
 78
     8
 79
     2
140
3.0
141
0.0
143
0.03937007874016
144
5.0
147
0.625
171
     3
172
     1
178
     4
179
     1
271
     2
272
     2
274
     3
283
     0
284
     8
288
     1
289
     0
340
11
341
C6
342
C6
1001
ACAD_DSTYLE_DIMARC_LENGTH_SYMBOL
1070
   379
1070
     2
1001
ACAD_DSTYLE_DIMEXT_LENGTH
1070
   378
1040
1.25
1001
ACAD_DSTYLE_DIMJOGGED_JOGANGLE_SYMBOL
1070
   384
1040
1.570796326794896
  0
DIMSTYLE
105
1D52
102
{ACAD_REACTORS
330
1D5F
102
}
330
A
100
AcDbSymbolTableRecord
100
AcDbDimStyleTableRecord
  2
1／10
 70
     0
 41
2.5
 42
0.25
 43
0.2
 44
1.25
 73
     0
 74
     0
 77
     3
 78
     8
 79
     2
140
3.0
141
0.0
143
0.03937007874016
144
10.0
147
0.625
171
     3
172
     1
178
     4
179
     1
271
     2
272
     2
274
     3
283
     0
284
     8
288
     1
289
     0
340
11
341
C6
342
C6
1001
ACAD_DSTYLE_DIMARC_LENGTH_SYMBOL
1070
   379
1070
     2
1001
ACAD_DSTYLE_DIMEXT_LENGTH
1070
   378
1040
1.25
1001
ACAD_DSTYLE_DIMJOGGED_JOGANGLE_SYMBOL
1070
   384
1040
1.570796326794896
  0
DIMSTYLE
105
1D53
102
{ACAD_REACTORS
330
1D63
102
}
330
A
100
AcDbSymbolTableRecord
100
AcDbDimStyleTableRecord
  2
1／4
 70
     0
 41
2.5
 42
0.25
 43
0.2
 44
1.25
 73
     0
 74
     0
 77
     3
 78
     8
 79
     2
140
3.0
141
0.0
143
0.03937007874016
144
4.0
147
0.625
171
     3
172
     1
178
     4
179
     1
271
     2
272
     2
274
     3
283
     0
284
     8
288
     1
289
     0
340
11
341
C6
342
C6
1001
ACAD_DSTYLE_DIMARC_LENGTH_SYMBOL
1070
   379
1070
     2
1001
ACAD_DSTYLE_DIMEXT_LENGTH
1070
   378
1040
1.25
1001
ACAD_DSTYLE_DIMJOGGED_JOGANGLE_SYMBOL
1070
   384
1040
1.570796326794896
  0
DIMSTYLE
105
1D54
102
{ACAD_REACTORS
330
1D64
102
}
330
A
100
AcDbSymbolTableRecord
100
AcDbDimStyleTableRecord
  2
1／3
 70
     0
 41
2.5
 42
0.25
 43
0.2
 44
1.25
 73
     0
 74
     0
 77
     3
 78
     8
 79
     2
140
3.0
141
0.0
143
0.03937007874016
144
3.0
147
0.625
171
     3
172
     1
178
     4
179
     1
271
     2
272
     2
274
     3
283
     0
284
     8
288
     1
289
     0
340
11
341
C6
342
C6
1001
ACAD_DSTYLE_DIMARC_LENGTH_SYMBOL
1070
   379
1070
     2
1001
ACAD_DSTYLE_DIMEXT_LENGTH
1070
   378
1040
1.25
1001
ACAD_DSTYLE_DIMJOGGED_JOGANGLE_SYMBOL
1070
   384
1040
1.570796326794896
  0
DIMSTYLE
105
1D55
102
{ACAD_REACTORS
330
1D65
102
}
330
A
100
AcDbSymbolTableRecord
100
AcDbDimStyleTableRecord
  2
FREE
 70
     0
 41
2.5
 42
0.25
 43
0.2
 44
1.25
 73
     0
 74
     0
 77
     3
 78
     8
 79
     2
140
3.0
141
0.0
143
0.03937007874016
147
0.625
171
     3
172
     1
178
     4
179
     1
271
     2
272
     2
274
     3
283
     0
284
     8
288
     1
289
     0
340
11
341
C6
342
C6
1001
ACAD_DSTYLE_DIMBREAK
1070
   391
1040
3.75
1001
ACAD_DSTYLE_DIMJAG
1070
   388
1040
1.5
1001
ACAD_DSTYLE_DIMTALN
1070
   392
1070
     0
1001
ACAD_DSTYLE_DIMARC_LENGTH_SYMBOL
1070
   379
1070
     2
1001
ACAD_DSTYLE_DIMEXT_LENGTH
1070
   378
1040
1.25
1001
ACAD_DSTYLE_DIMJOGGED_JOGANGLE_SYMBOL
1070
   384
1040
1.570796326794896
  0
ENDTAB
  0
TABLE
  2
BLOCK_RECORD
  5
1
330
0
100
AcDbSymbolTable
 70
    38
  0
BLOCK_RECORD
  5
1F
102
{ACAD_XDICTIONARY
360
709
102
}
330
1
100
AcDbSymbolTableRecord
100
AcDbBlockTableRecord
  2
*Model_Space
340
22
  0
BLOCK_RECORD
  5
58
330
1
100
AcDbSymbolTableRecord
100
AcDbBlockTableRecord
  2
*Paper_Space
340
59
  0
BLOCK_RECORD
  5
5D
330
1
100
AcDbSymbolTableRecord
100
AcDbBlockTableRecord
  2
*Paper_Space0
340
5E
  0
BLOCK_RECORD
  5
C6
330
1
100
AcDbSymbolTableRecord
100
AcDbBlockTableRecord
  2
_Open30
340
0
102
{BLKREFS
331
1C3C
331
1C3D
331
1C45
331
1C46
331
1C4E
331
1C4F
331
1C57
331
1C58
331
1C60
331
1C61
331
1C69
331
1C6A
331
1C72
331
1C73
331
1C7B
331
1C7C
331
1C86
331
1C87
331
1C8F
331
1C90
331
1C9A
331
1C9B
331
1CA3
331
1CA4
331
1CAC
331
1CAD
331
1CB5
331
1CB6
331
1CBD
331
1CBE
331
1CCB
331
1CCC
331
1CD9
331
1CDA
331
1CE7
331
1CE8
331
1CF5
331
1CF6
331
1D03
331
1D04
331
1D11
331
1D12
331
1D1F
331
1D20
331
1D2D
331
1D2E
331
1D3B
331
1D3C
331
1D47
331
1D48
331
1E32
331
1E33
331
1E3D
331
1E3E
331
1E48
331
1E49
331
1E53
331
1E54
331
1E5E
331
1E5F
331
1E69
331
1E6A
331
1E74
331
1E75
331
1E7F
331
1E80
331
1E8A
331
1E8B
331
1E93
331
1E94
102
}
  0
BLOCK_RECORD
  5
1286
330
1
100
AcDbSymbolTableRecord
100
AcDbBlockTableRecord
  2
*D2
340
0
  0
BLOCK_RECORD
  5
1292
330
1
100
AcDbSymbolTableRecord
100
AcDbBlockTableRecord
  2
*D3
340
0
  0
BLOCK_RECORD
  5
12AA
330
1
100
AcDbSymbolTableRecord
100
AcDbBlockTableRecord
  2
*D4
340
0
  0
BLOCK_RECORD
  5
12B6
330
1
100
AcDbSymbolTableRecord
100
AcDbBlockTableRecord
  2
*D5
340
0
  0
BLOCK_RECORD
  5
12F4
330
1
100
AcDbSymbolTableRecord
100
AcDbBlockTableRecord
  2
*D6
340
0
  0
BLOCK_RECORD
  5
1300
330
1
100
AcDbSymbolTableRecord
100
AcDbBlockTableRecord
  2
*D7
340
0
  0
BLOCK_RECORD
  5
1318
330
1
100
AcDbSymbolTableRecord
100
AcDbBlockTableRecord
  2
*D8
340
0
  0
BLOCK_RECORD
  5
1326
330
1
100
AcDbSymbolTableRecord
100
AcDbBlockTableRecord
  2
*D9
340
0
  0
BLOCK_RECORD
  5
135A
330
1
100
AcDbSymbolTableRecord
100
AcDbBlockTableRecord
  2
*D10
340
0
  0
BLOCK_RECORD
  5
1368
330
1
100
AcDbSymbolTableRecord
100
AcDbBlockTableRecord
  2
*D11
340
0
  0
BLOCK_RECORD
  5
1382
330
1
100
AcDbSymbolTableRecord
100
AcDbBlockTableRecord
  2
*D12
340
0
  0
BLOCK_RECORD
  5
138E
330
1
100
AcDbSymbolTableRecord
100
AcDbBlockTableRecord
  2
*D13
340
0
  0
BLOCK_RECORD
  5
13ED
330
1
100
AcDbSymbolTableRecord
100
AcDbBlockTableRecord
  2
*D14
340
0
  0
BLOCK_RECORD
  5
148B
330
1
100
AcDbSymbolTableRecord
100
AcDbBlockTableRecord
  2
*D15
340
0
  0
BLOCK_RECORD
  5
1515
330
1
100
AcDbSymbolTableRecord
100
AcDbBlockTableRecord
  2
*D16
340
0
  0
BLOCK_RECORD
  5
1CC4
330
1
100
AcDbSymbolTableRecord
100
AcDbBlockTableRecord
  2
*D17
340
0
  0
BLOCK_RECORD
  5
1CD2
330
1
100
AcDbSymbolTableRecord
100
AcDbBlockTableRecord
  2
*D18
340
0
  0
BLOCK_RECORD
  5
1CE0
330
1
100
AcDbSymbolTableRecord
100
AcDbBlockTableRecord
  2
*D19
340
0
  0
BLOCK_RECORD
  5
1CEE
330
1
100
AcDbSymbolTableRecord
100
AcDbBlockTableRecord
  2
*D20
340
0
  0
BLOCK_RECORD
  5
1CFC
330
1
100
AcDbSymbolTableRecord
100
AcDbBlockTableRecord
  2
*D21
340
0
  0
BLOCK_RECORD
  5
1D0A
330
1
100
AcDbSymbolTableRecord
100
AcDbBlockTableRecord
  2
*D22
340
0
  0
BLOCK_RECORD
  5
1D18
330
1
100
AcDbSymbolTableRecord
100
AcDbBlockTableRecord
  2
*D23
340
0
  0
BLOCK_RECORD
  5
1D26
330
1
100
AcDbSymbolTableRecord
100
AcDbBlockTableRecord
  2
*D24
340
0
  0
BLOCK_RECORD
  5
1D34
330
1
100
AcDbSymbolTableRecord
100
AcDbBlockTableRecord
  2
*D25
340
0
  0
BLOCK_RECORD
  5
1D42
330
1
100
AcDbSymbolTableRecord
100
AcDbBlockTableRecord
  2
*D26
340
0
  0
BLOCK_RECORD
  5
1DA3
330
1
100
AcDbSymbolTableRecord
100
AcDbBlockTableRecord
  2
*D28
340
0
  0
BLOCK_RECORD
  5
1DB1
330
1
100
AcDbSymbolTableRecord
100
AcDbBlockTableRecord
  2
*D29
340
0
  0
BLOCK_RECORD
  5
1DBF
330
1
100
AcDbSymbolTableRecord
100
AcDbBlockTableRecord
  2
*D30
340
0
  0
BLOCK_RECORD
  5
1DCD
330
1
100
AcDbSymbolTableRecord
100
AcDbBlockTableRecord
  2
*D31
340
0
  0
BLOCK_RECORD
  5
1DDB
330
1
100
AcDbSymbolTableRecord
100
AcDbBlockTableRecord
  2
*D32
340
0
  0
BLOCK_RECORD
  5
1DE9
330
1
100
AcDbSymbolTableRecord
100
AcDbBlockTableRecord
  2
*D33
340
0
  0
BLOCK_RECORD
  5
1DF7
330
1
100
AcDbSymbolTableRecord
100
AcDbBlockTableRecord
  2
*D34
340
0
  0
BLOCK_RECORD
  5
1E05
330
1
100
AcDbSymbolTableRecord
100
AcDbBlockTableRecord
  2
*D35
340
0
  0
BLOCK_RECORD
  5
1E13
330
1
100
AcDbSymbolTableRecord
100
AcDbBlockTableRecord
  2
*D36
340
0
  0
BLOCK_RECORD
  5
1E21
330
1
100
AcDbSymbolTableRecord
100
AcDbBlockTableRecord
  2
*D37
340
0
  0
ENDTAB
  0
ENDSEC
  0
SECTION
  2
BLOCKS
  0
BLOCK
  5
20
330
1F
100
AcDbEntity
  8
0
100
AcDbBlockBegin
  2
*Model_Space
 70
     0
 10
0.0
 20
0.0
 30
0.0
  3
*Model_Space
  1

  0
ENDBLK
  5
21
330
1F
100
AcDbEntity
  8
0
100
AcDbBlockEnd
  0
BLOCK
  5
5A
330
58
100
AcDbEntity
 67
     1
  8
0
100
AcDbBlockBegin
  2
*Paper_Space
 70
     0
 10
0.0
 20
0.0
 30
0.0
  3
*Paper_Space
  1

  0
ENDBLK
  5
5B
330
58
100
AcDbEntity
 67
     1
  8
0
100
AcDbBlockEnd
  0
BLOCK
  5
5F
330
5D
100
AcDbEntity
 67
     1
  8
0
100
AcDbBlockBegin
  2
*Paper_Space0
 70
     0
 10
0.0
 20
0.0
 30
0.0
  3
*Paper_Space0
  1

  0
ENDBLK
  5
60
330
5D
100
AcDbEntity
 67
     1
  8
0
100
AcDbBlockEnd
  0
BLOCK
  5
C7
330
C6
100
AcDbEntity
  8
0
100
AcDbBlockBegin
  2
_Open30
 70
     0
 10
0.0
 20
0.0
 30
0.0
  3
_Open30
  1

  0
LINE
  5
C8
330
C6
100
AcDbEntity
  8
0
  6
ByBlock
 62
     0
370
    -2
100
AcDbLine
 10
-1.0
 20
0.267949
 30
0.0
 11
0.0
 21
0.0
 31
0.0
  0
LINE
  5
C9
330
C6
100
AcDbEntity
  8
0
  6
ByBlock
 62
     0
370
    -2
100
AcDbLine
 10
0.0
 20
0.0
 30
0.0
 11
-1.0
 21
-0.267949
 31
0.0
  0
LINE
  5
CA
330
C6
100
AcDbEntity
  8
0
  6
ByBlock
 62
     0
370
    -2
100
AcDbLine
 10
0.0
 20
0.0
 30
0.0
 11
-1.0
 21
0.0
 31
0.0
  0
ENDBLK
  5
CB
330
C6
100
AcDbEntity
  8
0
100
AcDbBlockEnd
  0
BLOCK
  5
1287
330
1286
100
AcDbEntity
  8
0
100
AcDbBlockBegin
  2
*D2
 70
     1
 10
0.0
 20
0.0
 30
0.0
  3
*D2
  1

  0
LINE
  5
1C42
330
1286
100
AcDbEntity
  8
0
 62
     0
370
    -2
100
AcDbLine
 10
598.1369540142586
 20
200.0817098390608
 30
0.0
 11
580.9609741119153
 21
200.0817098390608
 31
0.0
  0
LINE
  5
1C43
330
1286
100
AcDbEntity
  8
0
 62
     0
370
    -2
100
AcDbLine
 10
594.6133944962192
 20
170.0817098390607
 30
0.0
 11
580.9609741119153
 21
170.0817098390607
 31
0.0
  0
LINE
  5
1C44
330
1286
100
AcDbEntity
  8
0
 62
     0
370
    -2
100
AcDbLine
 10
582.2109741119153
 20
197.5817098390608
 30
0.0
 11
582.2109741119153
 21
172.5817098390607
 31
0.0
  0
INSERT
  5
1C45
330
1286
100
AcDbEntity
  8
0
 62
     0
370
    -2
100
AcDbBlockReference
  2
_Open30
 10
582.2109741119153
 20
200.0817098390608
 30
0.0
 41
2.5
 42
2.5
 43
2.5
 50
90.0
  0
INSERT
  5
1C46
330
1286
100
AcDbEntity
  8
0
 62
     0
370
    -2
100
AcDbBlockReference
  2
_Open30
 10
582.2109741119153
 20
170.0817098390607
 30
0.0
 41
2.5
 42
2.5
 43
2.5
 50
270.0
  0
MTEXT
  5
1C47
330
1286
100
AcDbEntity
  8
0
 62
     4
100
AcDbMText
 10
580.0859741119153
 20
185.0817098390606
 30
0.0
 40
3.0
 41
0.0
 71
     5
 72
     1
  1
60
 11
0.0000000000000001
 21
1.0
 31
0.0
 73
     1
 44
1.0
1001
ACAD
1000
MTEXTBEGIN
1070
    73
1070
     1
1070
    44
1040
1.0
1070
    74
1070
     0
1000
MTEXTEND
  0
POINT
  5
1C48
330
1286
100
AcDbEntity
  8
Defpoints
 62
     0
100
AcDbPoint
 10
598.3869540142586
 20
200.0817098390608
 30
0.0
  0
POINT
  5
1C49
330
1286
100
AcDbEntity
  8
Defpoints
 62
     0
100
AcDbPoint
 10
594.8633944962192
 20
170.0817098390607
 30
0.0
  0
POINT
  5
1C4A
330
1286
100
AcDbEntity
  8
Defpoints
 62
     0
100
AcDbPoint
 10
582.2109741119153
 20
170.0817098390607
 30
0.0
  0
ENDBLK
  5
1288
330
1286
100
AcDbEntity
  8
0
100
AcDbBlockEnd
  0
BLOCK
  5
1293
330
1292
100
AcDbEntity
  8
0
100
AcDbBlockBegin
  2
*D3
 70
     1
 10
0.0
 20
0.0
 30
0.0
  3
*D3
  1

  0
LINE
  5
1C4B
330
1292
100
AcDbEntity
  8
0
 62
     0
370
    -2
100
AcDbLine
 10
594.6133944962192
 20
116.4817098390608
 30
0.0
 11
582.1418750483408
 21
116.4817098390608
 31
0.0
  0
LINE
  5
1C4C
330
1292
100
AcDbEntity
  8
0
 62
     0
370
    -2
100
AcDbLine
 10
598.1369540142586
 20
86.48170983906078
 30
0.0
 11
582.1418750483408
 21
86.48170983906078
 31
0.0
  0
LINE
  5
1C4D
330
1292
100
AcDbEntity
  8
0
 62
     0
370
    -2
100
AcDbLine
 10
583.3918750483408
 20
113.9817098390608
 30
0.0
 11
583.3918750483408
 21
88.98170983906078
 31
0.0
  0
INSERT
  5
1C4E
330
1292
100
AcDbEntity
  8
0
 62
     0
370
    -2
100
AcDbBlockReference
  2
_Open30
 10
583.3918750483408
 20
116.4817098390608
 30
0.0
 41
2.5
 42
2.5
 43
2.5
 50
90.0
  0
INSERT
  5
1C4F
330
1292
100
AcDbEntity
  8
0
 62
     0
370
    -2
100
AcDbBlockReference
  2
_Open30
 10
583.3918750483408
 20
86.48170983906078
 30
0.0
 41
2.5
 42
2.5
 43
2.5
 50
270.0
  0
MTEXT
  5
1C50
330
1292
100
AcDbEntity
  8
0
 62
     4
100
AcDbMText
 10
581.2668750483408
 20
101.4817098390608
 30
0.0
 40
3.0
 41
0.0
 71
     5
 72
     1
  1
60
 11
0.0000000000000001
 21
1.0
 31
0.0
 73
     1
 44
1.0
1001
ACAD
1000
MTEXTBEGIN
1070
    73
1070
     1
1070
    44
1040
1.0
1070
    74
1070
     0
1000
MTEXTEND
  0
POINT
  5
1C51
330
1292
100
AcDbEntity
  8
Defpoints
 62
     0
100
AcDbPoint
 10
594.8633944962192
 20
116.4817098390608
 30
0.0
  0
POINT
  5
1C52
330
1292
100
AcDbEntity
  8
Defpoints
 62
     0
100
AcDbPoint
 10
598.3869540142586
 20
86.48170983906078
 30
0.0
  0
POINT
  5
1C53
330
1292
100
AcDbEntity
  8
Defpoints
 62
     0
100
AcDbPoint
 10
583.3918750483408
 20
86.48170983906078
 30
0.0
  0
ENDBLK
  5
1294
330
1292
100
AcDbEntity
  8
0
100
AcDbBlockEnd
  0
BLOCK
  5
12AB
330
12AA
100
AcDbEntity
  8
0
100
AcDbBlockBegin
  2
*D4
 70
     1
 10
0.0
 20
0.0
 30
0.0
  3
*D4
  1

  0
LINE
  5
1C54
330
12AA
100
AcDbEntity
  8
0
 62
     0
370
    -2
100
AcDbLine
 10
595.5869540142592
 20
89.03170983906083
 30
0.0
 11
595.5869540142592
 21
68.97026872780736
 31
0.0
  0
LINE
  5
1C55
330
12AA
100
AcDbEntity
  8
0
 62
     0
370
    -2
100
AcDbLine
 10
641.7369540142581
 20
87.4489367586516
 30
0.0
 11
641.7369540142581
 21
68.97026872780736
 31
0.0
  0
LINE
  5
1C56
330
12AA
100
AcDbEntity
  8
0
 62
     0
370
    -2
100
AcDbLine
 10
598.0869540142593
 20
70.22026872780736
 30
0.0
 11
639.2369540142581
 21
70.22026872780736
 31
0.0
  0
INSERT
  5
1C57
330
12AA
100
AcDbEntity
  8
0
 62
     0
370
    -2
100
AcDbBlockReference
  2
_Open30
 10
595.5869540142592
 20
70.22026872780736
 30
0.0
 41
2.5
 42
2.5
 43
2.5
 50
180.0
  0
INSERT
  5
1C58
330
12AA
100
AcDbEntity
  8
0
 62
     0
370
    -2
100
AcDbBlockReference
  2
_Open30
 10
641.7369540142581
 20
70.22026872780736
 30
0.0
 41
2.5
 42
2.5
 43
2.5
  0
MTEXT
  5
1C59
330
12AA
100
AcDbEntity
  8
0
 62
     4
100
AcDbMText
 10
618.6619540142592
 20
72.34526872780737
 30
0.0
 40
3.0
 41
0.0
 71
     5
 72
     1
  1
92.3
 73
     1
 44
1.0
1001
ACAD
1000
MTEXTBEGIN
1070
    73
1070
     1
1070
    44
1040
1.0
1070
    74
1070
     0
1000
MTEXTEND
  0
POINT
  5
1C5A
330
12AA
100
AcDbEntity
  8
Defpoints
 62
     0
100
AcDbPoint
 10
595.5869540142592
 20
89.28170983906083
 30
0.0
  0
POINT
  5
1C5B
330
12AA
100
AcDbEntity
  8
Defpoints
 62
     0
100
AcDbPoint
 10
641.7369540142581
 20
87.6989367586516
 30
0.0
  0
POINT
  5
1C5C
330
12AA
100
AcDbEntity
  8
Defpoints
 62
     0
100
AcDbPoint
 10
641.7369540142581
 20
70.22026872780736
 30
0.0
  0
ENDBLK
  5
12AC
330
12AA
100
AcDbEntity
  8
0
100
AcDbBlockEnd
  0
BLOCK
  5
12B7
330
12B6
100
AcDbEntity
  8
0
100
AcDbBlockBegin
  2
*D5
 70
     1
 10
0.0
 20
0.0
 30
0.0
  3
*D5
  1

  0
LINE
  5
1C5D
330
12B6
100
AcDbEntity
  8
0
 62
     0
370
    -2
100
AcDbLine
 10
734.1869540142597
 20
89.03170983906083
 30
0.0
 11
734.1869540142597
 21
68.75740797399124
 31
0.0
  0
LINE
  5
1C5E
330
12B6
100
AcDbEntity
  8
0
 62
     0
370
    -2
100
AcDbLine
 10
688.0369540142591
 20
87.44893675865137
 30
0.0
 11
688.0369540142591
 21
68.75740797399124
 31
0.0
  0
LINE
  5
1C5F
330
12B6
100
AcDbEntity
  8
0
 62
     0
370
    -2
100
AcDbLine
 10
731.6869540142597
 20
70.00740797399124
 30
0.0
 11
690.5369540142592
 21
70.00740797399124
 31
0.0
  0
INSERT
  5
1C60
330
12B6
100
AcDbEntity
  8
0
 62
     0
370
    -2
100
AcDbBlockReference
  2
_Open30
 10
734.1869540142597
 20
70.00740797399124
 30
0.0
 41
2.5
 42
2.5
 43
2.5
  0
INSERT
  5
1C61
330
12B6
100
AcDbEntity
  8
0
 62
     0
370
    -2
100
AcDbBlockReference
  2
_Open30
 10
688.0369540142591
 20
70.00740797399124
 30
0.0
 41
2.5
 42
2.5
 43
2.5
 50
180.0
  0
MTEXT
  5
1C62
330
12B6
100
AcDbEntity
  8
0
 62
     4
100
AcDbMText
 10
711.1119540142599
 20
72.13240797399123
 30
0.0
 40
3.0
 41
0.0
 71
     5
 72
     1
  1
92.3
 73
     1
 44
1.0
1001
ACAD
1000
MTEXTBEGIN
1070
    73
1070
     1
1070
    44
1040
1.0
1070
    74
1070
     0
1000
MTEXTEND
  0
POINT
  5
1C63
330
12B6
100
AcDbEntity
  8
Defpoints
 62
     0
100
AcDbPoint
 10
734.1869540142597
 20
89.28170983906083
 30
0.0
  0
POINT
  5
1C64
330
12B6
100
AcDbEntity
  8
Defpoints
 62
     0
100
AcDbPoint
 10
688.0369540142591
 20
87.69893675865137
 30
0.0
  0
POINT
  5
1C65
330
12B6
100
AcDbEntity
  8
Defpoints
 62
     0
100
AcDbPoint
 10
688.0369540142591
 20
70.00740797399124
 30
0.0
  0
ENDBLK
  5
12B8
330
12B6
100
AcDbEntity
  8
0
100
AcDbBlockEnd
  0
BLOCK
  5
12F5
330
12F4
100
AcDbEntity
  8
0
100
AcDbBlockBegin
  2
*D6
 70
     1
 10
0.0
 20
0.0
 30
0.0
  3
*D6
  1

  0
LINE
  5
1C6F
330
12F4
100
AcDbEntity
  8
0
 62
     0
370
    -2
100
AcDbLine
 10
736.6369540142585
 20
197.2817098390608
 30
0.0
 11
749.2833076515379
 21
197.2817098390608
 31
0.0
  0
LINE
  5
1C70
330
12F4
100
AcDbEntity
  8
0
 62
     0
370
    -2
100
AcDbLine
 10
735.1605135322988
 20
170.0817098390607
 30
0.0
 11
749.2833076515379
 21
170.0817098390607
 31
0.0
  0
LINE
  5
1C71
330
12F4
100
AcDbEntity
  8
0
 62
     0
370
    -2
100
AcDbLine
 10
748.0333076515379
 20
194.7817098390608
 30
0.0
 11
748.0333076515379
 21
172.5817098390607
 31
0.0
  0
INSERT
  5
1C72
330
12F4
100
AcDbEntity
  8
0
 62
     0
370
    -2
100
AcDbBlockReference
  2
_Open30
 10
748.0333076515379
 20
197.2817098390608
 30
0.0
 41
2.5
 42
2.5
 43
2.5
 50
90.0
  0
INSERT
  5
1C73
330
12F4
100
AcDbEntity
  8
0
 62
     0
370
    -2
100
AcDbBlockReference
  2
_Open30
 10
748.0333076515379
 20
170.0817098390607
 30
0.0
 41
2.5
 42
2.5
 43
2.5
 50
270.0
  0
MTEXT
  5
1C74
330
12F4
100
AcDbEntity
  8
0
 62
     4
100
AcDbMText
 10
745.9083076515379
 20
179.3373246243906
 30
0.0
 40
3.0
 41
0.0
 71
     5
 72
     1
  1
(54.4)
 11
0.0000000000000001
 21
1.0
 31
0.0
 73
     1
 44
1.0
1001
ACAD
1000
MTEXTBEGIN
1070
    73
1070
     1
1070
    44
1040
1.0
1070
    74
1070
     0
1000
MTEXTEND
  0
POINT
  5
1C75
330
12F4
100
AcDbEntity
  8
Defpoints
 62
     0
100
AcDbPoint
 10
736.3869540142585
 20
197.2817098390608
 30
0.0
  0
POINT
  5
1C76
330
12F4
100
AcDbEntity
  8
Defpoints
 62
     0
100
AcDbPoint
 10
734.9105135322989
 20
170.0817098390607
 30
0.0
  0
POINT
  5
1C77
330
12F4
100
AcDbEntity
  8
Defpoints
 62
     0
100
AcDbPoint
 10
748.0333076515379
 20
170.0817098390607
 30
0.0
  0
ENDBLK
  5
12F6
330
12F4
100
AcDbEntity
  8
0
100
AcDbBlockEnd
  0
BLOCK
  5
1301
330
1300
100
AcDbEntity
  8
0
100
AcDbBlockBegin
  2
*D7
 70
     1
 10
0.0
 20
0.0
 30
0.0
  3
*D7
  1

  0
LINE
  5
1C78
330
1300
100
AcDbEntity
  8
0
 62
     0
370
    -2
100
AcDbLine
 10
735.1605135322988
 20
116.4817098390608
 30
0.0
 11
747.7320707052638
 21
116.4817098390608
 31
0.0
  0
LINE
  5
1C79
330
1300
100
AcDbEntity
  8
0
 62
     0
370
    -2
100
AcDbLine
 10
731.6369540142588
 20
89.28170983906083
 30
0.0
 11
747.7320707052638
 21
89.28170983906081
 31
0.0
  0
LINE
  5
1C7A
330
1300
100
AcDbEntity
  8
0
 62
     0
370
    -2
100
AcDbLine
 10
746.4820707052638
 20
113.9817098390608
 30
0.0
 11
746.4820707052638
 21
91.78170983906081
 31
0.0
  0
INSERT
  5
1C7B
330
1300
100
AcDbEntity
  8
0
 62
     0
370
    -2
100
AcDbBlockReference
  2
_Open30
 10
746.4820707052638
 20
116.4817098390608
 30
0.0
 41
2.5
 42
2.5
 43
2.5
 50
90.0
  0
INSERT
  5
1C7C
330
1300
100
AcDbEntity
  8
0
 62
     0
370
    -2
100
AcDbBlockReference
  2
_Open30
 10
746.4820707052638
 20
89.28170983906081
 30
0.0
 41
2.5
 42
2.5
 43
2.5
 50
270.0
  0
MTEXT
  5
1C7D
330
1300
100
AcDbEntity
  8
0
 62
     4
100
AcDbMText
 10
744.3570707052638
 20
105.9068890669646
 30
0.0
 40
3.0
 41
0.0
 71
     5
 72
     1
  1
(54.4)
 11
0.0000000000000001
 21
1.0
 31
0.0
 73
     1
 44
1.0
1001
ACAD
1000
MTEXTBEGIN
1070
    73
1070
     1
1070
    44
1040
1.0
1070
    74
1070
     0
1000
MTEXTEND
  0
POINT
  5
1C7E
330
1300
100
AcDbEntity
  8
Defpoints
 62
     0
100
AcDbPoint
 10
734.9105135322989
 20
116.4817098390608
 30
0.0
  0
POINT
  5
1C7F
330
1300
100
AcDbEntity
  8
Defpoints
 62
     0
100
AcDbPoint
 10
731.3869540142587
 20
89.28170983906083
 30
0.0
  0
POINT
  5
1C80
330
1300
100
AcDbEntity
  8
Defpoints
 62
     0
100
AcDbPoint
 10
746.4820707052638
 20
89.28170983906081
 30
0.0
  0
ENDBLK
  5
1302
330
1300
100
AcDbEntity
  8
0
100
AcDbBlockEnd
  0
BLOCK
  5
1319
330
1318
100
AcDbEntity
  8
0
100
AcDbBlockBegin
  2
*D8
 70
     1
 10
0.0
 20
0.0
 30
0.0
  3
*D8
  1

  0
LINE
  5
1C81
330
1318
100
AcDbEntity
  8
0
 62
     0
370
    -2
100
AcDbLine
 10
782.4813655212656
 20
193.9069924090408
 30
0.0
 11
782.4813655212656
 21
191.0002265965865
 31
0.0
  0
LINE
  5
1C82
330
1318
100
AcDbEntity
  8
0
 62
     0
370
    -2
100
AcDbLine
 10
783.7883422654503
 20
194.1695078383829
 30
0.0
 11
783.7883422654503
 21
191.0002265965865
 31
0.0
  0
LINE
  5
1C83
330
1318
100
AcDbEntity
  8
0
 62
     0
370
    -2
100
AcDbLine
 10
779.9813655212656
 20
192.2502265965865
 30
0.0
 11
777.4813655212656
 21
192.2502265965865
 31
0.0
  0
LINE
  5
1C84
330
1318
100
AcDbEntity
  8
0
 62
     0
370
    -2
100
AcDbLine
 10
786.2883422654503
 20
192.2502265965865
 30
0.0
 11
809.512468281685
 21
192.2502265965865
 31
0.0
  0
LINE
  5
1C85
330
1318
100
AcDbEntity
  8
0
 62
     0
370
    -2
100
AcDbLine
 10
782.4813655212656
 20
192.2502265965865
 30
0.0
 11
783.7883422654503
 21
192.2502265965865
 31
0.0
  0
INSERT
  5
1C86
330
1318
100
AcDbEntity
  8
0
 62
     0
370
    -2
100
AcDbBlockReference
  2
_Open30
 10
782.4813655212656
 20
192.2502265965865
 30
0.0
 41
2.5
 42
2.5
 43
2.5
  0
INSERT
  5
1C87
330
1318
100
AcDbEntity
  8
0
 62
     0
370
    -2
100
AcDbBlockReference
  2
_Open30
 10
783.7883422654503
 20
192.2502265965865
 30
0.0
 41
2.5
 42
2.5
 43
2.5
 50
180.0
  0
MTEXT
  5
1C88
330
1318
100
AcDbEntity
  8
0
 62
     4
100
AcDbMText
 10
805.687468281685
 20
194.3752265965865
 30
0.0
 40
3.0
 41
0.0
 71
     5
 72
     1
  1
任意
 73
     1
 44
1.0
1001
ACAD
1000
MTEXTBEGIN
1070
    73
1070
     1
1070
    44
1040
1.0
1070
    74
1070
     0
1000
MTEXTEND
  0
POINT
  5
1C89
330
1318
100
AcDbEntity
  8
Defpoints
 62
     0
100
AcDbPoint
 10
782.4813655212656
 20
194.1569924090408
 30
0.0
  0
POINT
  5
1C8A
330
1318
100
AcDbEntity
  8
Defpoints
 62
     0
100
AcDbPoint
 10
783.7883422654503
 20
194.4195078383829
 30
0.0
  0
POINT
  5
1C8B
330
1318
100
AcDbEntity
  8
Defpoints
 62
     0
100
AcDbPoint
 10
783.7883422654503
 20
192.2502265965865
 30
0.0
  0
ENDBLK
  5
131A
330
1318
100
AcDbEntity
  8
0
100
AcDbBlockEnd
  0
BLOCK
  5
1327
330
1326
100
AcDbEntity
  8
0
100
AcDbBlockBegin
  2
*D9
 70
     1
 10
0.0
 20
0.0
 30
0.0
  3
*D9
  1

  0
LINE
  5
1C8C
330
1326
100
AcDbEntity
  8
0
 62
     0
370
    -2
100
AcDbLine
 10
734.1869540142597
 20
197.5317098390608
 30
0.0
 11
734.1869540142597
 21
223.4084117058087
 31
0.0
  0
LINE
  5
1C8D
330
1326
100
AcDbEntity
  8
0
 62
     0
370
    -2
100
AcDbLine
 10
595.5869540142592
 20
197.5317098390608
 30
0.0
 11
595.5869540142592
 21
223.4084117058087
 31
0.0
  0
LINE
  5
1C8E
330
1326
100
AcDbEntity
  8
0
 62
     0
370
    -2
100
AcDbLine
 10
731.6869540142597
 20
222.1584117058087
 30
0.0
 11
598.0869540142593
 21
222.1584117058087
 31
0.0
  0
INSERT
  5
1C8F
330
1326
100
AcDbEntity
  8
0
 62
     0
370
    -2
100
AcDbBlockReference
  2
_Open30
 10
734.1869540142597
 20
222.1584117058087
 30
0.0
 41
2.5
 42
2.5
 43
2.5
  0
INSERT
  5
1C90
330
1326
100
AcDbEntity
  8
0
 62
     0
370
    -2
100
AcDbBlockReference
  2
_Open30
 10
595.5869540142592
 20
222.1584117058087
 30
0.0
 41
2.5
 42
2.5
 43
2.5
 50
180.0
  0
MTEXT
  5
1C91
330
1326
100
AcDbEntity
  8
0
 62
     4
100
AcDbMText
 10
664.8869540142595
 20
224.2834117058087
 30
0.0
 40
3.0
 41
0.0
 71
     5
 72
     1
  1
277.2
 73
     1
 44
1.0
1001
ACAD
1000
MTEXTBEGIN
1070
    73
1070
     1
1070
    44
1040
1.0
1070
    74
1070
     0
1000
MTEXTEND
  0
POINT
  5
1C92
330
1326
100
AcDbEntity
  8
Defpoints
 62
     0
100
AcDbPoint
 10
734.1869540142597
 20
197.2817098390608
 30
0.0
  0
POINT
  5
1C93
330
1326
100
AcDbEntity
  8
Defpoints
 62
     0
100
AcDbPoint
 10
595.5869540142592
 20
197.2817098390608
 30
0.0
  0
POINT
  5
1C94
330
1326
100
AcDbEntity
  8
Defpoints
 62
     0
100
AcDbPoint
 10
595.5869540142592
 20
222.1584117058087
 30
0.0
  0
ENDBLK
  5
1328
330
1326
100
AcDbEntity
  8
0
100
AcDbBlockEnd
  0
BLOCK
  5
135B
330
135A
100
AcDbEntity
  8
0
100
AcDbBlockBegin
  2
*D10
 70
     1
 10
0.0
 20
0.0
 30
0.0
  3
*D10
  1

  0
LINE
  5
1C95
330
135A
100
AcDbEntity
  8
0
 62
     0
370
    -2
100
AcDbLine
 10
730.4577151987158
 20
254.3976438434004
 30
0.0
 11
747.5353976084268
 21
254.3976438434004
 31
0.0
  0
LINE
  5
1C96
330
135A
100
AcDbEntity
  8
0
 62
     0
370
    -2
100
AcDbLine
 10
733.7869540142583
 20
260.5976438434003
 30
0.0
 11
747.5353976084269
 21
260.5976438434003
 31
0.0
  0
LINE
  5
1C97
330
135A
100
AcDbEntity
  8
0
 62
     0
370
    -2
100
AcDbLine
 10
746.2853976084269
 20
263.0976438434003
 30
0.0
 11
746.2853976084269
 21
265.5976438434003
 31
0.0
  0
LINE
  5
1C98
330
135A
100
AcDbEntity
  8
0
 62
     0
370
    -2
100
AcDbLine
 10
746.2853976084268
 20
251.8976438434004
 30
0.0
 11
746.2853976084268
 21
240.1476438434003
 31
0.0
  0
LINE
  5
1C99
330
135A
100
AcDbEntity
  8
0
 62
     0
370
    -2
100
AcDbLine
 10
746.2853976084269
 20
260.5976438434003
 30
0.0
 11
746.2853976084268
 21
254.3976438434004
 31
0.0
  0
INSERT
  5
1C9A
330
135A
100
AcDbEntity
  8
0
 62
     0
370
    -2
100
AcDbBlockReference
  2
_Open30
 10
746.2853976084269
 20
260.5976438434003
 30
0.0
 41
2.5
 42
2.5
 43
2.5
 50
270.0
  0
INSERT
  5
1C9B
330
135A
100
AcDbEntity
  8
0
 62
     0
370
    -2
100
AcDbBlockReference
  2
_Open30
 10
746.2853976084268
 20
254.3976438434004
 30
0.0
 41
2.5
 42
2.5
 43
2.5
 50
90.0
  0
MTEXT
  5
1C9C
330
135A
100
AcDbEntity
  8
0
 62
     4
100
AcDbMText
 10
744.1603976084268
 20
244.7726438434004
 30
0.0
 40
3.0
 41
0.0
 71
     5
 72
     1
  1
12.4
 11
0.0000000000000001
 21
1.0
 31
0.0
 73
     1
 44
1.0
1001
ACAD
1000
MTEXTBEGIN
1070
    73
1070
     1
1070
    44
1040
1.0
1070
    74
1070
     0
1000
MTEXTEND
  0
POINT
  5
1C9D
330
135A
100
AcDbEntity
  8
Defpoints
 62
     0
100
AcDbPoint
 10
730.2077151987158
 20
254.3976438434004
 30
0.0
  0
POINT
  5
1C9E
330
135A
100
AcDbEntity
  8
Defpoints
 62
     0
100
AcDbPoint
 10
733.5369540142583
 20
260.5976438434003
 30
0.0
  0
POINT
  5
1C9F
330
135A
100
AcDbEntity
  8
Defpoints
 62
     0
100
AcDbPoint
 10
746.2853976084269
 20
260.5976438434003
 30
0.0
  0
ENDBLK
  5
135C
330
135A
100
AcDbEntity
  8
0
100
AcDbBlockEnd
  0
BLOCK
  5
1369
330
1368
100
AcDbEntity
  8
0
100
AcDbBlockBegin
  2
*D11
 70
     1
 10
0.0
 20
0.0
 30
0.0
  3
*D11
  1

  0
LINE
  5
1CA0
330
1368
100
AcDbEntity
  8
0
 62
     0
370
    -2
100
AcDbLine
 10
735.3701329400702
 20
258.7715839536688
 30
0.0
 11
735.3701329400702
 21
232.4904231272846
 31
0.0
  0
LINE
  5
1CA1
330
1368
100
AcDbEntity
  8
0
 62
     0
370
    -2
100
AcDbLine
 10
594.4037750884481
 20
258.7715839536688
 30
0.0
 11
594.4037750884481
 21
232.4904231272846
 31
0.0
  0
LINE
  5
1CA2
330
1368
100
AcDbEntity
  8
0
 62
     0
370
    -2
100
AcDbLine
 10
732.8701329400701
 20
233.7404231272846
 30
0.0
 11
596.903775088448
 21
233.7404231272846
 31
0.0
  0
INSERT
  5
1CA3
330
1368
100
AcDbEntity
  8
0
 62
     0
370
    -2
100
AcDbBlockReference
  2
_Open30
 10
735.3701329400702
 20
233.7404231272846
 30
0.0
 41
2.5
 42
2.5
 43
2.5
  0
INSERT
  5
1CA4
330
1368
100
AcDbEntity
  8
0
 62
     0
370
    -2
100
AcDbBlockReference
  2
_Open30
 10
594.4037750884481
 20
233.7404231272846
 30
0.0
 41
2.5
 42
2.5
 43
2.5
 50
180.0
  0
MTEXT
  5
1CA5
330
1368
100
AcDbEntity
  8
0
 62
     4
100
AcDbMText
 10
664.1041420787005
 20
235.8654231272846
 30
0.0
 40
3.0
 41
0.0
 71
     5
 72
     1
  1
281.9
 73
     1
 44
1.0
1001
ACAD
1000
MTEXTBEGIN
1070
    73
1070
     1
1070
    44
1040
1.0
1070
    74
1070
     0
1000
MTEXTEND
  0
POINT
  5
1CA6
330
1368
100
AcDbEntity
  8
Defpoints
 62
     0
100
AcDbPoint
 10
735.3701329400702
 20
259.0215839536688
 30
0.0
  0
POINT
  5
1CA7
330
1368
100
AcDbEntity
  8
Defpoints
 62
     0
100
AcDbPoint
 10
594.4037750884481
 20
259.0215839536688
 30
0.0
  0
POINT
  5
1CA8
330
1368
100
AcDbEntity
  8
Defpoints
 62
     0
100
AcDbPoint
 10
594.4037750884481
 20
233.7404231272846
 30
0.0
  0
ENDBLK
  5
136A
330
1368
100
AcDbEntity
  8
0
100
AcDbBlockEnd
  0
BLOCK
  5
1383
330
1382
100
AcDbEntity
  8
0
100
AcDbBlockBegin
  2
*D12
 70
     1
 10
0.0
 20
0.0
 30
0.0
  3
*D12
  1

  0
LINE
  5
1CA9
330
1382
100
AcDbEntity
  8
0
 62
     0
370
    -2
100
AcDbLine
 10
818.6890011533524
 20
192.9974710235183
 30
0.0
 11
818.6890011533524
 21
208.4217649359431
 31
0.0
  0
LINE
  5
1CAA
330
1382
100
AcDbEntity
  8
0
 62
     0
370
    -2
100
AcDbLine
 10
826.189001153352
 20
199.6817098390608
 30
0.0
 11
826.189001153352
 21
208.4217649359431
 31
0.0
  0
LINE
  5
1CAB
330
1382
100
AcDbEntity
  8
0
 62
     0
370
    -2
100
AcDbLine
 10
821.1890011533522
 20
207.1717649359431
 30
0.0
 11
823.6890011533519
 21
207.1717649359431
 31
0.0
  0
INSERT
  5
1CAC
330
1382
100
AcDbEntity
  8
0
 62
     0
370
    -2
100
AcDbBlockReference
  2
_Open30
 10
818.6890011533524
 20
207.1717649359431
 30
0.0
 41
2.5
 42
2.5
 43
2.5
 50
180.0
  0
INSERT
  5
1CAD
330
1382
100
AcDbEntity
  8
0
 62
     0
370
    -2
100
AcDbBlockReference
  2
_Open30
 10
826.189001153352
 20
207.1717649359431
 30
0.0
 41
2.5
 42
2.5
 43
2.5
  0
MTEXT
  5
1CAE
330
1382
100
AcDbEntity
  8
0
 62
     4
100
AcDbMText
 10
822.4390011533524
 20
209.2967649359431
 30
0.0
 40
3.0
 41
0.0
 71
     5
 72
     1
  1
15
 73
     1
 44
1.0
1001
ACAD
1000
MTEXTBEGIN
1070
    73
1070
     1
1070
    44
1040
1.0
1070
    74
1070
     0
1000
MTEXTEND
  0
POINT
  5
1CAF
330
1382
100
AcDbEntity
  8
Defpoints
 62
     0
100
AcDbPoint
 10
818.6890011533524
 20
192.7474710235183
 30
0.0
  0
POINT
  5
1CB0
330
1382
100
AcDbEntity
  8
Defpoints
 62
     0
100
AcDbPoint
 10
826.189001153352
 20
199.4317098390608
 30
0.0
  0
POINT
  5
1CB1
330
1382
100
AcDbEntity
  8
Defpoints
 62
     0
100
AcDbPoint
 10
826.189001153352
 20
207.1717649359431
 30
0.0
  0
ENDBLK
  5
1384
330
1382
100
AcDbEntity
  8
0
100
AcDbBlockEnd
  0
BLOCK
  5
138F
330
138E
100
AcDbEntity
  8
0
100
AcDbBlockBegin
  2
*D13
 70
     1
 10
0.0
 20
0.0
 30
0.0
  3
*D13
  1

  0
LINE
  5
1C39
330
138E
100
AcDbEntity
  8
0
 62
     0
370
    -2
100
AcDbLine
 10
731.3869540142587
 20
202.5317098390608
 30
0.0
 11
731.3869540142587
 21
216.2554291030538
 31
0.0
  0
LINE
  5
1C3A
330
138E
100
AcDbEntity
  8
0
 62
     0
370
    -2
100
AcDbLine
 10
598.3869540142586
 20
202.5317098390608
 30
0.0
 11
598.3869540142586
 21
216.2554291030538
 31
0.0
  0
LINE
  5
1C3B
330
138E
100
AcDbEntity
  8
0
 62
     0
370
    -2
100
AcDbLine
 10
728.8869540142587
 20
215.0054291030538
 30
0.0
 11
600.8869540142586
 21
215.0054291030538
 31
0.0
  0
INSERT
  5
1C3C
330
138E
100
AcDbEntity
  8
0
 62
     0
370
    -2
100
AcDbBlockReference
  2
_Open30
 10
731.3869540142587
 20
215.0054291030538
 30
0.0
 41
2.5
 42
2.5
 43
2.5
  0
INSERT
  5
1C3D
330
138E
100
AcDbEntity
  8
0
 62
     0
370
    -2
100
AcDbBlockReference
  2
_Open30
 10
598.3869540142586
 20
215.0054291030538
 30
0.0
 41
2.5
 42
2.5
 43
2.5
 50
180.0
  0
MTEXT
  5
1C3E
330
138E
100
AcDbEntity
  8
0
 62
     4
100
AcDbMText
 10
666.1911590180952
 20
217.1304291030538
 30
0.0
 40
3.0
 41
0.0
 71
     5
 72
     1
  1
266
 73
     1
 44
1.0
1001
ACAD
1000
MTEXTBEGIN
1070
    73
1070
     1
1070
    44
1040
1.0
1070
    74
1070
     0
1000
MTEXTEND
  0
POINT
  5
1C3F
330
138E
100
AcDbEntity
  8
Defpoints
 62
     0
100
AcDbPoint
 10
731.3869540142587
 20
202.2817098390608
 30
0.0
  0
POINT
  5
1C40
330
138E
100
AcDbEntity
  8
Defpoints
 62
     0
100
AcDbPoint
 10
598.3869540142586
 20
202.2817098390608
 30
0.0
  0
POINT
  5
1C41
330
138E
100
AcDbEntity
  8
Defpoints
 62
     0
100
AcDbPoint
 10
598.3869540142586
 20
215.0054291030538
 30
0.0
  0
ENDBLK
  5
1390
330
138E
100
AcDbEntity
  8
0
100
AcDbBlockEnd
  0
BLOCK
  5
13EE
330
13ED
100
AcDbEntity
  8
0
100
AcDbBlockBegin
  2
*D14
 70
     1
 10
0.0
 20
0.0
 30
0.0
  3
*D14
  1

  0
LINE
  5
1C66
330
13ED
100
AcDbEntity
  8
0
 62
     0
370
    -2
100
AcDbLine
 10
736.6369540142585
 20
197.2817098390608
 30
0.0
 11
756.5326005194028
 21
197.2817098390608
 31
0.0
  0
LINE
  5
1C67
330
13ED
100
AcDbEntity
  8
0
 62
     0
370
    -2
100
AcDbLine
 10
736.6369540142585
 20
89.28170983906083
 30
0.0
 11
756.5326005194028
 21
89.28170983906083
 31
0.0
  0
LINE
  5
1C68
330
13ED
100
AcDbEntity
  8
0
 62
     0
370
    -2
100
AcDbLine
 10
755.2826005194027
 20
194.7817098390608
 30
0.0
 11
755.2826005194027
 21
91.78170983906083
 31
0.0
  0
INSERT
  5
1C69
330
13ED
100
AcDbEntity
  8
0
 62
     0
370
    -2
100
AcDbBlockReference
  2
_Open30
 10
755.2826005194027
 20
197.2817098390608
 30
0.0
 41
2.5
 42
2.5
 43
2.5
 50
90.0
  0
INSERT
  5
1C6A
330
13ED
100
AcDbEntity
  8
0
 62
     0
370
    -2
100
AcDbBlockReference
  2
_Open30
 10
755.2826005194027
 20
89.28170983906083
 30
0.0
 41
2.5
 42
2.5
 43
2.5
 50
270.0
  0
MTEXT
  5
1C6B
330
13ED
100
AcDbEntity
  8
0
 62
     4
100
AcDbMText
 10
753.1576005194027
 20
142.9774896928966
 30
0.0
 40
3.0
 41
0.0
 71
     5
 72
     1
  1
216
 11
0.0000000000000001
 21
1.0
 31
0.0
 73
     1
 44
1.0
1001
ACAD
1000
MTEXTBEGIN
1070
    73
1070
     1
1070
    44
1040
1.0
1070
    74
1070
     0
1000
MTEXTEND
  0
POINT
  5
1C6C
330
13ED
100
AcDbEntity
  8
Defpoints
 62
     0
100
AcDbPoint
 10
736.3869540142585
 20
197.2817098390608
 30
0.0
  0
POINT
  5
1C6D
330
13ED
100
AcDbEntity
  8
Defpoints
 62
     0
100
AcDbPoint
 10
736.3869540142585
 20
89.28170983906083
 30
0.0
  0
POINT
  5
1C6E
330
13ED
100
AcDbEntity
  8
Defpoints
 62
     0
100
AcDbPoint
 10
755.2826005194027
 20
89.28170983906083
 30
0.0
  0
ENDBLK
  5
13EF
330
13ED
100
AcDbEntity
  8
0
100
AcDbBlockEnd
  0
BLOCK
  5
148C
330
148B
100
AcDbEntity
  8
0
100
AcDbBlockBegin
  2
*D15
 70
     1
 10
0.0
 20
0.0
 30
0.0
  3
*D15
  1

  0
LINE
  5
1CB2
330
148B
100
AcDbEntity
  8
0
 62
     0
370
    -2
100
AcDbLine
 10
776.1086341061377
 20
196.6052448320615
 30
0.0
 11
773.9814940337237
 21
195.2917475491065
 31
0.0
  0
LINE
  5
1CB3
330
148B
100
AcDbEntity
  8
0
 62
     0
370
    -2
100
AcDbLine
 10
785.468050424761
 20
202.3846328770641
 30
0.0
 11
813.3555501514528
 21
219.6050104132954
 31
0.0
  0
LINE
  5
1CB4
330
148B
100
AcDbEntity
  8
0
 62
     0
370
    -2
100
AcDbLine
 10
778.235774178552
 20
197.9187421150164
 30
0.0
 11
783.340910352347
 21
201.0711355941091
 31
0.0
  0
INSERT
  5
1CB5
330
148B
100
AcDbEntity
  8
0
 62
     0
370
    -2
100
AcDbBlockReference
  2
_Open30
 10
778.235774178552
 20
197.9187421150164
 30
0.0
 41
2.5
 42
2.5
 43
2.5
 50
31.69510177516274
  0
INSERT
  5
1CB6
330
148B
100
AcDbEntity
  8
0
 62
     0
370
    -2
100
AcDbBlockReference
  2
_Open30
 10
783.340910352347
 20
201.0711355941091
 30
0.0
 41
2.5
 42
2.5
 43
2.5
 50
211.6951017751627
  0
MTEXT
  5
1CB7
330
148B
100
AcDbEntity
  8
0
 62
     4
100
AcDbMText
 10
804.8153586082158
 20
216.8289739573345
 30
0.0
 40
3.0
 41
0.0
 71
     5
 72
     1
  1
\U+03C66(内径)
 11
0.8508560289656426
 21
0.5253989131819913
 31
0.0
 73
     1
 44
1.0
1001
ACAD
1000
MTEXTBEGIN
1070
    73
1070
     1
1070
    44
1040
1.0
1070
    74
1070
     0
1000
MTEXTEND
  0
POINT
  5
1CB8
330
148B
100
AcDbEntity
  8
Defpoints
 62
     0
100
AcDbPoint
 10
783.340910352347
 20
201.0711355941091
 30
0.0
  0
POINT
  5
1CB9
330
148B
100
AcDbEntity
  8
Defpoints
 62
     0
100
AcDbPoint
 10
778.235774178552
 20
197.9187421150164
 30
0.0
  0
ENDBLK
  5
148D
330
148B
100
AcDbEntity
  8
0
100
AcDbBlockEnd
  0
BLOCK
  5
1516
330
1515
100
AcDbEntity
  8
0
100
AcDbBlockBegin
  2
*D16
 70
     1
 10
0.0
 20
0.0
 30
0.0
  3
*D16
  1

  0
LINE
  5
1CBA
330
1515
100
AcDbEntity
  8
0
 62
     0
370
    -2
100
AcDbLine
 10
598.1369540142586
 20
86.4817098390608
 30
0.0
 11
570.4654862755746
 21
86.4817098390608
 31
0.0
  0
LINE
  5
1CBB
330
1515
100
AcDbEntity
  8
0
 62
     0
370
    -2
100
AcDbLine
 10
598.1369540142586
 20
200.0817098390608
 30
0.0
 11
570.4654862755746
 21
200.0817098390609
 31
0.0
  0
LINE
  5
1CBC
330
1515
100
AcDbEntity
  8
0
 62
     0
370
    -2
100
AcDbLine
 10
571.7154862755746
 20
88.9817098390608
 30
0.0
 11
571.7154862755746
 21
197.5817098390608
 31
0.0
  0
INSERT
  5
1CBD
330
1515
100
AcDbEntity
  8
0
 62
     0
370
    -2
100
AcDbBlockReference
  2
_Open30
 10
571.7154862755746
 20
86.4817098390608
 30
0.0
 41
2.5
 42
2.5
 43
2.5
 50
270.0
  0
INSERT
  5
1CBE
330
1515
100
AcDbEntity
  8
0
 62
     0
370
    -2
100
AcDbBlockReference
  2
_Open30
 10
571.7154862755746
 20
200.0817098390609
 30
0.0
 41
2.5
 42
2.5
 43
2.5
 50
90.0
  0
MTEXT
  5
1CBF
330
1515
100
AcDbEntity
  8
0
 62
     4
100
AcDbMText
 10
569.5904862755746
 20
148.4816170147275
 30
0.0
 40
3.0
 41
0.0
 71
     5
 72
     1
  1
227.2
 11
0.0000000000000001
 21
1.0
 31
0.0
 73
     1
 44
1.0
1001
ACAD
1000
MTEXTBEGIN
1070
    73
1070
     1
1070
    44
1040
1.0
1070
    74
1070
     0
1000
MTEXTEND
  0
POINT
  5
1CC0
330
1515
100
AcDbEntity
  8
Defpoints
 62
     0
100
AcDbPoint
 10
598.3869540142586
 20
86.4817098390608
 30
0.0
  0
POINT
  5
1CC1
330
1515
100
AcDbEntity
  8
Defpoints
 62
     0
100
AcDbPoint
 10
598.3869540142586
 20
200.0817098390608
 30
0.0
  0
POINT
  5
1CC2
330
1515
100
AcDbEntity
  8
Defpoints
 62
     0
100
AcDbPoint
 10
571.7154862755746
 20
200.0817098390609
 30
0.0
  0
ENDBLK
  5
1517
330
1515
100
AcDbEntity
  8
0
100
AcDbBlockEnd
  0
BLOCK
  5
1CC5
330
1CC4
100
AcDbEntity
  8
0
100
AcDbBlockBegin
  2
*D17
 70
     1
 10
0.0
 20
0.0
 30
0.0
  3
*D17
  1

  0
LINE
  5
1CC6
330
1CC4
100
AcDbEntity
  8
0
 62
     0
370
    -2
100
AcDbLine
 10
-178.2339678749101
 20
-812.0370112307897
 30
0.0
 11
-178.2339678749101
 21
-814.9466426527986
 31
0.0
  0
LINE
  5
1CC7
330
1CC4
100
AcDbEntity
  8
0
 62
     0
370
    -2
100
AcDbLine
 10
-180.6911549290304
 20
-812.0370112307897
 30
0.0
 11
-180.6911549290304
 21
-814.9466426527986
 31
0.0
  0
LINE
  5
1CC8
330
1CC4
100
AcDbEntity
  8
0
 62
     0
370
    -2
100
AcDbLine
 10
-175.7339678749101
 20
-813.6966426527985
 30
0.0
 11
-173.2339678749101
 21
-813.6966426527985
 31
0.0
  0
LINE
  5
1CC9
330
1CC4
100
AcDbEntity
  8
0
 62
     0
370
    -2
100
AcDbLine
 10
-183.1911549290304
 20
-813.6966426527985
 30
0.0
 11
-195.9411549290304
 21
-813.6966426527985
 31
0.0
  0
LINE
  5
1CCA
330
1CC4
100
AcDbEntity
  8
0
 62
     0
370
    -2
100
AcDbLine
 10
-178.2339678749101
 20
-813.6966426527985
 30
0.0
 11
-180.6911549290304
 21
-813.6966426527985
 31
0.0
  0
INSERT
  5
1CCB
330
1CC4
100
AcDbEntity
  8
0
 62
     0
370
    -2
100
AcDbBlockReference
  2
_Open30
 10
-178.2339678749101
 20
-813.6966426527985
 30
0.0
 41
2.5
 42
2.5
 43
2.5
 50
180.0
  0
INSERT
  5
1CCC
330
1CC4
100
AcDbEntity
  8
0
 62
     0
370
    -2
100
AcDbBlockReference
  2
_Open30
 10
-180.6911549290304
 20
-813.6966426527985
 30
0.0
 41
2.5
 42
2.5
 43
2.5
  0
MTEXT
  5
1CCD
330
1CC4
100
AcDbEntity
  8
0
 62
     4
100
AcDbMText
 10
-190.8161549290304
 20
-811.5716426527985
 30
0.0
 40
3.0
 41
0.0
 71
     5
 72
     1
  1
2.46
 73
     1
 44
1.0
1001
ACAD
1000
MTEXTBEGIN
1070
    73
1070
     1
1070
    44
1040
1.0
1070
    74
1070
     0
1000
MTEXTEND
  0
POINT
  5
1CCE
330
1CC4
100
AcDbEntity
  8
Defpoints
 62
     0
100
AcDbPoint
 10
-178.2339678749101
 20
-811.7870112307898
 30
0.0
  0
POINT
  5
1CCF
330
1CC4
100
AcDbEntity
  8
Defpoints
 62
     0
100
AcDbPoint
 10
-180.6911549290304
 20
-811.7870112307898
 30
0.0
  0
POINT
  5
1CD0
330
1CC4
100
AcDbEntity
  8
Defpoints
 62
     0
100
AcDbPoint
 10
-180.6911549290304
 20
-813.6966426527985
 30
0.0
  0
ENDBLK
  5
1CD1
330
1CC4
100
AcDbEntity
  8
0
100
AcDbBlockEnd
  0
BLOCK
  5
1CD3
330
1CD2
100
AcDbEntity
  8
0
100
AcDbBlockBegin
  2
*D18
 70
     1
 10
0.0
 20
0.0
 30
0.0
  3
*D18
  1

  0
LINE
  5
1CD4
330
1CD2
100
AcDbEntity
  8
0
 62
     0
370
    -2
100
AcDbLine
 10
-176.5958429688369
 20
-817.4931008035521
 30
0.0
 11
-176.5958429688369
 21
-820.0389928730155
 31
0.0
  0
LINE
  5
1CD5
330
1CD2
100
AcDbEntity
  8
0
 62
     0
370
    -2
100
AcDbLine
 10
-179.6900787669798
 20
-817.4931008035521
 30
0.0
 11
-179.6900787669798
 21
-820.0389928730155
 31
0.0
  0
LINE
  5
1CD6
330
1CD2
100
AcDbEntity
  8
0
 62
     0
370
    -2
100
AcDbLine
 10
-174.0958429688369
 20
-818.7889928730154
 30
0.0
 11
-171.5958429688369
 21
-818.7889928730154
 31
0.0
  0
LINE
  5
1CD7
330
1CD2
100
AcDbEntity
  8
0
 62
     0
370
    -2
100
AcDbLine
 10
-182.1900787669798
 20
-818.7889928730154
 30
0.0
 11
-196.0234121003131
 21
-818.7889928730154
 31
0.0
  0
LINE
  5
1CD8
330
1CD2
100
AcDbEntity
  8
0
 62
     0
370
    -2
100
AcDbLine
 10
-176.5958429688369
 20
-818.7889928730154
 30
0.0
 11
-179.6900787669798
 21
-818.7889928730154
 31
0.0
  0
INSERT
  5
1CD9
330
1CD2
100
AcDbEntity
  8
0
 62
     0
370
    -2
100
AcDbBlockReference
  2
_Open30
 10
-176.5958429688369
 20
-818.7889928730154
 30
0.0
 41
2.5
 42
2.5
 43
2.5
 50
180.0
  0
INSERT
  5
1CDA
330
1CD2
100
AcDbEntity
  8
0
 62
     0
370
    -2
100
AcDbBlockReference
  2
_Open30
 10
-179.6900787669798
 20
-818.7889928730154
 30
0.0
 41
2.5
 42
2.5
 43
2.5
  0
MTEXT
  5
1CDB
330
1CD2
100
AcDbEntity
  8
0
 62
     4
100
AcDbMText
 10
-190.8150787669798
 20
-816.9139928730155
 30
0.0
 40
2.5
 41
0.0
 71
     5
 72
     1
  1
15.47
  7
高2.5
 73
     1
 44
1.0
1001
ACAD
1000
MTEXTBEGIN
1070
    73
1070
     1
1070
    44
1040
1.0
1070
    74
1070
     0
1000
MTEXTEND
  0
POINT
  5
1CDC
330
1CD2
100
AcDbEntity
  8
Defpoints
 62
     0
100
AcDbPoint
 10
-176.5958429688369
 20
-817.2431008035522
 30
0.0
  0
POINT
  5
1CDD
330
1CD2
100
AcDbEntity
  8
Defpoints
 62
     0
100
AcDbPoint
 10
-179.6900787669798
 20
-817.2431008035522
 30
0.0
  0
POINT
  5
1CDE
330
1CD2
100
AcDbEntity
  8
Defpoints
 62
     0
100
AcDbPoint
 10
-179.6900787669798
 20
-818.7889928730154
 30
0.0
  0
ENDBLK
  5
1CDF
330
1CD2
100
AcDbEntity
  8
0
100
AcDbBlockEnd
  0
BLOCK
  5
1CE1
330
1CE0
100
AcDbEntity
  8
0
100
AcDbBlockBegin
  2
*D19
 70
     1
 10
0.0
 20
0.0
 30
0.0
  3
*D19
  1

  0
LINE
  5
1CE2
330
1CE0
100
AcDbEntity
  8
0
 62
     0
370
    -2
100
AcDbLine
 10
-174.8667113607514
 20
-822.9491905193986
 30
0.0
 11
-174.8667113607514
 21
-825.2222781817659
 31
0.0
  0
LINE
  5
1CE3
330
1CE0
100
AcDbEntity
  8
0
 62
     0
370
    -2
100
AcDbLine
 10
-178.8710163139432
 20
-822.9491905193986
 30
0.0
 11
-178.8710163139432
 21
-825.2222781817659
 31
0.0
  0
LINE
  5
1CE4
330
1CE0
100
AcDbEntity
  8
0
 62
     0
370
    -2
100
AcDbLine
 10
-172.3667113607514
 20
-823.9722781817658
 30
0.0
 11
-169.8667113607514
 21
-823.9722781817658
 31
0.0
  0
LINE
  5
1CE5
330
1CE0
100
AcDbEntity
  8
0
 62
     0
370
    -2
100
AcDbLine
 10
-181.3710163139432
 20
-823.9722781817658
 30
0.0
 11
-193.1210163139432
 21
-823.9722781817658
 31
0.0
  0
LINE
  5
1CE6
330
1CE0
100
AcDbEntity
  8
0
 62
     0
370
    -2
100
AcDbLine
 10
-174.8667113607514
 20
-823.9722781817658
 30
0.0
 11
-178.8710163139432
 21
-823.9722781817658
 31
0.0
  0
INSERT
  5
1CE7
330
1CE0
100
AcDbEntity
  8
0
 62
     0
370
    -2
100
AcDbBlockReference
  2
_Open30
 10
-174.8667113607514
 20
-823.9722781817658
 30
0.0
 41
2.5
 42
2.5
 43
2.5
 50
180.0
  0
INSERT
  5
1CE8
330
1CE0
100
AcDbEntity
  8
0
 62
     0
370
    -2
100
AcDbBlockReference
  2
_Open30
 10
-178.8710163139432
 20
-823.9722781817658
 30
0.0
 41
2.5
 42
2.5
 43
2.5
  0
MTEXT
  5
1CE9
330
1CE0
100
AcDbEntity
  8
0
 62
     4
100
AcDbMText
 10
-188.4960163139432
 20
-821.7472781817658
 30
0.0
 40
3.2
 41
0.0
 71
     5
 72
     1
  1
8.01
  7
高3.2
 73
     1
 44
1.0
1001
ACAD
1000
MTEXTBEGIN
1070
    73
1070
     1
1070
    44
1040
1.0
1070
    74
1070
     0
1000
MTEXTEND
  0
POINT
  5
1CEA
330
1CE0
100
AcDbEntity
  8
Defpoints
 62
     0
100
AcDbPoint
 10
-174.8667113607514
 20
-822.6991905193985
 30
0.0
  0
POINT
  5
1CEB
330
1CE0
100
AcDbEntity
  8
Defpoints
 62
     0
100
AcDbPoint
 10
-178.8710163139432
 20
-822.6991905193985
 30
0.0
  0
POINT
  5
1CEC
330
1CE0
100
AcDbEntity
  8
Defpoints
 62
     0
100
AcDbPoint
 10
-178.8710163139432
 20
-823.9722781817658
 30
0.0
  0
ENDBLK
  5
1CED
330
1CE0
100
AcDbEntity
  8
0
100
AcDbBlockEnd
  0
BLOCK
  5
1CEF
330
1CEE
100
AcDbEntity
  8
0
100
AcDbBlockBegin
  2
*D20
 70
     1
 10
0.0
 20
0.0
 30
0.0
  3
*D20
  1

  0
LINE
  5
1CF0
330
1CEE
100
AcDbEntity
  8
0
 62
     0
370
    -2
100
AcDbLine
 10
-174.9577180627637
 20
-828.2234104874302
 30
0.0
 11
-174.9577180627637
 21
-830.0418239948866
 31
0.0
  0
LINE
  5
1CF1
330
1CEE
100
AcDbEntity
  8
0
 62
     0
370
    -2
100
AcDbLine
 10
-179.6900787669798
 20
-828.2234104874302
 30
0.0
 11
-179.6900787669798
 21
-830.0418239948866
 31
0.0
  0
LINE
  5
1CF2
330
1CEE
100
AcDbEntity
  8
0
 62
     0
370
    -2
100
AcDbLine
 10
-172.4577180627637
 20
-828.7918239948865
 30
0.0
 11
-169.9577180627637
 21
-828.7918239948865
 31
0.0
  0
LINE
  5
1CF3
330
1CEE
100
AcDbEntity
  8
0
 62
     0
370
    -2
100
AcDbLine
 10
-182.1900787669798
 20
-828.7918239948865
 30
0.0
 11
-203.9400787669798
 21
-828.7918239948865
 31
0.0
  0
LINE
  5
1CF4
330
1CEE
100
AcDbEntity
  8
0
 62
     0
370
    -2
100
AcDbLine
 10
-174.9577180627637
 20
-828.7918239948865
 30
0.0
 11
-179.6900787669798
 21
-828.7918239948865
 31
0.0
  0
INSERT
  5
1CF5
330
1CEE
100
AcDbEntity
  8
0
 62
     0
370
    -2
100
AcDbBlockReference
  2
_Open30
 10
-174.9577180627637
 20
-828.7918239948865
 30
0.0
 41
2.5
 42
2.5
 43
2.5
 50
180.0
  0
INSERT
  5
1CF6
330
1CEE
100
AcDbEntity
  8
0
 62
     0
370
    -2
100
AcDbBlockReference
  2
_Open30
 10
-179.6900787669798
 20
-828.7918239948865
 30
0.0
 41
2.5
 42
2.5
 43
2.5
  0
MTEXT
  5
1CF7
330
1CEE
100
AcDbEntity
  8
0
 62
     4
100
AcDbMText
 10
-194.3150787669798
 20
-825.9168239948866
 30
0.0
 40
4.5
 41
0.0
 71
     5
 72
     1
  1
47.32
  7
高4.5
 73
     1
 44
1.0
1001
ACAD
1000
MTEXTBEGIN
1070
    73
1070
     1
1070
    44
1040
1.0
1070
    74
1070
     0
1000
MTEXTEND
  0
POINT
  5
1CF8
330
1CEE
100
AcDbEntity
  8
Defpoints
 62
     0
100
AcDbPoint
 10
-174.9577180627637
 20
-827.9734104874302
 30
0.0
  0
POINT
  5
1CF9
330
1CEE
100
AcDbEntity
  8
Defpoints
 62
     0
100
AcDbPoint
 10
-179.6900787669798
 20
-827.9734104874302
 30
0.0
  0
POINT
  5
1CFA
330
1CEE
100
AcDbEntity
  8
Defpoints
 62
     0
100
AcDbPoint
 10
-179.6900787669798
 20
-828.7918239948865
 30
0.0
  0
ENDBLK
  5
1CFB
330
1CEE
100
AcDbEntity
  8
0
100
AcDbBlockEnd
  0
BLOCK
  5
1CFD
330
1CFC
100
AcDbEntity
  8
0
100
AcDbBlockBegin
  2
*D21
 70
     1
 10
0.0
 20
0.0
 30
0.0
  3
*D21
  1

  0
LINE
  5
1CFE
330
1CFC
100
AcDbEntity
  8
0
 62
     0
370
    -2
100
AcDbLine
 10
-153.4800817947562
 20
-812.0370112307897
 30
0.0
 11
-153.4800817947562
 21
-814.9466426527986
 31
0.0
  0
LINE
  5
1CFF
330
1CFC
100
AcDbEntity
  8
0
 62
     0
370
    -2
100
AcDbLine
 10
-155.9372688488765
 20
-812.0370112307897
 30
0.0
 11
-155.9372688488765
 21
-814.9466426527986
 31
0.0
  0
LINE
  5
1D00
330
1CFC
100
AcDbEntity
  8
0
 62
     0
370
    -2
100
AcDbLine
 10
-150.9800817947562
 20
-813.6966426527985
 30
0.0
 11
-148.4800817947562
 21
-813.6966426527985
 31
0.0
  0
LINE
  5
1D01
330
1CFC
100
AcDbEntity
  8
0
 62
     0
370
    -2
100
AcDbLine
 10
-158.4372688488765
 20
-813.6966426527985
 30
0.0
 11
-180.0372688488765
 21
-813.6966426527985
 31
0.0
  0
LINE
  5
1D02
330
1CFC
100
AcDbEntity
  8
0
 62
     0
370
    -2
100
AcDbLine
 10
-153.4800817947562
 20
-813.6966426527985
 30
0.0
 11
-155.9372688488765
 21
-813.6966426527985
 31
0.0
  0
INSERT
  5
1D03
330
1CFC
100
AcDbEntity
  8
0
 62
     0
370
    -2
100
AcDbBlockReference
  2
_Open30
 10
-153.4800817947562
 20
-813.6966426527985
 30
0.0
 41
2.5
 42
2.5
 43
2.5
 50
180.0
  0
INSERT
  5
1D04
330
1CFC
100
AcDbEntity
  8
0
 62
     0
370
    -2
100
AcDbBlockReference
  2
_Open30
 10
-155.9372688488765
 20
-813.6966426527985
 30
0.0
 41
2.5
 42
2.5
 43
2.5
  0
MTEXT
  5
1D05
330
1CFC
100
AcDbEntity
  8
0
 62
     4
100
AcDbMText
 10
-170.4872688488765
 20
-809.9216426527986
 30
0.0
 40
6.299999999999999
 41
0.0
 71
     5
 72
     1
  1
0.25
  7
高6.3
 73
     1
 44
1.0
1001
ACAD
1000
MTEXTBEGIN
1070
    73
1070
     1
1070
    44
1040
1.0
1070
    74
1070
     0
1000
MTEXTEND
  0
POINT
  5
1D06
330
1CFC
100
AcDbEntity
  8
Defpoints
 62
     0
100
AcDbPoint
 10
-153.4800817947562
 20
-811.7870112307898
 30
0.0
  0
POINT
  5
1D07
330
1CFC
100
AcDbEntity
  8
Defpoints
 62
     0
100
AcDbPoint
 10
-155.9372688488765
 20
-811.7870112307898
 30
0.0
  0
POINT
  5
1D08
330
1CFC
100
AcDbEntity
  8
Defpoints
 62
     0
100
AcDbPoint
 10
-155.9372688488765
 20
-813.6966426527985
 30
0.0
  0
ENDBLK
  5
1D09
330
1CFC
100
AcDbEntity
  8
0
100
AcDbBlockEnd
  0
BLOCK
  5
1D0B
330
1D0A
100
AcDbEntity
  8
0
100
AcDbBlockBegin
  2
*D22
 70
     1
 10
0.0
 20
0.0
 30
0.0
  3
*D22
  1

  0
LINE
  5
1D0C
330
1D0A
100
AcDbEntity
  8
0
 62
     0
370
    -2
100
AcDbLine
 10
-151.841956888683
 20
-817.4931008035521
 30
0.0
 11
-151.841956888683
 21
-820.0389928730155
 31
0.0
  0
LINE
  5
1D0D
330
1D0A
100
AcDbEntity
  8
0
 62
     0
370
    -2
100
AcDbLine
 10
-154.9361926868259
 20
-817.4931008035521
 30
0.0
 11
-154.9361926868259
 21
-820.0389928730155
 31
0.0
  0
LINE
  5
1D0E
330
1D0A
100
AcDbEntity
  8
0
 62
     0
370
    -2
100
AcDbLine
 10
-149.341956888683
 20
-818.7889928730154
 30
0.0
 11
-146.841956888683
 21
-818.7889928730154
 31
0.0
  0
LINE
  5
1D0F
330
1D0A
100
AcDbEntity
  8
0
 62
     0
370
    -2
100
AcDbLine
 10
-157.4361926868259
 20
-818.7889928730154
 30
0.0
 11
-169.4361926868259
 21
-818.7889928730154
 31
0.0
  0
LINE
  5
1D10
330
1D0A
100
AcDbEntity
  8
0
 62
     0
370
    -2
100
AcDbLine
 10
-151.841956888683
 20
-818.7889928730154
 30
0.0
 11
-154.9361926868259
 21
-818.7889928730154
 31
0.0
  0
INSERT
  5
1D11
330
1D0A
100
AcDbEntity
  8
0
 62
     0
370
    -2
100
AcDbBlockReference
  2
_Open30
 10
-151.841956888683
 20
-818.7889928730154
 30
0.0
 41
2.5
 42
2.5
 43
2.5
 50
180.0
  0
INSERT
  5
1D12
330
1D0A
100
AcDbEntity
  8
0
 62
     0
370
    -2
100
AcDbBlockReference
  2
_Open30
 10
-154.9361926868259
 20
-818.7889928730154
 30
0.0
 41
2.5
 42
2.5
 43
2.5
  0
MTEXT
  5
1D13
330
1D0A
100
AcDbEntity
  8
0
 62
     4
100
AcDbMText
 10
-164.8111926868259
 20
-816.6639928730154
 30
0.0
 40
3.0
 41
0.0
 71
     5
 72
     1
  1
1.55
 73
     1
 44
1.0
1001
ACAD
1000
MTEXTBEGIN
1070
    73
1070
     1
1070
    44
1040
1.0
1070
    74
1070
     0
1000
MTEXTEND
  0
POINT
  5
1D14
330
1D0A
100
AcDbEntity
  8
Defpoints
 62
     0
100
AcDbPoint
 10
-151.841956888683
 20
-817.2431008035522
 30
0.0
  0
POINT
  5
1D15
330
1D0A
100
AcDbEntity
  8
Defpoints
 62
     0
100
AcDbPoint
 10
-154.9361926868259
 20
-817.2431008035522
 30
0.0
  0
POINT
  5
1D16
330
1D0A
100
AcDbEntity
  8
Defpoints
 62
     0
100
AcDbPoint
 10
-154.9361926868259
 20
-818.7889928730154
 30
0.0
  0
ENDBLK
  5
1D17
330
1D0A
100
AcDbEntity
  8
0
100
AcDbBlockEnd
  0
BLOCK
  5
1D19
330
1D18
100
AcDbEntity
  8
0
100
AcDbBlockBegin
  2
*D23
 70
     1
 10
0.0
 20
0.0
 30
0.0
  3
*D23
  1

  0
LINE
  5
1D1A
330
1D18
100
AcDbEntity
  8
0
 62
     0
370
    -2
100
AcDbLine
 10
-150.1128252805975
 20
-822.9491905193986
 30
0.0
 11
-150.1128252805975
 21
-825.2222781817659
 31
0.0
  0
LINE
  5
1D1B
330
1D18
100
AcDbEntity
  8
0
 62
     0
370
    -2
100
AcDbLine
 10
-154.1171302337894
 20
-822.9491905193986
 30
0.0
 11
-154.1171302337894
 21
-825.2222781817659
 31
0.0
  0
LINE
  5
1D1C
330
1D18
100
AcDbEntity
  8
0
 62
     0
370
    -2
100
AcDbLine
 10
-147.6128252805976
 20
-823.9722781817658
 30
0.0
 11
-145.1128252805975
 21
-823.9722781817658
 31
0.0
  0
LINE
  5
1D1D
330
1D18
100
AcDbEntity
  8
0
 62
     0
370
    -2
100
AcDbLine
 10
-156.6171302337894
 20
-823.9722781817658
 30
0.0
 11
-164.9504635671227
 21
-823.9722781817658
 31
0.0
  0
LINE
  5
1D1E
330
1D18
100
AcDbEntity
  8
0
 62
     0
370
    -2
100
AcDbLine
 10
-150.1128252805975
 20
-823.9722781817658
 30
0.0
 11
-154.1171302337894
 21
-823.9722781817658
 31
0.0
  0
INSERT
  5
1D1F
330
1D18
100
AcDbEntity
  8
0
 62
     0
370
    -2
100
AcDbBlockReference
  2
_Open30
 10
-150.1128252805975
 20
-823.9722781817658
 30
0.0
 41
2.5
 42
2.5
 43
2.5
 50
180.0
  0
INSERT
  5
1D20
330
1D18
100
AcDbEntity
  8
0
 62
     0
370
    -2
100
AcDbBlockReference
  2
_Open30
 10
-154.1171302337894
 20
-823.9722781817658
 30
0.0
 41
2.5
 42
2.5
 43
2.5
  0
MTEXT
  5
1D21
330
1D18
100
AcDbEntity
  8
0
 62
     4
100
AcDbMText
 10
-162.4921302337894
 20
-822.3472781817658
 30
0.0
 40
2.0
 41
0.0
 71
     5
 72
     1
  1
0.8
  7
高2
 73
     1
 44
1.0
1001
ACAD
1000
MTEXTBEGIN
1070
    73
1070
     1
1070
    44
1040
1.0
1070
    74
1070
     0
1000
MTEXTEND
  0
POINT
  5
1D22
330
1D18
100
AcDbEntity
  8
Defpoints
 62
     0
100
AcDbPoint
 10
-150.1128252805975
 20
-822.6991905193985
 30
0.0
  0
POINT
  5
1D23
330
1D18
100
AcDbEntity
  8
Defpoints
 62
     0
100
AcDbPoint
 10
-154.1171302337894
 20
-822.6991905193985
 30
0.0
  0
POINT
  5
1D24
330
1D18
100
AcDbEntity
  8
Defpoints
 62
     0
100
AcDbPoint
 10
-154.1171302337894
 20
-823.9722781817658
 30
0.0
  0
ENDBLK
  5
1D25
330
1D18
100
AcDbEntity
  8
0
100
AcDbBlockEnd
  0
BLOCK
  5
1D27
330
1D26
100
AcDbEntity
  8
0
100
AcDbBlockBegin
  2
*D24
 70
     1
 10
0.0
 20
0.0
 30
0.0
  3
*D24
  1

  0
LINE
  5
1D28
330
1D26
100
AcDbEntity
  8
0
 62
     0
370
    -2
100
AcDbLine
 10
-150.2038319826098
 20
-828.2234104874302
 30
0.0
 11
-150.2038319826098
 21
-830.0418239948866
 31
0.0
  0
LINE
  5
1D29
330
1D26
100
AcDbEntity
  8
0
 62
     0
370
    -2
100
AcDbLine
 10
-154.9361926868259
 20
-828.2234104874302
 30
0.0
 11
-154.9361926868259
 21
-830.0418239948866
 31
0.0
  0
LINE
  5
1D2A
330
1D26
100
AcDbEntity
  8
0
 62
     0
370
    -2
100
AcDbLine
 10
-147.7038319826099
 20
-828.7918239948865
 30
0.0
 11
-145.2038319826098
 21
-828.7918239948865
 31
0.0
  0
LINE
  5
1D2B
330
1D26
100
AcDbEntity
  8
0
 62
     0
370
    -2
100
AcDbLine
 10
-157.4361926868259
 20
-828.7918239948865
 30
0.0
 11
-172.1861926868259
 21
-828.7918239948865
 31
0.0
  0
LINE
  5
1D2C
330
1D26
100
AcDbEntity
  8
0
 62
     0
370
    -2
100
AcDbLine
 10
-150.2038319826098
 20
-828.7918239948865
 30
0.0
 11
-154.9361926868259
 21
-828.7918239948865
 31
0.0
  0
INSERT
  5
1D2D
330
1D26
100
AcDbEntity
  8
0
 62
     0
370
    -2
100
AcDbBlockReference
  2
_Open30
 10
-150.2038319826098
 20
-828.7918239948865
 30
0.0
 41
2.5
 42
2.5
 43
2.5
 50
180.0
  0
INSERT
  5
1D2E
330
1D26
100
AcDbEntity
  8
0
 62
     0
370
    -2
100
AcDbBlockReference
  2
_Open30
 10
-154.9361926868259
 20
-828.7918239948865
 30
0.0
 41
2.5
 42
2.5
 43
2.5
  0
MTEXT
  5
1D2F
330
1D26
100
AcDbEntity
  8
0
 62
     4
100
AcDbMText
 10
-166.0611926868259
 20
-826.6668239948867
 30
0.0
 40
3.0
 41
0.0
 71
     5
 72
     1
  1
18.93
 73
     1
 44
1.0
1001
ACAD
1000
MTEXTBEGIN
1070
    73
1070
     1
1070
    44
1040
1.0
1070
    74
1070
     0
1000
MTEXTEND
  0
POINT
  5
1D30
330
1D26
100
AcDbEntity
  8
Defpoints
 62
     0
100
AcDbPoint
 10
-150.2038319826098
 20
-827.9734104874302
 30
0.0
  0
POINT
  5
1D31
330
1D26
100
AcDbEntity
  8
Defpoints
 62
     0
100
AcDbPoint
 10
-154.9361926868259
 20
-827.9734104874302
 30
0.0
  0
POINT
  5
1D32
330
1D26
100
AcDbEntity
  8
Defpoints
 62
     0
100
AcDbPoint
 10
-154.9361926868259
 20
-828.7918239948865
 30
0.0
  0
ENDBLK
  5
1D33
330
1D26
100
AcDbEntity
  8
0
100
AcDbBlockEnd
  0
BLOCK
  5
1D35
330
1D34
100
AcDbEntity
  8
0
100
AcDbBlockBegin
  2
*D25
 70
     1
 10
0.0
 20
0.0
 30
0.0
  3
*D25
  1

  0
LINE
  5
1D36
330
1D34
100
AcDbEntity
  8
0
 62
     0
370
    -2
100
AcDbLine
 10
-153.0082588337482
 20
-833.2792506940199
 30
0.0
 11
-153.0082588337482
 21
-835.5891717708955
 31
0.0
  0
LINE
  5
1D37
330
1D34
100
AcDbEntity
  8
0
 62
     0
370
    -2
100
AcDbLine
 10
-157.5969340358961
 20
-833.2792506940199
 30
0.0
 11
-157.5969340358961
 21
-835.5891717708955
 31
0.0
  0
LINE
  5
1D38
330
1D34
100
AcDbEntity
  8
0
 62
     0
370
    -2
100
AcDbLine
 10
-150.5082588337482
 20
-834.3391717708955
 30
0.0
 11
-148.0082588337482
 21
-834.3391717708955
 31
0.0
  0
LINE
  5
1D39
330
1D34
100
AcDbEntity
  8
0
 62
     0
370
    -2
100
AcDbLine
 10
-160.0969340358961
 20
-834.3391717708955
 30
0.0
 11
-174.8469340358961
 21
-834.3391717708955
 31
0.0
  0
LINE
  5
1D3A
330
1D34
100
AcDbEntity
  8
0
 62
     0
370
    -2
100
AcDbLine
 10
-153.0082588337482
 20
-834.3391717708955
 30
0.0
 11
-157.5969340358961
 21
-834.3391717708955
 31
0.0
  0
INSERT
  5
1D3B
330
1D34
100
AcDbEntity
  8
0
 62
     0
370
    -2
100
AcDbBlockReference
  2
_Open30
 10
-153.0082588337482
 20
-834.3391717708955
 30
0.0
 41
2.5
 42
2.5
 43
2.5
 50
180.0
  0
INSERT
  5
1D3C
330
1D34
100
AcDbEntity
  8
0
 62
     0
370
    -2
100
AcDbBlockReference
  2
_Open30
 10
-157.5969340358961
 20
-834.3391717708955
 30
0.0
 41
2.5
 42
2.5
 43
2.5
  0
MTEXT
  5
1D3D
330
1D34
100
AcDbEntity
  8
0
 62
     4
100
AcDbMText
 10
-168.7219340358961
 20
-832.2141717708955
 30
0.0
 40
3.0
 41
0.0
 71
     5
 72
     1
  1
13.77
 73
     1
 44
1.0
1001
ACAD
1000
MTEXTBEGIN
1070
    73
1070
     1
1070
    44
1040
1.0
1070
    74
1070
     0
1000
MTEXTEND
  0
POINT
  5
1D3E
330
1D34
100
AcDbEntity
  8
Defpoints
 62
     0
100
AcDbPoint
 10
-153.0082588337482
 20
-833.02925069402
 30
0.0
  0
POINT
  5
1D3F
330
1D34
100
AcDbEntity
  8
Defpoints
 62
     0
100
AcDbPoint
 10
-157.5969340358961
 20
-833.02925069402
 30
0.0
  0
POINT
  5
1D40
330
1D34
100
AcDbEntity
  8
Defpoints
 62
     0
100
AcDbPoint
 10
-157.5969340358961
 20
-834.3391717708955
 30
0.0
  0
ENDBLK
  5
1D41
330
1D34
100
AcDbEntity
  8
0
100
AcDbBlockEnd
  0
BLOCK
  5
1D43
330
1D42
100
AcDbEntity
  8
0
100
AcDbBlockBegin
  2
*D26
 70
     1
 10
0.0
 20
0.0
 30
0.0
  3
*D26
  1

  0
LINE
  5
1D44
330
1D42
100
AcDbEntity
  8
0
 62
     0
370
    -2
100
AcDbLine
 10
-160.1045416668985
 20
-802.3497593757456
 30
0.0
 11
-160.1045416668985
 21
-794.9532258978079
 31
0.0
  0
LINE
  5
1D45
330
1D42
100
AcDbEntity
  8
0
 62
     0
370
    -2
100
AcDbLine
 10
-170.0430160363885
 20
-802.3497593757456
 30
0.0
 11
-170.0430160363885
 21
-794.9532258978079
 31
0.0
  0
LINE
  5
1D46
330
1D42
100
AcDbEntity
  8
0
 62
     0
370
    -2
100
AcDbLine
 10
-162.6045416668985
 20
-796.2032258978078
 30
0.0
 11
-167.5430160363885
 21
-796.2032258978078
 31
0.0
  0
INSERT
  5
1D47
330
1D42
100
AcDbEntity
  8
0
 62
     0
370
    -2
100
AcDbBlockReference
  2
_Open30
 10
-160.1045416668985
 20
-796.2032258978078
 30
0.0
 41
2.5
 42
2.5
 43
2.5
  0
INSERT
  5
1D48
330
1D42
100
AcDbEntity
  8
0
 62
     0
370
    -2
100
AcDbBlockReference
  2
_Open30
 10
-170.0430160363885
 20
-796.2032258978078
 30
0.0
 41
2.5
 42
2.5
 43
2.5
 50
180.0
  0
MTEXT
  5
1D49
330
1D42
100
AcDbEntity
  8
0
 62
     4
100
AcDbMText
 10
-165.0737788516435
 20
-793.1282258978078
 30
0.0
 40
3.0
 41
0.0
 71
     5
 72
     1
  1
9.94\H0.7X;\S+0^ -0.02;
 73
     1
 44
1.0
1001
ACAD
1000
MTEXTBEGIN
1070
    73
1070
     1
1070
    44
1040
1.0
1070
    74
1070
     0
1000
MTEXTEND
  0
POINT
  5
1D4A
330
1D42
100
AcDbEntity
  8
Defpoints
 62
     0
100
AcDbPoint
 10
-160.1045416668985
 20
-802.5997593757455
 30
0.0
  0
POINT
  5
1D4B
330
1D42
100
AcDbEntity
  8
Defpoints
 62
     0
100
AcDbPoint
 10
-170.0430160363885
 20
-802.5997593757455
 30
0.0
  0
POINT
  5
1D4C
330
1D42
100
AcDbEntity
  8
Defpoints
 62
     0
100
AcDbPoint
 10
-170.0430160363885
 20
-796.2032258978078
 30
0.0
  0
ENDBLK
  5
1D4D
330
1D42
100
AcDbEntity
  8
0
100
AcDbBlockEnd
  0
BLOCK
  5
1DA4
330
1DA3
100
AcDbEntity
  8
0
100
AcDbBlockBegin
  2
*D28
 70
     1
 10
0.0
 20
0.0
 30
0.0
  3
*D28
  1

  0
LINE
  5
1E2D
330
1DA3
100
AcDbEntity
  8
0
 62
     0
370
    -2
100
AcDbLine
 10
1224.354868381279
 20
265.7459659903511
 30
0.0
 11
1224.354868381279
 21
262.8363345683423
 31
0.0
  0
LINE
  5
1E2E
330
1DA3
100
AcDbEntity
  8
0
 62
     0
370
    -2
100
AcDbLine
 10
1221.897681327159
 20
265.7459659903511
 30
0.0
 11
1221.897681327159
 21
262.8363345683423
 31
0.0
  0
LINE
  5
1E2F
330
1DA3
100
AcDbEntity
  8
0
 62
     0
370
    -2
100
AcDbLine
 10
1226.854868381279
 20
264.0863345683423
 30
0.0
 11
1229.354868381279
 21
264.0863345683423
 31
0.0
  0
LINE
  5
1E30
330
1DA3
100
AcDbEntity
  8
0
 62
     0
370
    -2
100
AcDbLine
 10
1219.397681327159
 20
264.0863345683423
 30
0.0
 11
1206.647681327159
 21
264.0863345683423
 31
0.0
  0
LINE
  5
1E31
330
1DA3
100
AcDbEntity
  8
0
 62
     0
370
    -2
100
AcDbLine
 10
1224.354868381279
 20
264.0863345683423
 30
0.0
 11
1221.897681327159
 21
264.0863345683423
 31
0.0
  0
INSERT
  5
1E32
330
1DA3
100
AcDbEntity
  8
0
 62
     0
370
    -2
100
AcDbBlockReference
  2
_Open30
 10
1224.354868381279
 20
264.0863345683423
 30
0.0
 41
2.5
 42
2.5
 43
2.5
 50
180.0
  0
INSERT
  5
1E33
330
1DA3
100
AcDbEntity
  8
0
 62
     0
370
    -2
100
AcDbBlockReference
  2
_Open30
 10
1221.897681327159
 20
264.0863345683423
 30
0.0
 41
2.5
 42
2.5
 43
2.5
  0
MTEXT
  5
1E34
330
1DA3
100
AcDbEntity
  8
0
 62
     4
100
AcDbMText
 10
1211.772681327159
 20
266.2113345683423
 30
0.0
 40
3.0
 41
0.0
 71
     5
 72
     1
  1
2.46
 73
     1
 44
1.0
1001
ACAD
1000
MTEXTBEGIN
1070
    73
1070
     1
1070
    44
1040
1.0
1070
    74
1070
     0
1000
MTEXTEND
  0
POINT
  5
1E35
330
1DA3
100
AcDbEntity
  8
Defpoints
 62
     0
100
AcDbPoint
 10
1224.354868381279
 20
265.9959659903511
 30
0.0
  0
POINT
  5
1E36
330
1DA3
100
AcDbEntity
  8
Defpoints
 62
     0
100
AcDbPoint
 10
1221.897681327159
 20
265.9959659903511
 30
0.0
  0
POINT
  5
1E37
330
1DA3
100
AcDbEntity
  8
Defpoints
 62
     0
100
AcDbPoint
 10
1221.897681327159
 20
264.0863345683423
 30
0.0
  0
ENDBLK
  5
1DA5
330
1DA3
100
AcDbEntity
  8
0
100
AcDbBlockEnd
  0
BLOCK
  5
1DB2
330
1DB1
100
AcDbEntity
  8
0
100
AcDbBlockBegin
  2
*D29
 70
     1
 10
0.0
 20
0.0
 30
0.0
  3
*D29
  1

  0
LINE
  5
1E38
330
1DB1
100
AcDbEntity
  8
0
 62
     0
370
    -2
100
AcDbLine
 10
1225.992993287352
 20
260.2898764175888
 30
0.0
 11
1225.992993287352
 21
257.7439843481254
 31
0.0
  0
LINE
  5
1E39
330
1DB1
100
AcDbEntity
  8
0
 62
     0
370
    -2
100
AcDbLine
 10
1222.898757489209
 20
260.2898764175888
 30
0.0
 11
1222.898757489209
 21
257.7439843481254
 31
0.0
  0
LINE
  5
1E3A
330
1DB1
100
AcDbEntity
  8
0
 62
     0
370
    -2
100
AcDbLine
 10
1228.492993287352
 20
258.9939843481254
 30
0.0
 11
1230.992993287352
 21
258.9939843481254
 31
0.0
  0
LINE
  5
1E3B
330
1DB1
100
AcDbEntity
  8
0
 62
     0
370
    -2
100
AcDbLine
 10
1220.398757489209
 20
258.9939843481254
 30
0.0
 11
1206.565424155876
 21
258.9939843481254
 31
0.0
  0
LINE
  5
1E3C
330
1DB1
100
AcDbEntity
  8
0
 62
     0
370
    -2
100
AcDbLine
 10
1225.992993287352
 20
258.9939843481254
 30
0.0
 11
1222.898757489209
 21
258.9939843481254
 31
0.0
  0
INSERT
  5
1E3D
330
1DB1
100
AcDbEntity
  8
0
 62
     0
370
    -2
100
AcDbBlockReference
  2
_Open30
 10
1225.992993287352
 20
258.9939843481254
 30
0.0
 41
2.5
 42
2.5
 43
2.5
 50
180.0
  0
INSERT
  5
1E3E
330
1DB1
100
AcDbEntity
  8
0
 62
     0
370
    -2
100
AcDbBlockReference
  2
_Open30
 10
1222.898757489209
 20
258.9939843481254
 30
0.0
 41
2.5
 42
2.5
 43
2.5
  0
MTEXT
  5
1E3F
330
1DB1
100
AcDbEntity
  8
0
 62
     4
100
AcDbMText
 10
1211.773757489209
 20
260.8689843481254
 30
0.0
 40
2.5
 41
0.0
 71
     5
 72
     1
  1
15.47
  7
高2.5
 73
     1
 44
1.0
1001
ACAD
1000
MTEXTBEGIN
1070
    73
1070
     1
1070
    44
1040
1.0
1070
    74
1070
     0
1000
MTEXTEND
  0
POINT
  5
1E40
330
1DB1
100
AcDbEntity
  8
Defpoints
 62
     0
100
AcDbPoint
 10
1225.992993287352
 20
260.5398764175888
 30
0.0
  0
POINT
  5
1E41
330
1DB1
100
AcDbEntity
  8
Defpoints
 62
     0
100
AcDbPoint
 10
1222.898757489209
 20
260.5398764175888
 30
0.0
  0
POINT
  5
1E42
330
1DB1
100
AcDbEntity
  8
Defpoints
 62
     0
100
AcDbPoint
 10
1222.898757489209
 20
258.9939843481254
 30
0.0
  0
ENDBLK
  5
1DB3
330
1DB1
100
AcDbEntity
  8
0
100
AcDbBlockEnd
  0
BLOCK
  5
1DC0
330
1DBF
100
AcDbEntity
  8
0
100
AcDbBlockBegin
  2
*D30
 70
     1
 10
0.0
 20
0.0
 30
0.0
  3
*D30
  1

  0
LINE
  5
1E43
330
1DBF
100
AcDbEntity
  8
0
 62
     0
370
    -2
100
AcDbLine
 10
1227.722124895438
 20
254.8337867017423
 30
0.0
 11
1227.722124895438
 21
252.560699039375
 31
0.0
  0
LINE
  5
1E44
330
1DBF
100
AcDbEntity
  8
0
 62
     0
370
    -2
100
AcDbLine
 10
1223.717819942246
 20
254.8337867017423
 30
0.0
 11
1223.717819942246
 21
252.560699039375
 31
0.0
  0
LINE
  5
1E45
330
1DBF
100
AcDbEntity
  8
0
 62
     0
370
    -2
100
AcDbLine
 10
1230.222124895438
 20
253.810699039375
 30
0.0
 11
1232.722124895438
 21
253.810699039375
 31
0.0
  0
LINE
  5
1E46
330
1DBF
100
AcDbEntity
  8
0
 62
     0
370
    -2
100
AcDbLine
 10
1221.217819942246
 20
253.810699039375
 30
0.0
 11
1209.467819942246
 21
253.810699039375
 31
0.0
  0
LINE
  5
1E47
330
1DBF
100
AcDbEntity
  8
0
 62
     0
370
    -2
100
AcDbLine
 10
1227.722124895438
 20
253.810699039375
 30
0.0
 11
1223.717819942246
 21
253.810699039375
 31
0.0
  0
INSERT
  5
1E48
330
1DBF
100
AcDbEntity
  8
0
 62
     0
370
    -2
100
AcDbBlockReference
  2
_Open30
 10
1227.722124895438
 20
253.810699039375
 30
0.0
 41
2.5
 42
2.5
 43
2.5
 50
180.0
  0
INSERT
  5
1E49
330
1DBF
100
AcDbEntity
  8
0
 62
     0
370
    -2
100
AcDbBlockReference
  2
_Open30
 10
1223.717819942246
 20
253.810699039375
 30
0.0
 41
2.5
 42
2.5
 43
2.5
  0
MTEXT
  5
1E4A
330
1DBF
100
AcDbEntity
  8
0
 62
     4
100
AcDbMText
 10
1214.092819942246
 20
256.035699039375
 30
0.0
 40
3.2
 41
0.0
 71
     5
 72
     1
  1
8.01
  7
高3.2
 73
     1
 44
1.0
1001
ACAD
1000
MTEXTBEGIN
1070
    73
1070
     1
1070
    44
1040
1.0
1070
    74
1070
     0
1000
MTEXTEND
  0
POINT
  5
1E4B
330
1DBF
100
AcDbEntity
  8
Defpoints
 62
     0
100
AcDbPoint
 10
1227.722124895438
 20
255.0837867017423
 30
0.0
  0
POINT
  5
1E4C
330
1DBF
100
AcDbEntity
  8
Defpoints
 62
     0
100
AcDbPoint
 10
1223.717819942246
 20
255.0837867017423
 30
0.0
  0
POINT
  5
1E4D
330
1DBF
100
AcDbEntity
  8
Defpoints
 62
     0
100
AcDbPoint
 10
1223.717819942246
 20
253.810699039375
 30
0.0
  0
ENDBLK
  5
1DC1
330
1DBF
100
AcDbEntity
  8
0
100
AcDbBlockEnd
  0
BLOCK
  5
1DCE
330
1DCD
100
AcDbEntity
  8
0
100
AcDbBlockBegin
  2
*D31
 70
     1
 10
0.0
 20
0.0
 30
0.0
  3
*D31
  1

  0
LINE
  5
1E4E
330
1DCD
100
AcDbEntity
  8
0
 62
     0
370
    -2
100
AcDbLine
 10
1227.631118193426
 20
249.5595667337107
 30
0.0
 11
1227.631118193426
 21
247.7411532262542
 31
0.0
  0
LINE
  5
1E4F
330
1DCD
100
AcDbEntity
  8
0
 62
     0
370
    -2
100
AcDbLine
 10
1222.898757489209
 20
249.5595667337107
 30
0.0
 11
1222.898757489209
 21
247.7411532262542
 31
0.0
  0
LINE
  5
1E50
330
1DCD
100
AcDbEntity
  8
0
 62
     0
370
    -2
100
AcDbLine
 10
1230.131118193426
 20
248.9911532262543
 30
0.0
 11
1232.631118193425
 21
248.9911532262543
 31
0.0
  0
LINE
  5
1E51
330
1DCD
100
AcDbEntity
  8
0
 62
     0
370
    -2
100
AcDbLine
 10
1220.398757489209
 20
248.9911532262543
 30
0.0
 11
1198.648757489209
 21
248.9911532262543
 31
0.0
  0
LINE
  5
1E52
330
1DCD
100
AcDbEntity
  8
0
 62
     0
370
    -2
100
AcDbLine
 10
1227.631118193426
 20
248.9911532262543
 30
0.0
 11
1222.898757489209
 21
248.9911532262543
 31
0.0
  0
INSERT
  5
1E53
330
1DCD
100
AcDbEntity
  8
0
 62
     0
370
    -2
100
AcDbBlockReference
  2
_Open30
 10
1227.631118193426
 20
248.9911532262543
 30
0.0
 41
2.5
 42
2.5
 43
2.5
 50
180.0
  0
INSERT
  5
1E54
330
1DCD
100
AcDbEntity
  8
0
 62
     0
370
    -2
100
AcDbBlockReference
  2
_Open30
 10
1222.898757489209
 20
248.9911532262543
 30
0.0
 41
2.5
 42
2.5
 43
2.5
  0
MTEXT
  5
1E55
330
1DCD
100
AcDbEntity
  8
0
 62
     4
100
AcDbMText
 10
1208.273757489209
 20
251.8661532262543
 30
0.0
 40
4.5
 41
0.0
 71
     5
 72
     1
  1
47.32
  7
高4.5
 73
     1
 44
1.0
1001
ACAD
1000
MTEXTBEGIN
1070
    73
1070
     1
1070
    44
1040
1.0
1070
    74
1070
     0
1000
MTEXTEND
  0
POINT
  5
1E56
330
1DCD
100
AcDbEntity
  8
Defpoints
 62
     0
100
AcDbPoint
 10
1227.631118193426
 20
249.8095667337107
 30
0.0
  0
POINT
  5
1E57
330
1DCD
100
AcDbEntity
  8
Defpoints
 62
     0
100
AcDbPoint
 10
1222.898757489209
 20
249.8095667337107
 30
0.0
  0
POINT
  5
1E58
330
1DCD
100
AcDbEntity
  8
Defpoints
 62
     0
100
AcDbPoint
 10
1222.898757489209
 20
248.9911532262543
 30
0.0
  0
ENDBLK
  5
1DCF
330
1DCD
100
AcDbEntity
  8
0
100
AcDbBlockEnd
  0
BLOCK
  5
1DDC
330
1DDB
100
AcDbEntity
  8
0
100
AcDbBlockBegin
  2
*D32
 70
     1
 10
0.0
 20
0.0
 30
0.0
  3
*D32
  1

  0
LINE
  5
1E59
330
1DDB
100
AcDbEntity
  8
0
 62
     0
370
    -2
100
AcDbLine
 10
1249.108754461433
 20
265.7459659903511
 30
0.0
 11
1249.108754461433
 21
262.8363345683423
 31
0.0
  0
LINE
  5
1E5A
330
1DDB
100
AcDbEntity
  8
0
 62
     0
370
    -2
100
AcDbLine
 10
1246.651567407313
 20
265.7459659903511
 30
0.0
 11
1246.651567407313
 21
262.8363345683423
 31
0.0
  0
LINE
  5
1E5B
330
1DDB
100
AcDbEntity
  8
0
 62
     0
370
    -2
100
AcDbLine
 10
1251.608754461433
 20
264.0863345683423
 30
0.0
 11
1254.108754461433
 21
264.0863345683423
 31
0.0
  0
LINE
  5
1E5C
330
1DDB
100
AcDbEntity
  8
0
 62
     0
370
    -2
100
AcDbLine
 10
1244.151567407313
 20
264.0863345683423
 30
0.0
 11
1222.551567407313
 21
264.0863345683423
 31
0.0
  0
LINE
  5
1E5D
330
1DDB
100
AcDbEntity
  8
0
 62
     0
370
    -2
100
AcDbLine
 10
1249.108754461433
 20
264.0863345683423
 30
0.0
 11
1246.651567407313
 21
264.0863345683423
 31
0.0
  0
INSERT
  5
1E5E
330
1DDB
100
AcDbEntity
  8
0
 62
     0
370
    -2
100
AcDbBlockReference
  2
_Open30
 10
1249.108754461433
 20
264.0863345683423
 30
0.0
 41
2.5
 42
2.5
 43
2.5
 50
180.0
  0
INSERT
  5
1E5F
330
1DDB
100
AcDbEntity
  8
0
 62
     0
370
    -2
100
AcDbBlockReference
  2
_Open30
 10
1246.651567407313
 20
264.0863345683423
 30
0.0
 41
2.5
 42
2.5
 43
2.5
  0
MTEXT
  5
1E60
330
1DDB
100
AcDbEntity
  8
0
 62
     4
100
AcDbMText
 10
1232.101567407313
 20
267.8613345683423
 30
0.0
 40
6.299999999999998
 41
0.0
 71
     5
 72
     1
  1
0.25
  7
高6.3
 73
     1
 44
1.0
1001
ACAD
1000
MTEXTBEGIN
1070
    73
1070
     1
1070
    44
1040
1.0
1070
    74
1070
     0
1000
MTEXTEND
  0
POINT
  5
1E61
330
1DDB
100
AcDbEntity
  8
Defpoints
 62
     0
100
AcDbPoint
 10
1249.108754461433
 20
265.9959659903511
 30
0.0
  0
POINT
  5
1E62
330
1DDB
100
AcDbEntity
  8
Defpoints
 62
     0
100
AcDbPoint
 10
1246.651567407313
 20
265.9959659903511
 30
0.0
  0
POINT
  5
1E63
330
1DDB
100
AcDbEntity
  8
Defpoints
 62
     0
100
AcDbPoint
 10
1246.651567407313
 20
264.0863345683423
 30
0.0
  0
ENDBLK
  5
1DDD
330
1DDB
100
AcDbEntity
  8
0
100
AcDbBlockEnd
  0
BLOCK
  5
1DEA
330
1DE9
100
AcDbEntity
  8
0
100
AcDbBlockBegin
  2
*D33
 70
     1
 10
0.0
 20
0.0
 30
0.0
  3
*D33
  1

  0
LINE
  5
1E64
330
1DE9
100
AcDbEntity
  8
0
 62
     0
370
    -2
100
AcDbLine
 10
1250.746879367506
 20
260.2898764175888
 30
0.0
 11
1250.746879367506
 21
257.7439843481254
 31
0.0
  0
LINE
  5
1E65
330
1DE9
100
AcDbEntity
  8
0
 62
     0
370
    -2
100
AcDbLine
 10
1247.652643569363
 20
260.2898764175888
 30
0.0
 11
1247.652643569363
 21
257.7439843481254
 31
0.0
  0
LINE
  5
1E66
330
1DE9
100
AcDbEntity
  8
0
 62
     0
370
    -2
100
AcDbLine
 10
1253.246879367506
 20
258.9939843481254
 30
0.0
 11
1255.746879367506
 21
258.9939843481254
 31
0.0
  0
LINE
  5
1E67
330
1DE9
100
AcDbEntity
  8
0
 62
     0
370
    -2
100
AcDbLine
 10
1245.152643569363
 20
258.9939843481254
 30
0.0
 11
1233.152643569363
 21
258.9939843481254
 31
0.0
  0
LINE
  5
1E68
330
1DE9
100
AcDbEntity
  8
0
 62
     0
370
    -2
100
AcDbLine
 10
1250.746879367506
 20
258.9939843481254
 30
0.0
 11
1247.652643569363
 21
258.9939843481254
 31
0.0
  0
INSERT
  5
1E69
330
1DE9
100
AcDbEntity
  8
0
 62
     0
370
    -2
100
AcDbBlockReference
  2
_Open30
 10
1250.746879367506
 20
258.9939843481254
 30
0.0
 41
2.5
 42
2.5
 43
2.5
 50
180.0
  0
INSERT
  5
1E6A
330
1DE9
100
AcDbEntity
  8
0
 62
     0
370
    -2
100
AcDbBlockReference
  2
_Open30
 10
1247.652643569363
 20
258.9939843481254
 30
0.0
 41
2.5
 42
2.5
 43
2.5
  0
MTEXT
  5
1E6B
330
1DE9
100
AcDbEntity
  8
0
 62
     4
100
AcDbMText
 10
1237.777643569363
 20
261.1189843481254
 30
0.0
 40
3.0
 41
0.0
 71
     5
 72
     1
  1
1.55
 73
     1
 44
1.0
1001
ACAD
1000
MTEXTBEGIN
1070
    73
1070
     1
1070
    44
1040
1.0
1070
    74
1070
     0
1000
MTEXTEND
  0
POINT
  5
1E6C
330
1DE9
100
AcDbEntity
  8
Defpoints
 62
     0
100
AcDbPoint
 10
1250.746879367506
 20
260.5398764175888
 30
0.0
  0
POINT
  5
1E6D
330
1DE9
100
AcDbEntity
  8
Defpoints
 62
     0
100
AcDbPoint
 10
1247.652643569363
 20
260.5398764175888
 30
0.0
  0
POINT
  5
1E6E
330
1DE9
100
AcDbEntity
  8
Defpoints
 62
     0
100
AcDbPoint
 10
1247.652643569363
 20
258.9939843481254
 30
0.0
  0
ENDBLK
  5
1DEB
330
1DE9
100
AcDbEntity
  8
0
100
AcDbBlockEnd
  0
BLOCK
  5
1DF8
330
1DF7
100
AcDbEntity
  8
0
100
AcDbBlockBegin
  2
*D34
 70
     1
 10
0.0
 20
0.0
 30
0.0
  3
*D34
  1

  0
LINE
  5
1E6F
330
1DF7
100
AcDbEntity
  8
0
 62
     0
370
    -2
100
AcDbLine
 10
1252.476010975591
 20
254.8337867017423
 30
0.0
 11
1252.476010975591
 21
252.560699039375
 31
0.0
  0
LINE
  5
1E70
330
1DF7
100
AcDbEntity
  8
0
 62
     0
370
    -2
100
AcDbLine
 10
1248.4717060224
 20
254.8337867017423
 30
0.0
 11
1248.4717060224
 21
252.560699039375
 31
0.0
  0
LINE
  5
1E71
330
1DF7
100
AcDbEntity
  8
0
 62
     0
370
    -2
100
AcDbLine
 10
1254.976010975592
 20
253.810699039375
 30
0.0
 11
1257.476010975591
 21
253.810699039375
 31
0.0
  0
LINE
  5
1E72
330
1DF7
100
AcDbEntity
  8
0
 62
     0
370
    -2
100
AcDbLine
 10
1245.9717060224
 20
253.810699039375
 30
0.0
 11
1237.638372689066
 21
253.810699039375
 31
0.0
  0
LINE
  5
1E73
330
1DF7
100
AcDbEntity
  8
0
 62
     0
370
    -2
100
AcDbLine
 10
1252.476010975591
 20
253.810699039375
 30
0.0
 11
1248.4717060224
 21
253.810699039375
 31
0.0
  0
INSERT
  5
1E74
330
1DF7
100
AcDbEntity
  8
0
 62
     0
370
    -2
100
AcDbBlockReference
  2
_Open30
 10
1252.476010975591
 20
253.810699039375
 30
0.0
 41
2.5
 42
2.5
 43
2.5
 50
180.0
  0
INSERT
  5
1E75
330
1DF7
100
AcDbEntity
  8
0
 62
     0
370
    -2
100
AcDbBlockReference
  2
_Open30
 10
1248.4717060224
 20
253.810699039375
 30
0.0
 41
2.5
 42
2.5
 43
2.5
  0
MTEXT
  5
1E76
330
1DF7
100
AcDbEntity
  8
0
 62
     4
100
AcDbMText
 10
1240.0967060224
 20
255.435699039375
 30
0.0
 40
2.0
 41
0.0
 71
     5
 72
     1
  1
0.8
  7
高2
 73
     1
 44
1.0
1001
ACAD
1000
MTEXTBEGIN
1070
    73
1070
     1
1070
    44
1040
1.0
1070
    74
1070
     0
1000
MTEXTEND
  0
POINT
  5
1E77
330
1DF7
100
AcDbEntity
  8
Defpoints
 62
     0
100
AcDbPoint
 10
1252.476010975591
 20
255.0837867017423
 30
0.0
  0
POINT
  5
1E78
330
1DF7
100
AcDbEntity
  8
Defpoints
 62
     0
100
AcDbPoint
 10
1248.4717060224
 20
255.0837867017423
 30
0.0
  0
POINT
  5
1E79
330
1DF7
100
AcDbEntity
  8
Defpoints
 62
     0
100
AcDbPoint
 10
1248.4717060224
 20
253.810699039375
 30
0.0
  0
ENDBLK
  5
1DF9
330
1DF7
100
AcDbEntity
  8
0
100
AcDbBlockEnd
  0
BLOCK
  5
1E06
330
1E05
100
AcDbEntity
  8
0
100
AcDbBlockBegin
  2
*D35
 70
     1
 10
0.0
 20
0.0
 30
0.0
  3
*D35
  1

  0
LINE
  5
1E7A
330
1E05
100
AcDbEntity
  8
0
 62
     0
370
    -2
100
AcDbLine
 10
1252.385004273579
 20
249.5595667337107
 30
0.0
 11
1252.385004273579
 21
247.7411532262542
 31
0.0
  0
LINE
  5
1E7B
330
1E05
100
AcDbEntity
  8
0
 62
     0
370
    -2
100
AcDbLine
 10
1247.652643569363
 20
249.5595667337107
 30
0.0
 11
1247.652643569363
 21
247.7411532262542
 31
0.0
  0
LINE
  5
1E7C
330
1E05
100
AcDbEntity
  8
0
 62
     0
370
    -2
100
AcDbLine
 10
1254.885004273579
 20
248.9911532262543
 30
0.0
 11
1257.385004273579
 21
248.9911532262543
 31
0.0
  0
LINE
  5
1E7D
330
1E05
100
AcDbEntity
  8
0
 62
     0
370
    -2
100
AcDbLine
 10
1245.152643569363
 20
248.9911532262543
 30
0.0
 11
1230.402643569363
 21
248.9911532262543
 31
0.0
  0
LINE
  5
1E7E
330
1E05
100
AcDbEntity
  8
0
 62
     0
370
    -2
100
AcDbLine
 10
1252.385004273579
 20
248.9911532262543
 30
0.0
 11
1247.652643569363
 21
248.9911532262543
 31
0.0
  0
INSERT
  5
1E7F
330
1E05
100
AcDbEntity
  8
0
 62
     0
370
    -2
100
AcDbBlockReference
  2
_Open30
 10
1252.385004273579
 20
248.9911532262543
 30
0.0
 41
2.5
 42
2.5
 43
2.5
 50
180.0
  0
INSERT
  5
1E80
330
1E05
100
AcDbEntity
  8
0
 62
     0
370
    -2
100
AcDbBlockReference
  2
_Open30
 10
1247.652643569363
 20
248.9911532262543
 30
0.0
 41
2.5
 42
2.5
 43
2.5
  0
MTEXT
  5
1E81
330
1E05
100
AcDbEntity
  8
0
 62
     4
100
AcDbMText
 10
1236.527643569363
 20
251.1161532262542
 30
0.0
 40
3.0
 41
0.0
 71
     5
 72
     1
  1
18.93
 73
     1
 44
1.0
1001
ACAD
1000
MTEXTBEGIN
1070
    73
1070
     1
1070
    44
1040
1.0
1070
    74
1070
     0
1000
MTEXTEND
  0
POINT
  5
1E82
330
1E05
100
AcDbEntity
  8
Defpoints
 62
     0
100
AcDbPoint
 10
1252.385004273579
 20
249.8095667337107
 30
0.0
  0
POINT
  5
1E83
330
1E05
100
AcDbEntity
  8
Defpoints
 62
     0
100
AcDbPoint
 10
1247.652643569363
 20
249.8095667337107
 30
0.0
  0
POINT
  5
1E84
330
1E05
100
AcDbEntity
  8
Defpoints
 62
     0
100
AcDbPoint
 10
1247.652643569363
 20
248.9911532262543
 30
0.0
  0
ENDBLK
  5
1E07
330
1E05
100
AcDbEntity
  8
0
100
AcDbBlockEnd
  0
BLOCK
  5
1E14
330
1E13
100
AcDbEntity
  8
0
100
AcDbBlockBegin
  2
*D36
 70
     1
 10
0.0
 20
0.0
 30
0.0
  3
*D36
  1

  0
LINE
  5
1E85
330
1E13
100
AcDbEntity
  8
0
 62
     0
370
    -2
100
AcDbLine
 10
1249.580577422441
 20
244.5037265271209
 30
0.0
 11
1249.580577422441
 21
242.1938054502454
 31
0.0
  0
LINE
  5
1E86
330
1E13
100
AcDbEntity
  8
0
 62
     0
370
    -2
100
AcDbLine
 10
1244.991902220293
 20
244.5037265271209
 30
0.0
 11
1244.991902220293
 21
242.1938054502454
 31
0.0
  0
LINE
  5
1E87
330
1E13
100
AcDbEntity
  8
0
 62
     0
370
    -2
100
AcDbLine
 10
1252.080577422441
 20
243.4438054502454
 30
0.0
 11
1254.580577422441
 21
243.4438054502454
 31
0.0
  0
LINE
  5
1E88
330
1E13
100
AcDbEntity
  8
0
 62
     0
370
    -2
100
AcDbLine
 10
1242.491902220293
 20
243.4438054502454
 30
0.0
 11
1227.741902220293
 21
243.4438054502454
 31
0.0
  0
LINE
  5
1E89
330
1E13
100
AcDbEntity
  8
0
 62
     0
370
    -2
100
AcDbLine
 10
1249.580577422441
 20
243.4438054502454
 30
0.0
 11
1244.991902220293
 21
243.4438054502454
 31
0.0
  0
INSERT
  5
1E8A
330
1E13
100
AcDbEntity
  8
0
 62
     0
370
    -2
100
AcDbBlockReference
  2
_Open30
 10
1249.580577422441
 20
243.4438054502454
 30
0.0
 41
2.5
 42
2.5
 43
2.5
 50
180.0
  0
INSERT
  5
1E8B
330
1E13
100
AcDbEntity
  8
0
 62
     0
370
    -2
100
AcDbBlockReference
  2
_Open30
 10
1244.991902220293
 20
243.4438054502454
 30
0.0
 41
2.5
 42
2.5
 43
2.5
  0
MTEXT
  5
1E8C
330
1E13
100
AcDbEntity
  8
0
 62
     4
100
AcDbMText
 10
1233.866902220293
 20
245.5688054502453
 30
0.0
 40
3.0
 41
0.0
 71
     5
 72
     1
  1
13.77
 73
     1
 44
1.0
1001
ACAD
1000
MTEXTBEGIN
1070
    73
1070
     1
1070
    44
1040
1.0
1070
    74
1070
     0
1000
MTEXTEND
  0
POINT
  5
1E8D
330
1E13
100
AcDbEntity
  8
Defpoints
 62
     0
100
AcDbPoint
 10
1249.580577422441
 20
244.7537265271209
 30
0.0
  0
POINT
  5
1E8E
330
1E13
100
AcDbEntity
  8
Defpoints
 62
     0
100
AcDbPoint
 10
1244.991902220293
 20
244.7537265271209
 30
0.0
  0
POINT
  5
1E8F
330
1E13
100
AcDbEntity
  8
Defpoints
 62
     0
100
AcDbPoint
 10
1244.991902220293
 20
243.4438054502454
 30
0.0
  0
ENDBLK
  5
1E15
330
1E13
100
AcDbEntity
  8
0
100
AcDbBlockEnd
  0
BLOCK
  5
1E22
330
1E21
100
AcDbEntity
  8
0
100
AcDbBlockBegin
  2
*D37
 70
     1
 10
0.0
 20
0.0
 30
0.0
  3
*D37
  1

  0
LINE
  5
1E90
330
1E21
100
AcDbEntity
  8
0
 62
     0
370
    -2
100
AcDbLine
 10
1242.484294589291
 20
275.4332178453952
 30
0.0
 11
1242.484294589291
 21
282.829751323333
 31
0.0
  0
LINE
  5
1E91
330
1E21
100
AcDbEntity
  8
0
 62
     0
370
    -2
100
AcDbLine
 10
1232.545820219801
 20
275.4332178453952
 30
0.0
 11
1232.545820219801
 21
282.829751323333
 31
0.0
  0
LINE
  5
1E92
330
1E21
100
AcDbEntity
  8
0
 62
     0
370
    -2
100
AcDbLine
 10
1239.984294589291
 20
281.579751323333
 30
0.0
 11
1235.045820219801
 21
281.579751323333
 31
0.0
  0
INSERT
  5
1E93
330
1E21
100
AcDbEntity
  8
0
 62
     0
370
    -2
100
AcDbBlockReference
  2
_Open30
 10
1242.484294589291
 20
281.579751323333
 30
0.0
 41
2.5
 42
2.5
 43
2.5
  0
INSERT
  5
1E94
330
1E21
100
AcDbEntity
  8
0
 62
     0
370
    -2
100
AcDbBlockReference
  2
_Open30
 10
1232.545820219801
 20
281.579751323333
 30
0.0
 41
2.5
 42
2.5
 43
2.5
 50
180.0
  0
MTEXT
  5
1E95
330
1E21
100
AcDbEntity
  8
0
 62
     4
100
AcDbMText
 10
1237.515057404546
 20
284.654751323333
 30
0.0
 40
3.0
 41
0.0
 71
     5
 72
     1
  1
9.94\H0.7X;\S+0^ -0.02;
 73
     1
 44
1.0
1001
ACAD
1000
MTEXTBEGIN
1070
    73
1070
     1
1070
    44
1040
1.0
1070
    74
1070
     0
1000
MTEXTEND
  0
POINT
  5
1E96
330
1E21
100
AcDbEntity
  8
Defpoints
 62
     0
100
AcDbPoint
 10
1242.484294589291
 20
275.1832178453952
 30
0.0
  0
POINT
  5
1E97
330
1E21
100
AcDbEntity
  8
Defpoints
 62
     0
100
AcDbPoint
 10
1232.545820219801
 20
275.1832178453952
 30
0.0
  0
POINT
  5
1E98
330
1E21
100
AcDbEntity
  8
Defpoints
 62
     0
100
AcDbPoint
 10
1232.545820219801
 20
281.579751323333
 30
0.0
  0
ENDBLK
  5
1E23
330
1E21
100
AcDbEntity
  8
0
100
AcDbBlockEnd
  0
ENDSEC
  0
SECTION
  2
ENTITIES
  0
LINE
  5
1022
330
1F
100
AcDbEntity
  8
0
 62
     3
100
AcDbLine
 10
531.2150552425102
 20
294.2929913382902
 30
0.0
 11
531.2150552425102
 21
20.29299133829011
 31
0.0
  0
LINE
  5
1023
330
1F
100
AcDbEntity
  8
0
 62
     3
100
AcDbLine
 10
921.2150552425097
 20
20.29299133829011
 30
0.0
 11
921.2150552425097
 21
294.2929913382902
 31
0.0
  0
LINE
  5
1026
330
1F
100
AcDbEntity
  8
0
 62
     3
100
AcDbLine
 10
531.2150552425102
 20
20.29299133829011
 30
0.0
 11
921.2150552425097
 21
20.29299133829011
 31
0.0
  0
LINE
  5
1051
330
1F
100
AcDbEntity
  8
0
 62
     3
100
AcDbLine
 10
708.9899447125097
 20
296.7329934782902
 30
0.0
 11
709.6124417225101
 21
296.4080389982901
 31
0.0
  0
LINE
  5
1052
330
1F
100
AcDbEntity
  8
0
 62
     3
100
AcDbLine
 10
708.9899447125097
 20
291.4035213782901
 30
0.0
 11
709.6124417225101
 21
291.7284758582901
 31
0.0
  0
LINE
  5
1053
330
1F
100
AcDbEntity
  8
0
 62
     3
100
AcDbLine
 10
709.6124417225101
 20
296.4080389982901
 30
0.0
 11
709.6124417225101
 21
291.7284758582901
 31
0.0
  0
LINE
  5
1054
330
1F
100
AcDbEntity
  8
0
 62
     3
100
AcDbLine
 10
711.1888951825093
 20
291.4035213782901
 30
0.0
 11
710.5663981725101
 21
291.7284758582901
 31
0.0
  0
LINE
  5
1055
330
1F
100
AcDbEntity
  8
0
 62
     3
100
AcDbLine
 10
710.5663981725101
 20
294.58113130829
 30
0.0
 11
710.5663981725101
 21
291.7284758582901
 31
0.0
  0
LINE
  5
1056
330
1F
100
AcDbEntity
  8
0
 62
     3
100
AcDbLine
 10
714.8201277225097
 20
296.7329934782902
 30
0.0
 11
714.1976307225093
 21
296.4080389982901
 31
0.0
  0
LINE
  5
1057
330
1F
100
AcDbEntity
  8
0
 62
     3
100
AcDbLine
 10
712.6211772525103
 20
296.7329934782902
 30
0.0
 11
713.2436742625093
 21
296.4080389982901
 31
0.0
  0
LINE
  5
1058
330
1F
100
AcDbEntity
  8
0
 62
     3
100
AcDbLine
 10
713.2436742625093
 20
296.4080389982901
 30
0.0
 11
713.2436742625093
 21
294.3475574782901
 31
0.0
  0
LINE
  5
1059
330
1F
100
AcDbEntity
  8
0
 62
     3
100
AcDbLine
 10
714.1976307225093
 20
296.4080389982901
 30
0.0
 11
714.1976307225093
 21
291.1012911682901
 31
0.0
  0
LINE
  5
105A
330
1F
100
AcDbEntity
  8
0
 62
     3
100
AcDbLine
 10
715.1276951625093
 20
296.7329897282901
 30
0.0
 11
715.7501899225097
 21
296.4080309582901
 31
0.0
  0
LINE
  5
105B
330
1F
100
AcDbEntity
  8
0
 62
     3
100
AcDbLine
 10
715.1275837725097
 20
291.4035927682899
 30
0.0
 11
715.7500921225099
 21
291.72852551829
 31
0.0
  0
LINE
  5
105C
330
1F
100
AcDbEntity
  8
0
 62
     3
100
AcDbLine
 10
715.7501899225097
 20
296.4080309582901
 30
0.0
 11
715.7501899225097
 21
291.72852551829
 31
0.0
  0
LINE
  5
105D
330
1F
100
AcDbEntity
  8
0
 62
     3
100
AcDbLine
 10
717.8841757225097
 20
296.7329559082902
 30
0.0
 11
717.2616741625097
 21
296.4080101482902
 31
0.0
  0
LINE
  5
105E
330
1F
100
AcDbEntity
  8
0
 62
     3
100
AcDbLine
 10
717.2616741625097
 20
296.4080101482902
 30
0.0
 11
717.2616741625097
 21
291.7285047082901
 31
0.0
  0
LINE
  5
105F
330
1F
100
AcDbEntity
  8
0
 62
     3
100
AcDbLine
 10
717.8841757225097
 20
291.4035589482899
 30
0.0
 11
717.2616741625097
 21
291.7285047082901
 31
0.0
  0
LINE
  5
1060
330
1F
100
AcDbEntity
  8
0
 62
     3
100
AcDbLine
 10
723.1559663525095
 20
296.7328973382901
 30
0.0
 11
723.7784622325098
 21
296.40794071829
 31
0.0
  0
LINE
  5
1061
330
1F
100
AcDbEntity
  8
0
 62
     3
100
AcDbLine
 10
723.7784622325098
 20
296.40794071829
 30
0.0
 11
723.7783805625092
 21
291.7284352682901
 31
0.0
  0
LINE
  5
1062
330
1F
100
AcDbEntity
  8
0
 62
     3
100
AcDbLine
 10
723.1558733325099
 20
291.4035003782901
 30
0.0
 11
723.7783805625092
 21
291.7284352682901
 31
0.0
  0
LINE
  5
1063
330
1F
100
AcDbEntity
  8
0
 62
     3
100
AcDbLine
 10
725.9449105925096
 20
296.7328973382901
 30
0.0
 11
725.3224147025092
 21
296.40794071829
 31
0.0
  0
LINE
  5
1064
330
1F
100
AcDbEntity
  8
0
 62
     3
100
AcDbLine
 10
725.9450036025099
 20
291.4035003782901
 30
0.0
 11
725.3224963725098
 21
291.7284352682901
 31
0.0
  0
LINE
  5
1065
330
1F
100
AcDbEntity
  8
0
 62
     3
100
AcDbLine
 10
726.2359503925099
 20
296.7328973382901
 30
0.0
 11
726.8584462725093
 21
296.40794071829
 31
0.0
  0
LINE
  5
1066
330
1F
100
AcDbEntity
  8
0
 62
     3
100
AcDbLine
 10
726.2358573725093
 20
291.4035003782901
 30
0.0
 11
726.8583646025099
 21
291.7284352682901
 31
0.0
  0
LINE
  5
1067
330
1F
100
AcDbEntity
  8
0
 62
     3
100
AcDbLine
 10
729.0248946225099
 20
296.7328973382901
 30
0.0
 11
728.4023987425097
 21
296.40794071829
 31
0.0
  0
LINE
  5
1068
330
1F
100
AcDbEntity
  8
0
 62
     3
100
AcDbLine
 10
728.4023987425097
 20
296.40794071829
 30
0.0
 11
728.4024804125103
 21
291.7284352682901
 31
0.0
  0
LINE
  5
1069
330
1F
100
AcDbEntity
  8
0
 62
     3
100
AcDbLine
 10
729.0249876425096
 20
291.4035003782901
 30
0.0
 11
728.4024804125103
 21
291.7284352682901
 31
0.0
  0
LINE
  5
106A
330
1F
100
AcDbEntity
  8
0
 62
     3
100
AcDbLine
 10
726.8584106925097
 20
294.3691791182902
 30
0.0
 11
725.3224502825096
 21
294.3691791182902
 31
0.0
  0
LINE
  5
106B
330
1F
100
AcDbEntity
  8
0
 62
     3
100
AcDbLine
 10
726.8584001925098
 20
293.7673357382901
 30
0.0
 11
725.3224607825093
 21
293.7673357382901
 31
0.0
  0
LINE
  5
106C
330
1F
100
AcDbEntity
  8
0
 62
     3
100
AcDbLine
 10
726.8584462725093
 20
296.40794071829
 30
0.0
 11
726.8584106925097
 21
294.3691791182902
 31
0.0
  0
LINE
  5
106D
330
1F
100
AcDbEntity
  8
0
 62
     3
100
AcDbLine
 10
726.8584001925098
 20
293.7673357382901
 30
0.0
 11
726.8583646025099
 21
291.7284352682901
 31
0.0
  0
LINE
  5
106E
330
1F
100
AcDbEntity
  8
0
 62
     3
100
AcDbLine
 10
725.3224147025092
 20
296.40794071829
 30
0.0
 11
725.3224502825096
 21
294.3691791182902
 31
0.0
  0
LINE
  5
106F
330
1F
100
AcDbEntity
  8
0
 62
     3
100
AcDbLine
 10
725.3224607825093
 20
293.7673357382901
 30
0.0
 11
725.3224963725098
 21
291.7284352682901
 31
0.0
  0
LINE
  5
1070
330
1F
100
AcDbEntity
  8
0
 62
     3
100
AcDbLine
 10
729.3205505125097
 20
296.7328973382901
 30
0.0
 11
729.9430464025099
 21
296.40794071829
 31
0.0
  0
LINE
  5
1071
330
1F
100
AcDbEntity
  8
0
 62
     3
100
AcDbLine
 10
729.9430464025099
 20
296.40794071829
 30
0.0
 11
729.9429647225097
 21
291.7284352682901
 31
0.0
  0
LINE
  5
1072
330
1F
100
AcDbEntity
  8
0
 62
     3
100
AcDbLine
 10
729.3204574925099
 20
291.4035003782901
 30
0.0
 11
729.9429647225097
 21
291.7284352682901
 31
0.0
  0
LINE
  5
1073
330
1F
100
AcDbEntity
  8
0
 62
     3
100
AcDbLine
 10
732.0769937525099
 20
296.7328973382901
 30
0.0
 11
731.4544978625099
 21
296.40794071829
 31
0.0
  0
LINE
  5
1074
330
1F
100
AcDbEntity
  8
0
 62
     3
100
AcDbLine
 10
731.4544978625099
 20
296.40794071829
 30
0.0
 11
731.4545795425098
 21
291.7284352682901
 31
0.0
  0
LINE
  5
1075
330
1F
100
AcDbEntity
  8
0
 62
     3
100
AcDbLine
 10
732.0770867725093
 20
291.4035003782901
 30
0.0
 11
731.4545795425098
 21
291.7284352682901
 31
0.0
  0
LINE
  5
1076
330
1F
100
AcDbEntity
  8
0
 62
     3
100
AcDbLine
 10
732.3832217025101
 20
296.7328973382901
 30
0.0
 11
733.0057175925093
 21
296.40794071829
 31
0.0
  0
LINE
  5
1077
330
1F
100
AcDbEntity
  8
0
 62
     3
100
AcDbLine
 10
733.0057175925093
 20
296.40794071829
 30
0.0
 11
733.0056359225099
 21
291.7284352682901
 31
0.0
  0
LINE
  5
1078
330
1F
100
AcDbEntity
  8
0
 62
     3
100
AcDbLine
 10
732.3831286925098
 20
291.4035003782901
 30
0.0
 11
733.0056359225099
 21
291.7284352682901
 31
0.0
  0
ARC
  5
1079
330
1F
100
AcDbEntity
  8
0
 62
     3
100
AcDbCircle
 10
721.1675216825097
 20
294.0816713682901
 30
0.0
 40
2.98040844
100
AcDbArc
 50
97.70152350999721
 51
270.0
  0
ARC
  5
107A
330
1F
100
AcDbEntity
  8
0
 62
     3
100
AcDbCircle
 10
739.5683800225095
 20
294.05173332829
 30
0.0
 40
3.012776259999998
100
AcDbArc
 50
0.3142502699976664
 51
69.00558244997521
  0
ARC
  5
107B
330
1F
100
AcDbEntity
  8
0
 62
     3
100
AcDbCircle
 10
740.2264876325098
 20
294.05173332829
 30
0.0
 40
3.012776259999998
100
AcDbArc
 50
110.9944175500248
 51
148.1166110199875
  0
ARC
  5
107C
330
1F
100
AcDbEntity
  8
0
 62
     3
100
AcDbCircle
 10
739.5683800225095
 20
294.0847815282901
 30
0.0
 40
3.012776259999998
100
AcDbArc
 50
290.9944175500248
 51
359.6857497300023
  0
ARC
  5
107D
330
1F
100
AcDbEntity
  8
0
 62
     3
100
AcDbCircle
 10
740.2264876325098
 20
294.0847815282901
 30
0.0
 40
3.012776259999998
100
AcDbArc
 50
211.8833889800124
 51
249.0055824499752
  0
ARC
  5
107E
330
1F
100
AcDbEntity
  8
0
 62
     3
100
AcDbCircle
 10
739.8974338325094
 20
295.3008365582901
 30
0.0
 40
1.73438712
100
AcDbArc
 50
64.3651718999996
 51
115.6348281000004
  0
ARC
  5
107F
330
1F
100
AcDbEntity
  8
0
 62
     3
100
AcDbCircle
 10
739.8974338325094
 20
292.8356782982902
 30
0.0
 40
1.73438712
100
AcDbArc
 50
244.3651718999996
 51
295.6348281000004
  0
ARC
  5
1080
330
1F
100
AcDbEntity
  8
0
 62
     3
100
AcDbCircle
 10
739.8974338325094
 20
295.33378181829
 30
0.0
 40
0.85122233
100
AcDbArc
 50
19.48660553998552
 51
160.5133944600118
  0
ARC
  5
1081
330
1F
100
AcDbEntity
  8
0
 62
     3
100
AcDbCircle
 10
739.8974338325094
 20
292.8356782982902
 30
0.0
 40
1.73438712
100
AcDbArc
 50
244.3651718999996
 51
295.6348281000004
  0
ARC
  5
1082
330
1F
100
AcDbEntity
  8
0
 62
     3
100
AcDbCircle
 10
739.8974338325094
 20
292.8027330382901
 30
0.0
 40
0.85122233
100
AcDbArc
 50
199.4866055399844
 51
340.5133944600145
  0
ARC
  5
1083
330
1F
100
AcDbEntity
  8
0
 62
     3
100
AcDbCircle
 10
733.1224731125102
 20
262.3138862282901
 30
0.0
 40
37.20000000000001
100
AcDbArc
 50
69.50571480002231
 51
81.68998807001051
  0
ARC
  5
1084
330
1F
100
AcDbEntity
  8
0
 62
     3
100
AcDbCircle
 10
733.1224731125102
 20
325.8226286282901
 30
0.0
 40
37.20000000000001
100
AcDbArc
 50
278.3100119299894
 51
290.4942851999777
  0
ARC
  5
1085
330
1F
100
AcDbEntity
  8
0
 62
     3
100
AcDbCircle
 10
744.9913361525093
 20
294.0682574282901
 30
0.0
 40
3.299999999999998
100
AcDbArc
 50
290.4942851999777
 51
69.50571480002231
  0
ARC
  5
1086
330
1F
100
AcDbEntity
  8
0
 62
     3
100
AcDbCircle
 10
705.9913361525095
 20
294.0682574282901
 30
0.0
 40
3.299999999999998
100
AcDbArc
 50
110.4942851999777
 51
249.5057148000223
  0
ARC
  5
1087
330
1F
100
AcDbEntity
  8
0
 62
     3
100
AcDbCircle
 10
717.8601991825097
 20
262.3138862282901
 30
0.0
 40
37.20000000000001
100
AcDbArc
 50
98.31001192998948
 51
110.4942851999777
  0
ARC
  5
1088
330
1F
100
AcDbEntity
  8
0
 62
     3
100
AcDbCircle
 10
717.8601991825097
 20
325.8226286282901
 30
0.0
 40
37.20000000000001
100
AcDbArc
 50
249.5057148000223
 51
261.6899880700105
  0
ARC
  5
1089
330
1F
100
AcDbEntity
  8
0
 62
     3
100
AcDbCircle
 10
725.4913361525096
 20
210.0682574282901
 30
0.0
 40
89.99999981
100
AcDbArc
 50
81.68998807001051
 51
98.31001192998948
  0
ARC
  5
108A
330
1F
100
AcDbEntity
  8
0
 62
     3
100
AcDbCircle
 10
725.4913361525096
 20
378.06825742829
 30
0.0
 40
89.99999981
100
AcDbArc
 50
261.6899880700105
 51
278.3100119299894
  0
ARC
  5
108B
330
1F
100
AcDbEntity
  8
0
 62
     3
100
AcDbCircle
 10
725.4913361525096
 20
210.0682574282901
 30
0.0
 40
89.09999981
100
AcDbArc
 50
81.68998807001051
 51
98.31001192998948
  0
ARC
  5
108C
330
1F
100
AcDbEntity
  8
0
 62
     3
100
AcDbCircle
 10
725.4913361525096
 20
378.06825742829
 30
0.0
 40
89.09999981
100
AcDbArc
 50
261.6899880700105
 51
278.3100119299894
  0
ARC
  5
108D
330
1F
100
AcDbEntity
  8
0
 62
     3
100
AcDbCircle
 10
733.1224731125102
 20
325.8226286282901
 30
0.0
 40
36.3
100
AcDbArc
 50
278.3100119299894
 51
290.4942851999777
  0
ARC
  5
108E
330
1F
100
AcDbEntity
  8
0
 62
     3
100
AcDbCircle
 10
733.1224731125102
 20
262.3138862282901
 30
0.0
 40
36.3
100
AcDbArc
 50
69.50571480002231
 51
81.68998807001051
  0
ARC
  5
108F
330
1F
100
AcDbEntity
  8
0
 62
     3
100
AcDbCircle
 10
744.9913361525093
 20
294.0682574282901
 30
0.0
 40
2.399999999999999
100
AcDbArc
 50
290.4942851999777
 51
69.50571480002231
  0
ARC
  5
1090
330
1F
100
AcDbEntity
  8
0
 62
     3
100
AcDbCircle
 10
705.9913361525095
 20
294.0682574282901
 30
0.0
 40
2.399999999999999
100
AcDbArc
 50
110.4942851999777
 51
249.5057148000223
  0
ARC
  5
1091
330
1F
100
AcDbEntity
  8
0
 62
     3
100
AcDbCircle
 10
717.8601991825097
 20
262.3138862282901
 30
0.0
 40
36.3
100
AcDbArc
 50
98.31001192998948
 51
110.4942851999777
  0
ARC
  5
1092
330
1F
100
AcDbEntity
  8
0
 62
     3
100
AcDbCircle
 10
717.8601991825097
 20
325.8226286282901
 30
0.0
 40
36.3
100
AcDbArc
 50
249.5057148000223
 51
261.6899880700105
  0
LINE
  5
1093
330
1F
100
AcDbEntity
  8
0
 62
     3
100
AcDbLine
 10
732.0769948725101
 20
291.1012911682901
 30
0.0
 11
729.3205493925097
 21
291.1012911682901
 31
0.0
  0
LINE
  5
1094
330
1F
100
AcDbEntity
  8
0
 62
     3
100
AcDbLine
 10
732.0769948725101
 20
291.4035213782901
 30
0.0
 11
732.0769948725101
 21
291.1012911682901
 31
0.0
  0
LINE
  5
1095
330
1F
100
AcDbEntity
  8
0
 62
     3
100
AcDbLine
 10
729.0248957425101
 20
297.0350826582901
 30
0.0
 11
726.2359492725099
 21
297.0350826582901
 31
0.0
  0
LINE
  5
1096
330
1F
100
AcDbEntity
  8
0
 62
     3
100
AcDbLine
 10
729.0248957425101
 20
297.0350826582901
 30
0.0
 11
729.0248957425101
 21
296.7329934782902
 31
0.0
  0
LINE
  5
1097
330
1F
100
AcDbEntity
  8
0
 62
     3
100
AcDbLine
 10
729.0248957425101
 20
291.4035213782901
 30
0.0
 11
729.0248957425101
 21
291.1011501482901
 31
0.0
  0
LINE
  5
1098
330
1F
100
AcDbEntity
  8
0
 62
     3
100
AcDbLine
 10
729.0248957425101
 20
291.1011501482901
 30
0.0
 11
726.2359492725099
 21
291.1011501482901
 31
0.0
  0
LINE
  5
1099
330
1F
100
AcDbEntity
  8
0
 62
     3
100
AcDbLine
 10
732.0769948725101
 20
297.03522368829
 30
0.0
 11
732.0769948725101
 21
296.7329934782902
 31
0.0
  0
LINE
  5
109A
330
1F
100
AcDbEntity
  8
0
 62
     3
100
AcDbLine
 10
732.0769948725101
 20
297.03522368829
 30
0.0
 11
729.3205493925097
 21
297.03522368829
 31
0.0
  0
LINE
  5
109B
330
1F
100
AcDbEntity
  8
0
 62
     3
100
AcDbLine
 10
729.3205493925097
 20
297.03522368829
 30
0.0
 11
729.3205493925097
 21
296.7329934782902
 31
0.0
  0
LINE
  5
109C
330
1F
100
AcDbEntity
  8
0
 62
     3
100
AcDbLine
 10
732.3832205825099
 20
291.4035213782901
 30
0.0
 11
732.3832205825099
 21
291.1012911682901
 31
0.0
  0
LINE
  5
109D
330
1F
100
AcDbEntity
  8
0
 62
     3
100
AcDbLine
 10
735.2179356725099
 20
291.1012911682901
 30
0.0
 11
732.3832205825099
 21
291.1012911682901
 31
0.0
  0
LINE
  5
109E
330
1F
100
AcDbEntity
  8
0
 62
     3
100
AcDbLine
 10
734.5171690625102
 20
296.0812672282902
 30
0.0
 11
734.5171690625102
 21
292.05524762829
 31
0.0
  0
LINE
  5
109F
330
1F
100
AcDbEntity
  8
0
 62
     3
100
AcDbLine
 10
734.5171690625102
 20
292.05524762829
 30
0.0
 11
734.7886675825102
 21
292.05524762829
 31
0.0
  0
ARC
  5
10A0
330
1F
100
AcDbEntity
  8
0
 62
     3
100
AcDbCircle
 10
733.4004022425098
 20
294.0682574282901
 30
0.0
 40
2.44529939
100
AcDbArc
 50
304.591955270018
 51
55.40804472998196
  0
LINE
  5
10A1
330
1F
100
AcDbEntity
  8
0
 62
     3
100
AcDbLine
 10
735.2179356725099
 20
297.03522368829
 30
0.0
 11
732.3832205825099
 21
297.03522368829
 31
0.0
  0
LINE
  5
10A2
330
1F
100
AcDbEntity
  8
0
 62
     3
100
AcDbLine
 10
732.3832205825099
 20
297.03522368829
 30
0.0
 11
732.3832205825099
 21
296.7329934782902
 31
0.0
  0
LINE
  5
10A3
330
1F
100
AcDbEntity
  8
0
 62
     3
100
AcDbLine
 10
729.3205493925097
 20
291.4035213782901
 30
0.0
 11
729.3205493925097
 21
291.1012911682901
 31
0.0
  0
LINE
  5
10A4
330
1F
100
AcDbEntity
  8
0
 62
     3
100
AcDbLine
 10
734.5171690625102
 20
296.0812672282902
 30
0.0
 11
734.7886675825102
 21
296.0812672282902
 31
0.0
  0
LINE
  5
10A5
330
1F
100
AcDbEntity
  8
0
 62
     3
100
AcDbLine
 10
717.8840838225096
 20
291.4035213782901
 30
0.0
 11
717.8840785525099
 21
291.10126292829
 31
0.0
  0
LINE
  5
10A6
330
1F
100
AcDbEntity
  8
0
 62
     3
100
AcDbLine
 10
715.1276330725092
 20
291.1013194182901
 30
0.0
 11
717.8840785525099
 21
291.1012713082902
 31
0.0
  0
LINE
  5
10A7
330
1F
100
AcDbEntity
  8
0
 62
     3
100
AcDbLine
 10
708.9899447125097
 20
291.1012911682901
 30
0.0
 11
711.1888951825093
 21
291.1012911682901
 31
0.0
  0
ARC
  5
10A8
330
1F
100
AcDbEntity
  8
0
 62
     3
100
AcDbCircle
 10
701.8728837425096
 20
294.1381240382901
 30
0.0
 40
21.01937947
100
AcDbArc
 50
353.8660061899967
 51
357.6940342599997
  0
LINE
  5
10A9
330
1F
100
AcDbEntity
  8
0
 62
     3
100
AcDbLine
 10
721.4679978325102
 20
293.2975988182901
 30
0.0
 11
722.8752419525099
 21
293.2923918482901
 31
0.0
  0
LINE
  5
10AB
330
1F
100
AcDbEntity
  8
0
 62
     3
100
AcDbLine
 10
721.4736812825093
 20
294.8336198782902
 30
0.0
 11
722.8809254025097
 21
294.8284129082901
 31
0.0
  0
ARC
  5
10AC
330
1F
100
AcDbEntity
  8
0
 62
     3
100
AcDbCircle
 10
701.8728837425096
 20
294.1381240382901
 30
0.0
 40
21.01937947
100
AcDbArc
 50
1.881965739997436
 51
5.709993810001902
  0
LINE
  5
10AD
330
1F
100
AcDbEntity
  8
0
 62
     3
100
AcDbLine
 10
717.8841821125097
 20
297.03519543829
 30
0.0
 11
717.8841768425098
 21
296.7329934782902
 31
0.0
  0
LINE
  5
10AE
330
1F
100
AcDbEntity
  8
0
 62
     3
100
AcDbLine
 10
715.1277366325092
 20
297.0352519282902
 30
0.0
 11
717.8841821125097
 21
297.0352038182901
 31
0.0
  0
LINE
  5
10AF
330
1F
100
AcDbEntity
  8
0
 62
     3
100
AcDbLine
 10
715.1276383425099
 20
291.4035213782901
 30
0.0
 11
715.1276330725092
 21
291.1013194182901
 31
0.0
  0
LINE
  5
10B0
330
1F
100
AcDbEntity
  8
0
 62
     3
100
AcDbLine
 10
715.1277366325092
 20
297.0352519282902
 30
0.0
 11
715.1277313625095
 21
296.7329934782902
 31
0.0
  0
LINE
  5
10B1
330
1F
100
AcDbEntity
  8
0
 62
     3
100
AcDbLine
 10
711.1888951825093
 20
291.4035213782901
 30
0.0
 11
711.1888951825093
 21
291.1012911682901
 31
0.0
  0
LINE
  5
10B2
330
1F
100
AcDbEntity
  8
0
 62
     3
100
AcDbLine
 10
710.5663981725101
 20
294.58113130829
 30
0.0
 11
712.7412982525099
 21
291.1012911682901
 31
0.0
  0
LINE
  5
10B3
330
1F
100
AcDbEntity
  8
0
 62
     3
100
AcDbLine
 10
712.7412982525099
 20
291.1012911682901
 30
0.0
 11
714.1976307225093
 21
291.1012911682901
 31
0.0
  0
LINE
  5
10B4
330
1F
100
AcDbEntity
  8
0
 62
     3
100
AcDbLine
 10
714.8201277225097
 20
297.03522368829
 30
0.0
 11
714.8201277225097
 21
296.7329934782902
 31
0.0
  0
LINE
  5
10B5
330
1F
100
AcDbEntity
  8
0
 62
     3
100
AcDbLine
 10
712.6211772525103
 20
297.03522368829
 30
0.0
 11
714.8201277225097
 21
297.03522368829
 31
0.0
  0
LINE
  5
10B6
330
1F
100
AcDbEntity
  8
0
 62
     3
100
AcDbLine
 10
712.6211772525103
 20
297.03522368829
 30
0.0
 11
712.6211772525103
 21
296.7329934782902
 31
0.0
  0
LINE
  5
10B7
330
1F
100
AcDbEntity
  8
0
 62
     3
100
AcDbLine
 10
713.2436742625093
 20
294.3475574782901
 30
0.0
 11
711.4798933225102
 21
297.03522368829
 31
0.0
  0
LINE
  5
10B8
330
1F
100
AcDbEntity
  8
0
 62
     3
100
AcDbLine
 10
708.9899447125097
 20
297.03522368829
 30
0.0
 11
711.4798933225102
 21
297.03522368829
 31
0.0
  0
LINE
  5
10B9
330
1F
100
AcDbEntity
  8
0
 62
     3
100
AcDbLine
 10
723.1559652325095
 20
297.0350826582901
 30
0.0
 11
725.9449117125093
 21
297.0350826582901
 31
0.0
  0
LINE
  5
10BA
330
1F
100
AcDbEntity
  8
0
 62
     3
100
AcDbLine
 10
723.1559652325095
 20
296.7329934782902
 30
0.0
 11
723.1559652325095
 21
297.0350826582901
 31
0.0
  0
LINE
  5
10BB
330
1F
100
AcDbEntity
  8
0
 62
     3
100
AcDbLine
 10
723.1559652325095
 20
291.1011501482901
 30
0.0
 11
723.1559652325095
 21
291.4035213782901
 31
0.0
  0
LINE
  5
10BC
330
1F
100
AcDbEntity
  8
0
 62
     3
100
AcDbLine
 10
723.1559652325095
 20
291.1011501482901
 30
0.0
 11
725.9449117125093
 21
291.1011501482901
 31
0.0
  0
LINE
  5
10BD
330
1F
100
AcDbEntity
  8
0
 62
     3
100
AcDbLine
 10
726.2359492725099
 20
291.4035213782901
 30
0.0
 11
726.2359492725099
 21
291.1011501482901
 31
0.0
  0
LINE
  5
10BE
330
1F
100
AcDbEntity
  8
0
 62
     3
100
AcDbLine
 10
725.9449117125093
 20
291.4035213782901
 30
0.0
 11
725.9449117125093
 21
291.1011501482901
 31
0.0
  0
LINE
  5
10BF
330
1F
100
AcDbEntity
  8
0
 62
     3
100
AcDbLine
 10
725.9449117125093
 20
296.7329934782902
 30
0.0
 11
725.9449117125093
 21
297.0350826582901
 31
0.0
  0
LINE
  5
10C0
330
1F
100
AcDbEntity
  8
0
 62
     3
100
AcDbLine
 10
726.2359492725099
 20
296.7329934782902
 30
0.0
 11
726.2359492725099
 21
297.0350826582901
 31
0.0
  0
LINE
  5
10C1
330
1F
100
AcDbEntity
  8
0
 62
     3
100
AcDbLine
 10
708.9899447125097
 20
291.4035213782901
 30
0.0
 11
708.9899447125097
 21
291.1012911682901
 31
0.0
  0
LINE
  5
10C2
330
1F
100
AcDbEntity
  8
0
 62
     3
100
AcDbLine
 10
708.9899447125097
 20
297.03522368829
 30
0.0
 11
708.9899447125097
 21
296.7329934782902
 31
0.0
  0
ARC
  5
10C3
330
1F
100
AcDbEntity
  8
0
 62
     3
100
AcDbCircle
 10
735.5179356725102
 20
294.6907544382901
 30
0.0
 40
2.344469249999999
100
AcDbArc
 50
17.30874897998818
 51
23.76507096000734
  0
ARC
  5
10C4
330
1F
100
AcDbEntity
  8
0
 62
     3
100
AcDbCircle
 10
733.5204022425093
 20
294.0682574282901
 30
0.0
 40
4.43675086
100
AcDbArc
 50
342.6912510200119
 51
17.30856644001288
  0
ARC
  5
10C5
330
1F
100
AcDbEntity
  8
0
 62
     3
100
AcDbCircle
 10
735.5179356725102
 20
293.44576041829
 30
0.0
 40
2.344469249999999
100
AcDbArc
 50
336.2349290399925
 51
342.6912510200119
  0
ARC
  5
10C6
330
1F
100
AcDbEntity
  8
0
 62
     3
100
AcDbCircle
 10
735.2179356725099
 20
294.6907544382901
 30
0.0
 40
2.344469249999999
100
AcDbArc
 50
17.30874897998818
 51
90.0
  0
ARC
  5
10C7
330
1F
100
AcDbEntity
  8
0
 62
     3
100
AcDbCircle
 10
733.2204022425092
 20
294.0682574282901
 30
0.0
 40
4.43675086
100
AcDbArc
 50
342.6912510200119
 51
17.30856644001288
  0
ARC
  5
10C8
330
1F
100
AcDbEntity
  8
0
 62
     3
100
AcDbCircle
 10
735.2179356725099
 20
293.44576041829
 30
0.0
 40
2.344469249999999
100
AcDbArc
 50
270.0
 51
342.6912510200119
  0
ARC
  5
10C9
330
1F
100
AcDbEntity
  8
0
 62
     3
100
AcDbCircle
 10
720.7551637025098
 20
294.0682574282901
 30
0.0
 40
2.966966259999998
100
AcDbArc
 50
46.75287961001065
 51
89.74999828999569
  0
ARC
  5
10CA
330
1F
100
AcDbEntity
  8
0
 62
     3
100
AcDbCircle
 10
720.7551637025098
 20
294.0682574282901
 30
0.0
 40
2.966966259999998
100
AcDbArc
 50
273.9763331500101
 51
312.823120390026
  0
ARC
  5
10CB
330
1F
100
AcDbEntity
  8
0
 62
     3
100
AcDbCircle
 10
737.1006036325097
 20
294.0224552482902
 30
0.0
 40
3.936984289999998
100
AcDbArc
 50
0.6665840599984524
 51
23.90392827000808
  0
ARC
  5
10CC
330
1F
100
AcDbEntity
  8
0
 62
     3
100
AcDbCircle
 10
742.6942640225097
 20
294.0224552482902
 30
0.0
 40
3.936984289999998
100
AcDbArc
 50
156.0960717299906
 51
179.3334159399981
  0
ARC
  5
10CD
330
1F
100
AcDbEntity
  8
0
 62
     3
100
AcDbCircle
 10
737.1006036325097
 20
294.1140596082901
 30
0.0
 40
3.936984289999998
100
AcDbArc
 50
336.0960717299922
 51
359.3334159399983
  0
ARC
  5
10CE
330
1F
100
AcDbEntity
  8
0
 62
     3
100
AcDbCircle
 10
742.6942640225097
 20
294.1140596082901
 30
0.0
 40
3.936984289999998
100
AcDbArc
 50
180.6665840599985
 51
203.9039282700094
  0
LINE
  5
10CF
330
1F
100
AcDbEntity
  8
0
 62
     3
100
AcDbLine
 10
749.8717804225098
 20
294.2929913382902
 30
0.0
 11
921.2150552425097
 21
294.2929913382902
 31
0.0
  0
LINE
  5
10D0
330
1F
100
AcDbEntity
  8
0
 62
     3
100
AcDbLine
 10
701.3177457525097
 20
294.2929913382902
 30
0.0
 11
531.2150552425102
 21
294.2929913382902
 31
0.0
  0
LINE
  5
10D1
330
1F
100
AcDbEntity
  8
0
 62
     3
100
AcDbLine
 10
518.8131314525098
 20
160.73763028829
 30
0.0
 11
516.2150552425098
 21
159.23763028829
 31
0.0
  0
LINE
  5
10D2
330
1F
100
AcDbEntity
  8
0
 62
     3
100
AcDbLine
 10
518.8131314525098
 20
160.73763028829
 30
0.0
 11
516.2150552425098
 21
162.23763028829
 31
0.0
  0
LINE
  5
10D3
330
1F
100
AcDbEntity
  8
0
 62
     3
100
AcDbLine
 10
516.2150552425098
 20
159.23763028829
 30
0.0
 11
516.2150552425098
 21
162.23763028829
 31
0.0
  0
LINE
  5
10D6
330
1F
100
AcDbEntity
  8
0
  6
CENTER
 62
     7
100
AcDbLine
 10
736.3869540142585
 20
197.2817098390608
 30
0.0
 11
593.3869540142588
 21
197.2817098390608
 31
0.0
  0
LINE
  5
10D7
330
1F
100
AcDbEntity
  8
0
  6
CENTER
 62
     7
100
AcDbLine
 10
598.3869540142586
 20
202.2817098390608
 30
0.0
 11
598.3869540142586
 21
84.28170983906079
 31
0.0
  0
LINE
  5
10D8
330
1F
100
AcDbEntity
  8
0
  6
CENTER
 62
     7
100
AcDbLine
 10
593.3869540142588
 20
89.28170983906083
 30
0.0
 11
736.3869540142585
 21
89.28170983906083
 31
0.0
  0
LINE
  5
10D9
330
1F
100
AcDbEntity
  8
0
  6
CENTER
 62
     7
100
AcDbLine
 10
731.3869540142587
 20
84.28170983906079
 30
0.0
 11
731.3869540142587
 21
202.2817098390608
 31
0.0
  0
LINE
  5
10DA
330
1F
100
AcDbEntity
  8
0
  6
CENTER
 62
     7
100
AcDbLine
 10
664.8869540142587
 20
84.28170983906079
 30
0.0
 11
664.8869540142587
 21
202.1184553242117
 31
0.0
  0
LINE
  5
10DB
330
1F
100
AcDbEntity
  8
0
  6
CENTER
 62
     7
100
AcDbLine
 10
736.3869540142585
 20
143.728876904426
 30
0.0
 11
593.3869540142588
 21
143.728876904426
 31
0.0
  0
CIRCLE
  5
10DC
330
1F
100
AcDbEntity
  8
0
 62
     7
100
AcDbCircle
 10
731.3869540142587
 20
197.2817098390608
 30
0.0
 40
10.08346162764064
  0
LINE
  5
10DD
330
1F
100
AcDbEntity
  8
0
  6
CENTER
 62
     7
100
AcDbLine
 10
800.9552655207318
 20
199.4949388545635
 30
0.0
 11
760.6214190101691
 21
199.4949388545635
 31
0.0
  0
LINE
  5
10DE
330
1F
100
AcDbEntity
  8
0
  6
CENTER
 62
     7
100
AcDbLine
 10
780.7883422654504
 20
179.3280155992822
 30
0.0
 11
780.7883422654504
 21
219.4949388545635
 31
0.0
  0
CIRCLE
  5
10DF
330
1F
100
AcDbEntity
  8
0
 62
     7
100
AcDbCircle
 10
780.7883422654504
 20
199.4949388545635
 30
0.0
 40
20.16692325528129
  0
TEXT
  5
10F1
330
1F
100
AcDbEntity
  8
0
 62
     7
100
AcDbText
 10
740.3434391148047
 20
142.0522614214129
 30
0.0
 40
3.2
  1
CL
  7
高3.2
100
AcDbText
  0
TEXT
  5
10F2
330
1F
100
AcDbEntity
  8
0
 62
     7
100
AcDbText
 10
662.7466866491886
 20
204.7529288381727
 30
0.0
 40
3.2
  1
CL
  7
高3.2
100
AcDbText
  0
ARC
  5
1100
330
1F
100
AcDbEntity
  8
0
 62
     3
100
AcDbCircle
 10
598.3869540142586
 20
89.28170983906083
 30
0.0
 40
1.499999999999985
100
AcDbArc
 50
0.0
 51
107.597336608062
  0
ARC
  5
1101
330
1F
100
AcDbEntity
  8
0
 62
     3
100
AcDbCircle
 10
598.3869540142586
 20
89.28170983906083
 30
0.0
 40
1.5
100
AcDbArc
 50
180.0
 51
0.0
  0
ARC
  5
1102
330
1F
100
AcDbEntity
  8
0
 62
     3
100
AcDbCircle
 10
598.3869540142586
 20
89.28170983906083
 30
0.0
 40
2.799999999999997
100
AcDbArc
 50
180.0
 51
107.597336608062
  0
ARC
  5
1103
330
1F
100
AcDbEntity
  8
0
 62
     3
100
AcDbCircle
 10
598.3869540142586
 20
197.2817098390608
 30
0.0
 40
1.5
100
AcDbArc
 50
0.0
 51
180.0
  0
ARC
  5
1104
330
1F
100
AcDbEntity
  8
0
 62
     3
100
AcDbCircle
 10
598.3869540142586
 20
197.2817098390608
 30
0.0
 40
1.499999999999985
100
AcDbArc
 50
252.402663391938
 51
0.0
  0
ARC
  5
1105
330
1F
100
AcDbEntity
  8
0
 62
     3
100
AcDbCircle
 10
598.3869540142586
 20
197.2817098390608
 30
0.0
 40
2.800000000000004
100
AcDbArc
 50
252.402663391938
 51
180.0
  0
LINE
  5
1106
330
1F
100
AcDbEntity
  8
0
 62
     3
100
AcDbLine
 10
595.5869540142592
 20
197.2817098390608
 30
0.0
 11
595.5869540142592
 21
170.0817098390607
 31
0.0
  0
LINE
  5
1107
330
1F
100
AcDbEntity
  8
0
 62
     3
100
AcDbLine
 10
595.5869540142592
 20
168.7817098390608
 30
0.0
 11
595.5869540142592
 21
117.7817098390608
 31
0.0
  0
LINE
  5
1108
330
1F
100
AcDbEntity
  8
0
 62
     3
100
AcDbLine
 10
595.5869540142592
 20
116.4817098390608
 30
0.0
 11
595.5869540142592
 21
89.28170983906083
 31
0.0
  0
LINE
  5
1109
330
1F
100
AcDbEntity
  8
0
 62
     3
100
AcDbLine
 10
596.8869540142586
 20
89.28170983906083
 30
0.0
 11
596.8869540142586
 21
116.4817098390608
 31
0.0
  0
LINE
  5
110A
330
1F
100
AcDbEntity
  8
0
 62
     3
100
AcDbLine
 10
596.8869540142586
 20
117.7817098390608
 30
0.0
 11
596.8869540142586
 21
168.7817098390608
 31
0.0
  0
LINE
  5
110B
330
1F
100
AcDbEntity
  8
0
 62
     3
100
AcDbLine
 10
596.8869540142586
 20
170.0817098390607
 30
0.0
 11
596.8869540142586
 21
197.2817098390608
 31
0.0
  0
LINE
  5
110C
330
1F
100
AcDbEntity
  8
0
 62
     3
100
AcDbLine
 10
734.1869540142597
 20
89.28170983906083
 30
0.0
 11
734.1869540142597
 21
116.4817098390608
 31
0.0
  0
LINE
  5
110D
330
1F
100
AcDbEntity
  8
0
 62
     3
100
AcDbLine
 10
734.1869540142597
 20
117.7817098390608
 30
0.0
 11
734.1869540142597
 21
168.7817098390608
 31
0.0
  0
LINE
  5
110E
330
1F
100
AcDbEntity
  8
0
 62
     3
100
AcDbLine
 10
732.8869540142592
 20
117.7817098390608
 30
0.0
 11
732.8869540142592
 21
168.7817098390608
 31
0.0
  0
LINE
  5
110F
330
1F
100
AcDbEntity
  8
0
 62
     3
100
AcDbLine
 10
734.1869540142597
 20
170.0817098390607
 30
0.0
 11
734.1869540142597
 21
197.2817098390608
 31
0.0
  0
LINE
  5
1110
330
1F
100
AcDbEntity
  8
0
 62
     3
100
AcDbLine
 10
732.8869540142585
 20
197.2817098390608
 30
0.0
 11
732.8869540142585
 21
170.0817098390607
 31
0.0
  0
LINE
  5
1111
330
1F
100
AcDbEntity
  8
0
 62
     3
100
AcDbLine
 10
732.8869540142585
 20
116.4817098390608
 30
0.0
 11
732.8869540142585
 21
89.28170983906083
 31
0.0
  0
ARC
  5
1112
330
1F
100
AcDbEntity
  8
0
 62
     3
100
AcDbCircle
 10
731.3869540142587
 20
89.28170983906083
 30
0.0
 40
1.5
100
AcDbArc
 50
180.0
 51
0.0
  0
ARC
  5
1113
330
1F
100
AcDbEntity
  8
0
 62
     3
100
AcDbCircle
 10
731.3869540142587
 20
89.28170983906083
 30
0.0
 40
1.5
100
AcDbArc
 50
72.40266339193803
 51
180.0
  0
ARC
  5
1114
330
1F
100
AcDbEntity
  8
0
 62
     3
100
AcDbCircle
 10
731.3869540142587
 20
89.28170983906083
 30
0.0
 40
2.79999999999999
100
AcDbArc
 50
72.40266339193803
 51
0.0
  0
ARC
  5
1115
330
1F
100
AcDbEntity
  8
0
 62
     3
100
AcDbCircle
 10
731.3869540142587
 20
197.2817098390608
 30
0.0
 40
1.5
100
AcDbArc
 50
180.0
 51
287.597336608062
  0
ARC
  5
1116
330
1F
100
AcDbEntity
  8
0
 62
     3
100
AcDbCircle
 10
731.3869540142587
 20
197.2817098390608
 30
0.0
 40
1.5
100
AcDbArc
 50
0.0
 51
180.0
  0
ARC
  5
1117
330
1F
100
AcDbEntity
  8
0
 62
     3
100
AcDbCircle
 10
731.3869540142587
 20
197.2817098390608
 30
0.0
 40
2.800000000000004
100
AcDbArc
 50
0.0
 51
287.597336608062
  0
LINE
  5
1118
330
1F
100
AcDbEntity
  8
0
 62
     3
100
AcDbLine
 10
599.5661928298012
 20
168.7817098390608
 30
0.0
 11
641.7369540142581
 21
168.7817098390608
 31
0.0
  0
LINE
  5
1119
330
1F
100
AcDbEntity
  8
0
 62
     3
100
AcDbLine
 10
643.0369540142574
 20
168.7817098390608
 30
0.0
 11
686.7369540142581
 21
168.7817098390608
 31
0.0
  0
LINE
  5
111A
330
1F
100
AcDbEntity
  8
0
 62
     3
100
AcDbLine
 10
688.0369540142591
 20
168.7817098390608
 30
0.0
 11
730.2077151987158
 21
168.7817098390608
 31
0.0
  0
LINE
  5
111B
330
1F
100
AcDbEntity
  8
0
 62
     3
100
AcDbLine
 10
730.2077151987158
 20
170.0817098390607
 30
0.0
 11
688.0369540142591
 21
170.0817098390607
 31
0.0
  0
LINE
  5
111C
330
1F
100
AcDbEntity
  8
0
 62
     3
100
AcDbLine
 10
686.7369540142581
 20
170.0817098390607
 30
0.0
 11
643.0369540142574
 21
170.0817098390607
 31
0.0
  0
LINE
  5
111D
330
1F
100
AcDbEntity
  8
0
 62
     3
100
AcDbLine
 10
641.7369540142581
 20
170.0817098390607
 30
0.0
 11
599.5661928298012
 21
170.0817098390607
 31
0.0
  0
LINE
  5
111E
330
1F
100
AcDbEntity
  8
0
 62
     3
100
AcDbLine
 10
599.5661928298012
 20
170.0817098390607
 30
0.0
 11
599.1065734220301
 21
170.0817098390607
 31
0.0
  0
LINE
  5
111F
330
1F
100
AcDbEntity
  8
0
 62
     3
100
AcDbLine
 10
599.1065734220301
 20
168.7817098390608
 30
0.0
 11
599.5661928298012
 21
168.7817098390608
 31
0.0
  0
LINE
  5
1120
330
1F
100
AcDbEntity
  8
0
 62
     3
100
AcDbLine
 10
730.2077151987158
 20
168.7817098390608
 30
0.0
 11
730.667334606487
 21
168.7817098390608
 31
0.0
  0
LINE
  5
1121
330
1F
100
AcDbEntity
  8
0
 62
     3
100
AcDbLine
 10
730.667334606487
 20
170.0817098390607
 30
0.0
 11
730.2077151987158
 21
170.0817098390607
 31
0.0
  0
LINE
  5
1122
330
1F
100
AcDbEntity
  8
0
 62
     3
100
AcDbLine
 10
734.9105135322989
 20
170.0817098390607
 30
0.0
 11
730.667334606487
 21
170.0817098390607
 31
0.0
  0
LINE
  5
1123
330
1F
100
AcDbEntity
  8
0
 62
     3
100
AcDbLine
 10
730.667334606487
 20
168.7817098390608
 30
0.0
 11
734.9105135322989
 21
168.7817098390608
 31
0.0
  0
LINE
  5
1124
330
1F
100
AcDbEntity
  8
0
 62
     3
100
AcDbLine
 10
594.8633944962192
 20
168.7817098390608
 30
0.0
 11
599.1065734220301
 21
168.7817098390608
 31
0.0
  0
LINE
  5
1125
330
1F
100
AcDbEntity
  8
0
 62
     3
100
AcDbLine
 10
599.1065734220301
 20
170.0817098390607
 30
0.0
 11
594.8633944962192
 21
170.0817098390607
 31
0.0
  0
LINE
  5
1126
330
1F
100
AcDbEntity
  8
0
 62
     3
100
AcDbLine
 10
599.5661928298012
 20
116.4817098390608
 30
0.0
 11
641.7369540142581
 21
116.4817098390608
 31
0.0
  0
LINE
  5
1127
330
1F
100
AcDbEntity
  8
0
 62
     3
100
AcDbLine
 10
643.0369540142574
 20
116.4817098390608
 30
0.0
 11
686.7369540142581
 21
116.4817098390608
 31
0.0
  0
LINE
  5
1128
330
1F
100
AcDbEntity
  8
0
 62
     3
100
AcDbLine
 10
688.0369540142591
 20
116.4817098390608
 30
0.0
 11
730.2077151987158
 21
116.4817098390608
 31
0.0
  0
LINE
  5
1129
330
1F
100
AcDbEntity
  8
0
 62
     3
100
AcDbLine
 10
730.2077151987158
 20
117.7817098390608
 30
0.0
 11
688.0369540142591
 21
117.7817098390608
 31
0.0
  0
LINE
  5
112A
330
1F
100
AcDbEntity
  8
0
 62
     3
100
AcDbLine
 10
686.7369540142581
 20
117.7817098390608
 30
0.0
 11
643.0369540142574
 21
117.7817098390608
 31
0.0
  0
LINE
  5
112B
330
1F
100
AcDbEntity
  8
0
 62
     3
100
AcDbLine
 10
641.7369540142581
 20
117.7817098390608
 30
0.0
 11
599.5661928298012
 21
117.7817098390608
 31
0.0
  0
LINE
  5
112C
330
1F
100
AcDbEntity
  8
0
 62
     3
100
AcDbLine
 10
599.5661928298012
 20
117.7817098390608
 30
0.0
 11
599.1065734220301
 21
117.7817098390608
 31
0.0
  0
LINE
  5
112D
330
1F
100
AcDbEntity
  8
0
 62
     3
100
AcDbLine
 10
599.1065734220301
 20
116.4817098390608
 30
0.0
 11
599.5661928298012
 21
116.4817098390608
 31
0.0
  0
LINE
  5
112E
330
1F
100
AcDbEntity
  8
0
 62
     3
100
AcDbLine
 10
730.2077151987158
 20
116.4817098390608
 30
0.0
 11
730.667334606487
 21
116.4817098390608
 31
0.0
  0
LINE
  5
112F
330
1F
100
AcDbEntity
  8
0
 62
     3
100
AcDbLine
 10
730.667334606487
 20
117.7817098390608
 30
0.0
 11
730.2077151987158
 21
117.7817098390608
 31
0.0
  0
LINE
  5
1130
330
1F
100
AcDbEntity
  8
0
 62
     3
100
AcDbLine
 10
594.8633944962192
 20
116.4817098390608
 30
0.0
 11
599.1065734220301
 21
116.4817098390608
 31
0.0
  0
LINE
  5
1131
330
1F
100
AcDbEntity
  8
0
 62
     3
100
AcDbLine
 10
599.1065734220301
 20
117.7817098390608
 30
0.0
 11
594.8633944962192
 21
117.7817098390608
 31
0.0
  0
LINE
  5
1132
330
1F
100
AcDbEntity
  8
0
 62
     3
100
AcDbLine
 10
734.9105135322989
 20
117.7817098390608
 30
0.0
 11
730.667334606487
 21
117.7817098390608
 31
0.0
  0
LINE
  5
1133
330
1F
100
AcDbEntity
  8
0
 62
     3
100
AcDbLine
 10
730.667334606487
 20
116.4817098390608
 30
0.0
 11
734.9105135322989
 21
116.4817098390608
 31
0.0
  0
LINE
  5
1134
330
1F
100
AcDbEntity
  8
0
 62
     3
100
AcDbLine
 10
686.7369540142581
 20
93.81594865460328
 30
0.0
 11
686.7369540142581
 21
93.35632924683205
 31
0.0
  0
LINE
  5
1135
330
1F
100
AcDbEntity
  8
0
 62
     3
100
AcDbLine
 10
688.0369540142591
 20
93.35632924683205
 30
0.0
 11
688.0369540142591
 21
93.81594865460328
 31
0.0
  0
LINE
  5
1136
330
1F
100
AcDbEntity
  8
0
 62
     3
100
AcDbLine
 10
688.0369540142591
 20
87.69893675864802
 30
0.0
 11
688.0369540142591
 21
198.86448291947
 31
0.0
  0
LINE
  5
1137
330
1F
100
AcDbEntity
  8
0
 62
     3
100
AcDbLine
 10
686.7369540142581
 20
198.86448291947
 30
0.0
 11
686.7369540142581
 21
87.69893675864802
 31
0.0
  0
LINE
  5
1138
330
1F
100
AcDbEntity
  8
0
 62
     3
100
AcDbLine
 10
641.7369540142581
 20
93.81594865460328
 30
0.0
 11
641.7369540142581
 21
93.35632924683205
 31
0.0
  0
LINE
  5
1139
330
1F
100
AcDbEntity
  8
0
 62
     3
100
AcDbLine
 10
643.0369540142574
 20
93.35632924683205
 30
0.0
 11
643.0369540142574
 21
93.81594865460328
 31
0.0
  0
LINE
  5
113A
330
1F
100
AcDbEntity
  8
0
 62
     3
100
AcDbLine
 10
643.0369540142574
 20
87.69893675864802
 30
0.0
 11
643.0369540142574
 21
198.8644829194696
 31
0.0
  0
LINE
  5
113B
330
1F
100
AcDbEntity
  8
0
 62
     3
100
AcDbLine
 10
641.7369540142581
 20
198.8644829194696
 30
0.0
 11
641.7369540142581
 21
87.69893675864802
 31
0.0
  0
ARC
  5
113C
330
1F
100
AcDbEntity
  8
0
 62
     3
100
AcDbCircle
 10
604.1706920991726
 20
89.83644938523269
 30
0.0
 40
1.300000000000002
100
AcDbArc
 50
224.9999999999906
 51
270.0
  0
LINE
  5
113D
330
1F
100
AcDbEntity
  8
0
 62
     3
100
AcDbLine
 10
725.6032159293463
 20
89.83644938523269
 30
0.0
 11
688.0369540142591
 21
89.83644938523269
 31
0.0
  0
LINE
  5
113E
330
1F
100
AcDbEntity
  8
0
 62
     3
100
AcDbLine
 10
686.7369540142581
 20
89.83644938523269
 30
0.0
 11
643.0369540142574
 21
89.83644938523269
 31
0.0
  0
LINE
  5
113F
330
1F
100
AcDbEntity
  8
0
 62
     3
100
AcDbLine
 10
641.7369540142581
 20
89.83644938523269
 30
0.0
 11
604.1706920991726
 21
89.83644938523269
 31
0.0
  0
LINE
  5
1140
330
1F
100
AcDbEntity
  8
0
 62
     3
100
AcDbLine
 10
604.1706920991726
 20
88.5364493852327
 30
0.0
 11
641.7369540142581
 21
88.5364493852327
 31
0.0
  0
LINE
  5
1141
330
1F
100
AcDbEntity
  8
0
 62
     3
100
AcDbLine
 10
643.0369540142574
 20
88.5364493852327
 30
0.0
 11
686.7369540142581
 21
88.5364493852327
 31
0.0
  0
LINE
  5
1142
330
1F
100
AcDbEntity
  8
0
 62
     3
100
AcDbLine
 10
688.0369540142591
 20
88.5364493852327
 30
0.0
 11
725.6032159293463
 21
88.5364493852327
 31
0.0
  0
ARC
  5
1143
330
1F
100
AcDbEntity
  8
0
 62
     3
100
AcDbCircle
 10
725.6032159293463
 20
89.83644938523269
 30
0.0
 40
1.300000000000002
100
AcDbArc
 50
270.0
 51
315.0000000000094
  0
LINE
  5
1144
330
1F
100
AcDbEntity
  8
0
 62
     3
100
AcDbLine
 10
731.5869540142585
 20
95.82018747014563
 30
0.0
 11
725.6032159293463
 21
89.83644938523269
 31
0.0
  0
LINE
  5
1145
330
1F
100
AcDbEntity
  8
0
 62
     3
100
AcDbLine
 10
726.5224547448887
 20
88.91721056969021
 30
0.0
 11
732.8869540142585
 21
95.28170983906081
 31
0.0
  0
LINE
  5
1146
330
1F
100
AcDbEntity
  8
0
 62
     3
100
AcDbLine
 10
596.8869540142586
 20
95.28170983906081
 30
0.0
 11
603.2514532836294
 21
88.91721056969021
 31
0.0
  0
LINE
  5
1147
330
1F
100
AcDbEntity
  8
0
 62
     3
100
AcDbLine
 10
604.1706920991726
 20
89.83644938523269
 30
0.0
 11
598.1869540142587
 21
95.82018747014563
 31
0.0
  0
ARC
  5
1148
330
1F
100
AcDbEntity
  8
0
 62
     3
100
AcDbCircle
 10
604.1706920991726
 20
196.7269702928888
 30
0.0
 40
1.30000000000001
100
AcDbArc
 50
90.0
 51
135.0000000000094
  0
ARC
  5
1149
330
1F
100
AcDbEntity
  8
0
 62
     3
100
AcDbCircle
 10
725.6032159293463
 20
196.7269702928888
 30
0.0
 40
1.30000000000001
100
AcDbArc
 50
44.99999999999057
 51
90.0
  0
LINE
  5
114A
330
1F
100
AcDbEntity
  8
0
 62
     3
100
AcDbLine
 10
604.1706920991726
 20
196.7269702928888
 30
0.0
 11
641.7369540142581
 21
196.7269702928888
 31
0.0
  0
LINE
  5
114B
330
1F
100
AcDbEntity
  8
0
 62
     3
100
AcDbLine
 10
643.0369540142574
 20
196.7269702928888
 30
0.0
 11
686.7369540142581
 21
196.7269702928888
 31
0.0
  0
LINE
  5
114C
330
1F
100
AcDbEntity
  8
0
 62
     3
100
AcDbLine
 10
688.0369540142591
 20
196.7269702928888
 30
0.0
 11
725.6032159293463
 21
196.7269702928888
 31
0.0
  0
LINE
  5
114D
330
1F
100
AcDbEntity
  8
0
 62
     3
100
AcDbLine
 10
725.6032159293463
 20
198.0269702928888
 30
0.0
 11
688.0369540142591
 21
198.0269702928888
 31
0.0
  0
LINE
  5
114E
330
1F
100
AcDbEntity
  8
0
 62
     3
100
AcDbLine
 10
686.7369540142581
 20
198.0269702928888
 30
0.0
 11
643.0369540142574
 21
198.0269702928888
 31
0.0
  0
LINE
  5
114F
330
1F
100
AcDbEntity
  8
0
 62
     3
100
AcDbLine
 10
641.7369540142581
 20
198.0269702928888
 30
0.0
 11
604.1706920991726
 21
198.0269702928888
 31
0.0
  0
LINE
  5
1150
330
1F
100
AcDbEntity
  8
0
 62
     3
100
AcDbLine
 10
732.8869540142585
 20
191.2817098390608
 30
0.0
 11
726.5224547448887
 21
197.6462091084313
 31
0.0
  0
LINE
  5
1151
330
1F
100
AcDbEntity
  8
0
 62
     3
100
AcDbLine
 10
725.6032159293463
 20
196.7269702928888
 30
0.0
 11
731.5869540142585
 21
190.7432322079759
 31
0.0
  0
LINE
  5
1152
330
1F
100
AcDbEntity
  8
0
 62
     3
100
AcDbLine
 10
598.1869540142587
 20
190.7432322079759
 30
0.0
 11
604.1706920991726
 21
196.7269702928888
 31
0.0
  0
LINE
  5
1153
330
1F
100
AcDbEntity
  8
0
 62
     3
100
AcDbLine
 10
603.2514532836294
 20
197.6462091084313
 30
0.0
 11
596.8869540142586
 21
191.2817098390608
 31
0.0
  0
LINE
  5
1154
330
1F
100
AcDbEntity
  8
0
 62
     3
100
AcDbLine
 10
597.736954014259
 20
91.33109999225268
 30
0.0
 11
597.5404423863517
 21
91.95068306182236
 31
0.0
  0
LINE
  5
1155
330
1F
100
AcDbEntity
  8
0
 62
     3
100
AcDbLine
 10
597.9334656421651
 20
90.71151692268299
 30
0.0
 11
597.736954014259
 21
91.33109999225268
 31
0.0
  0
LINE
  5
1156
330
1F
100
AcDbEntity
  8
0
 62
     3
100
AcDbLine
 10
597.736954014259
 20
195.2323196858689
 30
0.0
 11
597.5404423863517
 21
194.6127366162992
 31
0.0
  0
LINE
  5
1157
330
1F
100
AcDbEntity
  8
0
 62
     3
100
AcDbLine
 10
597.9334656421651
 20
195.8519027554385
 30
0.0
 11
597.736954014259
 21
195.2323196858689
 31
0.0
  0
LINE
  5
1158
330
1F
100
AcDbEntity
  8
0
 62
     3
100
AcDbLine
 10
732.0369540142583
 20
91.33109999225268
 30
0.0
 11
732.2334656421662
 21
91.95068306182236
 31
0.0
  0
LINE
  5
1159
330
1F
100
AcDbEntity
  8
0
 62
     3
100
AcDbLine
 10
731.8404423863519
 20
90.71151692268299
 30
0.0
 11
732.0369540142583
 21
91.33109999225268
 31
0.0
  0
LINE
  5
115A
330
1F
100
AcDbEntity
  8
0
 62
     3
100
AcDbLine
 10
732.0369540142583
 20
195.2323196858689
 30
0.0
 11
732.2334656421662
 21
194.6127366162992
 31
0.0
  0
LINE
  5
115B
330
1F
100
AcDbEntity
  8
0
 62
     3
100
AcDbLine
 10
731.8404423863519
 20
195.8519027554385
 30
0.0
 11
732.0369540142583
 21
195.2323196858689
 31
0.0
  0
ARC
  5
1160
330
1F
100
AcDbEntity
  8
0
 62
     3
100
AcDbCircle
 10
687.4682040142587
 20
87.81384161059088
 30
0.0
 40
0.5802410598191649
100
AcDbArc
 50
261.9505330244818
 51
348.5782463410292
  0
ARC
  5
1161
330
1F
100
AcDbEntity
  8
0
 62
     3
100
AcDbCircle
 10
687.3057040142582
 20
87.81384161059088
 30
0.0
 40
0.580241059819162
100
AcDbArc
 50
191.4217536589775
 51
278.0494669755182
  0
ARC
  5
1162
330
1F
100
AcDbEntity
  8
0
 62
     3
100
AcDbCircle
 10
687.4682040142587
 20
198.7495780675306
 30
0.0
 40
0.5802410598191198
100
AcDbArc
 50
11.42175365897067
 51
98.04946697551812
  0
ARC
  5
1163
330
1F
100
AcDbEntity
  8
0
 62
     3
100
AcDbCircle
 10
687.3057040142582
 20
198.7495780675306
 30
0.0
 40
0.5802410598191278
100
AcDbArc
 50
81.95053302442925
 51
168.5782463410286
  0
ARC
  5
1164
330
1F
100
AcDbEntity
  8
0
 62
     3
100
AcDbCircle
 10
642.468204014257
 20
198.7495780675308
 30
0.0
 40
0.5802410598190556
100
AcDbArc
 50
11.42175365895541
 51
98.04946697551812
  0
ARC
  5
1165
330
1F
100
AcDbEntity
  8
0
 62
     3
100
AcDbCircle
 10
642.3057040142585
 20
198.7495780675308
 30
0.0
 40
0.5802410598190556
100
AcDbArc
 50
81.95053302442925
 51
168.5782463410446
  0
ARC
  5
1166
330
1F
100
AcDbEntity
  8
0
 62
     3
100
AcDbCircle
 10
642.468204014257
 20
87.81384161059081
 30
0.0
 40
0.5802410598190975
100
AcDbArc
 50
261.9505330244818
 51
348.5782463410385
  0
ARC
  5
1167
330
1F
100
AcDbEntity
  8
0
 62
     3
100
AcDbCircle
 10
642.3057040142585
 20
87.81384161059081
 30
0.0
 40
0.5802410598191057
100
AcDbArc
 50
191.4217536589713
 51
278.0494669755182
  0
ARC
  5
116C
330
1F
100
AcDbEntity
  8
0
 62
     3
100
AcDbCircle
 10
600.5369540142583
 20
259.9476438434003
 30
0.0
 40
0.6500000000000341
100
AcDbArc
 50
270.0
 51
90.0
  0
LINE
  5
116D
330
1F
100
AcDbEntity
  8
0
 62
     3
100
AcDbLine
 10
596.236954014259
 20
259.2976438434003
 30
0.0
 11
600.5369540142583
 21
259.2976438434003
 31
0.0
  0
LINE
  5
116E
330
1F
100
AcDbEntity
  8
0
 62
     3
100
AcDbLine
 10
600.5369540142583
 20
260.5976438434003
 30
0.0
 11
596.236954014259
 21
260.5976438434003
 31
0.0
  0
ARC
  5
116F
330
1F
100
AcDbEntity
  8
0
 62
     3
100
AcDbCircle
 10
729.236954014259
 20
259.9476438434003
 30
0.0
 40
0.6500000000000341
100
AcDbArc
 50
90.0
 51
270.0
  0
LINE
  5
1170
330
1F
100
AcDbEntity
  8
0
 62
     3
100
AcDbLine
 10
733.5369540142583
 20
260.5976438434003
 30
0.0
 11
729.236954014259
 21
260.5976438434003
 31
0.0
  0
LINE
  5
1171
330
1F
100
AcDbEntity
  8
0
 62
     3
100
AcDbLine
 10
729.236954014259
 20
259.2976438434003
 30
0.0
 11
733.5369540142583
 21
259.2976438434003
 31
0.0
  0
LINE
  5
1172
330
1F
100
AcDbEntity
  8
0
 62
     3
100
AcDbLine
 10
734.4508941245276
 20
259.9408227692113
 30
0.0
 11
730.2077151987158
 21
255.6976438434004
 31
0.0
  0
LINE
  5
1173
330
1F
100
AcDbEntity
  8
0
 62
     3
100
AcDbLine
 10
731.1269540142584
 20
254.7784050278579
 30
0.0
 11
735.3701329400702
 21
259.0215839536688
 31
0.0
  0
LINE
  5
1174
330
1F
100
AcDbEntity
  8
0
 62
     3
100
AcDbLine
 10
594.4037750884481
 20
259.0215839536688
 30
0.0
 11
598.6469540142588
 21
254.7784050278579
 31
0.0
  0
LINE
  5
1175
330
1F
100
AcDbEntity
  8
0
 62
     3
100
AcDbLine
 10
599.5661928298012
 20
255.6976438434004
 30
0.0
 11
595.3230139039906
 21
259.9408227692113
 31
0.0
  0
ARC
  5
1176
330
1F
100
AcDbEntity
  8
0
 62
     3
100
AcDbCircle
 10
730.2077151987158
 20
255.6976438434004
 30
0.0
 40
1.30000000000002
100
AcDbArc
 50
270.0
 51
315.0000000000094
  0
LINE
  5
1177
330
1F
100
AcDbEntity
  8
0
 62
     3
100
AcDbLine
 10
599.5661928298012
 20
254.3976438434004
 30
0.0
 11
641.7369540142581
 21
254.3976438434004
 31
0.0
  0
LINE
  5
1178
330
1F
100
AcDbEntity
  8
0
 62
     3
100
AcDbLine
 10
643.0369540142574
 20
254.3976438434004
 30
0.0
 11
686.7369540142581
 21
254.3976438434004
 31
0.0
  0
LINE
  5
1179
330
1F
100
AcDbEntity
  8
0
 62
     3
100
AcDbLine
 10
688.0369540142591
 20
254.3976438434004
 30
0.0
 11
730.2077151987158
 21
254.3976438434004
 31
0.0
  0
LINE
  5
117A
330
1F
100
AcDbEntity
  8
0
 62
     3
100
AcDbLine
 10
730.2077151987158
 20
255.6976438434004
 30
0.0
 11
688.0369540142591
 21
255.6976438434004
 31
0.0
  0
LINE
  5
117B
330
1F
100
AcDbEntity
  8
0
 62
     3
100
AcDbLine
 10
686.7369540142581
 20
255.6976438434004
 30
0.0
 11
643.0369540142574
 21
255.6976438434004
 31
0.0
  0
LINE
  5
117C
330
1F
100
AcDbEntity
  8
0
 62
     3
100
AcDbLine
 10
641.7369540142581
 20
255.6976438434004
 30
0.0
 11
599.5661928298012
 21
255.6976438434004
 31
0.0
  0
ARC
  5
117D
330
1F
100
AcDbEntity
  8
0
 62
     3
100
AcDbCircle
 10
599.5661928298012
 20
255.6976438434004
 30
0.0
 40
1.30000000000001
100
AcDbArc
 50
224.9999999999906
 51
270.0
  0
LINE
  5
117E
330
1F
100
AcDbEntity
  8
0
 62
     3
100
AcDbLine
 10
686.7369540142581
 20
259.595416923813
 30
0.0
 11
686.7369540142581
 21
253.9380244356291
 31
0.0
  0
LINE
  5
117F
330
1F
100
AcDbEntity
  8
0
 62
     3
100
AcDbLine
 10
688.0369540142591
 20
253.9380244356291
 30
0.0
 11
688.0369540142591
 21
259.595416923813
 31
0.0
  0
LINE
  5
1180
330
1F
100
AcDbEntity
  8
0
 62
     3
100
AcDbLine
 10
688.0369540142591
 20
253.7476438434003
 30
0.0
 11
688.0369540142591
 21
253.9380244356291
 31
0.0
  0
LINE
  5
1181
330
1F
100
AcDbEntity
  8
0
 62
     3
100
AcDbLine
 10
686.7369540142581
 20
253.9380244356291
 30
0.0
 11
686.7369540142581
 21
253.7476438434003
 31
0.0
  0
LINE
  5
1182
330
1F
100
AcDbEntity
  8
0
 62
     3
100
AcDbLine
 10
641.7369540142581
 20
259.595416923813
 30
0.0
 11
641.7369540142581
 21
253.9380244356291
 31
0.0
  0
LINE
  5
1183
330
1F
100
AcDbEntity
  8
0
 62
     3
100
AcDbLine
 10
643.0369540142574
 20
253.9380244356291
 30
0.0
 11
643.0369540142574
 21
259.595416923813
 31
0.0
  0
LINE
  5
1184
330
1F
100
AcDbEntity
  8
0
 62
     3
100
AcDbLine
 10
643.0369540142574
 20
253.7476438434003
 30
0.0
 11
643.0369540142574
 21
253.9380244356291
 31
0.0
  0
LINE
  5
1185
330
1F
100
AcDbEntity
  8
0
 62
     3
100
AcDbLine
 10
641.7369540142581
 20
253.9380244356291
 30
0.0
 11
641.7369540142581
 21
253.7476438434003
 31
0.0
  0
LINE
  5
1186
330
1F
100
AcDbEntity
  8
0
 62
     3
100
AcDbLine
 10
604.1706920991726
 20
260.5976438434003
 30
0.0
 11
603.7110726914006
 21
260.5976438434003
 31
0.0
  0
LINE
  5
1187
330
1F
100
AcDbEntity
  8
0
 62
     3
100
AcDbLine
 10
603.7110726914006
 20
259.2976438434003
 30
0.0
 11
604.1706920991726
 21
259.2976438434003
 31
0.0
  0
LINE
  5
1188
330
1F
100
AcDbEntity
  8
0
 62
     3
100
AcDbLine
 10
604.1706920991726
 20
259.2976438434003
 30
0.0
 11
641.7369540142581
 21
259.2976438434003
 31
0.0
  0
LINE
  5
1189
330
1F
100
AcDbEntity
  8
0
 62
     3
100
AcDbLine
 10
643.0369540142574
 20
259.2976438434003
 30
0.0
 11
686.7369540142581
 21
259.2976438434003
 31
0.0
  0
LINE
  5
118A
330
1F
100
AcDbEntity
  8
0
 62
     3
100
AcDbLine
 10
688.0369540142591
 20
259.2976438434003
 30
0.0
 11
725.6032159293463
 21
259.2976438434003
 31
0.0
  0
LINE
  5
118B
330
1F
100
AcDbEntity
  8
0
 62
     3
100
AcDbLine
 10
725.6032159293463
 20
260.5976438434003
 30
0.0
 11
604.1706920991726
 21
260.5976438434003
 31
0.0
  0
LINE
  5
118C
330
1F
100
AcDbEntity
  8
0
 62
     3
100
AcDbLine
 10
725.6032159293463
 20
259.2976438434003
 30
0.0
 11
726.0628353371173
 21
259.2976438434003
 31
0.0
  0
LINE
  5
118D
330
1F
100
AcDbEntity
  8
0
 62
     3
100
AcDbLine
 10
726.0628353371173
 20
260.5976438434003
 30
0.0
 11
725.6032159293463
 21
260.5976438434003
 31
0.0
  0
LINE
  5
118E
330
1F
100
AcDbEntity
  8
0
 62
     3
100
AcDbLine
 10
729.236954014259
 20
260.5976438434004
 30
0.0
 11
726.0628353371173
 21
260.5976438434003
 31
0.0
  0
LINE
  5
118F
330
1F
100
AcDbEntity
  8
0
 62
     3
100
AcDbLine
 10
726.0628353371173
 20
259.2976438434003
 30
0.0
 11
729.236954014259
 21
259.2976438434003
 31
0.0
  0
LINE
  5
1190
330
1F
100
AcDbEntity
  8
0
 62
     3
100
AcDbLine
 10
600.5369540142583
 20
259.2976438434003
 30
0.0
 11
603.7110726914006
 21
259.2976438434003
 31
0.0
  0
LINE
  5
1191
330
1F
100
AcDbEntity
  8
0
 62
     3
100
AcDbLine
 10
603.7110726914006
 20
260.5976438434003
 30
0.0
 11
600.5369540142583
 21
260.5976438434004
 31
0.0
  0
ARC
  5
1192
330
1F
100
AcDbEntity
  8
0
 62
     3
100
AcDbCircle
 10
596.236954014259
 20
259.9476438434003
 30
0.0
 40
0.6500000000000341
100
AcDbArc
 50
90.0
 51
270.0
  0
ARC
  5
1193
330
1F
100
AcDbEntity
  8
0
 62
     3
100
AcDbCircle
 10
733.5369540142583
 20
259.9476438434003
 30
0.0
 40
0.6500000000000341
100
AcDbArc
 50
270.0
 51
90.0
  0
LINE
  5
1194
330
1F
100
AcDbEntity
  8
0
 62
     3
100
AcDbLine
 10
734.4508941245276
 20
259.9408227692113
 30
0.0
 11
735.3701329400702
 21
259.0215839536688
 31
0.0
  0
LINE
  5
1195
330
1F
100
AcDbEntity
  8
0
 62
     3
100
AcDbLine
 10
595.3230139039906
 20
259.9408227692113
 30
0.0
 11
594.4037750884481
 21
259.0215839536688
 31
0.0
  0
ARC
  5
1197
330
1F
100
AcDbEntity
  8
0
 62
     3
100
AcDbCircle
 10
687.3869540142578
 20
253.7476438434003
 30
0.0
 40
0.6500000000000057
100
AcDbArc
 50
180.0
 51
0.0
  0
ARC
  5
1199
330
1F
100
AcDbEntity
  8
0
 62
     3
100
AcDbCircle
 10
642.3869540142577
 20
253.7476438434003
 30
0.0
 40
0.6500000000000057
100
AcDbArc
 50
180.0
 51
0.0
  0
ARC
  5
119A
330
1F
100
AcDbEntity
  8
0
 62
     3
100
AcDbCircle
 10
825.5390011533528
 20
87.13170983906076
 30
0.0
 40
0.6500000000000341
100
AcDbArc
 50
180.0
 51
0.0
  0
LINE
  5
119B
330
1F
100
AcDbEntity
  8
0
 62
     3
100
AcDbLine
 10
824.8890011533513
 20
89.28170983906083
 30
0.0
 11
824.8890011533513
 21
87.13170983906076
 31
0.0
  0
LINE
  5
119C
330
1F
100
AcDbEntity
  8
0
 62
     3
100
AcDbLine
 10
826.189001153352
 20
87.13170983906076
 30
0.0
 11
826.189001153352
 21
89.28170983906083
 31
0.0
  0
ARC
  5
119D
330
1F
100
AcDbEntity
  8
0
 62
     3
100
AcDbCircle
 10
825.5390011533528
 20
199.4317098390608
 30
0.0
 40
0.6500000000000341
100
AcDbArc
 50
0.0
 51
180.0
  0
LINE
  5
119E
330
1F
100
AcDbEntity
  8
0
 62
     3
100
AcDbLine
 10
826.189001153352
 20
197.2817098390608
 30
0.0
 11
826.189001153352
 21
199.4317098390608
 31
0.0
  0
LINE
  5
119F
330
1F
100
AcDbEntity
  8
0
 62
     3
100
AcDbLine
 10
824.8890011533513
 20
199.4317098390608
 30
0.0
 11
824.8890011533513
 21
197.2817098390608
 31
0.0
  0
LINE
  5
11A0
330
1F
100
AcDbEntity
  8
0
 62
     3
100
AcDbLine
 10
826.189001153352
 20
89.28170983906083
 30
0.0
 11
826.189001153352
 21
197.2817098390608
 31
0.0
  0
LINE
  5
11A1
330
1F
100
AcDbEntity
  8
0
 62
     3
100
AcDbLine
 10
824.8890011533513
 20
197.2817098390608
 30
0.0
 11
824.8890011533513
 21
170.0817098390607
 31
0.0
  0
LINE
  5
11A2
330
1F
100
AcDbEntity
  8
0
 62
     3
100
AcDbLine
 10
824.8890011533513
 20
168.7817098390608
 30
0.0
 11
824.8890011533513
 21
117.7817098390608
 31
0.0
  0
LINE
  5
11A3
330
1F
100
AcDbEntity
  8
0
 62
     3
100
AcDbLine
 10
824.8890011533513
 20
116.4817098390608
 30
0.0
 11
824.8890011533513
 21
89.28170983906083
 31
0.0
  0
LINE
  5
11A4
330
1F
100
AcDbEntity
  8
0
 62
     3
100
AcDbLine
 10
825.0725606713913
 20
170.0817098390607
 30
0.0
 11
820.8293817455814
 21
170.0817098390607
 31
0.0
  0
LINE
  5
11A5
330
1F
100
AcDbEntity
  8
0
 62
     3
100
AcDbLine
 10
820.8293817455814
 20
168.7817098390608
 30
0.0
 11
825.0725606713913
 21
168.7817098390608
 31
0.0
  0
LINE
  5
11A6
330
1F
100
AcDbEntity
  8
0
 62
     3
100
AcDbLine
 10
820.6390011533512
 20
168.7817098390608
 30
0.0
 11
820.8293817455814
 21
168.7817098390608
 31
0.0
  0
LINE
  5
11A7
330
1F
100
AcDbEntity
  8
0
 62
     3
100
AcDbLine
 10
820.8293817455814
 20
170.0817098390607
 30
0.0
 11
820.6390011533512
 21
170.0817098390607
 31
0.0
  0
LINE
  5
11A8
330
1F
100
AcDbEntity
  8
0
 62
     3
100
AcDbLine
 10
825.0725606713913
 20
117.7817098390608
 30
0.0
 11
820.8293817455814
 21
117.7817098390608
 31
0.0
  0
LINE
  5
11A9
330
1F
100
AcDbEntity
  8
0
 62
     3
100
AcDbLine
 10
820.8293817455814
 20
116.4817098390608
 30
0.0
 11
825.0725606713913
 21
116.4817098390608
 31
0.0
  0
LINE
  5
11AA
330
1F
100
AcDbEntity
  8
0
 62
     3
100
AcDbLine
 10
820.6390011533512
 20
116.4817098390608
 30
0.0
 11
820.8293817455814
 21
116.4817098390608
 31
0.0
  0
LINE
  5
11AB
330
1F
100
AcDbEntity
  8
0
 62
     3
100
AcDbLine
 10
820.8293817455814
 20
117.7817098390608
 30
0.0
 11
820.6390011533512
 21
117.7817098390608
 31
0.0
  0
LINE
  5
11AC
330
1F
100
AcDbEntity
  8
0
 62
     3
100
AcDbLine
 10
824.7271548259941
 20
199.3241023272446
 30
0.0
 11
819.0697623378092
 21
193.6667098390606
 31
0.0
  0
LINE
  5
11AD
330
1F
100
AcDbEntity
  8
0
 62
     3
100
AcDbLine
 10
819.9890011533517
 20
192.7474710235183
 30
0.0
 11
824.8890011533513
 21
197.6474710235181
 31
0.0
  0
LINE
  5
11AE
330
1F
100
AcDbEntity
  8
0
 62
     3
100
AcDbLine
 10
824.8890011533513
 20
88.91594865460342
 30
0.0
 11
819.9890011533517
 21
93.81594865460328
 31
0.0
  0
LINE
  5
11AF
330
1F
100
AcDbEntity
  8
0
 62
     3
100
AcDbLine
 10
819.0697623378092
 20
92.89670983906075
 30
0.0
 11
824.7271548259941
 21
87.23931735087679
 31
0.0
  0
ARC
  5
11B0
330
1F
100
AcDbEntity
  8
0
 62
     3
100
AcDbCircle
 10
819.9890011533517
 20
93.81594865460328
 30
0.0
 40
1.30000000000001
100
AcDbArc
 50
180.0
 51
224.9999999999906
  0
ARC
  5
11B1
330
1F
100
AcDbEntity
  8
0
 62
     3
100
AcDbCircle
 10
819.9890011533517
 20
192.7474710235183
 30
0.0
 40
1.30000000000001
100
AcDbArc
 50
135.0000000000094
 51
180.0
  0
LINE
  5
11B2
330
1F
100
AcDbEntity
  8
0
 62
     3
100
AcDbLine
 10
819.9890011533517
 20
93.81594865460328
 30
0.0
 11
819.9890011533517
 21
192.7474710235183
 31
0.0
  0
LINE
  5
11B3
330
1F
100
AcDbEntity
  8
0
 62
     3
100
AcDbLine
 10
818.6890011533524
 20
192.7474710235183
 30
0.0
 11
818.6890011533524
 21
93.81594865460328
 31
0.0
  0
ARC
  5
11B5
330
1F
100
AcDbEntity
  8
0
 62
     3
100
AcDbCircle
 10
820.6390011533512
 20
169.4317098390607
 30
0.0
 40
0.6500000000000057
100
AcDbArc
 50
90.0
 51
270.0
  0
ARC
  5
11B7
330
1F
100
AcDbEntity
  8
0
 62
     3
100
AcDbCircle
 10
820.6390011533512
 20
117.1317098390607
 30
0.0
 40
0.6500000000000057
100
AcDbArc
 50
90.0
 51
270.0
  0
LINE
  5
11B8
330
1F
100
AcDbEntity
  8
0
 62
     3
100
AcDbLine
 10
824.7271548259941
 20
199.3241023272446
 30
0.0
 11
824.889001153352
 21
199.1622559998863
 31
0.0
  0
LINE
  5
11B9
330
1F
100
AcDbEntity
  8
0
 62
     3
100
AcDbLine
 10
824.7271548259941
 20
87.23931735087679
 30
0.0
 11
824.889001153352
 21
87.40116367823521
 31
0.0
  0
LINE
  5
11F0
330
1F
100
AcDbEntity
  8
0
 62
     3
100
AcDbLine
 10
786.3883422654526
 20
180.1211216368757
 30
0.0
 11
786.3883422654526
 21
199.4949388545635
 31
0.0
  0
LINE
  5
11F1
330
1F
100
AcDbEntity
  8
0
 62
     3
100
AcDbLine
 10
783.7883422654503
 20
199.4949388545635
 30
0.0
 11
783.7883422654503
 21
179.5524015640276
 31
0.0
  0
ARC
  5
11F2
330
1F
100
AcDbEntity
  8
0
 62
     3
100
AcDbCircle
 10
780.7883422654504
 20
199.4949388545635
 30
0.0
 40
3.0
100
AcDbArc
 50
180.0
 51
287.597336608062
  0
ARC
  5
11F3
330
1F
100
AcDbEntity
  8
0
 62
     3
100
AcDbCircle
 10
780.7883422654504
 20
199.4949388545635
 30
0.0
 40
3.0
100
AcDbArc
 50
0.0
 51
180.0
  0
ARC
  5
11F4
330
1F
100
AcDbEntity
  8
0
 62
     3
100
AcDbCircle
 10
780.7883422654504
 20
199.4949388545635
 30
0.0
 40
5.600000000000008
100
AcDbArc
 50
0.0
 51
287.597336608062
  0
ARC
  5
11F5
330
1F
100
AcDbEntity
  8
0
 62
     3
100
AcDbCircle
 10
769.2208660956257
 20
198.3854597622196
 30
0.0
 40
2.60000000000002
100
AcDbArc
 50
44.99999999999057
 51
90.0
  0
LINE
  5
11F6
330
1F
100
AcDbEntity
  8
0
 62
     3
100
AcDbLine
 10
760.6519610183623
 20
198.3854597622196
 30
0.0
 11
769.2208660956257
 21
198.3854597622196
 31
0.0
  0
LINE
  5
11F7
330
1F
100
AcDbEntity
  8
0
 62
     3
100
AcDbLine
 10
769.2208660956257
 20
200.9854597622195
 30
0.0
 11
760.6765760325141
 21
200.9854597622195
 31
0.0
  0
LINE
  5
11F8
330
1F
100
AcDbEntity
  8
0
 62
     3
100
AcDbLine
 10
783.7883422654503
 20
187.4949388545635
 30
0.0
 11
771.0593437267108
 21
200.2239373933046
 31
0.0
  0
LINE
  5
11F9
330
1F
100
AcDbEntity
  8
0
 62
     3
100
AcDbLine
 10
769.2208660956257
 20
198.3854597622196
 30
0.0
 11
781.9498646343654
 21
185.6564612234786
 31
0.0
  0
LINE
  5
11FA
330
1F
100
AcDbEntity
  8
0
 62
     3
100
AcDbLine
 10
782.0883422654497
 20
195.3961585481797
 30
0.0
 11
782.4813655212656
 21
194.1569924090404
 31
0.0
  0
LINE
  5
11FB
330
1F
100
AcDbEntity
  8
0
 62
     3
100
AcDbLine
 10
781.6953190096374
 20
196.635324687319
 30
0.0
 11
782.0883422654497
 21
195.3961585481797
 31
0.0
  0
LINE
  5
11FC
330
1F
100
AcDbEntity
  8
0
 62
     3
100
AcDbLine
 10
783.7883422654503
 20
187.4949388545635
 30
0.0
 11
781.9498646343654
 21
185.6564612234786
 31
0.0
  0
LINE
  5
14F0
330
1F
100
AcDbEntity
  8
0
 62
     3
100
AcDbLine
 10
731.5869540142585
 20
95.82018747014563
 30
0.0
 11
731.5869540142585
 21
103.8201874701455
 31
0.0
  0
LINE
  5
14F1
330
1F
100
AcDbEntity
  8
0
 62
     3
100
AcDbLine
 10
731.5869540142585
 20
103.8201874701455
 30
0.0
 11
732.8869540142585
 21
103.8201874701455
 31
0.0
  0
LINE
  5
14F2
330
1F
100
AcDbEntity
  8
0
 62
     3
100
AcDbLine
 10
598.1869540142587
 20
95.82018747014563
 30
0.0
 11
598.1869540142587
 21
103.8201874701455
 31
0.0
  0
LINE
  5
14F3
330
1F
100
AcDbEntity
  8
0
 62
     3
100
AcDbLine
 10
598.1869540142587
 20
103.8201874701455
 30
0.0
 11
596.8869540142586
 21
103.8201874701455
 31
0.0
  0
LINE
  5
14F4
330
1F
100
AcDbEntity
  8
0
 62
     3
100
AcDbLine
 10
731.5869540142585
 20
190.7432322079759
 30
0.0
 11
731.5869540142585
 21
182.7432322079759
 31
0.0
  0
LINE
  5
14F6
330
1F
100
AcDbEntity
  8
0
 62
     3
100
AcDbLine
 10
731.5869540142585
 20
182.7432322079759
 30
0.0
 11
732.8869540142585
 21
182.7432322079759
 31
0.0
  0
LINE
  5
14F7
330
1F
100
AcDbEntity
  8
0
 62
     3
100
AcDbLine
 10
598.1869540142587
 20
190.7432322079759
 30
0.0
 11
598.1869540142587
 21
182.7432322079759
 31
0.0
  0
LINE
  5
14F8
330
1F
100
AcDbEntity
  8
0
 62
     3
100
AcDbLine
 10
598.1869540142587
 20
182.7432322079759
 30
0.0
 11
596.8869540142586
 21
182.7432322079759
 31
0.0
  0
LINE
  5
1539
330
1F
100
AcDbEntity
  8
0
 62
     3
100
AcDbLine
 10
869.51569176251
 20
20.29299133829011
 30
0.0
 11
869.51569176251
 21
65.9587138682901
 31
0.0
  0
LINE
  5
153A
330
1F
100
AcDbEntity
  8
0
 62
     3
100
AcDbLine
 10
882.5156917625101
 20
29.95871386829009
 30
0.0
 11
882.5156917625101
 21
59.95871386829008
 31
0.0
  0
LINE
  5
153B
330
1F
100
AcDbEntity
  8
0
 62
     3
100
AcDbLine
 10
842.4620823325094
 20
29.95871386829009
 30
0.0
 11
842.4620823325094
 21
43.9587138682901
 31
0.0
  0
LINE
  5
153C
330
1F
100
AcDbEntity
  8
0
 62
     3
100
AcDbLine
 10
852.7940166925102
 20
43.9587138682901
 30
0.0
 11
852.7940166925102
 21
20.29299133829011
 31
0.0
  0
LINE
  5
153D
330
1F
100
AcDbEntity
  8
0
 62
     3
100
AcDbLine
 10
823.1570473825096
 20
59.95871386829008
 30
0.0
 11
823.1570473825096
 21
36.9587138682901
 31
0.0
  0
LINE
  5
153F
330
1F
100
AcDbEntity
  8
0
 62
     3
100
AcDbLine
 10
895.5156917625101
 20
36.9587138682901
 30
0.0
 11
895.5156917625101
 21
65.9587138682901
 31
0.0
  0
LINE
  5
1540
330
1F
100
AcDbEntity
  8
0
 62
     3
100
AcDbLine
 10
921.2150552425097
 20
59.95871386829008
 30
0.0
 11
809.9116127425093
 21
59.95871386829008
 31
0.0
  0
LINE
  5
1541
330
1F
100
AcDbEntity
  8
0
 62
     3
100
AcDbLine
 10
921.2150552425097
 20
65.9587138682901
 30
0.0
 11
869.51569176251
 21
65.9587138682901
 31
0.0
  0
LINE
  5
1542
330
1F
100
AcDbEntity
  8
0
 62
     3
100
AcDbLine
 10
921.2150552425097
 20
50.9587138682901
 30
0.0
 11
809.9116127425093
 21
50.9587138682901
 31
0.0
  0
LINE
  5
1543
330
1F
100
AcDbEntity
  8
0
 62
     3
100
AcDbLine
 10
921.2150552425097
 20
36.9587138682901
 30
0.0
 11
809.9116127425093
 21
36.9587138682901
 31
0.0
  0
LINE
  5
1544
330
1F
100
AcDbEntity
  8
0
 62
     3
100
AcDbLine
 10
921.2150552425097
 20
29.95871386829009
 30
0.0
 11
809.9116127425093
 21
29.95871386829009
 31
0.0
  0
LINE
  5
1545
330
1F
100
AcDbEntity
  8
0
 62
     3
100
AcDbLine
 10
908.5156917625099
 20
36.9587138682901
 30
0.0
 11
908.5156917625099
 21
59.95871386829008
 31
0.0
  0
LINE
  5
1546
330
1F
100
AcDbEntity
  8
0
 62
     3
100
AcDbLine
 10
809.9116127425093
 20
59.95871386829008
 30
0.0
 11
809.9116127425093
 21
20.29299133829011
 31
0.0
  0
LINE
  5
1547
330
1F
100
AcDbEntity
  8
0
 62
     3
100
AcDbLine
 10
869.51569176251
 20
43.9587138682901
 30
0.0
 11
809.9116127425093
 21
43.9587138682901
 31
0.0
  0
LINE
  5
1548
330
1F
100
AcDbEntity
  8
0
 62
     3
100
AcDbLine
 10
852.7940166925102
 20
25.12585259829007
 30
0.0
 11
869.51569176251
 21
25.12585259829007
 31
0.0
  0
TEXT
  5
154A
330
1F
100
AcDbEntity
  8
0
 62
     3
100
AcDbText
 10
850.539835957468
 20
95.19826527215121
 30
0.0
 40
4.738905142645535
  1
表面処理：クロームメッキ
 41
0.8
  7
高2.5
100
AcDbText
  0
TEXT
  5
154C
330
1F
100
AcDbEntity
  8
0
 62
     3
100
AcDbText
 10
824.9769682124599
 20
52.27096339204797
 30
0.0
 40
4.5
  1
エコナイター50W用ガード
 41
0.6
  7
高4.5
100
AcDbText
1001
ACAD
1000
ACAD_MTEXT_DEFINED_HEIGHT_BEGIN
1070
    46
1040
0.0
1000
ACAD_MTEXT_DEFINED_HEIGHT_END
  0
TEXT
  5
154D
330
1F
100
AcDbEntity
  8
0
 62
     3
100
AcDbText
 10
911.2806443359842
 20
56.47240596699369
 30
0.0
 40
2.0
  1
DEF
  7
高2
100
AcDbText
  0
TEXT
  5
154E
330
1F
100
AcDbEntity
  8
0
 62
     3
100
AcDbText
 10
897.6421825022752
 20
56.47240596699363
 30
0.0
 40
2.0
  1
DESN
  7
高2
100
AcDbText
  0
TEXT
  5
154F
330
1F
100
AcDbEntity
  8
0
 62
     3
100
AcDbText
 10
871.3878155622753
 20
56.47240596699369
 30
0.0
 40
2.0
  1
APPD
  7
高2
100
AcDbText
  0
TEXT
  5
1550
330
1F
100
AcDbEntity
  8
0
 62
     3
100
AcDbText
 10
884.5005516625095
 20
56.47240596699369
 30
0.0
 40
2.0
  1
CHCK
  7
高2
100
AcDbText
  0
TEXT
  5
1551
330
1F
100
AcDbEntity
  8
0
 62
     3
100
AcDbText
 10
843.721182331663
 20
34.12711269152078
 30
0.0
 40
2.0
  1
SCALE
 41
0.8
  7
高2
100
AcDbText
  0
TEXT
  5
1552
330
1F
100
AcDbEntity
  8
0
 62
     3
100
AcDbText
 10
822.1083891853906
 20
34.12711269152072
 30
0.0
 40
2.0
  1
ANGLE
 41
1.5
  7
高2
100
AcDbText
  0
TEXT
  5
1553
330
1F
100
AcDbEntity
  8
0
 62
     3
100
AcDbText
 10
811.5961914455557
 20
34.12711269152085
 30
0.0
 40
2.0
  1
3AD
 41
1.5
  7
高2
100
AcDbText
  0
TEXT
  5
1554
330
1F
100
AcDbEntity
  8
0
 62
     3
100
AcDbText
 10
842.9905880225115
 20
40.8786507604779
 30
0.0
 40
2.0
  1
REMARKS
 41
0.7
  7
高2
100
AcDbText
  0
TEXT
  5
1555
330
1F
100
AcDbEntity
  8
0
 62
     3
100
AcDbText
 10
811.3792830925094
 20
40.8786507604779
 30
0.0
 40
2.0
  1
MATERIAL
 41
0.7
  7
高2
100
AcDbText
  0
TEXT
  5
1556
330
1F
100
AcDbEntity
  8
0
 62
     3
100
AcDbText
 10
811.334838982265
 20
48.21445340261925
 30
0.0
 40
2.0
  1
MODEL
  7
高2
100
AcDbText
  0
TEXT
  5
1557
330
1F
100
AcDbEntity
  8
0
 62
     3
100
AcDbText
 10
811.5926911765956
 20
56.6657352188891
 30
0.0
 40
2.0
  1
CONPONENTS
 41
0.5
  7
高2
100
AcDbText
  0
TEXT
  5
1558
330
1F
100
AcDbEntity
  8
0
 62
     3
100
AcDbText
 10
824.6584510277616
 20
45.04619499610202
 30
0.0
 40
4.5
  1
LEN-G-50
  7
高4.5
100
AcDbText
  0
TEXT
  5
1559
330
1F
100
AcDbEntity
  8
0
 62
     3
100
AcDbText
 10
872.5807374931282
 20
22.33145273365569
 30
0.0
 40
6.299999999999998
  1
LEN-G-50
 41
0.7
  7
高6.3
100
AcDbText
1001
ACAD
1000
ACAD_MTEXT_DEFINED_HEIGHT_BEGIN
1070
    46
1040
0.0
1000
ACAD_MTEXT_DEFINED_HEIGHT_END
  0
TEXT
  5
155A
330
1F
100
AcDbEntity
  8
0
 62
     3
100
AcDbText
 10
886.079201512839
 20
31.25960302652311
 30
0.0
 40
3.0
  1
2011.02.24
100
AcDbText
1001
ACAD
1000
ACAD_MTEXT_DEFINED_HEIGHT_BEGIN
1070
    46
1040
0.0
1000
ACAD_MTEXT_DEFINED_HEIGHT_END
  0
TEXT
  5
155B
330
1F
100
AcDbEntity
  8
0
 62
     3
100
AcDbText
 10
856.3032896571559
 20
31.05963087085796
 30
0.0
 40
3.2
  1
1/2
  7
高3.2
100
AcDbText
  0
TEXT
  5
155C
330
1F
100
AcDbEntity
  8
0
 62
     3
100
AcDbText
 10
853.3806186325101
 20
21.10986951142608
 30
0.0
 40
3.2
  1
ZK-A3X
 41
0.8
  7
高3.2
100
AcDbText
  0
TEXT
  5
155D
330
1F
100
AcDbEntity
  8
0
 62
     3
100
AcDbText
 10
811.3792830925094
 20
26.81761176047792
 30
0.0
 40
2.0
  1
NICHIDO IND.CO.LTD
 41
1.3
  7
高2
100
AcDbText
  0
TEXT
  5
155E
330
1F
100
AcDbEntity
  8
0
 62
     3
100
AcDbText
 10
811.923837047467
 20
52.29924207617499
 30
0.0
 40
3.0
  1
品 名
100
AcDbText
1001
ACAD
1000
ACAD_MTEXT_DEFINED_HEIGHT_BEGIN
1070
    46
1040
0.0
1000
ACAD_MTEXT_DEFINED_HEIGHT_END
  0
TEXT
  5
155F
330
1F
100
AcDbEntity
  8
0
 62
     3
100
AcDbText
 10
811.923837047467
 20
44.76877008103271
 30
0.0
 40
3.0
  1
型 式
100
AcDbText
1001
ACAD
1000
ACAD_MTEXT_DEFINED_HEIGHT_BEGIN
1070
    46
1040
3.064735913775952
1000
ACAD_MTEXT_DEFINED_HEIGHT_END
  0
TEXT
  5
1560
330
1F
100
AcDbEntity
  8
0
 62
     3
100
AcDbText
 10
811.923837047467
 20
37.40673045352025
 30
0.0
 40
3.0
  1
材 質
100
AcDbText
1001
ACAD
1000
ACAD_MTEXT_DEFINED_HEIGHT_BEGIN
1070
    46
1040
0.0
1000
ACAD_MTEXT_DEFINED_HEIGHT_END
  0
TEXT
  5
1561
330
1F
100
AcDbEntity
  8
0
 62
     3
100
AcDbText
 10
811.923837047467
 20
30.62615386053631
 30
0.0
 40
3.0
  1
第 三 角 法
100
AcDbText
1001
ACAD
1000
ACAD_MTEXT_DEFINED_HEIGHT_BEGIN
1070
    46
1040
0.0
1000
ACAD_MTEXT_DEFINED_HEIGHT_END
  0
TEXT
  5
1562
330
1F
100
AcDbEntity
  8
0
 62
     3
100
AcDbText
 10
810.6143040149961
 20
21.13351954617502
 30
0.0
 40
3.5
  1
日動工業株式会社
 41
1.199999999999999
100
AcDbText
1001
ACAD
1000
ACAD_MTEXT_DEFINED_HEIGHT_BEGIN
1070
    46
1040
0.0
1000
ACAD_MTEXT_DEFINED_HEIGHT_END
  0
TEXT
  5
1563
330
1F
100
AcDbEntity
  8
0
 62
     3
100
AcDbText
 10
843.249034235184
 20
37.54329240145761
 30
0.0
 40
3.0
  1
備 考
100
AcDbText
1001
ACAD
1000
ACAD_MTEXT_DEFINED_HEIGHT_BEGIN
1070
    46
1040
0.0
1000
ACAD_MTEXT_DEFINED_HEIGHT_END
  0
TEXT
  5
1564
330
1F
100
AcDbEntity
  8
0
 62
     3
100
AcDbText
 10
853.66866073151
 20
26.4392213638604
 30
0.0
 40
2.5
  1
出図コード
100
AcDbText
1001
ACAD
1000
ACAD_MTEXT_DEFINED_HEIGHT_BEGIN
1070
    46
1040
0.0
1000
ACAD_MTEXT_DEFINED_HEIGHT_END
  0
TEXT
  5
1565
330
1F
100
AcDbEntity
  8
0
 62
     3
100
AcDbText
 10
843.0902681170966
 20
30.61194877870298
 30
0.0
 40
3.0
  1
尺 度
100
AcDbText
1001
ACAD
1000
ACAD_MTEXT_DEFINED_HEIGHT_BEGIN
1070
    46
1040
0.0
1000
ACAD_MTEXT_DEFINED_HEIGHT_END
  0
TEXT
  5
1566
330
1F
100
AcDbEntity
  8
0
 62
     3
100
AcDbText
 10
871.007098648166
 20
31.74342722682047
 30
0.0
 40
3.0
  1
作成日
100
AcDbText
1001
ACAD
1000
ACAD_MTEXT_DEFINED_HEIGHT_BEGIN
1070
    46
1040
0.0
1000
ACAD_MTEXT_DEFINED_HEIGHT_END
  0
TEXT
  5
1567
330
1F
100
AcDbEntity
  8
0
 62
     3
100
AcDbText
 10
871.527916067467
 20
52.29924207617499
 30
0.0
 40
3.0
  1
承 認
100
AcDbText
1001
ACAD
1000
ACAD_MTEXT_DEFINED_HEIGHT_BEGIN
1070
    46
1040
0.0
1000
ACAD_MTEXT_DEFINED_HEIGHT_END
  0
TEXT
  5
1568
330
1F
100
AcDbEntity
  8
0
 62
     3
100
AcDbText
 10
884.5279160674673
 20
52.29924207617499
 30
0.0
 40
3.0
  1
検 図
100
AcDbText
1001
ACAD
1000
ACAD_MTEXT_DEFINED_HEIGHT_BEGIN
1070
    46
1040
0.0
1000
ACAD_MTEXT_DEFINED_HEIGHT_END
  0
TEXT
  5
1569
330
1F
100
AcDbEntity
  8
0
 62
     3
100
AcDbText
 10
897.5279160674674
 20
52.29924207617499
 30
0.0
 40
3.0
  1
設 計
100
AcDbText
1001
ACAD
1000
ACAD_MTEXT_DEFINED_HEIGHT_BEGIN
1070
    46
1040
0.0
1000
ACAD_MTEXT_DEFINED_HEIGHT_END
  0
TEXT
  5
156A
330
1F
100
AcDbEntity
  8
0
 62
     3
100
AcDbText
 10
910.5279160674673
 20
52.29924207617499
 30
0.0
 40
3.0
  1
製 図
100
AcDbText
1001
ACAD
1000
ACAD_MTEXT_DEFINED_HEIGHT_BEGIN
1070
    46
1040
0.0
1000
ACAD_MTEXT_DEFINED_HEIGHT_END
  0
TEXT
  5
156B
330
1F
100
AcDbEntity
  8
0
 62
     3
100
AcDbText
 10
850.3849551886442
 20
105.1932003608317
 30
0.0
 40
4.400410631753856
  1
材質：鋼線\U+03C62.6
  7
高2.5
100
AcDbText
  0
TEXT
  5
156C
330
1F
100
AcDbEntity
  8
0
 62
     3
100
AcDbText
 10
875.0282758568793
 20
60.7374098137094
 30
0.0
 40
4.5
  1
コード
  7
高4.5
100
AcDbText
  0
TEXT
  5
156D
330
1F
100
AcDbEntity
  8
0
 62
     3
100
AcDbText
 10
897.6225306079875
 20
60.7374098137094
 30
0.0
 40
4.5
  1
54226
  7
高4.5
100
AcDbText
  0
LINE
  5
180B
330
1F
100
AcDbEntity
  8
0
100
AcDbLine
 10
848.6547258536807
 20
104.0289229225436
 30
0.0
 11
893.0200910908279
 21
104.0289229225436
 31
0.0
  0
LINE
  5
180C
330
1F
100
AcDbEntity
  8
0
100
AcDbLine
 10
848.3147617417216
 20
94.00561604472295
 30
0.0
 11
905.938741753121
 21
94.00561604472295
 31
0.0
  0
TEXT
  5
1D8E
330
1F
100
AcDbEntity
  8
0
 62
     3
100
AcDbText
 10
908.7150552425095
 20
284.7929913382902
 30
0.0
 40
3.2
  1
担　当
  7
高3.2
100
AcDbText
  0
TEXT
  5
1D8F
330
1F
100
AcDbEntity
  8
0
 62
     3
100
AcDbText
 10
864.7150552425095
 20
284.7929913382902
 30
0.0
 40
3.2
  1
変更・追記内容
  7
高3.2
100
AcDbText
  0
TEXT
  5
1D90
330
1F
100
AcDbEntity
  8
0
 62
     3
100
AcDbText
 10
839.8285702428488
 20
280.1224528283819
 30
0.0
 40
2.0
  1
1
  7
高2
100
AcDbText
  0
TEXT
  5
1D91
330
1F
100
AcDbEntity
  8
0
 62
     3
100
AcDbText
 10
839.5200587660914
 20
274.952636116109
 30
0.0
 40
2.0
  1
2
  7
高2
100
AcDbText
  0
TEXT
  5
1D92
330
1F
100
AcDbEntity
  8
0
 62
     3
100
AcDbText
 10
846.7150552425094
 20
284.7929913382902
 30
0.0
 40
3.2
  1
日　付
  7
高3.2
100
AcDbText
  0
TEXT
  5
1D93
330
1F
100
AcDbEntity
  8
0
 62
     3
100
AcDbText
 10
846.7150552425094
 20
289.7929913382902
 30
0.0
 40
3.2
  1
図　　　　面　　　　略　　　　歴
  7
高3.2
100
AcDbText
  0
TEXT
  5
1D94
330
1F
100
AcDbEntity
  8
0
 62
     3
100
AcDbText
 10
836.7150552425094
 20
284.7929913382902
 30
0.0
 40
3.2
  1
記号
  7
高3.2
100
AcDbText
  0
LINE
  5
1D95
330
1F
100
AcDbEntity
  8
0
 62
     7
100
AcDbLine
 10
840.2150552425094
 20
278.0838873382903
 30
0.0
 11
838.3150552425094
 21
274.7929913382902
 31
0.0
  0
LINE
  5
1D96
330
1F
100
AcDbEntity
  8
0
 62
     7
100
AcDbLine
 10
840.2150552425094
 20
278.0838873382903
 30
0.0
 11
842.1150552425094
 21
274.7929913382902
 31
0.0
  0
LINE
  5
1D97
330
1F
100
AcDbEntity
  8
0
 62
     7
100
AcDbLine
 10
838.3150552425094
 20
274.7929913382902
 30
0.0
 11
842.1150552425094
 21
274.7929913382902
 31
0.0
  0
LINE
  5
1D98
330
1F
100
AcDbEntity
  8
0
 62
     7
100
AcDbLine
 10
840.2150552425094
 20
283.0838883382902
 30
0.0
 11
838.3150552425094
 21
279.7929913382902
 31
0.0
  0
LINE
  5
1D99
330
1F
100
AcDbEntity
  8
0
 62
     7
100
AcDbLine
 10
840.2150552425094
 20
283.0838883382902
 30
0.0
 11
842.1150552425094
 21
279.7929913382902
 31
0.0
  0
LINE
  5
1D9A
330
1F
100
AcDbEntity
  8
0
 62
     7
100
AcDbLine
 10
838.3150552425094
 20
279.7929913382902
 30
0.0
 11
842.1150552425094
 21
279.7929913382902
 31
0.0
  0
LINE
  5
1D9B
330
1F
100
AcDbEntity
  8
0
 62
     3
100
AcDbLine
 10
835.2150552425095
 20
289.2929913382902
 30
0.0
 11
921.2150552425095
 21
289.2929913382902
 31
0.0
  0
LINE
  5
1D9C
330
1F
100
AcDbEntity
  8
0
 62
     3
100
AcDbLine
 10
835.2150552425095
 20
284.2929913382901
 30
0.0
 11
921.2150552425095
 21
284.2929913382901
 31
0.0
  0
LINE
  5
1D9D
330
1F
100
AcDbEntity
  8
0
 62
     7
100
AcDbLine
 10
835.2150552425095
 20
279.2929913382902
 30
0.0
 11
921.2150552425095
 21
279.2929913382902
 31
0.0
  0
LINE
  5
1D9E
330
1F
100
AcDbEntity
  8
0
 62
     3
100
AcDbLine
 10
835.2150552425095
 20
274.2929913382901
 30
0.0
 11
921.2150552425095
 21
274.2929913382901
 31
0.0
  0
LINE
  5
1D9F
330
1F
100
AcDbEntity
  8
0
 62
     7
100
AcDbLine
 10
907.2150552425094
 20
274.2929913382901
 30
0.0
 11
907.2150552425094
 21
289.2929913382902
 31
0.0
  0
LINE
  5
1DA0
330
1F
100
AcDbEntity
  8
0
 62
     7
100
AcDbLine
 10
863.2150552425095
 20
274.2929913382901
 30
0.0
 11
863.2150552425095
 21
289.2929913382902
 31
0.0
  0
LINE
  5
1DA1
330
1F
100
AcDbEntity
  8
0
 62
     7
100
AcDbLine
 10
845.2150552425095
 20
274.2929913382901
 30
0.0
 11
845.2150552425095
 21
289.2929913382902
 31
0.0
  0
LINE
  5
1DA2
330
1F
100
AcDbEntity
  8
0
 62
     3
100
AcDbLine
 10
835.2150552425095
 20
274.2929913382901
 30
0.0
 11
835.2150552425095
 21
294.2929913382902
 31
0.0
  0
LINE
  5
1EDE
330
1F
100
AcDbEntity
  8
0
100
AcDbLine
 10
598.1369540142586
 20
86.4817098390608
 30
0.0
 11
570.4654862755746
 21
86.4817098390608
 31
0.0
  0
LINE
  5
1EDF
330
1F
100
AcDbEntity
  8
0
100
AcDbLine
 10
598.1369540142586
 20
200.0817098390608
 30
0.0
 11
570.4654862755746
 21
200.0817098390609
 31
0.0
  0
LINE
  5
1EE0
330
1F
100
AcDbEntity
  8
0
100
AcDbLine
 10
571.7154862755746
 20
88.9817098390608
 30
0.0
 11
571.7154862755746
 21
197.5817098390608
 31
0.0
  0
LINE
  5
1EE4
330
1F
100
AcDbEntity
  8
0
100
AcDbLine
 10
776.1086341061377
 20
196.6052448320615
 30
0.0
 11
773.9814940337237
 21
195.2917475491065
 31
0.0
  0
LINE
  5
1EE5
330
1F
100
AcDbEntity
  8
0
100
AcDbLine
 10
785.468050424761
 20
202.3846328770641
 30
0.0
 11
813.3555501514528
 21
219.6050104132954
 31
0.0
  0
LINE
  5
1EE6
330
1F
100
AcDbEntity
  8
0
100
AcDbLine
 10
778.235774178552
 20
197.9187421150164
 30
0.0
 11
783.340910352347
 21
201.0711355941091
 31
0.0
  0
LINE
  5
1EEA
330
1F
100
AcDbEntity
  8
0
 62
     3
100
AcDbLine
 10
825.5321800791625
 20
117.1317098390607
 30
0.0
 11
825.4971936349766
 21
117.3804540700981
 31
0.0
  0
LINE
  5
1EEB
330
1F
100
AcDbEntity
  8
0
 62
     3
100
AcDbLine
 10
825.4971936349766
 20
117.3804540700981
 30
0.0
 11
825.397560671392
 21
117.591329246832
 31
0.0
  0
LINE
  5
1EEC
330
1F
100
AcDbEntity
  8
0
 62
     3
100
AcDbLine
 10
825.397560671392
 20
117.591329246832
 30
0.0
 11
825.24844940394
 21
117.7322315351931
 31
0.0
  0
LINE
  5
1EED
330
1F
100
AcDbEntity
  8
0
 62
     3
100
AcDbLine
 10
825.24844940394
 20
117.7322315351931
 30
0.0
 11
825.0725606713913
 21
117.7817098390608
 31
0.0
  0
LINE
  5
1EEE
330
1F
100
AcDbEntity
  8
0
 62
     3
100
AcDbLine
 10
825.0725606713913
 20
117.7817098390608
 30
0.0
 11
824.8966719388445
 21
117.7322315351931
 31
0.0
  0
LINE
  5
1EEF
330
1F
100
AcDbEntity
  8
0
 62
     3
100
AcDbLine
 10
824.8966719388445
 20
117.7322315351931
 30
0.0
 11
824.7475606713924
 21
117.591329246832
 31
0.0
  0
LINE
  5
1EF0
330
1F
100
AcDbEntity
  8
0
 62
     3
100
AcDbLine
 10
824.7475606713924
 20
117.591329246832
 30
0.0
 11
824.6479277078067
 21
117.3804540700981
 31
0.0
  0
LINE
  5
1EF1
330
1F
100
AcDbEntity
  8
0
 62
     3
100
AcDbLine
 10
824.6479277078067
 20
117.3804540700981
 30
0.0
 11
824.61294126362
 21
117.1317098390607
 31
0.0
  0
LINE
  5
1EF2
330
1F
100
AcDbEntity
  8
0
 62
     3
100
AcDbLine
 10
824.61294126362
 20
117.1317098390607
 30
0.0
 11
824.6479277078067
 21
116.8829656080235
 31
0.0
  0
LINE
  5
1EF3
330
1F
100
AcDbEntity
  8
0
 62
     3
100
AcDbLine
 10
824.6479277078067
 20
116.8829656080235
 30
0.0
 11
824.7475606713924
 21
116.6720904312895
 31
0.0
  0
LINE
  5
1EF4
330
1F
100
AcDbEntity
  8
0
 62
     3
100
AcDbLine
 10
824.7475606713924
 20
116.6720904312895
 30
0.0
 11
824.8966719388445
 21
116.5311881429284
 31
0.0
  0
LINE
  5
1EF5
330
1F
100
AcDbEntity
  8
0
 62
     3
100
AcDbLine
 10
824.8966719388445
 20
116.5311881429284
 30
0.0
 11
825.0725606713913
 21
116.4817098390608
 31
0.0
  0
LINE
  5
1EF6
330
1F
100
AcDbEntity
  8
0
 62
     3
100
AcDbLine
 10
825.0725606713913
 20
116.4817098390608
 30
0.0
 11
825.24844940394
 21
116.5311881429284
 31
0.0
  0
LINE
  5
1EF7
330
1F
100
AcDbEntity
  8
0
 62
     3
100
AcDbLine
 10
825.24844940394
 20
116.5311881429284
 30
0.0
 11
825.397560671392
 21
116.6720904312896
 31
0.0
  0
LINE
  5
1EF8
330
1F
100
AcDbEntity
  8
0
 62
     3
100
AcDbLine
 10
825.397560671392
 20
116.6720904312896
 30
0.0
 11
825.4971936349766
 21
116.8829656080235
 31
0.0
  0
LINE
  5
1EF9
330
1F
100
AcDbEntity
  8
0
 62
     3
100
AcDbLine
 10
825.4971936349766
 20
116.8829656080235
 30
0.0
 11
825.5321800791625
 21
117.1317098390607
 31
0.0
  0
LINE
  5
1EFA
330
1F
100
AcDbEntity
  8
0
 62
     3
100
AcDbLine
 10
825.5321800791625
 20
169.4317098390607
 30
0.0
 11
825.4971936349766
 21
169.6804540700981
 31
0.0
  0
LINE
  5
1EFB
330
1F
100
AcDbEntity
  8
0
 62
     3
100
AcDbLine
 10
825.4971936349766
 20
169.6804540700981
 30
0.0
 11
825.397560671392
 21
169.891329246832
 31
0.0
  0
LINE
  5
1EFC
330
1F
100
AcDbEntity
  8
0
 62
     3
100
AcDbLine
 10
825.397560671392
 20
169.891329246832
 30
0.0
 11
825.24844940394
 21
170.0322315351931
 31
0.0
  0
LINE
  5
1EFD
330
1F
100
AcDbEntity
  8
0
 62
     3
100
AcDbLine
 10
825.24844940394
 20
170.0322315351931
 30
0.0
 11
825.0725606713913
 21
170.0817098390607
 31
0.0
  0
LINE
  5
1EFE
330
1F
100
AcDbEntity
  8
0
 62
     3
100
AcDbLine
 10
825.0725606713913
 20
170.0817098390607
 30
0.0
 11
824.8966719388445
 21
170.0322315351931
 31
0.0
  0
LINE
  5
1EFF
330
1F
100
AcDbEntity
  8
0
 62
     3
100
AcDbLine
 10
824.8966719388445
 20
170.0322315351931
 30
0.0
 11
824.7475606713924
 21
169.891329246832
 31
0.0
  0
LINE
  5
1F00
330
1F
100
AcDbEntity
  8
0
 62
     3
100
AcDbLine
 10
824.7475606713924
 20
169.891329246832
 30
0.0
 11
824.6479277078067
 21
169.6804540700981
 31
0.0
  0
LINE
  5
1F01
330
1F
100
AcDbEntity
  8
0
 62
     3
100
AcDbLine
 10
824.6479277078067
 20
169.6804540700981
 30
0.0
 11
824.61294126362
 21
169.4317098390607
 31
0.0
  0
LINE
  5
1F02
330
1F
100
AcDbEntity
  8
0
 62
     3
100
AcDbLine
 10
824.61294126362
 20
169.4317098390607
 30
0.0
 11
824.6479277078067
 21
169.1829656080234
 31
0.0
  0
LINE
  5
1F03
330
1F
100
AcDbEntity
  8
0
 62
     3
100
AcDbLine
 10
824.6479277078067
 20
169.1829656080234
 30
0.0
 11
824.7475606713924
 21
168.9720904312895
 31
0.0
  0
LINE
  5
1F04
330
1F
100
AcDbEntity
  8
0
 62
     3
100
AcDbLine
 10
824.7475606713924
 20
168.9720904312895
 30
0.0
 11
824.8966719388445
 21
168.8311881429284
 31
0.0
  0
LINE
  5
1F05
330
1F
100
AcDbEntity
  8
0
 62
     3
100
AcDbLine
 10
824.8966719388445
 20
168.8311881429284
 30
0.0
 11
825.0725606713913
 21
168.7817098390608
 31
0.0
  0
LINE
  5
1F06
330
1F
100
AcDbEntity
  8
0
 62
     3
100
AcDbLine
 10
825.0725606713913
 20
168.7817098390608
 30
0.0
 11
825.24844940394
 21
168.8311881429284
 31
0.0
  0
LINE
  5
1F07
330
1F
100
AcDbEntity
  8
0
 62
     3
100
AcDbLine
 10
825.24844940394
 20
168.8311881429284
 30
0.0
 11
825.397560671392
 21
168.9720904312895
 31
0.0
  0
LINE
  5
1F08
330
1F
100
AcDbEntity
  8
0
 62
     3
100
AcDbLine
 10
825.397560671392
 20
168.9720904312895
 30
0.0
 11
825.4971936349766
 21
169.1829656080234
 31
0.0
  0
LINE
  5
1F09
330
1F
100
AcDbEntity
  8
0
 62
     3
100
AcDbLine
 10
825.4971936349766
 20
169.1829656080234
 30
0.0
 11
825.5321800791625
 21
169.4317098390607
 31
0.0
  0
LINE
  5
1F0A
330
1F
100
AcDbEntity
  8
0
 62
     3
100
AcDbLine
 10
642.3869540142577
 20
259.1357975160418
 30
0.0
 11
642.6356982452952
 21
259.1707839602282
 31
0.0
  0
LINE
  5
1F0B
330
1F
100
AcDbEntity
  8
0
 62
     3
100
AcDbLine
 10
642.6356982452952
 20
259.1707839602282
 30
0.0
 11
642.8465734220289
 21
259.270416923813
 31
0.0
  0
LINE
  5
1F0C
330
1F
100
AcDbEntity
  8
0
 62
     3
100
AcDbLine
 10
642.8465734220289
 20
259.270416923813
 30
0.0
 11
642.9874757103907
 21
259.4195281912655
 31
0.0
  0
LINE
  5
1F0D
330
1F
100
AcDbEntity
  8
0
 62
     3
100
AcDbLine
 10
642.9874757103907
 20
259.4195281912655
 30
0.0
 11
643.0369540142574
 21
259.5954169238131
 31
0.0
  0
LINE
  5
1F0E
330
1F
100
AcDbEntity
  8
0
 62
     3
100
AcDbLine
 10
643.0369540142574
 20
259.5954169238131
 30
0.0
 11
642.9874757103907
 21
259.7713056563606
 31
0.0
  0
LINE
  5
1F0F
330
1F
100
AcDbEntity
  8
0
 62
     3
100
AcDbLine
 10
642.9874757103907
 20
259.7713056563606
 30
0.0
 11
642.8465734220289
 21
259.920416923813
 31
0.0
  0
LINE
  5
1F10
330
1F
100
AcDbEntity
  8
0
 62
     3
100
AcDbLine
 10
642.8465734220289
 20
259.920416923813
 30
0.0
 11
642.6356982452952
 21
260.0200498873979
 31
0.0
  0
LINE
  5
1F11
330
1F
100
AcDbEntity
  8
0
 62
     3
100
AcDbLine
 10
642.6356982452952
 20
260.0200498873979
 30
0.0
 11
642.3869540142577
 21
260.0550363315843
 31
0.0
  0
LINE
  5
1F12
330
1F
100
AcDbEntity
  8
0
 62
     3
100
AcDbLine
 10
642.3869540142577
 20
260.0550363315843
 30
0.0
 11
642.1382097832202
 21
260.0200498873979
 31
0.0
  0
LINE
  5
1F13
330
1F
100
AcDbEntity
  8
0
 62
     3
100
AcDbLine
 10
642.1382097832202
 20
260.0200498873979
 30
0.0
 11
641.9273346064865
 21
259.920416923813
 31
0.0
  0
LINE
  5
1F14
330
1F
100
AcDbEntity
  8
0
 62
     3
100
AcDbLine
 10
641.9273346064865
 20
259.920416923813
 30
0.0
 11
641.7864323181247
 21
259.7713056563606
 31
0.0
  0
LINE
  5
1F15
330
1F
100
AcDbEntity
  8
0
 62
     3
100
AcDbLine
 10
641.7864323181247
 20
259.7713056563606
 30
0.0
 11
641.7369540142581
 21
259.595416923813
 31
0.0
  0
LINE
  5
1F16
330
1F
100
AcDbEntity
  8
0
 62
     3
100
AcDbLine
 10
641.7369540142581
 20
259.595416923813
 30
0.0
 11
641.7864323181247
 21
259.4195281912655
 31
0.0
  0
LINE
  5
1F17
330
1F
100
AcDbEntity
  8
0
 62
     3
100
AcDbLine
 10
641.7864323181247
 20
259.4195281912655
 30
0.0
 11
641.9273346064865
 21
259.270416923813
 31
0.0
  0
LINE
  5
1F18
330
1F
100
AcDbEntity
  8
0
 62
     3
100
AcDbLine
 10
641.9273346064865
 20
259.270416923813
 30
0.0
 11
642.1382097832202
 21
259.1707839602282
 31
0.0
  0
LINE
  5
1F19
330
1F
100
AcDbEntity
  8
0
 62
     3
100
AcDbLine
 10
642.1382097832202
 20
259.1707839602282
 30
0.0
 11
642.3869540142577
 21
259.1357975160418
 31
0.0
  0
LINE
  5
1F1A
330
1F
100
AcDbEntity
  8
0
 62
     3
100
AcDbLine
 10
687.3869540142578
 20
259.1357975160418
 30
0.0
 11
687.6356982452952
 21
259.1707839602282
 31
0.0
  0
LINE
  5
1F1B
330
1F
100
AcDbEntity
  8
0
 62
     3
100
AcDbLine
 10
687.6356982452952
 20
259.1707839602282
 30
0.0
 11
687.846573422029
 21
259.270416923813
 31
0.0
  0
LINE
  5
1F1C
330
1F
100
AcDbEntity
  8
0
 62
     3
100
AcDbLine
 10
687.846573422029
 20
259.270416923813
 30
0.0
 11
687.9874757103907
 21
259.4195281912655
 31
0.0
  0
LINE
  5
1F1D
330
1F
100
AcDbEntity
  8
0
 62
     3
100
AcDbLine
 10
687.9874757103907
 20
259.4195281912655
 30
0.0
 11
688.0369540142591
 21
259.5954169238131
 31
0.0
  0
LINE
  5
1F1E
330
1F
100
AcDbEntity
  8
0
 62
     3
100
AcDbLine
 10
688.0369540142591
 20
259.5954169238131
 30
0.0
 11
687.9874757103907
 21
259.7713056563606
 31
0.0
  0
LINE
  5
1F1F
330
1F
100
AcDbEntity
  8
0
 62
     3
100
AcDbLine
 10
687.9874757103907
 20
259.7713056563606
 30
0.0
 11
687.846573422029
 21
259.920416923813
 31
0.0
  0
LINE
  5
1F20
330
1F
100
AcDbEntity
  8
0
 62
     3
100
AcDbLine
 10
687.846573422029
 20
259.920416923813
 30
0.0
 11
687.6356982452952
 21
260.0200498873979
 31
0.0
  0
LINE
  5
1F21
330
1F
100
AcDbEntity
  8
0
 62
     3
100
AcDbLine
 10
687.6356982452952
 20
260.0200498873979
 30
0.0
 11
687.3869540142578
 21
260.0550363315843
 31
0.0
  0
LINE
  5
1F22
330
1F
100
AcDbEntity
  8
0
 62
     3
100
AcDbLine
 10
687.3869540142578
 20
260.0550363315843
 30
0.0
 11
687.1382097832211
 21
260.0200498873979
 31
0.0
  0
LINE
  5
1F23
330
1F
100
AcDbEntity
  8
0
 62
     3
100
AcDbLine
 10
687.1382097832211
 20
260.0200498873979
 30
0.0
 11
686.9273346064865
 21
259.920416923813
 31
0.0
  0
LINE
  5
1F24
330
1F
100
AcDbEntity
  8
0
 62
     3
100
AcDbLine
 10
686.9273346064865
 20
259.920416923813
 30
0.0
 11
686.7864323181265
 21
259.7713056563606
 31
0.0
  0
LINE
  5
1F25
330
1F
100
AcDbEntity
  8
0
 62
     3
100
AcDbLine
 10
686.7864323181265
 20
259.7713056563606
 30
0.0
 11
686.7369540142581
 21
259.595416923813
 31
0.0
  0
LINE
  5
1F26
330
1F
100
AcDbEntity
  8
0
 62
     3
100
AcDbLine
 10
686.7369540142581
 20
259.595416923813
 30
0.0
 11
686.7864323181265
 21
259.4195281912655
 31
0.0
  0
LINE
  5
1F27
330
1F
100
AcDbEntity
  8
0
 62
     3
100
AcDbLine
 10
686.7864323181265
 20
259.4195281912655
 30
0.0
 11
686.9273346064865
 21
259.270416923813
 31
0.0
  0
LINE
  5
1F28
330
1F
100
AcDbEntity
  8
0
 62
     3
100
AcDbLine
 10
686.9273346064865
 20
259.270416923813
 30
0.0
 11
687.1382097832211
 21
259.1707839602282
 31
0.0
  0
LINE
  5
1F29
330
1F
100
AcDbEntity
  8
0
 62
     3
100
AcDbLine
 10
687.1382097832211
 20
259.1707839602282
 30
0.0
 11
687.3869540142578
 21
259.1357975160418
 31
0.0
  0
LINE
  5
1F2A
330
1F
100
AcDbEntity
  8
0
 62
     3
100
AcDbLine
 10
734.9105135322989
 20
117.7817098390608
 30
0.0
 11
735.0864022648456
 21
117.7322315351931
 31
0.0
  0
LINE
  5
1F2B
330
1F
100
AcDbEntity
  8
0
 62
     3
100
AcDbLine
 10
735.0864022648456
 20
117.7322315351931
 30
0.0
 11
735.2355135322985
 21
117.591329246832
 31
0.0
  0
LINE
  5
1F2C
330
1F
100
AcDbEntity
  8
0
 62
     3
100
AcDbLine
 10
735.2355135322985
 20
117.591329246832
 30
0.0
 11
735.3351464958831
 21
117.3804540700981
 31
0.0
  0
LINE
  5
1F2D
330
1F
100
AcDbEntity
  8
0
 62
     3
100
AcDbLine
 10
735.3351464958831
 20
117.3804540700981
 30
0.0
 11
735.3701329400702
 21
117.1317098390607
 31
0.0
  0
LINE
  5
1F2E
330
1F
100
AcDbEntity
  8
0
 62
     3
100
AcDbLine
 10
735.3701329400702
 20
117.1317098390607
 30
0.0
 11
735.3351464958831
 21
116.8829656080235
 31
0.0
  0
LINE
  5
1F2F
330
1F
100
AcDbEntity
  8
0
 62
     3
100
AcDbLine
 10
735.3351464958831
 20
116.8829656080235
 30
0.0
 11
735.2355135322985
 21
116.6720904312895
 31
0.0
  0
LINE
  5
1F30
330
1F
100
AcDbEntity
  8
0
 62
     3
100
AcDbLine
 10
735.2355135322985
 20
116.6720904312895
 30
0.0
 11
735.0864022648456
 21
116.5311881429284
 31
0.0
  0
LINE
  5
1F31
330
1F
100
AcDbEntity
  8
0
 62
     3
100
AcDbLine
 10
735.0864022648456
 20
116.5311881429284
 30
0.0
 11
734.9105135322989
 21
116.4817098390608
 31
0.0
  0
LINE
  5
1F32
330
1F
100
AcDbEntity
  8
0
 62
     3
100
AcDbLine
 10
734.9105135322989
 20
116.4817098390608
 30
0.0
 11
734.9105135322989
 21
116.4817098390608
 31
0.0
  0
LINE
  5
1F33
330
1F
100
AcDbEntity
  8
0
 62
     3
100
AcDbLine
 10
594.8633944962192
 20
117.7817098390608
 30
0.0
 11
594.6875057636716
 21
117.7322315351931
 31
0.0
  0
LINE
  5
1F34
330
1F
100
AcDbEntity
  8
0
 62
     3
100
AcDbLine
 10
594.6875057636716
 20
117.7322315351931
 30
0.0
 11
594.5383944962194
 21
117.591329246832
 31
0.0
  0
LINE
  5
1F35
330
1F
100
AcDbEntity
  8
0
 62
     3
100
AcDbLine
 10
594.5383944962194
 20
117.591329246832
 30
0.0
 11
594.4387615326339
 21
117.3804540700981
 31
0.0
  0
LINE
  5
1F36
330
1F
100
AcDbEntity
  8
0
 62
     3
100
AcDbLine
 10
594.4387615326339
 20
117.3804540700981
 30
0.0
 11
594.4037750884481
 21
117.1317098390607
 31
0.0
  0
LINE
  5
1F37
330
1F
100
AcDbEntity
  8
0
 62
     3
100
AcDbLine
 10
594.4037750884481
 20
117.1317098390607
 30
0.0
 11
594.4387615326339
 21
116.8829656080235
 31
0.0
  0
LINE
  5
1F38
330
1F
100
AcDbEntity
  8
0
 62
     3
100
AcDbLine
 10
594.4387615326339
 20
116.8829656080235
 30
0.0
 11
594.5383944962194
 21
116.6720904312895
 31
0.0
  0
LINE
  5
1F39
330
1F
100
AcDbEntity
  8
0
 62
     3
100
AcDbLine
 10
594.5383944962194
 20
116.6720904312895
 30
0.0
 11
594.6875057636716
 21
116.5311881429284
 31
0.0
  0
LINE
  5
1F3A
330
1F
100
AcDbEntity
  8
0
 62
     3
100
AcDbLine
 10
594.6875057636716
 20
116.5311881429284
 30
0.0
 11
594.8633944962192
 21
116.4817098390608
 31
0.0
  0
LINE
  5
1F3B
330
1F
100
AcDbEntity
  8
0
 62
     3
100
AcDbLine
 10
594.8633944962192
 20
116.4817098390608
 30
0.0
 11
594.8633944962192
 21
116.4817098390608
 31
0.0
  0
LINE
  5
1F3C
330
1F
100
AcDbEntity
  8
0
 62
     3
100
AcDbLine
 10
594.8633944962192
 20
170.0817098390607
 30
0.0
 11
594.6875057636716
 21
170.0322315351931
 31
0.0
  0
LINE
  5
1F3D
330
1F
100
AcDbEntity
  8
0
 62
     3
100
AcDbLine
 10
594.6875057636716
 20
170.0322315351931
 30
0.0
 11
594.5383944962194
 21
169.891329246832
 31
0.0
  0
LINE
  5
1F3E
330
1F
100
AcDbEntity
  8
0
 62
     3
100
AcDbLine
 10
594.5383944962194
 20
169.891329246832
 30
0.0
 11
594.4387615326339
 21
169.6804540700981
 31
0.0
  0
LINE
  5
1F3F
330
1F
100
AcDbEntity
  8
0
 62
     3
100
AcDbLine
 10
594.4387615326339
 20
169.6804540700981
 30
0.0
 11
594.4037750884481
 21
169.4317098390607
 31
0.0
  0
LINE
  5
1F40
330
1F
100
AcDbEntity
  8
0
 62
     3
100
AcDbLine
 10
594.4037750884481
 20
169.4317098390607
 30
0.0
 11
594.4387615326339
 21
169.1829656080234
 31
0.0
  0
LINE
  5
1F41
330
1F
100
AcDbEntity
  8
0
 62
     3
100
AcDbLine
 10
594.4387615326339
 20
169.1829656080234
 30
0.0
 11
594.5383944962194
 21
168.9720904312895
 31
0.0
  0
LINE
  5
1F42
330
1F
100
AcDbEntity
  8
0
 62
     3
100
AcDbLine
 10
594.5383944962194
 20
168.9720904312895
 30
0.0
 11
594.6875057636716
 21
168.8311881429284
 31
0.0
  0
LINE
  5
1F43
330
1F
100
AcDbEntity
  8
0
 62
     3
100
AcDbLine
 10
594.6875057636716
 20
168.8311881429284
 30
0.0
 11
594.8633944962192
 21
168.7817098390608
 31
0.0
  0
LINE
  5
1F44
330
1F
100
AcDbEntity
  8
0
 62
     3
100
AcDbLine
 10
594.8633944962192
 20
168.7817098390608
 30
0.0
 11
594.8633944962192
 21
168.7817098390608
 31
0.0
  0
LINE
  5
1F45
330
1F
100
AcDbEntity
  8
0
 62
     3
100
AcDbLine
 10
734.9105135322989
 20
170.0817098390607
 30
0.0
 11
735.0864022648456
 21
170.0322315351931
 31
0.0
  0
LINE
  5
1F46
330
1F
100
AcDbEntity
  8
0
 62
     3
100
AcDbLine
 10
735.0864022648456
 20
170.0322315351931
 30
0.0
 11
735.2355135322985
 21
169.891329246832
 31
0.0
  0
LINE
  5
1F47
330
1F
100
AcDbEntity
  8
0
 62
     3
100
AcDbLine
 10
735.2355135322985
 20
169.891329246832
 30
0.0
 11
735.3351464958831
 21
169.6804540700981
 31
0.0
  0
LINE
  5
1F48
330
1F
100
AcDbEntity
  8
0
 62
     3
100
AcDbLine
 10
735.3351464958831
 20
169.6804540700981
 30
0.0
 11
735.3701329400702
 21
169.4317098390607
 31
0.0
  0
LINE
  5
1F49
330
1F
100
AcDbEntity
  8
0
 62
     3
100
AcDbLine
 10
735.3701329400702
 20
169.4317098390607
 30
0.0
 11
735.3351464958831
 21
169.1829656080234
 31
0.0
  0
LINE
  5
1F4A
330
1F
100
AcDbEntity
  8
0
 62
     3
100
AcDbLine
 10
735.3351464958831
 20
169.1829656080234
 30
0.0
 11
735.2355135322985
 21
168.9720904312895
 31
0.0
  0
LINE
  5
1F4B
330
1F
100
AcDbEntity
  8
0
 62
     3
100
AcDbLine
 10
735.2355135322985
 20
168.9720904312895
 30
0.0
 11
735.0864022648456
 21
168.8311881429284
 31
0.0
  0
LINE
  5
1F4C
330
1F
100
AcDbEntity
  8
0
 62
     3
100
AcDbLine
 10
735.0864022648456
 20
168.8311881429284
 30
0.0
 11
734.9105135322989
 21
168.7817098390608
 31
0.0
  0
LINE
  5
1F4D
330
1F
100
AcDbEntity
  8
0
 62
     3
100
AcDbLine
 10
734.9105135322989
 20
168.7817098390608
 30
0.0
 11
734.9105135322989
 21
168.7817098390608
 31
0.0
  0
LINE
  5
1F4E
330
1F
100
AcDbEntity
  8
0
100
AcDbLine
 10
818.6890011533524
 20
192.9974710235183
 30
0.0
 11
818.6890011533524
 21
208.4217649359431
 31
0.0
  0
LINE
  5
1F4F
330
1F
100
AcDbEntity
  8
0
100
AcDbLine
 10
826.189001153352
 20
199.6817098390608
 30
0.0
 11
826.189001153352
 21
208.4217649359431
 31
0.0
  0
LINE
  5
1F50
330
1F
100
AcDbEntity
  8
0
100
AcDbLine
 10
821.1890011533522
 20
207.1717649359431
 30
0.0
 11
823.6890011533519
 21
207.1717649359431
 31
0.0
  0
LINE
  5
1F54
330
1F
100
AcDbEntity
  8
0
100
AcDbLine
 10
735.3701329400702
 20
258.7715839536688
 30
0.0
 11
735.3701329400702
 21
232.4904231272846
 31
0.0
  0
LINE
  5
1F55
330
1F
100
AcDbEntity
  8
0
100
AcDbLine
 10
594.4037750884481
 20
258.7715839536688
 30
0.0
 11
594.4037750884481
 21
232.4904231272846
 31
0.0
  0
LINE
  5
1F56
330
1F
100
AcDbEntity
  8
0
100
AcDbLine
 10
732.8701329400701
 20
233.7404231272846
 30
0.0
 11
596.903775088448
 21
233.7404231272846
 31
0.0
  0
LINE
  5
1F5A
330
1F
100
AcDbEntity
  8
0
100
AcDbLine
 10
730.4577151987158
 20
254.3976438434004
 30
0.0
 11
747.5353976084268
 21
254.3976438434004
 31
0.0
  0
LINE
  5
1F5B
330
1F
100
AcDbEntity
  8
0
100
AcDbLine
 10
733.7869540142583
 20
260.5976438434003
 30
0.0
 11
747.5353976084269
 21
260.5976438434003
 31
0.0
  0
LINE
  5
1F5C
330
1F
100
AcDbEntity
  8
0
100
AcDbLine
 10
746.2853976084269
 20
263.0976438434003
 30
0.0
 11
746.2853976084269
 21
265.5976438434003
 31
0.0
  0
LINE
  5
1F5D
330
1F
100
AcDbEntity
  8
0
100
AcDbLine
 10
746.2853976084268
 20
251.8976438434004
 30
0.0
 11
746.2853976084268
 21
240.1476438434003
 31
0.0
  0
LINE
  5
1F5E
330
1F
100
AcDbEntity
  8
0
100
AcDbLine
 10
746.2853976084269
 20
260.5976438434003
 30
0.0
 11
746.2853976084268
 21
254.3976438434004
 31
0.0
  0
LINE
  5
1F62
330
1F
100
AcDbEntity
  8
0
100
AcDbLine
 10
734.1869540142597
 20
197.5317098390608
 30
0.0
 11
734.1869540142597
 21
223.4084117058087
 31
0.0
  0
LINE
  5
1F63
330
1F
100
AcDbEntity
  8
0
100
AcDbLine
 10
595.5869540142592
 20
197.5317098390608
 30
0.0
 11
595.5869540142592
 21
223.4084117058087
 31
0.0
  0
LINE
  5
1F64
330
1F
100
AcDbEntity
  8
0
100
AcDbLine
 10
731.6869540142597
 20
222.1584117058087
 30
0.0
 11
598.0869540142593
 21
222.1584117058087
 31
0.0
  0
LINE
  5
1F68
330
1F
100
AcDbEntity
  8
0
100
AcDbLine
 10
782.4813655212656
 20
193.9069924090408
 30
0.0
 11
782.4813655212656
 21
191.0002265965865
 31
0.0
  0
LINE
  5
1F69
330
1F
100
AcDbEntity
  8
0
100
AcDbLine
 10
783.7883422654503
 20
194.1695078383829
 30
0.0
 11
783.7883422654503
 21
191.0002265965865
 31
0.0
  0
LINE
  5
1F6A
330
1F
100
AcDbEntity
  8
0
100
AcDbLine
 10
779.9813655212656
 20
192.2502265965865
 30
0.0
 11
777.4813655212656
 21
192.2502265965865
 31
0.0
  0
LINE
  5
1F6B
330
1F
100
AcDbEntity
  8
0
100
AcDbLine
 10
786.2883422654503
 20
192.2502265965865
 30
0.0
 11
809.512468281685
 21
192.2502265965865
 31
0.0
  0
LINE
  5
1F6C
330
1F
100
AcDbEntity
  8
0
100
AcDbLine
 10
782.4813655212656
 20
192.2502265965865
 30
0.0
 11
783.7883422654503
 21
192.2502265965865
 31
0.0
  0
LINE
  5
1F70
330
1F
100
AcDbEntity
  8
0
100
AcDbLine
 10
735.1605135322988
 20
116.4817098390608
 30
0.0
 11
747.7320707052638
 21
116.4817098390608
 31
0.0
  0
LINE
  5
1F71
330
1F
100
AcDbEntity
  8
0
100
AcDbLine
 10
731.6369540142588
 20
89.28170983906083
 30
0.0
 11
747.7320707052638
 21
89.28170983906081
 31
0.0
  0
LINE
  5
1F72
330
1F
100
AcDbEntity
  8
0
100
AcDbLine
 10
746.4820707052638
 20
113.9817098390608
 30
0.0
 11
746.4820707052638
 21
91.78170983906081
 31
0.0
  0
LINE
  5
1F76
330
1F
100
AcDbEntity
  8
0
100
AcDbLine
 10
736.6369540142585
 20
197.2817098390608
 30
0.0
 11
749.2833076515379
 21
197.2817098390608
 31
0.0
  0
LINE
  5
1F77
330
1F
100
AcDbEntity
  8
0
100
AcDbLine
 10
735.1605135322988
 20
170.0817098390607
 30
0.0
 11
749.2833076515379
 21
170.0817098390607
 31
0.0
  0
LINE
  5
1F78
330
1F
100
AcDbEntity
  8
0
100
AcDbLine
 10
748.0333076515379
 20
194.7817098390608
 30
0.0
 11
748.0333076515379
 21
172.5817098390607
 31
0.0
  0
LINE
  5
1F7C
330
1F
100
AcDbEntity
  8
0
100
AcDbLine
 10
736.6369540142585
 20
197.2817098390608
 30
0.0
 11
756.5326005194028
 21
197.2817098390608
 31
0.0
  0
LINE
  5
1F7D
330
1F
100
AcDbEntity
  8
0
100
AcDbLine
 10
736.6369540142585
 20
89.28170983906083
 30
0.0
 11
756.5326005194028
 21
89.28170983906083
 31
0.0
  0
LINE
  5
1F7E
330
1F
100
AcDbEntity
  8
0
100
AcDbLine
 10
755.2826005194027
 20
194.7817098390608
 30
0.0
 11
755.2826005194027
 21
91.78170983906083
 31
0.0
  0
LINE
  5
1F82
330
1F
100
AcDbEntity
  8
0
100
AcDbLine
 10
734.1869540142597
 20
89.03170983906083
 30
0.0
 11
734.1869540142597
 21
68.75740797399124
 31
0.0
  0
LINE
  5
1F83
330
1F
100
AcDbEntity
  8
0
100
AcDbLine
 10
688.0369540142591
 20
87.44893675865137
 30
0.0
 11
688.0369540142591
 21
68.75740797399124
 31
0.0
  0
LINE
  5
1F84
330
1F
100
AcDbEntity
  8
0
100
AcDbLine
 10
731.6869540142597
 20
70.00740797399124
 30
0.0
 11
690.5369540142592
 21
70.00740797399124
 31
0.0
  0
LINE
  5
1F88
330
1F
100
AcDbEntity
  8
0
100
AcDbLine
 10
595.5869540142592
 20
89.03170983906083
 30
0.0
 11
595.5869540142592
 21
68.97026872780736
 31
0.0
  0
LINE
  5
1F89
330
1F
100
AcDbEntity
  8
0
100
AcDbLine
 10
641.7369540142581
 20
87.4489367586516
 30
0.0
 11
641.7369540142581
 21
68.97026872780736
 31
0.0
  0
LINE
  5
1F8A
330
1F
100
AcDbEntity
  8
0
100
AcDbLine
 10
598.0869540142593
 20
70.22026872780736
 30
0.0
 11
639.2369540142581
 21
70.22026872780736
 31
0.0
  0
LINE
  5
1F8E
330
1F
100
AcDbEntity
  8
0
100
AcDbLine
 10
594.6133944962192
 20
116.4817098390608
 30
0.0
 11
582.1418750483408
 21
116.4817098390608
 31
0.0
  0
LINE
  5
1F8F
330
1F
100
AcDbEntity
  8
0
100
AcDbLine
 10
598.1369540142586
 20
86.48170983906078
 30
0.0
 11
582.1418750483408
 21
86.48170983906078
 31
0.0
  0
LINE
  5
1F90
330
1F
100
AcDbEntity
  8
0
100
AcDbLine
 10
583.3918750483408
 20
113.9817098390608
 30
0.0
 11
583.3918750483408
 21
88.98170983906078
 31
0.0
  0
LINE
  5
1F94
330
1F
100
AcDbEntity
  8
0
100
AcDbLine
 10
598.1369540142586
 20
200.0817098390608
 30
0.0
 11
580.9609741119153
 21
200.0817098390608
 31
0.0
  0
LINE
  5
1F95
330
1F
100
AcDbEntity
  8
0
100
AcDbLine
 10
594.6133944962192
 20
170.0817098390607
 30
0.0
 11
580.9609741119153
 21
170.0817098390607
 31
0.0
  0
LINE
  5
1F96
330
1F
100
AcDbEntity
  8
0
100
AcDbLine
 10
582.2109741119153
 20
197.5817098390608
 30
0.0
 11
582.2109741119153
 21
172.5817098390607
 31
0.0
  0
LINE
  5
1F9A
330
1F
100
AcDbEntity
  8
0
100
AcDbLine
 10
731.3869540142587
 20
202.5317098390608
 30
0.0
 11
731.3869540142587
 21
216.2554291030538
 31
0.0
  0
LINE
  5
1F9B
330
1F
100
AcDbEntity
  8
0
100
AcDbLine
 10
598.3869540142586
 20
202.5317098390608
 30
0.0
 11
598.3869540142586
 21
216.2554291030538
 31
0.0
  0
LINE
  5
1F9C
330
1F
100
AcDbEntity
  8
0
100
AcDbLine
 10
728.8869540142587
 20
215.0054291030538
 30
0.0
 11
600.8869540142586
 21
215.0054291030538
 31
0.0
  0
LINE
  5
1FA0
330
1F
100
AcDbEntity
  8
0
 62
     3
100
AcDbLine
 10
721.4736812825093
 20
294.8336198782902
 30
0.0
 11
721.4470705325102
 21
295.0040023982901
 31
0.0
  0
LINE
  5
1FA1
330
1F
100
AcDbEntity
  8
0
 62
     3
100
AcDbLine
 10
721.4470705325102
 20
295.0040023982901
 30
0.0
 11
721.4151117025092
 21
295.16715208829
 31
0.0
  0
LINE
  5
1FA2
330
1F
100
AcDbEntity
  8
0
 62
     3
100
AcDbLine
 10
721.4151117025092
 20
295.16715208829
 30
0.0
 11
721.3780518025096
 21
295.32180788829
 31
0.0
  0
LINE
  5
1FA3
330
1F
100
AcDbEntity
  8
0
 62
     3
100
AcDbLine
 10
721.3780518025096
 20
295.32180788829
 30
0.0
 11
721.3361773025098
 21
295.46677438829
 31
0.0
  0
LINE
  5
1FA4
330
1F
100
AcDbEntity
  8
0
 62
     3
100
AcDbLine
 10
721.3361773025098
 20
295.46677438829
 30
0.0
 11
721.2898118725097
 21
295.6009310782901
 31
0.0
  0
LINE
  5
1FA5
330
1F
100
AcDbEntity
  8
0
 62
     3
100
AcDbLine
 10
721.2898118725097
 20
295.6009310782901
 30
0.0
 11
721.2393138825099
 21
295.72324097829
 31
0.0
  0
LINE
  5
1FA6
330
1F
100
AcDbEntity
  8
0
 62
     3
100
AcDbLine
 10
721.2393138825099
 20
295.72324097829
 30
0.0
 11
721.1850736625099
 21
295.8327587182902
 31
0.0
  0
LINE
  5
1FA7
330
1F
100
AcDbEntity
  8
0
 62
     3
100
AcDbLine
 10
721.1850736625099
 20
295.8327587182902
 30
0.0
 11
721.1275104625102
 21
295.92863776829
 31
0.0
  0
LINE
  5
1FA8
330
1F
100
AcDbEntity
  8
0
 62
     3
100
AcDbLine
 10
721.1275104625102
 20
295.92863776829
 30
0.0
 11
721.0670692125092
 21
296.0101370382901
 31
0.0
  0
LINE
  5
1FA9
330
1F
100
AcDbEntity
  8
0
 62
     3
100
AcDbLine
 10
721.0670692125092
 20
296.0101370382901
 30
0.0
 11
721.0042170925097
 21
296.0766265782901
 31
0.0
  0
LINE
  5
1FAA
330
1F
100
AcDbEntity
  8
0
 62
     3
100
AcDbLine
 10
721.0042170925097
 20
296.0766265782901
 30
0.0
 11
720.9394399125093
 21
296.1275924582902
 31
0.0
  0
LINE
  5
1FAB
330
1F
100
AcDbEntity
  8
0
 62
     3
100
AcDbLine
 10
720.9394399125093
 20
296.1275924582902
 30
0.0
 11
720.87323838251
 21
296.1626407382901
 31
0.0
  0
LINE
  5
1FAC
330
1F
100
AcDbEntity
  8
0
 62
     3
100
AcDbLine
 10
720.87323838251
 20
296.1626407382901
 30
0.0
 11
720.8061241925097
 21
296.1815005082901
 31
0.0
  0
LINE
  5
1FAD
330
1F
100
AcDbEntity
  8
0
 62
     3
100
AcDbLine
 10
720.8061241925097
 20
296.1815005082901
 30
0.0
 11
720.7386161025095
 21
296.1840260082901
 31
0.0
  0
LINE
  5
1FAE
330
1F
100
AcDbEntity
  8
0
 62
     3
100
AcDbLine
 10
720.7386161025095
 20
296.1840260082901
 30
0.0
 11
720.6712359125093
 21
296.1701976982901
 31
0.0
  0
LINE
  5
1FAF
330
1F
100
AcDbEntity
  8
0
 62
     3
100
AcDbLine
 10
720.6712359125093
 20
296.1701976982901
 30
0.0
 11
720.6045044425097
 21
296.14012246829
 31
0.0
  0
LINE
  5
1FB0
330
1F
100
AcDbEntity
  8
0
 62
     3
100
AcDbLine
 10
720.6045044425097
 20
296.14012246829
 30
0.0
 11
720.5389375025097
 21
296.0940327982901
 31
0.0
  0
LINE
  5
1FB1
330
1F
100
AcDbEntity
  8
0
 62
     3
100
AcDbLine
 10
720.5389375025097
 20
296.0940327982901
 30
0.0
 11
720.4750418625097
 21
296.0322849182901
 31
0.0
  0
LINE
  5
1FB2
330
1F
100
AcDbEntity
  8
0
 62
     3
100
AcDbLine
 10
720.4750418625097
 20
296.0322849182901
 30
0.0
 11
720.4133114325093
 21
295.9553561282902
 31
0.0
  0
LINE
  5
1FB3
330
1F
100
AcDbEntity
  8
0
 62
     3
100
AcDbLine
 10
720.4133114325093
 20
295.9553561282902
 30
0.0
 11
720.3542233425096
 21
295.8638410282901
 31
0.0
  0
LINE
  5
1FB4
330
1F
100
AcDbEntity
  8
0
 62
     3
100
AcDbLine
 10
720.3542233425096
 20
295.8638410282901
 30
0.0
 11
720.2982343125093
 21
295.75844699829
 31
0.0
  0
LINE
  5
1FB5
330
1F
100
AcDbEntity
  8
0
 62
     3
100
AcDbLine
 10
720.2982343125093
 20
295.75844699829
 30
0.0
 11
720.2457771125099
 21
295.6399886682902
 31
0.0
  0
LINE
  5
1FB6
330
1F
100
AcDbEntity
  8
0
 62
     3
100
AcDbLine
 10
720.2457771125099
 20
295.6399886682902
 30
0.0
 11
720.1972572125096
 21
295.50938165829
 31
0.0
  0
LINE
  5
1FB7
330
1F
100
AcDbEntity
  8
0
 62
     3
100
AcDbLine
 10
720.1972572125096
 20
295.50938165829
 30
0.0
 11
720.1530496325093
 21
295.3676355082901
 31
0.0
  0
LINE
  5
1FB8
330
1F
100
AcDbEntity
  8
0
 62
     3
100
AcDbLine
 10
720.1530496325093
 20
295.3676355082901
 30
0.0
 11
720.1134960925099
 21
295.21584583829
 31
0.0
  0
LINE
  5
1FB9
330
1F
100
AcDbEntity
  8
0
 62
     3
100
AcDbLine
 10
720.1134960925099
 20
295.21584583829
 30
0.0
 11
720.0789023125097
 21
295.0551858982901
 31
0.0
  0
LINE
  5
1FBA
330
1F
100
AcDbEntity
  8
0
 62
     3
100
AcDbLine
 10
720.0789023125097
 20
295.0551858982901
 30
0.0
 11
720.0495356825093
 21
294.8868975082902
 31
0.0
  0
LINE
  5
1FBB
330
1F
100
AcDbEntity
  8
0
 62
     3
100
AcDbLine
 10
720.0495356825093
 20
294.8868975082902
 30
0.0
 11
720.0256231925093
 21
294.7122814482901
 31
0.0
  0
LINE
  5
1FBC
330
1F
100
AcDbEntity
  8
0
 62
     3
100
AcDbLine
 10
720.0256231925093
 20
294.7122814482901
 30
0.0
 11
720.0073496825098
 21
294.5326874182902
 31
0.0
  0
LINE
  5
1FBD
330
1F
100
AcDbEntity
  8
0
 62
     3
100
AcDbLine
 10
720.0073496825098
 20
294.5326874182902
 30
0.0
 11
719.9948563825101
 21
294.34950357829
 31
0.0
  0
LINE
  5
1FBE
330
1F
100
AcDbEntity
  8
0
 62
     3
100
AcDbLine
 10
719.9948563825101
 20
294.34950357829
 30
0.0
 11
719.9882398725093
 21
294.1641458582901
 31
0.0
  0
LINE
  5
1FBF
330
1F
100
AcDbEntity
  8
0
 62
     3
100
AcDbLine
 10
719.9882398725093
 20
294.1641458582901
 30
0.0
 11
719.9875512825099
 21
293.9780469582901
 31
0.0
  0
LINE
  5
1FC0
330
1F
100
AcDbEntity
  8
0
 62
     3
100
AcDbLine
 10
719.9875512825099
 20
293.9780469582901
 30
0.0
 11
719.9927959425093
 21
293.79264534829
 31
0.0
  0
LINE
  5
1FC1
330
1F
100
AcDbEntity
  8
0
 62
     3
100
AcDbLine
 10
719.9927959425093
 20
293.79264534829
 30
0.0
 11
720.0039333125096
 21
293.60937407829
 31
0.0
  0
LINE
  5
1FC2
330
1F
100
AcDbEntity
  8
0
 62
     3
100
AcDbLine
 10
720.0039333125096
 20
293.60937407829
 30
0.0
 11
720.0208773125096
 21
293.42964973829
 31
0.0
  0
LINE
  5
1FC3
330
1F
100
AcDbEntity
  8
0
 62
     3
100
AcDbLine
 10
720.0208773125096
 20
293.42964973829
 30
0.0
 11
720.0434969625099
 21
293.25486150829
 31
0.0
  0
LINE
  5
1FC4
330
1F
100
AcDbEntity
  8
0
 62
     3
100
AcDbLine
 10
720.0434969625099
 20
293.25486150829
 30
0.0
 11
720.0716174325098
 21
293.0863604082901
 31
0.0
  0
LINE
  5
1FC5
330
1F
100
AcDbEntity
  8
0
 62
     3
100
AcDbLine
 10
720.0716174325098
 20
293.0863604082901
 30
0.0
 11
720.1050213625093
 21
292.92544886829
 31
0.0
  0
LINE
  5
1FC6
330
1F
100
AcDbEntity
  8
0
 62
     3
100
AcDbLine
 10
720.1050213625093
 20
292.92544886829
 30
0.0
 11
720.1434505625102
 21
292.77337064829
 31
0.0
  0
LINE
  5
1FC7
330
1F
100
AcDbEntity
  8
0
 62
     3
100
AcDbLine
 10
720.1434505625102
 20
292.77337064829
 30
0.0
 11
720.1866079825093
 21
292.6313012382901
 31
0.0
  0
LINE
  5
1FC8
330
1F
100
AcDbEntity
  8
0
 62
     3
100
AcDbLine
 10
720.1866079825093
 20
292.6313012382901
 30
0.0
 11
720.2341600525096
 21
292.5003387582901
 31
0.0
  0
LINE
  5
1FC9
330
1F
100
AcDbEntity
  8
0
 62
     3
100
AcDbLine
 10
720.2341600525096
 20
292.5003387582901
 30
0.0
 11
720.2857392025097
 21
292.3814954782902
 31
0.0
  0
LINE
  5
1FCA
330
1F
100
AcDbEntity
  8
0
 62
     3
100
AcDbLine
 10
720.2857392025097
 20
292.3814954782902
 30
0.0
 11
720.3409467725093
 21
292.27569000829
 31
0.0
  0
LINE
  5
1FCB
330
1F
100
AcDbEntity
  8
0
 62
     3
100
AcDbLine
 10
720.3409467725093
 20
292.27569000829
 30
0.0
 11
720.3993560225097
 21
292.18374014829
 31
0.0
  0
LINE
  5
1FCC
330
1F
100
AcDbEntity
  8
0
 62
     3
100
AcDbLine
 10
720.3993560225097
 20
292.18374014829
 30
0.0
 11
720.4605154825093
 21
292.10635664829
 31
0.0
  0
LINE
  5
1FCD
330
1F
100
AcDbEntity
  8
0
 62
     3
100
AcDbLine
 10
720.4605154825093
 20
292.10635664829
 30
0.0
 11
720.5239524225097
 21
292.0441376282901
 31
0.0
  0
LINE
  5
1FCE
330
1F
100
AcDbEntity
  8
0
 62
     3
100
AcDbLine
 10
720.5239524225097
 20
292.0441376282901
 30
0.0
 11
720.5891765025097
 21
291.9975640182901
 31
0.0
  0
LINE
  5
1FCF
330
1F
100
AcDbEntity
  8
0
 62
     3
100
AcDbLine
 10
720.5891765025097
 20
291.9975640182901
 30
0.0
 11
720.6556835825095
 21
291.96699578829
 31
0.0
  0
LINE
  5
1FD0
330
1F
100
AcDbEntity
  8
0
 62
     3
100
AcDbLine
 10
720.6556835825095
 20
291.96699578829
 30
0.0
 11
720.7229595925099
 21
291.95266923829
 31
0.0
  0
LINE
  5
1FD1
330
1F
100
AcDbEntity
  8
0
 62
     3
100
AcDbLine
 10
720.7229595925099
 20
291.95266923829
 30
0.0
 11
720.7904845225102
 21
291.9546950982901
 31
0.0
  0
LINE
  5
1FD2
330
1F
100
AcDbEntity
  8
0
 62
     3
100
AcDbLine
 10
720.7904845225102
 20
291.9546950982901
 30
0.0
 11
720.8577364425098
 21
291.97305769829
 31
0.0
  0
LINE
  5
1FD3
330
1F
100
AcDbEntity
  8
0
 62
     3
100
AcDbLine
 10
720.8577364425098
 20
291.97305769829
 30
0.0
 11
720.9241955225097
 21
292.0076151182901
 31
0.0
  0
LINE
  5
1FD4
330
1F
100
AcDbEntity
  8
0
 62
     3
100
AcDbLine
 10
720.9241955225097
 20
292.0076151182901
 30
0.0
 11
720.9893480825093
 21
292.05810024829
 31
0.0
  0
LINE
  5
1FD5
330
1F
100
AcDbEntity
  8
0
 62
     3
100
AcDbLine
 10
720.9893480825093
 20
292.05810024829
 30
0.0
 11
721.0526905125098
 21
292.12412284829
 31
0.0
  0
LINE
  5
1FD6
330
1F
100
AcDbEntity
  8
0
 62
     3
100
AcDbLine
 10
721.0526905125098
 20
292.12412284829
 30
0.0
 11
721.1137332125099
 21
292.2051726082901
 31
0.0
  0
LINE
  5
1FD7
330
1F
100
AcDbEntity
  8
0
 62
     3
100
AcDbLine
 10
721.1137332125099
 20
292.2051726082901
 30
0.0
 11
721.1720043525099
 21
292.3006230582901
 31
0.0
  0
LINE
  5
1FD8
330
1F
100
AcDbEntity
  8
0
 62
     3
100
AcDbLine
 10
721.1720043525099
 20
292.3006230582901
 30
0.0
 11
721.2270535325093
 21
292.40973641829
 31
0.0
  0
LINE
  5
1FD9
330
1F
100
AcDbEntity
  8
0
 62
     3
100
AcDbLine
 10
721.2270535325093
 20
292.40973641829
 30
0.0
 11
721.2784552525099
 21
292.53166927829
 31
0.0
  0
LINE
  5
1FDA
330
1F
100
AcDbEntity
  8
0
 62
     3
100
AcDbLine
 10
721.2784552525099
 20
292.53166927829
 30
0.0
 11
721.3258121925099
 21
292.66547918829
 31
0.0
  0
LINE
  5
1FDB
330
1F
100
AcDbEntity
  8
0
 62
     3
100
AcDbLine
 10
721.3258121925099
 20
292.66547918829
 30
0.0
 11
721.3687583125102
 21
292.81013183829
 31
0.0
  0
LINE
  5
1FDC
330
1F
100
AcDbEntity
  8
0
 62
     3
100
AcDbLine
 10
721.3687583125102
 20
292.81013183829
 30
0.0
 11
721.4069616625102
 21
292.9645091582901
 31
0.0
  0
LINE
  5
1FDD
330
1F
100
AcDbEntity
  8
0
 62
     3
100
AcDbLine
 10
721.4069616625102
 20
292.9645091582901
 30
0.0
 11
721.4401269525096
 21
293.1274178882901
 31
0.0
  0
LINE
  5
1FDE
330
1F
100
AcDbEntity
  8
0
 62
     3
100
AcDbLine
 10
721.4401269525096
 20
293.1274178882901
 30
0.0
 11
721.4679978325102
 21
293.2975988182901
 31
0.0
  0
TEXT
  5
1FDF
330
1F
100
AcDbEntity
  8
0
 62
     4
100
AcDbText
 10
571.0904862755747
 20
142.4816170147275
 30
0.0
 40
3.0
  1
227.2
 50
90.0
100
AcDbText
  0
LINE
  5
1FE0
330
1F
100
AcDbEntity
  8
0
  6
ByBlock
 62
     0
370
    -2
100
AcDbLine
 10
571.0456137755747
 20
197.5817098390608
 30
0.0
 11
571.7154862755746
 21
200.0817098390609
 31
0.0
  0
LINE
  5
1FE1
330
1F
100
AcDbEntity
  8
0
  6
ByBlock
 62
     0
370
    -2
100
AcDbLine
 10
571.7154862755746
 20
200.0817098390609
 30
0.0
 11
572.3853587755747
 21
197.5817098390608
 31
0.0
  0
LINE
  5
1FE2
330
1F
100
AcDbEntity
  8
0
  6
ByBlock
 62
     0
370
    -2
100
AcDbLine
 10
571.7154862755746
 20
200.0817098390609
 30
0.0
 11
571.7154862755746
 21
197.5817098390608
 31
0.0
  0
LINE
  5
1FE3
330
1F
100
AcDbEntity
  8
0
  6
ByBlock
 62
     0
370
    -2
100
AcDbLine
 10
572.3853587755747
 20
88.9817098390608
 30
0.0
 11
571.7154862755746
 21
86.4817098390608
 31
0.0
  0
LINE
  5
1FE4
330
1F
100
AcDbEntity
  8
0
  6
ByBlock
 62
     0
370
    -2
100
AcDbLine
 10
571.7154862755746
 20
86.4817098390608
 30
0.0
 11
571.0456137755747
 21
88.9817098390608
 31
0.0
  0
LINE
  5
1FE5
330
1F
100
AcDbEntity
  8
0
  6
ByBlock
 62
     0
370
    -2
100
AcDbLine
 10
571.7154862755746
 20
86.4817098390608
 30
0.0
 11
571.7154862755746
 21
88.9817098390608
 31
0.0
  0
TEXT
  5
1FE6
330
1F
100
AcDbEntity
  8
0
 62
     4
100
AcDbText
 10
798.2010095259876
 20
210.9817193692027
 30
0.0
 40
3.0
  1
\U+03C66(内径)
 50
31.69510177516276
100
AcDbText
  0
LINE
  5
1FE7
330
1F
100
AcDbEntity
  8
0
  6
ByBlock
 62
     0
370
    -2
100
AcDbLine
 10
785.8200007082317
 20
201.8146678218008
 30
0.0
 11
783.340910352347
 21
201.0711355941091
 31
0.0
  0
LINE
  5
1FE8
330
1F
100
AcDbEntity
  8
0
  6
ByBlock
 62
     0
370
    -2
100
AcDbLine
 10
783.340910352347
 20
201.0711355941091
 30
0.0
 11
785.1161001412906
 21
202.9545979323274
 31
0.0
  0
LINE
  5
1FE9
330
1F
100
AcDbEntity
  8
0
  6
ByBlock
 62
     0
370
    -2
100
AcDbLine
 10
783.340910352347
 20
201.0711355941091
 30
0.0
 11
785.4680504247611
 21
202.3846328770641
 31
0.0
  0
LINE
  5
1FEA
330
1F
100
AcDbEntity
  8
0
  6
ByBlock
 62
     0
370
    -2
100
AcDbLine
 10
775.7566838226673
 20
197.1752098873247
 30
0.0
 11
778.235774178552
 21
197.9187421150164
 31
0.0
  0
LINE
  5
1FEB
330
1F
100
AcDbEntity
  8
0
  6
ByBlock
 62
     0
370
    -2
100
AcDbLine
 10
778.235774178552
 20
197.9187421150164
 30
0.0
 11
776.4605843896084
 21
196.0352797767981
 31
0.0
  0
LINE
  5
1FEC
330
1F
100
AcDbEntity
  8
0
  6
ByBlock
 62
     0
370
    -2
100
AcDbLine
 10
778.235774178552
 20
197.9187421150164
 30
0.0
 11
776.1086341061378
 21
196.6052448320614
 31
0.0
  0
TEXT
  5
1FED
330
1F
100
AcDbEntity
  8
0
 62
     4
100
AcDbText
 10
820.4390011533524
 20
207.7967649359431
 30
0.0
 40
3.0
  1
15
100
AcDbText
  0
LINE
  5
1FEE
330
1F
100
AcDbEntity
  8
0
  6
ByBlock
 62
     0
370
    -2
100
AcDbLine
 10
823.6890011533519
 20
207.8416374359431
 30
0.0
 11
826.189001153352
 21
207.1717649359431
 31
0.0
  0
LINE
  5
1FEF
330
1F
100
AcDbEntity
  8
0
  6
ByBlock
 62
     0
370
    -2
100
AcDbLine
 10
826.189001153352
 20
207.1717649359431
 30
0.0
 11
823.6890011533519
 21
206.5018924359431
 31
0.0
  0
LINE
  5
1FF0
330
1F
100
AcDbEntity
  8
0
  6
ByBlock
 62
     0
370
    -2
100
AcDbLine
 10
826.189001153352
 20
207.1717649359431
 30
0.0
 11
823.6890011533519
 21
207.1717649359431
 31
0.0
  0
LINE
  5
1FF1
330
1F
100
AcDbEntity
  8
0
  6
ByBlock
 62
     0
370
    -2
100
AcDbLine
 10
821.1890011533522
 20
206.5018924359431
 30
0.0
 11
818.6890011533524
 21
207.1717649359431
 31
0.0
  0
LINE
  5
1FF2
330
1F
100
AcDbEntity
  8
0
  6
ByBlock
 62
     0
370
    -2
100
AcDbLine
 10
818.6890011533524
 20
207.1717649359431
 30
0.0
 11
821.1890011533522
 21
207.8416374359431
 31
0.0
  0
LINE
  5
1FF3
330
1F
100
AcDbEntity
  8
0
  6
ByBlock
 62
     0
370
    -2
100
AcDbLine
 10
818.6890011533524
 20
207.1717649359431
 30
0.0
 11
821.1890011533522
 21
207.1717649359431
 31
0.0
  0
TEXT
  5
1FF4
330
1F
100
AcDbEntity
  8
0
 62
     4
100
AcDbText
 10
658.6041420787005
 20
234.3654231272846
 30
0.0
 40
3.0
  1
281.9
100
AcDbText
  0
LINE
  5
1FF5
330
1F
100
AcDbEntity
  8
0
  6
ByBlock
 62
     0
370
    -2
100
AcDbLine
 10
596.903775088448
 20
233.0705506272846
 30
0.0
 11
594.4037750884481
 21
233.7404231272846
 31
0.0
  0
LINE
  5
1FF6
330
1F
100
AcDbEntity
  8
0
  6
ByBlock
 62
     0
370
    -2
100
AcDbLine
 10
594.4037750884481
 20
233.7404231272846
 30
0.0
 11
596.903775088448
 21
234.4102956272846
 31
0.0
  0
LINE
  5
1FF7
330
1F
100
AcDbEntity
  8
0
  6
ByBlock
 62
     0
370
    -2
100
AcDbLine
 10
594.4037750884481
 20
233.7404231272846
 30
0.0
 11
596.903775088448
 21
233.7404231272846
 31
0.0
  0
LINE
  5
1FF8
330
1F
100
AcDbEntity
  8
0
  6
ByBlock
 62
     0
370
    -2
100
AcDbLine
 10
732.8701329400701
 20
234.4102956272846
 30
0.0
 11
735.3701329400702
 21
233.7404231272846
 31
0.0
  0
LINE
  5
1FF9
330
1F
100
AcDbEntity
  8
0
  6
ByBlock
 62
     0
370
    -2
100
AcDbLine
 10
735.3701329400702
 20
233.7404231272846
 30
0.0
 11
732.8701329400701
 21
233.0705506272846
 31
0.0
  0
LINE
  5
1FFA
330
1F
100
AcDbEntity
  8
0
  6
ByBlock
 62
     0
370
    -2
100
AcDbLine
 10
735.3701329400702
 20
233.7404231272846
 30
0.0
 11
732.8701329400701
 21
233.7404231272846
 31
0.0
  0
TEXT
  5
1FFB
330
1F
100
AcDbEntity
  8
0
 62
     4
100
AcDbText
 10
745.6603976084267
 20
240.7726438434004
 30
0.0
 40
3.0
  1
12.4
 50
90.0
100
AcDbText
  0
LINE
  5
1FFC
330
1F
100
AcDbEntity
  8
0
  6
ByBlock
 62
     0
370
    -2
100
AcDbLine
 10
745.6155251084268
 20
251.8976438434004
 30
0.0
 11
746.2853976084268
 21
254.3976438434004
 31
0.0
  0
LINE
  5
1FFD
330
1F
100
AcDbEntity
  8
0
  6
ByBlock
 62
     0
370
    -2
100
AcDbLine
 10
746.2853976084268
 20
254.3976438434004
 30
0.0
 11
746.9552701084268
 21
251.8976438434004
 31
0.0
  0
LINE
  5
1FFE
330
1F
100
AcDbEntity
  8
0
  6
ByBlock
 62
     0
370
    -2
100
AcDbLine
 10
746.2853976084268
 20
254.3976438434004
 30
0.0
 11
746.2853976084268
 21
251.8976438434004
 31
0.0
  0
LINE
  5
1FFF
330
1F
100
AcDbEntity
  8
0
  6
ByBlock
 62
     0
370
    -2
100
AcDbLine
 10
746.9552701084269
 20
263.0976438434003
 30
0.0
 11
746.2853976084269
 21
260.5976438434003
 31
0.0
  0
LINE
  5
2000
330
1F
100
AcDbEntity
  8
0
  6
ByBlock
 62
     0
370
    -2
100
AcDbLine
 10
746.2853976084269
 20
260.5976438434003
 30
0.0
 11
745.6155251084269
 21
263.0976438434003
 31
0.0
  0
LINE
  5
2001
330
1F
100
AcDbEntity
  8
0
  6
ByBlock
 62
     0
370
    -2
100
AcDbLine
 10
746.2853976084269
 20
260.5976438434003
 30
0.0
 11
746.2853976084269
 21
263.0976438434003
 31
0.0
  0
TEXT
  5
2002
330
1F
100
AcDbEntity
  8
0
 62
     4
100
AcDbText
 10
658.8869540142594
 20
222.7834117058087
 30
0.0
 40
3.0
  1
277.2
100
AcDbText
  0
LINE
  5
2003
330
1F
100
AcDbEntity
  8
0
  6
ByBlock
 62
     0
370
    -2
100
AcDbLine
 10
598.0869540142593
 20
221.4885392058087
 30
0.0
 11
595.5869540142592
 21
222.1584117058087
 31
0.0
  0
LINE
  5
2004
330
1F
100
AcDbEntity
  8
0
  6
ByBlock
 62
     0
370
    -2
100
AcDbLine
 10
595.5869540142592
 20
222.1584117058087
 30
0.0
 11
598.0869540142593
 21
222.8282842058087
 31
0.0
  0
LINE
  5
2005
330
1F
100
AcDbEntity
  8
0
  6
ByBlock
 62
     0
370
    -2
100
AcDbLine
 10
595.5869540142592
 20
222.1584117058087
 30
0.0
 11
598.0869540142593
 21
222.1584117058087
 31
0.0
  0
LINE
  5
2006
330
1F
100
AcDbEntity
  8
0
  6
ByBlock
 62
     0
370
    -2
100
AcDbLine
 10
731.6869540142597
 20
222.8282842058087
 30
0.0
 11
734.1869540142597
 21
222.1584117058087
 31
0.0
  0
LINE
  5
2007
330
1F
100
AcDbEntity
  8
0
  6
ByBlock
 62
     0
370
    -2
100
AcDbLine
 10
734.1869540142597
 20
222.1584117058087
 30
0.0
 11
731.6869540142597
 21
221.4885392058087
 31
0.0
  0
LINE
  5
2008
330
1F
100
AcDbEntity
  8
0
  6
ByBlock
 62
     0
370
    -2
100
AcDbLine
 10
734.1869540142597
 20
222.1584117058087
 30
0.0
 11
731.6869540142597
 21
222.1584117058087
 31
0.0
  0
TEXT
  5
2009
330
1F
100
AcDbEntity
  8
0
 62
     4
100
AcDbText
 10
802.487468281685
 20
192.8752265965865
 30
0.0
 40
3.0
  1
任意
100
AcDbText
  0
LINE
  5
200A
330
1F
100
AcDbEntity
  8
0
  6
ByBlock
 62
     0
370
    -2
100
AcDbLine
 10
786.2883422654503
 20
191.5803540965865
 30
0.0
 11
783.7883422654503
 21
192.2502265965865
 31
0.0
  0
LINE
  5
200B
330
1F
100
AcDbEntity
  8
0
  6
ByBlock
 62
     0
370
    -2
100
AcDbLine
 10
783.7883422654503
 20
192.2502265965865
 30
0.0
 11
786.2883422654503
 21
192.9200990965865
 31
0.0
  0
LINE
  5
200C
330
1F
100
AcDbEntity
  8
0
  6
ByBlock
 62
     0
370
    -2
100
AcDbLine
 10
783.7883422654503
 20
192.2502265965865
 30
0.0
 11
786.2883422654503
 21
192.2502265965865
 31
0.0
  0
LINE
  5
200D
330
1F
100
AcDbEntity
  8
0
  6
ByBlock
 62
     0
370
    -2
100
AcDbLine
 10
779.9813655212656
 20
192.9200990965865
 30
0.0
 11
782.4813655212656
 21
192.2502265965865
 31
0.0
  0
LINE
  5
200E
330
1F
100
AcDbEntity
  8
0
  6
ByBlock
 62
     0
370
    -2
100
AcDbLine
 10
782.4813655212656
 20
192.2502265965865
 30
0.0
 11
779.9813655212656
 21
191.5803540965865
 31
0.0
  0
LINE
  5
200F
330
1F
100
AcDbEntity
  8
0
  6
ByBlock
 62
     0
370
    -2
100
AcDbLine
 10
782.4813655212656
 20
192.2502265965865
 30
0.0
 11
779.9813655212656
 21
192.2502265965865
 31
0.0
  0
TEXT
  5
2010
330
1F
100
AcDbEntity
  8
0
 62
     4
100
AcDbText
 10
745.8570707052638
 20
99.40688906696459
 30
0.0
 40
3.0
  1
(54.4)
 50
90.0
100
AcDbText
  0
LINE
  5
2011
330
1F
100
AcDbEntity
  8
0
  6
ByBlock
 62
     0
370
    -2
100
AcDbLine
 10
747.1519432052637
 20
91.78170983906081
 30
0.0
 11
746.4820707052638
 21
89.28170983906081
 31
0.0
  0
LINE
  5
2012
330
1F
100
AcDbEntity
  8
0
  6
ByBlock
 62
     0
370
    -2
100
AcDbLine
 10
746.4820707052638
 20
89.28170983906081
 30
0.0
 11
745.8121982052638
 21
91.78170983906081
 31
0.0
  0
LINE
  5
2013
330
1F
100
AcDbEntity
  8
0
  6
ByBlock
 62
     0
370
    -2
100
AcDbLine
 10
746.4820707052638
 20
89.28170983906081
 30
0.0
 11
746.4820707052638
 21
91.78170983906081
 31
0.0
  0
LINE
  5
2014
330
1F
100
AcDbEntity
  8
0
  6
ByBlock
 62
     0
370
    -2
100
AcDbLine
 10
745.8121982052638
 20
113.9817098390608
 30
0.0
 11
746.4820707052638
 21
116.4817098390608
 31
0.0
  0
LINE
  5
2015
330
1F
100
AcDbEntity
  8
0
  6
ByBlock
 62
     0
370
    -2
100
AcDbLine
 10
746.4820707052638
 20
116.4817098390608
 30
0.0
 11
747.1519432052637
 21
113.9817098390608
 31
0.0
  0
LINE
  5
2016
330
1F
100
AcDbEntity
  8
0
  6
ByBlock
 62
     0
370
    -2
100
AcDbLine
 10
746.4820707052638
 20
116.4817098390608
 30
0.0
 11
746.4820707052638
 21
113.9817098390608
 31
0.0
  0
TEXT
  5
2017
330
1F
100
AcDbEntity
  8
0
 62
     4
100
AcDbText
 10
747.4083076515379
 20
172.8373246243906
 30
0.0
 40
3.0
  1
(54.4)
 50
90.0
100
AcDbText
  0
LINE
  5
2018
330
1F
100
AcDbEntity
  8
0
  6
ByBlock
 62
     0
370
    -2
100
AcDbLine
 10
748.7031801515379
 20
172.5817098390607
 30
0.0
 11
748.0333076515379
 21
170.0817098390607
 31
0.0
  0
LINE
  5
2019
330
1F
100
AcDbEntity
  8
0
  6
ByBlock
 62
     0
370
    -2
100
AcDbLine
 10
748.0333076515379
 20
170.0817098390607
 30
0.0
 11
747.3634351515379
 21
172.5817098390607
 31
0.0
  0
LINE
  5
201A
330
1F
100
AcDbEntity
  8
0
  6
ByBlock
 62
     0
370
    -2
100
AcDbLine
 10
748.0333076515379
 20
170.0817098390607
 30
0.0
 11
748.0333076515379
 21
172.5817098390607
 31
0.0
  0
LINE
  5
201B
330
1F
100
AcDbEntity
  8
0
  6
ByBlock
 62
     0
370
    -2
100
AcDbLine
 10
747.3634351515379
 20
194.7817098390608
 30
0.0
 11
748.0333076515379
 21
197.2817098390608
 31
0.0
  0
LINE
  5
201C
330
1F
100
AcDbEntity
  8
0
  6
ByBlock
 62
     0
370
    -2
100
AcDbLine
 10
748.0333076515379
 20
197.2817098390608
 30
0.0
 11
748.7031801515379
 21
194.7817098390608
 31
0.0
  0
LINE
  5
201D
330
1F
100
AcDbEntity
  8
0
  6
ByBlock
 62
     0
370
    -2
100
AcDbLine
 10
748.0333076515379
 20
197.2817098390608
 30
0.0
 11
748.0333076515379
 21
194.7817098390608
 31
0.0
  0
TEXT
  5
201E
330
1F
100
AcDbEntity
  8
0
 62
     4
100
AcDbText
 10
754.6576005194027
 20
139.4774896928966
 30
0.0
 40
3.0
  1
216
 50
90.0
100
AcDbText
  0
LINE
  5
201F
330
1F
100
AcDbEntity
  8
0
  6
ByBlock
 62
     0
370
    -2
100
AcDbLine
 10
755.9524730194027
 20
91.78170983906083
 30
0.0
 11
755.2826005194027
 21
89.28170983906083
 31
0.0
  0
LINE
  5
2020
330
1F
100
AcDbEntity
  8
0
  6
ByBlock
 62
     0
370
    -2
100
AcDbLine
 10
755.2826005194027
 20
89.28170983906083
 30
0.0
 11
754.6127280194028
 21
91.78170983906083
 31
0.0
  0
LINE
  5
2021
330
1F
100
AcDbEntity
  8
0
  6
ByBlock
 62
     0
370
    -2
100
AcDbLine
 10
755.2826005194027
 20
89.28170983906083
 30
0.0
 11
755.2826005194027
 21
91.78170983906083
 31
0.0
  0
LINE
  5
2022
330
1F
100
AcDbEntity
  8
0
  6
ByBlock
 62
     0
370
    -2
100
AcDbLine
 10
754.6127280194028
 20
194.7817098390608
 30
0.0
 11
755.2826005194027
 21
197.2817098390608
 31
0.0
  0
LINE
  5
2023
330
1F
100
AcDbEntity
  8
0
  6
ByBlock
 62
     0
370
    -2
100
AcDbLine
 10
755.2826005194027
 20
197.2817098390608
 30
0.0
 11
755.9524730194027
 21
194.7817098390608
 31
0.0
  0
LINE
  5
2024
330
1F
100
AcDbEntity
  8
0
  6
ByBlock
 62
     0
370
    -2
100
AcDbLine
 10
755.2826005194027
 20
197.2817098390608
 30
0.0
 11
755.2826005194027
 21
194.7817098390608
 31
0.0
  0
TEXT
  5
2025
330
1F
100
AcDbEntity
  8
0
 62
     4
100
AcDbText
 10
706.6119540142599
 20
70.63240797399124
 30
0.0
 40
3.0
  1
92.3
100
AcDbText
  0
LINE
  5
2026
330
1F
100
AcDbEntity
  8
0
  6
ByBlock
 62
     0
370
    -2
100
AcDbLine
 10
690.5369540142592
 20
69.33753547399124
 30
0.0
 11
688.0369540142591
 21
70.00740797399124
 31
0.0
  0
LINE
  5
2027
330
1F
100
AcDbEntity
  8
0
  6
ByBlock
 62
     0
370
    -2
100
AcDbLine
 10
688.0369540142591
 20
70.00740797399124
 30
0.0
 11
690.5369540142592
 21
70.67728047399123
 31
0.0
  0
LINE
  5
2028
330
1F
100
AcDbEntity
  8
0
  6
ByBlock
 62
     0
370
    -2
100
AcDbLine
 10
688.0369540142591
 20
70.00740797399124
 30
0.0
 11
690.5369540142592
 21
70.00740797399124
 31
0.0
  0
LINE
  5
2029
330
1F
100
AcDbEntity
  8
0
  6
ByBlock
 62
     0
370
    -2
100
AcDbLine
 10
731.6869540142597
 20
70.67728047399123
 30
0.0
 11
734.1869540142597
 21
70.00740797399124
 31
0.0
  0
LINE
  5
202A
330
1F
100
AcDbEntity
  8
0
  6
ByBlock
 62
     0
370
    -2
100
AcDbLine
 10
734.1869540142597
 20
70.00740797399124
 30
0.0
 11
731.6869540142597
 21
69.33753547399124
 31
0.0
  0
LINE
  5
202B
330
1F
100
AcDbEntity
  8
0
  6
ByBlock
 62
     0
370
    -2
100
AcDbLine
 10
734.1869540142597
 20
70.00740797399124
 30
0.0
 11
731.6869540142597
 21
70.00740797399124
 31
0.0
  0
TEXT
  5
202C
330
1F
100
AcDbEntity
  8
0
 62
     4
100
AcDbText
 10
614.1619540142592
 20
70.84526872780736
 30
0.0
 40
3.0
  1
92.3
100
AcDbText
  0
LINE
  5
202D
330
1F
100
AcDbEntity
  8
0
  6
ByBlock
 62
     0
370
    -2
100
AcDbLine
 10
639.2369540142581
 20
70.89014122780736
 30
0.0
 11
641.7369540142581
 21
70.22026872780736
 31
0.0
  0
LINE
  5
202E
330
1F
100
AcDbEntity
  8
0
  6
ByBlock
 62
     0
370
    -2
100
AcDbLine
 10
641.7369540142581
 20
70.22026872780736
 30
0.0
 11
639.2369540142581
 21
69.55039622780737
 31
0.0
  0
LINE
  5
202F
330
1F
100
AcDbEntity
  8
0
  6
ByBlock
 62
     0
370
    -2
100
AcDbLine
 10
641.7369540142581
 20
70.22026872780736
 30
0.0
 11
639.2369540142581
 21
70.22026872780736
 31
0.0
  0
LINE
  5
2030
330
1F
100
AcDbEntity
  8
0
  6
ByBlock
 62
     0
370
    -2
100
AcDbLine
 10
598.0869540142593
 20
69.55039622780737
 30
0.0
 11
595.5869540142592
 21
70.22026872780736
 31
0.0
  0
LINE
  5
2031
330
1F
100
AcDbEntity
  8
0
  6
ByBlock
 62
     0
370
    -2
100
AcDbLine
 10
595.5869540142592
 20
70.22026872780736
 30
0.0
 11
598.0869540142593
 21
70.89014122780736
 31
0.0
  0
LINE
  5
2032
330
1F
100
AcDbEntity
  8
0
  6
ByBlock
 62
     0
370
    -2
100
AcDbLine
 10
595.5869540142592
 20
70.22026872780736
 30
0.0
 11
598.0869540142593
 21
70.22026872780736
 31
0.0
  0
TEXT
  5
2033
330
1F
100
AcDbEntity
  8
0
 62
     4
100
AcDbText
 10
582.7668750483407
 20
99.2317098390608
 30
0.0
 40
3.0
  1
60
 50
90.0
100
AcDbText
  0
LINE
  5
2034
330
1F
100
AcDbEntity
  8
0
  6
ByBlock
 62
     0
370
    -2
100
AcDbLine
 10
584.0617475483408
 20
88.98170983906078
 30
0.0
 11
583.3918750483408
 21
86.48170983906078
 31
0.0
  0
LINE
  5
2035
330
1F
100
AcDbEntity
  8
0
  6
ByBlock
 62
     0
370
    -2
100
AcDbLine
 10
583.3918750483408
 20
86.48170983906078
 30
0.0
 11
582.7220025483407
 21
88.98170983906078
 31
0.0
  0
LINE
  5
2036
330
1F
100
AcDbEntity
  8
0
  6
ByBlock
 62
     0
370
    -2
100
AcDbLine
 10
583.3918750483408
 20
86.48170983906078
 30
0.0
 11
583.3918750483408
 21
88.98170983906078
 31
0.0
  0
LINE
  5
2037
330
1F
100
AcDbEntity
  8
0
  6
ByBlock
 62
     0
370
    -2
100
AcDbLine
 10
582.7220025483407
 20
113.9817098390608
 30
0.0
 11
583.3918750483408
 21
116.4817098390608
 31
0.0
  0
LINE
  5
2038
330
1F
100
AcDbEntity
  8
0
  6
ByBlock
 62
     0
370
    -2
100
AcDbLine
 10
583.3918750483408
 20
116.4817098390608
 30
0.0
 11
584.0617475483408
 21
113.9817098390608
 31
0.0
  0
LINE
  5
2039
330
1F
100
AcDbEntity
  8
0
  6
ByBlock
 62
     0
370
    -2
100
AcDbLine
 10
583.3918750483408
 20
116.4817098390608
 30
0.0
 11
583.3918750483408
 21
113.9817098390608
 31
0.0
  0
TEXT
  5
203A
330
1F
100
AcDbEntity
  8
0
 62
     4
100
AcDbText
 10
581.5859741119153
 20
182.8317098390606
 30
0.0
 40
3.0
  1
60
 50
90.0
100
AcDbText
  0
LINE
  5
203B
330
1F
100
AcDbEntity
  8
0
  6
ByBlock
 62
     0
370
    -2
100
AcDbLine
 10
582.8808466119153
 20
172.5817098390607
 30
0.0
 11
582.2109741119153
 21
170.0817098390607
 31
0.0
  0
LINE
  5
203C
330
1F
100
AcDbEntity
  8
0
  6
ByBlock
 62
     0
370
    -2
100
AcDbLine
 10
582.2109741119153
 20
170.0817098390607
 30
0.0
 11
581.5411016119153
 21
172.5817098390607
 31
0.0
  0
LINE
  5
203D
330
1F
100
AcDbEntity
  8
0
  6
ByBlock
 62
     0
370
    -2
100
AcDbLine
 10
582.2109741119153
 20
170.0817098390607
 30
0.0
 11
582.2109741119153
 21
172.5817098390607
 31
0.0
  0
LINE
  5
203E
330
1F
100
AcDbEntity
  8
0
  6
ByBlock
 62
     0
370
    -2
100
AcDbLine
 10
581.5411016119153
 20
197.5817098390608
 30
0.0
 11
582.2109741119153
 21
200.0817098390608
 31
0.0
  0
LINE
  5
203F
330
1F
100
AcDbEntity
  8
0
  6
ByBlock
 62
     0
370
    -2
100
AcDbLine
 10
582.2109741119153
 20
200.0817098390608
 30
0.0
 11
582.8808466119153
 21
197.5817098390608
 31
0.0
  0
LINE
  5
2040
330
1F
100
AcDbEntity
  8
0
  6
ByBlock
 62
     0
370
    -2
100
AcDbLine
 10
582.2109741119153
 20
200.0817098390608
 30
0.0
 11
582.2109741119153
 21
197.5817098390608
 31
0.0
  0
TEXT
  5
2041
330
1F
100
AcDbEntity
  8
0
 62
     4
100
AcDbText
 10
662.1911590180952
 20
215.6304291030538
 30
0.0
 40
3.0
  1
266
100
AcDbText
  0
LINE
  5
2042
330
1F
100
AcDbEntity
  8
0
  6
ByBlock
 62
     0
370
    -2
100
AcDbLine
 10
600.8869540142586
 20
214.3355566030538
 30
0.0
 11
598.3869540142586
 21
215.0054291030538
 31
0.0
  0
LINE
  5
2043
330
1F
100
AcDbEntity
  8
0
  6
ByBlock
 62
     0
370
    -2
100
AcDbLine
 10
598.3869540142586
 20
215.0054291030538
 30
0.0
 11
600.8869540142586
 21
215.6753016030538
 31
0.0
  0
LINE
  5
2044
330
1F
100
AcDbEntity
  8
0
  6
ByBlock
 62
     0
370
    -2
100
AcDbLine
 10
598.3869540142586
 20
215.0054291030538
 30
0.0
 11
600.8869540142586
 21
215.0054291030538
 31
0.0
  0
LINE
  5
2045
330
1F
100
AcDbEntity
  8
0
  6
ByBlock
 62
     0
370
    -2
100
AcDbLine
 10
728.8869540142587
 20
215.6753016030538
 30
0.0
 11
731.3869540142587
 21
215.0054291030538
 31
0.0
  0
LINE
  5
2046
330
1F
100
AcDbEntity
  8
0
  6
ByBlock
 62
     0
370
    -2
100
AcDbLine
 10
731.3869540142587
 20
215.0054291030538
 30
0.0
 11
728.8869540142587
 21
214.3355566030538
 31
0.0
  0
LINE
  5
2047
330
1F
100
AcDbEntity
  8
0
  6
ByBlock
 62
     0
370
    -2
100
AcDbLine
 10
731.3869540142587
 20
215.0054291030538
 30
0.0
 11
728.8869540142587
 21
215.0054291030538
 31
0.0
  0
ENDSEC
  0
SECTION
  2
OBJECTS
  0
DICTIONARY
  5
C
330
0
100
AcDbDictionary
281
     1
  3
ACAD_2007HEADERVARS_RT
350
204C
  3
ACAD_COLOR
350
73
  3
ACAD_GROUP
350
D
  3
ACAD_LAYOUT
350
1A
  3
ACAD_MATERIAL
350
72
  3
ACAD_MLEADERSTYLE
350
168
  3
ACAD_MLINESTYLE
350
17
  3
ACAD_PLOTSETTINGS
350
19
  3
ACAD_PLOTSTYLENAME
350
E
  3
ACAD_SCALELIST
350
156
  3
ACAD_TABLESTYLE
350
86
  3
ACAD_VISUALSTYLE
350
99
  3
ACDB_RECOMPOSE_DATA
350
204A
  3
AcDbVariableDictionary
350
66
  3
DWGPROPS
350
204B
  0
DICTIONARY
  5
DD
330
2
100
AcDbDictionary
280
     1
281
     1
  3
ACAD_LAYERSTATES
360
DE
  0
DICTIONARY
  5
72C
330
10
100
AcDbDictionary
280
     1
281
     1
  3
ADSK_XREC_LAYER_RECONCILED
360
72D
  0
DICTIONARY
  5
709
330
1F
100
AcDbDictionary
280
     1
281
     1
  3
ACAD_SORTENTS
360
70A
  0
DICTIONARY
  5
204C
102
{ACAD_REACTORS
330
C
102
}
330
C
100
AcDbDictionary
281
     1
  3
DIMARCSYM
350
204E
  3
DIMFXL
350
204D
  3
DIMJOGANG
350
204F
  0
DICTIONARY
  5
73
102
{ACAD_REACTORS
330
C
102
}
330
C
100
AcDbDictionary
281
     1
  0
DICTIONARY
  5
D
102
{ACAD_REACTORS
330
C
102
}
330
C
100
AcDbDictionary
281
     1
  0
DICTIONARY
  5
1A
102
{ACAD_REACTORS
330
C
102
}
330
C
100
AcDbDictionary
281
     1
  3
Model
350
22
  3
レイアウト1
350
59
  3
レイアウト2
350
5E
  0
DICTIONARY
  5
72
102
{ACAD_REACTORS
330
C
102
}
330
C
100
AcDbDictionary
281
     1
  3
ByBlock
350
97
  3
ByLayer
350
96
  3
Global
350
98
  0
DICTIONARY
  5
168
102
{ACAD_REACTORS
330
C
102
}
330
C
100
AcDbDictionary
281
     1
  3
Standard
350
169
  0
DICTIONARY
  5
17
102
{ACAD_REACTORS
330
C
102
}
330
C
100
AcDbDictionary
281
     1
  3
Standard
350
18
  0
DICTIONARY
  5
19
102
{ACAD_REACTORS
330
C
102
}
330
C
100
AcDbDictionary
281
     1
  0
ACDBDICTIONARYWDFLT
  5
E
102
{ACAD_REACTORS
330
C
102
}
330
C
100
AcDbDictionary
281
     1
  3
Normal
350
F
100
AcDbDictionaryWithDefault
340
F
  0
DICTIONARY
  5
156
102
{ACAD_REACTORS
330
C
102
}
330
C
100
AcDbDictionary
281
     1
  3
A0
350
157
  3
A1
350
158
  3
A2
350
159
  3
A3
350
15A
  3
A4
350
15B
  3
A5
350
15C
  3
A6
350
15D
  3
A7
350
15E
  3
A8
350
15F
  3
A9
350
160
  3
B0
350
161
  3
B1
350
162
  3
B2
350
163
  3
B3
350
164
  3
B4
350
165
  3
B5
350
166
  3
B6
350
167
  0
DICTIONARY
  5
86
102
{ACAD_REACTORS
330
C
102
}
330
C
100
AcDbDictionary
281
     1
  3
Standard
350
87
  3
部品表
350
1D59
  0
DICTIONARY
  5
99
102
{ACAD_REACTORS
330
C
102
}
330
C
100
AcDbDictionary
281
     1
  3
2dWireframe
350
9F
  3
3D Hidden
350
A1
  3
3dWireframe
350
A0
  3
Basic
350
9E
  3
Brighten
350
A5
  3
ColorChange
350
A9
  3
Conceptual
350
A2
  3
Dim
350
A4
  3
EdgeColorOff
350
155
  3
Facepattern
350
A8
  3
Flat
350
9A
  3
FlatWithEdges
350
9B
  3
Gouraud
350
9C
  3
GouraudWithEdges
350
9D
  3
Hidden
350
14D
  3
JitterOff
350
153
  3
Linepattern
350
A7
  3
OverhangOff
350
154
  3
Realistic
350
A3
  3
Shaded
350
152
  3
Shaded with edges
350
151
  3
Shades of Gray
350
14E
  3
Sketchy
350
14F
  3
Thicken
350
A6
  3
Wireframe
350
14C
  3
X-Ray
350
150
  0
XRECORD
  5
204A
102
{ACAD_REACTORS
330
C
102
}
330
C
100
AcDbXrecord
280
     1
 90
        1
330
87
330
1D59
  0
DICTIONARY
  5
66
102
{ACAD_REACTORS
330
C
102
}
330
C
100
AcDbDictionary
281
     1
  3
CANNOSCALE
350
732
  3
CMLEADERSTYLE
350
731
  3
CTABLESTYLE
350
89
  3
DIMASSOC
350
67
  3
HIDETEXT
350
6B
  3
INDEXCTL
350
734
  3
SORTENTS
350
733
  3
XCLIPFRAME
350
1E99
  0
XRECORD
  5
204B
102
{ACAD_REACTORS
330
C
102
}
330
C
100
AcDbXrecord
280
     1
  1
DWGPROPS COOKIE
  2

  3

  4

  6

  7

  8
imamura
  9

300
=
301
=
302
=
303
=
304
=
305
=
306
=
307
=
308
=
309
=
 40
0.035231400462963
 41
2455650.791382373
 42
2456856.610744225
  1

 90
        0
  0
DICTIONARY
  5
DE
102
{ACAD_REACTORS
330
DD
102
}
330
DD
100
AcDbDictionary
281
     1
  0
XRECORD
  5
72D
102
{ACAD_REACTORS
330
72C
102
}
330
72C
100
AcDbXrecord
280
     1
290
     1
  0
SORTENTSTABLE
  5
70A
102
{ACAD_REACTORS
330
709
102
}
330
709
100
AcDbSortentsTable
330
1F
331
1140
  5
1EFE
331
1F30
  5
1F3B
331
1151
  5
1F0F
331
10D0
  5
112F
331
1173
  5
1F4D
331
1162
  5
1F40
331
1F41
  5
1F28
331
118E
  5
1F68
331
117D
  5
1F57
331
1F63
  5
1539
331
2016
  5
11F1
331
10D9
  5
1136
331
1EDF
  5
1FF6
331
119F
  5
1F9D
331
1F96
  5
1155
331
1EF0
  5
1FC9
331
11B0
  5
1FAE
331
2027
  5
119D
331
2038
  5
1175
331
11F1
  5
1FD7
331
1F01
  5
1FB9
331
1FA0
  5
10AB
331
1F12
  5
1F8C
331
1FB1
  5
10BC
331
153B
  5
2001
331
1FC2
  5
10CD
331
1FD3
  5
10F1
331
1FE4
  5
1FF9
331
110D
  5
1D90
331
1D8E
  5
2033
331
111E
  5
1DA1
331
1FF5
  5
1557
331
155E
  5
2021
331
1D9F
  5
2044
331
112F
  5
1EED
331
2006
  5
153B
331
10AE
  5
110D
331
10BF
  5
111E
331
109D
  5
109D
331
108C
  5
108C
331
107B
  5
107B
331
1060
  5
1060
331
1026
  5
1026
331
1DA0
  5
2045
331
1130
  5
1EEE
331
1548
  5
200D
331
1F20
  5
1F76
331
1141
  5
1EFF
331
10C0
  5
111F
331
1F31
  5
1F3C
331
1152
  5
1F10
331
1174
  5
1F4E
331
1163
  5
1F41
331
1F42
  5
1F29
331
118F
  5
1F69
331
117E
  5
1F58
331
1F64
  5
153A
331
1EE0
  5
1FF7
331
11A0
  5
1F9E
331
2017
  5
11B3
331
1EF1
  5
1FCA
331
11B1
  5
1FAF
331
2028
  5
119E
331
2039
  5
1176
331
10DA
  5
1137
331
10D1
  5
1130
331
11F2
  5
1FD8
331
1F02
  5
1FBA
331
1FA1
  5
10AC
331
1F13
  5
1F8D
331
1FB2
  5
10BD
331
153C
  5
2002
331
1FC3
  5
10CE
331
1FD4
  5
10F2
331
1FE5
  5
1FFA
331
110E
  5
1D91
331
1D8F
  5
2034
331
111F
  5
1DA2
331
1FF6
  5
1558
331
155F
  5
2022
331
2007
  5
153C
331
10AF
  5
110E
331
109E
  5
109E
331
108D
  5
108D
331
107C
  5
107C
331
1061
  5
1061
331
1D90
  5
2035
331
1120
  5
1EDE
331
1560
  5
2023
331
1DA1
  5
2046
331
1131
  5
1EEF
331
2008
  5
153D
331
10B0
  5
110F
331
1F21
  5
1F77
331
1142
  5
1F00
331
1F32
  5
1F3D
331
1153
  5
1F11
331
1164
  5
1F42
331
1F43
  5
1F2A
331
1175
  5
1F4F
331
1F54
  5
1551
331
1190
  5
1F6A
331
117F
  5
1F59
331
1F76
  5
11AA
331
11A1
  5
1F9F
331
2018
  5
11B0
331
2029
  5
1194
331
10DB
  5
1138
331
10D2
  5
1131
331
10C1
  5
1120
331
1EF2
  5
1FCB
331
11B2
  5
1FB0
331
203A
  5
1166
331
11F3
  5
1FD9
331
1F03
  5
1FBB
331
1FA2
  5
10AD
331
1F14
  5
1F8E
331
1FB3
  5
10BE
331
153D
  5
2003
331
1FC4
  5
10CF
331
1FD5
  5
1100
331
1FE6
  5
1FEC
331
110F
  5
1D92
331
1FF7
  5
1559
331
109F
  5
109F
331
108E
  5
108E
331
107D
  5
107D
331
1062
  5
1062
331
1051
  5
1051
331
1550
  5
2013
331
1110
  5
1D93
331
1D91
  5
2036
331
1121
  5
1EDF
331
1FF8
  5
1554
331
1561
  5
2024
331
1DA2
  5
2047
331
1132
  5
1EF0
331
2009
  5
14F7
331
154A
  5
200E
331
10B1
  5
1110
331
1F22
  5
1F78
331
1143
  5
1F01
331
1F33
  5
1F2C
331
1154
  5
1F12
331
1165
  5
1F43
331
1F44
  5
1F2B
331
1176
  5
1F50
331
1F55
  5
1552
331
1180
  5
1F5A
331
1F77
  5
11AB
331
1191
  5
1F6B
331
1F88
  5
117B
331
11A2
  5
1FA0
331
2019
  5
11B1
331
202A
  5
1195
331
10DC
  5
1139
331
10D3
  5
1132
331
10C2
  5
1121
331
10A0
  5
10A0
331
1EF3
  5
1FCC
331
11B3
  5
1FB1
331
203B
  5
1160
331
11F4
  5
1FDA
331
1F04
  5
1FBC
331
1FA3
  5
10AE
331
1F15
  5
1F8F
331
1FB4
  5
10BF
331
1FC5
  5
10D0
331
1FD6
  5
1101
331
1FE7
  5
1FE9
331
108F
  5
108F
331
107E
  5
107E
331
1063
  5
1063
331
1052
  5
1052
331
1100
  5
1565
331
1FE8
  5
1FEA
331
1551
  5
2014
331
1111
  5
1D94
331
1D92
  5
2037
331
1122
  5
1EE0
331
1FF9
  5
1555
331
1562
  5
2025
331
180B
  5
2031
331
1133
  5
1EF1
331
200A
  5
14F3
331
10B2
  5
1111
331
1F23
  5
1F79
331
1F34
  5
1F2D
331
1144
  5
1F02
331
1155
  5
1F13
331
1166
  5
1F44
331
1F45
  5
1F1A
331
1177
  5
1F51
331
1F56
  5
1553
331
1181
  5
1F5B
331
1F78
  5
11AC
331
1192
  5
1F6C
331
1F89
  5
117F
331
11A3
  5
1FA1
331
201A
  5
11B2
331
202B
  5
119B
331
10DD
  5
113A
331
10C3
  5
1122
331
10A1
  5
10A1
331
1090
  5
1090
331
1EF4
  5
1FCD
331
203C
  5
1161
331
11F5
  5
1FDB
331
1F05
  5
1FBD
331
1FA4
  5
10AF
331
1F16
  5
1F90
331
1FB5
  5
10C0
331
153F
  5
2004
331
1FC6
  5
10D1
331
1FD7
  5
1102
331
107F
  5
107F
331
1064
  5
1064
331
1053
  5
1053
331
1540
  5
2005
331
1101
  5
1566
331
1FD8
  5
1103
331
1FE9
  5
1FEB
331
1552
  5
2015
331
1112
  5
1D95
331
1D93
  5
2038
331
1123
  5
1EE1
331
1FFA
  5
1556
331
1563
  5
2026
331
180C
  5
2032
331
1134
  5
1EF2
331
200B
  5
14F4
331
154C
  5
200F
331
10B3
  5
1112
331
1F24
  5
1F7A
331
1F35
  5
1F2E
331
1145
  5
1F03
331
1156
  5
1F14
331
1167
  5
1F45
331
1F46
  5
1F1B
331
1182
  5
1F5C
331
1F68
  5
11F8
331
1193
  5
1F6D
331
1F8A
  5
1180
331
1EE4
  5
1FE3
331
11A4
  5
1FA2
331
201B
  5
11AD
331
202C
  5
118D
331
10DE
  5
113B
331
10C4
  5
1123
331
10A2
  5
10A2
331
1091
  5
1091
331
1080
  5
1080
331
1EF5
  5
1FCE
331
11B5
  5
1FC2
331
203D
  5
1165
331
11F6
  5
1FDC
331
1F06
  5
1FBE
331
1FA5
  5
10B0
331
1F17
  5
1F91
331
1FB6
  5
10C1
331
1FC7
  5
10D2
331
1065
  5
1065
331
1054
  5
1054
331
1F18
  5
1F92
331
1541
  5
2006
331
1FC8
  5
10D3
331
1102
  5
1567
331
1FD9
  5
1104
331
1FEA
  5
1FE6
331
1553
  5
2016
331
1113
  5
1D96
331
1D94
  5
2039
331
1124
  5
1EE2
331
1FFB
  5
1550
331
1564
  5
2027
331
154D
  5
2010
331
1135
  5
1EF3
331
200C
  5
14F6
331
10B4
  5
1113
331
1F25
  5
1F7B
331
1146
  5
1F04
331
1F36
  5
1F2F
331
1157
  5
1F15
331
1F47
  5
1F1C
331
1194
  5
1F6E
331
1183
  5
1F5D
331
1F69
  5
11F9
331
1EE5
  5
1FE4
331
11A5
  5
1FA3
331
201C
  5
11AE
331
202D
  5
1187
331
10DF
  5
113C
331
10D6
  5
1133
331
10C5
  5
1124
331
10A3
  5
10A3
331
1092
  5
1092
331
1081
  5
1081
331
1070
  5
1070
331
1EF6
  5
1FCF
331
203E
  5
1156
331
11F7
  5
1FDD
331
1F07
  5
1FBF
331
1FA6
  5
10B1
331
1FB7
  5
10C2
331
1066
  5
1066
331
1055
  5
1055
331
14F0
  5
1FED
331
1F08
  5
1FC0
331
1F19
  5
1F96
331
1FB8
  5
10C3
331
1542
  5
2007
331
1FC9
  5
10D6
331
1103
  5
1568
331
1FDA
  5
1105
331
1FEB
  5
1FE7
331
1554
  5
2017
331
1114
  5
1D97
331
1D95
  5
203A
331
1125
  5
1EE3
331
1FFC
  5
154D
331
1565
  5
2028
331
154E
  5
2011
331
1136
  5
1EF4
331
200D
  5
14F0
331
10B5
  5
1114
331
1F26
  5
1F7C
331
1147
  5
1F05
331
1F37
  5
1F30
331
1F48
  5
1F1D
331
1158
  5
1F16
331
1195
  5
1F6F
331
1184
  5
1F5E
331
1F6A
  5
11FA
331
1EE6
  5
1FE5
331
11A6
  5
1FA4
331
201D
  5
11AF
331
202E
  5
1188
331
10D7
  5
1134
331
10C6
  5
1125
331
10A4
  5
10A4
331
1093
  5
1093
331
1082
  5
1082
331
1071
  5
1071
331
11B7
  5
1FD3
331
1EF7
  5
1FD0
331
203F
  5
1157
331
1FA7
  5
10B2
331
1067
  5
1067
331
1056
  5
1056
331
11B8
  5
1FD4
331
1EF8
  5
1FD1
331
2040
  5
115B
331
14F1
  5
1FEE
331
1F09
  5
1FC1
331
1FA8
  5
10B3
331
1F1A
  5
1F70
331
1FB9
  5
10C4
331
1543
  5
2008
331
1FCA
  5
10D7
331
1104
  5
1569
331
1FDB
  5
1106
331
1FEC
  5
1FE8
331
1555
  5
2018
331
1115
  5
1D98
331
1D96
  5
203B
331
1126
  5
1EE4
331
1FFD
  5
154E
331
1566
  5
2029
331
154F
  5
2012
331
1137
  5
1EF5
331
200E
  5
14F1
331
10B6
  5
1115
331
1F27
  5
1F7D
331
1F38
  5
1F31
331
1148
  5
1F06
331
1F49
  5
1F1E
331
1159
  5
1F17
331
1F5A
  5
1543
331
1F6B
  5
11FB
331
1185
  5
1F5F
331
1F7C
  5
11A0
331
11A7
  5
1FA5
331
201E
  5
11A9
331
202F
  5
1189
331
10C7
  5
1126
331
10A5
  5
10A5
331
1094
  5
1094
331
1083
  5
1083
331
1072
  5
1072
331
1068
  5
1068
331
1057
  5
1057
331
11A8
  5
1FA6
331
2030
  5
1181
331
11B9
  5
1FD5
331
1EF9
  5
1FD2
331
2041
  5
114F
331
14F2
  5
1FEF
331
1F0A
  5
1F81
331
1FA9
  5
10B4
331
1F1B
  5
1F71
331
1FBA
  5
10C5
331
1544
  5
2009
331
1FCB
  5
10D8
331
1105
  5
156A
331
1FDC
  5
1107
331
1556
  5
2019
331
1116
  5
1D99
331
1FED
  5
1564
331
1D97
  5
203C
331
1127
  5
1EE5
331
1FFE
  5
154F
331
1567
  5
202A
331
1138
  5
1EF6
331
200F
  5
14F2
331
10B7
  5
1116
331
1F28
  5
1F7E
331
1149
  5
1F07
331
1F39
  5
1F32
331
10F1
  5
11F6
331
1F4A
  5
1F1F
331
115A
  5
1F18
331
1F5B
  5
1544
331
1F6C
  5
11FC
331
1186
  5
1F60
331
1F7D
  5
11A1
331
1197
  5
1F80
331
1F8E
  5
1167
331
201F
  5
11A6
331
10C8
  5
1127
331
10A6
  5
10A6
331
1095
  5
1095
331
1084
  5
1084
331
1073
  5
1073
331
1069
  5
1069
331
1058
  5
1058
331
11A9
  5
1FA7
331
2020
  5
11A7
331
2031
  5
1185
331
1EFA
  5
1FB2
331
2042
  5
1149
331
14F3
  5
1FF0
331
1F0B
  5
1F82
331
1FAA
  5
10B5
331
1F1C
  5
1F72
331
1FBB
  5
10C6
331
1545
  5
200A
331
1FCC
  5
10D9
331
1106
  5
156B
331
1FDD
  5
1108
331
1557
  5
201A
331
1117
  5
1D9A
331
1FEE
  5
1561
331
1D98
  5
203D
331
1128
  5
1EE6
331
1FFF
  5
1548
331
1568
  5
202B
331
1139
  5
1EF7
331
10B8
  5
1117
331
1F29
  5
1F7F
331
114A
  5
1F08
331
1F3A
  5
1F33
331
10F2
  5
11F7
331
116C
  5
1F46
331
1F4B
  5
1F20
331
115B
  5
1F19
331
1F5C
  5
1545
331
1187
  5
1F61
331
1F7E
  5
11A2
331
1F8F
  5
116F
331
10C9
  5
1128
331
10A7
  5
10A7
331
1096
  5
1096
331
1085
  5
1085
331
1074
  5
1074
331
106A
  5
106A
331
1059
  5
1059
331
1188
  5
1F62
331
2010
  5
11F5
331
1199
  5
1F97
331
1F90
  5
1170
331
1EEA
  5
1FC3
331
11AA
  5
1FA8
331
2021
  5
11A8
331
2032
  5
1186
331
1EFB
  5
1FB3
331
2043
  5
114A
331
1F9A
  5
113D
331
14F4
  5
1FF1
331
1F0C
  5
1F83
331
1FAB
  5
10B6
331
1F1D
  5
1F73
331
1FBC
  5
10C7
331
1546
  5
200B
331
1FCD
  5
10DA
331
1107
  5
156C
331
1FDE
  5
1109
331
1558
  5
201B
331
1118
  5
1D9B
331
1FEF
  5
1562
331
11F8
  5
1FDE
331
1D99
  5
203E
331
1129
  5
1EE7
331
2000
  5
154A
331
1569
  5
202C
331
113A
  5
1EF8
331
10B9
  5
1118
331
1F2A
  5
1F35
331
1F3B
  5
1F34
331
114B
  5
1F09
331
116D
  5
1F47
331
1F4C
  5
1F21
331
1F5D
  5
1546
331
10CA
  5
1129
331
10A8
  5
10A8
331
1097
  5
1097
331
1086
  5
1086
331
1075
  5
1075
331
106B
  5
106B
331
105A
  5
105A
331
1189
  5
1F63
331
1178
  5
1F52
331
119A
  5
1F98
331
2011
  5
11F2
331
1EEB
  5
1FC4
331
11AB
  5
1FA9
331
2022
  5
11A3
331
2033
  5
117A
331
1EFC
  5
1FB4
331
2044
  5
114B
331
1F9B
  5
113E
331
1F0D
  5
1F84
331
1FAC
  5
10B7
331
1F1E
  5
1F74
331
1FBD
  5
10C8
331
1547
  5
200C
331
1FCE
  5
10DB
331
1FDF
  5
1FFE
331
1108
  5
156D
331
1559
  5
201C
331
1119
  5
1D9C
331
1FF0
  5
1563
331
11F9
  5
1FDF
331
1D9A
  5
203F
331
112A
  5
1EE8
331
2001
  5
154C
331
156A
  5
202D
331
113B
  5
1EF9
331
10BA
  5
1119
331
1F2B
  5
1F36
331
1F3C
  5
1F23
331
114C
  5
1F0A
331
116E
  5
1F48
331
1F4D
  5
1F22
331
1F5E
  5
1547
331
10CB
  5
112A
331
10A9
  5
10A9
331
1098
  5
1098
331
1087
  5
1087
331
1076
  5
1076
331
106C
  5
106C
331
105B
  5
105B
331
118A
  5
1F64
331
1179
  5
1F53
331
1F70
  5
11B5
331
2012
  5
11F3
331
119B
  5
1F99
331
1EEC
  5
1FC5
331
11AC
  5
1FAA
331
2023
  5
11A4
331
2034
  5
1177
331
1EFD
  5
1FB5
331
2045
  5
1143
331
1F9C
  5
113F
331
14F6
  5
1FF2
331
1F0E
  5
1F88
331
1FAD
  5
10B8
331
1F1F
  5
1F75
331
1FBE
  5
10C9
331
1FCF
  5
10DC
331
1FE0
  5
1FFB
331
1109
  5
180B
331
155A
  5
201D
331
111A
  5
1D9D
331
1FF1
  5
155E
331
11FA
  5
1FE0
331
1D9B
  5
2040
331
112B
  5
1EE9
331
2002
  5
1542
331
156B
  5
202E
331
113C
  5
1EFA
331
1F2C
  5
1F37
331
1F3D
  5
1F24
331
114D
  5
1F0B
331
116F
  5
1F49
331
1F4E
  5
155B
331
10CC
  5
112B
331
10BB
  5
111A
331
1099
  5
1099
331
1088
  5
1088
331
1077
  5
1077
331
106D
  5
106D
331
105C
  5
105C
331
1022
  5
1022
331
1170
  5
1F4A
331
117A
  5
1F54
331
1F71
  5
11B7
331
118B
  5
1F65
331
1F82
  5
118E
331
2013
  5
11F4
331
119C
  5
1F9A
331
1EED
  5
1FC6
331
11AD
  5
1FAB
331
2024
  5
11A5
331
2035
  5
1178
331
1EFE
  5
1FB6
331
2046
  5
1144
331
14F7
  5
1FF3
331
1F0F
  5
1F89
331
1FAE
  5
10B9
331
1FBF
  5
10CA
331
1FD0
  5
10DD
331
1FE1
  5
1FFC
331
110A
  5
180C
331
155B
  5
201E
331
111B
  5
1D9E
331
1FF2
  5
155F
331
11FB
  5
1FE1
331
1D9C
  5
2041
331
112C
  5
1EEA
331
2003
  5
153F
331
156C
  5
202F
331
10AB
  5
110A
331
113D
  5
1EFB
331
1F2D
  5
1F38
331
1F3E
  5
1F25
331
114E
  5
1F0C
331
1F4F
  5
155C
331
10CD
  5
112C
331
10BC
  5
111B
331
109A
  5
109A
331
1089
  5
1089
331
1078
  5
1078
331
106E
  5
106E
331
105D
  5
105D
331
1023
  5
1023
331
1160
  5
1F3E
331
1171
  5
1F4B
331
1F50
  5
155D
331
117B
  5
1F55
331
1F72
  5
11B8
331
118C
  5
1F66
331
1F83
  5
118F
331
2014
  5
11B9
331
119D
  5
1F9B
331
1F94
  5
1150
331
1EEE
  5
1FC7
331
11AE
  5
1FAC
331
2025
  5
119F
331
2036
  5
1179
331
1EFF
  5
1FB7
331
2047
  5
1145
331
14F8
  5
1FF4
331
1F10
  5
1F8A
331
1FAF
  5
10BA
331
1539
  5
1FFF
331
1FC0
  5
10CB
331
1FD1
  5
10DE
331
1FE2
  5
1FFD
331
110B
  5
1D8E
331
155C
  5
201F
331
111C
  5
1D9F
331
1FF3
  5
1560
331
11FC
  5
1FE2
331
1D9D
  5
2042
331
112D
  5
1EEB
331
2004
  5
1540
331
156D
  5
2030
331
10AC
  5
110B
331
113E
  5
1EFC
331
1F2E
  5
1F39
331
1F3F
  5
1F26
331
114F
  5
1F0D
331
10CE
  5
112D
331
10BD
  5
111C
331
109B
  5
109B
331
108A
  5
108A
331
1079
  5
1079
331
106F
  5
106F
331
105E
  5
105E
331
1150
  5
1F0E
331
1172
  5
1F4C
331
1161
  5
1F3F
331
1F40
  5
1F27
331
117C
  5
1F56
331
1F62
  5
14F8
331
118D
  5
1F67
331
1F84
  5
1193
331
2015
  5
11F0
331
1EDE
  5
1FF5
331
119E
  5
1F9C
331
1F95
  5
1151
331
1EEF
  5
1FC8
331
11AF
  5
1FAD
331
2026
  5
119C
331
2037
  5
1171
331
10D8
  5
1135
331
11F0
  5
1FD6
331
1F00
  5
1FB8
331
1F11
  5
1F8B
331
1FB0
  5
10BB
331
153A
  5
2000
331
1FC1
  5
10CC
331
1FD2
  5
10DF
331
1FE3
  5
1FF8
331
110C
  5
1D8F
331
155D
  5
2020
331
111D
  5
1DA0
331
1FF4
  5
155A
331
1D9E
  5
2043
331
112E
  5
1EEC
331
2005
  5
1541
331
10AD
  5
110C
331
113F
  5
1EFD
331
1F2F
  5
1F3A
331
10CF
  5
112E
331
10BE
  5
111D
331
109C
  5
109C
331
108B
  5
108B
331
107A
  5
107A
331
105F
  5
105F
  0
XRECORD
  5
204E
102
{ACAD_REACTORS
330
204C
102
}
330
204C
100
AcDbXrecord
280
     1
 70
     2
  0
XRECORD
  5
204D
102
{ACAD_REACTORS
330
204C
102
}
330
204C
100
AcDbXrecord
280
     1
 40
1.25
  0
XRECORD
  5
204F
102
{ACAD_REACTORS
330
204C
102
}
330
204C
100
AcDbXrecord
280
     1
 40
1.570796326794896
  0
LAYOUT
  5
22
102
{ACAD_XDICTIONARY
360
2050
102
}
102
{ACAD_REACTORS
330
1A
102
}
330
1A
100
AcDbPlotSettings
  1

  2
none_device
  4
ANSI_A_(8.50_x_11.00_Inches)
  6

 40
6.349999904632567
 41
19.04999923706055
 42
6.350006103515625
 43
19.04998779296875
 44
215.8999938964844
 45
279.3999938964844
 46
0.0
 47
0.0
 48
0.0
 49
0.0
140
0.0
141
0.0
142
1.0
143
2.584895464708373
 70
 11952
 72
     0
 73
     1
 74
     0
  7

 75
     0
147
0.3868628397755418
148
0.0
149
0.0
100
AcDbLayout
  1
Model
 70
     1
 71
     0
 10
0.0
 20
0.0
 11
12.0
 21
9.0
 12
0.0
 22
0.0
 32
0.0
 14
0.0
 24
0.0
 34
0.0
 15
0.0
 25
0.0
 35
0.0
146
0.0
 13
0.0
 23
0.0
 33
0.0
 16
1.0
 26
0.0
 36
0.0
 17
0.0
 27
1.0
 37
0.0
 76
     0
330
1F
331
94
  0
LAYOUT
  5
59
102
{ACAD_XDICTIONARY
360
2052
102
}
102
{ACAD_REACTORS
330
1A
102
}
330
1A
100
AcDbPlotSettings
  1

  2
None
  4

  6

 40
0.0
 41
0.0
 42
0.0
 43
0.0
 44
0.0
 45
0.0
 46
0.0
 47
0.0
 48
0.0
 49
0.0
140
0.0
141
0.0
142
1.0
143
1.0
 70
   688
 72
     0
 73
     0
 74
     5
  7

 75
    16
147
1.0
148
0.0
149
0.0
100
AcDbLayout
  1
レイアウト1
 70
     1
 71
     1
 10
0.0
 20
0.0
 11
12.0
 21
9.0
 12
0.0
 22
0.0
 32
0.0
 14
0.0
 24
0.0
 34
0.0
 15
0.0
 25
0.0
 35
0.0
146
0.0
 13
0.0
 23
0.0
 33
0.0
 16
1.0
 26
0.0
 36
0.0
 17
0.0
 27
1.0
 37
0.0
 76
     0
330
58
  0
LAYOUT
  5
5E
102
{ACAD_XDICTIONARY
360
2054
102
}
102
{ACAD_REACTORS
330
1A
102
}
330
1A
100
AcDbPlotSettings
  1

  2
None
  4

  6

 40
0.0
 41
0.0
 42
0.0
 43
0.0
 44
0.0
 45
0.0
 46
0.0
 47
0.0
 48
0.0
 49
0.0
140
0.0
141
0.0
142
1.0
143
1.0
 70
   688
 72
     0
 73
     0
 74
     5
  7

 75
    16
147
1.0
148
0.0
149
0.0
100
AcDbLayout
  1
レイアウト2
 70
     1
 71
     2
 10
0.0
 20
0.0
 11
12.0
 21
9.0
 12
0.0
 22
0.0
 32
0.0
 14
0.0
 24
0.0
 34
0.0
 15
0.0
 25
0.0
 35
0.0
146
0.0
 13
0.0
 23
0.0
 33
0.0
 16
1.0
 26
0.0
 36
0.0
 17
0.0
 27
1.0
 37
0.0
 76
     0
330
5D
  0
MATERIAL
  5
97
102
{ACAD_XDICTIONARY
360
747
102
}
102
{ACAD_REACTORS
330
72
102
}
330
72
100
AcDbMaterial
  1
ByBlock
  0
MATERIAL
  5
96
102
{ACAD_XDICTIONARY
360
745
102
}
102
{ACAD_REACTORS
330
72
102
}
330
72
100
AcDbMaterial
  1
ByLayer
  0
MATERIAL
  5
98
102
{ACAD_XDICTIONARY
360
749
102
}
102
{ACAD_REACTORS
330
72
102
}
330
72
100
AcDbMaterial
  1
Global
  0
MLEADERSTYLE
  5
169
102
{ACAD_REACTORS
330
168
102
}
330
168
100
AcDbMLeaderStyle
170
     2
171
     1
172
     0
 90
        2
 40
0.0
 41
0.0
173
     1
 91
-1056964608
340
14
 92
       -2
290
     1
 42
2.0
291
     1
 43
0.36
  3
Standard
 44
4.0
300

342
11
174
     1
178
     6
175
     1
176
     0
 93
-1056964608
 45
4.0
292
     0
297
     0
 46
4.0
 94
-1056964608
 47
1.0
 49
1.0
140
1.0
293
     1
141
0.0
294
     1
177
     0
142
1.0
295
     0
296
     0
143
0.125
1001
ACAD
1000
AcRTDxfName
1000
MLEADERSTYLE
1001
ACAD_MLEADERVER
1070
     2
  0
MLINESTYLE
  5
18
102
{ACAD_REACTORS
330
17
102
}
330
17
100
AcDbMlineStyle
  2
STANDARD
 70
     0
  3

 62
   256
 51
90.0
 52
90.0
 71
     2
 49
0.5
 62
   256
  6
BYLAYER
 49
-0.5
 62
   256
  6
BYLAYER
  0
ACDBPLACEHOLDER
  5
F
102
{ACAD_REACTORS
330
E
102
}
330
E
  0
SCALE
  5
157
102
{ACAD_REACTORS
330
156
102
}
330
156
100
AcDbScale
 70
     0
300
1:1
140
1.0
141
1.0
290
     1
1001
ACAD
1000
AcRTDxfName
1000
SCALE
  0
SCALE
  5
158
102
{ACAD_REACTORS
330
156
102
}
330
156
100
AcDbScale
 70
     0
300
1:2
140
1.0
141
2.0
290
     0
1001
ACAD
1000
AcRTDxfName
1000
SCALE
  0
SCALE
  5
159
102
{ACAD_REACTORS
330
156
102
}
330
156
100
AcDbScale
 70
     0
300
1:4
140
1.0
141
4.0
290
     0
1001
ACAD
1000
AcRTDxfName
1000
SCALE
  0
SCALE
  5
15A
102
{ACAD_REACTORS
330
156
102
}
330
156
100
AcDbScale
 70
     0
300
1:5
140
1.0
141
5.0
290
     0
1001
ACAD
1000
AcRTDxfName
1000
SCALE
  0
SCALE
  5
15B
102
{ACAD_REACTORS
330
156
102
}
330
156
100
AcDbScale
 70
     0
300
1:8
140
1.0
141
8.0
290
     0
1001
ACAD
1000
AcRTDxfName
1000
SCALE
  0
SCALE
  5
15C
102
{ACAD_REACTORS
330
156
102
}
330
156
100
AcDbScale
 70
     0
300
1:10
140
1.0
141
10.0
290
     0
1001
ACAD
1000
AcRTDxfName
1000
SCALE
  0
SCALE
  5
15D
102
{ACAD_REACTORS
330
156
102
}
330
156
100
AcDbScale
 70
     0
300
1:16
140
1.0
141
16.0
290
     0
1001
ACAD
1000
AcRTDxfName
1000
SCALE
  0
SCALE
  5
15E
102
{ACAD_REACTORS
330
156
102
}
330
156
100
AcDbScale
 70
     0
300
1:20
140
1.0
141
20.0
290
     0
1001
ACAD
1000
AcRTDxfName
1000
SCALE
  0
SCALE
  5
15F
102
{ACAD_REACTORS
330
156
102
}
330
156
100
AcDbScale
 70
     0
300
1:30
140
1.0
141
30.0
290
     0
1001
ACAD
1000
AcRTDxfName
1000
SCALE
  0
SCALE
  5
160
102
{ACAD_REACTORS
330
156
102
}
330
156
100
AcDbScale
 70
     0
300
1:40
140
1.0
141
40.0
290
     0
1001
ACAD
1000
AcRTDxfName
1000
SCALE
  0
SCALE
  5
161
102
{ACAD_REACTORS
330
156
102
}
330
156
100
AcDbScale
 70
     0
300
1:50
140
1.0
141
50.0
290
     0
1001
ACAD
1000
AcRTDxfName
1000
SCALE
  0
SCALE
  5
162
102
{ACAD_REACTORS
330
156
102
}
330
156
100
AcDbScale
 70
     0
300
1:100
140
1.0
141
100.0
290
     0
1001
ACAD
1000
AcRTDxfName
1000
SCALE
  0
SCALE
  5
163
102
{ACAD_REACTORS
330
156
102
}
330
156
100
AcDbScale
 70
     0
300
2:1
140
2.0
141
1.0
290
     0
1001
ACAD
1000
AcRTDxfName
1000
SCALE
  0
SCALE
  5
164
102
{ACAD_REACTORS
330
156
102
}
330
156
100
AcDbScale
 70
     0
300
4:1
140
4.0
141
1.0
290
     0
1001
ACAD
1000
AcRTDxfName
1000
SCALE
  0
SCALE
  5
165
102
{ACAD_REACTORS
330
156
102
}
330
156
100
AcDbScale
 70
     0
300
8:1
140
8.0
141
1.0
290
     0
1001
ACAD
1000
AcRTDxfName
1000
SCALE
  0
SCALE
  5
166
102
{ACAD_REACTORS
330
156
102
}
330
156
100
AcDbScale
 70
     0
300
10:1
140
10.0
141
1.0
290
     0
1001
ACAD
1000
AcRTDxfName
1000
SCALE
  0
SCALE
  5
167
102
{ACAD_REACTORS
330
156
102
}
330
156
100
AcDbScale
 70
     0
300
100:1
140
100.0
141
1.0
290
     0
1001
ACAD
1000
AcRTDxfName
1000
SCALE
  0
TABLESTYLE
  5
87
102
{ACAD_XDICTIONARY
360
736
102
}
102
{ACAD_REACTORS
330
86
102
}
330
86
100
AcDbTableStyle
  3
Standard
 70
     0
 71
     0
 40
0.06
 41
0.06
280
     0
281
     0
  7
Standard
140
0.18
170
     2
 62
     0
 63
     7
283
     0
274
    -2
284
     1
 64
     0
275
    -2
285
     1
 65
     0
276
    -2
286
     1
 66
     0
277
    -2
287
     1
 67
     0
278
    -2
288
     1
 68
     0
279
    -2
289
     1
 69
     0
  7
Standard
140
0.25
170
     5
 62
     0
 63
     7
283
     0
274
    -2
284
     1
 64
     0
275
    -2
285
     1
 65
     0
276
    -2
286
     1
 66
     0
277
    -2
287
     1
 67
     0
278
    -2
288
     1
 68
     0
279
    -2
289
     1
 69
     0
  7
Standard
140
0.18
170
     5
 62
     0
 63
     7
283
     0
274
    -2
284
     1
 64
     0
275
    -2
285
     1
 65
     0
276
    -2
286
     1
 66
     0
277
    -2
287
     1
 67
     0
278
    -2
288
     1
 68
     0
279
    -2
289
     1
 69
     0
  0
TABLESTYLE
  5
1D59
102
{ACAD_XDICTIONARY
360
1D5A
102
}
102
{ACAD_REACTORS
330
86
102
}
330
86
100
AcDbTableStyle
  3
Standard
 70
     1
 71
     0
 40
1.5
 41
0.5
280
     0
281
     0
  7
高3.2
140
0.18
170
     7
 62
     3
 63
     7
283
     0
274
    -2
284
     1
 64
     3
275
    -2
285
     1
 65
     7
276
    -2
286
     1
 66
     3
277
    -2
287
     1
 67
     3
278
    -2
288
     1
 68
     7
279
    -2
289
     1
 69
     3
  7
高3.2
140
0.25
170
     8
 62
     3
 63
     7
283
     0
274
    -2
284
     1
 64
     0
275
    -2
285
     1
 65
     0
276
    -2
286
     1
 66
     0
277
    -2
287
     1
 67
     0
278
    -2
288
     1
 68
     0
279
    -2
289
     1
 69
     0
  7
高3.2
140
0.18
170
     7
 62
     3
 63
     7
283
     0
274
    -2
284
     1
 64
     3
275
    -2
285
     1
 65
     7
276
    -2
286
     1
 66
     3
277
    -2
287
     1
 67
     3
278
    -2
288
     1
 68
     7
279
    -2
289
     1
 69
     3
  0
VISUALSTYLE
  5
9F
102
{ACAD_XDICTIONARY
360
2061
102
}
102
{ACAD_REACTORS
330
99
102
}
330
99
100
AcDbVisualStyle
  2

 70
     4
 71
     0
 72
     2
 73
     1
 90
        0
 40
-0.6
 41
-30.0
 62
     5
 63
     7
 74
     1
 91
        4
 64
     7
 65
   257
 75
     1
175
     1
 42
1.0
 92
        0
 66
   257
 43
1.0
 76
     1
 77
     6
 78
     2
 67
     7
 79
     5
170
     0
171
     0
290
     0
174
     0
 93
        1
 44
0.0
173
     0
291
     0
 45
0.0
1001
ACAD
1000
AcDbSavedByObjectVersion
1070
     0
  0
VISUALSTYLE
  5
A1
102
{ACAD_XDICTIONARY
360
2065
102
}
102
{ACAD_REACTORS
330
99
102
}
330
99
100
AcDbVisualStyle
  2

 70
     6
 71
     1
 72
     2
 73
     2
 90
        0
 40
-0.6
 41
-30.0
 62
     5
 63
     7
 74
     2
 91
        2
 64
     7
 65
   257
 75
     2
175
     1
 42
40.0
 92
        0
 66
   257
 43
1.0
 76
     1
 77
     6
 78
     2
 67
     7
 79
     3
170
     0
171
     0
290
     0
174
     0
 93
        1
 44
0.0
173
     0
291
     0
 45
0.0
1001
ACAD
1000
AcDbSavedByObjectVersion
1070
     0
  0
VISUALSTYLE
  5
A0
102
{ACAD_XDICTIONARY
360
2063
102
}
102
{ACAD_REACTORS
330
99
102
}
330
99
100
AcDbVisualStyle
  2

 70
     5
 71
     0
 72
     2
 73
     1
 90
        0
 40
-0.6
 41
-30.0
 62
     5
 63
     7
 74
     1
 91
        4
 64
     7
 65
   257
 75
     1
175
     1
 42
1.0
 92
        0
 66
   257
 43
1.0
 76
     1
 77
     6
 78
     2
 67
     7
 79
     5
170
     0
171
     0
290
     0
174
     0
 93
        1
 44
0.0
173
     0
291
     0
 45
0.0
1001
ACAD
1000
AcDbSavedByObjectVersion
1070
     0
  0
VISUALSTYLE
  5
9E
102
{ACAD_XDICTIONARY
360
205F
102
}
102
{ACAD_REACTORS
330
99
102
}
330
99
100
AcDbVisualStyle
  2

 70
     7
 71
     1
 72
     0
 73
     1
 90
        0
 40
-0.6
 41
-30.0
 62
     5
 63
     7
 74
     0
 91
        4
 64
     7
 65
   257
 75
     1
175
     1
 42
1.0
 92
        8
 66
     7
 43
1.0
 76
     1
 77
     6
 78
     2
 67
     7
 79
     5
170
     0
171
     0
290
     0
174
     0
 93
        1
 44
0.0
173
     0
291
     1
 45
0.0
1001
ACAD
1000
AcDbSavedByObjectVersion
1070
     0
  0
VISUALSTYLE
  5
A5
102
{ACAD_XDICTIONARY
360
206D
102
}
102
{ACAD_REACTORS
330
99
102
}
330
99
100
AcDbVisualStyle
  2

 70
    12
 71
     2
 72
     2
 73
     1
 90
        0
 40
-0.6
 41
-30.0
 62
     5
 63
     7
 74
     1
 91
        4
 64
     7
 65
   257
 75
     1
175
     1
 42
1.0
 92
        8
 66
     7
 43
1.0
 76
     1
 77
     6
 78
     2
 67
     7
 79
     5
170
     0
171
     0
290
     0
174
     0
 93
        1
 44
50.0
173
     0
291
     1
 45
0.0
1001
ACAD
1000
AcDbSavedByObjectVersion
1070
     0
  0
VISUALSTYLE
  5
A9
102
{ACAD_XDICTIONARY
360
2075
102
}
102
{ACAD_REACTORS
330
99
102
}
330
99
100
AcDbVisualStyle
  2

 70
    16
 71
     2
 72
     2
 73
     3
 90
        0
 40
-0.6
 41
-30.0
 62
     5
 63
     8
 74
     1
 91
        4
 64
     7
 65
   257
 75
     1
175
     1
 42
1.0
 92
        8
 66
     8
 43
1.0
 76
     1
 77
     6
 78
     2
 67
     7
 79
     5
170
     0
171
     0
290
     0
174
     0
 93
        1
 44
0.0
173
     0
291
     1
 45
0.0
1001
ACAD
1000
AcDbSavedByObjectVersion
1070
     0
  0
VISUALSTYLE
  5
A2
102
{ACAD_XDICTIONARY
360
2067
102
}
102
{ACAD_REACTORS
330
99
102
}
330
99
100
AcDbVisualStyle
  2

 70
     9
 71
     3
 72
     2
 73
     1
 90
        0
 40
-0.6
 41
-30.0
 62
     5
 63
     7
 74
     2
 91
        2
 64
     7
 65
   257
 75
     1
175
     1
 42
40.0
 92
        8
 66
     7
 43
1.0
 76
     1
 77
     6
 78
     2
 67
     7
 79
     3
170
     0
171
     0
290
     0
174
     0
 93
        1
 44
0.0
173
     0
291
     0
 45
0.0
1001
ACAD
1000
AcDbSavedByObjectVersion
1070
     0
  0
VISUALSTYLE
  5
A4
102
{ACAD_XDICTIONARY
360
206B
102
}
102
{ACAD_REACTORS
330
99
102
}
330
99
100
AcDbVisualStyle
  2

 70
    11
 71
     2
 72
     2
 73
     1
 90
        0
 40
-0.6
 41
-30.0
 62
     5
 63
     7
 74
     1
 91
        4
 64
     7
 65
   257
 75
     1
175
     1
 42
1.0
 92
        8
 66
     7
 43
1.0
 76
     1
 77
     6
 78
     2
 67
     7
 79
     5
170
     0
171
     0
290
     0
174
     0
 93
        1
 44
-50.0
173
     0
291
     1
 45
0.0
1001
ACAD
1000
AcDbSavedByObjectVersion
1070
     0
  0
VISUALSTYLE
  5
155
102
{ACAD_XDICTIONARY
360
2089
102
}
102
{ACAD_REACTORS
330
99
102
}
330
99
100
AcDbVisualStyle
  2

 70
    22
 71
     2
 72
     2
 73
     0
 90
        0
 40
-0.6
 41
-30.0
 62
     5
 63
     7
 74
     1
 91
        4
 64
     7
 65
   257
 75
     1
175
     1
 42
1.0
 92
        8
 66
     7
 43
1.0
 76
     1
 77
     6
 78
     2
 67
     7
 79
     5
170
     0
171
     0
290
     0
174
     0
 93
        1
 44
0.0
173
     0
291
     1
 45
0.0
1001
ACAD
1000
AcDbSavedByObjectVersion
1070
     0
  0
VISUALSTYLE
  5
A8
102
{ACAD_XDICTIONARY
360
2073
102
}
102
{ACAD_REACTORS
330
99
102
}
330
99
100
AcDbVisualStyle
  2

 70
    15
 71
     2
 72
     2
 73
     1
 90
        0
 40
-0.6
 41
-30.0
 62
     5
 63
     7
 74
     1
 91
        4
 64
     7
 65
   257
 75
     1
175
     1
 42
1.0
 92
        8
 66
     7
 43
1.0
 76
     1
 77
     6
 78
     2
 67
     7
 79
     5
170
     0
171
     0
290
     0
174
     0
 93
        1
 44
0.0
173
     0
291
     1
 45
0.0
1001
ACAD
1000
AcDbSavedByObjectVersion
1070
     0
  0
VISUALSTYLE
  5
9A
102
{ACAD_XDICTIONARY
360
2057
102
}
102
{ACAD_REACTORS
330
99
102
}
330
99
100
AcDbVisualStyle
  2

 70
     0
 71
     2
 72
     1
 73
     1
 90
        2
 40
-0.6
 41
30.0
 62
     5
 63
     7
 74
     0
 91
        4
 64
     7
 65
   257
 75
     1
175
     1
 42
1.0
 92
        8
 66
     7
 43
1.0
 76
     1
 77
     6
 78
     2
 67
     7
 79
     5
170
     0
171
     0
290
     0
174
     0
 93
        1
 44
0.0
173
     0
291
     1
 45
0.0
1001
ACAD
1000
AcDbSavedByObjectVersion
1070
     0
  0
VISUALSTYLE
  5
9B
102
{ACAD_XDICTIONARY
360
2059
102
}
102
{ACAD_REACTORS
330
99
102
}
330
99
100
AcDbVisualStyle
  2

 70
     1
 71
     2
 72
     1
 73
     1
 90
        2
 40
-0.6
 41
30.0
 62
     5
 63
     7
 74
     1
 91
        4
 64
     7
 65
   257
 75
     1
175
     1
 42
1.0
 92
        0
 66
   257
 43
1.0
 76
     1
 77
     6
 78
     2
 67
     7
 79
     5
170
     0
171
     0
290
     0
174
     0
 93
        1
 44
0.0
173
     0
291
     1
 45
0.0
1001
ACAD
1000
AcDbSavedByObjectVersion
1070
     0
  0
VISUALSTYLE
  5
9C
102
{ACAD_XDICTIONARY
360
205B
102
}
102
{ACAD_REACTORS
330
99
102
}
330
99
100
AcDbVisualStyle
  2

 70
     2
 71
     2
 72
     2
 73
     1
 90
        2
 40
-0.6
 41
30.0
 62
     5
 63
     7
 74
     0
 91
        4
 64
     7
 65
   257
 75
     1
175
     1
 42
1.0
 92
        0
 66
     7
 43
1.0
 76
     1
 77
     6
 78
     2
 67
     7
 79
     5
170
     0
171
     0
290
     0
174
     0
 93
        1
 44
0.0
173
     0
291
     1
 45
0.0
1001
ACAD
1000
AcDbSavedByObjectVersion
1070
     0
  0
VISUALSTYLE
  5
9D
102
{ACAD_XDICTIONARY
360
205D
102
}
102
{ACAD_REACTORS
330
99
102
}
330
99
100
AcDbVisualStyle
  2

 70
     3
 71
     2
 72
     2
 73
     1
 90
        2
 40
-0.6
 41
30.0
 62
     5
 63
     7
 74
     1
 91
        4
 64
     7
 65
   257
 75
     1
175
     1
 42
1.0
 92
        0
 66
   257
 43
1.0
 76
     1
 77
     6
 78
     2
 67
     7
 79
     5
170
     0
171
     0
290
     0
174
     0
 93
        1
 44
0.0
173
     0
291
     1
 45
0.0
1001
ACAD
1000
AcDbSavedByObjectVersion
1070
     0
  0
VISUALSTYLE
  5
14D
102
{ACAD_XDICTIONARY
360
2079
102
}
102
{ACAD_REACTORS
330
99
102
}
330
99
100
AcDbVisualStyle
  2

 70
     6
 71
     1
 72
     2
 73
     2
 90
        0
 40
-0.6
 41
-30.0
 62
     5
 63
     7
 74
     2
 91
        2
 64
     7
 65
   257
 75
     2
175
     1
 42
40.0
 92
        0
 66
   257
 43
1.0
 76
     1
 77
     6
 78
     2
 67
     7
 79
     3
170
     0
171
     0
290
     0
174
     0
 93
        1
 44
0.0
173
     0
291
     0
 45
0.0
1001
ACAD
1000
AcDbSavedByObjectVersion
1070
     0
  0
VISUALSTYLE
  5
153
102
{ACAD_XDICTIONARY
360
2085
102
}
102
{ACAD_REACTORS
330
99
102
}
330
99
100
AcDbVisualStyle
  2

 70
    20
 71
     2
 72
     2
 73
     0
 90
        0
 40
-0.6
 41
-30.0
 62
     5
 63
     7
 74
     1
 91
        4
 64
     7
 65
   257
 75
     1
175
     1
 42
1.0
 92
       10
 66
     7
 43
1.0
 76
     1
 77
     6
 78
     2
 67
     7
 79
     5
170
     0
171
     0
290
     0
174
     0
 93
        1
 44
0.0
173
     0
291
     1
 45
0.0
1001
ACAD
1000
AcDbSavedByObjectVersion
1070
     0
  0
VISUALSTYLE
  5
A7
102
{ACAD_XDICTIONARY
360
2071
102
}
102
{ACAD_REACTORS
330
99
102
}
330
99
100
AcDbVisualStyle
  2

 70
    14
 71
     2
 72
     2
 73
     1
 90
        0
 40
-0.6
 41
-30.0
 62
     5
 63
     7
 74
     1
 91
        4
 64
     7
 65
   257
 75
     7
175
     7
 42
1.0
 92
        8
 66
     7
 43
1.0
 76
     1
 77
     6
 78
     2
 67
     7
 79
     5
170
     0
171
     0
290
     0
174
     0
 93
        1
 44
0.0
173
     0
291
     1
 45
0.0
1001
ACAD
1000
AcDbSavedByObjectVersion
1070
     0
  0
VISUALSTYLE
  5
154
102
{ACAD_XDICTIONARY
360
2087
102
}
102
{ACAD_REACTORS
330
99
102
}
330
99
100
AcDbVisualStyle
  2

 70
    21
 71
     2
 72
     2
 73
     0
 90
        0
 40
-0.6
 41
-30.0
 62
     5
 63
     7
 74
     1
 91
        4
 64
     7
 65
   257
 75
     1
175
     1
 42
1.0
 92
        9
 66
     7
 43
1.0
 76
     1
 77
     6
 78
     2
 67
     7
 79
     5
170
     0
171
     0
290
     0
174
     0
 93
        1
 44
0.0
173
     0
291
     1
 45
0.0
1001
ACAD
1000
AcDbSavedByObjectVersion
1070
     0
  0
VISUALSTYLE
  5
A3
102
{ACAD_XDICTIONARY
360
2069
102
}
102
{ACAD_REACTORS
330
99
102
}
330
99
100
AcDbVisualStyle
  2

 70
     8
 71
     2
 72
     2
 73
     1
 90
        0
 40
-0.6
 41
-30.0
 62
     5
 63
     7
 74
     1
 91
        0
 64
     7
 65
   257
 75
     1
175
     1
 42
1.0
 92
        8
 66
     8
 43
1.0
 76
     1
 77
     6
 78
     2
 67
     7
 79
     5
170
     0
171
     0
290
     0
174
     0
 93
       13
 44
0.0
173
     0
291
     0
 45
0.0
1001
ACAD
1000
AcDbSavedByObjectVersion
1070
     0
  0
VISUALSTYLE
  5
152
102
{ACAD_XDICTIONARY
360
2083
102
}
102
{ACAD_REACTORS
330
99
102
}
330
99
100
AcDbVisualStyle
  2

 70
    27
 71
     2
 72
     2
 73
     1
 90
        2
 40
-0.6
 41
30.0
 62
     5
 63
     7
 74
     0
 91
        4
 64
     7
 65
   257
 75
     1
175
     1
 42
1.0
 92
        8
 66
   257
 43
1.0
 76
     1
 77
     6
 78
     2
 67
     8
 79
     3
170
     0
171
     0
290
     0
174
     0
 93
        5
 44
0.0
173
     0
291
     0
 45
0.0
1001
ACAD
1000
AcDbSavedByObjectVersion
1070
     0
  0
VISUALSTYLE
  5
151
102
{ACAD_XDICTIONARY
360
2081
102
}
102
{ACAD_REACTORS
330
99
102
}
330
99
100
AcDbVisualStyle
  2

 70
    26
 71
     2
 72
     2
 73
     1
 90
        2
 40
-0.6
 41
30.0
 62
     5
 63
     7
 74
     1
 91
       10
 64
     7
 65
   257
 75
     2
175
     1
 42
1.0
 92
        8
 66
   257
 43
1.0
 76
     1
 77
     6
 78
     2
 67
     7
 79
     3
170
     0
171
     0
290
     0
174
     0
 93
        5
 44
0.0
173
     0
291
     0
 45
0.0
1001
ACAD
1000
AcDbSavedByObjectVersion
1070
     0
  0
VISUALSTYLE
  5
14E
102
{ACAD_XDICTIONARY
360
207B
102
}
102
{ACAD_REACTORS
330
99
102
}
330
99
100
AcDbVisualStyle
  2

 70
    23
 71
     2
 72
     2
 73
     3
 90
        0
 40
-0.6
 41
-30.0
 62
     5
 63
     7
 74
     2
 91
        2
 64
     7
 65
     7
 75
     1
175
     1
 42
40.0
 92
        8
 66
     7
 43
1.0
 76
     1
 77
     6
 78
     2
 67
     7
 79
     3
170
     0
171
     0
290
     0
174
     0
 93
        1
 44
0.0
173
     0
291
     0
 45
0.0
1001
ACAD
1000
AcDbSavedByObjectVersion
1070
     0
  0
VISUALSTYLE
  5
14F
102
{ACAD_XDICTIONARY
360
207D
102
}
102
{ACAD_REACTORS
330
99
102
}
330
99
100
AcDbVisualStyle
  2

 70
    24
 71
     1
 72
     2
 73
     2
 90
        0
 40
-0.6
 41
-30.0
 62
     5
 63
     7
 74
     2
 91
        2
 64
     7
 65
     7
 75
     1
175
     1
 42
40.0
 92
       11
 66
     7
 43
1.0
 76
     1
 77
     6
 78
     2
 67
     7
 79
     6
170
     0
171
     0
290
     0
174
     0
 93
        1
 44
0.0
173
     0
291
     0
 45
0.0
1001
ACAD
1000
AcDbSavedByObjectVersion
1070
     0
  0
VISUALSTYLE
  5
A6
102
{ACAD_XDICTIONARY
360
206F
102
}
102
{ACAD_REACTORS
330
99
102
}
330
99
100
AcDbVisualStyle
  2

 70
    13
 71
     2
 72
     2
 73
     1
 90
        0
 40
-0.6
 41
-30.0
 62
     5
 63
     7
 74
     1
 91
        4
 64
     7
 65
   257
 75
     1
175
     1
 42
1.0
 92
       12
 66
     7
 43
1.0
 76
     1
 77
     6
 78
     2
 67
     7
 79
     5
170
     0
171
     0
290
     0
174
     0
 93
        1
 44
0.0
173
     0
291
     1
 45
0.0
1001
ACAD
1000
AcDbSavedByObjectVersion
1070
     0
  0
VISUALSTYLE
  5
14C
102
{ACAD_XDICTIONARY
360
2077
102
}
102
{ACAD_REACTORS
330
99
102
}
330
99
100
AcDbVisualStyle
  2

 70
     5
 71
     0
 72
     2
 73
     0
 90
        0
 40
-0.6
 41
-30.0
 62
     5
 63
     7
 74
     1
 91
        4
 64
     7
 65
   257
 75
     1
175
     1
 42
1.0
 92
        0
 66
   257
 43
1.0
 76
     1
 77
     6
 78
     2
 67
     7
 79
     3
170
     0
171
     0
290
     0
174
     0
 93
        1
 44
0.0
173
     0
291
     0
 45
0.0
1001
ACAD
1000
AcDbSavedByObjectVersion
1070
     0
  0
VISUALSTYLE
  5
150
102
{ACAD_XDICTIONARY
360
207F
102
}
102
{ACAD_REACTORS
330
99
102
}
330
99
100
AcDbVisualStyle
  2

 70
    25
 71
     2
 72
     2
 73
     1
 90
        1
 40
0.5
 41
-30.0
 62
     5
 63
     7
 74
     1
 91
        0
 64
     7
 65
   257
 75
     1
175
     1
 42
1.0
 92
        8
 66
     7
 43
1.0
 76
     1
 77
     6
 78
     2
 67
     7
 79
     3
170
     0
171
     0
290
     0
174
     0
 93
       13
 44
0.0
173
     0
291
     0
 45
0.0
1001
ACAD
1000
AcDbSavedByObjectVersion
1070
     0
  0
DICTIONARYVAR
  5
732
102
{ACAD_REACTORS
330
66
102
}
330
66
100
DictionaryVariables
280
     0
  1
1:1
  0
DICTIONARYVAR
  5
731
102
{ACAD_REACTORS
330
66
102
}
330
66
100
DictionaryVariables
280
     0
  1
STANDARD
  0
DICTIONARYVAR
  5
89
102
{ACAD_REACTORS
330
66
102
}
330
66
100
DictionaryVariables
280
     0
  1
STANDARD
  0
DICTIONARYVAR
  5
67
102
{ACAD_REACTORS
330
66
102
}
330
66
100
DictionaryVariables
280
     0
  1
2
  0
DICTIONARYVAR
  5
6B
102
{ACAD_REACTORS
330
66
102
}
330
66
100
DictionaryVariables
280
     0
  1
1
  0
DICTIONARYVAR
  5
734
102
{ACAD_REACTORS
330
66
102
}
330
66
100
DictionaryVariables
280
     0
  1
0
  0
DICTIONARYVAR
  5
733
102
{ACAD_REACTORS
330
66
102
}
330
66
100
DictionaryVariables
280
     0
  1
127
  0
DICTIONARYVAR
  5
1E99
102
{ACAD_REACTORS
330
66
102
}
330
66
100
DictionaryVariables
280
     0
  1
2
  0
DICTIONARY
  5
2050
330
22
100
AcDbDictionary
280
     1
281
     1
  3
ACAD_XREC_ROUNDTRIP
360
2051
  0
DICTIONARY
  5
2052
330
59
100
AcDbDictionary
280
     1
281
     1
  3
ACAD_XREC_ROUNDTRIP
360
2053
  0
DICTIONARY
  5
2054
330
5E
100
AcDbDictionary
280
     1
281
     1
  3
ACAD_XREC_ROUNDTRIP
360
2055
  0
DICTIONARY
  5
747
330
97
100
AcDbDictionary
280
     1
281
     1
  3
ACAD_XREC_ROUNDTRIP
360
748
  0
DICTIONARY
  5
745
330
96
100
AcDbDictionary
280
     1
281
     1
  3
ACAD_XREC_ROUNDTRIP
360
746
  0
DICTIONARY
  5
749
330
98
100
AcDbDictionary
280
     1
281
     1
  3
ACAD_XREC_ROUNDTRIP
360
74A
  0
DICTIONARY
  5
736
330
87
100
AcDbDictionary
280
     1
281
     1
  3
ACAD_ROUNDTRIP_2008_TABLESTYLE_CELLSTYLEMAP
360
2048
  3
ACAD_XREC_ROUNDTRIP
360
2056
  0
DICTIONARY
  5
1D5A
330
1D59
100
AcDbDictionary
280
     1
281
     1
  3
ACAD_ROUNDTRIP_2008_TABLESTYLE_CELLSTYLEMAP
360
2049
  3
ACAD_XREC_ROUNDTRIP
360
208B
  0
DICTIONARY
  5
2061
330
9F
100
AcDbDictionary
280
     1
281
     1
  3
ACAD_XREC_ROUNDTRIP
360
2062
  0
DICTIONARY
  5
2065
330
A1
100
AcDbDictionary
280
     1
281
     1
  3
ACAD_XREC_ROUNDTRIP
360
2066
  0
DICTIONARY
  5
2063
330
A0
100
AcDbDictionary
280
     1
281
     1
  3
ACAD_XREC_ROUNDTRIP
360
2064
  0
DICTIONARY
  5
205F
330
9E
100
AcDbDictionary
280
     1
281
     1
  3
ACAD_XREC_ROUNDTRIP
360
2060
  0
DICTIONARY
  5
206D
330
A5
100
AcDbDictionary
280
     1
281
     1
  3
ACAD_XREC_ROUNDTRIP
360
206E
  0
DICTIONARY
  5
2075
330
A9
100
AcDbDictionary
280
     1
281
     1
  3
ACAD_XREC_ROUNDTRIP
360
2076
  0
DICTIONARY
  5
2067
330
A2
100
AcDbDictionary
280
     1
281
     1
  3
ACAD_XREC_ROUNDTRIP
360
2068
  0
DICTIONARY
  5
206B
330
A4
100
AcDbDictionary
280
     1
281
     1
  3
ACAD_XREC_ROUNDTRIP
360
206C
  0
DICTIONARY
  5
2089
330
155
100
AcDbDictionary
280
     1
281
     1
  3
ACAD_XREC_ROUNDTRIP
360
208A
  0
DICTIONARY
  5
2073
330
A8
100
AcDbDictionary
280
     1
281
     1
  3
ACAD_XREC_ROUNDTRIP
360
2074
  0
DICTIONARY
  5
2057
330
9A
100
AcDbDictionary
280
     1
281
     1
  3
ACAD_XREC_ROUNDTRIP
360
2058
  0
DICTIONARY
  5
2059
330
9B
100
AcDbDictionary
280
     1
281
     1
  3
ACAD_XREC_ROUNDTRIP
360
205A
  0
DICTIONARY
  5
205B
330
9C
100
AcDbDictionary
280
     1
281
     1
  3
ACAD_XREC_ROUNDTRIP
360
205C
  0
DICTIONARY
  5
205D
330
9D
100
AcDbDictionary
280
     1
281
     1
  3
ACAD_XREC_ROUNDTRIP
360
205E
  0
DICTIONARY
  5
2079
330
14D
100
AcDbDictionary
280
     1
281
     1
  3
ACAD_XREC_ROUNDTRIP
360
207A
  0
DICTIONARY
  5
2085
330
153
100
AcDbDictionary
280
     1
281
     1
  3
ACAD_XREC_ROUNDTRIP
360
2086
  0
DICTIONARY
  5
2071
330
A7
100
AcDbDictionary
280
     1
281
     1
  3
ACAD_XREC_ROUNDTRIP
360
2072
  0
DICTIONARY
  5
2087
330
154
100
AcDbDictionary
280
     1
281
     1
  3
ACAD_XREC_ROUNDTRIP
360
2088
  0
DICTIONARY
  5
2069
330
A3
100
AcDbDictionary
280
     1
281
     1
  3
ACAD_XREC_ROUNDTRIP
360
206A
  0
DICTIONARY
  5
2083
330
152
100
AcDbDictionary
280
     1
281
     1
  3
ACAD_XREC_ROUNDTRIP
360
2084
  0
DICTIONARY
  5
2081
330
151
100
AcDbDictionary
280
     1
281
     1
  3
ACAD_XREC_ROUNDTRIP
360
2082
  0
DICTIONARY
  5
207B
330
14E
100
AcDbDictionary
280
     1
281
     1
  3
ACAD_XREC_ROUNDTRIP
360
207C
  0
DICTIONARY
  5
207D
330
14F
100
AcDbDictionary
280
     1
281
     1
  3
ACAD_XREC_ROUNDTRIP
360
207E
  0
DICTIONARY
  5
206F
330
A6
100
AcDbDictionary
280
     1
281
     1
  3
ACAD_XREC_ROUNDTRIP
360
2070
  0
DICTIONARY
  5
2077
330
14C
100
AcDbDictionary
280
     1
281
     1
  3
ACAD_XREC_ROUNDTRIP
360
2078
  0
DICTIONARY
  5
207F
330
150
100
AcDbDictionary
280
     1
281
     1
  3
ACAD_XREC_ROUNDTRIP
360
2080
  0
XRECORD
  5
2051
102
{ACAD_REACTORS
330
2050
102
}
330
2050
100
AcDbXrecord
280
     1
102
SHADEPLOT
 70
     0
102
SHADEPLOTRESLEVEL
 70
     2
102
SHADEPLOTCUSTOMDPI
 70
   300
  0
XRECORD
  5
2053
102
{ACAD_REACTORS
330
2052
102
}
330
2052
100
AcDbXrecord
280
     1
102
SHADEPLOT
 70
     0
102
SHADEPLOTRESLEVEL
 70
     2
102
SHADEPLOTCUSTOMDPI
 70
   300
  0
XRECORD
  5
2055
102
{ACAD_REACTORS
330
2054
102
}
330
2054
100
AcDbXrecord
280
     1
102
SHADEPLOT
 70
     0
102
SHADEPLOTRESLEVEL
 70
     2
102
SHADEPLOTCUSTOMDPI
 70
   300
  0
XRECORD
  5
748
102
{ACAD_REACTORS
330
747
102
}
330
747
100
AcDbXrecord
280
     1
102
MATERIAL
148
0.0
149
0.0
149
0.0
 93
        0
 94
      127
282
     0
 72
     1
 77
     1
171
     1
175
     1
179
     1
273
     0
  0
XRECORD
  5
746
102
{ACAD_REACTORS
330
745
102
}
330
745
100
AcDbXrecord
280
     1
102
MATERIAL
148
0.0
149
0.0
149
0.0
 93
        0
 94
      127
282
     0
 72
     1
 77
     1
171
     1
175
     1
179
     1
273
     0
  0
XRECORD
  5
74A
102
{ACAD_REACTORS
330
749
102
}
330
749
100
AcDbXrecord
280
     1
102
MATERIAL
148
0.0
149
0.0
149
0.0
 93
        0
 94
      127
282
     0
 72
     1
 77
     1
171
     1
175
     1
179
     1
273
     0
  0
CELLSTYLEMAP
  5
2048
102
{ACAD_REACTORS
330
736
102
}
330
736
100
AcDbCellStyleMap
 90
        3
300
CELLSTYLE
  1
TABLEFORMAT_BEGIN
 90
        5
170
     1
 91
        0
 92
    32768
 62
   257
 93
        1
300
CONTENTFORMAT
  1
CONTENTFORMAT_BEGIN
 90
        0
 91
        0
 92
      512
 93
        0
300

 40
0.0
140
1.0
 94
        5
 62
     0
340
11
144
0.25
309
CONTENTFORMAT_END
171
     1
301
MARGIN
  1
CELLMARGIN_BEGIN
 40
0.06
 40
0.06
 40
0.06
 40
0.06
 40
0.18
 40
0.18
309
CELLMARGIN_END
 94
        6
 95
        1
302
GRIDFORMAT
  1
GRIDFORMAT_BEGIN
 90
        0
 91
        1
 62
     0
 92
       -2
340
0
 93
        0
 40
0.045
309
GRIDFORMAT_END
 95
        2
302
GRIDFORMAT
  1
GRIDFORMAT_BEGIN
 90
        0
 91
        1
 62
     0
 92
       -2
340
0
 93
        0
 40
0.045
309
GRIDFORMAT_END
 95
        4
302
GRIDFORMAT
  1
GRIDFORMAT_BEGIN
 90
        0
 91
        1
 62
     0
 92
       -2
340
0
 93
        0
 40
0.045
309
GRIDFORMAT_END
 95
        8
302
GRIDFORMAT
  1
GRIDFORMAT_BEGIN
 90
        0
 91
        1
 62
     0
 92
       -2
340
0
 93
        0
 40
0.045
309
GRIDFORMAT_END
 95
       16
302
GRIDFORMAT
  1
GRIDFORMAT_BEGIN
 90
        0
 91
        1
 62
     0
 92
       -2
340
0
 93
        0
 40
0.045
309
GRIDFORMAT_END
 95
       32
302
GRIDFORMAT
  1
GRIDFORMAT_BEGIN
 90
        0
 91
        1
 62
     0
 92
       -2
340
0
 93
        0
 40
0.045
309
GRIDFORMAT_END
309
TABLEFORMAT_END
  1
CELLSTYLE_BEGIN
 90
        1
 91
        1
300
_TITLE
309
CELLSTYLE_END
300
CELLSTYLE
  1
TABLEFORMAT_BEGIN
 90
        5
170
     1
 91
        0
 92
        0
 62
   257
 93
        1
300
CONTENTFORMAT
  1
CONTENTFORMAT_BEGIN
 90
        0
 91
        0
 92
      512
 93
        0
300

 40
0.0
140
1.0
 94
        5
 62
     0
340
11
144
0.18
309
CONTENTFORMAT_END
171
     1
301
MARGIN
  1
CELLMARGIN_BEGIN
 40
0.06
 40
0.06
 40
0.06
 40
0.06
 40
0.18
 40
0.18
309
CELLMARGIN_END
 94
        6
 95
        1
302
GRIDFORMAT
  1
GRIDFORMAT_BEGIN
 90
        0
 91
        1
 62
     0
 92
       -2
340
0
 93
        0
 40
0.045
309
GRIDFORMAT_END
 95
        2
302
GRIDFORMAT
  1
GRIDFORMAT_BEGIN
 90
        0
 91
        1
 62
     0
 92
       -2
340
0
 93
        0
 40
0.045
309
GRIDFORMAT_END
 95
        4
302
GRIDFORMAT
  1
GRIDFORMAT_BEGIN
 90
        0
 91
        1
 62
     0
 92
       -2
340
0
 93
        0
 40
0.045
309
GRIDFORMAT_END
 95
        8
302
GRIDFORMAT
  1
GRIDFORMAT_BEGIN
 90
        0
 91
        1
 62
     0
 92
       -2
340
0
 93
        0
 40
0.045
309
GRIDFORMAT_END
 95
       16
302
GRIDFORMAT
  1
GRIDFORMAT_BEGIN
 90
        0
 91
        1
 62
     0
 92
       -2
340
0
 93
        0
 40
0.045
309
GRIDFORMAT_END
 95
       32
302
GRIDFORMAT
  1
GRIDFORMAT_BEGIN
 90
        0
 91
        1
 62
     0
 92
       -2
340
0
 93
        0
 40
0.045
309
GRIDFORMAT_END
309
TABLEFORMAT_END
  1
CELLSTYLE_BEGIN
 90
        2
 91
        1
300
_HEADER
309
CELLSTYLE_END
300
CELLSTYLE
  1
TABLEFORMAT_BEGIN
 90
        5
170
     1
 91
        0
 92
        0
 62
   257
 93
        1
300
CONTENTFORMAT
  1
CONTENTFORMAT_BEGIN
 90
        0
 91
        0
 92
      512
 93
        0
300

 40
0.0
140
1.0
 94
        2
 62
     0
340
11
144
0.18
309
CONTENTFORMAT_END
171
     1
301
MARGIN
  1
CELLMARGIN_BEGIN
 40
0.06
 40
0.06
 40
0.06
 40
0.06
 40
0.18
 40
0.18
309
CELLMARGIN_END
 94
        6
 95
        1
302
GRIDFORMAT
  1
GRIDFORMAT_BEGIN
 90
        0
 91
        1
 62
     0
 92
       -2
340
0
 93
        0
 40
0.045
309
GRIDFORMAT_END
 95
        2
302
GRIDFORMAT
  1
GRIDFORMAT_BEGIN
 90
        0
 91
        1
 62
     0
 92
       -2
340
0
 93
        0
 40
0.045
309
GRIDFORMAT_END
 95
        4
302
GRIDFORMAT
  1
GRIDFORMAT_BEGIN
 90
        0
 91
        1
 62
     0
 92
       -2
340
0
 93
        0
 40
0.045
309
GRIDFORMAT_END
 95
        8
302
GRIDFORMAT
  1
GRIDFORMAT_BEGIN
 90
        0
 91
        1
 62
     0
 92
       -2
340
0
 93
        0
 40
0.045
309
GRIDFORMAT_END
 95
       16
302
GRIDFORMAT
  1
GRIDFORMAT_BEGIN
 90
        0
 91
        1
 62
     0
 92
       -2
340
0
 93
        0
 40
0.045
309
GRIDFORMAT_END
 95
       32
302
GRIDFORMAT
  1
GRIDFORMAT_BEGIN
 90
        0
 91
        1
 62
     0
 92
       -2
340
0
 93
        0
 40
0.045
309
GRIDFORMAT_END
309
TABLEFORMAT_END
  1
CELLSTYLE_BEGIN
 90
        3
 91
        2
300
_DATA
309
CELLSTYLE_END
  0
XRECORD
  5
2056
102
{ACAD_REACTORS
330
736
102
}
330
736
100
AcDbXrecord
280
     1
102
ACAD_ROUNDTRIP_PRE2007_TABLESTYLE
 90
      512
 91
        0
  1

 92
      512
 93
        0
  2

 94
      512
 95
        0
  3

  0
CELLSTYLEMAP
  5
2049
102
{ACAD_REACTORS
330
1D5A
102
}
330
1D5A
100
AcDbCellStyleMap
 90
        3
300
CELLSTYLE
  1
TABLEFORMAT_BEGIN
 90
        5
170
     1
 91
        0
 92
    32768
 62
   257
 93
        1
300
CONTENTFORMAT
  1
CONTENTFORMAT_BEGIN
 90
        0
 91
        0
 92
      512
 93
        0
300

 40
0.0
140
1.0
 94
        8
 62
     3
340
11D
144
0.25
309
CONTENTFORMAT_END
171
     1
301
MARGIN
  1
CELLMARGIN_BEGIN
 40
0.5
 40
10.0
 40
0.06
 40
0.06
 40
0.18
 40
0.18
309
CELLMARGIN_END
 94
        6
 95
        1
302
GRIDFORMAT
  1
GRIDFORMAT_BEGIN
 90
        0
 91
        1
 62
     0
 92
       -2
340
0
 93
        0
 40
0.045
309
GRIDFORMAT_END
 95
        2
302
GRIDFORMAT
  1
GRIDFORMAT_BEGIN
 90
        0
 91
        1
 62
     0
 92
       -2
340
0
 93
        0
 40
0.045
309
GRIDFORMAT_END
 95
        4
302
GRIDFORMAT
  1
GRIDFORMAT_BEGIN
 90
        0
 91
        1
 62
     0
 92
       -2
340
0
 93
        0
 40
0.045
309
GRIDFORMAT_END
 95
        8
302
GRIDFORMAT
  1
GRIDFORMAT_BEGIN
 90
        0
 91
        1
 62
     0
 92
       -2
340
0
 93
        0
 40
0.045
309
GRIDFORMAT_END
 95
       16
302
GRIDFORMAT
  1
GRIDFORMAT_BEGIN
 90
        0
 91
        1
 62
     0
 92
       -2
340
0
 93
        0
 40
0.045
309
GRIDFORMAT_END
 95
       32
302
GRIDFORMAT
  1
GRIDFORMAT_BEGIN
 90
        0
 91
        1
 62
     0
 92
       -2
340
0
 93
        0
 40
0.045
309
GRIDFORMAT_END
309
TABLEFORMAT_END
  1
CELLSTYLE_BEGIN
 90
        1
 91
        1
300
_TITLE
309
CELLSTYLE_END
300
CELLSTYLE
  1
TABLEFORMAT_BEGIN
 90
        5
170
     1
 91
        0
 92
        0
 62
   257
 93
        1
300
CONTENTFORMAT
  1
CONTENTFORMAT_BEGIN
 90
        0
 91
        0
 92
      512
 93
        0
300

 40
0.0
140
1.0
 94
        7
 62
     3
340
11D
144
0.18
309
CONTENTFORMAT_END
171
     1
301
MARGIN
  1
CELLMARGIN_BEGIN
 40
0.5
 40
1.5
 40
0.06
 40
0.06
 40
0.18
 40
0.18
309
CELLMARGIN_END
 94
        6
 95
        1
302
GRIDFORMAT
  1
GRIDFORMAT_BEGIN
 90
        0
 91
        1
 62
     3
 92
       -2
340
14
 93
        0
 40
0.045
309
GRIDFORMAT_END
 95
        2
302
GRIDFORMAT
  1
GRIDFORMAT_BEGIN
 90
        0
 91
        1
 62
     7
 92
       -2
340
14
 93
        0
 40
0.045
309
GRIDFORMAT_END
 95
        4
302
GRIDFORMAT
  1
GRIDFORMAT_BEGIN
 90
        0
 91
        1
 62
     3
 92
       -2
340
14
 93
        0
 40
0.045
309
GRIDFORMAT_END
 95
        8
302
GRIDFORMAT
  1
GRIDFORMAT_BEGIN
 90
        0
 91
        1
 62
     3
 92
       -2
340
14
 93
        0
 40
0.045
309
GRIDFORMAT_END
 95
       16
302
GRIDFORMAT
  1
GRIDFORMAT_BEGIN
 90
        0
 91
        1
 62
     7
 92
       -2
340
14
 93
        0
 40
0.045
309
GRIDFORMAT_END
 95
       32
302
GRIDFORMAT
  1
GRIDFORMAT_BEGIN
 90
        0
 91
        1
 62
     3
 92
       -2
340
14
 93
        0
 40
0.045
309
GRIDFORMAT_END
309
TABLEFORMAT_END
  1
CELLSTYLE_BEGIN
 90
        2
 91
        1
300
_HEADER
309
CELLSTYLE_END
300
CELLSTYLE
  1
TABLEFORMAT_BEGIN
 90
        5
170
     1
 91
        0
 92
        0
 62
   257
 93
        1
300
CONTENTFORMAT
  1
CONTENTFORMAT_BEGIN
 90
        0
 91
        0
 92
      512
 93
        0
300

 40
0.0
140
1.0
 94
        7
 62
     3
340
11D
144
0.18
309
CONTENTFORMAT_END
171
     1
301
MARGIN
  1
CELLMARGIN_BEGIN
 40
0.5
 40
1.5
 40
0.06
 40
0.06
 40
0.18
 40
0.18
309
CELLMARGIN_END
 94
        6
 95
        1
302
GRIDFORMAT
  1
GRIDFORMAT_BEGIN
 90
        0
 91
        1
 62
     3
 92
       -2
340
14
 93
        0
 40
0.045
309
GRIDFORMAT_END
 95
        2
302
GRIDFORMAT
  1
GRIDFORMAT_BEGIN
 90
        0
 91
        1
 62
     7
 92
       -2
340
14
 93
        0
 40
0.045
309
GRIDFORMAT_END
 95
        4
302
GRIDFORMAT
  1
GRIDFORMAT_BEGIN
 90
        0
 91
        1
 62
     3
 92
       -2
340
14
 93
        0
 40
0.045
309
GRIDFORMAT_END
 95
        8
302
GRIDFORMAT
  1
GRIDFORMAT_BEGIN
 90
        0
 91
        1
 62
     3
 92
       -2
340
14
 93
        0
 40
0.045
309
GRIDFORMAT_END
 95
       16
302
GRIDFORMAT
  1
GRIDFORMAT_BEGIN
 90
        0
 91
        1
 62
     7
 92
       -2
340
14
 93
        0
 40
0.045
309
GRIDFORMAT_END
 95
       32
302
GRIDFORMAT
  1
GRIDFORMAT_BEGIN
 90
        0
 91
        1
 62
     3
 92
       -2
340
14
 93
        0
 40
0.045
309
GRIDFORMAT_END
309
TABLEFORMAT_END
  1
CELLSTYLE_BEGIN
 90
        3
 91
        2
300
_DATA
309
CELLSTYLE_END
  0
XRECORD
  5
208B
102
{ACAD_REACTORS
330
1D5A
102
}
330
1D5A
100
AcDbXrecord
280
     1
102
ACAD_ROUNDTRIP_PRE2007_TABLESTYLE
 90
      512
 91
        0
  1

 92
      512
 93
        0
  2

 94
      512
 95
        0
  3

  0
XRECORD
  5
2062
102
{ACAD_REACTORS
330
2061
102
}
330
2061
100
AcDbXrecord
280
     1
102
RTVSPropertyOp0
 70
     1
102
RTVSPropertyOp1
 70
     1
102
RTVSPropertyOp2
 70
     1
102
RTVSPropertyOp3
 70
     1
102
RTVSPropertyOp4
 70
     1
102
RTVSPropertyOp5
 70
     1
102
RTVSPropertyOp6
 70
     1
102
RTVSPropertyOp7
 70
     1
102
RTVSPropertyOp8
 70
     1
102
RTVSPropertyOp9
 70
     1
102
RTVSPropertyOp10
 70
     1
102
RTVSPropertyOp11
 70
     1
102
RTVSPropertyOp12
 70
     1
102
RTVSPropertyOp13
 70
     1
102
RTVSPropertyOp14
 70
     1
102
RTVSPropertyOp15
 70
     1
102
RTVSPropertyOp16
 70
     1
102
RTVSPropertyOp17
 70
     1
102
RTVSPropertyOp18
 70
     1
102
RTVSPropertyOp19
 70
     1
102
RTVSPropertyOp20
 70
     1
102
RTVSPropertyOp21
 70
     1
102
RTVSPropertyOp22
 70
     1
102
RTVSPropertyOp23
 70
     1
102
RTVSPropertyOp24
 70
     1
102
RTVSPropertyOp25
 70
     1
102
RTVSPropertyOp26
 70
     1
102
RTVSPropertyOp27
 70
     1
102
RTVSPropertyOp28
 70
     1
102
RTVSPropertyOp29
 70
     1
102
RTVSPropertyOp30
 70
     1
102
RTVSPropertyOp31
 70
     1
102
RTVSPropertyOp32
 70
     1
  0
XRECORD
  5
2066
102
{ACAD_REACTORS
330
2065
102
}
330
2065
100
AcDbXrecord
280
     1
102
RTVSPropertyOp0
 70
     1
102
RTVSPropertyOp1
 70
     1
102
RTVSPropertyOp2
 70
     1
102
RTVSPropertyOp3
 70
     1
102
RTVSPropertyOp4
 70
     1
102
RTVSPropertyOp5
 70
     1
102
RTVSPropertyOp6
 70
     1
102
RTVSPropertyOp7
 70
     1
102
RTVSPropertyOp8
 70
     1
102
RTVSPropertyOp9
 70
     1
102
RTVSPropertyOp10
 70
     1
102
RTVSPropertyOp11
 70
     1
102
RTVSPropertyOp12
 70
     1
102
RTVSPropertyOp13
 70
     1
102
RTVSPropertyOp14
 70
     1
102
RTVSPropertyOp15
 70
     1
102
RTVSPropertyOp16
 70
     1
102
RTVSPropertyOp17
 70
     1
102
RTVSPropertyOp18
 70
     1
102
RTVSPropertyOp19
 70
     1
102
RTVSPropertyOp20
 70
     1
102
RTVSPropertyOp21
 70
     1
102
RTVSPropertyOp22
 70
     1
102
RTVSPropertyOp23
 70
     1
102
RTVSPropertyOp24
 70
     1
102
RTVSPropertyOp25
 70
     1
102
RTVSPropertyOp26
 70
     1
102
RTVSPropertyOp27
 70
     1
102
RTVSPropertyOp28
 70
     1
102
RTVSPropertyOp29
 70
     1
102
RTVSPropertyOp30
 70
     1
102
RTVSPropertyOp31
 70
     1
102
RTVSPropertyOp32
 70
     1
  0
XRECORD
  5
2064
102
{ACAD_REACTORS
330
2063
102
}
330
2063
100
AcDbXrecord
280
     1
102
RTVSPropertyOp0
 70
     1
102
RTVSPropertyOp1
 70
     1
102
RTVSPropertyOp2
 70
     1
102
RTVSPropertyOp3
 70
     1
102
RTVSPropertyOp4
 70
     1
102
RTVSPropertyOp5
 70
     1
102
RTVSPropertyOp6
 70
     1
102
RTVSPropertyOp7
 70
     1
102
RTVSPropertyOp8
 70
     1
102
RTVSPropertyOp9
 70
     1
102
RTVSPropertyOp10
 70
     1
102
RTVSPropertyOp11
 70
     1
102
RTVSPropertyOp12
 70
     1
102
RTVSPropertyOp13
 70
     1
102
RTVSPropertyOp14
 70
     1
102
RTVSPropertyOp15
 70
     1
102
RTVSPropertyOp16
 70
     1
102
RTVSPropertyOp17
 70
     1
102
RTVSPropertyOp18
 70
     1
102
RTVSPropertyOp19
 70
     1
102
RTVSPropertyOp20
 70
     1
102
RTVSPropertyOp21
 70
     1
102
RTVSPropertyOp22
 70
     1
102
RTVSPropertyOp23
 70
     1
102
RTVSPropertyOp24
 70
     1
102
RTVSPropertyOp25
 70
     1
102
RTVSPropertyOp26
 70
     1
102
RTVSPropertyOp27
 70
     1
102
RTVSPropertyOp28
 70
     1
102
RTVSPropertyOp29
 70
     1
102
RTVSPropertyOp30
 70
     1
102
RTVSPropertyOp31
 70
     1
102
RTVSPropertyOp32
 70
     1
  0
XRECORD
  5
2060
102
{ACAD_REACTORS
330
205F
102
}
330
205F
100
AcDbXrecord
280
     1
102
RTVSPropertyOp0
 70
     1
102
RTVSPropertyOp1
 70
     1
102
RTVSPropertyOp2
 70
     1
102
RTVSPropertyOp3
 70
     1
102
RTVSPropertyOp4
 70
     1
102
RTVSPropertyOp5
 70
     1
102
RTVSPropertyOp6
 70
     1
102
RTVSPropertyOp7
 70
     1
102
RTVSPropertyOp8
 70
     1
102
RTVSPropertyOp9
 70
     1
102
RTVSPropertyOp10
 70
     1
102
RTVSPropertyOp11
 70
     1
102
RTVSPropertyOp12
 70
     1
102
RTVSPropertyOp13
 70
     1
102
RTVSPropertyOp14
 70
     1
102
RTVSPropertyOp15
 70
     1
102
RTVSPropertyOp16
 70
     1
102
RTVSPropertyOp17
 70
     1
102
RTVSPropertyOp18
 70
     1
102
RTVSPropertyOp19
 70
     1
102
RTVSPropertyOp20
 70
     1
102
RTVSPropertyOp21
 70
     1
102
RTVSPropertyOp22
 70
     1
102
RTVSPropertyOp23
 70
     1
102
RTVSPropertyOp24
 70
     1
102
RTVSPropertyOp25
 70
     1
102
RTVSPropertyOp26
 70
     1
102
RTVSPropertyOp27
 70
     1
102
RTVSPropertyOp28
 70
     1
102
RTVSPropertyOp29
 70
     1
102
RTVSPropertyOp30
 70
     1
102
RTVSPropertyOp31
 70
     1
102
RTVSPropertyOp32
 70
     1
  0
XRECORD
  5
206E
102
{ACAD_REACTORS
330
206D
102
}
330
206D
100
AcDbXrecord
280
     1
102
RTVSPropertyOp0
 70
     1
102
RTVSPropertyOp1
 70
     1
102
RTVSPropertyOp2
 70
     1
102
RTVSPropertyOp3
 70
     1
102
RTVSPropertyOp4
 70
     1
102
RTVSPropertyOp5
 70
     1
102
RTVSPropertyOp6
 70
     1
102
RTVSPropertyOp7
 70
     1
102
RTVSPropertyOp8
 70
     1
102
RTVSPropertyOp9
 70
     1
102
RTVSPropertyOp10
 70
     1
102
RTVSPropertyOp11
 70
     1
102
RTVSPropertyOp12
 70
     1
102
RTVSPropertyOp13
 70
     1
102
RTVSPropertyOp14
 70
     1
102
RTVSPropertyOp15
 70
     1
102
RTVSPropertyOp16
 70
     1
102
RTVSPropertyOp17
 70
     1
102
RTVSPropertyOp18
 70
     1
102
RTVSPropertyOp19
 70
     1
102
RTVSPropertyOp20
 70
     1
102
RTVSPropertyOp21
 70
     1
102
RTVSPropertyOp22
 70
     1
102
RTVSPropertyOp23
 70
     1
102
RTVSPropertyOp24
 70
     1
102
RTVSPropertyOp25
 70
     1
102
RTVSPropertyOp26
 70
     1
102
RTVSPropertyOp27
 70
     1
102
RTVSPropertyOp28
 70
     1
102
RTVSPropertyOp29
 70
     1
102
RTVSPropertyOp30
 70
     1
102
RTVSPropertyOp31
 70
     1
102
RTVSPropertyOp32
 70
     1
  0
XRECORD
  5
2076
102
{ACAD_REACTORS
330
2075
102
}
330
2075
100
AcDbXrecord
280
     1
102
RTVSPropertyOp0
 70
     1
102
RTVSPropertyOp1
 70
     1
102
RTVSPropertyOp2
 70
     1
102
RTVSPropertyOp3
 70
     1
102
RTVSPropertyOp4
 70
     1
102
RTVSPropertyOp5
 70
     1
102
RTVSPropertyOp6
 70
     1
102
RTVSPropertyOp7
 70
     1
102
RTVSPropertyOp8
 70
     1
102
RTVSPropertyOp9
 70
     1
102
RTVSPropertyOp10
 70
     1
102
RTVSPropertyOp11
 70
     1
102
RTVSPropertyOp12
 70
     1
102
RTVSPropertyOp13
 70
     1
102
RTVSPropertyOp14
 70
     1
102
RTVSPropertyOp15
 70
     1
102
RTVSPropertyOp16
 70
     1
102
RTVSPropertyOp17
 70
     1
102
RTVSPropertyOp18
 70
     1
102
RTVSPropertyOp19
 70
     1
102
RTVSPropertyOp20
 70
     1
102
RTVSPropertyOp21
 70
     1
102
RTVSPropertyOp22
 70
     1
102
RTVSPropertyOp23
 70
     1
102
RTVSPropertyOp24
 70
     1
102
RTVSPropertyOp25
 70
     1
102
RTVSPropertyOp26
 70
     1
102
RTVSPropertyOp27
 70
     1
102
RTVSPropertyOp28
 70
     1
102
RTVSPropertyOp29
 70
     1
102
RTVSPropertyOp30
 70
     1
102
RTVSPropertyOp31
 70
     1
102
RTVSPropertyOp32
 70
     1
  0
XRECORD
  5
2068
102
{ACAD_REACTORS
330
2067
102
}
330
2067
100
AcDbXrecord
280
     1
102
RTVSPropertyOp0
 70
     1
102
RTVSPropertyOp1
 70
     1
102
RTVSPropertyOp2
 70
     1
102
RTVSPropertyOp3
 70
     1
102
RTVSPropertyOp4
 70
     1
102
RTVSPropertyOp5
 70
     1
102
RTVSPropertyOp6
 70
     1
102
RTVSPropertyOp7
 70
     1
102
RTVSPropertyOp8
 70
     1
102
RTVSPropertyOp9
 70
     1
102
RTVSPropertyOp10
 70
     1
102
RTVSPropertyOp11
 70
     1
102
RTVSPropertyOp12
 70
     1
102
RTVSPropertyOp13
 70
     1
102
RTVSPropertyOp14
 70
     1
102
RTVSPropertyOp15
 70
     1
102
RTVSPropertyOp16
 70
     1
102
RTVSPropertyOp17
 70
     1
102
RTVSPropertyOp18
 70
     1
102
RTVSPropertyOp19
 70
     1
102
RTVSPropertyOp20
 70
     1
102
RTVSPropertyOp21
 70
     1
102
RTVSPropertyOp22
 70
     1
102
RTVSPropertyOp23
 70
     1
102
RTVSPropertyOp24
 70
     1
102
RTVSPropertyOp25
 70
     1
102
RTVSPropertyOp26
 70
     1
102
RTVSPropertyOp27
 70
     1
102
RTVSPropertyOp28
 70
     1
102
RTVSPropertyOp29
 70
     1
102
RTVSPropertyOp30
 70
     1
102
RTVSPropertyOp31
 70
     1
102
RTVSPropertyOp32
 70
     1
  0
XRECORD
  5
206C
102
{ACAD_REACTORS
330
206B
102
}
330
206B
100
AcDbXrecord
280
     1
102
RTVSPropertyOp0
 70
     1
102
RTVSPropertyOp1
 70
     1
102
RTVSPropertyOp2
 70
     1
102
RTVSPropertyOp3
 70
     1
102
RTVSPropertyOp4
 70
     1
102
RTVSPropertyOp5
 70
     1
102
RTVSPropertyOp6
 70
     1
102
RTVSPropertyOp7
 70
     1
102
RTVSPropertyOp8
 70
     1
102
RTVSPropertyOp9
 70
     1
102
RTVSPropertyOp10
 70
     1
102
RTVSPropertyOp11
 70
     1
102
RTVSPropertyOp12
 70
     1
102
RTVSPropertyOp13
 70
     1
102
RTVSPropertyOp14
 70
     1
102
RTVSPropertyOp15
 70
     1
102
RTVSPropertyOp16
 70
     1
102
RTVSPropertyOp17
 70
     1
102
RTVSPropertyOp18
 70
     1
102
RTVSPropertyOp19
 70
     1
102
RTVSPropertyOp20
 70
     1
102
RTVSPropertyOp21
 70
     1
102
RTVSPropertyOp22
 70
     1
102
RTVSPropertyOp23
 70
     1
102
RTVSPropertyOp24
 70
     1
102
RTVSPropertyOp25
 70
     1
102
RTVSPropertyOp26
 70
     1
102
RTVSPropertyOp27
 70
     1
102
RTVSPropertyOp28
 70
     1
102
RTVSPropertyOp29
 70
     1
102
RTVSPropertyOp30
 70
     1
102
RTVSPropertyOp31
 70
     1
102
RTVSPropertyOp32
 70
     1
  0
XRECORD
  5
208A
102
{ACAD_REACTORS
330
2089
102
}
330
2089
100
AcDbXrecord
280
     1
102
RTVSPropertyOp0
 70
     0
102
RTVSPropertyOp1
 70
     0
102
RTVSPropertyOp2
 70
     0
102
RTVSPropertyOp3
 70
     0
102
RTVSPropertyOp4
 70
     0
102
RTVSPropertyOp5
 70
     0
102
RTVSPropertyOp6
 70
     0
102
RTVSPropertyOp7
 70
     0
102
RTVSPropertyOp8
 70
     0
102
RTVSPropertyOp9
 70
     0
102
RTVSPropertyOp10
 70
     0
102
RTVSPropertyOp11
 70
     0
102
RTVSPropertyOp12
 70
     0
102
RTVSPropertyOp13
 70
     0
102
RTVSPropertyOp14
 70
     2
102
RTVSPropertyOp15
 70
     0
102
RTVSPropertyOp16
 70
     0
102
RTVSPropertyOp17
 70
     0
102
RTVSPropertyOp18
 70
     0
102
RTVSPropertyOp19
 70
     0
102
RTVSPropertyOp20
 70
     0
102
RTVSPropertyOp21
 70
     0
102
RTVSPropertyOp22
 70
     0
102
RTVSPropertyOp23
 70
     0
102
RTVSPropertyOp24
 70
     0
102
RTVSPropertyOp25
 70
     0
102
RTVSPropertyOp26
 70
     0
102
RTVSPropertyOp27
 70
     0
102
RTVSPropertyOp28
 70
     0
102
RTVSPropertyOp29
 70
     0
102
RTVSPropertyOp30
 70
     0
102
RTVSPropertyOp31
 70
     0
102
RTVSPropertyOp32
 70
     0
  0
XRECORD
  5
2074
102
{ACAD_REACTORS
330
2073
102
}
330
2073
100
AcDbXrecord
280
     1
102
RTVSPropertyOp0
 70
     1
102
RTVSPropertyOp1
 70
     1
102
RTVSPropertyOp2
 70
     1
102
RTVSPropertyOp3
 70
     1
102
RTVSPropertyOp4
 70
     1
102
RTVSPropertyOp5
 70
     1
102
RTVSPropertyOp6
 70
     1
102
RTVSPropertyOp7
 70
     1
102
RTVSPropertyOp8
 70
     1
102
RTVSPropertyOp9
 70
     1
102
RTVSPropertyOp10
 70
     1
102
RTVSPropertyOp11
 70
     1
102
RTVSPropertyOp12
 70
     1
102
RTVSPropertyOp13
 70
     1
102
RTVSPropertyOp14
 70
     1
102
RTVSPropertyOp15
 70
     1
102
RTVSPropertyOp16
 70
     1
102
RTVSPropertyOp17
 70
     1
102
RTVSPropertyOp18
 70
     1
102
RTVSPropertyOp19
 70
     1
102
RTVSPropertyOp20
 70
     1
102
RTVSPropertyOp21
 70
     1
102
RTVSPropertyOp22
 70
     1
102
RTVSPropertyOp23
 70
     1
102
RTVSPropertyOp24
 70
     1
102
RTVSPropertyOp25
 70
     1
102
RTVSPropertyOp26
 70
     1
102
RTVSPropertyOp27
 70
     1
102
RTVSPropertyOp28
 70
     1
102
RTVSPropertyOp29
 70
     1
102
RTVSPropertyOp30
 70
     1
102
RTVSPropertyOp31
 70
     1
102
RTVSPropertyOp32
 70
     1
  0
XRECORD
  5
2058
102
{ACAD_REACTORS
330
2057
102
}
330
2057
100
AcDbXrecord
280
     1
102
RTVSPropertyOp0
 70
     1
102
RTVSPropertyOp1
 70
     1
102
RTVSPropertyOp2
 70
     1
102
RTVSPropertyOp3
 70
     1
102
RTVSPropertyOp4
 70
     1
102
RTVSPropertyOp5
 70
     1
102
RTVSPropertyOp6
 70
     1
102
RTVSPropertyOp7
 70
     1
102
RTVSPropertyOp8
 70
     1
102
RTVSPropertyOp9
 70
     1
102
RTVSPropertyOp10
 70
     1
102
RTVSPropertyOp11
 70
     1
102
RTVSPropertyOp12
 70
     1
102
RTVSPropertyOp13
 70
     1
102
RTVSPropertyOp14
 70
     1
102
RTVSPropertyOp15
 70
     1
102
RTVSPropertyOp16
 70
     1
102
RTVSPropertyOp17
 70
     1
102
RTVSPropertyOp18
 70
     1
102
RTVSPropertyOp19
 70
     1
102
RTVSPropertyOp20
 70
     1
102
RTVSPropertyOp21
 70
     1
102
RTVSPropertyOp22
 70
     1
102
RTVSPropertyOp23
 70
     1
102
RTVSPropertyOp24
 70
     1
102
RTVSPropertyOp25
 70
     1
102
RTVSPropertyOp26
 70
     1
102
RTVSPropertyOp27
 70
     1
102
RTVSPropertyOp28
 70
     1
102
RTVSPropertyOp29
 70
     1
102
RTVSPropertyOp30
 70
     1
102
RTVSPropertyOp31
 70
     1
102
RTVSPropertyOp32
 70
     1
  0
XRECORD
  5
205A
102
{ACAD_REACTORS
330
2059
102
}
330
2059
100
AcDbXrecord
280
     1
102
RTVSPropertyOp0
 70
     1
102
RTVSPropertyOp1
 70
     1
102
RTVSPropertyOp2
 70
     1
102
RTVSPropertyOp3
 70
     1
102
RTVSPropertyOp4
 70
     1
102
RTVSPropertyOp5
 70
     1
102
RTVSPropertyOp6
 70
     1
102
RTVSPropertyOp7
 70
     1
102
RTVSPropertyOp8
 70
     1
102
RTVSPropertyOp9
 70
     1
102
RTVSPropertyOp10
 70
     1
102
RTVSPropertyOp11
 70
     1
102
RTVSPropertyOp12
 70
     1
102
RTVSPropertyOp13
 70
     1
102
RTVSPropertyOp14
 70
     1
102
RTVSPropertyOp15
 70
     1
102
RTVSPropertyOp16
 70
     1
102
RTVSPropertyOp17
 70
     1
102
RTVSPropertyOp18
 70
     1
102
RTVSPropertyOp19
 70
     1
102
RTVSPropertyOp20
 70
     1
102
RTVSPropertyOp21
 70
     1
102
RTVSPropertyOp22
 70
     1
102
RTVSPropertyOp23
 70
     1
102
RTVSPropertyOp24
 70
     1
102
RTVSPropertyOp25
 70
     1
102
RTVSPropertyOp26
 70
     1
102
RTVSPropertyOp27
 70
     1
102
RTVSPropertyOp28
 70
     1
102
RTVSPropertyOp29
 70
     1
102
RTVSPropertyOp30
 70
     1
102
RTVSPropertyOp31
 70
     1
102
RTVSPropertyOp32
 70
     1
  0
XRECORD
  5
205C
102
{ACAD_REACTORS
330
205B
102
}
330
205B
100
AcDbXrecord
280
     1
102
RTVSPropertyOp0
 70
     1
102
RTVSPropertyOp1
 70
     1
102
RTVSPropertyOp2
 70
     1
102
RTVSPropertyOp3
 70
     1
102
RTVSPropertyOp4
 70
     1
102
RTVSPropertyOp5
 70
     1
102
RTVSPropertyOp6
 70
     1
102
RTVSPropertyOp7
 70
     1
102
RTVSPropertyOp8
 70
     1
102
RTVSPropertyOp9
 70
     1
102
RTVSPropertyOp10
 70
     1
102
RTVSPropertyOp11
 70
     1
102
RTVSPropertyOp12
 70
     1
102
RTVSPropertyOp13
 70
     1
102
RTVSPropertyOp14
 70
     1
102
RTVSPropertyOp15
 70
     1
102
RTVSPropertyOp16
 70
     1
102
RTVSPropertyOp17
 70
     1
102
RTVSPropertyOp18
 70
     1
102
RTVSPropertyOp19
 70
     1
102
RTVSPropertyOp20
 70
     1
102
RTVSPropertyOp21
 70
     1
102
RTVSPropertyOp22
 70
     1
102
RTVSPropertyOp23
 70
     1
102
RTVSPropertyOp24
 70
     1
102
RTVSPropertyOp25
 70
     1
102
RTVSPropertyOp26
 70
     1
102
RTVSPropertyOp27
 70
     1
102
RTVSPropertyOp28
 70
     1
102
RTVSPropertyOp29
 70
     1
102
RTVSPropertyOp30
 70
     1
102
RTVSPropertyOp31
 70
     1
102
RTVSPropertyOp32
 70
     1
  0
XRECORD
  5
205E
102
{ACAD_REACTORS
330
205D
102
}
330
205D
100
AcDbXrecord
280
     1
102
RTVSPropertyOp0
 70
     1
102
RTVSPropertyOp1
 70
     1
102
RTVSPropertyOp2
 70
     1
102
RTVSPropertyOp3
 70
     1
102
RTVSPropertyOp4
 70
     1
102
RTVSPropertyOp5
 70
     1
102
RTVSPropertyOp6
 70
     1
102
RTVSPropertyOp7
 70
     1
102
RTVSPropertyOp8
 70
     1
102
RTVSPropertyOp9
 70
     1
102
RTVSPropertyOp10
 70
     1
102
RTVSPropertyOp11
 70
     1
102
RTVSPropertyOp12
 70
     1
102
RTVSPropertyOp13
 70
     1
102
RTVSPropertyOp14
 70
     1
102
RTVSPropertyOp15
 70
     1
102
RTVSPropertyOp16
 70
     1
102
RTVSPropertyOp17
 70
     1
102
RTVSPropertyOp18
 70
     1
102
RTVSPropertyOp19
 70
     1
102
RTVSPropertyOp20
 70
     1
102
RTVSPropertyOp21
 70
     1
102
RTVSPropertyOp22
 70
     1
102
RTVSPropertyOp23
 70
     1
102
RTVSPropertyOp24
 70
     1
102
RTVSPropertyOp25
 70
     1
102
RTVSPropertyOp26
 70
     1
102
RTVSPropertyOp27
 70
     1
102
RTVSPropertyOp28
 70
     1
102
RTVSPropertyOp29
 70
     1
102
RTVSPropertyOp30
 70
     1
102
RTVSPropertyOp31
 70
     1
102
RTVSPropertyOp32
 70
     1
  0
XRECORD
  5
207A
102
{ACAD_REACTORS
330
2079
102
}
330
2079
100
AcDbXrecord
280
     1
102
RTVSPropertyOp0
 70
     1
102
RTVSPropertyOp1
 70
     1
102
RTVSPropertyOp2
 70
     1
102
RTVSPropertyOp3
 70
     1
102
RTVSPropertyOp4
 70
     1
102
RTVSPropertyOp5
 70
     1
102
RTVSPropertyOp6
 70
     1
102
RTVSPropertyOp7
 70
     1
102
RTVSPropertyOp8
 70
     1
102
RTVSPropertyOp9
 70
     1
102
RTVSPropertyOp10
 70
     1
102
RTVSPropertyOp11
 70
     1
102
RTVSPropertyOp12
 70
     1
102
RTVSPropertyOp13
 70
     1
102
RTVSPropertyOp14
 70
     1
102
RTVSPropertyOp15
 70
     1
102
RTVSPropertyOp16
 70
     1
102
RTVSPropertyOp17
 70
     1
102
RTVSPropertyOp18
 70
     1
102
RTVSPropertyOp19
 70
     1
102
RTVSPropertyOp20
 70
     1
102
RTVSPropertyOp21
 70
     1
102
RTVSPropertyOp22
 70
     1
102
RTVSPropertyOp23
 70
     1
102
RTVSPropertyOp24
 70
     1
102
RTVSPropertyOp25
 70
     1
102
RTVSPropertyOp26
 70
     1
102
RTVSPropertyOp27
 70
     1
102
RTVSPropertyOp28
 70
     1
102
RTVSPropertyOp29
 70
     1
102
RTVSPropertyOp30
 70
     1
102
RTVSPropertyOp31
 70
     1
102
RTVSPropertyOp32
 70
     1
  0
XRECORD
  5
2086
102
{ACAD_REACTORS
330
2085
102
}
330
2085
100
AcDbXrecord
280
     1
102
RTVSPropertyOp0
 70
     0
102
RTVSPropertyOp1
 70
     0
102
RTVSPropertyOp2
 70
     0
102
RTVSPropertyOp3
 70
     0
102
RTVSPropertyOp4
 70
     0
102
RTVSPropertyOp5
 70
     0
102
RTVSPropertyOp6
 70
     0
102
RTVSPropertyOp7
 70
     0
102
RTVSPropertyOp8
 70
     0
102
RTVSPropertyOp9
 70
     0
102
RTVSPropertyOp10
 70
     0
102
RTVSPropertyOp11
 70
     0
102
RTVSPropertyOp12
 70
     0
102
RTVSPropertyOp13
 70
     0
102
RTVSPropertyOp14
 70
     2
102
RTVSPropertyOp15
 70
     0
102
RTVSPropertyOp16
 70
     0
102
RTVSPropertyOp17
 70
     0
102
RTVSPropertyOp18
 70
     0
102
RTVSPropertyOp19
 70
     0
102
RTVSPropertyOp20
 70
     0
102
RTVSPropertyOp21
 70
     0
102
RTVSPropertyOp22
 70
     0
102
RTVSPropertyOp23
 70
     0
102
RTVSPropertyOp24
 70
     0
102
RTVSPropertyOp25
 70
     0
102
RTVSPropertyOp26
 70
     0
102
RTVSPropertyOp27
 70
     0
102
RTVSPropertyOp28
 70
     0
102
RTVSPropertyOp29
 70
     0
102
RTVSPropertyOp30
 70
     0
102
RTVSPropertyOp31
 70
     0
102
RTVSPropertyOp32
 70
     0
  0
XRECORD
  5
2072
102
{ACAD_REACTORS
330
2071
102
}
330
2071
100
AcDbXrecord
280
     1
102
RTVSPropertyOp0
 70
     1
102
RTVSPropertyOp1
 70
     1
102
RTVSPropertyOp2
 70
     1
102
RTVSPropertyOp3
 70
     1
102
RTVSPropertyOp4
 70
     1
102
RTVSPropertyOp5
 70
     1
102
RTVSPropertyOp6
 70
     1
102
RTVSPropertyOp7
 70
     1
102
RTVSPropertyOp8
 70
     1
102
RTVSPropertyOp9
 70
     1
102
RTVSPropertyOp10
 70
     1
102
RTVSPropertyOp11
 70
     1
102
RTVSPropertyOp12
 70
     1
102
RTVSPropertyOp13
 70
     1
102
RTVSPropertyOp14
 70
     1
102
RTVSPropertyOp15
 70
     1
102
RTVSPropertyOp16
 70
     1
102
RTVSPropertyOp17
 70
     1
102
RTVSPropertyOp18
 70
     1
102
RTVSPropertyOp19
 70
     1
102
RTVSPropertyOp20
 70
     1
102
RTVSPropertyOp21
 70
     1
102
RTVSPropertyOp22
 70
     1
102
RTVSPropertyOp23
 70
     1
102
RTVSPropertyOp24
 70
     1
102
RTVSPropertyOp25
 70
     1
102
RTVSPropertyOp26
 70
     1
102
RTVSPropertyOp27
 70
     1
102
RTVSPropertyOp28
 70
     1
102
RTVSPropertyOp29
 70
     1
102
RTVSPropertyOp30
 70
     1
102
RTVSPropertyOp31
 70
     1
102
RTVSPropertyOp32
 70
     1
  0
XRECORD
  5
2088
102
{ACAD_REACTORS
330
2087
102
}
330
2087
100
AcDbXrecord
280
     1
102
RTVSPropertyOp0
 70
     0
102
RTVSPropertyOp1
 70
     0
102
RTVSPropertyOp2
 70
     0
102
RTVSPropertyOp3
 70
     0
102
RTVSPropertyOp4
 70
     0
102
RTVSPropertyOp5
 70
     0
102
RTVSPropertyOp6
 70
     0
102
RTVSPropertyOp7
 70
     0
102
RTVSPropertyOp8
 70
     0
102
RTVSPropertyOp9
 70
     0
102
RTVSPropertyOp10
 70
     0
102
RTVSPropertyOp11
 70
     0
102
RTVSPropertyOp12
 70
     0
102
RTVSPropertyOp13
 70
     0
102
RTVSPropertyOp14
 70
     2
102
RTVSPropertyOp15
 70
     0
102
RTVSPropertyOp16
 70
     0
102
RTVSPropertyOp17
 70
     0
102
RTVSPropertyOp18
 70
     0
102
RTVSPropertyOp19
 70
     0
102
RTVSPropertyOp20
 70
     0
102
RTVSPropertyOp21
 70
     0
102
RTVSPropertyOp22
 70
     0
102
RTVSPropertyOp23
 70
     0
102
RTVSPropertyOp24
 70
     0
102
RTVSPropertyOp25
 70
     0
102
RTVSPropertyOp26
 70
     0
102
RTVSPropertyOp27
 70
     0
102
RTVSPropertyOp28
 70
     0
102
RTVSPropertyOp29
 70
     0
102
RTVSPropertyOp30
 70
     0
102
RTVSPropertyOp31
 70
     0
102
RTVSPropertyOp32
 70
     0
  0
XRECORD
  5
206A
102
{ACAD_REACTORS
330
2069
102
}
330
2069
100
AcDbXrecord
280
     1
102
RTVSPropertyOp0
 70
     1
102
RTVSPropertyOp1
 70
     1
102
RTVSPropertyOp2
 70
     1
102
RTVSPropertyOp3
 70
     1
102
RTVSPropertyOp4
 70
     1
102
RTVSPropertyOp5
 70
     1
102
RTVSPropertyOp6
 70
     1
102
RTVSPropertyOp7
 70
     1
102
RTVSPropertyOp8
 70
     1
102
RTVSPropertyOp9
 70
     1
102
RTVSPropertyOp10
 70
     1
102
RTVSPropertyOp11
 70
     1
102
RTVSPropertyOp12
 70
     1
102
RTVSPropertyOp13
 70
     1
102
RTVSPropertyOp14
 70
     1
102
RTVSPropertyOp15
 70
     1
102
RTVSPropertyOp16
 70
     1
102
RTVSPropertyOp17
 70
     1
102
RTVSPropertyOp18
 70
     1
102
RTVSPropertyOp19
 70
     1
102
RTVSPropertyOp20
 70
     1
102
RTVSPropertyOp21
 70
     1
102
RTVSPropertyOp22
 70
     1
102
RTVSPropertyOp23
 70
     1
102
RTVSPropertyOp24
 70
     1
102
RTVSPropertyOp25
 70
     1
102
RTVSPropertyOp26
 70
     1
102
RTVSPropertyOp27
 70
     1
102
RTVSPropertyOp28
 70
     1
102
RTVSPropertyOp29
 70
     1
102
RTVSPropertyOp30
 70
     1
102
RTVSPropertyOp31
 70
     1
102
RTVSPropertyOp32
 70
     1
  0
XRECORD
  5
2084
102
{ACAD_REACTORS
330
2083
102
}
330
2083
100
AcDbXrecord
280
     1
102
RTVSPropertyOp0
 70
     1
102
RTVSPropertyOp1
 70
     1
102
RTVSPropertyOp2
 70
     1
102
RTVSPropertyOp3
 70
     1
102
RTVSPropertyOp4
 70
     1
102
RTVSPropertyOp5
 70
     1
102
RTVSPropertyOp6
 70
     1
102
RTVSPropertyOp7
 70
     1
102
RTVSPropertyOp8
 70
     1
102
RTVSPropertyOp9
 70
     1
102
RTVSPropertyOp10
 70
     1
102
RTVSPropertyOp11
 70
     1
102
RTVSPropertyOp12
 70
     1
102
RTVSPropertyOp13
 70
     1
102
RTVSPropertyOp14
 70
     1
102
RTVSPropertyOp15
 70
     1
102
RTVSPropertyOp16
 70
     1
102
RTVSPropertyOp17
 70
     1
102
RTVSPropertyOp18
 70
     1
102
RTVSPropertyOp19
 70
     1
102
RTVSPropertyOp20
 70
     1
102
RTVSPropertyOp21
 70
     1
102
RTVSPropertyOp22
 70
     1
102
RTVSPropertyOp23
 70
     1
102
RTVSPropertyOp24
 70
     1
102
RTVSPropertyOp25
 70
     1
102
RTVSPropertyOp26
 70
     1
102
RTVSPropertyOp27
 70
     1
102
RTVSPropertyOp28
 70
     1
102
RTVSPropertyOp29
 70
     1
102
RTVSPropertyOp30
 70
     1
102
RTVSPropertyOp31
 70
     1
102
RTVSPropertyOp32
 70
     1
  0
XRECORD
  5
2082
102
{ACAD_REACTORS
330
2081
102
}
330
2081
100
AcDbXrecord
280
     1
102
RTVSPropertyOp0
 70
     1
102
RTVSPropertyOp1
 70
     1
102
RTVSPropertyOp2
 70
     1
102
RTVSPropertyOp3
 70
     1
102
RTVSPropertyOp4
 70
     1
102
RTVSPropertyOp5
 70
     1
102
RTVSPropertyOp6
 70
     1
102
RTVSPropertyOp7
 70
     1
102
RTVSPropertyOp8
 70
     1
102
RTVSPropertyOp9
 70
     1
102
RTVSPropertyOp10
 70
     1
102
RTVSPropertyOp11
 70
     1
102
RTVSPropertyOp12
 70
     1
102
RTVSPropertyOp13
 70
     1
102
RTVSPropertyOp14
 70
     1
102
RTVSPropertyOp15
 70
     1
102
RTVSPropertyOp16
 70
     1
102
RTVSPropertyOp17
 70
     1
102
RTVSPropertyOp18
 70
     1
102
RTVSPropertyOp19
 70
     1
102
RTVSPropertyOp20
 70
     1
102
RTVSPropertyOp21
 70
     1
102
RTVSPropertyOp22
 70
     1
102
RTVSPropertyOp23
 70
     1
102
RTVSPropertyOp24
 70
     1
102
RTVSPropertyOp25
 70
     1
102
RTVSPropertyOp26
 70
     1
102
RTVSPropertyOp27
 70
     1
102
RTVSPropertyOp28
 70
     1
102
RTVSPropertyOp29
 70
     1
102
RTVSPropertyOp30
 70
     1
102
RTVSPropertyOp31
 70
     1
102
RTVSPropertyOp32
 70
     1
  0
XRECORD
  5
207C
102
{ACAD_REACTORS
330
207B
102
}
330
207B
100
AcDbXrecord
280
     1
102
RTVSPropertyOp0
 70
     1
102
RTVSPropertyOp1
 70
     1
102
RTVSPropertyOp2
 70
     1
102
RTVSPropertyOp3
 70
     1
102
RTVSPropertyOp4
 70
     1
102
RTVSPropertyOp5
 70
     1
102
RTVSPropertyOp6
 70
     1
102
RTVSPropertyOp7
 70
     1
102
RTVSPropertyOp8
 70
     1
102
RTVSPropertyOp9
 70
     1
102
RTVSPropertyOp10
 70
     1
102
RTVSPropertyOp11
 70
     1
102
RTVSPropertyOp12
 70
     1
102
RTVSPropertyOp13
 70
     1
102
RTVSPropertyOp14
 70
     1
102
RTVSPropertyOp15
 70
     1
102
RTVSPropertyOp16
 70
     1
102
RTVSPropertyOp17
 70
     1
102
RTVSPropertyOp18
 70
     1
102
RTVSPropertyOp19
 70
     1
102
RTVSPropertyOp20
 70
     1
102
RTVSPropertyOp21
 70
     1
102
RTVSPropertyOp22
 70
     1
102
RTVSPropertyOp23
 70
     1
102
RTVSPropertyOp24
 70
     1
102
RTVSPropertyOp25
 70
     1
102
RTVSPropertyOp26
 70
     1
102
RTVSPropertyOp27
 70
     1
102
RTVSPropertyOp28
 70
     1
102
RTVSPropertyOp29
 70
     1
102
RTVSPropertyOp30
 70
     1
102
RTVSPropertyOp31
 70
     1
102
RTVSPropertyOp32
 70
     1
  0
XRECORD
  5
207E
102
{ACAD_REACTORS
330
207D
102
}
330
207D
100
AcDbXrecord
280
     1
102
RTVSPropertyOp0
 70
     1
102
RTVSPropertyOp1
 70
     1
102
RTVSPropertyOp2
 70
     1
102
RTVSPropertyOp3
 70
     1
102
RTVSPropertyOp4
 70
     1
102
RTVSPropertyOp5
 70
     1
102
RTVSPropertyOp6
 70
     1
102
RTVSPropertyOp7
 70
     1
102
RTVSPropertyOp8
 70
     1
102
RTVSPropertyOp9
 70
     1
102
RTVSPropertyOp10
 70
     1
102
RTVSPropertyOp11
 70
     1
102
RTVSPropertyOp12
 70
     1
102
RTVSPropertyOp13
 70
     1
102
RTVSPropertyOp14
 70
     1
102
RTVSPropertyOp15
 70
     1
102
RTVSPropertyOp16
 70
     1
102
RTVSPropertyOp17
 70
     1
102
RTVSPropertyOp18
 70
     1
102
RTVSPropertyOp19
 70
     1
102
RTVSPropertyOp20
 70
     1
102
RTVSPropertyOp21
 70
     1
102
RTVSPropertyOp22
 70
     1
102
RTVSPropertyOp23
 70
     1
102
RTVSPropertyOp24
 70
     1
102
RTVSPropertyOp25
 70
     1
102
RTVSPropertyOp26
 70
     1
102
RTVSPropertyOp27
 70
     1
102
RTVSPropertyOp28
 70
     1
102
RTVSPropertyOp29
 70
     1
102
RTVSPropertyOp30
 70
     1
102
RTVSPropertyOp31
 70
     1
102
RTVSPropertyOp32
 70
     1
  0
XRECORD
  5
2070
102
{ACAD_REACTORS
330
206F
102
}
330
206F
100
AcDbXrecord
280
     1
102
RTVSPropertyOp0
 70
     1
102
RTVSPropertyOp1
 70
     1
102
RTVSPropertyOp2
 70
     1
102
RTVSPropertyOp3
 70
     1
102
RTVSPropertyOp4
 70
     1
102
RTVSPropertyOp5
 70
     1
102
RTVSPropertyOp6
 70
     1
102
RTVSPropertyOp7
 70
     1
102
RTVSPropertyOp8
 70
     1
102
RTVSPropertyOp9
 70
     1
102
RTVSPropertyOp10
 70
     1
102
RTVSPropertyOp11
 70
     1
102
RTVSPropertyOp12
 70
     1
102
RTVSPropertyOp13
 70
     1
102
RTVSPropertyOp14
 70
     1
102
RTVSPropertyOp15
 70
     1
102
RTVSPropertyOp16
 70
     1
102
RTVSPropertyOp17
 70
     1
102
RTVSPropertyOp18
 70
     1
102
RTVSPropertyOp19
 70
     1
102
RTVSPropertyOp20
 70
     1
102
RTVSPropertyOp21
 70
     1
102
RTVSPropertyOp22
 70
     1
102
RTVSPropertyOp23
 70
     1
102
RTVSPropertyOp24
 70
     1
102
RTVSPropertyOp25
 70
     1
102
RTVSPropertyOp26
 70
     1
102
RTVSPropertyOp27
 70
     1
102
RTVSPropertyOp28
 70
     1
102
RTVSPropertyOp29
 70
     1
102
RTVSPropertyOp30
 70
     1
102
RTVSPropertyOp31
 70
     1
102
RTVSPropertyOp32
 70
     1
  0
XRECORD
  5
2078
102
{ACAD_REACTORS
330
2077
102
}
330
2077
100
AcDbXrecord
280
     1
102
RTVSPropertyOp0
 70
     1
102
RTVSPropertyOp1
 70
     1
102
RTVSPropertyOp2
 70
     1
102
RTVSPropertyOp3
 70
     1
102
RTVSPropertyOp4
 70
     1
102
RTVSPropertyOp5
 70
     1
102
RTVSPropertyOp6
 70
     1
102
RTVSPropertyOp7
 70
     1
102
RTVSPropertyOp8
 70
     1
102
RTVSPropertyOp9
 70
     1
102
RTVSPropertyOp10
 70
     1
102
RTVSPropertyOp11
 70
     1
102
RTVSPropertyOp12
 70
     1
102
RTVSPropertyOp13
 70
     1
102
RTVSPropertyOp14
 70
     1
102
RTVSPropertyOp15
 70
     1
102
RTVSPropertyOp16
 70
     1
102
RTVSPropertyOp17
 70
     1
102
RTVSPropertyOp18
 70
     1
102
RTVSPropertyOp19
 70
     1
102
RTVSPropertyOp20
 70
     1
102
RTVSPropertyOp21
 70
     1
102
RTVSPropertyOp22
 70
     1
102
RTVSPropertyOp23
 70
     1
102
RTVSPropertyOp24
 70
     1
102
RTVSPropertyOp25
 70
     1
102
RTVSPropertyOp26
 70
     1
102
RTVSPropertyOp27
 70
     1
102
RTVSPropertyOp28
 70
     1
102
RTVSPropertyOp29
 70
     1
102
RTVSPropertyOp30
 70
     1
102
RTVSPropertyOp31
 70
     1
102
RTVSPropertyOp32
 70
     1
  0
XRECORD
  5
2080
102
{ACAD_REACTORS
330
207F
102
}
330
207F
100
AcDbXrecord
280
     1
102
RTVSPropertyOp0
 70
     1
102
RTVSPropertyOp1
 70
     1
102
RTVSPropertyOp2
 70
     1
102
RTVSPropertyOp3
 70
     1
102
RTVSPropertyOp4
 70
     1
102
RTVSPropertyOp5
 70
     1
102
RTVSPropertyOp6
 70
     1
102
RTVSPropertyOp7
 70
     1
102
RTVSPropertyOp8
 70
     1
102
RTVSPropertyOp9
 70
     1
102
RTVSPropertyOp10
 70
     1
102
RTVSPropertyOp11
 70
     1
102
RTVSPropertyOp12
 70
     1
102
RTVSPropertyOp13
 70
     1
102
RTVSPropertyOp14
 70
     1
102
RTVSPropertyOp15
 70
     1
102
RTVSPropertyOp16
 70
     1
102
RTVSPropertyOp17
 70
     1
102
RTVSPropertyOp18
 70
     1
102
RTVSPropertyOp19
 70
     1
102
RTVSPropertyOp20
 70
     1
102
RTVSPropertyOp21
 70
     1
102
RTVSPropertyOp22
 70
     1
102
RTVSPropertyOp23
 70
     1
102
RTVSPropertyOp24
 70
     1
102
RTVSPropertyOp25
 70
     1
102
RTVSPropertyOp26
 70
     1
102
RTVSPropertyOp27
 70
     1
102
RTVSPropertyOp28
 70
     1
102
RTVSPropertyOp29
 70
     1
102
RTVSPropertyOp30
 70
     1
102
RTVSPropertyOp31
 70
     1
102
RTVSPropertyOp32
 70
     1
  0
ENDSEC
  0
EOF
