  0
SECTION
  2
HEADER
  9
$ACADVER
  1
AC1015
  9
$ACADMAINTVER
 70
    20
  9
$DWGCODEPAGE
  3
ANSI_932
  9
$INSBASE
 10
0.0
 20
0.0
 30
0.0
  9
$EXTMIN
 10
55.23891797013295
 20
21.85484459991608
 30
0.0
  9
$EXTMAX
 10
783.0816379717688
 20
333.0283860994988
 30
0.0
  9
$LIMMIN
 10
0.0
 20
0.0
  9
$LIMMAX
 10
12.0
 20
9.0
  9
$ORTHOMODE
 70
     1
  9
$REGENMODE
 70
     1
  9
$FILLMODE
 70
     1
  9
$QTEXTMODE
 70
     0
  9
$MIRRTEXT
 70
     0
  9
$LTSCALE
 40
1.0
  9
$ATTMODE
 70
     1
  9
$TEXTSIZE
 40
3.2
  9
$TRACEWID
 40
0.05
  9
$TEXTSTYLE
  7
高3.2
  9
$CLAYER
  8
0
  9
$CELTYPE
  6
ByLayer
  9
$CECOLOR
 62
   256
  9
$CELTSCALE
 40
1.0
  9
$DISPSILH
 70
     0
  9
$DIMSCALE
 40
1.0
  9
$DIMASZ
 40
2.5
  9
$DIMEXO
 40
0.25
  9
$DIMDLI
 40
0.2
  9
$DIMRND
 40
0.0
  9
$DIMDLE
 40
0.0
  9
$DIMEXE
 40
1.25
  9
$DIMTP
 40
0.0
  9
$DIMTM
 40
0.0
  9
$DIMTXT
 40
3.0
  9
$DIMCEN
 40
0.0
  9
$DIMTSZ
 40
0.0
  9
$DIMTOL
 70
     0
  9
$DIMLIM
 70
     0
  9
$DIMTIH
 70
     0
  9
$DIMTOH
 70
     0
  9
$DIMSE1
 70
     0
  9
$DIMSE2
 70
     0
  9
$DIMTAD
 70
     3
  9
$DIMZIN
 70
     8
  9
$DIMBLK
  1
Open30
  9
$DIMASO
 70
     1
  9
$DIMSHO
 70
     1
  9
$DIMPOST
  1

  9
$DIMAPOST
  1

  9
$DIMALT
 70
     0
  9
$DIMALTD
 70
     3
  9
$DIMALTF
 40
0.03937007874016
  9
$DIMLFAC
 40
1.0
  9
$DIMTOFL
 70
     1
  9
$DIMTVP
 40
0.0
  9
$DIMTIX
 70
     0
  9
$DIMSOXD
 70
     0
  9
$DIMSAH
 70
     0
  9
$DIMBLK1
  1

  9
$DIMBLK2
  1

  9
$DIMSTYLE
  2
1：1
  9
$DIMCLRD
 70
     0
  9
$DIMCLRE
 70
     0
  9
$DIMCLRT
 70
     4
  9
$DIMTFAC
 40
1.0
  9
$DIMGAP
 40
0.625
  9
$DIMJUST
 70
     0
  9
$DIMSD1
 70
     0
  9
$DIMSD2
 70
     0
  9
$DIMTOLJ
 70
     0
  9
$DIMTZIN
 70
     8
  9
$DIMALTZ
 70
     0
  9
$DIMALTTZ
 70
     0
  9
$DIMUPT
 70
     1
  9
$DIMDEC
 70
     2
  9
$DIMTDEC
 70
     2
  9
$DIMALTU
 70
     2
  9
$DIMALTTD
 70
     3
  9
$DIMTXSTY
  7
Standard
  9
$DIMAUNIT
 70
     0
  9
$DIMADEC
 70
     1
  9
$DIMALTRND
 40
0.0
  9
$DIMAZIN
 70
     2
  9
$DIMDSEP
 70
    46
  9
$DIMATFIT
 70
     0
  9
$DIMFRAC
 70
     0
  9
$DIMLDRBLK
  1
Open30
  9
$DIMLUNIT
 70
     2
  9
$DIMLWD
 70
    -2
  9
$DIMLWE
 70
    -2
  9
$DIMTMOVE
 70
     0
  9
$LUNITS
 70
     2
  9
$LUPREC
 70
     4
  9
$SKETCHINC
 40
0.1
  9
$FILLETRAD
 40
0.0
  9
$AUNITS
 70
     0
  9
$AUPREC
 70
     0
  9
$MENU
  1
.
  9
$ELEVATION
 40
0.0
  9
$PELEVATION
 40
0.0
  9
$THICKNESS
 40
0.0
  9
$LIMCHECK
 70
     0
  9
$CHAMFERA
 40
0.0
  9
$CHAMFERB
 40
0.0
  9
$CHAMFERC
 40
0.0
  9
$CHAMFERD
 40
0.0
  9
$SKPOLY
 70
     0
  9
$TDCREATE
 40
2455650.791382373
  9
$TDUCREATE
 40
2455650.416382373
  9
$TDUPDATE
 40
2456856.611048322
  9
$TDUUPDATE
 40
2456856.236048322
  9
$TDINDWG
 40
0.0250218056
  9
$TDUSRTIMER
 40
0.0250147454
  9
$USRTIMER
 70
     1
  9
$ANGBASE
 50
0.0
  9
$ANGDIR
 70
     0
  9
$PDMODE
 70
     0
  9
$PDSIZE
 40
0.0
  9
$PLINEWID
 40
0.0
  9
$SPLFRAME
 70
     0
  9
$SPLINETYPE
 70
     6
  9
$SPLINESEGS
 70
     8
  9
$HANDSEED
  5
1542
  9
$SURFTAB1
 70
     6
  9
$SURFTAB2
 70
     6
  9
$SURFTYPE
 70
     6
  9
$SURFU
 70
     6
  9
$SURFV
 70
     6
  9
$UCSBASE
  2

  9
$UCSNAME
  2

  9
$UCSORG
 10
0.0
 20
0.0
 30
0.0
  9
$UCSXDIR
 10
1.0
 20
0.0
 30
0.0
  9
$UCSYDIR
 10
0.0
 20
1.0
 30
0.0
  9
$UCSORTHOREF
  2

  9
$UCSORTHOVIEW
 70
     0
  9
$UCSORGTOP
 10
0.0
 20
0.0
 30
0.0
  9
$UCSORGBOTTOM
 10
0.0
 20
0.0
 30
0.0
  9
$UCSORGLEFT
 10
0.0
 20
0.0
 30
0.0
  9
$UCSORGRIGHT
 10
0.0
 20
0.0
 30
0.0
  9
$UCSORGFRONT
 10
0.0
 20
0.0
 30
0.0
  9
$UCSORGBACK
 10
0.0
 20
0.0
 30
0.0
  9
$PUCSBASE
  2

  9
$PUCSNAME
  2

  9
$PUCSORG
 10
0.0
 20
0.0
 30
0.0
  9
$PUCSXDIR
 10
1.0
 20
0.0
 30
0.0
  9
$PUCSYDIR
 10
0.0
 20
1.0
 30
0.0
  9
$PUCSORTHOREF
  2

  9
$PUCSORTHOVIEW
 70
     0
  9
$PUCSORGTOP
 10
0.0
 20
0.0
 30
0.0
  9
$PUCSORGBOTTOM
 10
0.0
 20
0.0
 30
0.0
  9
$PUCSORGLEFT
 10
0.0
 20
0.0
 30
0.0
  9
$PUCSORGRIGHT
 10
0.0
 20
0.0
 30
0.0
  9
$PUCSORGFRONT
 10
0.0
 20
0.0
 30
0.0
  9
$PUCSORGBACK
 10
0.0
 20
0.0
 30
0.0
  9
$USERI1
 70
     0
  9
$USERI2
 70
     0
  9
$USERI3
 70
     0
  9
$USERI4
 70
     0
  9
$USERI5
 70
     0
  9
$USERR1
 40
0.0
  9
$USERR2
 40
0.0
  9
$USERR3
 40
0.0
  9
$USERR4
 40
0.0
  9
$USERR5
 40
0.0
  9
$WORLDVIEW
 70
     1
  9
$SHADEDGE
 70
     3
  9
$SHADEDIF
 70
    70
  9
$TILEMODE
 70
     1
  9
$MAXACTVP
 70
    64
  9
$PINSBASE
 10
0.0
 20
0.0
 30
0.0
  9
$PLIMCHECK
 70
     0
  9
$PEXTMIN
 10
0.0
 20
0.0
 30
0.0
  9
$PEXTMAX
 10
0.0
 20
0.0
 30
0.0
  9
$PLIMMIN
 10
0.0
 20
0.0
  9
$PLIMMAX
 10
12.0
 20
9.0
  9
$UNITMODE
 70
     0
  9
$VISRETAIN
 70
     1
  9
$PLINEGEN
 70
     0
  9
$PSLTSCALE
 70
     1
  9
$TREEDEPTH
 70
  3020
  9
$CMLSTYLE
  2
Standard
  9
$CMLJUST
 70
     0
  9
$CMLSCALE
 40
1.0
  9
$PROXYGRAPHICS
 70
     1
  9
$MEASUREMENT
 70
     1
  9
$CELWEIGHT
370
    -1
  9
$ENDCAPS
280
     0
  9
$JOINSTYLE
280
     0
  9
$LWDISPLAY
290
     0
  9
$INSUNITS
 70
     1
  9
$HYPERLINKBASE
  1

  9
$STYLESHEET
  1
N-PLOT.CTB
  9
$XEDIT
290
     1
  9
$CEPSNTYPE
380
     0
  9
$PSTYLEMODE
290
     1
  9
$FINGERPRINTGUID
  2
{8BECCCD2-9F64-4569-B793-E46FE6F52F63}
  9
$VERSIONGUID
  2
{CA6C716B-7878-45CE-8059-719A685BFF11}
  9
$EXTNAMES
290
     1
  9
$PSVPSCALE
 40
0.0
  9
$OLESTARTUP
290
     0
  0
ENDSEC
  0
SECTION
  2
CLASSES
  0
CLASS
  1
ACDBDICTIONARYWDFLT
  2
AcDbDictionaryWithDefault
  3
ObjectDBX Classes
 90
        0
280
     0
281
     0
  0
CLASS
  1
ACDBPLACEHOLDER
  2
AcDbPlaceHolder
  3
ObjectDBX Classes
 90
        0
280
     0
281
     0
  0
CLASS
  1
LAYOUT
  2
AcDbLayout
  3
ObjectDBX Classes
 90
        0
280
     0
281
     0
  0
CLASS
  1
DICTIONARYVAR
  2
AcDbDictionaryVar
  3
ObjectDBX Classes
 90
        0
280
     0
281
     0
  0
CLASS
  1
TABLESTYLE
  2
AcDbTableStyle
  3
ObjectDBX Classes
 90
     4095
280
     0
281
     0
  0
CLASS
  1
MATERIAL
  2
AcDbMaterial
  3
ObjectDBX Classes
 90
     1153
280
     0
281
     0
  0
CLASS
  1
VISUALSTYLE
  2
AcDbVisualStyle
  3
ObjectDBX Classes
 90
     4095
280
     0
281
     0
  0
CLASS
  1
SORTENTSTABLE
  2
AcDbSortentsTable
  3
ObjectDBX Classes
 90
        0
280
     0
281
     0
  0
CLASS
  1
DIMASSOC
  2
AcDbDimAssoc
  3
"AcDbDimAssoc|Product Desc:     AcDim ARX App For Dimension|Company:          Autodesk, Inc.|WEB Address:      www.autodesk.com"
 90
        0
280
     0
281
     0
  0
CLASS
  1
SCALE
  2
AcDbScale
  3
ObjectDBX Classes
 90
     1153
280
     0
281
     0
  0
CLASS
  1
MLEADERSTYLE
  2
AcDbMLeaderStyle
  3
ACDB_MLEADERSTYLE_CLASS
 90
     4095
280
     0
281
     0
  0
CLASS
  1
CELLSTYLEMAP
  2
AcDbCellStyleMap
  3
ObjectDBX Classes
 90
     1152
280
     0
281
     0
  0
ENDSEC
  0
SECTION
  2
TABLES
  0
TABLE
  2
VPORT
  5
8
330
0
100
AcDbSymbolTable
 70
     1
  0
VPORT
  5
94
330
8
100
AcDbSymbolTableRecord
100
AcDbViewportTableRecord
  2
*Active
 70
     0
 10
0.0
 20
0.0
 11
1.0
 21
1.0
 12
485.9581898270842
 22
79.47389966950021
 13
0.0
 23
0.0
 14
0.5
 24
0.5
 15
0.5
 25
0.5
 16
0.0
 26
0.0
 36
1.0
 17
0.0
 27
0.0
 37
0.0
 40
889.6704610887669
 41
2.22889305816135
 42
50.0
 43
0.0
 44
0.0
 50
0.0
 51
0.0
 71
     0
 72
  1000
 73
     1
 74
     2
 75
     0
 76
     0
 77
     0
 78
     0
281
     0
 65
     1
110
0.0
120
0.0
130
0.0
111
1.0
121
0.0
131
0.0
112
0.0
122
1.0
132
0.0
 79
     0
146
0.0
  0
ENDTAB
  0
TABLE
  2
LTYPE
  5
5
330
0
100
AcDbSymbolTable
 70
     2
  0
LTYPE
  5
14
330
5
100
AcDbSymbolTableRecord
100
AcDbLinetypeTableRecord
  2
ByBlock
 70
     0
  3

 72
    65
 73
     0
 40
0.0
  0
LTYPE
  5
15
330
5
100
AcDbSymbolTableRecord
100
AcDbLinetypeTableRecord
  2
ByLayer
 70
     0
  3

 72
    65
 73
     0
 40
0.0
  0
LTYPE
  5
16
330
5
100
AcDbSymbolTableRecord
100
AcDbLinetypeTableRecord
  2
Continuous
 70
     0
  3
Solid line
 72
    65
 73
     0
 40
0.0
  0
LTYPE
  5
148
330
5
100
AcDbSymbolTableRecord
100
AcDbLinetypeTableRecord
  2
CENTER
 70
     0
  3
Center ____ _ ____ _ ____ _ ____ _ ____ _ ____
 72
    65
 73
     4
 40
50.8
 49
31.75
 74
     0
 49
-6.349999999999997
 74
     0
 49
6.349999999999997
 74
     0
 49
-6.349999999999997
 74
     0
  0
ENDTAB
  0
TABLE
  2
LAYER
  5
2
102
{ACAD_XDICTIONARY
360
DD
102
}
330
0
100
AcDbSymbolTable
 70
     2
  0
LAYER
  5
10
102
{ACAD_XDICTIONARY
360
72C
102
}
330
2
100
AcDbSymbolTableRecord
100
AcDbLayerTableRecord
  2
0
 70
     0
 62
     7
  6
Continuous
370
    -3
390
F
  0
LAYER
  5
D8
330
2
100
AcDbSymbolTableRecord
100
AcDbLayerTableRecord
  2
Defpoints
 70
     0
 62
     7
  6
Continuous
290
     0
370
    -3
390
F
  0
ENDTAB
  0
TABLE
  2
STYLE
  5
3
330
0
100
AcDbSymbolTable
 70
     6
  0
STYLE
  5
11
330
3
100
AcDbSymbolTableRecord
100
AcDbTextStyleTableRecord
  2
Standard
 70
     0
 40
0.0
 41
1.0
 50
0.0
 71
     0
 42
0.2
  3
txt.shx
  4
bigfont.shx
  0
STYLE
  5
11D
330
3
100
AcDbSymbolTableRecord
100
AcDbTextStyleTableRecord
  2
高3.2
 70
     0
 40
3.2
 41
1.0
 50
0.0
 71
     0
 42
3.2
  3
txt.shx
  4
bigfont.shx
  0
STYLE
  5
11E
330
3
100
AcDbSymbolTableRecord
100
AcDbTextStyleTableRecord
  2
高6.3
 70
     0
 40
6.299999999999998
 41
1.0
 50
0.0
 71
     0
 42
6.299999999999998
  3
txt.shx
  4
bigfont.shx
  0
STYLE
  5
11F
330
3
100
AcDbSymbolTableRecord
100
AcDbTextStyleTableRecord
  2
高2.5
 70
     0
 40
2.5
 41
1.0
 50
0.0
 71
     0
 42
0.2
  3
txt.shx
  4
bigfont.shx
  0
STYLE
  5
146
330
3
100
AcDbSymbolTableRecord
100
AcDbTextStyleTableRecord
  2
高4.5
 70
     0
 40
4.5
 41
1.0
 50
0.0
 71
     0
 42
6.299999999999998
  3
txt.shx
  4
bigfont.shx
  0
STYLE
  5
23A
330
3
100
AcDbSymbolTableRecord
100
AcDbTextStyleTableRecord
  2
高2
 70
     0
 40
2.0
 41
1.0
 50
0.0
 71
     0
 42
6.299999999999998
  3
txt.shx
  4
bigfont.shx
  0
ENDTAB
  0
TABLE
  2
VIEW
  5
6
330
0
100
AcDbSymbolTable
 70
     0
  0
ENDTAB
  0
TABLE
  2
UCS
  5
7
330
0
100
AcDbSymbolTable
 70
     0
  0
ENDTAB
  0
TABLE
  2
APPID
  5
9
330
0
100
AcDbSymbolTable
 70
    10
  0
APPID
  5
12
330
9
100
AcDbSymbolTableRecord
100
AcDbRegAppTableRecord
  2
ACAD
 70
     0
  0
APPID
  5
DC
330
9
100
AcDbSymbolTableRecord
100
AcDbRegAppTableRecord
  2
ACAD_DSTYLE_DIMJOGGED_JOGANGLE_SYMBOL
 70
     0
  0
APPID
  5
23C
330
9
100
AcDbSymbolTableRecord
100
AcDbRegAppTableRecord
  2
AcAecLayerStandard
 70
     0
  0
APPID
  5
76B
330
9
100
AcDbSymbolTableRecord
100
AcDbRegAppTableRecord
  2
ACAD_DSTYLE_DIMARC_LENGTH_SYMBOL
 70
     0
  0
APPID
  5
76C
330
9
100
AcDbSymbolTableRecord
100
AcDbRegAppTableRecord
  2
ACAD_DSTYLE_DIMEXT_LENGTH
 70
     0
  0
APPID
  5
781
330
9
100
AcDbSymbolTableRecord
100
AcDbRegAppTableRecord
  2
ACAD_MLEADERVER
 70
     0
  0
APPID
  5
8B5
330
9
100
AcDbSymbolTableRecord
100
AcDbRegAppTableRecord
  2
ACAD_EXEMPT_FROM_CAD_STANDARDS
 70
     0
  0
APPID
  5
11FE
330
9
100
AcDbSymbolTableRecord
100
AcDbRegAppTableRecord
  2
ACAD_DSTYLE_DIMJAG
 70
     0
  0
APPID
  5
11FF
330
9
100
AcDbSymbolTableRecord
100
AcDbRegAppTableRecord
  2
ACAD_DSTYLE_DIMBREAK
 70
     0
  0
APPID
  5
1200
330
9
100
AcDbSymbolTableRecord
100
AcDbRegAppTableRecord
  2
ACAD_DSTYLE_DIMTALN
 70
     0
  0
ENDTAB
  0
TABLE
  2
DIMSTYLE
  5
A
330
0
100
AcDbSymbolTable
 70
    11
100
AcDbDimStyleTable
 71
     1
340
D9
  0
DIMSTYLE
105
D9
330
A
100
AcDbSymbolTableRecord
100
AcDbDimStyleTableRecord
  2
1：1
 70
     0
 41
2.5
 42
0.25
 43
0.2
 44
1.25
 73
     0
 74
     0
 77
     3
 78
     8
 79
     2
140
3.0
141
0.0
143
0.03937007874016
147
0.625
171
     3
172
     1
178
     4
179
     1
271
     2
272
     2
274
     3
283
     0
284
     8
288
     1
289
     0
340
11
341
C6
342
C6
1001
ACAD_DSTYLE_DIMARC_LENGTH_SYMBOL
1070
   379
1070
     2
1001
ACAD_DSTYLE_DIMEXT_LENGTH
1070
   378
1040
1.25
1001
ACAD_DSTYLE_DIMJOGGED_JOGANGLE_SYMBOL
1070
   384
1040
1.570796326794896
  0
DIMSTYLE
105
128
330
A
100
AcDbSymbolTableRecord
100
AcDbDimStyleTableRecord
  2
1／2
 70
     0
 41
2.5
 42
0.25
 43
0.2
 44
1.25
 73
     0
 74
     0
 77
     3
 78
     8
 79
     2
140
3.0
141
0.0
143
0.03937007874016
144
2.0
147
0.625
171
     3
172
     1
178
     4
179
     1
271
     2
272
     2
274
     3
283
     0
284
     8
288
     1
289
     0
340
11
341
C6
342
C6
1001
ACAD_DSTYLE_DIMARC_LENGTH_SYMBOL
1070
   379
1070
     2
1001
ACAD_DSTYLE_DIMEXT_LENGTH
1070
   378
1040
1.25
1001
ACAD_DSTYLE_DIMJOGGED_JOGANGLE_SYMBOL
1070
   384
1040
1.570796326794896
  0
DIMSTYLE
105
23B
330
A
100
AcDbSymbolTableRecord
100
AcDbDimStyleTableRecord
  2
Standard
 70
     0
140
3.0
340
11
  0
DIMSTYLE
105
11F6
102
{ACAD_REACTORS
330
1209
102
}
330
A
100
AcDbSymbolTableRecord
100
AcDbDimStyleTableRecord
  2
2：1
 70
     0
 41
2.5
 42
0.25
 43
0.2
 44
1.25
 73
     0
 74
     0
 77
     3
 78
     8
 79
     2
140
3.0
141
0.0
143
0.03937007874016
144
0.5
147
0.625
171
     3
172
     1
178
     4
179
     1
271
     2
272
     2
274
     3
283
     0
284
     8
288
     1
289
     0
340
11
341
C6
342
C6
1001
ACAD_DSTYLE_DIMARC_LENGTH_SYMBOL
1070
   379
1070
     2
1001
ACAD_DSTYLE_DIMEXT_LENGTH
1070
   378
1040
1.25
1001
ACAD_DSTYLE_DIMJOGGED_JOGANGLE_SYMBOL
1070
   384
1040
1.570796326794896
  0
DIMSTYLE
105
11F7
102
{ACAD_REACTORS
330
120A
102
}
330
A
100
AcDbSymbolTableRecord
100
AcDbDimStyleTableRecord
  2
5：1
 70
     0
 41
2.5
 42
0.25
 43
0.2
 44
1.25
 73
     0
 74
     0
 77
     3
 78
     8
 79
     2
140
3.0
141
0.0
143
0.03937007874016
144
0.2
147
0.625
171
     3
172
     1
178
     4
179
     1
271
     2
272
     2
274
     3
283
     0
284
     8
288
     1
289
     0
340
11
341
C6
342
C6
1001
ACAD_DSTYLE_DIMARC_LENGTH_SYMBOL
1070
   379
1070
     2
1001
ACAD_DSTYLE_DIMEXT_LENGTH
1070
   378
1040
1.25
1001
ACAD_DSTYLE_DIMJOGGED_JOGANGLE_SYMBOL
1070
   384
1040
1.570796326794896
  0
DIMSTYLE
105
11F8
102
{ACAD_REACTORS
330
1208
102
}
330
A
100
AcDbSymbolTableRecord
100
AcDbDimStyleTableRecord
  2
10：1
 70
     0
 41
2.5
 42
0.25
 43
0.2
 44
1.25
 73
     0
 74
     0
 77
     3
 78
     8
 79
     2
140
3.0
141
0.0
143
0.03937007874016
144
0.1
147
0.625
171
     3
172
     1
178
     4
179
     1
271
     2
272
     2
274
     3
283
     0
284
     8
288
     1
289
     0
340
11
341
C6
342
C6
1001
ACAD_DSTYLE_DIMARC_LENGTH_SYMBOL
1070
   379
1070
     2
1001
ACAD_DSTYLE_DIMEXT_LENGTH
1070
   378
1040
1.25
1001
ACAD_DSTYLE_DIMJOGGED_JOGANGLE_SYMBOL
1070
   384
1040
1.570796326794896
  0
DIMSTYLE
105
11F9
102
{ACAD_REACTORS
330
1205
102
}
330
A
100
AcDbSymbolTableRecord
100
AcDbDimStyleTableRecord
  2
1／5
 70
     0
 41
2.5
 42
0.25
 43
0.2
 44
1.25
 73
     0
 74
     0
 77
     3
 78
     8
 79
     2
140
3.0
141
0.0
143
0.03937007874016
144
5.0
147
0.625
171
     3
172
     1
178
     4
179
     1
271
     2
272
     2
274
     3
283
     0
284
     8
288
     1
289
     0
340
11
341
C6
342
C6
1001
ACAD_DSTYLE_DIMARC_LENGTH_SYMBOL
1070
   379
1070
     2
1001
ACAD_DSTYLE_DIMEXT_LENGTH
1070
   378
1040
1.25
1001
ACAD_DSTYLE_DIMJOGGED_JOGANGLE_SYMBOL
1070
   384
1040
1.570796326794896
  0
DIMSTYLE
105
11FA
102
{ACAD_REACTORS
330
1207
102
}
330
A
100
AcDbSymbolTableRecord
100
AcDbDimStyleTableRecord
  2
1／10
 70
     0
 41
2.5
 42
0.25
 43
0.2
 44
1.25
 73
     0
 74
     0
 77
     3
 78
     8
 79
     2
140
3.0
141
0.0
143
0.03937007874016
144
10.0
147
0.625
171
     3
172
     1
178
     4
179
     1
271
     2
272
     2
274
     3
283
     0
284
     8
288
     1
289
     0
340
11
341
C6
342
C6
1001
ACAD_DSTYLE_DIMARC_LENGTH_SYMBOL
1070
   379
1070
     2
1001
ACAD_DSTYLE_DIMEXT_LENGTH
1070
   378
1040
1.25
1001
ACAD_DSTYLE_DIMJOGGED_JOGANGLE_SYMBOL
1070
   384
1040
1.570796326794896
  0
DIMSTYLE
105
11FB
102
{ACAD_REACTORS
330
120B
102
}
330
A
100
AcDbSymbolTableRecord
100
AcDbDimStyleTableRecord
  2
1／4
 70
     0
 41
2.5
 42
0.25
 43
0.2
 44
1.25
 73
     0
 74
     0
 77
     3
 78
     8
 79
     2
140
3.0
141
0.0
143
0.03937007874016
144
4.0
147
0.625
171
     3
172
     1
178
     4
179
     1
271
     2
272
     2
274
     3
283
     0
284
     8
288
     1
289
     0
340
11
341
C6
342
C6
1001
ACAD_DSTYLE_DIMARC_LENGTH_SYMBOL
1070
   379
1070
     2
1001
ACAD_DSTYLE_DIMEXT_LENGTH
1070
   378
1040
1.25
1001
ACAD_DSTYLE_DIMJOGGED_JOGANGLE_SYMBOL
1070
   384
1040
1.570796326794896
  0
DIMSTYLE
105
11FC
102
{ACAD_REACTORS
330
120C
102
}
330
A
100
AcDbSymbolTableRecord
100
AcDbDimStyleTableRecord
  2
1／3
 70
     0
 41
2.5
 42
0.25
 43
0.2
 44
1.25
 73
     0
 74
     0
 77
     3
 78
     8
 79
     2
140
3.0
141
0.0
143
0.03937007874016
144
3.0
147
0.625
171
     3
172
     1
178
     4
179
     1
271
     2
272
     2
274
     3
283
     0
284
     8
288
     1
289
     0
340
11
341
C6
342
C6
1001
ACAD_DSTYLE_DIMARC_LENGTH_SYMBOL
1070
   379
1070
     2
1001
ACAD_DSTYLE_DIMEXT_LENGTH
1070
   378
1040
1.25
1001
ACAD_DSTYLE_DIMJOGGED_JOGANGLE_SYMBOL
1070
   384
1040
1.570796326794896
  0
DIMSTYLE
105
11FD
102
{ACAD_REACTORS
330
120D
102
}
330
A
100
AcDbSymbolTableRecord
100
AcDbDimStyleTableRecord
  2
FREE
 70
     0
 41
2.5
 42
0.25
 43
0.2
 44
1.25
 73
     0
 74
     0
 77
     3
 78
     8
 79
     2
140
3.0
141
0.0
143
0.03937007874016
147
0.625
171
     3
172
     1
178
     4
179
     1
271
     2
272
     2
274
     3
283
     0
284
     8
288
     1
289
     0
340
11
341
C6
342
C6
1001
ACAD_DSTYLE_DIMBREAK
1070
   391
1040
3.75
1001
ACAD_DSTYLE_DIMJAG
1070
   388
1040
1.5
1001
ACAD_DSTYLE_DIMTALN
1070
   392
1070
     0
1001
ACAD_DSTYLE_DIMARC_LENGTH_SYMBOL
1070
   379
1070
     2
1001
ACAD_DSTYLE_DIMEXT_LENGTH
1070
   378
1040
1.25
1001
ACAD_DSTYLE_DIMJOGGED_JOGANGLE_SYMBOL
1070
   384
1040
1.570796326794896
  0
ENDTAB
  0
TABLE
  2
BLOCK_RECORD
  5
1
330
0
100
AcDbSymbolTable
 70
    38
  0
BLOCK_RECORD
  5
1F
102
{ACAD_XDICTIONARY
360
709
102
}
330
1
100
AcDbSymbolTableRecord
100
AcDbBlockTableRecord
  2
*Model_Space
340
22
  0
BLOCK_RECORD
  5
58
330
1
100
AcDbSymbolTableRecord
100
AcDbBlockTableRecord
  2
*Paper_Space
340
59
  0
BLOCK_RECORD
  5
5D
330
1
100
AcDbSymbolTableRecord
100
AcDbBlockTableRecord
  2
*Paper_Space0
340
5E
  0
BLOCK_RECORD
  5
C6
330
1
100
AcDbSymbolTableRecord
100
AcDbBlockTableRecord
  2
_Open30
340
0
102
{BLKREFS
331
10E4
331
10E5
331
10ED
331
10EE
331
10F6
331
10F7
331
10FF
331
1100
331
1108
331
1109
331
1111
331
1112
331
111A
331
111B
331
1123
331
1124
331
112C
331
112D
331
1136
331
1137
331
113F
331
1140
331
114A
331
114B
331
1153
331
1154
331
115C
331
115D
331
1165
331
1166
331
1173
331
1174
331
1181
331
1182
331
118F
331
1190
331
119D
331
119E
331
11AB
331
11AC
331
11B9
331
11BA
331
11C7
331
11C8
331
11D5
331
11D6
331
11E3
331
11E4
331
11EF
331
11F0
331
12DA
331
12DB
331
12E5
331
12E6
331
12F0
331
12F1
331
12FB
331
12FC
331
1306
331
1307
331
1311
331
1312
331
131C
331
131D
331
1327
331
1328
331
1332
331
1333
331
133B
331
133C
102
}
  0
BLOCK_RECORD
  5
5F1
330
1
100
AcDbSymbolTableRecord
100
AcDbBlockTableRecord
  2
*D2
340
0
  0
BLOCK_RECORD
  5
5FD
330
1
100
AcDbSymbolTableRecord
100
AcDbBlockTableRecord
  2
*D3
340
0
  0
BLOCK_RECORD
  5
609
330
1
100
AcDbSymbolTableRecord
100
AcDbBlockTableRecord
  2
*D4
340
0
  0
BLOCK_RECORD
  5
615
330
1
100
AcDbSymbolTableRecord
100
AcDbBlockTableRecord
  2
*D5
340
0
  0
BLOCK_RECORD
  5
621
330
1
100
AcDbSymbolTableRecord
100
AcDbBlockTableRecord
  2
*D6
340
0
  0
BLOCK_RECORD
  5
62C
330
1
100
AcDbSymbolTableRecord
100
AcDbBlockTableRecord
  2
*D7
340
0
  0
BLOCK_RECORD
  5
63A
330
1
100
AcDbSymbolTableRecord
100
AcDbBlockTableRecord
  2
*D8
340
0
  0
BLOCK_RECORD
  5
646
330
1
100
AcDbSymbolTableRecord
100
AcDbBlockTableRecord
  2
*D9
340
0
  0
BLOCK_RECORD
  5
684
330
1
100
AcDbSymbolTableRecord
100
AcDbBlockTableRecord
  2
*D10
340
0
  0
BLOCK_RECORD
  5
690
330
1
100
AcDbSymbolTableRecord
100
AcDbBlockTableRecord
  2
*D11
340
0
  0
BLOCK_RECORD
  5
69C
330
1
100
AcDbSymbolTableRecord
100
AcDbBlockTableRecord
  2
*D12
340
0
  0
BLOCK_RECORD
  5
6C4
330
1
100
AcDbSymbolTableRecord
100
AcDbBlockTableRecord
  2
*D13
340
0
  0
BLOCK_RECORD
  5
6D2
330
1
100
AcDbSymbolTableRecord
100
AcDbBlockTableRecord
  2
*D14
340
0
  0
BLOCK_RECORD
  5
6DE
330
1
100
AcDbSymbolTableRecord
100
AcDbBlockTableRecord
  2
*D15
340
0
  0
BLOCK_RECORD
  5
6EA
330
1
100
AcDbSymbolTableRecord
100
AcDbBlockTableRecord
  2
*D16
340
0
  0
BLOCK_RECORD
  5
116C
330
1
100
AcDbSymbolTableRecord
100
AcDbBlockTableRecord
  2
*D17
340
0
  0
BLOCK_RECORD
  5
117A
330
1
100
AcDbSymbolTableRecord
100
AcDbBlockTableRecord
  2
*D18
340
0
  0
BLOCK_RECORD
  5
1188
330
1
100
AcDbSymbolTableRecord
100
AcDbBlockTableRecord
  2
*D19
340
0
  0
BLOCK_RECORD
  5
1196
330
1
100
AcDbSymbolTableRecord
100
AcDbBlockTableRecord
  2
*D20
340
0
  0
BLOCK_RECORD
  5
11A4
330
1
100
AcDbSymbolTableRecord
100
AcDbBlockTableRecord
  2
*D21
340
0
  0
BLOCK_RECORD
  5
11B2
330
1
100
AcDbSymbolTableRecord
100
AcDbBlockTableRecord
  2
*D22
340
0
  0
BLOCK_RECORD
  5
11C0
330
1
100
AcDbSymbolTableRecord
100
AcDbBlockTableRecord
  2
*D23
340
0
  0
BLOCK_RECORD
  5
11CE
330
1
100
AcDbSymbolTableRecord
100
AcDbBlockTableRecord
  2
*D24
340
0
  0
BLOCK_RECORD
  5
11DC
330
1
100
AcDbSymbolTableRecord
100
AcDbBlockTableRecord
  2
*D25
340
0
  0
BLOCK_RECORD
  5
11EA
330
1
100
AcDbSymbolTableRecord
100
AcDbBlockTableRecord
  2
*D26
340
0
  0
BLOCK_RECORD
  5
124B
330
1
100
AcDbSymbolTableRecord
100
AcDbBlockTableRecord
  2
*D28
340
0
  0
BLOCK_RECORD
  5
1259
330
1
100
AcDbSymbolTableRecord
100
AcDbBlockTableRecord
  2
*D29
340
0
  0
BLOCK_RECORD
  5
1267
330
1
100
AcDbSymbolTableRecord
100
AcDbBlockTableRecord
  2
*D30
340
0
  0
BLOCK_RECORD
  5
1275
330
1
100
AcDbSymbolTableRecord
100
AcDbBlockTableRecord
  2
*D31
340
0
  0
BLOCK_RECORD
  5
1283
330
1
100
AcDbSymbolTableRecord
100
AcDbBlockTableRecord
  2
*D32
340
0
  0
BLOCK_RECORD
  5
1291
330
1
100
AcDbSymbolTableRecord
100
AcDbBlockTableRecord
  2
*D33
340
0
  0
BLOCK_RECORD
  5
129F
330
1
100
AcDbSymbolTableRecord
100
AcDbBlockTableRecord
  2
*D34
340
0
  0
BLOCK_RECORD
  5
12AD
330
1
100
AcDbSymbolTableRecord
100
AcDbBlockTableRecord
  2
*D35
340
0
  0
BLOCK_RECORD
  5
12BB
330
1
100
AcDbSymbolTableRecord
100
AcDbBlockTableRecord
  2
*D36
340
0
  0
BLOCK_RECORD
  5
12C9
330
1
100
AcDbSymbolTableRecord
100
AcDbBlockTableRecord
  2
*D37
340
0
  0
ENDTAB
  0
ENDSEC
  0
SECTION
  2
BLOCKS
  0
BLOCK
  5
20
330
1F
100
AcDbEntity
  8
0
100
AcDbBlockBegin
  2
*Model_Space
 70
     0
 10
0.0
 20
0.0
 30
0.0
  3
*Model_Space
  1

  0
ENDBLK
  5
21
330
1F
100
AcDbEntity
  8
0
100
AcDbBlockEnd
  0
BLOCK
  5
5A
330
58
100
AcDbEntity
 67
     1
  8
0
100
AcDbBlockBegin
  2
*Paper_Space
 70
     0
 10
0.0
 20
0.0
 30
0.0
  3
*Paper_Space
  1

  0
ENDBLK
  5
5B
330
58
100
AcDbEntity
 67
     1
  8
0
100
AcDbBlockEnd
  0
BLOCK
  5
5F
330
5D
100
AcDbEntity
 67
     1
  8
0
100
AcDbBlockBegin
  2
*Paper_Space0
 70
     0
 10
0.0
 20
0.0
 30
0.0
  3
*Paper_Space0
  1

  0
ENDBLK
  5
60
330
5D
100
AcDbEntity
 67
     1
  8
0
100
AcDbBlockEnd
  0
BLOCK
  5
C7
330
C6
100
AcDbEntity
  8
0
100
AcDbBlockBegin
  2
_Open30
 70
     0
 10
0.0
 20
0.0
 30
0.0
  3
_Open30
  1

  0
LINE
  5
C8
330
C6
100
AcDbEntity
  8
0
  6
ByBlock
 62
     0
370
    -2
100
AcDbLine
 10
-1.0
 20
0.267949
 30
0.0
 11
0.0
 21
0.0
 31
0.0
  0
LINE
  5
C9
330
C6
100
AcDbEntity
  8
0
  6
ByBlock
 62
     0
370
    -2
100
AcDbLine
 10
0.0
 20
0.0
 30
0.0
 11
-1.0
 21
-0.267949
 31
0.0
  0
LINE
  5
CA
330
C6
100
AcDbEntity
  8
0
  6
ByBlock
 62
     0
370
    -2
100
AcDbLine
 10
0.0
 20
0.0
 30
0.0
 11
-1.0
 21
0.0
 31
0.0
  0
ENDBLK
  5
CB
330
C6
100
AcDbEntity
  8
0
100
AcDbBlockEnd
  0
BLOCK
  5
5F2
330
5F1
100
AcDbEntity
  8
0
100
AcDbBlockBegin
  2
*D2
 70
     1
 10
0.0
 20
0.0
 30
0.0
  3
*D2
  1

  0
LINE
  5
10EA
330
5F1
100
AcDbEntity
  8
0
 62
     0
370
    -2
100
AcDbLine
 10
151.1608167418815
 20
190.3407301660519
 30
0.0
 11
130.1546944610552
 21
190.3407301660519
 31
0.0
  0
LINE
  5
10EB
330
5F1
100
AcDbEntity
  8
0
 62
     0
370
    -2
100
AcDbLine
 10
147.8893178314482
 20
165.340730166052
 30
0.0
 11
130.1546944610552
 21
165.340730166052
 31
0.0
  0
LINE
  5
10EC
330
5F1
100
AcDbEntity
  8
0
 62
     0
370
    -2
100
AcDbLine
 10
131.4046944610552
 20
187.8407301660519
 30
0.0
 11
131.4046944610552
 21
167.840730166052
 31
0.0
  0
INSERT
  5
10ED
330
5F1
100
AcDbEntity
  8
0
 62
     0
370
    -2
100
AcDbBlockReference
  2
_Open30
 10
131.4046944610552
 20
190.3407301660519
 30
0.0
 41
2.5
 42
2.5
 43
2.5
 50
90.0
  0
INSERT
  5
10EE
330
5F1
100
AcDbEntity
  8
0
 62
     0
370
    -2
100
AcDbBlockReference
  2
_Open30
 10
131.4046944610552
 20
165.340730166052
 30
0.0
 41
2.5
 42
2.5
 43
2.5
 50
270.0
  0
MTEXT
  5
10EF
330
5F1
100
AcDbEntity
  8
0
 62
     4
100
AcDbMText
 10
129.2796944610552
 20
177.8407301660519
 30
0.0
 40
3.0
 41
0.0
 71
     5
 72
     1
  1
50
 11
0.0000000000000001
 21
1.0
 31
0.0
 73
     1
 44
1.0
1001
ACAD
1000
MTEXTBEGIN
1070
    73
1070
     1
1070
    44
1040
1.0
1070
    74
1070
     0
1000
MTEXTEND
  0
POINT
  5
10F0
330
5F1
100
AcDbEntity
  8
Defpoints
 62
     0
100
AcDbPoint
 10
151.4108167418815
 20
190.3407301660519
 30
0.0
  0
POINT
  5
10F1
330
5F1
100
AcDbEntity
  8
Defpoints
 62
     0
100
AcDbPoint
 10
148.1393178314482
 20
165.340730166052
 30
0.0
  0
POINT
  5
10F2
330
5F1
100
AcDbEntity
  8
Defpoints
 62
     0
100
AcDbPoint
 10
131.4046944610552
 20
165.340730166052
 30
0.0
  0
ENDBLK
  5
5F3
330
5F1
100
AcDbEntity
  8
0
100
AcDbBlockEnd
  0
BLOCK
  5
5FE
330
5FD
100
AcDbEntity
  8
0
100
AcDbBlockBegin
  2
*D3
 70
     1
 10
0.0
 20
0.0
 30
0.0
  3
*D3
  1

  0
LINE
  5
10F3
330
5FD
100
AcDbEntity
  8
0
 62
     0
370
    -2
100
AcDbLine
 10
147.8893178314482
 20
125.2407301660521
 30
0.0
 11
129.90316197256
 21
125.2407301660521
 31
0.0
  0
LINE
  5
10F4
330
5FD
100
AcDbEntity
  8
0
 62
     0
370
    -2
100
AcDbLine
 10
151.1608167418815
 20
100.240730166052
 30
0.0
 11
129.90316197256
 21
100.240730166052
 31
0.0
  0
LINE
  5
10F5
330
5FD
100
AcDbEntity
  8
0
 62
     0
370
    -2
100
AcDbLine
 10
131.15316197256
 20
122.7407301660521
 30
0.0
 11
131.15316197256
 21
102.740730166052
 31
0.0
  0
INSERT
  5
10F6
330
5FD
100
AcDbEntity
  8
0
 62
     0
370
    -2
100
AcDbBlockReference
  2
_Open30
 10
131.15316197256
 20
125.2407301660521
 30
0.0
 41
2.5
 42
2.5
 43
2.5
 50
90.0
  0
INSERT
  5
10F7
330
5FD
100
AcDbEntity
  8
0
 62
     0
370
    -2
100
AcDbBlockReference
  2
_Open30
 10
131.15316197256
 20
100.240730166052
 30
0.0
 41
2.5
 42
2.5
 43
2.5
 50
270.0
  0
MTEXT
  5
10F8
330
5FD
100
AcDbEntity
  8
0
 62
     4
100
AcDbMText
 10
129.02816197256
 20
112.9085759290659
 30
0.0
 40
3.0
 41
0.0
 71
     5
 72
     1
  1
50
 11
0.0000000000000001
 21
1.0
 31
0.0
 73
     1
 44
1.0
1001
ACAD
1000
MTEXTBEGIN
1070
    73
1070
     1
1070
    44
1040
1.0
1070
    74
1070
     0
1000
MTEXTEND
  0
POINT
  5
10F9
330
5FD
100
AcDbEntity
  8
Defpoints
 62
     0
100
AcDbPoint
 10
148.1393178314482
 20
125.2407301660521
 30
0.0
  0
POINT
  5
10FA
330
5FD
100
AcDbEntity
  8
Defpoints
 62
     0
100
AcDbPoint
 10
151.4108167418815
 20
100.240730166052
 30
0.0
  0
POINT
  5
10FB
330
5FD
100
AcDbEntity
  8
Defpoints
 62
     0
100
AcDbPoint
 10
131.15316197256
 20
100.240730166052
 30
0.0
  0
ENDBLK
  5
5FF
330
5FD
100
AcDbEntity
  8
0
100
AcDbBlockEnd
  0
BLOCK
  5
60A
330
609
100
AcDbEntity
  8
0
100
AcDbBlockBegin
  2
*D4
 70
     1
 10
0.0
 20
0.0
 30
0.0
  3
*D4
  1

  0
LINE
  5
10FC
330
609
100
AcDbEntity
  8
0
 62
     0
370
    -2
100
AcDbLine
 10
148.8608167418813
 20
102.5407301660519
 30
0.0
 11
148.8608167418813
 21
81.63484308843214
 31
0.0
  0
LINE
  5
10FD
330
609
100
AcDbEntity
  8
0
 62
     0
370
    -2
100
AcDbLine
 10
185.1108167418813
 20
100.9579570856392
 30
0.0
 11
185.1108167418813
 21
81.63484308843214
 31
0.0
  0
LINE
  5
10FE
330
609
100
AcDbEntity
  8
0
 62
     0
370
    -2
100
AcDbLine
 10
151.3608167418813
 20
82.88484308843214
 30
0.0
 11
182.6108167418813
 21
82.88484308843214
 31
0.0
  0
INSERT
  5
10FF
330
609
100
AcDbEntity
  8
0
 62
     0
370
    -2
100
AcDbBlockReference
  2
_Open30
 10
148.8608167418813
 20
82.88484308843214
 30
0.0
 41
2.5
 42
2.5
 43
2.5
 50
180.0
  0
INSERT
  5
1100
330
609
100
AcDbEntity
  8
0
 62
     0
370
    -2
100
AcDbBlockReference
  2
_Open30
 10
185.1108167418813
 20
82.88484308843214
 30
0.0
 41
2.5
 42
2.5
 43
2.5
  0
MTEXT
  5
1101
330
609
100
AcDbEntity
  8
0
 62
     4
100
AcDbMText
 10
159.7112596240111
 20
85.00984308843213
 30
0.0
 40
3.0
 41
0.0
 71
     5
 72
     1
  1
72.5
 73
     1
 44
1.0
1001
ACAD
1000
MTEXTBEGIN
1070
    73
1070
     1
1070
    44
1040
1.0
1070
    74
1070
     0
1000
MTEXTEND
  0
POINT
  5
1102
330
609
100
AcDbEntity
  8
Defpoints
 62
     0
100
AcDbPoint
 10
148.8608167418813
 20
102.7907301660519
 30
0.0
  0
POINT
  5
1103
330
609
100
AcDbEntity
  8
Defpoints
 62
     0
100
AcDbPoint
 10
185.1108167418813
 20
101.2079570856392
 30
0.0
  0
POINT
  5
1104
330
609
100
AcDbEntity
  8
Defpoints
 62
     0
100
AcDbPoint
 10
185.1108167418813
 20
82.88484308843214
 30
0.0
  0
ENDBLK
  5
60B
330
609
100
AcDbEntity
  8
0
100
AcDbBlockEnd
  0
BLOCK
  5
616
330
615
100
AcDbEntity
  8
0
100
AcDbBlockBegin
  2
*D5
 70
     1
 10
0.0
 20
0.0
 30
0.0
  3
*D5
  1

  0
LINE
  5
1105
330
615
100
AcDbEntity
  8
0
 62
     0
370
    -2
100
AcDbLine
 10
258.9608167418817
 20
102.5407301660519
 30
0.0
 11
258.9608167418817
 21
83.94495803260122
 31
0.0
  0
LINE
  5
1106
330
615
100
AcDbEntity
  8
0
 62
     0
370
    -2
100
AcDbLine
 10
222.7108167418817
 20
100.9579570856431
 30
0.0
 11
222.7108167418817
 21
83.94495803260122
 31
0.0
  0
LINE
  5
1107
330
615
100
AcDbEntity
  8
0
 62
     0
370
    -2
100
AcDbLine
 10
256.4608167418817
 20
85.19495803260122
 30
0.0
 11
225.2108167418817
 21
85.19495803260122
 31
0.0
  0
INSERT
  5
1108
330
615
100
AcDbEntity
  8
0
 62
     0
370
    -2
100
AcDbBlockReference
  2
_Open30
 10
258.9608167418817
 20
85.19495803260122
 30
0.0
 41
2.5
 42
2.5
 43
2.5
  0
INSERT
  5
1109
330
615
100
AcDbEntity
  8
0
 62
     0
370
    -2
100
AcDbBlockReference
  2
_Open30
 10
222.7108167418817
 20
85.19495803260122
 30
0.0
 41
2.5
 42
2.5
 43
2.5
 50
180.0
  0
MTEXT
  5
110A
330
615
100
AcDbEntity
  8
0
 62
     4
100
AcDbMText
 10
246.6043591720007
 20
87.31995803260122
 30
0.0
 40
3.0
 41
0.0
 71
     5
 72
     1
  1
72.5
 73
     1
 44
1.0
1001
ACAD
1000
MTEXTBEGIN
1070
    73
1070
     1
1070
    44
1040
1.0
1070
    74
1070
     0
1000
MTEXTEND
  0
POINT
  5
110B
330
615
100
AcDbEntity
  8
Defpoints
 62
     0
100
AcDbPoint
 10
258.9608167418817
 20
102.7907301660519
 30
0.0
  0
POINT
  5
110C
330
615
100
AcDbEntity
  8
Defpoints
 62
     0
100
AcDbPoint
 10
222.7108167418817
 20
101.2079570856431
 30
0.0
  0
POINT
  5
110D
330
615
100
AcDbEntity
  8
Defpoints
 62
     0
100
AcDbPoint
 10
222.7108167418817
 20
85.19495803260122
 30
0.0
  0
ENDBLK
  5
617
330
615
100
AcDbEntity
  8
0
100
AcDbBlockEnd
  0
BLOCK
  5
622
330
621
100
AcDbEntity
  8
0
100
AcDbBlockBegin
  2
*D6
 70
     1
 10
0.0
 20
0.0
 30
0.0
  3
*D6
  1

  0
LINE
  5
1129
330
621
100
AcDbEntity
  8
0
 62
     0
370
    -2
100
AcDbLine
 10
301.8715577637093
 20
197.8211792157479
 30
0.0
 11
299.9655928402056
 21
196.203372765528
 31
0.0
  0
LINE
  5
112A
330
621
100
AcDbEntity
  8
0
 62
     0
370
    -2
100
AcDbLine
 10
309.4954174577257
 20
204.2924050166289
 30
0.0
 11
335.5083616141488
 21
226.3725116998669
 31
0.0
  0
LINE
  5
112B
330
621
100
AcDbEntity
  8
0
 62
     0
370
    -2
100
AcDbLine
 10
303.7775226872132
 20
199.4389856659679
 30
0.0
 11
307.5894525342219
 21
202.6745985664089
 31
0.0
  0
INSERT
  5
112C
330
621
100
AcDbEntity
  8
0
 62
     0
370
    -2
100
AcDbBlockReference
  2
_Open30
 10
303.7775226872132
 20
199.4389856659679
 30
0.0
 41
2.5
 42
2.5
 43
2.5
 50
40.32500641219148
  0
INSERT
  5
112D
330
621
100
AcDbEntity
  8
0
 62
     0
370
    -2
100
AcDbBlockReference
  2
_Open30
 10
307.5894525342219
 20
202.6745985664089
 30
0.0
 41
2.5
 42
2.5
 43
2.5
 50
220.3250064121915
  0
MTEXT
  5
112E
330
621
100
AcDbEntity
  8
0
 62
     4
100
AcDbMText
 10
327.4814085484335
 20
222.3464373735776
 30
0.0
 40
3.0
 41
0.0
 71
     5
 72
     1
  1
\U+03C65(内径)
 11
0.7623859694015067
 21
0.6471225800879808
 31
0.0
 73
     1
 44
1.0
1001
ACAD
1000
MTEXTBEGIN
1070
    73
1070
     1
1070
    44
1040
1.0
1070
    74
1070
     0
1000
MTEXTEND
  0
POINT
  5
112F
330
621
100
AcDbEntity
  8
Defpoints
 62
     0
100
AcDbPoint
 10
307.5894525342219
 20
202.6745985664089
 30
0.0
  0
POINT
  5
1130
330
621
100
AcDbEntity
  8
Defpoints
 62
     0
100
AcDbPoint
 10
303.7775226872132
 20
199.4389856659679
 30
0.0
  0
ENDBLK
  5
623
330
621
100
AcDbEntity
  8
0
100
AcDbBlockEnd
  0
BLOCK
  5
62D
330
62C
100
AcDbEntity
  8
0
100
AcDbBlockBegin
  2
*D7
 70
     1
 10
0.0
 20
0.0
 30
0.0
  3
*D7
  1

  0
LINE
  5
1131
330
62C
100
AcDbEntity
  8
0
 62
     0
370
    -2
100
AcDbLine
 10
306.7571718212428
 20
195.8210923442347
 30
0.0
 11
306.7571718212428
 21
192.5620798582125
 31
0.0
  0
LINE
  5
1132
330
62C
100
AcDbEntity
  8
0
 62
     0
370
    -2
100
AcDbLine
 10
308.1834876107185
 20
195.7313611000089
 30
0.0
 11
308.1834876107185
 21
192.5620798582125
 31
0.0
  0
LINE
  5
1133
330
62C
100
AcDbEntity
  8
0
 62
     0
370
    -2
100
AcDbLine
 10
304.2571718212428
 20
193.8120798582125
 30
0.0
 11
301.7571718212428
 21
193.8120798582125
 31
0.0
  0
LINE
  5
1134
330
62C
100
AcDbEntity
  8
0
 62
     0
370
    -2
100
AcDbLine
 10
310.6834876107185
 20
193.8120798582125
 30
0.0
 11
334.4076136269532
 21
193.8120798582125
 31
0.0
  0
LINE
  5
1135
330
62C
100
AcDbEntity
  8
0
 62
     0
370
    -2
100
AcDbLine
 10
306.7571718212428
 20
193.8120798582125
 30
0.0
 11
308.1834876107185
 21
193.8120798582125
 31
0.0
  0
INSERT
  5
1136
330
62C
100
AcDbEntity
  8
0
 62
     0
370
    -2
100
AcDbBlockReference
  2
_Open30
 10
306.7571718212428
 20
193.8120798582125
 30
0.0
 41
2.5
 42
2.5
 43
2.5
  0
INSERT
  5
1137
330
62C
100
AcDbEntity
  8
0
 62
     0
370
    -2
100
AcDbBlockReference
  2
_Open30
 10
308.1834876107185
 20
193.8120798582125
 30
0.0
 41
2.5
 42
2.5
 43
2.5
 50
180.0
  0
MTEXT
  5
1138
330
62C
100
AcDbEntity
  8
0
 62
     4
100
AcDbMText
 10
330.5826136269532
 20
195.9370798582125
 30
0.0
 40
3.0
 41
0.0
 71
     5
 72
     1
  1
任意
 73
     1
 44
1.0
1001
ACAD
1000
MTEXTBEGIN
1070
    73
1070
     1
1070
    44
1040
1.0
1070
    74
1070
     0
1000
MTEXTEND
  0
POINT
  5
1139
330
62C
100
AcDbEntity
  8
Defpoints
 62
     0
100
AcDbPoint
 10
306.7571718212428
 20
196.0710923442347
 30
0.0
  0
POINT
  5
113A
330
62C
100
AcDbEntity
  8
Defpoints
 62
     0
100
AcDbPoint
 10
308.1834876107185
 20
195.9813611000089
 30
0.0
  0
POINT
  5
113B
330
62C
100
AcDbEntity
  8
Defpoints
 62
     0
100
AcDbPoint
 10
308.1834876107185
 20
193.8120798582125
 30
0.0
  0
ENDBLK
  5
62E
330
62C
100
AcDbEntity
  8
0
100
AcDbBlockEnd
  0
BLOCK
  5
63B
330
63A
100
AcDbEntity
  8
0
100
AcDbBlockBegin
  2
*D8
 70
     1
 10
0.0
 20
0.0
 30
0.0
  3
*D8
  1

  0
LINE
  5
113C
330
63A
100
AcDbEntity
  8
0
 62
     0
370
    -2
100
AcDbLine
 10
258.9608167418817
 20
188.0407301660519
 30
0.0
 11
258.9608167418817
 21
219.3250701022084
 31
0.0
  0
LINE
  5
113D
330
63A
100
AcDbEntity
  8
0
 62
     0
370
    -2
100
AcDbLine
 10
148.8608167418813
 20
188.0407301660519
 30
0.0
 11
148.8608167418813
 21
219.3250701022084
 31
0.0
  0
LINE
  5
113E
330
63A
100
AcDbEntity
  8
0
 62
     0
370
    -2
100
AcDbLine
 10
256.4608167418817
 20
218.0750701022084
 30
0.0
 11
151.3608167418813
 21
218.0750701022084
 31
0.0
  0
INSERT
  5
113F
330
63A
100
AcDbEntity
  8
0
 62
     0
370
    -2
100
AcDbBlockReference
  2
_Open30
 10
258.9608167418817
 20
218.0750701022084
 30
0.0
 41
2.5
 42
2.5
 43
2.5
  0
INSERT
  5
1140
330
63A
100
AcDbEntity
  8
0
 62
     0
370
    -2
100
AcDbBlockReference
  2
_Open30
 10
148.8608167418813
 20
218.0750701022084
 30
0.0
 41
2.5
 42
2.5
 43
2.5
 50
180.0
  0
MTEXT
  5
1141
330
63A
100
AcDbEntity
  8
0
 62
     4
100
AcDbMText
 10
203.9108167418815
 20
220.2000701022084
 30
0.0
 40
3.0
 41
0.0
 71
     5
 72
     1
  1
220.2
 73
     1
 44
1.0
1001
ACAD
1000
MTEXTBEGIN
1070
    73
1070
     1
1070
    44
1040
1.0
1070
    74
1070
     0
1000
MTEXTEND
  0
POINT
  5
1142
330
63A
100
AcDbEntity
  8
Defpoints
 62
     0
100
AcDbPoint
 10
258.9608167418817
 20
187.7907301660519
 30
0.0
  0
POINT
  5
1143
330
63A
100
AcDbEntity
  8
Defpoints
 62
     0
100
AcDbPoint
 10
148.8608167418813
 20
187.7907301660519
 30
0.0
  0
POINT
  5
1144
330
63A
100
AcDbEntity
  8
Defpoints
 62
     0
100
AcDbPoint
 10
148.8608167418813
 20
218.0750701022084
 30
0.0
  0
ENDBLK
  5
63C
330
63A
100
AcDbEntity
  8
0
100
AcDbBlockEnd
  0
BLOCK
  5
647
330
646
100
AcDbEntity
  8
0
100
AcDbBlockBegin
  2
*D9
 70
     1
 10
0.0
 20
0.0
 30
0.0
  3
*D9
  1

  0
LINE
  5
10E1
330
646
100
AcDbEntity
  8
0
 62
     0
370
    -2
100
AcDbLine
 10
256.4108167418815
 20
193.0407301660519
 30
0.0
 11
256.4108167418815
 21
212.4251129966209
 31
0.0
  0
LINE
  5
10E2
330
646
100
AcDbEntity
  8
0
 62
     0
370
    -2
100
AcDbLine
 10
151.4108167418815
 20
193.0407301660519
 30
0.0
 11
151.4108167418815
 21
212.4251129966209
 31
0.0
  0
LINE
  5
10E3
330
646
100
AcDbEntity
  8
0
 62
     0
370
    -2
100
AcDbLine
 10
253.9108167418815
 20
211.1751129966208
 30
0.0
 11
153.9108167418815
 21
211.1751129966208
 31
0.0
  0
INSERT
  5
10E4
330
646
100
AcDbEntity
  8
0
 62
     0
370
    -2
100
AcDbBlockReference
  2
_Open30
 10
256.4108167418815
 20
211.1751129966208
 30
0.0
 41
2.5
 42
2.5
 43
2.5
  0
INSERT
  5
10E5
330
646
100
AcDbEntity
  8
0
 62
     0
370
    -2
100
AcDbBlockReference
  2
_Open30
 10
151.4108167418815
 20
211.1751129966208
 30
0.0
 41
2.5
 42
2.5
 43
2.5
 50
180.0
  0
MTEXT
  5
10E6
330
646
100
AcDbEntity
  8
0
 62
     4
100
AcDbMText
 10
204.9404522712265
 20
213.3001129966209
 30
0.0
 40
3.0
 41
0.0
 71
     5
 72
     1
  1
210
 73
     1
 44
1.0
1001
ACAD
1000
MTEXTBEGIN
1070
    73
1070
     1
1070
    44
1040
1.0
1070
    74
1070
     0
1000
MTEXTEND
  0
POINT
  5
10E7
330
646
100
AcDbEntity
  8
Defpoints
 62
     0
100
AcDbPoint
 10
256.4108167418815
 20
192.7907301660519
 30
0.0
  0
POINT
  5
10E8
330
646
100
AcDbEntity
  8
Defpoints
 62
     0
100
AcDbPoint
 10
151.4108167418815
 20
192.7907301660519
 30
0.0
  0
POINT
  5
10E9
330
646
100
AcDbEntity
  8
Defpoints
 62
     0
100
AcDbPoint
 10
151.4108167418815
 20
211.1751129966208
 30
0.0
  0
ENDBLK
  5
648
330
646
100
AcDbEntity
  8
0
100
AcDbBlockEnd
  0
BLOCK
  5
685
330
684
100
AcDbEntity
  8
0
100
AcDbBlockBegin
  2
*D10
 70
     1
 10
0.0
 20
0.0
 30
0.0
  3
*D10
  1

  0
LINE
  5
110E
330
684
100
AcDbEntity
  8
0
 62
     0
370
    -2
100
AcDbLine
 10
261.6608167418816
 20
187.7907301660519
 30
0.0
 11
287.5506495541321
 21
187.7907301660519
 31
0.0
  0
LINE
  5
110F
330
684
100
AcDbEntity
  8
0
 62
     0
370
    -2
100
AcDbLine
 10
261.6608167418816
 20
102.7907301660519
 30
0.0
 11
287.550649554132
 21
102.7907301660519
 31
0.0
  0
LINE
  5
1110
330
684
100
AcDbEntity
  8
0
 62
     0
370
    -2
100
AcDbLine
 10
286.3006495541321
 20
185.2907301660519
 30
0.0
 11
286.300649554132
 21
105.2907301660519
 31
0.0
  0
INSERT
  5
1111
330
684
100
AcDbEntity
  8
0
 62
     0
370
    -2
100
AcDbBlockReference
  2
_Open30
 10
286.3006495541321
 20
187.7907301660519
 30
0.0
 41
2.5
 42
2.5
 43
2.5
 50
90.0
  0
INSERT
  5
1112
330
684
100
AcDbEntity
  8
0
 62
     0
370
    -2
100
AcDbBlockReference
  2
_Open30
 10
286.300649554132
 20
102.7907301660519
 30
0.0
 41
2.5
 42
2.5
 43
2.5
 50
270.0
  0
MTEXT
  5
1113
330
684
100
AcDbEntity
  8
0
 62
     4
100
AcDbMText
 10
284.175649554132
 20
145.0512976436079
 30
0.0
 40
3.0
 41
0.0
 71
     5
 72
     1
  1
170
 11
0.0000000000000001
 21
1.0
 31
0.0
 73
     1
 44
1.0
1001
ACAD
1000
MTEXTBEGIN
1070
    73
1070
     1
1070
    44
1040
1.0
1070
    74
1070
     0
1000
MTEXTEND
  0
POINT
  5
1114
330
684
100
AcDbEntity
  8
Defpoints
 62
     0
100
AcDbPoint
 10
261.4108167418816
 20
187.7907301660519
 30
0.0
  0
POINT
  5
1115
330
684
100
AcDbEntity
  8
Defpoints
 62
     0
100
AcDbPoint
 10
261.4108167418816
 20
102.7907301660519
 30
0.0
  0
POINT
  5
1116
330
684
100
AcDbEntity
  8
Defpoints
 62
     0
100
AcDbPoint
 10
286.300649554132
 20
102.7907301660519
 30
0.0
  0
ENDBLK
  5
686
330
684
100
AcDbEntity
  8
0
100
AcDbBlockEnd
  0
BLOCK
  5
691
330
690
100
AcDbEntity
  8
0
100
AcDbBlockBegin
  2
*D11
 70
     1
 10
0.0
 20
0.0
 30
0.0
  3
*D11
  1

  0
LINE
  5
1117
330
690
100
AcDbEntity
  8
0
 62
     0
370
    -2
100
AcDbLine
 10
261.6608167418816
 20
187.7907301660519
 30
0.0
 11
279.3071703791611
 21
187.7907301660519
 31
0.0
  0
LINE
  5
1118
330
690
100
AcDbEntity
  8
0
 62
     0
370
    -2
100
AcDbLine
 10
259.932315652314
 20
165.340730166052
 30
0.0
 11
279.3071703791611
 21
165.340730166052
 31
0.0
  0
LINE
  5
1119
330
690
100
AcDbEntity
  8
0
 62
     0
370
    -2
100
AcDbLine
 10
278.057170379161
 20
185.2907301660519
 30
0.0
 11
278.057170379161
 21
167.840730166052
 31
0.0
  0
INSERT
  5
111A
330
690
100
AcDbEntity
  8
0
 62
     0
370
    -2
100
AcDbBlockReference
  2
_Open30
 10
278.057170379161
 20
187.7907301660519
 30
0.0
 41
2.5
 42
2.5
 43
2.5
 50
90.0
  0
INSERT
  5
111B
330
690
100
AcDbEntity
  8
0
 62
     0
370
    -2
100
AcDbBlockReference
  2
_Open30
 10
278.057170379161
 20
165.340730166052
 30
0.0
 41
2.5
 42
2.5
 43
2.5
 50
270.0
  0
MTEXT
  5
111C
330
690
100
AcDbEntity
  8
0
 62
     4
100
AcDbMText
 10
275.932170379161
 20
175.7663306516789
 30
0.0
 40
3.0
 41
0.0
 71
     5
 72
     1
  1
(44.9)
 11
0.0000000000000001
 21
1.0
 31
0.0
 73
     1
 44
1.0
1001
ACAD
1000
MTEXTBEGIN
1070
    73
1070
     1
1070
    44
1040
1.0
1070
    74
1070
     0
1000
MTEXTEND
  0
POINT
  5
111D
330
690
100
AcDbEntity
  8
Defpoints
 62
     0
100
AcDbPoint
 10
261.4108167418816
 20
187.7907301660519
 30
0.0
  0
POINT
  5
111E
330
690
100
AcDbEntity
  8
Defpoints
 62
     0
100
AcDbPoint
 10
259.682315652314
 20
165.340730166052
 30
0.0
  0
POINT
  5
111F
330
690
100
AcDbEntity
  8
Defpoints
 62
     0
100
AcDbPoint
 10
278.057170379161
 20
165.340730166052
 30
0.0
  0
ENDBLK
  5
692
330
690
100
AcDbEntity
  8
0
100
AcDbBlockEnd
  0
BLOCK
  5
69D
330
69C
100
AcDbEntity
  8
0
100
AcDbBlockBegin
  2
*D12
 70
     1
 10
0.0
 20
0.0
 30
0.0
  3
*D12
  1

  0
LINE
  5
1120
330
69C
100
AcDbEntity
  8
0
 62
     0
370
    -2
100
AcDbLine
 10
259.932315652314
 20
125.240730166052
 30
0.0
 11
277.755933432887
 21
125.240730166052
 31
0.0
  0
LINE
  5
1121
330
69C
100
AcDbEntity
  8
0
 62
     0
370
    -2
100
AcDbLine
 10
261.6608167418816
 20
102.7907301660519
 30
0.0
 11
277.755933432887
 21
102.7907301660519
 31
0.0
  0
LINE
  5
1122
330
69C
100
AcDbEntity
  8
0
 62
     0
370
    -2
100
AcDbLine
 10
276.5059334328869
 20
122.740730166052
 30
0.0
 11
276.5059334328869
 21
105.2907301660519
 31
0.0
  0
INSERT
  5
1123
330
69C
100
AcDbEntity
  8
0
 62
     0
370
    -2
100
AcDbBlockReference
  2
_Open30
 10
276.5059334328869
 20
125.240730166052
 30
0.0
 41
2.5
 42
2.5
 43
2.5
 50
90.0
  0
INSERT
  5
1124
330
69C
100
AcDbEntity
  8
0
 62
     0
370
    -2
100
AcDbBlockReference
  2
_Open30
 10
276.5059334328869
 20
102.7907301660519
 30
0.0
 41
2.5
 42
2.5
 43
2.5
 50
270.0
  0
MTEXT
  5
1125
330
69C
100
AcDbEntity
  8
0
 62
     4
100
AcDbMText
 10
274.3809334328869
 20
113.6414863622578
 30
0.0
 40
3.0
 41
0.0
 71
     5
 72
     1
  1
(44.9)
 11
0.0000000000000001
 21
1.0
 31
0.0
 73
     1
 44
1.0
1001
ACAD
1000
MTEXTBEGIN
1070
    73
1070
     1
1070
    44
1040
1.0
1070
    74
1070
     0
1000
MTEXTEND
  0
POINT
  5
1126
330
69C
100
AcDbEntity
  8
Defpoints
 62
     0
100
AcDbPoint
 10
259.682315652314
 20
125.240730166052
 30
0.0
  0
POINT
  5
1127
330
69C
100
AcDbEntity
  8
Defpoints
 62
     0
100
AcDbPoint
 10
261.4108167418816
 20
102.7907301660519
 30
0.0
  0
POINT
  5
1128
330
69C
100
AcDbEntity
  8
Defpoints
 62
     0
100
AcDbPoint
 10
276.5059334328869
 20
102.7907301660519
 30
0.0
  0
ENDBLK
  5
69E
330
69C
100
AcDbEntity
  8
0
100
AcDbBlockEnd
  0
BLOCK
  5
6C5
330
6C4
100
AcDbEntity
  8
0
100
AcDbBlockBegin
  2
*D13
 70
     1
 10
0.0
 20
0.0
 30
0.0
  3
*D13
  1

  0
LINE
  5
1145
330
6C4
100
AcDbEntity
  8
0
 62
     0
370
    -2
100
AcDbLine
 10
255.2315779263389
 20
251.9621957130913
 30
0.0
 11
282.6077597376078
 21
251.9621957130913
 31
0.0
  0
LINE
  5
1146
330
6C4
100
AcDbEntity
  8
0
 62
     0
370
    -2
100
AcDbLine
 10
256.6608167418806
 20
258.1621957130914
 30
0.0
 11
282.6077597376078
 21
258.1621957130914
 31
0.0
  0
LINE
  5
1147
330
6C4
100
AcDbEntity
  8
0
 62
     0
370
    -2
100
AcDbLine
 10
281.3577597376077
 20
249.4621957130913
 30
0.0
 11
281.3577597376077
 21
246.9621957130913
 31
0.0
  0
LINE
  5
1148
330
6C4
100
AcDbEntity
  8
0
 62
     0
370
    -2
100
AcDbLine
 10
281.3577597376077
 20
260.6621957130914
 30
0.0
 11
281.3577597376077
 21
272.4121957130923
 31
0.0
  0
LINE
  5
1149
330
6C4
100
AcDbEntity
  8
0
 62
     0
370
    -2
100
AcDbLine
 10
281.3577597376077
 20
251.9621957130913
 30
0.0
 11
281.3577597376077
 21
258.1621957130914
 31
0.0
  0
INSERT
  5
114A
330
6C4
100
AcDbEntity
  8
0
 62
     0
370
    -2
100
AcDbBlockReference
  2
_Open30
 10
281.3577597376077
 20
251.9621957130913
 30
0.0
 41
2.5
 42
2.5
 43
2.5
 50
90.0
  0
INSERT
  5
114B
330
6C4
100
AcDbEntity
  8
0
 62
     0
370
    -2
100
AcDbBlockReference
  2
_Open30
 10
281.3577597376077
 20
258.1621957130914
 30
0.0
 41
2.5
 42
2.5
 43
2.5
 50
270.0
  0
MTEXT
  5
114C
330
6C4
100
AcDbEntity
  8
0
 62
     4
100
AcDbMText
 10
279.2327597376077
 20
267.7871957130923
 30
0.0
 40
3.0
 41
0.0
 71
     5
 72
     1
  1
12.4
 11
0.0000000000000001
 21
1.0
 31
0.0
 73
     1
 44
1.0
1001
ACAD
1000
MTEXTBEGIN
1070
    73
1070
     1
1070
    44
1040
1.0
1070
    74
1070
     0
1000
MTEXTEND
  0
POINT
  5
114D
330
6C4
100
AcDbEntity
  8
Defpoints
 62
     0
100
AcDbPoint
 10
254.9815779263389
 20
251.9621957130913
 30
0.0
  0
POINT
  5
114E
330
6C4
100
AcDbEntity
  8
Defpoints
 62
     0
100
AcDbPoint
 10
256.4108167418806
 20
258.1621957130914
 30
0.0
  0
POINT
  5
114F
330
6C4
100
AcDbEntity
  8
Defpoints
 62
     0
100
AcDbPoint
 10
281.3577597376077
 20
258.1621957130914
 30
0.0
  0
ENDBLK
  5
6C6
330
6C4
100
AcDbEntity
  8
0
100
AcDbBlockEnd
  0
BLOCK
  5
6D3
330
6D2
100
AcDbEntity
  8
0
100
AcDbBlockBegin
  2
*D14
 70
     1
 10
0.0
 20
0.0
 30
0.0
  3
*D14
  1

  0
LINE
  5
1150
330
6D2
100
AcDbEntity
  8
0
 62
     0
370
    -2
100
AcDbLine
 10
260.1439956676921
 20
256.3361358233598
 30
0.0
 11
260.1439956676921
 21
236.6884532679172
 31
0.0
  0
LINE
  5
1151
330
6D2
100
AcDbEntity
  8
0
 62
     0
370
    -2
100
AcDbLine
 10
147.677637816071
 20
256.3361358233598
 30
0.0
 11
147.677637816071
 21
236.6884532679172
 31
0.0
  0
LINE
  5
1152
330
6D2
100
AcDbEntity
  8
0
 62
     0
370
    -2
100
AcDbLine
 10
257.6439956676921
 20
237.9384532679172
 30
0.0
 11
150.177637816071
 21
237.9384532679172
 31
0.0
  0
INSERT
  5
1153
330
6D2
100
AcDbEntity
  8
0
 62
     0
370
    -2
100
AcDbBlockReference
  2
_Open30
 10
260.1439956676921
 20
237.9384532679172
 30
0.0
 41
2.5
 42
2.5
 43
2.5
  0
INSERT
  5
1154
330
6D2
100
AcDbEntity
  8
0
 62
     0
370
    -2
100
AcDbBlockReference
  2
_Open30
 10
147.677637816071
 20
237.9384532679172
 30
0.0
 41
2.5
 42
2.5
 43
2.5
 50
180.0
  0
MTEXT
  5
1155
330
6D2
100
AcDbEntity
  8
0
 62
     4
100
AcDbMText
 10
203.1280048063234
 20
240.0634532679172
 30
0.0
 40
3.0
 41
0.0
 71
     5
 72
     1
  1
224.9
 73
     1
 44
1.0
1001
ACAD
1000
MTEXTBEGIN
1070
    73
1070
     1
1070
    44
1040
1.0
1070
    74
1070
     0
1000
MTEXTEND
  0
POINT
  5
1156
330
6D2
100
AcDbEntity
  8
Defpoints
 62
     0
100
AcDbPoint
 10
260.1439956676921
 20
256.5861358233598
 30
0.0
  0
POINT
  5
1157
330
6D2
100
AcDbEntity
  8
Defpoints
 62
     0
100
AcDbPoint
 10
147.677637816071
 20
256.5861358233598
 30
0.0
  0
POINT
  5
1158
330
6D2
100
AcDbEntity
  8
Defpoints
 62
     0
100
AcDbPoint
 10
147.677637816071
 20
237.9384532679172
 30
0.0
  0
ENDBLK
  5
6D4
330
6D2
100
AcDbEntity
  8
0
100
AcDbBlockEnd
  0
BLOCK
  5
6DF
330
6DE
100
AcDbEntity
  8
0
100
AcDbBlockBegin
  2
*D15
 70
     1
 10
0.0
 20
0.0
 30
0.0
  3
*D15
  1

  0
LINE
  5
1159
330
6DE
100
AcDbEntity
  8
0
 62
     0
370
    -2
100
AcDbLine
 10
349.5488626634497
 20
183.5064913505095
 30
0.0
 11
349.5488626634497
 21
199.9726039721976
 31
0.0
  0
LINE
  5
115A
330
6DE
100
AcDbEntity
  8
0
 62
     0
370
    -2
100
AcDbLine
 10
357.0488626634506
 20
189.940730166052
 30
0.0
 11
357.0488626634506
 21
199.9726039721976
 31
0.0
  0
LINE
  5
115B
330
6DE
100
AcDbEntity
  8
0
 62
     0
370
    -2
100
AcDbLine
 10
352.0488626634497
 20
198.7226039721976
 30
0.0
 11
354.5488626634506
 21
198.7226039721976
 31
0.0
  0
INSERT
  5
115C
330
6DE
100
AcDbEntity
  8
0
 62
     0
370
    -2
100
AcDbBlockReference
  2
_Open30
 10
349.5488626634497
 20
198.7226039721976
 30
0.0
 41
2.5
 42
2.5
 43
2.5
 50
180.0
  0
INSERT
  5
115D
330
6DE
100
AcDbEntity
  8
0
 62
     0
370
    -2
100
AcDbBlockReference
  2
_Open30
 10
357.0488626634506
 20
198.7226039721976
 30
0.0
 41
2.5
 42
2.5
 43
2.5
  0
MTEXT
  5
115E
330
6DE
100
AcDbEntity
  8
0
 62
     4
100
AcDbMText
 10
353.640420904123
 20
200.8476039721976
 30
0.0
 40
3.0
 41
0.0
 71
     5
 72
     1
  1
15
 73
     1
 44
1.0
1001
ACAD
1000
MTEXTBEGIN
1070
    73
1070
     1
1070
    44
1040
1.0
1070
    74
1070
     0
1000
MTEXTEND
  0
POINT
  5
115F
330
6DE
100
AcDbEntity
  8
Defpoints
 62
     0
100
AcDbPoint
 10
349.5488626634497
 20
183.2564913505095
 30
0.0
  0
POINT
  5
1160
330
6DE
100
AcDbEntity
  8
Defpoints
 62
     0
100
AcDbPoint
 10
357.0488626634506
 20
189.690730166052
 30
0.0
  0
POINT
  5
1161
330
6DE
100
AcDbEntity
  8
Defpoints
 62
     0
100
AcDbPoint
 10
357.0488626634506
 20
198.7226039721976
 30
0.0
  0
ENDBLK
  5
6E0
330
6DE
100
AcDbEntity
  8
0
100
AcDbBlockEnd
  0
BLOCK
  5
6EB
330
6EA
100
AcDbEntity
  8
0
100
AcDbBlockBegin
  2
*D16
 70
     1
 10
0.0
 20
0.0
 30
0.0
  3
*D16
  1

  0
LINE
  5
1162
330
6EA
100
AcDbEntity
  8
0
 62
     0
370
    -2
100
AcDbLine
 10
151.1608167418815
 20
100.2407301660519
 30
0.0
 11
123.6447096234175
 21
100.2407301660519
 31
0.0
  0
LINE
  5
1163
330
6EA
100
AcDbEntity
  8
0
 62
     0
370
    -2
100
AcDbLine
 10
151.1608167418815
 20
190.3407301660521
 30
0.0
 11
123.6447096234175
 21
190.3407301660521
 31
0.0
  0
LINE
  5
1164
330
6EA
100
AcDbEntity
  8
0
 62
     0
370
    -2
100
AcDbLine
 10
124.8947096234175
 20
102.7407301660519
 30
0.0
 11
124.8947096234175
 21
187.8407301660521
 31
0.0
  0
INSERT
  5
1165
330
6EA
100
AcDbEntity
  8
0
 62
     0
370
    -2
100
AcDbBlockReference
  2
_Open30
 10
124.8947096234175
 20
100.2407301660519
 30
0.0
 41
2.5
 42
2.5
 43
2.5
 50
270.0
  0
INSERT
  5
1166
330
6EA
100
AcDbEntity
  8
0
 62
     0
370
    -2
100
AcDbBlockReference
  2
_Open30
 10
124.8947096234175
 20
190.3407301660521
 30
0.0
 41
2.5
 42
2.5
 43
2.5
 50
90.0
  0
MTEXT
  5
1167
330
6EA
100
AcDbEntity
  8
0
 62
     4
100
AcDbMText
 10
122.7697096234175
 20
149.881815541375
 30
0.0
 40
3.0
 41
0.0
 71
     5
 72
     1
  1
180.2
 11
0.0000000000000001
 21
1.0
 31
0.0
 73
     1
 44
1.0
1001
ACAD
1000
MTEXTBEGIN
1070
    73
1070
     1
1070
    44
1040
1.0
1070
    74
1070
     0
1000
MTEXTEND
  0
POINT
  5
1168
330
6EA
100
AcDbEntity
  8
Defpoints
 62
     0
100
AcDbPoint
 10
151.4108167418815
 20
100.2407301660519
 30
0.0
  0
POINT
  5
1169
330
6EA
100
AcDbEntity
  8
Defpoints
 62
     0
100
AcDbPoint
 10
151.4108167418815
 20
190.3407301660521
 30
0.0
  0
POINT
  5
116A
330
6EA
100
AcDbEntity
  8
Defpoints
 62
     0
100
AcDbPoint
 10
124.8947096234175
 20
190.3407301660521
 30
0.0
  0
ENDBLK
  5
6EC
330
6EA
100
AcDbEntity
  8
0
100
AcDbBlockEnd
  0
BLOCK
  5
116D
330
116C
100
AcDbEntity
  8
0
100
AcDbBlockBegin
  2
*D17
 70
     1
 10
0.0
 20
0.0
 30
0.0
  3
*D17
  1

  0
LINE
  5
116E
330
116C
100
AcDbEntity
  8
0
 62
     0
370
    -2
100
AcDbLine
 10
-178.2339678749101
 20
-812.0370112307897
 30
0.0
 11
-178.2339678749101
 21
-814.9466426527986
 31
0.0
  0
LINE
  5
116F
330
116C
100
AcDbEntity
  8
0
 62
     0
370
    -2
100
AcDbLine
 10
-180.6911549290304
 20
-812.0370112307897
 30
0.0
 11
-180.6911549290304
 21
-814.9466426527986
 31
0.0
  0
LINE
  5
1170
330
116C
100
AcDbEntity
  8
0
 62
     0
370
    -2
100
AcDbLine
 10
-175.7339678749101
 20
-813.6966426527985
 30
0.0
 11
-173.2339678749101
 21
-813.6966426527985
 31
0.0
  0
LINE
  5
1171
330
116C
100
AcDbEntity
  8
0
 62
     0
370
    -2
100
AcDbLine
 10
-183.1911549290304
 20
-813.6966426527985
 30
0.0
 11
-195.9411549290304
 21
-813.6966426527985
 31
0.0
  0
LINE
  5
1172
330
116C
100
AcDbEntity
  8
0
 62
     0
370
    -2
100
AcDbLine
 10
-178.2339678749101
 20
-813.6966426527985
 30
0.0
 11
-180.6911549290304
 21
-813.6966426527985
 31
0.0
  0
INSERT
  5
1173
330
116C
100
AcDbEntity
  8
0
 62
     0
370
    -2
100
AcDbBlockReference
  2
_Open30
 10
-178.2339678749101
 20
-813.6966426527985
 30
0.0
 41
2.5
 42
2.5
 43
2.5
 50
180.0
  0
INSERT
  5
1174
330
116C
100
AcDbEntity
  8
0
 62
     0
370
    -2
100
AcDbBlockReference
  2
_Open30
 10
-180.6911549290304
 20
-813.6966426527985
 30
0.0
 41
2.5
 42
2.5
 43
2.5
  0
MTEXT
  5
1175
330
116C
100
AcDbEntity
  8
0
 62
     4
100
AcDbMText
 10
-190.8161549290304
 20
-811.5716426527985
 30
0.0
 40
3.0
 41
0.0
 71
     5
 72
     1
  1
2.46
 73
     1
 44
1.0
1001
ACAD
1000
MTEXTBEGIN
1070
    73
1070
     1
1070
    44
1040
1.0
1070
    74
1070
     0
1000
MTEXTEND
  0
POINT
  5
1176
330
116C
100
AcDbEntity
  8
Defpoints
 62
     0
100
AcDbPoint
 10
-178.2339678749101
 20
-811.7870112307898
 30
0.0
  0
POINT
  5
1177
330
116C
100
AcDbEntity
  8
Defpoints
 62
     0
100
AcDbPoint
 10
-180.6911549290304
 20
-811.7870112307898
 30
0.0
  0
POINT
  5
1178
330
116C
100
AcDbEntity
  8
Defpoints
 62
     0
100
AcDbPoint
 10
-180.6911549290304
 20
-813.6966426527985
 30
0.0
  0
ENDBLK
  5
1179
330
116C
100
AcDbEntity
  8
0
100
AcDbBlockEnd
  0
BLOCK
  5
117B
330
117A
100
AcDbEntity
  8
0
100
AcDbBlockBegin
  2
*D18
 70
     1
 10
0.0
 20
0.0
 30
0.0
  3
*D18
  1

  0
LINE
  5
117C
330
117A
100
AcDbEntity
  8
0
 62
     0
370
    -2
100
AcDbLine
 10
-176.5958429688369
 20
-817.4931008035521
 30
0.0
 11
-176.5958429688369
 21
-820.0389928730155
 31
0.0
  0
LINE
  5
117D
330
117A
100
AcDbEntity
  8
0
 62
     0
370
    -2
100
AcDbLine
 10
-179.6900787669798
 20
-817.4931008035521
 30
0.0
 11
-179.6900787669798
 21
-820.0389928730155
 31
0.0
  0
LINE
  5
117E
330
117A
100
AcDbEntity
  8
0
 62
     0
370
    -2
100
AcDbLine
 10
-174.0958429688369
 20
-818.7889928730154
 30
0.0
 11
-171.5958429688369
 21
-818.7889928730154
 31
0.0
  0
LINE
  5
117F
330
117A
100
AcDbEntity
  8
0
 62
     0
370
    -2
100
AcDbLine
 10
-182.1900787669798
 20
-818.7889928730154
 30
0.0
 11
-196.0234121003131
 21
-818.7889928730154
 31
0.0
  0
LINE
  5
1180
330
117A
100
AcDbEntity
  8
0
 62
     0
370
    -2
100
AcDbLine
 10
-176.5958429688369
 20
-818.7889928730154
 30
0.0
 11
-179.6900787669798
 21
-818.7889928730154
 31
0.0
  0
INSERT
  5
1181
330
117A
100
AcDbEntity
  8
0
 62
     0
370
    -2
100
AcDbBlockReference
  2
_Open30
 10
-176.5958429688369
 20
-818.7889928730154
 30
0.0
 41
2.5
 42
2.5
 43
2.5
 50
180.0
  0
INSERT
  5
1182
330
117A
100
AcDbEntity
  8
0
 62
     0
370
    -2
100
AcDbBlockReference
  2
_Open30
 10
-179.6900787669798
 20
-818.7889928730154
 30
0.0
 41
2.5
 42
2.5
 43
2.5
  0
MTEXT
  5
1183
330
117A
100
AcDbEntity
  8
0
 62
     4
100
AcDbMText
 10
-190.8150787669798
 20
-816.9139928730155
 30
0.0
 40
2.5
 41
0.0
 71
     5
 72
     1
  1
15.47
  7
高2.5
 73
     1
 44
1.0
1001
ACAD
1000
MTEXTBEGIN
1070
    73
1070
     1
1070
    44
1040
1.0
1070
    74
1070
     0
1000
MTEXTEND
  0
POINT
  5
1184
330
117A
100
AcDbEntity
  8
Defpoints
 62
     0
100
AcDbPoint
 10
-176.5958429688369
 20
-817.2431008035522
 30
0.0
  0
POINT
  5
1185
330
117A
100
AcDbEntity
  8
Defpoints
 62
     0
100
AcDbPoint
 10
-179.6900787669798
 20
-817.2431008035522
 30
0.0
  0
POINT
  5
1186
330
117A
100
AcDbEntity
  8
Defpoints
 62
     0
100
AcDbPoint
 10
-179.6900787669798
 20
-818.7889928730154
 30
0.0
  0
ENDBLK
  5
1187
330
117A
100
AcDbEntity
  8
0
100
AcDbBlockEnd
  0
BLOCK
  5
1189
330
1188
100
AcDbEntity
  8
0
100
AcDbBlockBegin
  2
*D19
 70
     1
 10
0.0
 20
0.0
 30
0.0
  3
*D19
  1

  0
LINE
  5
118A
330
1188
100
AcDbEntity
  8
0
 62
     0
370
    -2
100
AcDbLine
 10
-174.8667113607514
 20
-822.9491905193986
 30
0.0
 11
-174.8667113607514
 21
-825.2222781817659
 31
0.0
  0
LINE
  5
118B
330
1188
100
AcDbEntity
  8
0
 62
     0
370
    -2
100
AcDbLine
 10
-178.8710163139432
 20
-822.9491905193986
 30
0.0
 11
-178.8710163139432
 21
-825.2222781817659
 31
0.0
  0
LINE
  5
118C
330
1188
100
AcDbEntity
  8
0
 62
     0
370
    -2
100
AcDbLine
 10
-172.3667113607514
 20
-823.9722781817658
 30
0.0
 11
-169.8667113607514
 21
-823.9722781817658
 31
0.0
  0
LINE
  5
118D
330
1188
100
AcDbEntity
  8
0
 62
     0
370
    -2
100
AcDbLine
 10
-181.3710163139432
 20
-823.9722781817658
 30
0.0
 11
-193.1210163139432
 21
-823.9722781817658
 31
0.0
  0
LINE
  5
118E
330
1188
100
AcDbEntity
  8
0
 62
     0
370
    -2
100
AcDbLine
 10
-174.8667113607514
 20
-823.9722781817658
 30
0.0
 11
-178.8710163139432
 21
-823.9722781817658
 31
0.0
  0
INSERT
  5
118F
330
1188
100
AcDbEntity
  8
0
 62
     0
370
    -2
100
AcDbBlockReference
  2
_Open30
 10
-174.8667113607514
 20
-823.9722781817658
 30
0.0
 41
2.5
 42
2.5
 43
2.5
 50
180.0
  0
INSERT
  5
1190
330
1188
100
AcDbEntity
  8
0
 62
     0
370
    -2
100
AcDbBlockReference
  2
_Open30
 10
-178.8710163139432
 20
-823.9722781817658
 30
0.0
 41
2.5
 42
2.5
 43
2.5
  0
MTEXT
  5
1191
330
1188
100
AcDbEntity
  8
0
 62
     4
100
AcDbMText
 10
-188.4960163139432
 20
-821.7472781817658
 30
0.0
 40
3.2
 41
0.0
 71
     5
 72
     1
  1
8.01
  7
高3.2
 73
     1
 44
1.0
1001
ACAD
1000
MTEXTBEGIN
1070
    73
1070
     1
1070
    44
1040
1.0
1070
    74
1070
     0
1000
MTEXTEND
  0
POINT
  5
1192
330
1188
100
AcDbEntity
  8
Defpoints
 62
     0
100
AcDbPoint
 10
-174.8667113607514
 20
-822.6991905193985
 30
0.0
  0
POINT
  5
1193
330
1188
100
AcDbEntity
  8
Defpoints
 62
     0
100
AcDbPoint
 10
-178.8710163139432
 20
-822.6991905193985
 30
0.0
  0
POINT
  5
1194
330
1188
100
AcDbEntity
  8
Defpoints
 62
     0
100
AcDbPoint
 10
-178.8710163139432
 20
-823.9722781817658
 30
0.0
  0
ENDBLK
  5
1195
330
1188
100
AcDbEntity
  8
0
100
AcDbBlockEnd
  0
BLOCK
  5
1197
330
1196
100
AcDbEntity
  8
0
100
AcDbBlockBegin
  2
*D20
 70
     1
 10
0.0
 20
0.0
 30
0.0
  3
*D20
  1

  0
LINE
  5
1198
330
1196
100
AcDbEntity
  8
0
 62
     0
370
    -2
100
AcDbLine
 10
-174.9577180627637
 20
-828.2234104874302
 30
0.0
 11
-174.9577180627637
 21
-830.0418239948866
 31
0.0
  0
LINE
  5
1199
330
1196
100
AcDbEntity
  8
0
 62
     0
370
    -2
100
AcDbLine
 10
-179.6900787669798
 20
-828.2234104874302
 30
0.0
 11
-179.6900787669798
 21
-830.0418239948866
 31
0.0
  0
LINE
  5
119A
330
1196
100
AcDbEntity
  8
0
 62
     0
370
    -2
100
AcDbLine
 10
-172.4577180627637
 20
-828.7918239948865
 30
0.0
 11
-169.9577180627637
 21
-828.7918239948865
 31
0.0
  0
LINE
  5
119B
330
1196
100
AcDbEntity
  8
0
 62
     0
370
    -2
100
AcDbLine
 10
-182.1900787669798
 20
-828.7918239948865
 30
0.0
 11
-203.9400787669798
 21
-828.7918239948865
 31
0.0
  0
LINE
  5
119C
330
1196
100
AcDbEntity
  8
0
 62
     0
370
    -2
100
AcDbLine
 10
-174.9577180627637
 20
-828.7918239948865
 30
0.0
 11
-179.6900787669798
 21
-828.7918239948865
 31
0.0
  0
INSERT
  5
119D
330
1196
100
AcDbEntity
  8
0
 62
     0
370
    -2
100
AcDbBlockReference
  2
_Open30
 10
-174.9577180627637
 20
-828.7918239948865
 30
0.0
 41
2.5
 42
2.5
 43
2.5
 50
180.0
  0
INSERT
  5
119E
330
1196
100
AcDbEntity
  8
0
 62
     0
370
    -2
100
AcDbBlockReference
  2
_Open30
 10
-179.6900787669798
 20
-828.7918239948865
 30
0.0
 41
2.5
 42
2.5
 43
2.5
  0
MTEXT
  5
119F
330
1196
100
AcDbEntity
  8
0
 62
     4
100
AcDbMText
 10
-194.3150787669798
 20
-825.9168239948866
 30
0.0
 40
4.5
 41
0.0
 71
     5
 72
     1
  1
47.32
  7
高4.5
 73
     1
 44
1.0
1001
ACAD
1000
MTEXTBEGIN
1070
    73
1070
     1
1070
    44
1040
1.0
1070
    74
1070
     0
1000
MTEXTEND
  0
POINT
  5
11A0
330
1196
100
AcDbEntity
  8
Defpoints
 62
     0
100
AcDbPoint
 10
-174.9577180627637
 20
-827.9734104874302
 30
0.0
  0
POINT
  5
11A1
330
1196
100
AcDbEntity
  8
Defpoints
 62
     0
100
AcDbPoint
 10
-179.6900787669798
 20
-827.9734104874302
 30
0.0
  0
POINT
  5
11A2
330
1196
100
AcDbEntity
  8
Defpoints
 62
     0
100
AcDbPoint
 10
-179.6900787669798
 20
-828.7918239948865
 30
0.0
  0
ENDBLK
  5
11A3
330
1196
100
AcDbEntity
  8
0
100
AcDbBlockEnd
  0
BLOCK
  5
11A5
330
11A4
100
AcDbEntity
  8
0
100
AcDbBlockBegin
  2
*D21
 70
     1
 10
0.0
 20
0.0
 30
0.0
  3
*D21
  1

  0
LINE
  5
11A6
330
11A4
100
AcDbEntity
  8
0
 62
     0
370
    -2
100
AcDbLine
 10
-153.4800817947562
 20
-812.0370112307897
 30
0.0
 11
-153.4800817947562
 21
-814.9466426527986
 31
0.0
  0
LINE
  5
11A7
330
11A4
100
AcDbEntity
  8
0
 62
     0
370
    -2
100
AcDbLine
 10
-155.9372688488765
 20
-812.0370112307897
 30
0.0
 11
-155.9372688488765
 21
-814.9466426527986
 31
0.0
  0
LINE
  5
11A8
330
11A4
100
AcDbEntity
  8
0
 62
     0
370
    -2
100
AcDbLine
 10
-150.9800817947562
 20
-813.6966426527985
 30
0.0
 11
-148.4800817947562
 21
-813.6966426527985
 31
0.0
  0
LINE
  5
11A9
330
11A4
100
AcDbEntity
  8
0
 62
     0
370
    -2
100
AcDbLine
 10
-158.4372688488765
 20
-813.6966426527985
 30
0.0
 11
-180.0372688488765
 21
-813.6966426527985
 31
0.0
  0
LINE
  5
11AA
330
11A4
100
AcDbEntity
  8
0
 62
     0
370
    -2
100
AcDbLine
 10
-153.4800817947562
 20
-813.6966426527985
 30
0.0
 11
-155.9372688488765
 21
-813.6966426527985
 31
0.0
  0
INSERT
  5
11AB
330
11A4
100
AcDbEntity
  8
0
 62
     0
370
    -2
100
AcDbBlockReference
  2
_Open30
 10
-153.4800817947562
 20
-813.6966426527985
 30
0.0
 41
2.5
 42
2.5
 43
2.5
 50
180.0
  0
INSERT
  5
11AC
330
11A4
100
AcDbEntity
  8
0
 62
     0
370
    -2
100
AcDbBlockReference
  2
_Open30
 10
-155.9372688488765
 20
-813.6966426527985
 30
0.0
 41
2.5
 42
2.5
 43
2.5
  0
MTEXT
  5
11AD
330
11A4
100
AcDbEntity
  8
0
 62
     4
100
AcDbMText
 10
-170.4872688488765
 20
-809.9216426527986
 30
0.0
 40
6.299999999999999
 41
0.0
 71
     5
 72
     1
  1
0.25
  7
高6.3
 73
     1
 44
1.0
1001
ACAD
1000
MTEXTBEGIN
1070
    73
1070
     1
1070
    44
1040
1.0
1070
    74
1070
     0
1000
MTEXTEND
  0
POINT
  5
11AE
330
11A4
100
AcDbEntity
  8
Defpoints
 62
     0
100
AcDbPoint
 10
-153.4800817947562
 20
-811.7870112307898
 30
0.0
  0
POINT
  5
11AF
330
11A4
100
AcDbEntity
  8
Defpoints
 62
     0
100
AcDbPoint
 10
-155.9372688488765
 20
-811.7870112307898
 30
0.0
  0
POINT
  5
11B0
330
11A4
100
AcDbEntity
  8
Defpoints
 62
     0
100
AcDbPoint
 10
-155.9372688488765
 20
-813.6966426527985
 30
0.0
  0
ENDBLK
  5
11B1
330
11A4
100
AcDbEntity
  8
0
100
AcDbBlockEnd
  0
BLOCK
  5
11B3
330
11B2
100
AcDbEntity
  8
0
100
AcDbBlockBegin
  2
*D22
 70
     1
 10
0.0
 20
0.0
 30
0.0
  3
*D22
  1

  0
LINE
  5
11B4
330
11B2
100
AcDbEntity
  8
0
 62
     0
370
    -2
100
AcDbLine
 10
-151.841956888683
 20
-817.4931008035521
 30
0.0
 11
-151.841956888683
 21
-820.0389928730155
 31
0.0
  0
LINE
  5
11B5
330
11B2
100
AcDbEntity
  8
0
 62
     0
370
    -2
100
AcDbLine
 10
-154.9361926868259
 20
-817.4931008035521
 30
0.0
 11
-154.9361926868259
 21
-820.0389928730155
 31
0.0
  0
LINE
  5
11B6
330
11B2
100
AcDbEntity
  8
0
 62
     0
370
    -2
100
AcDbLine
 10
-149.341956888683
 20
-818.7889928730154
 30
0.0
 11
-146.841956888683
 21
-818.7889928730154
 31
0.0
  0
LINE
  5
11B7
330
11B2
100
AcDbEntity
  8
0
 62
     0
370
    -2
100
AcDbLine
 10
-157.4361926868259
 20
-818.7889928730154
 30
0.0
 11
-169.4361926868259
 21
-818.7889928730154
 31
0.0
  0
LINE
  5
11B8
330
11B2
100
AcDbEntity
  8
0
 62
     0
370
    -2
100
AcDbLine
 10
-151.841956888683
 20
-818.7889928730154
 30
0.0
 11
-154.9361926868259
 21
-818.7889928730154
 31
0.0
  0
INSERT
  5
11B9
330
11B2
100
AcDbEntity
  8
0
 62
     0
370
    -2
100
AcDbBlockReference
  2
_Open30
 10
-151.841956888683
 20
-818.7889928730154
 30
0.0
 41
2.5
 42
2.5
 43
2.5
 50
180.0
  0
INSERT
  5
11BA
330
11B2
100
AcDbEntity
  8
0
 62
     0
370
    -2
100
AcDbBlockReference
  2
_Open30
 10
-154.9361926868259
 20
-818.7889928730154
 30
0.0
 41
2.5
 42
2.5
 43
2.5
  0
MTEXT
  5
11BB
330
11B2
100
AcDbEntity
  8
0
 62
     4
100
AcDbMText
 10
-164.8111926868259
 20
-816.6639928730154
 30
0.0
 40
3.0
 41
0.0
 71
     5
 72
     1
  1
1.55
 73
     1
 44
1.0
1001
ACAD
1000
MTEXTBEGIN
1070
    73
1070
     1
1070
    44
1040
1.0
1070
    74
1070
     0
1000
MTEXTEND
  0
POINT
  5
11BC
330
11B2
100
AcDbEntity
  8
Defpoints
 62
     0
100
AcDbPoint
 10
-151.841956888683
 20
-817.2431008035522
 30
0.0
  0
POINT
  5
11BD
330
11B2
100
AcDbEntity
  8
Defpoints
 62
     0
100
AcDbPoint
 10
-154.9361926868259
 20
-817.2431008035522
 30
0.0
  0
POINT
  5
11BE
330
11B2
100
AcDbEntity
  8
Defpoints
 62
     0
100
AcDbPoint
 10
-154.9361926868259
 20
-818.7889928730154
 30
0.0
  0
ENDBLK
  5
11BF
330
11B2
100
AcDbEntity
  8
0
100
AcDbBlockEnd
  0
BLOCK
  5
11C1
330
11C0
100
AcDbEntity
  8
0
100
AcDbBlockBegin
  2
*D23
 70
     1
 10
0.0
 20
0.0
 30
0.0
  3
*D23
  1

  0
LINE
  5
11C2
330
11C0
100
AcDbEntity
  8
0
 62
     0
370
    -2
100
AcDbLine
 10
-150.1128252805975
 20
-822.9491905193986
 30
0.0
 11
-150.1128252805975
 21
-825.2222781817659
 31
0.0
  0
LINE
  5
11C3
330
11C0
100
AcDbEntity
  8
0
 62
     0
370
    -2
100
AcDbLine
 10
-154.1171302337894
 20
-822.9491905193986
 30
0.0
 11
-154.1171302337894
 21
-825.2222781817659
 31
0.0
  0
LINE
  5
11C4
330
11C0
100
AcDbEntity
  8
0
 62
     0
370
    -2
100
AcDbLine
 10
-147.6128252805976
 20
-823.9722781817658
 30
0.0
 11
-145.1128252805975
 21
-823.9722781817658
 31
0.0
  0
LINE
  5
11C5
330
11C0
100
AcDbEntity
  8
0
 62
     0
370
    -2
100
AcDbLine
 10
-156.6171302337894
 20
-823.9722781817658
 30
0.0
 11
-164.9504635671227
 21
-823.9722781817658
 31
0.0
  0
LINE
  5
11C6
330
11C0
100
AcDbEntity
  8
0
 62
     0
370
    -2
100
AcDbLine
 10
-150.1128252805975
 20
-823.9722781817658
 30
0.0
 11
-154.1171302337894
 21
-823.9722781817658
 31
0.0
  0
INSERT
  5
11C7
330
11C0
100
AcDbEntity
  8
0
 62
     0
370
    -2
100
AcDbBlockReference
  2
_Open30
 10
-150.1128252805975
 20
-823.9722781817658
 30
0.0
 41
2.5
 42
2.5
 43
2.5
 50
180.0
  0
INSERT
  5
11C8
330
11C0
100
AcDbEntity
  8
0
 62
     0
370
    -2
100
AcDbBlockReference
  2
_Open30
 10
-154.1171302337894
 20
-823.9722781817658
 30
0.0
 41
2.5
 42
2.5
 43
2.5
  0
MTEXT
  5
11C9
330
11C0
100
AcDbEntity
  8
0
 62
     4
100
AcDbMText
 10
-162.4921302337894
 20
-822.3472781817658
 30
0.0
 40
2.0
 41
0.0
 71
     5
 72
     1
  1
0.8
  7
高2
 73
     1
 44
1.0
1001
ACAD
1000
MTEXTBEGIN
1070
    73
1070
     1
1070
    44
1040
1.0
1070
    74
1070
     0
1000
MTEXTEND
  0
POINT
  5
11CA
330
11C0
100
AcDbEntity
  8
Defpoints
 62
     0
100
AcDbPoint
 10
-150.1128252805975
 20
-822.6991905193985
 30
0.0
  0
POINT
  5
11CB
330
11C0
100
AcDbEntity
  8
Defpoints
 62
     0
100
AcDbPoint
 10
-154.1171302337894
 20
-822.6991905193985
 30
0.0
  0
POINT
  5
11CC
330
11C0
100
AcDbEntity
  8
Defpoints
 62
     0
100
AcDbPoint
 10
-154.1171302337894
 20
-823.9722781817658
 30
0.0
  0
ENDBLK
  5
11CD
330
11C0
100
AcDbEntity
  8
0
100
AcDbBlockEnd
  0
BLOCK
  5
11CF
330
11CE
100
AcDbEntity
  8
0
100
AcDbBlockBegin
  2
*D24
 70
     1
 10
0.0
 20
0.0
 30
0.0
  3
*D24
  1

  0
LINE
  5
11D0
330
11CE
100
AcDbEntity
  8
0
 62
     0
370
    -2
100
AcDbLine
 10
-150.2038319826098
 20
-828.2234104874302
 30
0.0
 11
-150.2038319826098
 21
-830.0418239948866
 31
0.0
  0
LINE
  5
11D1
330
11CE
100
AcDbEntity
  8
0
 62
     0
370
    -2
100
AcDbLine
 10
-154.9361926868259
 20
-828.2234104874302
 30
0.0
 11
-154.9361926868259
 21
-830.0418239948866
 31
0.0
  0
LINE
  5
11D2
330
11CE
100
AcDbEntity
  8
0
 62
     0
370
    -2
100
AcDbLine
 10
-147.7038319826099
 20
-828.7918239948865
 30
0.0
 11
-145.2038319826098
 21
-828.7918239948865
 31
0.0
  0
LINE
  5
11D3
330
11CE
100
AcDbEntity
  8
0
 62
     0
370
    -2
100
AcDbLine
 10
-157.4361926868259
 20
-828.7918239948865
 30
0.0
 11
-172.1861926868259
 21
-828.7918239948865
 31
0.0
  0
LINE
  5
11D4
330
11CE
100
AcDbEntity
  8
0
 62
     0
370
    -2
100
AcDbLine
 10
-150.2038319826098
 20
-828.7918239948865
 30
0.0
 11
-154.9361926868259
 21
-828.7918239948865
 31
0.0
  0
INSERT
  5
11D5
330
11CE
100
AcDbEntity
  8
0
 62
     0
370
    -2
100
AcDbBlockReference
  2
_Open30
 10
-150.2038319826098
 20
-828.7918239948865
 30
0.0
 41
2.5
 42
2.5
 43
2.5
 50
180.0
  0
INSERT
  5
11D6
330
11CE
100
AcDbEntity
  8
0
 62
     0
370
    -2
100
AcDbBlockReference
  2
_Open30
 10
-154.9361926868259
 20
-828.7918239948865
 30
0.0
 41
2.5
 42
2.5
 43
2.5
  0
MTEXT
  5
11D7
330
11CE
100
AcDbEntity
  8
0
 62
     4
100
AcDbMText
 10
-166.0611926868259
 20
-826.6668239948867
 30
0.0
 40
3.0
 41
0.0
 71
     5
 72
     1
  1
18.93
 73
     1
 44
1.0
1001
ACAD
1000
MTEXTBEGIN
1070
    73
1070
     1
1070
    44
1040
1.0
1070
    74
1070
     0
1000
MTEXTEND
  0
POINT
  5
11D8
330
11CE
100
AcDbEntity
  8
Defpoints
 62
     0
100
AcDbPoint
 10
-150.2038319826098
 20
-827.9734104874302
 30
0.0
  0
POINT
  5
11D9
330
11CE
100
AcDbEntity
  8
Defpoints
 62
     0
100
AcDbPoint
 10
-154.9361926868259
 20
-827.9734104874302
 30
0.0
  0
POINT
  5
11DA
330
11CE
100
AcDbEntity
  8
Defpoints
 62
     0
100
AcDbPoint
 10
-154.9361926868259
 20
-828.7918239948865
 30
0.0
  0
ENDBLK
  5
11DB
330
11CE
100
AcDbEntity
  8
0
100
AcDbBlockEnd
  0
BLOCK
  5
11DD
330
11DC
100
AcDbEntity
  8
0
100
AcDbBlockBegin
  2
*D25
 70
     1
 10
0.0
 20
0.0
 30
0.0
  3
*D25
  1

  0
LINE
  5
11DE
330
11DC
100
AcDbEntity
  8
0
 62
     0
370
    -2
100
AcDbLine
 10
-153.0082588337482
 20
-833.2792506940199
 30
0.0
 11
-153.0082588337482
 21
-835.5891717708955
 31
0.0
  0
LINE
  5
11DF
330
11DC
100
AcDbEntity
  8
0
 62
     0
370
    -2
100
AcDbLine
 10
-157.5969340358961
 20
-833.2792506940199
 30
0.0
 11
-157.5969340358961
 21
-835.5891717708955
 31
0.0
  0
LINE
  5
11E0
330
11DC
100
AcDbEntity
  8
0
 62
     0
370
    -2
100
AcDbLine
 10
-150.5082588337482
 20
-834.3391717708955
 30
0.0
 11
-148.0082588337482
 21
-834.3391717708955
 31
0.0
  0
LINE
  5
11E1
330
11DC
100
AcDbEntity
  8
0
 62
     0
370
    -2
100
AcDbLine
 10
-160.0969340358961
 20
-834.3391717708955
 30
0.0
 11
-174.8469340358961
 21
-834.3391717708955
 31
0.0
  0
LINE
  5
11E2
330
11DC
100
AcDbEntity
  8
0
 62
     0
370
    -2
100
AcDbLine
 10
-153.0082588337482
 20
-834.3391717708955
 30
0.0
 11
-157.5969340358961
 21
-834.3391717708955
 31
0.0
  0
INSERT
  5
11E3
330
11DC
100
AcDbEntity
  8
0
 62
     0
370
    -2
100
AcDbBlockReference
  2
_Open30
 10
-153.0082588337482
 20
-834.3391717708955
 30
0.0
 41
2.5
 42
2.5
 43
2.5
 50
180.0
  0
INSERT
  5
11E4
330
11DC
100
AcDbEntity
  8
0
 62
     0
370
    -2
100
AcDbBlockReference
  2
_Open30
 10
-157.5969340358961
 20
-834.3391717708955
 30
0.0
 41
2.5
 42
2.5
 43
2.5
  0
MTEXT
  5
11E5
330
11DC
100
AcDbEntity
  8
0
 62
     4
100
AcDbMText
 10
-168.7219340358961
 20
-832.2141717708955
 30
0.0
 40
3.0
 41
0.0
 71
     5
 72
     1
  1
13.77
 73
     1
 44
1.0
1001
ACAD
1000
MTEXTBEGIN
1070
    73
1070
     1
1070
    44
1040
1.0
1070
    74
1070
     0
1000
MTEXTEND
  0
POINT
  5
11E6
330
11DC
100
AcDbEntity
  8
Defpoints
 62
     0
100
AcDbPoint
 10
-153.0082588337482
 20
-833.02925069402
 30
0.0
  0
POINT
  5
11E7
330
11DC
100
AcDbEntity
  8
Defpoints
 62
     0
100
AcDbPoint
 10
-157.5969340358961
 20
-833.02925069402
 30
0.0
  0
POINT
  5
11E8
330
11DC
100
AcDbEntity
  8
Defpoints
 62
     0
100
AcDbPoint
 10
-157.5969340358961
 20
-834.3391717708955
 30
0.0
  0
ENDBLK
  5
11E9
330
11DC
100
AcDbEntity
  8
0
100
AcDbBlockEnd
  0
BLOCK
  5
11EB
330
11EA
100
AcDbEntity
  8
0
100
AcDbBlockBegin
  2
*D26
 70
     1
 10
0.0
 20
0.0
 30
0.0
  3
*D26
  1

  0
LINE
  5
11EC
330
11EA
100
AcDbEntity
  8
0
 62
     0
370
    -2
100
AcDbLine
 10
-160.1045416668985
 20
-802.3497593757456
 30
0.0
 11
-160.1045416668985
 21
-794.9532258978079
 31
0.0
  0
LINE
  5
11ED
330
11EA
100
AcDbEntity
  8
0
 62
     0
370
    -2
100
AcDbLine
 10
-170.0430160363885
 20
-802.3497593757456
 30
0.0
 11
-170.0430160363885
 21
-794.9532258978079
 31
0.0
  0
LINE
  5
11EE
330
11EA
100
AcDbEntity
  8
0
 62
     0
370
    -2
100
AcDbLine
 10
-162.6045416668985
 20
-796.2032258978078
 30
0.0
 11
-167.5430160363885
 21
-796.2032258978078
 31
0.0
  0
INSERT
  5
11EF
330
11EA
100
AcDbEntity
  8
0
 62
     0
370
    -2
100
AcDbBlockReference
  2
_Open30
 10
-160.1045416668985
 20
-796.2032258978078
 30
0.0
 41
2.5
 42
2.5
 43
2.5
  0
INSERT
  5
11F0
330
11EA
100
AcDbEntity
  8
0
 62
     0
370
    -2
100
AcDbBlockReference
  2
_Open30
 10
-170.0430160363885
 20
-796.2032258978078
 30
0.0
 41
2.5
 42
2.5
 43
2.5
 50
180.0
  0
MTEXT
  5
11F1
330
11EA
100
AcDbEntity
  8
0
 62
     4
100
AcDbMText
 10
-165.0737788516435
 20
-793.1282258978078
 30
0.0
 40
3.0
 41
0.0
 71
     5
 72
     1
  1
9.94\H0.7X;\S+0^ -0.02;
 73
     1
 44
1.0
1001
ACAD
1000
MTEXTBEGIN
1070
    73
1070
     1
1070
    44
1040
1.0
1070
    74
1070
     0
1000
MTEXTEND
  0
POINT
  5
11F2
330
11EA
100
AcDbEntity
  8
Defpoints
 62
     0
100
AcDbPoint
 10
-160.1045416668985
 20
-802.5997593757455
 30
0.0
  0
POINT
  5
11F3
330
11EA
100
AcDbEntity
  8
Defpoints
 62
     0
100
AcDbPoint
 10
-170.0430160363885
 20
-802.5997593757455
 30
0.0
  0
POINT
  5
11F4
330
11EA
100
AcDbEntity
  8
Defpoints
 62
     0
100
AcDbPoint
 10
-170.0430160363885
 20
-796.2032258978078
 30
0.0
  0
ENDBLK
  5
11F5
330
11EA
100
AcDbEntity
  8
0
100
AcDbBlockEnd
  0
BLOCK
  5
124C
330
124B
100
AcDbEntity
  8
0
100
AcDbBlockBegin
  2
*D28
 70
     1
 10
0.0
 20
0.0
 30
0.0
  3
*D28
  1

  0
LINE
  5
12D5
330
124B
100
AcDbEntity
  8
0
 62
     0
370
    -2
100
AcDbLine
 10
749.9604953774563
 20
271.9178032650474
 30
0.0
 11
749.9604953774563
 21
269.0081718430386
 31
0.0
  0
LINE
  5
12D6
330
124B
100
AcDbEntity
  8
0
 62
     0
370
    -2
100
AcDbLine
 10
747.503308323336
 20
271.9178032650474
 30
0.0
 11
747.503308323336
 21
269.0081718430386
 31
0.0
  0
LINE
  5
12D7
330
124B
100
AcDbEntity
  8
0
 62
     0
370
    -2
100
AcDbLine
 10
752.4604953774562
 20
270.2581718430386
 30
0.0
 11
754.9604953774562
 21
270.2581718430386
 31
0.0
  0
LINE
  5
12D8
330
124B
100
AcDbEntity
  8
0
 62
     0
370
    -2
100
AcDbLine
 10
745.003308323336
 20
270.2581718430386
 30
0.0
 11
732.2533083233359
 21
270.2581718430386
 31
0.0
  0
LINE
  5
12D9
330
124B
100
AcDbEntity
  8
0
 62
     0
370
    -2
100
AcDbLine
 10
749.9604953774563
 20
270.2581718430386
 30
0.0
 11
747.503308323336
 21
270.2581718430386
 31
0.0
  0
INSERT
  5
12DA
330
124B
100
AcDbEntity
  8
0
 62
     0
370
    -2
100
AcDbBlockReference
  2
_Open30
 10
749.9604953774563
 20
270.2581718430386
 30
0.0
 41
2.5
 42
2.5
 43
2.5
 50
180.0
  0
INSERT
  5
12DB
330
124B
100
AcDbEntity
  8
0
 62
     0
370
    -2
100
AcDbBlockReference
  2
_Open30
 10
747.503308323336
 20
270.2581718430386
 30
0.0
 41
2.5
 42
2.5
 43
2.5
  0
MTEXT
  5
12DC
330
124B
100
AcDbEntity
  8
0
 62
     4
100
AcDbMText
 10
737.378308323336
 20
272.3831718430385
 30
0.0
 40
3.0
 41
0.0
 71
     5
 72
     1
  1
2.46
 73
     1
 44
1.0
1001
ACAD
1000
MTEXTBEGIN
1070
    73
1070
     1
1070
    44
1040
1.0
1070
    74
1070
     0
1000
MTEXTEND
  0
POINT
  5
12DD
330
124B
100
AcDbEntity
  8
Defpoints
 62
     0
100
AcDbPoint
 10
749.9604953774563
 20
272.1678032650474
 30
0.0
  0
POINT
  5
12DE
330
124B
100
AcDbEntity
  8
Defpoints
 62
     0
100
AcDbPoint
 10
747.503308323336
 20
272.1678032650474
 30
0.0
  0
POINT
  5
12DF
330
124B
100
AcDbEntity
  8
Defpoints
 62
     0
100
AcDbPoint
 10
747.503308323336
 20
270.2581718430386
 30
0.0
  0
ENDBLK
  5
124D
330
124B
100
AcDbEntity
  8
0
100
AcDbBlockEnd
  0
BLOCK
  5
125A
330
1259
100
AcDbEntity
  8
0
100
AcDbBlockBegin
  2
*D29
 70
     1
 10
0.0
 20
0.0
 30
0.0
  3
*D29
  1

  0
LINE
  5
12E0
330
1259
100
AcDbEntity
  8
0
 62
     0
370
    -2
100
AcDbLine
 10
751.5986202835295
 20
266.461713692285
 30
0.0
 11
751.5986202835295
 21
263.9158216228217
 31
0.0
  0
LINE
  5
12E1
330
1259
100
AcDbEntity
  8
0
 62
     0
370
    -2
100
AcDbLine
 10
748.5043844853866
 20
266.461713692285
 30
0.0
 11
748.5043844853866
 21
263.9158216228217
 31
0.0
  0
LINE
  5
12E2
330
1259
100
AcDbEntity
  8
0
 62
     0
370
    -2
100
AcDbLine
 10
754.0986202835295
 20
265.1658216228217
 30
0.0
 11
756.5986202835294
 21
265.1658216228217
 31
0.0
  0
LINE
  5
12E3
330
1259
100
AcDbEntity
  8
0
 62
     0
370
    -2
100
AcDbLine
 10
746.0043844853865
 20
265.1658216228217
 30
0.0
 11
732.1710511520533
 21
265.1658216228217
 31
0.0
  0
LINE
  5
12E4
330
1259
100
AcDbEntity
  8
0
 62
     0
370
    -2
100
AcDbLine
 10
751.5986202835295
 20
265.1658216228217
 30
0.0
 11
748.5043844853866
 21
265.1658216228217
 31
0.0
  0
INSERT
  5
12E5
330
1259
100
AcDbEntity
  8
0
 62
     0
370
    -2
100
AcDbBlockReference
  2
_Open30
 10
751.5986202835295
 20
265.1658216228217
 30
0.0
 41
2.5
 42
2.5
 43
2.5
 50
180.0
  0
INSERT
  5
12E6
330
1259
100
AcDbEntity
  8
0
 62
     0
370
    -2
100
AcDbBlockReference
  2
_Open30
 10
748.5043844853866
 20
265.1658216228217
 30
0.0
 41
2.5
 42
2.5
 43
2.5
  0
MTEXT
  5
12E7
330
1259
100
AcDbEntity
  8
0
 62
     4
100
AcDbMText
 10
737.3793844853866
 20
267.0408216228217
 30
0.0
 40
2.5
 41
0.0
 71
     5
 72
     1
  1
15.47
  7
高2.5
 73
     1
 44
1.0
1001
ACAD
1000
MTEXTBEGIN
1070
    73
1070
     1
1070
    44
1040
1.0
1070
    74
1070
     0
1000
MTEXTEND
  0
POINT
  5
12E8
330
1259
100
AcDbEntity
  8
Defpoints
 62
     0
100
AcDbPoint
 10
751.5986202835295
 20
266.711713692285
 30
0.0
  0
POINT
  5
12E9
330
1259
100
AcDbEntity
  8
Defpoints
 62
     0
100
AcDbPoint
 10
748.5043844853866
 20
266.711713692285
 30
0.0
  0
POINT
  5
12EA
330
1259
100
AcDbEntity
  8
Defpoints
 62
     0
100
AcDbPoint
 10
748.5043844853866
 20
265.1658216228217
 30
0.0
  0
ENDBLK
  5
125B
330
1259
100
AcDbEntity
  8
0
100
AcDbBlockEnd
  0
BLOCK
  5
1268
330
1267
100
AcDbEntity
  8
0
100
AcDbBlockBegin
  2
*D30
 70
     1
 10
0.0
 20
0.0
 30
0.0
  3
*D30
  1

  0
LINE
  5
12EB
330
1267
100
AcDbEntity
  8
0
 62
     0
370
    -2
100
AcDbLine
 10
753.327751891615
 20
261.0056239764385
 30
0.0
 11
753.327751891615
 21
258.7325363140712
 31
0.0
  0
LINE
  5
12EC
330
1267
100
AcDbEntity
  8
0
 62
     0
370
    -2
100
AcDbLine
 10
749.3234469384231
 20
261.0056239764385
 30
0.0
 11
749.3234469384231
 21
258.7325363140712
 31
0.0
  0
LINE
  5
12ED
330
1267
100
AcDbEntity
  8
0
 62
     0
370
    -2
100
AcDbLine
 10
755.8277518916149
 20
259.9825363140713
 30
0.0
 11
758.3277518916149
 21
259.9825363140713
 31
0.0
  0
LINE
  5
12EE
330
1267
100
AcDbEntity
  8
0
 62
     0
370
    -2
100
AcDbLine
 10
746.823446938423
 20
259.9825363140713
 30
0.0
 11
735.0734469384231
 21
259.9825363140713
 31
0.0
  0
LINE
  5
12EF
330
1267
100
AcDbEntity
  8
0
 62
     0
370
    -2
100
AcDbLine
 10
753.327751891615
 20
259.9825363140713
 30
0.0
 11
749.3234469384231
 21
259.9825363140713
 31
0.0
  0
INSERT
  5
12F0
330
1267
100
AcDbEntity
  8
0
 62
     0
370
    -2
100
AcDbBlockReference
  2
_Open30
 10
753.327751891615
 20
259.9825363140713
 30
0.0
 41
2.5
 42
2.5
 43
2.5
 50
180.0
  0
INSERT
  5
12F1
330
1267
100
AcDbEntity
  8
0
 62
     0
370
    -2
100
AcDbBlockReference
  2
_Open30
 10
749.3234469384231
 20
259.9825363140713
 30
0.0
 41
2.5
 42
2.5
 43
2.5
  0
MTEXT
  5
12F2
330
1267
100
AcDbEntity
  8
0
 62
     4
100
AcDbMText
 10
739.698446938423
 20
262.2075363140713
 30
0.0
 40
3.2
 41
0.0
 71
     5
 72
     1
  1
8.01
  7
高3.2
 73
     1
 44
1.0
1001
ACAD
1000
MTEXTBEGIN
1070
    73
1070
     1
1070
    44
1040
1.0
1070
    74
1070
     0
1000
MTEXTEND
  0
POINT
  5
12F3
330
1267
100
AcDbEntity
  8
Defpoints
 62
     0
100
AcDbPoint
 10
753.327751891615
 20
261.2556239764385
 30
0.0
  0
POINT
  5
12F4
330
1267
100
AcDbEntity
  8
Defpoints
 62
     0
100
AcDbPoint
 10
749.3234469384231
 20
261.2556239764385
 30
0.0
  0
POINT
  5
12F5
330
1267
100
AcDbEntity
  8
Defpoints
 62
     0
100
AcDbPoint
 10
749.3234469384231
 20
259.9825363140713
 30
0.0
  0
ENDBLK
  5
1269
330
1267
100
AcDbEntity
  8
0
100
AcDbBlockEnd
  0
BLOCK
  5
1276
330
1275
100
AcDbEntity
  8
0
100
AcDbBlockBegin
  2
*D31
 70
     1
 10
0.0
 20
0.0
 30
0.0
  3
*D31
  1

  0
LINE
  5
12F6
330
1275
100
AcDbEntity
  8
0
 62
     0
370
    -2
100
AcDbLine
 10
753.2367451896027
 20
255.7314040084069
 30
0.0
 11
753.2367451896027
 21
253.9129905009505
 31
0.0
  0
LINE
  5
12F7
330
1275
100
AcDbEntity
  8
0
 62
     0
370
    -2
100
AcDbLine
 10
748.5043844853866
 20
255.7314040084069
 30
0.0
 11
748.5043844853866
 21
253.9129905009505
 31
0.0
  0
LINE
  5
12F8
330
1275
100
AcDbEntity
  8
0
 62
     0
370
    -2
100
AcDbLine
 10
755.7367451896027
 20
255.1629905009505
 30
0.0
 11
758.2367451896027
 21
255.1629905009505
 31
0.0
  0
LINE
  5
12F9
330
1275
100
AcDbEntity
  8
0
 62
     0
370
    -2
100
AcDbLine
 10
746.0043844853865
 20
255.1629905009505
 30
0.0
 11
724.2543844853866
 21
255.1629905009505
 31
0.0
  0
LINE
  5
12FA
330
1275
100
AcDbEntity
  8
0
 62
     0
370
    -2
100
AcDbLine
 10
753.2367451896027
 20
255.1629905009505
 30
0.0
 11
748.5043844853866
 21
255.1629905009505
 31
0.0
  0
INSERT
  5
12FB
330
1275
100
AcDbEntity
  8
0
 62
     0
370
    -2
100
AcDbBlockReference
  2
_Open30
 10
753.2367451896027
 20
255.1629905009505
 30
0.0
 41
2.5
 42
2.5
 43
2.5
 50
180.0
  0
INSERT
  5
12FC
330
1275
100
AcDbEntity
  8
0
 62
     0
370
    -2
100
AcDbBlockReference
  2
_Open30
 10
748.5043844853866
 20
255.1629905009505
 30
0.0
 41
2.5
 42
2.5
 43
2.5
  0
MTEXT
  5
12FD
330
1275
100
AcDbEntity
  8
0
 62
     4
100
AcDbMText
 10
733.8793844853865
 20
258.0379905009505
 30
0.0
 40
4.5
 41
0.0
 71
     5
 72
     1
  1
47.32
  7
高4.5
 73
     1
 44
1.0
1001
ACAD
1000
MTEXTBEGIN
1070
    73
1070
     1
1070
    44
1040
1.0
1070
    74
1070
     0
1000
MTEXTEND
  0
POINT
  5
12FE
330
1275
100
AcDbEntity
  8
Defpoints
 62
     0
100
AcDbPoint
 10
753.2367451896027
 20
255.9814040084069
 30
0.0
  0
POINT
  5
12FF
330
1275
100
AcDbEntity
  8
Defpoints
 62
     0
100
AcDbPoint
 10
748.5043844853866
 20
255.9814040084069
 30
0.0
  0
POINT
  5
1300
330
1275
100
AcDbEntity
  8
Defpoints
 62
     0
100
AcDbPoint
 10
748.5043844853866
 20
255.1629905009505
 30
0.0
  0
ENDBLK
  5
1277
330
1275
100
AcDbEntity
  8
0
100
AcDbBlockEnd
  0
BLOCK
  5
1284
330
1283
100
AcDbEntity
  8
0
100
AcDbBlockBegin
  2
*D32
 70
     1
 10
0.0
 20
0.0
 30
0.0
  3
*D32
  1

  0
LINE
  5
1301
330
1283
100
AcDbEntity
  8
0
 62
     0
370
    -2
100
AcDbLine
 10
774.7143814576102
 20
271.9178032650474
 30
0.0
 11
774.7143814576102
 21
269.0081718430386
 31
0.0
  0
LINE
  5
1302
330
1283
100
AcDbEntity
  8
0
 62
     0
370
    -2
100
AcDbLine
 10
772.2571944034898
 20
271.9178032650474
 30
0.0
 11
772.2571944034898
 21
269.0081718430386
 31
0.0
  0
LINE
  5
1303
330
1283
100
AcDbEntity
  8
0
 62
     0
370
    -2
100
AcDbLine
 10
777.2143814576102
 20
270.2581718430386
 30
0.0
 11
779.7143814576102
 21
270.2581718430386
 31
0.0
  0
LINE
  5
1304
330
1283
100
AcDbEntity
  8
0
 62
     0
370
    -2
100
AcDbLine
 10
769.7571944034899
 20
270.2581718430386
 30
0.0
 11
748.1571944034898
 21
270.2581718430386
 31
0.0
  0
LINE
  5
1305
330
1283
100
AcDbEntity
  8
0
 62
     0
370
    -2
100
AcDbLine
 10
774.7143814576102
 20
270.2581718430386
 30
0.0
 11
772.2571944034898
 21
270.2581718430386
 31
0.0
  0
INSERT
  5
1306
330
1283
100
AcDbEntity
  8
0
 62
     0
370
    -2
100
AcDbBlockReference
  2
_Open30
 10
774.7143814576102
 20
270.2581718430386
 30
0.0
 41
2.5
 42
2.5
 43
2.5
 50
180.0
  0
INSERT
  5
1307
330
1283
100
AcDbEntity
  8
0
 62
     0
370
    -2
100
AcDbBlockReference
  2
_Open30
 10
772.2571944034898
 20
270.2581718430386
 30
0.0
 41
2.5
 42
2.5
 43
2.5
  0
MTEXT
  5
1308
330
1283
100
AcDbEntity
  8
0
 62
     4
100
AcDbMText
 10
757.7071944034899
 20
274.0331718430385
 30
0.0
 40
6.299999999999998
 41
0.0
 71
     5
 72
     1
  1
0.25
  7
高6.3
 73
     1
 44
1.0
1001
ACAD
1000
MTEXTBEGIN
1070
    73
1070
     1
1070
    44
1040
1.0
1070
    74
1070
     0
1000
MTEXTEND
  0
POINT
  5
1309
330
1283
100
AcDbEntity
  8
Defpoints
 62
     0
100
AcDbPoint
 10
774.7143814576102
 20
272.1678032650474
 30
0.0
  0
POINT
  5
130A
330
1283
100
AcDbEntity
  8
Defpoints
 62
     0
100
AcDbPoint
 10
772.2571944034898
 20
272.1678032650474
 30
0.0
  0
POINT
  5
130B
330
1283
100
AcDbEntity
  8
Defpoints
 62
     0
100
AcDbPoint
 10
772.2571944034898
 20
270.2581718430386
 30
0.0
  0
ENDBLK
  5
1285
330
1283
100
AcDbEntity
  8
0
100
AcDbBlockEnd
  0
BLOCK
  5
1292
330
1291
100
AcDbEntity
  8
0
100
AcDbBlockBegin
  2
*D33
 70
     1
 10
0.0
 20
0.0
 30
0.0
  3
*D33
  1

  0
LINE
  5
130C
330
1291
100
AcDbEntity
  8
0
 62
     0
370
    -2
100
AcDbLine
 10
776.3525063636834
 20
266.461713692285
 30
0.0
 11
776.3525063636834
 21
263.9158216228217
 31
0.0
  0
LINE
  5
130D
330
1291
100
AcDbEntity
  8
0
 62
     0
370
    -2
100
AcDbLine
 10
773.2582705655404
 20
266.461713692285
 30
0.0
 11
773.2582705655404
 21
263.9158216228217
 31
0.0
  0
LINE
  5
130E
330
1291
100
AcDbEntity
  8
0
 62
     0
370
    -2
100
AcDbLine
 10
778.8525063636833
 20
265.1658216228217
 30
0.0
 11
781.3525063636833
 21
265.1658216228217
 31
0.0
  0
LINE
  5
130F
330
1291
100
AcDbEntity
  8
0
 62
     0
370
    -2
100
AcDbLine
 10
770.7582705655404
 20
265.1658216228217
 30
0.0
 11
758.7582705655404
 21
265.1658216228217
 31
0.0
  0
LINE
  5
1310
330
1291
100
AcDbEntity
  8
0
 62
     0
370
    -2
100
AcDbLine
 10
776.3525063636834
 20
265.1658216228217
 30
0.0
 11
773.2582705655404
 21
265.1658216228217
 31
0.0
  0
INSERT
  5
1311
330
1291
100
AcDbEntity
  8
0
 62
     0
370
    -2
100
AcDbBlockReference
  2
_Open30
 10
776.3525063636834
 20
265.1658216228217
 30
0.0
 41
2.5
 42
2.5
 43
2.5
 50
180.0
  0
INSERT
  5
1312
330
1291
100
AcDbEntity
  8
0
 62
     0
370
    -2
100
AcDbBlockReference
  2
_Open30
 10
773.2582705655404
 20
265.1658216228217
 30
0.0
 41
2.5
 42
2.5
 43
2.5
  0
MTEXT
  5
1313
330
1291
100
AcDbEntity
  8
0
 62
     4
100
AcDbMText
 10
763.3832705655404
 20
267.2908216228217
 30
0.0
 40
3.0
 41
0.0
 71
     5
 72
     1
  1
1.55
 73
     1
 44
1.0
1001
ACAD
1000
MTEXTBEGIN
1070
    73
1070
     1
1070
    44
1040
1.0
1070
    74
1070
     0
1000
MTEXTEND
  0
POINT
  5
1314
330
1291
100
AcDbEntity
  8
Defpoints
 62
     0
100
AcDbPoint
 10
776.3525063636834
 20
266.711713692285
 30
0.0
  0
POINT
  5
1315
330
1291
100
AcDbEntity
  8
Defpoints
 62
     0
100
AcDbPoint
 10
773.2582705655404
 20
266.711713692285
 30
0.0
  0
POINT
  5
1316
330
1291
100
AcDbEntity
  8
Defpoints
 62
     0
100
AcDbPoint
 10
773.2582705655404
 20
265.1658216228217
 30
0.0
  0
ENDBLK
  5
1293
330
1291
100
AcDbEntity
  8
0
100
AcDbBlockEnd
  0
BLOCK
  5
12A0
330
129F
100
AcDbEntity
  8
0
100
AcDbBlockBegin
  2
*D34
 70
     1
 10
0.0
 20
0.0
 30
0.0
  3
*D34
  1

  0
LINE
  5
1317
330
129F
100
AcDbEntity
  8
0
 62
     0
370
    -2
100
AcDbLine
 10
778.0816379717688
 20
261.0056239764385
 30
0.0
 11
778.0816379717688
 21
258.7325363140712
 31
0.0
  0
LINE
  5
1318
330
129F
100
AcDbEntity
  8
0
 62
     0
370
    -2
100
AcDbLine
 10
774.0773330185771
 20
261.0056239764385
 30
0.0
 11
774.0773330185771
 21
258.7325363140712
 31
0.0
  0
LINE
  5
1319
330
129F
100
AcDbEntity
  8
0
 62
     0
370
    -2
100
AcDbLine
 10
780.5816379717688
 20
259.9825363140713
 30
0.0
 11
783.0816379717688
 21
259.9825363140713
 31
0.0
  0
LINE
  5
131A
330
129F
100
AcDbEntity
  8
0
 62
     0
370
    -2
100
AcDbLine
 10
771.577333018577
 20
259.9825363140713
 30
0.0
 11
763.2439996852438
 21
259.9825363140713
 31
0.0
  0
LINE
  5
131B
330
129F
100
AcDbEntity
  8
0
 62
     0
370
    -2
100
AcDbLine
 10
778.0816379717688
 20
259.9825363140713
 30
0.0
 11
774.0773330185771
 21
259.9825363140713
 31
0.0
  0
INSERT
  5
131C
330
129F
100
AcDbEntity
  8
0
 62
     0
370
    -2
100
AcDbBlockReference
  2
_Open30
 10
778.0816379717688
 20
259.9825363140713
 30
0.0
 41
2.5
 42
2.5
 43
2.5
 50
180.0
  0
INSERT
  5
131D
330
129F
100
AcDbEntity
  8
0
 62
     0
370
    -2
100
AcDbBlockReference
  2
_Open30
 10
774.0773330185771
 20
259.9825363140713
 30
0.0
 41
2.5
 42
2.5
 43
2.5
  0
MTEXT
  5
131E
330
129F
100
AcDbEntity
  8
0
 62
     4
100
AcDbMText
 10
765.702333018577
 20
261.6075363140712
 30
0.0
 40
2.0
 41
0.0
 71
     5
 72
     1
  1
0.8
  7
高2
 73
     1
 44
1.0
1001
ACAD
1000
MTEXTBEGIN
1070
    73
1070
     1
1070
    44
1040
1.0
1070
    74
1070
     0
1000
MTEXTEND
  0
POINT
  5
131F
330
129F
100
AcDbEntity
  8
Defpoints
 62
     0
100
AcDbPoint
 10
778.0816379717688
 20
261.2556239764385
 30
0.0
  0
POINT
  5
1320
330
129F
100
AcDbEntity
  8
Defpoints
 62
     0
100
AcDbPoint
 10
774.0773330185771
 20
261.2556239764385
 30
0.0
  0
POINT
  5
1321
330
129F
100
AcDbEntity
  8
Defpoints
 62
     0
100
AcDbPoint
 10
774.0773330185771
 20
259.9825363140713
 30
0.0
  0
ENDBLK
  5
12A1
330
129F
100
AcDbEntity
  8
0
100
AcDbBlockEnd
  0
BLOCK
  5
12AE
330
12AD
100
AcDbEntity
  8
0
100
AcDbBlockBegin
  2
*D35
 70
     1
 10
0.0
 20
0.0
 30
0.0
  3
*D35
  1

  0
LINE
  5
1322
330
12AD
100
AcDbEntity
  8
0
 62
     0
370
    -2
100
AcDbLine
 10
777.9906312697565
 20
255.7314040084069
 30
0.0
 11
777.9906312697565
 21
253.9129905009505
 31
0.0
  0
LINE
  5
1323
330
12AD
100
AcDbEntity
  8
0
 62
     0
370
    -2
100
AcDbLine
 10
773.2582705655404
 20
255.7314040084069
 30
0.0
 11
773.2582705655404
 21
253.9129905009505
 31
0.0
  0
LINE
  5
1324
330
12AD
100
AcDbEntity
  8
0
 62
     0
370
    -2
100
AcDbLine
 10
780.4906312697564
 20
255.1629905009505
 30
0.0
 11
782.9906312697564
 21
255.1629905009505
 31
0.0
  0
LINE
  5
1325
330
12AD
100
AcDbEntity
  8
0
 62
     0
370
    -2
100
AcDbLine
 10
770.7582705655404
 20
255.1629905009505
 30
0.0
 11
756.0082705655404
 21
255.1629905009505
 31
0.0
  0
LINE
  5
1326
330
12AD
100
AcDbEntity
  8
0
 62
     0
370
    -2
100
AcDbLine
 10
777.9906312697565
 20
255.1629905009505
 30
0.0
 11
773.2582705655404
 21
255.1629905009505
 31
0.0
  0
INSERT
  5
1327
330
12AD
100
AcDbEntity
  8
0
 62
     0
370
    -2
100
AcDbBlockReference
  2
_Open30
 10
777.9906312697565
 20
255.1629905009505
 30
0.0
 41
2.5
 42
2.5
 43
2.5
 50
180.0
  0
INSERT
  5
1328
330
12AD
100
AcDbEntity
  8
0
 62
     0
370
    -2
100
AcDbBlockReference
  2
_Open30
 10
773.2582705655404
 20
255.1629905009505
 30
0.0
 41
2.5
 42
2.5
 43
2.5
  0
MTEXT
  5
1329
330
12AD
100
AcDbEntity
  8
0
 62
     4
100
AcDbMText
 10
762.1332705655404
 20
257.2879905009505
 30
0.0
 40
3.0
 41
0.0
 71
     5
 72
     1
  1
18.93
 73
     1
 44
1.0
1001
ACAD
1000
MTEXTBEGIN
1070
    73
1070
     1
1070
    44
1040
1.0
1070
    74
1070
     0
1000
MTEXTEND
  0
POINT
  5
132A
330
12AD
100
AcDbEntity
  8
Defpoints
 62
     0
100
AcDbPoint
 10
777.9906312697565
 20
255.9814040084069
 30
0.0
  0
POINT
  5
132B
330
12AD
100
AcDbEntity
  8
Defpoints
 62
     0
100
AcDbPoint
 10
773.2582705655404
 20
255.9814040084069
 30
0.0
  0
POINT
  5
132C
330
12AD
100
AcDbEntity
  8
Defpoints
 62
     0
100
AcDbPoint
 10
773.2582705655404
 20
255.1629905009505
 30
0.0
  0
ENDBLK
  5
12AF
330
12AD
100
AcDbEntity
  8
0
100
AcDbBlockEnd
  0
BLOCK
  5
12BC
330
12BB
100
AcDbEntity
  8
0
100
AcDbBlockBegin
  2
*D36
 70
     1
 10
0.0
 20
0.0
 30
0.0
  3
*D36
  1

  0
LINE
  5
132D
330
12BB
100
AcDbEntity
  8
0
 62
     0
370
    -2
100
AcDbLine
 10
775.1862044186182
 20
250.6755638018171
 30
0.0
 11
775.1862044186182
 21
248.3656427249416
 31
0.0
  0
LINE
  5
132E
330
12BB
100
AcDbEntity
  8
0
 62
     0
370
    -2
100
AcDbLine
 10
770.5975292164703
 20
250.6755638018171
 30
0.0
 11
770.5975292164703
 21
248.3656427249416
 31
0.0
  0
LINE
  5
132F
330
12BB
100
AcDbEntity
  8
0
 62
     0
370
    -2
100
AcDbLine
 10
777.6862044186182
 20
249.6156427249416
 30
0.0
 11
780.1862044186182
 21
249.6156427249416
 31
0.0
  0
LINE
  5
1330
330
12BB
100
AcDbEntity
  8
0
 62
     0
370
    -2
100
AcDbLine
 10
768.0975292164703
 20
249.6156427249416
 30
0.0
 11
753.3475292164703
 21
249.6156427249416
 31
0.0
  0
LINE
  5
1331
330
12BB
100
AcDbEntity
  8
0
 62
     0
370
    -2
100
AcDbLine
 10
775.1862044186182
 20
249.6156427249416
 30
0.0
 11
770.5975292164703
 21
249.6156427249416
 31
0.0
  0
INSERT
  5
1332
330
12BB
100
AcDbEntity
  8
0
 62
     0
370
    -2
100
AcDbBlockReference
  2
_Open30
 10
775.1862044186182
 20
249.6156427249416
 30
0.0
 41
2.5
 42
2.5
 43
2.5
 50
180.0
  0
INSERT
  5
1333
330
12BB
100
AcDbEntity
  8
0
 62
     0
370
    -2
100
AcDbBlockReference
  2
_Open30
 10
770.5975292164703
 20
249.6156427249416
 30
0.0
 41
2.5
 42
2.5
 43
2.5
  0
MTEXT
  5
1334
330
12BB
100
AcDbEntity
  8
0
 62
     4
100
AcDbMText
 10
759.4725292164703
 20
251.7406427249416
 30
0.0
 40
3.0
 41
0.0
 71
     5
 72
     1
  1
13.77
 73
     1
 44
1.0
1001
ACAD
1000
MTEXTBEGIN
1070
    73
1070
     1
1070
    44
1040
1.0
1070
    74
1070
     0
1000
MTEXTEND
  0
POINT
  5
1335
330
12BB
100
AcDbEntity
  8
Defpoints
 62
     0
100
AcDbPoint
 10
775.1862044186182
 20
250.9255638018171
 30
0.0
  0
POINT
  5
1336
330
12BB
100
AcDbEntity
  8
Defpoints
 62
     0
100
AcDbPoint
 10
770.5975292164703
 20
250.9255638018171
 30
0.0
  0
POINT
  5
1337
330
12BB
100
AcDbEntity
  8
Defpoints
 62
     0
100
AcDbPoint
 10
770.5975292164703
 20
249.6156427249416
 30
0.0
  0
ENDBLK
  5
12BD
330
12BB
100
AcDbEntity
  8
0
100
AcDbBlockEnd
  0
BLOCK
  5
12CA
330
12C9
100
AcDbEntity
  8
0
100
AcDbBlockBegin
  2
*D37
 70
     1
 10
0.0
 20
0.0
 30
0.0
  3
*D37
  1

  0
LINE
  5
1338
330
12C9
100
AcDbEntity
  8
0
 62
     0
370
    -2
100
AcDbLine
 10
768.0899215854679
 20
281.6050551200915
 30
0.0
 11
768.0899215854679
 21
289.0015885980292
 31
0.0
  0
LINE
  5
1339
330
12C9
100
AcDbEntity
  8
0
 62
     0
370
    -2
100
AcDbLine
 10
758.1514472159779
 20
281.6050551200915
 30
0.0
 11
758.1514472159779
 21
289.0015885980292
 31
0.0
  0
LINE
  5
133A
330
12C9
100
AcDbEntity
  8
0
 62
     0
370
    -2
100
AcDbLine
 10
765.5899215854678
 20
287.7515885980292
 30
0.0
 11
760.6514472159779
 21
287.7515885980292
 31
0.0
  0
INSERT
  5
133B
330
12C9
100
AcDbEntity
  8
0
 62
     0
370
    -2
100
AcDbBlockReference
  2
_Open30
 10
768.0899215854679
 20
287.7515885980292
 30
0.0
 41
2.5
 42
2.5
 43
2.5
  0
INSERT
  5
133C
330
12C9
100
AcDbEntity
  8
0
 62
     0
370
    -2
100
AcDbBlockReference
  2
_Open30
 10
758.1514472159779
 20
287.7515885980292
 30
0.0
 41
2.5
 42
2.5
 43
2.5
 50
180.0
  0
MTEXT
  5
133D
330
12C9
100
AcDbEntity
  8
0
 62
     4
100
AcDbMText
 10
763.1206844007229
 20
290.8265885980292
 30
0.0
 40
3.0
 41
0.0
 71
     5
 72
     1
  1
9.94\H0.7X;\S+0^ -0.02;
 73
     1
 44
1.0
1001
ACAD
1000
MTEXTBEGIN
1070
    73
1070
     1
1070
    44
1040
1.0
1070
    74
1070
     0
1000
MTEXTEND
  0
POINT
  5
133E
330
12C9
100
AcDbEntity
  8
Defpoints
 62
     0
100
AcDbPoint
 10
768.0899215854679
 20
281.3550551200915
 30
0.0
  0
POINT
  5
133F
330
12C9
100
AcDbEntity
  8
Defpoints
 62
     0
100
AcDbPoint
 10
758.1514472159779
 20
281.3550551200915
 30
0.0
  0
POINT
  5
1340
330
12C9
100
AcDbEntity
  8
Defpoints
 62
     0
100
AcDbPoint
 10
758.1514472159779
 20
287.7515885980292
 30
0.0
  0
ENDBLK
  5
12CB
330
12C9
100
AcDbEntity
  8
0
100
AcDbBlockEnd
  0
ENDSEC
  0
SECTION
  2
ENTITIES
  0
LINE
  5
41A
330
1F
100
AcDbEntity
  8
0
 62
     3
100
AcDbLine
 10
222.7108167418817
 20
183.2564913505095
 30
0.0
 11
222.7108167418817
 21
183.7161107582806
 31
0.0
  0
LINE
  5
41B
330
1F
100
AcDbEntity
  8
0
 62
     3
100
AcDbLine
 10
221.4108167418816
 20
183.7161107582806
 30
0.0
 11
221.4108167418816
 21
183.2564913505095
 31
0.0
  0
LINE
  5
41C
330
1F
100
AcDbEntity
  8
0
 62
     3
100
AcDbLine
 10
222.7108167418817
 20
107.3249689815944
 30
0.0
 11
222.7108167418817
 21
183.2564913505095
 31
0.0
  0
LINE
  5
41D
330
1F
100
AcDbEntity
  8
0
 62
     3
100
AcDbLine
 10
221.4108167418816
 20
183.2564913505095
 30
0.0
 11
221.4108167418816
 21
107.3249689815944
 31
0.0
  0
LINE
  5
41E
330
1F
100
AcDbEntity
  8
0
 62
     3
100
AcDbLine
 10
221.4108167418816
 20
107.3249689815944
 30
0.0
 11
221.4108167418816
 21
106.8653495738232
 31
0.0
  0
LINE
  5
41F
330
1F
100
AcDbEntity
  8
0
 62
     3
100
AcDbLine
 10
222.7108167418817
 20
106.8653495738232
 30
0.0
 11
222.7108167418817
 21
107.3249689815944
 31
0.0
  0
LINE
  5
420
330
1F
100
AcDbEntity
  8
0
 62
     3
100
AcDbLine
 10
222.7108167418817
 20
101.2079570856392
 30
0.0
 11
222.7108167418817
 21
106.8653495738232
 31
0.0
  0
LINE
  5
421
330
1F
100
AcDbEntity
  8
0
 62
     3
100
AcDbLine
 10
221.4108167418816
 20
106.8653495738232
 30
0.0
 11
221.4108167418816
 21
101.2079570856392
 31
0.0
  0
LINE
  5
422
330
1F
100
AcDbEntity
  8
0
 62
     3
100
AcDbLine
 10
221.4108167418816
 20
189.3735032464647
 30
0.0
 11
221.4108167418816
 21
183.7161107582806
 31
0.0
  0
LINE
  5
423
330
1F
100
AcDbEntity
  8
0
 62
     3
100
AcDbLine
 10
222.7108167418817
 20
183.7161107582806
 30
0.0
 11
222.7108167418817
 21
189.3735032464647
 31
0.0
  0
LINE
  5
424
330
1F
100
AcDbEntity
  8
0
 62
     3
100
AcDbLine
 10
185.1108167418813
 20
107.3249689815944
 30
0.0
 11
185.1108167418813
 21
106.8653495738232
 31
0.0
  0
LINE
  5
425
330
1F
100
AcDbEntity
  8
0
 62
     3
100
AcDbLine
 10
186.4108167418815
 20
106.8653495738232
 30
0.0
 11
186.4108167418815
 21
107.3249689815944
 31
0.0
  0
LINE
  5
426
330
1F
100
AcDbEntity
  8
0
 62
     3
100
AcDbLine
 10
186.4108167418815
 20
107.3249689815944
 30
0.0
 11
186.4108167418815
 21
183.2564913505095
 31
0.0
  0
LINE
  5
427
330
1F
100
AcDbEntity
  8
0
 62
     3
100
AcDbLine
 10
185.1108167418813
 20
183.2564913505095
 30
0.0
 11
185.1108167418813
 21
107.3249689815944
 31
0.0
  0
LINE
  5
428
330
1F
100
AcDbEntity
  8
0
 62
     3
100
AcDbLine
 10
186.4108167418815
 20
183.2564913505095
 30
0.0
 11
186.4108167418815
 21
183.7161107582806
 31
0.0
  0
LINE
  5
429
330
1F
100
AcDbEntity
  8
0
 62
     3
100
AcDbLine
 10
185.1108167418813
 20
183.7161107582806
 30
0.0
 11
185.1108167418813
 21
183.2564913505095
 31
0.0
  0
LINE
  5
42A
330
1F
100
AcDbEntity
  8
0
 62
     3
100
AcDbLine
 10
185.1108167418813
 20
189.3735032464647
 30
0.0
 11
185.1108167418813
 21
183.7161107582806
 31
0.0
  0
LINE
  5
42B
330
1F
100
AcDbEntity
  8
0
 62
     3
100
AcDbLine
 10
186.4108167418815
 20
183.7161107582806
 30
0.0
 11
186.4108167418815
 21
189.3735032464647
 31
0.0
  0
LINE
  5
42C
330
1F
100
AcDbEntity
  8
0
 62
     3
100
AcDbLine
 10
186.4108167418815
 20
101.2079570856392
 30
0.0
 11
186.4108167418815
 21
106.8653495738232
 31
0.0
  0
LINE
  5
42D
330
1F
100
AcDbEntity
  8
0
 62
     3
100
AcDbLine
 10
185.1108167418813
 20
106.8653495738232
 30
0.0
 11
185.1108167418813
 21
101.2079570856392
 31
0.0
  0
ARC
  5
42E
330
1F
100
AcDbEntity
  8
0
 62
     3
100
AcDbCircle
 10
157.4445548267948
 20
187.23599061988
 30
0.0
 40
1.30000000000001
100
AcDbArc
 50
90.0
 51
135.0000000000091
  0
LINE
  5
42F
330
1F
100
AcDbEntity
  8
0
 62
     3
100
AcDbLine
 10
157.4445548267948
 20
187.23599061988
 30
0.0
 11
185.1108167418813
 21
187.23599061988
 31
0.0
  0
LINE
  5
430
330
1F
100
AcDbEntity
  8
0
 62
     3
100
AcDbLine
 10
186.4108167418815
 20
187.23599061988
 30
0.0
 11
221.4108167418816
 21
187.23599061988
 31
0.0
  0
LINE
  5
431
330
1F
100
AcDbEntity
  8
0
 62
     3
100
AcDbLine
 10
222.7108167418817
 20
187.23599061988
 30
0.0
 11
250.3770786569683
 21
187.23599061988
 31
0.0
  0
LINE
  5
432
330
1F
100
AcDbEntity
  8
0
 62
     3
100
AcDbLine
 10
250.3770786569683
 20
188.5359906198799
 30
0.0
 11
222.7108167418817
 21
188.5359906198799
 31
0.0
  0
LINE
  5
433
330
1F
100
AcDbEntity
  8
0
 62
     3
100
AcDbLine
 10
221.4108167418816
 20
188.5359906198799
 30
0.0
 11
186.4108167418815
 21
188.5359906198799
 31
0.0
  0
LINE
  5
434
330
1F
100
AcDbEntity
  8
0
 62
     3
100
AcDbLine
 10
185.1108167418813
 20
188.5359906198799
 30
0.0
 11
157.4445548267948
 21
188.5359906198799
 31
0.0
  0
ARC
  5
435
330
1F
100
AcDbEntity
  8
0
 62
     3
100
AcDbCircle
 10
250.3770786569683
 20
187.23599061988
 30
0.0
 40
1.30000000000001
100
AcDbArc
 50
44.99999999999086
 51
90.0
  0
LINE
  5
436
330
1F
100
AcDbEntity
  8
0
 62
     3
100
AcDbLine
 10
257.6608167418815
 20
181.7907301660519
 30
0.0
 11
251.2963174725108
 21
188.1552294354225
 31
0.0
  0
LINE
  5
437
330
1F
100
AcDbEntity
  8
0
 62
     3
100
AcDbLine
 10
250.3770786569683
 20
187.23599061988
 30
0.0
 11
256.3608167418814
 21
181.2522525349671
 31
0.0
  0
LINE
  5
438
330
1F
100
AcDbEntity
  8
0
 62
     3
100
AcDbLine
 10
151.4608167418817
 20
181.2522525349671
 30
0.0
 11
157.4445548267948
 21
187.23599061988
 31
0.0
  0
LINE
  5
439
330
1F
100
AcDbEntity
  8
0
 62
     3
100
AcDbLine
 10
156.5253160112523
 20
188.1552294354225
 30
0.0
 11
150.1608167418815
 21
181.7907301660519
 31
0.0
  0
LINE
  5
43A
330
1F
100
AcDbEntity
  8
0
 62
     3
100
AcDbLine
 10
250.3770786569683
 20
103.3454697122239
 30
0.0
 11
222.7108167418817
 21
103.3454697122239
 31
0.0
  0
LINE
  5
43B
330
1F
100
AcDbEntity
  8
0
 62
     3
100
AcDbLine
 10
221.4108167418816
 20
103.3454697122239
 30
0.0
 11
186.4108167418815
 21
103.3454697122239
 31
0.0
  0
LINE
  5
43C
330
1F
100
AcDbEntity
  8
0
 62
     3
100
AcDbLine
 10
185.1108167418813
 20
103.3454697122239
 30
0.0
 11
157.4445548267948
 21
103.3454697122239
 31
0.0
  0
LINE
  5
43D
330
1F
100
AcDbEntity
  8
0
 62
     3
100
AcDbLine
 10
157.4445548267948
 20
102.0454697122239
 30
0.0
 11
185.1108167418813
 21
102.0454697122239
 31
0.0
  0
LINE
  5
43E
330
1F
100
AcDbEntity
  8
0
 62
     3
100
AcDbLine
 10
186.4108167418815
 20
102.0454697122239
 30
0.0
 11
221.4108167418816
 21
102.0454697122239
 31
0.0
  0
LINE
  5
43F
330
1F
100
AcDbEntity
  8
0
 62
     3
100
AcDbLine
 10
222.7108167418817
 20
102.0454697122239
 30
0.0
 11
250.3770786569683
 21
102.0454697122239
 31
0.0
  0
ARC
  5
440
330
1F
100
AcDbEntity
  8
0
 62
     3
100
AcDbCircle
 10
250.3770786569683
 20
103.3454697122239
 30
0.0
 40
1.299999999999992
100
AcDbArc
 50
270.0
 51
315.0000000000091
  0
ARC
  5
441
330
1F
100
AcDbEntity
  8
0
 62
     3
100
AcDbCircle
 10
157.4445548267948
 20
103.3454697122239
 30
0.0
 40
1.299999999999992
100
AcDbArc
 50
224.9999999999909
 51
270.0
  0
LINE
  5
442
330
1F
100
AcDbEntity
  8
0
 62
     3
100
AcDbLine
 10
150.1608167418815
 20
108.7907301660519
 30
0.0
 11
156.5253160112523
 21
102.4262308966814
 31
0.0
  0
LINE
  5
443
330
1F
100
AcDbEntity
  8
0
 62
     3
100
AcDbLine
 10
157.4445548267948
 20
103.3454697122239
 30
0.0
 11
151.4608167418817
 21
109.3292077971367
 31
0.0
  0
LINE
  5
444
330
1F
100
AcDbEntity
  8
0
 62
     3
100
AcDbLine
 10
256.3608167418814
 20
109.3292077971367
 30
0.0
 11
250.3770786569683
 21
103.3454697122239
 31
0.0
  0
LINE
  5
445
330
1F
100
AcDbEntity
  8
0
 62
     3
100
AcDbLine
 10
251.2963174725108
 20
102.4262308966814
 30
0.0
 11
257.6608167418815
 21
108.7907301660519
 31
0.0
  0
LINE
  5
446
330
1F
100
AcDbEntity
  8
0
 62
     3
100
AcDbLine
 10
254.9815779263389
 20
164.0407301660519
 30
0.0
 11
255.4411973341101
 21
164.0407301660519
 31
0.0
  0
LINE
  5
447
330
1F
100
AcDbEntity
  8
0
 62
     3
100
AcDbLine
 10
255.4411973341101
 20
165.340730166052
 30
0.0
 11
254.9815779263389
 21
165.340730166052
 31
0.0
  0
LINE
  5
448
330
1F
100
AcDbEntity
  8
0
 62
     3
100
AcDbLine
 10
152.8400555574233
 20
164.0407301660519
 30
0.0
 11
185.1108167418813
 21
164.0407301660519
 31
0.0
  0
LINE
  5
449
330
1F
100
AcDbEntity
  8
0
 62
     3
100
AcDbLine
 10
186.4108167418815
 20
164.0407301660519
 30
0.0
 11
221.4108167418816
 21
164.0407301660519
 31
0.0
  0
LINE
  5
44A
330
1F
100
AcDbEntity
  8
0
 62
     3
100
AcDbLine
 10
222.7108167418817
 20
164.0407301660519
 30
0.0
 11
254.9815779263389
 21
164.0407301660519
 31
0.0
  0
LINE
  5
44B
330
1F
100
AcDbEntity
  8
0
 62
     3
100
AcDbLine
 10
254.9815779263389
 20
165.340730166052
 30
0.0
 11
222.7108167418817
 21
165.340730166052
 31
0.0
  0
LINE
  5
44C
330
1F
100
AcDbEntity
  8
0
 62
     3
100
AcDbLine
 10
221.4108167418816
 20
165.340730166052
 30
0.0
 11
186.4108167418815
 21
165.340730166052
 31
0.0
  0
LINE
  5
44D
330
1F
100
AcDbEntity
  8
0
 62
     3
100
AcDbLine
 10
185.1108167418813
 20
165.340730166052
 30
0.0
 11
152.8400555574233
 21
165.340730166052
 31
0.0
  0
LINE
  5
44E
330
1F
100
AcDbEntity
  8
0
 62
     3
100
AcDbLine
 10
152.8400555574233
 20
165.340730166052
 30
0.0
 11
152.3804361496521
 21
165.340730166052
 31
0.0
  0
LINE
  5
44F
330
1F
100
AcDbEntity
  8
0
 62
     3
100
AcDbLine
 10
152.3804361496521
 20
164.0407301660519
 30
0.0
 11
152.8400555574233
 21
164.0407301660519
 31
0.0
  0
LINE
  5
450
330
1F
100
AcDbEntity
  8
0
 62
     3
100
AcDbLine
 10
259.6843762599208
 20
165.340730166052
 30
0.0
 11
255.4411973341101
 21
165.340730166052
 31
0.0
  0
LINE
  5
451
330
1F
100
AcDbEntity
  8
0
 62
     3
100
AcDbLine
 10
255.4411973341101
 20
164.0407301660519
 30
0.0
 11
259.6843762599208
 21
164.0407301660519
 31
0.0
  0
LINE
  5
452
330
1F
100
AcDbEntity
  8
0
 62
     3
100
AcDbLine
 10
148.1372572238421
 20
164.0407301660519
 30
0.0
 11
152.3804361496521
 21
164.0407301660519
 31
0.0
  0
LINE
  5
453
330
1F
100
AcDbEntity
  8
0
 62
     3
100
AcDbLine
 10
152.3804361496521
 20
165.340730166052
 30
0.0
 11
148.1372572238421
 21
165.340730166052
 31
0.0
  0
LINE
  5
454
330
1F
100
AcDbEntity
  8
0
 62
     3
100
AcDbLine
 10
254.9815779263389
 20
125.240730166052
 30
0.0
 11
255.4411973341101
 21
125.240730166052
 31
0.0
  0
LINE
  5
455
330
1F
100
AcDbEntity
  8
0
 62
     3
100
AcDbLine
 10
255.4411973341101
 20
126.5407301660519
 30
0.0
 11
254.9815779263389
 21
126.5407301660519
 31
0.0
  0
LINE
  5
456
330
1F
100
AcDbEntity
  8
0
 62
     3
100
AcDbLine
 10
152.8400555574233
 20
125.240730166052
 30
0.0
 11
185.1108167418813
 21
125.240730166052
 31
0.0
  0
LINE
  5
457
330
1F
100
AcDbEntity
  8
0
 62
     3
100
AcDbLine
 10
186.4108167418815
 20
125.240730166052
 30
0.0
 11
221.4108167418816
 21
125.240730166052
 31
0.0
  0
LINE
  5
458
330
1F
100
AcDbEntity
  8
0
 62
     3
100
AcDbLine
 10
222.7108167418817
 20
125.240730166052
 30
0.0
 11
254.9815779263389
 21
125.240730166052
 31
0.0
  0
LINE
  5
459
330
1F
100
AcDbEntity
  8
0
 62
     3
100
AcDbLine
 10
254.9815779263389
 20
126.5407301660519
 30
0.0
 11
222.7108167418817
 21
126.5407301660519
 31
0.0
  0
LINE
  5
45A
330
1F
100
AcDbEntity
  8
0
 62
     3
100
AcDbLine
 10
221.4108167418816
 20
126.5407301660519
 30
0.0
 11
186.4108167418815
 21
126.5407301660519
 31
0.0
  0
LINE
  5
45B
330
1F
100
AcDbEntity
  8
0
 62
     3
100
AcDbLine
 10
185.1108167418813
 20
126.5407301660519
 30
0.0
 11
152.8400555574233
 21
126.5407301660519
 31
0.0
  0
LINE
  5
45C
330
1F
100
AcDbEntity
  8
0
 62
     3
100
AcDbLine
 10
152.8400555574233
 20
126.5407301660519
 30
0.0
 11
152.3804361496521
 21
126.5407301660519
 31
0.0
  0
LINE
  5
45D
330
1F
100
AcDbEntity
  8
0
 62
     3
100
AcDbLine
 10
152.3804361496521
 20
125.240730166052
 30
0.0
 11
152.8400555574233
 21
125.240730166052
 31
0.0
  0
LINE
  5
45E
330
1F
100
AcDbEntity
  8
0
 62
     3
100
AcDbLine
 10
148.1372572238421
 20
125.240730166052
 30
0.0
 11
152.3804361496521
 21
125.240730166052
 31
0.0
  0
LINE
  5
45F
330
1F
100
AcDbEntity
  8
0
 62
     3
100
AcDbLine
 10
152.3804361496521
 20
126.5407301660519
 30
0.0
 11
148.1372572238421
 21
126.5407301660519
 31
0.0
  0
LINE
  5
460
330
1F
100
AcDbEntity
  8
0
 62
     3
100
AcDbLine
 10
259.6843762599208
 20
126.5407301660519
 30
0.0
 11
255.4411973341101
 21
126.5407301660519
 31
0.0
  0
LINE
  5
461
330
1F
100
AcDbEntity
  8
0
 62
     3
100
AcDbLine
 10
255.4411973341101
 20
125.240730166052
 30
0.0
 11
259.6843762599208
 21
125.240730166052
 31
0.0
  0
ARC
  5
462
330
1F
100
AcDbEntity
  8
0
 62
     3
100
AcDbCircle
 10
151.4108167418815
 20
102.7907301660519
 30
0.0
 40
1.249999999999982
100
AcDbArc
 50
0.0
 51
102.1531974689886
  0
ARC
  5
463
330
1F
100
AcDbEntity
  8
0
 62
     3
100
AcDbCircle
 10
151.4108167418815
 20
102.7907301660519
 30
0.0
 40
1.25
100
AcDbArc
 50
180.0
 51
0.0
  0
ARC
  5
464
330
1F
100
AcDbEntity
  8
0
 62
     3
100
AcDbCircle
 10
151.4108167418815
 20
102.7907301660519
 30
0.0
 40
2.55000000000001
100
AcDbArc
 50
180.0
 51
102.1531974689886
  0
LINE
  5
465
330
1F
100
AcDbEntity
  8
0
 62
     3
100
AcDbLine
 10
148.8608167418813
 20
187.7907301660519
 30
0.0
 11
148.8608167418813
 21
165.3407301660519
 31
0.0
  0
LINE
  5
466
330
1F
100
AcDbEntity
  8
0
 62
     3
100
AcDbLine
 10
148.8608167418813
 20
164.0407301660519
 30
0.0
 11
148.8608167418813
 21
126.5407301660519
 31
0.0
  0
LINE
  5
467
330
1F
100
AcDbEntity
  8
0
 62
     3
100
AcDbLine
 10
148.8608167418813
 20
125.240730166052
 30
0.0
 11
148.8608167418813
 21
102.7907301660519
 31
0.0
  0
LINE
  5
468
330
1F
100
AcDbEntity
  8
0
 62
     3
100
AcDbLine
 10
150.1608167418815
 20
102.7907301660519
 30
0.0
 11
150.1608167418815
 21
125.240730166052
 31
0.0
  0
LINE
  5
469
330
1F
100
AcDbEntity
  8
0
 62
     3
100
AcDbLine
 10
150.1608167418815
 20
126.5407301660519
 30
0.0
 11
150.1608167418815
 21
164.0407301660519
 31
0.0
  0
LINE
  5
46A
330
1F
100
AcDbEntity
  8
0
 62
     3
100
AcDbLine
 10
150.1608167418815
 20
165.3407301660519
 30
0.0
 11
150.1608167418815
 21
187.7907301660519
 31
0.0
  0
ARC
  5
46B
330
1F
100
AcDbEntity
  8
0
 62
     3
100
AcDbCircle
 10
151.4108167418815
 20
187.7907301660519
 30
0.0
 40
1.25
100
AcDbArc
 50
0.0
 51
180.0
  0
ARC
  5
46C
330
1F
100
AcDbEntity
  8
0
 62
     3
100
AcDbCircle
 10
151.4108167418815
 20
187.7907301660519
 30
0.0
 40
1.250000000000011
100
AcDbArc
 50
257.8468025309585
 51
0.0
  0
ARC
  5
46D
330
1F
100
AcDbEntity
  8
0
 62
     3
100
AcDbCircle
 10
151.4108167418815
 20
187.7907301660519
 30
0.0
 40
2.550000000000038
100
AcDbArc
 50
257.8468025309585
 51
180.0
  0
ARC
  5
46E
330
1F
100
AcDbEntity
  8
0
 62
     3
100
AcDbCircle
 10
256.4108167418815
 20
187.7907301660519
 30
0.0
 40
1.250000000000011
100
AcDbArc
 50
180.0
 51
282.1531974689886
  0
ARC
  5
46F
330
1F
100
AcDbEntity
  8
0
 62
     3
100
AcDbCircle
 10
256.4108167418815
 20
187.7907301660519
 30
0.0
 40
1.25
100
AcDbArc
 50
0.0
 51
180.0
  0
ARC
  5
470
330
1F
100
AcDbEntity
  8
0
 62
     3
100
AcDbCircle
 10
256.4108167418815
 20
187.7907301660519
 30
0.0
 40
2.550000000000046
100
AcDbArc
 50
0.0
 51
282.1531974689886
  0
LINE
  5
471
330
1F
100
AcDbEntity
  8
0
 62
     3
100
AcDbLine
 10
258.9608167418817
 20
102.7907301660519
 30
0.0
 11
258.9608167418817
 21
125.240730166052
 31
0.0
  0
LINE
  5
472
330
1F
100
AcDbEntity
  8
0
 62
     3
100
AcDbLine
 10
258.9608167418817
 20
126.5407301660519
 30
0.0
 11
258.9608167418817
 21
164.0407301660519
 31
0.0
  0
LINE
  5
473
330
1F
100
AcDbEntity
  8
0
 62
     3
100
AcDbLine
 10
258.9608167418817
 20
165.340730166052
 30
0.0
 11
258.9608167418817
 21
187.7907301660519
 31
0.0
  0
LINE
  5
474
330
1F
100
AcDbEntity
  8
0
 62
     3
100
AcDbLine
 10
257.6608167418815
 20
187.7907301660519
 30
0.0
 11
257.6608167418815
 21
165.340730166052
 31
0.0
  0
LINE
  5
475
330
1F
100
AcDbEntity
  8
0
 62
     3
100
AcDbLine
 10
256.3608167418814
 20
181.2522525349671
 30
0.0
 11
256.3608167418814
 21
173.252252534967
 31
0.0
  0
LINE
  5
476
330
1F
100
AcDbEntity
  8
0
 62
     3
100
AcDbLine
 10
257.6608167418815
 20
164.0407301660519
 30
0.0
 11
257.6608167418815
 21
126.5407301660519
 31
0.0
  0
LINE
  5
477
330
1F
100
AcDbEntity
  8
0
 62
     3
100
AcDbLine
 10
257.6608167418815
 20
125.240730166052
 30
0.0
 11
257.6608167418815
 21
102.7907301660519
 31
0.0
  0
ARC
  5
478
330
1F
100
AcDbEntity
  8
0
 62
     3
100
AcDbCircle
 10
256.4108167418815
 20
102.7907301660519
 30
0.0
 40
1.25
100
AcDbArc
 50
180.0
 51
0.0
  0
ARC
  5
479
330
1F
100
AcDbEntity
  8
0
 62
     3
100
AcDbCircle
 10
256.4108167418815
 20
102.7907301660519
 30
0.0
 40
1.249999999999982
100
AcDbArc
 50
77.84680253101136
 51
180.0
  0
ARC
  5
47A
330
1F
100
AcDbEntity
  8
0
 62
     3
100
AcDbCircle
 10
256.4108167418815
 20
102.7907301660519
 30
0.0
 40
2.550000000000018
100
AcDbArc
 50
77.84680253101136
 51
0.0
  0
ARC
  5
47B
330
1F
100
AcDbEntity
  8
0
 62
     3
100
AcDbCircle
 10
222.1420667418814
 20
101.322861937582
 30
0.0
 40
0.5802410598190675
100
AcDbArc
 50
261.9505330244814
 51
348.5782463410353
  0
ARC
  5
47C
330
1F
100
AcDbEntity
  8
0
 62
     3
100
AcDbCircle
 10
221.979566741881
 20
101.3228619375819
 30
0.0
 40
0.5802410598190253
100
AcDbArc
 50
191.4217536589647
 51
278.0494669755182
  0
ARC
  5
47D
330
1F
100
AcDbEntity
  8
0
 62
     3
100
AcDbCircle
 10
222.1420667418814
 20
189.258598394522
 30
0.0
 40
0.5802410598190675
100
AcDbArc
 50
11.42175365896475
 51
98.04946697551851
  0
ARC
  5
47E
330
1F
100
AcDbEntity
  8
0
 62
     3
100
AcDbCircle
 10
221.979566741881
 20
189.258598394522
 30
0.0
 40
0.5802410598190635
100
AcDbArc
 50
81.95053302448149
 51
168.5782463410352
  0
ARC
  5
47F
330
1F
100
AcDbEntity
  8
0
 62
     3
100
AcDbCircle
 10
185.8420667418812
 20
189.2585983945219
 30
0.0
 40
0.5802410598191285
100
AcDbArc
 50
11.42175365896475
 51
98.04946697551851
  0
ARC
  5
480
330
1F
100
AcDbEntity
  8
0
 62
     3
100
AcDbCircle
 10
185.6795667418817
 20
189.2585983945219
 30
0.0
 40
0.5802410598191479
100
AcDbArc
 50
81.95053302448149
 51
168.5782463410289
  0
ARC
  5
481
330
1F
100
AcDbEntity
  8
0
 62
     3
100
AcDbCircle
 10
185.8420667418812
 20
101.322861937582
 30
0.0
 40
0.5802410598190975
100
AcDbArc
 50
261.9505330244814
 51
348.5782463410353
  0
ARC
  5
482
330
1F
100
AcDbEntity
  8
0
 62
     3
100
AcDbCircle
 10
185.6795667418817
 20
101.3228619375821
 30
0.0
 40
0.5802410598191198
100
AcDbArc
 50
191.421753658971
 51
278.0494669755182
  0
LINE
  5
487
330
1F
100
AcDbEntity
  8
0
 62
     3
100
AcDbLine
 10
151.010816741881
 20
104.6481477281526
 30
0.0
 11
150.873974636618
 21
105.2835800520291
 31
0.0
  0
LINE
  5
488
330
1F
100
AcDbEntity
  8
0
 62
     3
100
AcDbLine
 10
151.147658847144
 20
104.012715404276
 30
0.0
 11
151.010816741881
 21
104.6481477281526
 31
0.0
  0
LINE
  5
489
330
1F
100
AcDbEntity
  8
0
 62
     3
100
AcDbLine
 10
151.010816741881
 20
185.9333126039513
 30
0.0
 11
150.873974636618
 21
185.2978802800747
 31
0.0
  0
LINE
  5
48A
330
1F
100
AcDbEntity
  8
0
 62
     3
100
AcDbLine
 10
151.147658847144
 20
186.5687449278279
 30
0.0
 11
151.010816741881
 21
185.9333126039513
 31
0.0
  0
LINE
  5
48B
330
1F
100
AcDbEntity
  8
0
 62
     3
100
AcDbLine
 10
256.8108167418812
 20
185.9333126039513
 30
0.0
 11
256.9476588471451
 21
185.2978802800747
 31
0.0
  0
LINE
  5
48C
330
1F
100
AcDbEntity
  8
0
 62
     3
100
AcDbLine
 10
256.6739746366182
 20
186.5687449278279
 30
0.0
 11
256.8108167418812
 21
185.9333126039513
 31
0.0
  0
LINE
  5
48D
330
1F
100
AcDbEntity
  8
0
 62
     3
100
AcDbLine
 10
256.8108167418812
 20
104.6481477281526
 30
0.0
 11
256.9476588471451
 21
105.2835800520291
 31
0.0
  0
LINE
  5
48E
330
1F
100
AcDbEntity
  8
0
 62
     3
100
AcDbLine
 10
256.6739746366182
 20
104.012715404276
 30
0.0
 11
256.8108167418812
 21
104.6481477281526
 31
0.0
  0
LINE
  5
48F
330
1F
100
AcDbEntity
  8
0
 62
     3
100
AcDbLine
 10
221.4108167418816
 20
257.159968793504
 30
0.0
 11
221.4108167418816
 21
251.5025763053201
 31
0.0
  0
LINE
  5
490
330
1F
100
AcDbEntity
  8
0
 62
     3
100
AcDbLine
 10
222.7108167418817
 20
251.5025763053201
 30
0.0
 11
222.7108167418817
 21
257.159968793504
 31
0.0
  0
LINE
  5
491
330
1F
100
AcDbEntity
  8
0
 62
     3
100
AcDbLine
 10
222.7108167418817
 20
251.3121957130914
 30
0.0
 11
222.7108167418817
 21
251.5025763053201
 31
0.0
  0
LINE
  5
492
330
1F
100
AcDbEntity
  8
0
 62
     3
100
AcDbLine
 10
221.4108167418816
 20
251.5025763053201
 30
0.0
 11
221.4108167418816
 21
251.3121957130914
 31
0.0
  0
LINE
  5
493
330
1F
100
AcDbEntity
  8
0
 62
     3
100
AcDbLine
 10
185.1108167418813
 20
257.159968793504
 30
0.0
 11
185.1108167418813
 21
251.5025763053201
 31
0.0
  0
LINE
  5
494
330
1F
100
AcDbEntity
  8
0
 62
     3
100
AcDbLine
 10
186.4108167418815
 20
251.5025763053201
 30
0.0
 11
186.4108167418815
 21
257.159968793504
 31
0.0
  0
LINE
  5
495
330
1F
100
AcDbEntity
  8
0
 62
     3
100
AcDbLine
 10
186.4108167418815
 20
251.3121957130914
 30
0.0
 11
186.4108167418815
 21
251.5025763053201
 31
0.0
  0
LINE
  5
496
330
1F
100
AcDbEntity
  8
0
 62
     3
100
AcDbLine
 10
185.1108167418813
 20
251.5025763053201
 30
0.0
 11
185.1108167418813
 21
251.3121957130914
 31
0.0
  0
LINE
  5
497
330
1F
100
AcDbEntity
  8
0
 62
     3
100
AcDbLine
 10
157.4445548267948
 20
256.8621957130913
 30
0.0
 11
185.1108167418813
 21
256.8621957130913
 31
0.0
  0
LINE
  5
498
330
1F
100
AcDbEntity
  8
0
 62
     3
100
AcDbLine
 10
186.4108167418815
 20
256.8621957130913
 30
0.0
 11
221.4108167418816
 21
256.8621957130913
 31
0.0
  0
LINE
  5
499
330
1F
100
AcDbEntity
  8
0
 62
     3
100
AcDbLine
 10
222.7108167418817
 20
256.8621957130913
 30
0.0
 11
250.3770786569683
 21
256.8621957130913
 31
0.0
  0
LINE
  5
49A
330
1F
100
AcDbEntity
  8
0
 62
     3
100
AcDbLine
 10
250.3770786569683
 20
258.1621957130914
 30
0.0
 11
157.4445548267948
 21
258.1621957130914
 31
0.0
  0
LINE
  5
49B
330
1F
100
AcDbEntity
  8
0
 62
     3
100
AcDbLine
 10
157.4445548267948
 20
258.1621957130914
 30
0.0
 11
156.9849354190235
 21
258.1621957130914
 31
0.0
  0
LINE
  5
49C
330
1F
100
AcDbEntity
  8
0
 62
     3
100
AcDbLine
 10
156.9849354190235
 20
256.8621957130913
 30
0.0
 11
157.4445548267948
 21
256.8621957130913
 31
0.0
  0
LINE
  5
49D
330
1F
100
AcDbEntity
  8
0
 62
     3
100
AcDbLine
 10
250.3770786569683
 20
256.8621957130913
 30
0.0
 11
250.8366980647395
 21
256.8621957130913
 31
0.0
  0
LINE
  5
49E
330
1F
100
AcDbEntity
  8
0
 62
     3
100
AcDbLine
 10
250.8366980647395
 20
258.1621957130914
 30
0.0
 11
250.3770786569683
 21
258.1621957130914
 31
0.0
  0
LINE
  5
49F
330
1F
100
AcDbEntity
  8
0
 62
     3
100
AcDbLine
 10
254.510816741881
 20
258.1621957130916
 30
0.0
 11
250.8366980647395
 21
258.1621957130914
 31
0.0
  0
LINE
  5
4A0
330
1F
100
AcDbEntity
  8
0
 62
     3
100
AcDbLine
 10
250.8366980647395
 20
256.8621957130913
 30
0.0
 11
254.510816741881
 21
256.8621957130914
 31
0.0
  0
LINE
  5
4A1
330
1F
100
AcDbEntity
  8
0
 62
     3
100
AcDbLine
 10
153.3108167418812
 20
256.8621957130914
 30
0.0
 11
156.9849354190235
 21
256.8621957130913
 31
0.0
  0
LINE
  5
4A2
330
1F
100
AcDbEntity
  8
0
 62
     3
100
AcDbLine
 10
156.9849354190235
 20
258.1621957130914
 30
0.0
 11
153.3108167418812
 21
258.1621957130916
 31
0.0
  0
LINE
  5
4A3
330
1F
100
AcDbEntity
  8
0
 62
     3
100
AcDbLine
 10
259.2247568521496
 20
257.5053746389023
 30
0.0
 11
254.9815779263389
 21
253.2621957130914
 31
0.0
  0
LINE
  5
4A4
330
1F
100
AcDbEntity
  8
0
 62
     3
100
AcDbLine
 10
255.9008167418813
 20
252.3429568975489
 30
0.0
 11
260.1439956676921
 21
256.5861358233598
 31
0.0
  0
LINE
  5
4A5
330
1F
100
AcDbEntity
  8
0
 62
     3
100
AcDbLine
 10
147.677637816071
 20
256.5861358233598
 30
0.0
 11
151.9208167418808
 21
252.3429568975489
 31
0.0
  0
LINE
  5
4A6
330
1F
100
AcDbEntity
  8
0
 62
     3
100
AcDbLine
 10
152.8400555574233
 20
253.2621957130914
 30
0.0
 11
148.5968766316135
 21
257.5053746389023
 31
0.0
  0
LINE
  5
4A7
330
1F
100
AcDbEntity
  8
0
 62
     3
100
AcDbLine
 10
152.8400555574233
 20
251.9621957130913
 30
0.0
 11
185.1108167418813
 21
251.9621957130913
 31
0.0
  0
LINE
  5
4A8
330
1F
100
AcDbEntity
  8
0
 62
     3
100
AcDbLine
 10
186.4108167418815
 20
251.9621957130913
 30
0.0
 11
221.4108167418816
 21
251.9621957130913
 31
0.0
  0
LINE
  5
4A9
330
1F
100
AcDbEntity
  8
0
 62
     3
100
AcDbLine
 10
222.7108167418817
 20
251.9621957130913
 30
0.0
 11
254.9815779263389
 21
251.9621957130913
 31
0.0
  0
LINE
  5
4AA
330
1F
100
AcDbEntity
  8
0
 62
     3
100
AcDbLine
 10
254.9815779263389
 20
253.2621957130914
 30
0.0
 11
222.7108167418817
 21
253.2621957130914
 31
0.0
  0
LINE
  5
4AB
330
1F
100
AcDbEntity
  8
0
 62
     3
100
AcDbLine
 10
221.4108167418816
 20
253.2621957130914
 30
0.0
 11
186.4108167418815
 21
253.2621957130914
 31
0.0
  0
LINE
  5
4AC
330
1F
100
AcDbEntity
  8
0
 62
     3
100
AcDbLine
 10
185.1108167418813
 20
253.2621957130914
 30
0.0
 11
152.8400555574233
 21
253.2621957130914
 31
0.0
  0
ARC
  5
4AD
330
1F
100
AcDbEntity
  8
0
 62
     3
100
AcDbCircle
 10
152.8400555574233
 20
253.2621957130914
 30
0.0
 40
1.30000000000001
100
AcDbArc
 50
224.9999999999909
 51
270.0
  0
ARC
  5
4AE
330
1F
100
AcDbEntity
  8
0
 62
     3
100
AcDbCircle
 10
254.9815779263389
 20
253.2621957130914
 30
0.0
 40
1.30000000000001
100
AcDbArc
 50
270.0
 51
315.0000000000091
  0
ARC
  5
4AF
330
1F
100
AcDbEntity
  8
0
 62
     3
100
AcDbCircle
 10
153.3108167418812
 20
257.5121957130913
 30
0.0
 40
0.6500000000000341
100
AcDbArc
 50
270.0
 51
90.0
  0
LINE
  5
4B0
330
1F
100
AcDbEntity
  8
0
 62
     3
100
AcDbLine
 10
149.510816741881
 20
256.8621957130913
 30
0.0
 11
153.3108167418812
 21
256.8621957130913
 31
0.0
  0
LINE
  5
4B1
330
1F
100
AcDbEntity
  8
0
 62
     3
100
AcDbLine
 10
153.3108167418812
 20
258.1621957130914
 30
0.0
 11
149.510816741881
 21
258.1621957130914
 31
0.0
  0
ARC
  5
4B2
330
1F
100
AcDbEntity
  8
0
 62
     3
100
AcDbCircle
 10
254.510816741881
 20
257.5121957130913
 30
0.0
 40
0.6500000000000341
100
AcDbArc
 50
90.0
 51
270.0
  0
LINE
  5
4B3
330
1F
100
AcDbEntity
  8
0
 62
     3
100
AcDbLine
 10
258.3108167418812
 20
258.1621957130914
 30
0.0
 11
254.510816741881
 21
258.1621957130914
 31
0.0
  0
LINE
  5
4B4
330
1F
100
AcDbEntity
  8
0
 62
     3
100
AcDbLine
 10
254.510816741881
 20
256.8621957130913
 30
0.0
 11
258.3108167418812
 21
256.8621957130913
 31
0.0
  0
ARC
  5
4B6
330
1F
100
AcDbEntity
  8
0
 62
     3
100
AcDbCircle
 10
222.0608167418812
 20
251.3121957130914
 30
0.0
 40
0.6500000000000057
100
AcDbArc
 50
180.0
 51
0.0
  0
ARC
  5
4B8
330
1F
100
AcDbEntity
  8
0
 62
     3
100
AcDbCircle
 10
185.760816741881
 20
251.3121957130914
 30
0.0
 40
0.6500000000000057
100
AcDbArc
 50
180.0
 51
0.0
  0
LINE
  5
4B9
330
1F
100
AcDbEntity
  8
0
 62
     3
100
AcDbLine
 10
259.2247568521496
 20
257.5053746389023
 30
0.0
 11
260.1439956676921
 21
256.5861358233598
 31
0.0
  0
LINE
  5
4BA
330
1F
100
AcDbEntity
  8
0
 62
     3
100
AcDbLine
 10
148.5968766316135
 20
257.5053746389023
 30
0.0
 11
147.677637816071
 21
256.5861358233598
 31
0.0
  0
LINE
  5
4BD
330
1F
100
AcDbEntity
  8
0
 62
     3
100
AcDbLine
 10
355.7488626634502
 20
102.4249689815946
 30
0.0
 11
350.8488626634497
 21
107.3249689815944
 31
0.0
  0
LINE
  5
4BE
330
1F
100
AcDbEntity
  8
0
 62
     3
100
AcDbLine
 10
349.9296238479072
 20
106.4057301660519
 30
0.0
 11
355.5870163360913
 21
100.748337677868
 31
0.0
  0
LINE
  5
4BF
330
1F
100
AcDbEntity
  8
0
 62
     3
100
AcDbLine
 10
355.5870163360913
 20
189.8331226542359
 30
0.0
 11
349.9296238479072
 21
184.1757301660519
 31
0.0
  0
LINE
  5
4C0
330
1F
100
AcDbEntity
  8
0
 62
     3
100
AcDbLine
 10
350.8488626634497
 20
183.2564913505095
 30
0.0
 11
355.7488626634502
 21
188.1564913505093
 31
0.0
  0
LINE
  5
4C1
330
1F
100
AcDbEntity
  8
0
 62
     3
100
AcDbLine
 10
350.8488626634497
 20
107.3249689815944
 30
0.0
 11
350.8488626634497
 21
183.2564913505095
 31
0.0
  0
LINE
  5
4C2
330
1F
100
AcDbEntity
  8
0
 62
     3
100
AcDbLine
 10
349.5488626634495
 20
183.2564913505095
 30
0.0
 11
349.5488626634495
 21
107.3249689815944
 31
0.0
  0
ARC
  5
4C3
330
1F
100
AcDbEntity
  8
0
 62
     3
100
AcDbCircle
 10
350.8488626634497
 20
183.2564913505095
 30
0.0
 40
1.299999999999982
100
AcDbArc
 50
135.0000000000091
 51
180.0
  0
ARC
  5
4C4
330
1F
100
AcDbEntity
  8
0
 62
     3
100
AcDbCircle
 10
350.8488626634497
 20
107.3249689815944
 30
0.0
 40
1.299999999999982
100
AcDbArc
 50
180.0
 51
224.9999999999909
  0
LINE
  5
4C5
330
1F
100
AcDbEntity
  8
0
 62
     3
100
AcDbLine
 10
355.9324221814894
 20
165.340730166052
 30
0.0
 11
351.6892432556787
 21
165.340730166052
 31
0.0
  0
LINE
  5
4C6
330
1F
100
AcDbEntity
  8
0
 62
     3
100
AcDbLine
 10
351.6892432556787
 20
164.0407301660519
 30
0.0
 11
355.9324221814894
 21
164.0407301660519
 31
0.0
  0
LINE
  5
4C7
330
1F
100
AcDbEntity
  8
0
 62
     3
100
AcDbLine
 10
351.4988626634493
 20
164.0407301660519
 30
0.0
 11
351.6892432556787
 21
164.0407301660519
 31
0.0
  0
LINE
  5
4C8
330
1F
100
AcDbEntity
  8
0
 62
     3
100
AcDbLine
 10
351.6892432556787
 20
165.340730166052
 30
0.0
 11
351.4988626634493
 21
165.340730166052
 31
0.0
  0
LINE
  5
4C9
330
1F
100
AcDbEntity
  8
0
 62
     3
100
AcDbLine
 10
355.9324221814894
 20
126.5407301660519
 30
0.0
 11
351.6892432556787
 21
126.5407301660519
 31
0.0
  0
LINE
  5
4CA
330
1F
100
AcDbEntity
  8
0
 62
     3
100
AcDbLine
 10
351.6892432556787
 20
125.240730166052
 30
0.0
 11
355.9324221814894
 21
125.240730166052
 31
0.0
  0
LINE
  5
4CB
330
1F
100
AcDbEntity
  8
0
 62
     3
100
AcDbLine
 10
351.4988626634493
 20
125.240730166052
 30
0.0
 11
351.6892432556787
 21
125.240730166052
 31
0.0
  0
LINE
  5
4CC
330
1F
100
AcDbEntity
  8
0
 62
     3
100
AcDbLine
 10
351.6892432556787
 20
126.5407301660519
 30
0.0
 11
351.4988626634493
 21
126.5407301660519
 31
0.0
  0
LINE
  5
4CD
330
1F
100
AcDbEntity
  8
0
 62
     3
100
AcDbLine
 10
357.0488626634495
 20
102.7907301660519
 30
0.0
 11
357.0488626634495
 21
187.7907301660519
 31
0.0
  0
LINE
  5
4CE
330
1F
100
AcDbEntity
  8
0
 62
     3
100
AcDbLine
 10
355.7488626634502
 20
187.7907301660519
 30
0.0
 11
355.7488626634502
 21
165.340730166052
 31
0.0
  0
LINE
  5
4CF
330
1F
100
AcDbEntity
  8
0
 62
     3
100
AcDbLine
 10
355.7488626634502
 20
164.0407301660519
 30
0.0
 11
355.7488626634502
 21
126.5407301660519
 31
0.0
  0
LINE
  5
4D0
330
1F
100
AcDbEntity
  8
0
 62
     3
100
AcDbLine
 10
355.7488626634502
 20
125.240730166052
 30
0.0
 11
355.7488626634502
 21
102.7907301660519
 31
0.0
  0
ARC
  5
4D1
330
1F
100
AcDbEntity
  8
0
 62
     3
100
AcDbCircle
 10
356.3988626634499
 20
189.690730166052
 30
0.0
 40
0.6499999999999773
100
AcDbArc
 50
0.0
 51
180.0
  0
LINE
  5
4D2
330
1F
100
AcDbEntity
  8
0
 62
     3
100
AcDbLine
 10
357.0488626634495
 20
187.7907301660519
 30
0.0
 11
357.0488626634495
 21
189.690730166052
 31
0.0
  0
LINE
  5
4D3
330
1F
100
AcDbEntity
  8
0
 62
     3
100
AcDbLine
 10
355.7488626634502
 20
189.690730166052
 30
0.0
 11
355.7488626634502
 21
187.7907301660519
 31
0.0
  0
ARC
  5
4D4
330
1F
100
AcDbEntity
  8
0
 62
     3
100
AcDbCircle
 10
356.3988626634499
 20
100.890730166052
 30
0.0
 40
0.6499999999999773
100
AcDbArc
 50
180.0
 51
0.0
  0
LINE
  5
4D5
330
1F
100
AcDbEntity
  8
0
 62
     3
100
AcDbLine
 10
355.7488626634502
 20
102.7907301660519
 30
0.0
 11
355.7488626634502
 21
100.890730166052
 31
0.0
  0
LINE
  5
4D6
330
1F
100
AcDbEntity
  8
0
 62
     3
100
AcDbLine
 10
357.0488626634495
 20
100.890730166052
 30
0.0
 11
357.0488626634495
 21
102.7907301660519
 31
0.0
  0
LINE
  5
4D7
330
1F
100
AcDbEntity
  8
0
 62
     3
100
AcDbLine
 10
355.5870163360913
 20
100.748337677868
 30
0.0
 11
355.7488626634502
 21
100.9101840052265
 31
0.0
  0
LINE
  5
4D8
330
1F
100
AcDbEntity
  8
0
 62
     3
100
AcDbLine
 10
355.5870163360913
 20
189.8331226542359
 30
0.0
 11
355.7488626634502
 21
189.6712763268775
 31
0.0
  0
ARC
  5
4DA
330
1F
100
AcDbEntity
  8
0
 62
     3
100
AcDbCircle
 10
351.4988626634493
 20
164.690730166052
 30
0.0
 40
0.6500000000000057
100
AcDbArc
 50
90.0
 51
270.0
  0
ARC
  5
4DC
330
1F
100
AcDbEntity
  8
0
 62
     3
100
AcDbCircle
 10
351.4988626634493
 20
125.890730166052
 30
0.0
 40
0.6500000000000341
100
AcDbArc
 50
90.0
 51
270.0
  0
LINE
  5
4DD
330
1F
100
AcDbEntity
  8
0
 62
     3
100
AcDbLine
 10
408.5395544901328
 20
21.85484459991608
 30
0.0
 11
408.5395544901328
 21
67.52056712991607
 31
0.0
  0
LINE
  5
4DE
330
1F
100
AcDbEntity
  8
0
 62
     3
100
AcDbLine
 10
421.5395544901328
 20
31.52056712991606
 30
0.0
 11
421.5395544901328
 21
61.52056712991607
 31
0.0
  0
LINE
  5
4DF
330
1F
100
AcDbEntity
  8
0
 62
     3
100
AcDbLine
 10
381.4859450601323
 20
31.52056712991606
 30
0.0
 11
381.4859450601323
 21
45.52056712991606
 31
0.0
  0
LINE
  5
4E0
330
1F
100
AcDbEntity
  8
0
 62
     3
100
AcDbLine
 10
391.8178794201329
 20
45.52056712991606
 30
0.0
 11
391.8178794201329
 21
21.85484459991608
 31
0.0
  0
LINE
  5
4E1
330
1F
100
AcDbEntity
  8
0
 62
     3
100
AcDbLine
 10
362.1809101101324
 20
61.52056712991607
 30
0.0
 11
362.1809101101324
 21
38.52056712991606
 31
0.0
  0
LINE
  5
4E3
330
1F
100
AcDbEntity
  8
0
 62
     3
100
AcDbLine
 10
434.5395544901328
 20
38.52056712991606
 30
0.0
 11
434.5395544901328
 21
67.52056712991607
 31
0.0
  0
LINE
  5
4E4
330
1F
100
AcDbEntity
  8
0
 62
     3
100
AcDbLine
 10
460.2389179701328
 20
61.52056712991607
 30
0.0
 11
348.9354754701324
 21
61.52056712991607
 31
0.0
  0
LINE
  5
4E5
330
1F
100
AcDbEntity
  8
0
 62
     3
100
AcDbLine
 10
460.2389179701328
 20
52.52056712991606
 30
0.0
 11
348.9354754701324
 21
52.52056712991606
 31
0.0
  0
LINE
  5
4E6
330
1F
100
AcDbEntity
  8
0
 62
     3
100
AcDbLine
 10
460.2389179701328
 20
38.52056712991606
 30
0.0
 11
348.9354754701324
 21
38.52056712991606
 31
0.0
  0
LINE
  5
4E7
330
1F
100
AcDbEntity
  8
0
 62
     3
100
AcDbLine
 10
460.2389179701328
 20
31.52056712991606
 30
0.0
 11
348.9354754701324
 21
31.52056712991606
 31
0.0
  0
LINE
  5
4E8
330
1F
100
AcDbEntity
  8
0
 62
     3
100
AcDbLine
 10
447.5395544901328
 20
38.52056712991606
 30
0.0
 11
447.5395544901328
 21
61.52056712991607
 31
0.0
  0
LINE
  5
4E9
330
1F
100
AcDbEntity
  8
0
 62
     3
100
AcDbLine
 10
348.9354754701324
 20
61.52056712991607
 30
0.0
 11
348.9354754701324
 21
21.85484459991608
 31
0.0
  0
LINE
  5
4EA
330
1F
100
AcDbEntity
  8
0
 62
     3
100
AcDbLine
 10
408.5395544901328
 20
45.52056712991606
 30
0.0
 11
348.9354754701324
 21
45.52056712991606
 31
0.0
  0
LINE
  5
4EB
330
1F
100
AcDbEntity
  8
0
 62
     3
100
AcDbLine
 10
391.8178794201329
 20
26.68770585991604
 30
0.0
 11
408.5395544901328
 21
26.68770585991604
 31
0.0
  0
LINE
  5
4F5
330
1F
100
AcDbEntity
  8
0
 62
     3
100
AcDbLine
 10
70.23891797013295
 20
295.854844599916
 30
0.0
 11
70.23891797013295
 21
21.85484459991608
 31
0.0
  0
LINE
  5
4F6
330
1F
100
AcDbEntity
  8
0
 62
     3
100
AcDbLine
 10
460.2389179701328
 20
21.85484459991608
 30
0.0
 11
460.2389179701328
 21
295.854844599916
 31
0.0
  0
LINE
  5
4F9
330
1F
100
AcDbEntity
  8
0
 62
     3
100
AcDbLine
 10
70.23891797013295
 20
21.85484459991608
 30
0.0
 11
460.2389179701328
 21
21.85484459991608
 31
0.0
  0
LINE
  5
528
330
1F
100
AcDbEntity
  8
0
 62
     3
100
AcDbLine
 10
248.0138074401328
 20
298.2948467399161
 30
0.0
 11
248.636304450133
 21
297.969892259916
 31
0.0
  0
LINE
  5
529
330
1F
100
AcDbEntity
  8
0
 62
     3
100
AcDbLine
 10
248.0138074401328
 20
292.965374639916
 30
0.0
 11
248.636304450133
 21
293.290329119916
 31
0.0
  0
LINE
  5
52A
330
1F
100
AcDbEntity
  8
0
 62
     3
100
AcDbLine
 10
248.636304450133
 20
297.969892259916
 30
0.0
 11
248.636304450133
 21
293.290329119916
 31
0.0
  0
LINE
  5
52B
330
1F
100
AcDbEntity
  8
0
 62
     3
100
AcDbLine
 10
250.2127579101323
 20
292.965374639916
 30
0.0
 11
249.590260900133
 21
293.290329119916
 31
0.0
  0
LINE
  5
52C
330
1F
100
AcDbEntity
  8
0
 62
     3
100
AcDbLine
 10
249.590260900133
 20
296.1429845699159
 30
0.0
 11
249.590260900133
 21
293.290329119916
 31
0.0
  0
LINE
  5
52D
330
1F
100
AcDbEntity
  8
0
 62
     3
100
AcDbLine
 10
253.8439904501327
 20
298.2948467399161
 30
0.0
 11
253.2214934501324
 21
297.969892259916
 31
0.0
  0
LINE
  5
52E
330
1F
100
AcDbEntity
  8
0
 62
     3
100
AcDbLine
 10
251.6450399801332
 20
298.2948467399161
 30
0.0
 11
252.2675369901325
 21
297.969892259916
 31
0.0
  0
LINE
  5
52F
330
1F
100
AcDbEntity
  8
0
 62
     3
100
AcDbLine
 10
252.2675369901325
 20
297.969892259916
 30
0.0
 11
252.2675369901325
 21
295.9094107399161
 31
0.0
  0
LINE
  5
530
330
1F
100
AcDbEntity
  8
0
 62
     3
100
AcDbLine
 10
253.2214934501324
 20
297.969892259916
 30
0.0
 11
253.2214934501324
 21
292.6631444299161
 31
0.0
  0
LINE
  5
531
330
1F
100
AcDbEntity
  8
0
 62
     3
100
AcDbLine
 10
254.1515578901325
 20
298.294842989916
 30
0.0
 11
254.7740526501328
 21
297.969884219916
 31
0.0
  0
LINE
  5
532
330
1F
100
AcDbEntity
  8
0
 62
     3
100
AcDbLine
 10
254.1514465001327
 20
292.9654460299161
 30
0.0
 11
254.773954850133
 21
293.290378779916
 31
0.0
  0
LINE
  5
533
330
1F
100
AcDbEntity
  8
0
 62
     3
100
AcDbLine
 10
254.7740526501328
 20
297.969884219916
 30
0.0
 11
254.7740526501328
 21
293.290378779916
 31
0.0
  0
LINE
  5
534
330
1F
100
AcDbEntity
  8
0
 62
     3
100
AcDbLine
 10
256.9080384501329
 20
298.294809169916
 30
0.0
 11
256.2855368901326
 21
297.969863409916
 31
0.0
  0
LINE
  5
535
330
1F
100
AcDbEntity
  8
0
 62
     3
100
AcDbLine
 10
256.2855368901326
 20
297.969863409916
 30
0.0
 11
256.2855368901326
 21
293.2903579699161
 31
0.0
  0
LINE
  5
536
330
1F
100
AcDbEntity
  8
0
 62
     3
100
AcDbLine
 10
256.9080384501329
 20
292.9654122099161
 30
0.0
 11
256.2855368901326
 21
293.2903579699161
 31
0.0
  0
LINE
  5
537
330
1F
100
AcDbEntity
  8
0
 62
     3
100
AcDbLine
 10
262.1798290801324
 20
298.294750599916
 30
0.0
 11
262.8023249601327
 21
297.969793979916
 31
0.0
  0
LINE
  5
538
330
1F
100
AcDbEntity
  8
0
 62
     3
100
AcDbLine
 10
262.8023249601327
 20
297.969793979916
 30
0.0
 11
262.8022432901324
 21
293.290288529916
 31
0.0
  0
LINE
  5
539
330
1F
100
AcDbEntity
  8
0
 62
     3
100
AcDbLine
 10
262.179736060133
 20
292.9653536399161
 30
0.0
 11
262.8022432901324
 21
293.290288529916
 31
0.0
  0
LINE
  5
53A
330
1F
100
AcDbEntity
  8
0
 62
     3
100
AcDbLine
 10
264.9687733201325
 20
298.294750599916
 30
0.0
 11
264.3462774301323
 21
297.969793979916
 31
0.0
  0
LINE
  5
53B
330
1F
100
AcDbEntity
  8
0
 62
     3
100
AcDbLine
 10
264.9688663301329
 20
292.9653536399161
 30
0.0
 11
264.3463591001326
 21
293.290288529916
 31
0.0
  0
LINE
  5
53C
330
1F
100
AcDbEntity
  8
0
 62
     3
100
AcDbLine
 10
265.2598131201328
 20
298.294750599916
 30
0.0
 11
265.8823090001322
 21
297.969793979916
 31
0.0
  0
LINE
  5
53D
330
1F
100
AcDbEntity
  8
0
 62
     3
100
AcDbLine
 10
265.2597201001325
 20
292.9653536399161
 30
0.0
 11
265.8822273301328
 21
293.290288529916
 31
0.0
  0
LINE
  5
53E
330
1F
100
AcDbEntity
  8
0
 62
     3
100
AcDbLine
 10
268.048757350133
 20
298.294750599916
 30
0.0
 11
267.4262614701326
 21
297.969793979916
 31
0.0
  0
LINE
  5
53F
330
1F
100
AcDbEntity
  8
0
 62
     3
100
AcDbLine
 10
267.4262614701326
 20
297.969793979916
 30
0.0
 11
267.426343140133
 21
293.290288529916
 31
0.0
  0
LINE
  5
540
330
1F
100
AcDbEntity
  8
0
 62
     3
100
AcDbLine
 10
268.0488503701325
 20
292.9653536399161
 30
0.0
 11
267.426343140133
 21
293.290288529916
 31
0.0
  0
LINE
  5
541
330
1F
100
AcDbEntity
  8
0
 62
     3
100
AcDbLine
 10
265.8822734201329
 20
295.931032379916
 30
0.0
 11
264.3463130101324
 21
295.931032379916
 31
0.0
  0
LINE
  5
542
330
1F
100
AcDbEntity
  8
0
 62
     3
100
AcDbLine
 10
265.882262920133
 20
295.329188999916
 30
0.0
 11
264.3463235101324
 21
295.329188999916
 31
0.0
  0
LINE
  5
543
330
1F
100
AcDbEntity
  8
0
 62
     3
100
AcDbLine
 10
265.8823090001322
 20
297.969793979916
 30
0.0
 11
265.8822734201329
 21
295.931032379916
 31
0.0
  0
LINE
  5
544
330
1F
100
AcDbEntity
  8
0
 62
     3
100
AcDbLine
 10
265.882262920133
 20
295.329188999916
 30
0.0
 11
265.8822273301328
 21
293.290288529916
 31
0.0
  0
LINE
  5
545
330
1F
100
AcDbEntity
  8
0
 62
     3
100
AcDbLine
 10
264.3462774301323
 20
297.969793979916
 30
0.0
 11
264.3463130101324
 21
295.931032379916
 31
0.0
  0
LINE
  5
546
330
1F
100
AcDbEntity
  8
0
 62
     3
100
AcDbLine
 10
264.3463235101324
 20
295.329188999916
 30
0.0
 11
264.3463591001326
 21
293.290288529916
 31
0.0
  0
LINE
  5
547
330
1F
100
AcDbEntity
  8
0
 62
     3
100
AcDbLine
 10
268.3444132401326
 20
298.294750599916
 30
0.0
 11
268.9669091301328
 21
297.969793979916
 31
0.0
  0
LINE
  5
548
330
1F
100
AcDbEntity
  8
0
 62
     3
100
AcDbLine
 10
268.9669091301328
 20
297.969793979916
 30
0.0
 11
268.9668274501326
 21
293.290288529916
 31
0.0
  0
LINE
  5
549
330
1F
100
AcDbEntity
  8
0
 62
     3
100
AcDbLine
 10
268.3443202201332
 20
292.9653536399161
 30
0.0
 11
268.9668274501326
 21
293.290288529916
 31
0.0
  0
LINE
  5
54A
330
1F
100
AcDbEntity
  8
0
 62
     3
100
AcDbLine
 10
271.100856480133
 20
298.294750599916
 30
0.0
 11
270.4783605901328
 21
297.969793979916
 31
0.0
  0
LINE
  5
54B
330
1F
100
AcDbEntity
  8
0
 62
     3
100
AcDbLine
 10
270.4783605901328
 20
297.969793979916
 30
0.0
 11
270.478442270133
 21
293.290288529916
 31
0.0
  0
LINE
  5
54C
330
1F
100
AcDbEntity
  8
0
 62
     3
100
AcDbLine
 10
271.1009495001325
 20
292.9653536399161
 30
0.0
 11
270.478442270133
 21
293.290288529916
 31
0.0
  0
LINE
  5
54D
330
1F
100
AcDbEntity
  8
0
 62
     3
100
AcDbLine
 10
271.407084430133
 20
298.294750599916
 30
0.0
 11
272.0295803201323
 21
297.969793979916
 31
0.0
  0
LINE
  5
54E
330
1F
100
AcDbEntity
  8
0
 62
     3
100
AcDbLine
 10
272.0295803201323
 20
297.969793979916
 30
0.0
 11
272.0294986501329
 21
293.290288529916
 31
0.0
  0
LINE
  5
54F
330
1F
100
AcDbEntity
  8
0
 62
     3
100
AcDbLine
 10
271.4069914201326
 20
292.9653536399161
 30
0.0
 11
272.0294986501329
 21
293.290288529916
 31
0.0
  0
ARC
  5
550
330
1F
100
AcDbEntity
  8
0
 62
     3
100
AcDbCircle
 10
260.1913844101326
 20
295.643524629916
 30
0.0
 40
2.98040844
100
AcDbArc
 50
97.7015235099968
 51
270.0
  0
ARC
  5
551
330
1F
100
AcDbEntity
  8
0
 62
     3
100
AcDbCircle
 10
278.5922427501326
 20
295.613586589916
 30
0.0
 40
3.012776259999998
100
AcDbArc
 50
0.314250269997653
 51
69.0055824499765
  0
ARC
  5
552
330
1F
100
AcDbEntity
  8
0
 62
     3
100
AcDbCircle
 10
279.2503503601327
 20
295.613586589916
 30
0.0
 40
3.012776259999998
100
AcDbArc
 50
110.9944175500235
 51
148.1166110199904
  0
ARC
  5
553
330
1F
100
AcDbEntity
  8
0
 62
     3
100
AcDbCircle
 10
278.5922427501326
 20
295.646634789916
 30
0.0
 40
3.012776259999998
100
AcDbArc
 50
290.9944175500235
 51
359.6857497300024
  0
ARC
  5
554
330
1F
100
AcDbEntity
  8
0
 62
     3
100
AcDbCircle
 10
279.2503503601327
 20
295.646634789916
 30
0.0
 40
3.012776259999998
100
AcDbArc
 50
211.8833889800096
 51
249.0055824499752
  0
ARC
  5
555
330
1F
100
AcDbEntity
  8
0
 62
     3
100
AcDbCircle
 10
278.9212965601326
 20
296.862689819916
 30
0.0
 40
1.73438712
100
AcDbArc
 50
64.36517189999921
 51
115.6348281000008
  0
ARC
  5
556
330
1F
100
AcDbEntity
  8
0
 62
     3
100
AcDbCircle
 10
278.9212965601326
 20
294.3975315599161
 30
0.0
 40
1.73438712
100
AcDbArc
 50
244.3651718999992
 51
295.6348281000007
  0
ARC
  5
557
330
1F
100
AcDbEntity
  8
0
 62
     3
100
AcDbCircle
 10
278.9212965601326
 20
296.895635079916
 30
0.0
 40
0.85122233
100
AcDbArc
 50
19.48660553998498
 51
160.513394460012
  0
ARC
  5
558
330
1F
100
AcDbEntity
  8
0
 62
     3
100
AcDbCircle
 10
278.9212965601326
 20
294.3975315599161
 30
0.0
 40
1.73438712
100
AcDbArc
 50
244.3651718999992
 51
295.6348281000007
  0
ARC
  5
559
330
1F
100
AcDbEntity
  8
0
 62
     3
100
AcDbCircle
 10
278.9212965601326
 20
294.364586299916
 30
0.0
 40
0.85122233
100
AcDbArc
 50
199.4866055399849
 51
340.513394460015
  0
ARC
  5
55A
330
1F
100
AcDbEntity
  8
0
 62
     3
100
AcDbCircle
 10
272.1463358401332
 20
263.8757394899161
 30
0.0
 40
37.20000000000001
100
AcDbArc
 50
69.50571480002195
 51
81.68998807001093
  0
ARC
  5
55B
330
1F
100
AcDbEntity
  8
0
 62
     3
100
AcDbCircle
 10
272.1463358401332
 20
327.384481889916
 30
0.0
 40
37.20000000000001
100
AcDbArc
 50
278.310011929989
 51
290.4942851999777
  0
ARC
  5
55C
330
1F
100
AcDbEntity
  8
0
 62
     3
100
AcDbCircle
 10
284.0151988801324
 20
295.6301106899161
 30
0.0
 40
3.299999999999998
100
AcDbArc
 50
290.4942851999777
 51
69.50571480002195
  0
ARC
  5
55D
330
1F
100
AcDbEntity
  8
0
 62
     3
100
AcDbCircle
 10
245.0151988801325
 20
295.6301106899161
 30
0.0
 40
3.299999999999998
100
AcDbArc
 50
110.494285199978
 51
249.5057148000219
  0
ARC
  5
55E
330
1F
100
AcDbEntity
  8
0
 62
     3
100
AcDbCircle
 10
256.8840619101327
 20
263.8757394899161
 30
0.0
 40
37.20000000000001
100
AcDbArc
 50
98.31001192998908
 51
110.494285199978
  0
ARC
  5
55F
330
1F
100
AcDbEntity
  8
0
 62
     3
100
AcDbCircle
 10
256.8840619101327
 20
327.384481889916
 30
0.0
 40
37.20000000000001
100
AcDbArc
 50
249.5057148000219
 51
261.6899880700109
  0
ARC
  5
560
330
1F
100
AcDbEntity
  8
0
 62
     3
100
AcDbCircle
 10
264.5151988801325
 20
211.630110689916
 30
0.0
 40
89.99999981
100
AcDbArc
 50
81.68998807001093
 51
98.31001192998908
  0
ARC
  5
561
330
1F
100
AcDbEntity
  8
0
 62
     3
100
AcDbCircle
 10
264.5151988801325
 20
379.630110689916
 30
0.0
 40
89.99999981
100
AcDbArc
 50
261.6899880700109
 51
278.310011929989
  0
ARC
  5
562
330
1F
100
AcDbEntity
  8
0
 62
     3
100
AcDbCircle
 10
264.5151988801325
 20
211.630110689916
 30
0.0
 40
89.09999981
100
AcDbArc
 50
81.68998807001093
 51
98.31001192998908
  0
ARC
  5
563
330
1F
100
AcDbEntity
  8
0
 62
     3
100
AcDbCircle
 10
264.5151988801325
 20
379.630110689916
 30
0.0
 40
89.09999981
100
AcDbArc
 50
261.6899880700109
 51
278.310011929989
  0
ARC
  5
564
330
1F
100
AcDbEntity
  8
0
 62
     3
100
AcDbCircle
 10
272.1463358401332
 20
327.384481889916
 30
0.0
 40
36.3
100
AcDbArc
 50
278.310011929989
 51
290.4942851999777
  0
ARC
  5
565
330
1F
100
AcDbEntity
  8
0
 62
     3
100
AcDbCircle
 10
272.1463358401332
 20
263.8757394899161
 30
0.0
 40
36.3
100
AcDbArc
 50
69.50571480002195
 51
81.68998807001093
  0
ARC
  5
566
330
1F
100
AcDbEntity
  8
0
 62
     3
100
AcDbCircle
 10
284.0151988801324
 20
295.6301106899161
 30
0.0
 40
2.399999999999999
100
AcDbArc
 50
290.4942851999777
 51
69.50571480002195
  0
ARC
  5
567
330
1F
100
AcDbEntity
  8
0
 62
     3
100
AcDbCircle
 10
245.0151988801325
 20
295.6301106899161
 30
0.0
 40
2.399999999999999
100
AcDbArc
 50
110.494285199978
 51
249.5057148000219
  0
ARC
  5
568
330
1F
100
AcDbEntity
  8
0
 62
     3
100
AcDbCircle
 10
256.8840619101327
 20
263.8757394899161
 30
0.0
 40
36.3
100
AcDbArc
 50
98.31001192998908
 51
110.494285199978
  0
ARC
  5
569
330
1F
100
AcDbEntity
  8
0
 62
     3
100
AcDbCircle
 10
256.8840619101327
 20
327.384481889916
 30
0.0
 40
36.3
100
AcDbArc
 50
249.5057148000219
 51
261.6899880700109
  0
LINE
  5
56A
330
1F
100
AcDbEntity
  8
0
 62
     3
100
AcDbLine
 10
271.100857600133
 20
292.6631444299161
 30
0.0
 11
268.3444121201326
 21
292.6631444299161
 31
0.0
  0
LINE
  5
56B
330
1F
100
AcDbEntity
  8
0
 62
     3
100
AcDbLine
 10
271.100857600133
 20
292.965374639916
 30
0.0
 11
271.100857600133
 21
292.6631444299161
 31
0.0
  0
LINE
  5
56C
330
1F
100
AcDbEntity
  8
0
 62
     3
100
AcDbLine
 10
268.048758470133
 20
298.596935919916
 30
0.0
 11
265.2598120001329
 21
298.596935919916
 31
0.0
  0
LINE
  5
56D
330
1F
100
AcDbEntity
  8
0
 62
     3
100
AcDbLine
 10
268.048758470133
 20
298.596935919916
 30
0.0
 11
268.048758470133
 21
298.2948467399161
 31
0.0
  0
LINE
  5
56E
330
1F
100
AcDbEntity
  8
0
 62
     3
100
AcDbLine
 10
268.048758470133
 20
292.965374639916
 30
0.0
 11
268.048758470133
 21
292.6630034099161
 31
0.0
  0
LINE
  5
56F
330
1F
100
AcDbEntity
  8
0
 62
     3
100
AcDbLine
 10
268.048758470133
 20
292.6630034099161
 30
0.0
 11
265.2598120001329
 21
292.6630034099161
 31
0.0
  0
LINE
  5
570
330
1F
100
AcDbEntity
  8
0
 62
     3
100
AcDbLine
 10
271.100857600133
 20
298.5970769499159
 30
0.0
 11
271.100857600133
 21
298.2948467399161
 31
0.0
  0
LINE
  5
571
330
1F
100
AcDbEntity
  8
0
 62
     3
100
AcDbLine
 10
271.100857600133
 20
298.5970769499159
 30
0.0
 11
268.3444121201326
 21
298.5970769499159
 31
0.0
  0
LINE
  5
572
330
1F
100
AcDbEntity
  8
0
 62
     3
100
AcDbLine
 10
268.3444121201326
 20
298.5970769499159
 30
0.0
 11
268.3444121201326
 21
298.2948467399161
 31
0.0
  0
LINE
  5
573
330
1F
100
AcDbEntity
  8
0
 62
     3
100
AcDbLine
 10
271.4070833101331
 20
292.965374639916
 30
0.0
 11
271.4070833101331
 21
292.6631444299161
 31
0.0
  0
LINE
  5
574
330
1F
100
AcDbEntity
  8
0
 62
     3
100
AcDbLine
 10
274.2417984001329
 20
292.6631444299161
 30
0.0
 11
271.4070833101331
 21
292.6631444299161
 31
0.0
  0
LINE
  5
575
330
1F
100
AcDbEntity
  8
0
 62
     3
100
AcDbLine
 10
273.5410317901331
 20
297.643120489916
 30
0.0
 11
273.5410317901331
 21
293.6171008899161
 31
0.0
  0
LINE
  5
576
330
1F
100
AcDbEntity
  8
0
 62
     3
100
AcDbLine
 10
273.5410317901331
 20
293.6171008899161
 30
0.0
 11
273.8125303101331
 21
293.6171008899161
 31
0.0
  0
ARC
  5
577
330
1F
100
AcDbEntity
  8
0
 62
     3
100
AcDbCircle
 10
272.4242649701326
 20
295.6301106899161
 30
0.0
 40
2.44529939
100
AcDbArc
 50
304.5919552700159
 51
55.4080447299842
  0
LINE
  5
578
330
1F
100
AcDbEntity
  8
0
 62
     3
100
AcDbLine
 10
274.2417984001329
 20
298.5970769499159
 30
0.0
 11
271.4070833101331
 21
298.5970769499159
 31
0.0
  0
LINE
  5
579
330
1F
100
AcDbEntity
  8
0
 62
     3
100
AcDbLine
 10
271.4070833101331
 20
298.5970769499159
 30
0.0
 11
271.4070833101331
 21
298.2948467399161
 31
0.0
  0
LINE
  5
57A
330
1F
100
AcDbEntity
  8
0
 62
     3
100
AcDbLine
 10
268.3444121201326
 20
292.965374639916
 30
0.0
 11
268.3444121201326
 21
292.6631444299161
 31
0.0
  0
LINE
  5
57B
330
1F
100
AcDbEntity
  8
0
 62
     3
100
AcDbLine
 10
273.5410317901331
 20
297.643120489916
 30
0.0
 11
273.8125303101331
 21
297.643120489916
 31
0.0
  0
LINE
  5
57C
330
1F
100
AcDbEntity
  8
0
 62
     3
100
AcDbLine
 10
256.9079465501324
 20
292.965374639916
 30
0.0
 11
256.9079412801329
 21
292.663116189916
 31
0.0
  0
LINE
  5
57D
330
1F
100
AcDbEntity
  8
0
 62
     3
100
AcDbLine
 10
254.1514958001324
 20
292.6631726799161
 30
0.0
 11
256.9079412801329
 21
292.663124569916
 31
0.0
  0
LINE
  5
57E
330
1F
100
AcDbEntity
  8
0
 62
     3
100
AcDbLine
 10
248.0138074401328
 20
292.6631444299161
 30
0.0
 11
250.2127579101323
 21
292.6631444299161
 31
0.0
  0
ARC
  5
57F
330
1F
100
AcDbEntity
  8
0
 62
     3
100
AcDbCircle
 10
240.8967464701325
 20
295.699977299916
 30
0.0
 40
21.01937947
100
AcDbArc
 50
353.8660061899969
 51
357.6940342599997
  0
LINE
  5
580
330
1F
100
AcDbEntity
  8
0
 62
     3
100
AcDbLine
 10
260.4918605601331
 20
294.859452079916
 30
0.0
 11
261.8991046801328
 21
294.8542451099159
 31
0.0
  0
LINE
  5
582
330
1F
100
AcDbEntity
  8
0
 62
     3
100
AcDbLine
 10
260.4975440101323
 20
296.395473139916
 30
0.0
 11
261.9047881301329
 21
296.3902661699161
 31
0.0
  0
ARC
  5
583
330
1F
100
AcDbEntity
  8
0
 62
     3
100
AcDbCircle
 10
240.8967464701325
 20
295.699977299916
 30
0.0
 40
21.01937947
100
AcDbArc
 50
1.88196573999753
 51
5.709993810001861
  0
LINE
  5
584
330
1F
100
AcDbEntity
  8
0
 62
     3
100
AcDbLine
 10
256.9080448401326
 20
298.597048699916
 30
0.0
 11
256.9080395701329
 21
298.2948467399161
 31
0.0
  0
LINE
  5
585
330
1F
100
AcDbEntity
  8
0
 62
     3
100
AcDbLine
 10
254.1515993601322
 20
298.5971051899161
 30
0.0
 11
256.9080448401326
 21
298.597057079916
 31
0.0
  0
LINE
  5
586
330
1F
100
AcDbEntity
  8
0
 62
     3
100
AcDbLine
 10
254.1515010701331
 20
292.965374639916
 30
0.0
 11
254.1514958001324
 21
292.6631726799161
 31
0.0
  0
LINE
  5
587
330
1F
100
AcDbEntity
  8
0
 62
     3
100
AcDbLine
 10
254.1515993601322
 20
298.5971051899161
 30
0.0
 11
254.1515940901325
 21
298.2948467399161
 31
0.0
  0
LINE
  5
588
330
1F
100
AcDbEntity
  8
0
 62
     3
100
AcDbLine
 10
250.2127579101323
 20
292.965374639916
 30
0.0
 11
250.2127579101323
 21
292.6631444299161
 31
0.0
  0
LINE
  5
589
330
1F
100
AcDbEntity
  8
0
 62
     3
100
AcDbLine
 10
249.590260900133
 20
296.1429845699159
 30
0.0
 11
251.7651609801331
 21
292.6631444299161
 31
0.0
  0
LINE
  5
58A
330
1F
100
AcDbEntity
  8
0
 62
     3
100
AcDbLine
 10
251.7651609801331
 20
292.6631444299161
 30
0.0
 11
253.2214934501324
 21
292.6631444299161
 31
0.0
  0
LINE
  5
58B
330
1F
100
AcDbEntity
  8
0
 62
     3
100
AcDbLine
 10
253.8439904501327
 20
298.5970769499159
 30
0.0
 11
253.8439904501327
 21
298.2948467399161
 31
0.0
  0
LINE
  5
58C
330
1F
100
AcDbEntity
  8
0
 62
     3
100
AcDbLine
 10
251.6450399801332
 20
298.5970769499159
 30
0.0
 11
253.8439904501327
 21
298.5970769499159
 31
0.0
  0
LINE
  5
58D
330
1F
100
AcDbEntity
  8
0
 62
     3
100
AcDbLine
 10
251.6450399801332
 20
298.5970769499159
 30
0.0
 11
251.6450399801332
 21
298.2948467399161
 31
0.0
  0
LINE
  5
58E
330
1F
100
AcDbEntity
  8
0
 62
     3
100
AcDbLine
 10
252.2675369901325
 20
295.9094107399161
 30
0.0
 11
250.5037560501331
 21
298.5970769499159
 31
0.0
  0
LINE
  5
58F
330
1F
100
AcDbEntity
  8
0
 62
     3
100
AcDbLine
 10
248.0138074401328
 20
298.5970769499159
 30
0.0
 11
250.5037560501331
 21
298.5970769499159
 31
0.0
  0
LINE
  5
590
330
1F
100
AcDbEntity
  8
0
 62
     3
100
AcDbLine
 10
262.1798279601324
 20
298.596935919916
 30
0.0
 11
264.9687744401325
 21
298.596935919916
 31
0.0
  0
LINE
  5
591
330
1F
100
AcDbEntity
  8
0
 62
     3
100
AcDbLine
 10
262.1798279601324
 20
298.2948467399161
 30
0.0
 11
262.1798279601324
 21
298.596935919916
 31
0.0
  0
LINE
  5
592
330
1F
100
AcDbEntity
  8
0
 62
     3
100
AcDbLine
 10
262.1798279601324
 20
292.6630034099161
 30
0.0
 11
262.1798279601324
 21
292.965374639916
 31
0.0
  0
LINE
  5
593
330
1F
100
AcDbEntity
  8
0
 62
     3
100
AcDbLine
 10
262.1798279601324
 20
292.6630034099161
 30
0.0
 11
264.9687744401325
 21
292.6630034099161
 31
0.0
  0
LINE
  5
594
330
1F
100
AcDbEntity
  8
0
 62
     3
100
AcDbLine
 10
265.2598120001329
 20
292.965374639916
 30
0.0
 11
265.2598120001329
 21
292.6630034099161
 31
0.0
  0
LINE
  5
595
330
1F
100
AcDbEntity
  8
0
 62
     3
100
AcDbLine
 10
264.9687744401325
 20
292.965374639916
 30
0.0
 11
264.9687744401325
 21
292.6630034099161
 31
0.0
  0
LINE
  5
596
330
1F
100
AcDbEntity
  8
0
 62
     3
100
AcDbLine
 10
264.9687744401325
 20
298.2948467399161
 30
0.0
 11
264.9687744401325
 21
298.596935919916
 31
0.0
  0
LINE
  5
597
330
1F
100
AcDbEntity
  8
0
 62
     3
100
AcDbLine
 10
265.2598120001329
 20
298.2948467399161
 30
0.0
 11
265.2598120001329
 21
298.596935919916
 31
0.0
  0
LINE
  5
598
330
1F
100
AcDbEntity
  8
0
 62
     3
100
AcDbLine
 10
248.0138074401328
 20
292.965374639916
 30
0.0
 11
248.0138074401328
 21
292.6631444299161
 31
0.0
  0
LINE
  5
599
330
1F
100
AcDbEntity
  8
0
 62
     3
100
AcDbLine
 10
248.0138074401328
 20
298.5970769499159
 30
0.0
 11
248.0138074401328
 21
298.2948467399161
 31
0.0
  0
ARC
  5
59A
330
1F
100
AcDbEntity
  8
0
 62
     3
100
AcDbCircle
 10
274.5417984001331
 20
296.252607699916
 30
0.0
 40
2.344469249999999
100
AcDbArc
 50
17.30874897998903
 51
23.76507096000717
  0
ARC
  5
59B
330
1F
100
AcDbEntity
  8
0
 62
     3
100
AcDbCircle
 10
272.5442649701325
 20
295.6301106899161
 30
0.0
 40
4.43675086
100
AcDbArc
 50
342.6912510200109
 51
17.30856644001325
  0
ARC
  5
59C
330
1F
100
AcDbEntity
  8
0
 62
     3
100
AcDbCircle
 10
274.5417984001331
 20
295.0076136799161
 30
0.0
 40
2.344469249999999
100
AcDbArc
 50
336.2349290399927
 51
342.6912510200109
  0
ARC
  5
59D
330
1F
100
AcDbEntity
  8
0
 62
     3
100
AcDbCircle
 10
274.2417984001329
 20
296.252607699916
 30
0.0
 40
2.344469249999999
100
AcDbArc
 50
17.30874897998903
 51
90.0
  0
ARC
  5
59E
330
1F
100
AcDbEntity
  8
0
 62
     3
100
AcDbCircle
 10
272.2442649701323
 20
295.6301106899161
 30
0.0
 40
4.43675086
100
AcDbArc
 50
342.6912510200109
 51
17.30856644001325
  0
ARC
  5
59F
330
1F
100
AcDbEntity
  8
0
 62
     3
100
AcDbCircle
 10
274.2417984001329
 20
295.0076136799161
 30
0.0
 40
2.344469249999999
100
AcDbArc
 50
270.0
 51
342.6912510200109
  0
ARC
  5
5A0
330
1F
100
AcDbEntity
  8
0
 62
     3
100
AcDbCircle
 10
259.7790264301328
 20
295.6301106899161
 30
0.0
 40
2.966966259999998
100
AcDbArc
 50
46.7528796100087
 51
89.74999828999569
  0
ARC
  5
5A1
330
1F
100
AcDbEntity
  8
0
 62
     3
100
AcDbCircle
 10
259.7790264301328
 20
295.6301106899161
 30
0.0
 40
2.966966259999998
100
AcDbArc
 50
273.9763331500101
 51
312.8231203900269
  0
ARC
  5
5A2
330
1F
100
AcDbEntity
  8
0
 62
     3
100
AcDbCircle
 10
276.1244663601327
 20
295.584308509916
 30
0.0
 40
3.936984289999998
100
AcDbArc
 50
0.6665840599984763
 51
23.90392827000924
  0
ARC
  5
5A3
330
1F
100
AcDbEntity
  8
0
 62
     3
100
AcDbCircle
 10
281.7181267501326
 20
295.584308509916
 30
0.0
 40
3.936984289999998
100
AcDbArc
 50
156.0960717299907
 51
179.3334159399981
  0
ARC
  5
5A4
330
1F
100
AcDbEntity
  8
0
 62
     3
100
AcDbCircle
 10
276.1244663601327
 20
295.6759128699161
 30
0.0
 40
3.936984289999998
100
AcDbArc
 50
336.0960717299909
 51
359.3334159399983
  0
ARC
  5
5A5
330
1F
100
AcDbEntity
  8
0
 62
     3
100
AcDbCircle
 10
281.7181267501326
 20
295.6759128699161
 30
0.0
 40
3.936984289999998
100
AcDbArc
 50
180.6665840599985
 51
203.9039282700092
  0
LINE
  5
5A6
330
1F
100
AcDbEntity
  8
0
 62
     3
100
AcDbLine
 10
288.8956431501327
 20
295.854844599916
 30
0.0
 11
460.2389179701328
 21
295.854844599916
 31
0.0
  0
LINE
  5
5A7
330
1F
100
AcDbEntity
  8
0
 62
     3
100
AcDbLine
 10
240.3416084801327
 20
295.854844599916
 30
0.0
 11
70.23891797013295
 21
295.854844599916
 31
0.0
  0
LINE
  5
5A8
330
1F
100
AcDbEntity
  8
0
 62
     3
100
AcDbLine
 10
57.83699418013276
 20
162.2994835499161
 30
0.0
 11
55.23891797013295
 21
160.7994835499161
 31
0.0
  0
LINE
  5
5A9
330
1F
100
AcDbEntity
  8
0
 62
     3
100
AcDbLine
 10
57.83699418013276
 20
162.2994835499161
 30
0.0
 11
55.23891797013295
 21
163.7994835499161
 31
0.0
  0
LINE
  5
5AA
330
1F
100
AcDbEntity
  8
0
 62
     3
100
AcDbLine
 10
55.23891797013295
 20
160.7994835499161
 30
0.0
 11
55.23891797013295
 21
163.7994835499161
 31
0.0
  0
LINE
  5
5AD
330
1F
100
AcDbEntity
  8
0
  6
CENTER
 62
     7
100
AcDbLine
 10
261.4108167418816
 20
187.7907301660519
 30
0.0
 11
146.4108167418815
 21
187.7907301660519
 31
0.0
  0
LINE
  5
5AE
330
1F
100
AcDbEntity
  8
0
  6
CENTER
 62
     7
100
AcDbLine
 10
151.4108167418815
 20
192.7907301660519
 30
0.0
 11
151.4108167418815
 21
97.79073016605195
 31
0.0
  0
LINE
  5
5AF
330
1F
100
AcDbEntity
  8
0
  6
CENTER
 62
     7
100
AcDbLine
 10
146.4108167418815
 20
102.7907301660519
 30
0.0
 11
261.4108167418816
 21
102.7907301660519
 31
0.0
  0
LINE
  5
5B0
330
1F
100
AcDbEntity
  8
0
  6
CENTER
 62
     7
100
AcDbLine
 10
256.4108167418815
 20
97.79073016605195
 30
0.0
 11
256.4108167418815
 21
192.7907301660519
 31
0.0
  0
LINE
  5
5B1
330
1F
100
AcDbEntity
  8
0
  6
CENTER
 62
     7
100
AcDbLine
 10
203.9108167418815
 20
86.00681761553586
 30
0.0
 11
203.9108167418815
 21
203.6803085858377
 31
0.0
  0
LINE
  5
5B2
330
1F
100
AcDbEntity
  8
0
  6
CENTER
 62
     7
100
AcDbLine
 10
261.4108167418816
 20
145.2907301660519
 30
0.0
 11
146.4108167418815
 21
145.2907301660519
 31
0.0
  0
CIRCLE
  5
5B3
330
1F
100
AcDbEntity
  8
0
 62
     7
100
AcDbCircle
 10
256.4108167418815
 20
187.7907301660519
 30
0.0
 40
10.08346162764064
  0
LINE
  5
5B4
330
1F
100
AcDbEntity
  8
0
  6
CENTER
 62
     7
100
AcDbLine
 10
325.8504108659998
 20
201.0567921161895
 30
0.0
 11
285.5165643554372
 21
201.0567921161895
 31
0.0
  0
LINE
  5
5B5
330
1F
100
AcDbEntity
  8
0
  6
CENTER
 62
     7
100
AcDbLine
 10
305.6834876107185
 20
180.8898688609082
 30
0.0
 11
305.6834876107185
 21
221.0567921161895
 31
0.0
  0
CIRCLE
  5
5B6
330
1F
100
AcDbEntity
  8
0
 62
     7
100
AcDbCircle
 10
305.6834876107185
 20
201.0567921161895
 30
0.0
 40
20.16692325528129
  0
TEXT
  5
5CB
330
1F
100
AcDbEntity
  8
0
 62
     7
100
AcDbText
 10
263.3997730740301
 20
143.9253513240877
 30
0.0
 40
3.2
  1
CL
  7
高3.2
100
AcDbText
  0
TEXT
  5
5CC
330
1F
100
AcDbEntity
  8
0
 62
     7
100
AcDbText
 10
201.7705493768115
 20
205.4167449786577
 30
0.0
 40
3.2
  1
CL
  7
高3.2
100
AcDbText
  0
LINE
  5
5CF
330
1F
100
AcDbEntity
  8
0
 62
     3
100
AcDbLine
 10
285.5471063636313
 20
199.9473130238456
 30
0.0
 11
293.616011440892
 21
199.9473130238456
 31
0.0
  0
LINE
  5
5D0
330
1F
100
AcDbEntity
  8
0
 62
     3
100
AcDbLine
 10
293.616011440892
 20
202.5473130238457
 30
0.0
 11
285.5717213777833
 21
202.5473130238457
 31
0.0
  0
ARC
  5
5D1
330
1F
100
AcDbEntity
  8
0
 62
     3
100
AcDbCircle
 10
293.616011440892
 20
199.9473130238456
 30
0.0
 40
2.60000000000002
100
AcDbArc
 50
44.99999999999086
 51
90.0
  0
LINE
  5
5D2
330
1F
100
AcDbEntity
  8
0
 62
     3
100
AcDbLine
 10
308.1834876107185
 20
189.0567921161895
 30
0.0
 11
295.454489071977
 21
201.7857906549306
 31
0.0
  0
LINE
  5
5D3
330
1F
100
AcDbEntity
  8
0
 62
     3
100
AcDbLine
 10
293.616011440892
 20
199.9473130238456
 30
0.0
 11
305.5834876107181
 21
187.9798368540199
 31
0.0
  0
ARC
  5
5D4
330
1F
100
AcDbEntity
  8
0
 62
     3
100
AcDbCircle
 10
305.6834876107185
 20
201.0567921161895
 30
0.0
 40
2.500000000000022
100
AcDbArc
 50
180.0
 51
282.1531974689886
  0
ARC
  5
5D5
330
1F
100
AcDbEntity
  8
0
 62
     3
100
AcDbCircle
 10
305.6834876107185
 20
201.0567921161895
 30
0.0
 40
2.5
100
AcDbArc
 50
0.0
 51
180.0
  0
ARC
  5
5D6
330
1F
100
AcDbEntity
  8
0
 62
     3
100
AcDbCircle
 10
305.6834876107185
 20
201.0567921161895
 30
0.0
 40
5.100000000000092
100
AcDbArc
 50
0.0
 51
282.1531974689886
  0
LINE
  5
5D7
330
1F
100
AcDbEntity
  8
0
 62
     3
100
AcDbLine
 10
310.7834876107189
 20
181.5453904857476
 30
0.0
 11
310.7834876107189
 21
201.0567921161895
 31
0.0
  0
LINE
  5
5D8
330
1F
100
AcDbEntity
  8
0
 62
     3
100
AcDbLine
 10
308.1834876107185
 20
201.0567921161895
 30
0.0
 11
308.1834876107185
 21
181.0454255065747
 31
0.0
  0
LINE
  5
5D9
330
1F
100
AcDbEntity
  8
0
 62
     3
100
AcDbLine
 10
306.4834876107178
 20
197.3419569919882
 30
0.0
 11
306.7571718212456
 21
196.071092344235
 31
0.0
  0
LINE
  5
5DA
330
1F
100
AcDbEntity
  8
0
 62
     3
100
AcDbLine
 10
306.2098034001918
 20
198.6128216397413
 30
0.0
 11
306.4834876107178
 21
197.3419569919882
 31
0.0
  0
LINE
  5
5E4
330
1F
100
AcDbEntity
  8
0
 62
     7
100
AcDbLine
 10
256.7415779263391
 20
180.8714913505095
 30
0.0
 11
256.7415779263391
 21
174.3295605122423
 31
0.0
  0
LINE
  5
5E5
330
1F
100
AcDbEntity
  8
0
 62
     3
100
AcDbLine
 10
256.3608167418814
 20
173.252252534967
 30
0.0
 11
257.6608167418815
 21
173.252252534967
 31
0.0
  0
LINE
  5
5E6
330
1F
100
AcDbEntity
  8
0
 62
     3
100
AcDbLine
 10
151.4608167418817
 20
181.2522525349671
 30
0.0
 11
151.4608167418817
 21
173.252252534967
 31
0.0
  0
LINE
  5
5E7
330
1F
100
AcDbEntity
  8
0
 62
     3
100
AcDbLine
 10
151.4608167418817
 20
173.252252534967
 30
0.0
 11
150.1608167418815
 21
173.252252534967
 31
0.0
  0
LINE
  5
5E8
330
1F
100
AcDbEntity
  8
0
 62
     3
100
AcDbLine
 10
256.3608167418814
 20
109.3292077971367
 30
0.0
 11
256.3608167418814
 21
117.3292077971367
 31
0.0
  0
LINE
  5
5E9
330
1F
100
AcDbEntity
  8
0
 62
     3
100
AcDbLine
 10
256.3608167418814
 20
117.3292077971367
 30
0.0
 11
257.6608167418815
 21
117.3292077971367
 31
0.0
  0
LINE
  5
5EA
330
1F
100
AcDbEntity
  8
0
 62
     3
100
AcDbLine
 10
151.4608167418817
 20
109.3292077971367
 30
0.0
 11
151.4608167418817
 21
117.3292077971367
 31
0.0
  0
LINE
  5
5EB
330
1F
100
AcDbEntity
  8
0
 62
     3
100
AcDbLine
 10
151.4608167418817
 20
117.3292077971367
 30
0.0
 11
150.1608167418815
 21
117.3292077971367
 31
0.0
  0
LINE
  5
5EC
330
1F
100
AcDbEntity
  8
0
 62
     3
100
AcDbLine
 10
305.5834876107181
 20
187.9798368540199
 30
0.0
 11
305.5834876107181
 21
180.890116793162
 31
0.0
  0
TEXT
  5
708
330
1F
100
AcDbEntity
  8
0
 62
     3
100
AcDbText
 10
374.261424808618
 20
112.3872599223064
 30
0.0
 40
5.774913492267612
  1
材質：鋼線\U+03C62.6
  7
高2.5
100
AcDbText
  0
TEXT
  5
70B
330
1F
100
AcDbEntity
  8
0
 62
     3
100
AcDbText
 10
449.5517787950901
 20
53.86109533780096
 30
0.0
 40
3.0
  1
製 図
100
AcDbText
1001
ACAD
1000
ACAD_MTEXT_DEFINED_HEIGHT_BEGIN
1070
    46
1040
0.0
1000
ACAD_MTEXT_DEFINED_HEIGHT_END
  0
TEXT
  5
70C
330
1F
100
AcDbEntity
  8
0
 62
     3
100
AcDbText
 10
436.5517787950901
 20
53.86109533780096
 30
0.0
 40
3.0
  1
設 計
100
AcDbText
1001
ACAD
1000
ACAD_MTEXT_DEFINED_HEIGHT_BEGIN
1070
    46
1040
0.0
1000
ACAD_MTEXT_DEFINED_HEIGHT_END
  0
TEXT
  5
70D
330
1F
100
AcDbEntity
  8
0
 62
     3
100
AcDbText
 10
423.5517787950901
 20
53.86109533780096
 30
0.0
 40
3.0
  1
検 図
100
AcDbText
1001
ACAD
1000
ACAD_MTEXT_DEFINED_HEIGHT_BEGIN
1070
    46
1040
0.0
1000
ACAD_MTEXT_DEFINED_HEIGHT_END
  0
TEXT
  5
70E
330
1F
100
AcDbEntity
  8
0
 62
     3
100
AcDbText
 10
410.5517787950899
 20
53.86109533780096
 30
0.0
 40
3.0
  1
承 認
100
AcDbText
1001
ACAD
1000
ACAD_MTEXT_DEFINED_HEIGHT_BEGIN
1070
    46
1040
0.0
1000
ACAD_MTEXT_DEFINED_HEIGHT_END
  0
TEXT
  5
70F
330
1F
100
AcDbEntity
  8
0
 62
     3
100
AcDbText
 10
410.0309613757889
 20
33.30528048844644
 30
0.0
 40
3.0
  1
作成日
100
AcDbText
1001
ACAD
1000
ACAD_MTEXT_DEFINED_HEIGHT_BEGIN
1070
    46
1040
0.0
1000
ACAD_MTEXT_DEFINED_HEIGHT_END
  0
TEXT
  5
710
330
1F
100
AcDbEntity
  8
0
 62
     3
100
AcDbText
 10
382.1141308447193
 20
32.17380204032895
 30
0.0
 40
3.0
  1
尺 度
100
AcDbText
1001
ACAD
1000
ACAD_MTEXT_DEFINED_HEIGHT_BEGIN
1070
    46
1040
0.0
1000
ACAD_MTEXT_DEFINED_HEIGHT_END
  0
TEXT
  5
711
330
1F
100
AcDbEntity
  8
0
 62
     3
100
AcDbText
 10
392.6925234591328
 20
28.00107462548636
 30
0.0
 40
2.5
  1
出図コード
100
AcDbText
1001
ACAD
1000
ACAD_MTEXT_DEFINED_HEIGHT_BEGIN
1070
    46
1040
0.0
1000
ACAD_MTEXT_DEFINED_HEIGHT_END
  0
TEXT
  5
712
330
1F
100
AcDbEntity
  8
0
 62
     3
100
AcDbText
 10
382.2728969628068
 20
39.10514566308359
 30
0.0
 40
3.0
  1
備 考
100
AcDbText
1001
ACAD
1000
ACAD_MTEXT_DEFINED_HEIGHT_BEGIN
1070
    46
1040
0.0
1000
ACAD_MTEXT_DEFINED_HEIGHT_END
  0
TEXT
  5
713
330
1F
100
AcDbEntity
  8
0
 62
     3
100
AcDbText
 10
349.6381667426188
 20
22.69537280780099
 30
0.0
 40
3.5
  1
日動工業株式会社
 41
1.199999999999999
100
AcDbText
1001
ACAD
1000
ACAD_MTEXT_DEFINED_HEIGHT_BEGIN
1070
    46
1040
0.0
1000
ACAD_MTEXT_DEFINED_HEIGHT_END
  0
TEXT
  5
714
330
1F
100
AcDbEntity
  8
0
 62
     3
100
AcDbText
 10
350.9476997750898
 20
32.18800712216228
 30
0.0
 40
3.0
  1
第 三 角 法
100
AcDbText
1001
ACAD
1000
ACAD_MTEXT_DEFINED_HEIGHT_BEGIN
1070
    46
1040
0.0
1000
ACAD_MTEXT_DEFINED_HEIGHT_END
  0
TEXT
  5
715
330
1F
100
AcDbEntity
  8
0
 62
     3
100
AcDbText
 10
350.9476997750898
 20
38.96858371514623
 30
0.0
 40
3.0
  1
材 質
100
AcDbText
1001
ACAD
1000
ACAD_MTEXT_DEFINED_HEIGHT_BEGIN
1070
    46
1040
0.0
1000
ACAD_MTEXT_DEFINED_HEIGHT_END
  0
TEXT
  5
716
330
1F
100
AcDbEntity
  8
0
 62
     3
100
AcDbText
 10
350.9476997750898
 20
46.33062334265868
 30
0.0
 40
3.0
  1
型 式
100
AcDbText
1001
ACAD
1000
ACAD_MTEXT_DEFINED_HEIGHT_BEGIN
1070
    46
1040
3.064735913775952
1000
ACAD_MTEXT_DEFINED_HEIGHT_END
  0
TEXT
  5
717
330
1F
100
AcDbEntity
  8
0
 62
     3
100
AcDbText
 10
350.9476997750898
 20
53.86109533780096
 30
0.0
 40
3.0
  1
品 名
100
AcDbText
1001
ACAD
1000
ACAD_MTEXT_DEFINED_HEIGHT_BEGIN
1070
    46
1040
0.0
1000
ACAD_MTEXT_DEFINED_HEIGHT_END
  0
TEXT
  5
718
330
1F
100
AcDbEntity
  8
0
 62
     3
100
AcDbText
 10
350.4031458201323
 20
28.37946502210389
 30
0.0
 40
2.0
  1
NICHIDO IND.CO.LTD
 41
1.3
  7
高2
100
AcDbText
  0
TEXT
  5
719
330
1F
100
AcDbEntity
  8
0
 62
     3
100
AcDbText
 10
392.4044813601329
 20
22.67172277305205
 30
0.0
 40
3.2
  1
ZK-A3X
 41
0.8
  7
高3.2
100
AcDbText
  0
TEXT
  5
71A
330
1F
100
AcDbEntity
  8
0
 62
     3
100
AcDbText
 10
395.3271523847787
 20
32.62148413248393
 30
0.0
 40
3.2
  1
1/2
  7
高3.2
100
AcDbText
  0
TEXT
  5
71B
330
1F
100
AcDbEntity
  8
0
 62
     3
100
AcDbText
 10
425.1030642404619
 20
32.82145628814908
 30
0.0
 40
3.0
  1
2011.02.24
100
AcDbText
1001
ACAD
1000
ACAD_MTEXT_DEFINED_HEIGHT_BEGIN
1070
    46
1040
0.0
1000
ACAD_MTEXT_DEFINED_HEIGHT_END
  0
TEXT
  5
71C
330
1F
100
AcDbEntity
  8
0
 62
     3
100
AcDbText
 10
411.6046002207511
 20
23.89330599528166
 30
0.0
 40
6.299999999999998
  1
LEN-G-30
 41
0.7
  7
高6.3
100
AcDbText
1001
ACAD
1000
ACAD_MTEXT_DEFINED_HEIGHT_BEGIN
1070
    46
1040
0.0
1000
ACAD_MTEXT_DEFINED_HEIGHT_END
  0
TEXT
  5
71D
330
1F
100
AcDbEntity
  8
0
 62
     3
100
AcDbText
 10
363.6823137553845
 20
46.608048257728
 30
0.0
 40
4.5
  1
LEN-G-30
  7
高4.5
100
AcDbText
  0
TEXT
  5
71E
330
1F
100
AcDbEntity
  8
0
 62
     3
100
AcDbText
 10
350.6165539042184
 20
58.22758848051506
 30
0.0
 40
2.0
  1
CONPONENTS
 41
0.5
  7
高2
100
AcDbText
  0
TEXT
  5
71F
330
1F
100
AcDbEntity
  8
0
 62
     3
100
AcDbText
 10
350.3587017098878
 20
49.77630666424523
 30
0.0
 40
2.0
  1
MODEL
  7
高2
100
AcDbText
  0
TEXT
  5
720
330
1F
100
AcDbEntity
  8
0
 62
     3
100
AcDbText
 10
350.4031458201323
 20
42.44050402210388
 30
0.0
 40
2.0
  1
MATERIAL
 41
0.7
  7
高2
100
AcDbText
  0
TEXT
  5
721
330
1F
100
AcDbEntity
  8
0
 62
     3
100
AcDbText
 10
382.0144507501344
 20
42.44050402210388
 30
0.0
 40
2.0
  1
REMARKS
 41
0.7
  7
高2
100
AcDbText
  0
TEXT
  5
722
330
1F
100
AcDbEntity
  8
0
 62
     3
100
AcDbText
 10
350.6200541731784
 20
35.68896595314682
 30
0.0
 40
2.0
  1
3AD
 41
1.5
  7
高2
100
AcDbText
  0
TEXT
  5
723
330
1F
100
AcDbEntity
  8
0
 62
     3
100
AcDbText
 10
361.1322519130134
 20
35.68896595314669
 30
0.0
 40
2.0
  1
ANGLE
 41
1.5
  7
高2
100
AcDbText
  0
TEXT
  5
724
330
1F
100
AcDbEntity
  8
0
 62
     3
100
AcDbText
 10
382.7450450592858
 20
35.68896595314675
 30
0.0
 40
2.0
  1
SCALE
 41
0.8
  7
高2
100
AcDbText
  0
TEXT
  5
725
330
1F
100
AcDbEntity
  8
0
 62
     3
100
AcDbText
 10
423.5244143901325
 20
58.03425922861965
 30
0.0
 40
2.0
  1
CHCK
  7
高2
100
AcDbText
  0
TEXT
  5
726
330
1F
100
AcDbEntity
  8
0
 62
     3
100
AcDbText
 10
410.411678289898
 20
58.03425922861965
 30
0.0
 40
2.0
  1
APPD
  7
高2
100
AcDbText
  0
TEXT
  5
727
330
1F
100
AcDbEntity
  8
0
 62
     3
100
AcDbText
 10
436.6660452298981
 20
58.0342592286196
 30
0.0
 40
2.0
  1
DESN
  7
高2
100
AcDbText
  0
TEXT
  5
728
330
1F
100
AcDbEntity
  8
0
 62
     3
100
AcDbText
 10
450.3045070636068
 20
58.03425922861965
 30
0.0
 40
2.0
  1
DEF
  7
高2
100
AcDbText
  0
TEXT
  5
729
330
1F
100
AcDbEntity
  8
0
 62
     3
100
AcDbText
 10
364.0008309400826
 20
53.83281665367395
 30
0.0
 40
4.5
  1
エコナイター30W用ガード
 41
0.6
  7
高4.5
100
AcDbText
1001
ACAD
1000
ACAD_MTEXT_DEFINED_HEIGHT_BEGIN
1070
    46
1040
0.0
1000
ACAD_MTEXT_DEFINED_HEIGHT_END
  0
TEXT
  5
72B
330
1F
100
AcDbEntity
  8
0
 62
     3
100
AcDbText
 10
373.9600715345452
 20
99.86682579691672
 30
0.0
 40
6.187198208859039
  1
表面処理：クロームメッキ
 41
0.8
  7
高2.5
100
AcDbText
  0
LINE
  5
8B4
330
1F
100
AcDbEntity
  8
0
 62
     3
100
AcDbLine
 10
460.2389179701328
 20
67.52056712991607
 30
0.0
 11
408.5395544901328
 21
67.52056712991607
 31
0.0
  0
TEXT
  5
8BD
330
1F
100
AcDbEntity
  8
0
 62
     3
100
AcDbText
 10
414.0521385845022
 20
62.29926307533538
 30
0.0
 40
4.5
  1
コード
  7
高4.5
100
AcDbText
  0
TEXT
  5
8BE
330
1F
100
AcDbEntity
  8
0
 62
     3
100
AcDbText
 10
436.6463933356103
 20
62.29926307533538
 30
0.0
 40
4.5
  1
54225
  7
高4.5
100
AcDbText
  0
LINE
  5
CF6
330
1F
100
AcDbEntity
  8
0
100
AcDbLine
 10
372.8006644073869
 20
111.2848154590095
 30
0.0
 11
430.3174646052869
 21
111.2848154590095
 31
0.0
  0
LINE
  5
CF7
330
1F
100
AcDbEntity
  8
0
100
AcDbLine
 10
372.3173307974501
 20
98.72519366107995
 30
0.0
 11
446.0258351310403
 21
98.72519366107995
 31
0.0
  0
TEXT
  5
1236
330
1F
100
AcDbEntity
  8
0
 62
     3
100
AcDbText
 10
447.7389179701327
 20
286.354844599916
 30
0.0
 40
3.2
  1
担　当
  7
高3.2
100
AcDbText
  0
TEXT
  5
1237
330
1F
100
AcDbEntity
  8
0
 62
     3
100
AcDbText
 10
403.7389179701326
 20
286.354844599916
 30
0.0
 40
3.2
  1
変更・追記内容
  7
高3.2
100
AcDbText
  0
TEXT
  5
1238
330
1F
100
AcDbEntity
  8
0
 62
     3
100
AcDbText
 10
378.852432970472
 20
281.6843060900077
 30
0.0
 40
2.0
  1
1
  7
高2
100
AcDbText
  0
TEXT
  5
1239
330
1F
100
AcDbEntity
  8
0
 62
     3
100
AcDbText
 10
378.5439214937146
 20
276.5144893777348
 30
0.0
 40
2.0
  1
2
  7
高2
100
AcDbText
  0
TEXT
  5
123A
330
1F
100
AcDbEntity
  8
0
 62
     3
100
AcDbText
 10
385.7389179701327
 20
286.354844599916
 30
0.0
 40
3.2
  1
日　付
  7
高3.2
100
AcDbText
  0
TEXT
  5
123B
330
1F
100
AcDbEntity
  8
0
 62
     3
100
AcDbText
 10
385.7389179701327
 20
291.354844599916
 30
0.0
 40
3.2
  1
図　　　　面　　　　略　　　　歴
  7
高3.2
100
AcDbText
  0
TEXT
  5
123C
330
1F
100
AcDbEntity
  8
0
 62
     3
100
AcDbText
 10
375.7389179701327
 20
286.354844599916
 30
0.0
 40
3.2
  1
記号
  7
高3.2
100
AcDbText
  0
LINE
  5
123D
330
1F
100
AcDbEntity
  8
0
 62
     7
100
AcDbLine
 10
379.2389179701327
 20
279.6457405999161
 30
0.0
 11
377.3389179701327
 21
276.354844599916
 31
0.0
  0
LINE
  5
123E
330
1F
100
AcDbEntity
  8
0
 62
     7
100
AcDbLine
 10
379.2389179701327
 20
279.6457405999161
 30
0.0
 11
381.1389179701327
 21
276.354844599916
 31
0.0
  0
LINE
  5
123F
330
1F
100
AcDbEntity
  8
0
 62
     7
100
AcDbLine
 10
377.3389179701327
 20
276.354844599916
 30
0.0
 11
381.1389179701327
 21
276.354844599916
 31
0.0
  0
LINE
  5
1240
330
1F
100
AcDbEntity
  8
0
 62
     7
100
AcDbLine
 10
379.2389179701327
 20
284.6457415999161
 30
0.0
 11
377.3389179701327
 21
281.354844599916
 31
0.0
  0
LINE
  5
1241
330
1F
100
AcDbEntity
  8
0
 62
     7
100
AcDbLine
 10
379.2389179701327
 20
284.6457415999161
 30
0.0
 11
381.1389179701327
 21
281.354844599916
 31
0.0
  0
LINE
  5
1242
330
1F
100
AcDbEntity
  8
0
 62
     7
100
AcDbLine
 10
377.3389179701327
 20
281.354844599916
 30
0.0
 11
381.1389179701327
 21
281.354844599916
 31
0.0
  0
LINE
  5
1243
330
1F
100
AcDbEntity
  8
0
 62
     3
100
AcDbLine
 10
374.2389179701327
 20
290.854844599916
 30
0.0
 11
460.2389179701327
 21
290.854844599916
 31
0.0
  0
LINE
  5
1244
330
1F
100
AcDbEntity
  8
0
 62
     3
100
AcDbLine
 10
374.2389179701327
 20
285.854844599916
 30
0.0
 11
460.2389179701327
 21
285.854844599916
 31
0.0
  0
LINE
  5
1245
330
1F
100
AcDbEntity
  8
0
 62
     7
100
AcDbLine
 10
374.2389179701327
 20
280.854844599916
 30
0.0
 11
460.2389179701327
 21
280.854844599916
 31
0.0
  0
LINE
  5
1246
330
1F
100
AcDbEntity
  8
0
 62
     3
100
AcDbLine
 10
374.2389179701327
 20
275.854844599916
 30
0.0
 11
460.2389179701327
 21
275.854844599916
 31
0.0
  0
LINE
  5
1247
330
1F
100
AcDbEntity
  8
0
 62
     7
100
AcDbLine
 10
446.2389179701325
 20
275.854844599916
 30
0.0
 11
446.2389179701327
 21
290.854844599916
 31
0.0
  0
LINE
  5
1248
330
1F
100
AcDbEntity
  8
0
 62
     7
100
AcDbLine
 10
402.2389179701327
 20
275.854844599916
 30
0.0
 11
402.2389179701327
 21
290.854844599916
 31
0.0
  0
LINE
  5
1249
330
1F
100
AcDbEntity
  8
0
 62
     7
100
AcDbLine
 10
384.2389179701327
 20
275.854844599916
 30
0.0
 11
384.2389179701327
 21
290.854844599916
 31
0.0
  0
LINE
  5
124A
330
1F
100
AcDbEntity
  8
0
 62
     3
100
AcDbLine
 10
374.2389179701327
 20
275.854844599916
 30
0.0
 11
374.2389179701327
 21
295.854844599916
 31
0.0
  0
LINE
  5
1386
330
1F
100
AcDbEntity
  8
0
100
AcDbLine
 10
151.1608167418815
 20
100.2407301660519
 30
0.0
 11
123.6447096234175
 21
100.2407301660519
 31
0.0
  0
LINE
  5
1387
330
1F
100
AcDbEntity
  8
0
100
AcDbLine
 10
151.1608167418815
 20
190.3407301660521
 30
0.0
 11
123.6447096234175
 21
190.3407301660521
 31
0.0
  0
LINE
  5
1388
330
1F
100
AcDbEntity
  8
0
100
AcDbLine
 10
124.8947096234175
 20
102.7407301660519
 30
0.0
 11
124.8947096234175
 21
187.8407301660521
 31
0.0
  0
LINE
  5
138C
330
1F
100
AcDbEntity
  8
0
100
AcDbLine
 10
349.5488626634497
 20
183.5064913505095
 30
0.0
 11
349.5488626634497
 21
199.9726039721976
 31
0.0
  0
LINE
  5
138D
330
1F
100
AcDbEntity
  8
0
100
AcDbLine
 10
357.0488626634506
 20
189.940730166052
 30
0.0
 11
357.0488626634506
 21
199.9726039721976
 31
0.0
  0
LINE
  5
138E
330
1F
100
AcDbEntity
  8
0
100
AcDbLine
 10
352.0488626634497
 20
198.7226039721976
 30
0.0
 11
354.5488626634506
 21
198.7226039721976
 31
0.0
  0
LINE
  5
1392
330
1F
100
AcDbEntity
  8
0
100
AcDbLine
 10
260.1439956676921
 20
256.3361358233598
 30
0.0
 11
260.1439956676921
 21
236.6884532679172
 31
0.0
  0
LINE
  5
1393
330
1F
100
AcDbEntity
  8
0
100
AcDbLine
 10
147.677637816071
 20
256.3361358233598
 30
0.0
 11
147.677637816071
 21
236.6884532679172
 31
0.0
  0
LINE
  5
1394
330
1F
100
AcDbEntity
  8
0
100
AcDbLine
 10
257.6439956676921
 20
237.9384532679172
 30
0.0
 11
150.177637816071
 21
237.9384532679172
 31
0.0
  0
LINE
  5
1398
330
1F
100
AcDbEntity
  8
0
100
AcDbLine
 10
255.2315779263389
 20
251.9621957130913
 30
0.0
 11
282.6077597376078
 21
251.9621957130913
 31
0.0
  0
LINE
  5
1399
330
1F
100
AcDbEntity
  8
0
100
AcDbLine
 10
256.6608167418806
 20
258.1621957130914
 30
0.0
 11
282.6077597376078
 21
258.1621957130914
 31
0.0
  0
LINE
  5
139A
330
1F
100
AcDbEntity
  8
0
100
AcDbLine
 10
281.3577597376077
 20
249.4621957130913
 30
0.0
 11
281.3577597376077
 21
246.9621957130913
 31
0.0
  0
LINE
  5
139B
330
1F
100
AcDbEntity
  8
0
100
AcDbLine
 10
281.3577597376077
 20
260.6621957130914
 30
0.0
 11
281.3577597376077
 21
272.4121957130923
 31
0.0
  0
LINE
  5
139C
330
1F
100
AcDbEntity
  8
0
100
AcDbLine
 10
281.3577597376077
 20
251.9621957130913
 30
0.0
 11
281.3577597376077
 21
258.1621957130914
 31
0.0
  0
LINE
  5
13A0
330
1F
100
AcDbEntity
  8
0
100
AcDbLine
 10
258.9608167418817
 20
188.0407301660519
 30
0.0
 11
258.9608167418817
 21
219.3250701022084
 31
0.0
  0
LINE
  5
13A1
330
1F
100
AcDbEntity
  8
0
100
AcDbLine
 10
148.8608167418813
 20
188.0407301660519
 30
0.0
 11
148.8608167418813
 21
219.3250701022084
 31
0.0
  0
LINE
  5
13A2
330
1F
100
AcDbEntity
  8
0
100
AcDbLine
 10
256.4608167418817
 20
218.0750701022084
 30
0.0
 11
151.3608167418813
 21
218.0750701022084
 31
0.0
  0
LINE
  5
13A6
330
1F
100
AcDbEntity
  8
0
100
AcDbLine
 10
306.7571718212428
 20
195.8210923442347
 30
0.0
 11
306.7571718212428
 21
192.5620798582125
 31
0.0
  0
LINE
  5
13A7
330
1F
100
AcDbEntity
  8
0
100
AcDbLine
 10
308.1834876107185
 20
195.7313611000089
 30
0.0
 11
308.1834876107185
 21
192.5620798582125
 31
0.0
  0
LINE
  5
13A8
330
1F
100
AcDbEntity
  8
0
100
AcDbLine
 10
304.2571718212428
 20
193.8120798582125
 30
0.0
 11
301.7571718212428
 21
193.8120798582125
 31
0.0
  0
LINE
  5
13A9
330
1F
100
AcDbEntity
  8
0
100
AcDbLine
 10
310.6834876107185
 20
193.8120798582125
 30
0.0
 11
334.4076136269532
 21
193.8120798582125
 31
0.0
  0
LINE
  5
13AA
330
1F
100
AcDbEntity
  8
0
100
AcDbLine
 10
306.7571718212428
 20
193.8120798582125
 30
0.0
 11
308.1834876107185
 21
193.8120798582125
 31
0.0
  0
LINE
  5
13AE
330
1F
100
AcDbEntity
  8
0
100
AcDbLine
 10
301.8715577637093
 20
197.8211792157479
 30
0.0
 11
299.9655928402056
 21
196.203372765528
 31
0.0
  0
LINE
  5
13AF
330
1F
100
AcDbEntity
  8
0
100
AcDbLine
 10
309.4954174577257
 20
204.2924050166289
 30
0.0
 11
335.5083616141488
 21
226.3725116998669
 31
0.0
  0
LINE
  5
13B0
330
1F
100
AcDbEntity
  8
0
100
AcDbLine
 10
303.7775226872132
 20
199.4389856659679
 30
0.0
 11
307.5894525342219
 21
202.6745985664089
 31
0.0
  0
LINE
  5
13B4
330
1F
100
AcDbEntity
  8
0
100
AcDbLine
 10
259.932315652314
 20
125.240730166052
 30
0.0
 11
277.755933432887
 21
125.240730166052
 31
0.0
  0
LINE
  5
13B5
330
1F
100
AcDbEntity
  8
0
100
AcDbLine
 10
261.6608167418816
 20
102.7907301660519
 30
0.0
 11
277.755933432887
 21
102.7907301660519
 31
0.0
  0
LINE
  5
13B6
330
1F
100
AcDbEntity
  8
0
100
AcDbLine
 10
276.5059334328869
 20
122.740730166052
 30
0.0
 11
276.5059334328869
 21
105.2907301660519
 31
0.0
  0
LINE
  5
13BA
330
1F
100
AcDbEntity
  8
0
100
AcDbLine
 10
261.6608167418816
 20
187.7907301660519
 30
0.0
 11
279.3071703791611
 21
187.7907301660519
 31
0.0
  0
LINE
  5
13BB
330
1F
100
AcDbEntity
  8
0
100
AcDbLine
 10
259.932315652314
 20
165.340730166052
 30
0.0
 11
279.3071703791611
 21
165.340730166052
 31
0.0
  0
LINE
  5
13BC
330
1F
100
AcDbEntity
  8
0
100
AcDbLine
 10
278.057170379161
 20
185.2907301660519
 30
0.0
 11
278.057170379161
 21
167.840730166052
 31
0.0
  0
LINE
  5
13C0
330
1F
100
AcDbEntity
  8
0
100
AcDbLine
 10
261.6608167418816
 20
187.7907301660519
 30
0.0
 11
287.5506495541321
 21
187.7907301660519
 31
0.0
  0
LINE
  5
13C1
330
1F
100
AcDbEntity
  8
0
100
AcDbLine
 10
261.6608167418816
 20
102.7907301660519
 30
0.0
 11
287.550649554132
 21
102.7907301660519
 31
0.0
  0
LINE
  5
13C2
330
1F
100
AcDbEntity
  8
0
100
AcDbLine
 10
286.3006495541321
 20
185.2907301660519
 30
0.0
 11
286.300649554132
 21
105.2907301660519
 31
0.0
  0
LINE
  5
13C6
330
1F
100
AcDbEntity
  8
0
100
AcDbLine
 10
258.9608167418817
 20
102.5407301660519
 30
0.0
 11
258.9608167418817
 21
83.94495803260122
 31
0.0
  0
LINE
  5
13C7
330
1F
100
AcDbEntity
  8
0
100
AcDbLine
 10
222.7108167418817
 20
100.9579570856431
 30
0.0
 11
222.7108167418817
 21
83.94495803260122
 31
0.0
  0
LINE
  5
13C8
330
1F
100
AcDbEntity
  8
0
100
AcDbLine
 10
256.4608167418817
 20
85.19495803260122
 30
0.0
 11
225.2108167418817
 21
85.19495803260122
 31
0.0
  0
LINE
  5
13CC
330
1F
100
AcDbEntity
  8
0
100
AcDbLine
 10
148.8608167418813
 20
102.5407301660519
 30
0.0
 11
148.8608167418813
 21
81.63484308843214
 31
0.0
  0
LINE
  5
13CD
330
1F
100
AcDbEntity
  8
0
100
AcDbLine
 10
185.1108167418813
 20
100.9579570856392
 30
0.0
 11
185.1108167418813
 21
81.63484308843214
 31
0.0
  0
LINE
  5
13CE
330
1F
100
AcDbEntity
  8
0
100
AcDbLine
 10
151.3608167418813
 20
82.88484308843214
 30
0.0
 11
182.6108167418813
 21
82.88484308843214
 31
0.0
  0
LINE
  5
13D2
330
1F
100
AcDbEntity
  8
0
100
AcDbLine
 10
147.8893178314482
 20
125.2407301660521
 30
0.0
 11
129.90316197256
 21
125.2407301660521
 31
0.0
  0
LINE
  5
13D3
330
1F
100
AcDbEntity
  8
0
100
AcDbLine
 10
151.1608167418815
 20
100.240730166052
 30
0.0
 11
129.90316197256
 21
100.240730166052
 31
0.0
  0
LINE
  5
13D4
330
1F
100
AcDbEntity
  8
0
100
AcDbLine
 10
131.15316197256
 20
122.7407301660521
 30
0.0
 11
131.15316197256
 21
102.740730166052
 31
0.0
  0
LINE
  5
13D8
330
1F
100
AcDbEntity
  8
0
100
AcDbLine
 10
151.1608167418815
 20
190.3407301660519
 30
0.0
 11
130.1546944610552
 21
190.3407301660519
 31
0.0
  0
LINE
  5
13D9
330
1F
100
AcDbEntity
  8
0
100
AcDbLine
 10
147.8893178314482
 20
165.340730166052
 30
0.0
 11
130.1546944610552
 21
165.340730166052
 31
0.0
  0
LINE
  5
13DA
330
1F
100
AcDbEntity
  8
0
100
AcDbLine
 10
131.4046944610552
 20
187.8407301660519
 30
0.0
 11
131.4046944610552
 21
167.840730166052
 31
0.0
  0
LINE
  5
13DE
330
1F
100
AcDbEntity
  8
0
100
AcDbLine
 10
256.4108167418815
 20
193.0407301660519
 30
0.0
 11
256.4108167418815
 21
212.4251129966209
 31
0.0
  0
LINE
  5
13DF
330
1F
100
AcDbEntity
  8
0
100
AcDbLine
 10
151.4108167418815
 20
193.0407301660519
 30
0.0
 11
151.4108167418815
 21
212.4251129966209
 31
0.0
  0
LINE
  5
13E0
330
1F
100
AcDbEntity
  8
0
100
AcDbLine
 10
253.9108167418815
 20
211.1751129966208
 30
0.0
 11
153.9108167418815
 21
211.1751129966208
 31
0.0
  0
LINE
  5
13E4
330
1F
100
AcDbEntity
  8
0
 62
     3
100
AcDbLine
 10
260.4975440101323
 20
296.395473139916
 30
0.0
 11
260.4709332601331
 21
296.5658556599161
 31
0.0
  0
LINE
  5
13E5
330
1F
100
AcDbEntity
  8
0
 62
     3
100
AcDbLine
 10
260.4709332601331
 20
296.5658556599161
 30
0.0
 11
260.4389744301323
 21
296.7290053499161
 31
0.0
  0
LINE
  5
13E6
330
1F
100
AcDbEntity
  8
0
 62
     3
100
AcDbLine
 10
260.4389744301323
 20
296.7290053499161
 30
0.0
 11
260.4019145301325
 21
296.8836611499161
 31
0.0
  0
LINE
  5
13E7
330
1F
100
AcDbEntity
  8
0
 62
     3
100
AcDbLine
 10
260.4019145301325
 20
296.8836611499161
 30
0.0
 11
260.3600400301328
 21
297.0286276499161
 31
0.0
  0
LINE
  5
13E8
330
1F
100
AcDbEntity
  8
0
 62
     3
100
AcDbLine
 10
260.3600400301328
 20
297.0286276499161
 30
0.0
 11
260.3136746001326
 21
297.1627843399161
 31
0.0
  0
LINE
  5
13E9
330
1F
100
AcDbEntity
  8
0
 62
     3
100
AcDbLine
 10
260.3136746001326
 20
297.1627843399161
 30
0.0
 11
260.2631766101329
 21
297.285094239916
 31
0.0
  0
LINE
  5
13EA
330
1F
100
AcDbEntity
  8
0
 62
     3
100
AcDbLine
 10
260.2631766101329
 20
297.285094239916
 30
0.0
 11
260.208936390133
 21
297.394611979916
 31
0.0
  0
LINE
  5
13EB
330
1F
100
AcDbEntity
  8
0
 62
     3
100
AcDbLine
 10
260.208936390133
 20
297.394611979916
 30
0.0
 11
260.151373190133
 21
297.490491029916
 31
0.0
  0
LINE
  5
13EC
330
1F
100
AcDbEntity
  8
0
 62
     3
100
AcDbLine
 10
260.151373190133
 20
297.490491029916
 30
0.0
 11
260.0909319401324
 21
297.571990299916
 31
0.0
  0
LINE
  5
13ED
330
1F
100
AcDbEntity
  8
0
 62
     3
100
AcDbLine
 10
260.0909319401324
 20
297.571990299916
 30
0.0
 11
260.0280798201327
 21
297.6384798399161
 31
0.0
  0
LINE
  5
13EE
330
1F
100
AcDbEntity
  8
0
 62
     3
100
AcDbLine
 10
260.0280798201327
 20
297.6384798399161
 30
0.0
 11
259.9633026401323
 21
297.6894457199161
 31
0.0
  0
LINE
  5
13EF
330
1F
100
AcDbEntity
  8
0
 62
     3
100
AcDbLine
 10
259.9633026401323
 20
297.6894457199161
 30
0.0
 11
259.8971011101328
 21
297.724493999916
 31
0.0
  0
LINE
  5
13F0
330
1F
100
AcDbEntity
  8
0
 62
     3
100
AcDbLine
 10
259.8971011101328
 20
297.724493999916
 30
0.0
 11
259.8299869201326
 21
297.7433537699161
 31
0.0
  0
LINE
  5
13F1
330
1F
100
AcDbEntity
  8
0
 62
     3
100
AcDbLine
 10
259.8299869201326
 20
297.7433537699161
 30
0.0
 11
259.7624788301326
 21
297.745879269916
 31
0.0
  0
LINE
  5
13F2
330
1F
100
AcDbEntity
  8
0
 62
     3
100
AcDbLine
 10
259.7624788301326
 20
297.745879269916
 30
0.0
 11
259.6950986401324
 21
297.732050959916
 31
0.0
  0
LINE
  5
13F3
330
1F
100
AcDbEntity
  8
0
 62
     3
100
AcDbLine
 10
259.6950986401324
 20
297.732050959916
 30
0.0
 11
259.6283671701329
 21
297.701975729916
 31
0.0
  0
LINE
  5
13F4
330
1F
100
AcDbEntity
  8
0
 62
     3
100
AcDbLine
 10
259.6283671701329
 20
297.701975729916
 30
0.0
 11
259.5628002301326
 21
297.655886059916
 31
0.0
  0
LINE
  5
13F5
330
1F
100
AcDbEntity
  8
0
 62
     3
100
AcDbLine
 10
259.5628002301326
 20
297.655886059916
 30
0.0
 11
259.4989045901328
 21
297.594138179916
 31
0.0
  0
LINE
  5
13F6
330
1F
100
AcDbEntity
  8
0
 62
     3
100
AcDbLine
 10
259.4989045901328
 20
297.594138179916
 30
0.0
 11
259.4371741601324
 21
297.5172093899161
 31
0.0
  0
LINE
  5
13F7
330
1F
100
AcDbEntity
  8
0
 62
     3
100
AcDbLine
 10
259.4371741601324
 20
297.5172093899161
 30
0.0
 11
259.3780860701325
 21
297.4256942899161
 31
0.0
  0
LINE
  5
13F8
330
1F
100
AcDbEntity
  8
0
 62
     3
100
AcDbLine
 10
259.3780860701325
 20
297.4256942899161
 30
0.0
 11
259.3220970401324
 21
297.3203002599161
 31
0.0
  0
LINE
  5
13F9
330
1F
100
AcDbEntity
  8
0
 62
     3
100
AcDbLine
 10
259.3220970401324
 20
297.3203002599161
 30
0.0
 11
259.2696398401329
 21
297.201841929916
 31
0.0
  0
LINE
  5
13FA
330
1F
100
AcDbEntity
  8
0
 62
     3
100
AcDbLine
 10
259.2696398401329
 20
297.201841929916
 30
0.0
 11
259.2211199401325
 21
297.071234919916
 31
0.0
  0
LINE
  5
13FB
330
1F
100
AcDbEntity
  8
0
 62
     3
100
AcDbLine
 10
259.2211199401325
 20
297.071234919916
 30
0.0
 11
259.1769123601324
 21
296.929488769916
 31
0.0
  0
LINE
  5
13FC
330
1F
100
AcDbEntity
  8
0
 62
     3
100
AcDbLine
 10
259.1769123601324
 20
296.929488769916
 30
0.0
 11
259.1373588201331
 21
296.7776990999161
 31
0.0
  0
LINE
  5
13FD
330
1F
100
AcDbEntity
  8
0
 62
     3
100
AcDbLine
 10
259.1373588201331
 20
296.7776990999161
 30
0.0
 11
259.1027650401327
 21
296.6170391599161
 31
0.0
  0
LINE
  5
13FE
330
1F
100
AcDbEntity
  8
0
 62
     3
100
AcDbLine
 10
259.1027650401327
 20
296.6170391599161
 30
0.0
 11
259.0733984101324
 21
296.4487507699161
 31
0.0
  0
LINE
  5
13FF
330
1F
100
AcDbEntity
  8
0
 62
     3
100
AcDbLine
 10
259.0733984101324
 20
296.4487507699161
 30
0.0
 11
259.0494859201324
 21
296.274134709916
 31
0.0
  0
LINE
  5
1400
330
1F
100
AcDbEntity
  8
0
 62
     3
100
AcDbLine
 10
259.0494859201324
 20
296.274134709916
 30
0.0
 11
259.0312124101327
 21
296.0945406799161
 31
0.0
  0
LINE
  5
1401
330
1F
100
AcDbEntity
  8
0
 62
     3
100
AcDbLine
 10
259.0312124101327
 20
296.0945406799161
 30
0.0
 11
259.018719110133
 21
295.911356839916
 31
0.0
  0
LINE
  5
1402
330
1F
100
AcDbEntity
  8
0
 62
     3
100
AcDbLine
 10
259.018719110133
 20
295.911356839916
 30
0.0
 11
259.0121026001323
 21
295.7259991199162
 31
0.0
  0
LINE
  5
1403
330
1F
100
AcDbEntity
  8
0
 62
     3
100
AcDbLine
 10
259.0121026001323
 20
295.7259991199162
 30
0.0
 11
259.011414010133
 21
295.539900219916
 31
0.0
  0
LINE
  5
1404
330
1F
100
AcDbEntity
  8
0
 62
     3
100
AcDbLine
 10
259.011414010133
 20
295.539900219916
 30
0.0
 11
259.0166586701323
 21
295.354498609916
 31
0.0
  0
LINE
  5
1405
330
1F
100
AcDbEntity
  8
0
 62
     3
100
AcDbLine
 10
259.0166586701323
 20
295.354498609916
 30
0.0
 11
259.0277960401325
 21
295.1712273399161
 31
0.0
  0
LINE
  5
1406
330
1F
100
AcDbEntity
  8
0
 62
     3
100
AcDbLine
 10
259.0277960401325
 20
295.1712273399161
 30
0.0
 11
259.0447400401325
 21
294.9915029999159
 31
0.0
  0
LINE
  5
1407
330
1F
100
AcDbEntity
  8
0
 62
     3
100
AcDbLine
 10
259.0447400401325
 20
294.9915029999159
 30
0.0
 11
259.0673596901332
 21
294.8167147699161
 31
0.0
  0
LINE
  5
1408
330
1F
100
AcDbEntity
  8
0
 62
     3
100
AcDbLine
 10
259.0673596901332
 20
294.8167147699161
 30
0.0
 11
259.0954801601327
 21
294.6482136699161
 31
0.0
  0
LINE
  5
1409
330
1F
100
AcDbEntity
  8
0
 62
     3
100
AcDbLine
 10
259.0954801601327
 20
294.6482136699161
 30
0.0
 11
259.1288840901323
 21
294.487302129916
 31
0.0
  0
LINE
  5
140A
330
1F
100
AcDbEntity
  8
0
 62
     3
100
AcDbLine
 10
259.1288840901323
 20
294.487302129916
 30
0.0
 11
259.1673132901331
 21
294.3352239099159
 31
0.0
  0
LINE
  5
140B
330
1F
100
AcDbEntity
  8
0
 62
     3
100
AcDbLine
 10
259.1673132901331
 20
294.3352239099159
 30
0.0
 11
259.2104707101324
 21
294.193154499916
 31
0.0
  0
LINE
  5
140C
330
1F
100
AcDbEntity
  8
0
 62
     3
100
AcDbLine
 10
259.2104707101324
 20
294.193154499916
 30
0.0
 11
259.2580227801325
 21
294.0621920199161
 31
0.0
  0
LINE
  5
140D
330
1F
100
AcDbEntity
  8
0
 62
     3
100
AcDbLine
 10
259.2580227801325
 20
294.0621920199161
 30
0.0
 11
259.3096019301327
 21
293.9433487399161
 31
0.0
  0
LINE
  5
140E
330
1F
100
AcDbEntity
  8
0
 62
     3
100
AcDbLine
 10
259.3096019301327
 20
293.9433487399161
 30
0.0
 11
259.3648095001325
 21
293.837543269916
 31
0.0
  0
LINE
  5
140F
330
1F
100
AcDbEntity
  8
0
 62
     3
100
AcDbLine
 10
259.3648095001325
 20
293.837543269916
 30
0.0
 11
259.4232187501329
 21
293.745593409916
 31
0.0
  0
LINE
  5
1410
330
1F
100
AcDbEntity
  8
0
 62
     3
100
AcDbLine
 10
259.4232187501329
 20
293.745593409916
 30
0.0
 11
259.4843782101323
 21
293.6682099099162
 31
0.0
  0
LINE
  5
1411
330
1F
100
AcDbEntity
  8
0
 62
     3
100
AcDbLine
 10
259.4843782101323
 20
293.6682099099162
 30
0.0
 11
259.5478151501327
 21
293.605990889916
 31
0.0
  0
LINE
  5
1412
330
1F
100
AcDbEntity
  8
0
 62
     3
100
AcDbLine
 10
259.5478151501327
 20
293.605990889916
 30
0.0
 11
259.6130392301327
 21
293.559417279916
 31
0.0
  0
LINE
  5
1413
330
1F
100
AcDbEntity
  8
0
 62
     3
100
AcDbLine
 10
259.6130392301327
 20
293.559417279916
 30
0.0
 11
259.6795463101324
 21
293.5288490499159
 31
0.0
  0
LINE
  5
1414
330
1F
100
AcDbEntity
  8
0
 62
     3
100
AcDbLine
 10
259.6795463101324
 20
293.5288490499159
 30
0.0
 11
259.7468223201329
 21
293.5145224999161
 31
0.0
  0
LINE
  5
1415
330
1F
100
AcDbEntity
  8
0
 62
     3
100
AcDbLine
 10
259.7468223201329
 20
293.5145224999161
 30
0.0
 11
259.8143472501332
 21
293.5165483599161
 31
0.0
  0
LINE
  5
1416
330
1F
100
AcDbEntity
  8
0
 62
     3
100
AcDbLine
 10
259.8143472501332
 20
293.5165483599161
 30
0.0
 11
259.8815991701329
 21
293.534910959916
 31
0.0
  0
LINE
  5
1417
330
1F
100
AcDbEntity
  8
0
 62
     3
100
AcDbLine
 10
259.8815991701329
 20
293.534910959916
 30
0.0
 11
259.9480582501326
 21
293.569468379916
 31
0.0
  0
LINE
  5
1418
330
1F
100
AcDbEntity
  8
0
 62
     3
100
AcDbLine
 10
259.9480582501326
 20
293.569468379916
 30
0.0
 11
260.0132108101323
 21
293.6199535099159
 31
0.0
  0
LINE
  5
1419
330
1F
100
AcDbEntity
  8
0
 62
     3
100
AcDbLine
 10
260.0132108101323
 20
293.6199535099159
 30
0.0
 11
260.0765532401327
 21
293.6859761099159
 31
0.0
  0
LINE
  5
141A
330
1F
100
AcDbEntity
  8
0
 62
     3
100
AcDbLine
 10
260.0765532401327
 20
293.6859761099159
 30
0.0
 11
260.1375959401328
 21
293.767025869916
 31
0.0
  0
LINE
  5
141B
330
1F
100
AcDbEntity
  8
0
 62
     3
100
AcDbLine
 10
260.1375959401328
 20
293.767025869916
 30
0.0
 11
260.195867080133
 21
293.862476319916
 31
0.0
  0
LINE
  5
141C
330
1F
100
AcDbEntity
  8
0
 62
     3
100
AcDbLine
 10
260.195867080133
 20
293.862476319916
 30
0.0
 11
260.2509162601326
 21
293.9715896799161
 31
0.0
  0
LINE
  5
141D
330
1F
100
AcDbEntity
  8
0
 62
     3
100
AcDbLine
 10
260.2509162601326
 20
293.9715896799161
 30
0.0
 11
260.3023179801328
 21
294.0935225399162
 31
0.0
  0
LINE
  5
141E
330
1F
100
AcDbEntity
  8
0
 62
     3
100
AcDbLine
 10
260.3023179801328
 20
294.0935225399162
 30
0.0
 11
260.349674920133
 21
294.2273324499159
 31
0.0
  0
LINE
  5
141F
330
1F
100
AcDbEntity
  8
0
 62
     3
100
AcDbLine
 10
260.349674920133
 20
294.2273324499159
 30
0.0
 11
260.392621040133
 21
294.3719850999161
 31
0.0
  0
LINE
  5
1420
330
1F
100
AcDbEntity
  8
0
 62
     3
100
AcDbLine
 10
260.392621040133
 20
294.3719850999161
 30
0.0
 11
260.4308243901331
 21
294.526362419916
 31
0.0
  0
LINE
  5
1421
330
1F
100
AcDbEntity
  8
0
 62
     3
100
AcDbLine
 10
260.4308243901331
 20
294.526362419916
 30
0.0
 11
260.4639896801326
 21
294.689271149916
 31
0.0
  0
LINE
  5
1422
330
1F
100
AcDbEntity
  8
0
 62
     3
100
AcDbLine
 10
260.4639896801326
 20
294.689271149916
 30
0.0
 11
260.4918605601331
 21
294.859452079916
 31
0.0
  0
LINE
  5
1423
330
1F
100
AcDbEntity
  8
0
 62
     3
100
AcDbLine
 10
356.3920415892606
 20
125.890730166052
 30
0.0
 11
356.3570551450746
 21
126.1394743970893
 31
0.0
  0
LINE
  5
1424
330
1F
100
AcDbEntity
  8
0
 62
     3
100
AcDbLine
 10
356.3570551450746
 20
126.1394743970893
 30
0.0
 11
356.2574221814892
 21
126.3503495738232
 31
0.0
  0
LINE
  5
1425
330
1F
100
AcDbEntity
  8
0
 62
     3
100
AcDbLine
 10
356.2574221814892
 20
126.3503495738232
 30
0.0
 11
356.1083109140371
 21
126.4912518621843
 31
0.0
  0
LINE
  5
1426
330
1F
100
AcDbEntity
  8
0
 62
     3
100
AcDbLine
 10
356.1083109140371
 20
126.4912518621843
 30
0.0
 11
355.9324221814894
 21
126.5407301660519
 31
0.0
  0
LINE
  5
1427
330
1F
100
AcDbEntity
  8
0
 62
     3
100
AcDbLine
 10
355.9324221814894
 20
126.5407301660519
 30
0.0
 11
355.7565334489416
 21
126.4912518621843
 31
0.0
  0
LINE
  5
1428
330
1F
100
AcDbEntity
  8
0
 62
     3
100
AcDbLine
 10
355.7565334489416
 20
126.4912518621843
 30
0.0
 11
355.6074221814895
 21
126.3503495738232
 31
0.0
  0
LINE
  5
1429
330
1F
100
AcDbEntity
  8
0
 62
     3
100
AcDbLine
 10
355.6074221814895
 20
126.3503495738232
 30
0.0
 11
355.5077892179042
 21
126.1394743970893
 31
0.0
  0
LINE
  5
142A
330
1F
100
AcDbEntity
  8
0
 62
     3
100
AcDbLine
 10
355.5077892179042
 20
126.1394743970893
 30
0.0
 11
355.4728027737181
 21
125.890730166052
 31
0.0
  0
LINE
  5
142B
330
1F
100
AcDbEntity
  8
0
 62
     3
100
AcDbLine
 10
355.4728027737181
 20
125.890730166052
 30
0.0
 11
355.5077892179042
 21
125.6419859350147
 31
0.0
  0
LINE
  5
142C
330
1F
100
AcDbEntity
  8
0
 62
     3
100
AcDbLine
 10
355.5077892179042
 20
125.6419859350147
 30
0.0
 11
355.6074221814895
 21
125.4311107582807
 31
0.0
  0
LINE
  5
142D
330
1F
100
AcDbEntity
  8
0
 62
     3
100
AcDbLine
 10
355.6074221814895
 20
125.4311107582807
 30
0.0
 11
355.7565334489416
 21
125.2902084699196
 31
0.0
  0
LINE
  5
142E
330
1F
100
AcDbEntity
  8
0
 62
     3
100
AcDbLine
 10
355.7565334489416
 20
125.2902084699196
 30
0.0
 11
355.9324221814894
 21
125.240730166052
 31
0.0
  0
LINE
  5
142F
330
1F
100
AcDbEntity
  8
0
 62
     3
100
AcDbLine
 10
355.9324221814894
 20
125.240730166052
 30
0.0
 11
356.1083109140371
 21
125.2902084699196
 31
0.0
  0
LINE
  5
1430
330
1F
100
AcDbEntity
  8
0
 62
     3
100
AcDbLine
 10
356.1083109140371
 20
125.2902084699196
 30
0.0
 11
356.2574221814892
 21
125.4311107582807
 31
0.0
  0
LINE
  5
1431
330
1F
100
AcDbEntity
  8
0
 62
     3
100
AcDbLine
 10
356.2574221814892
 20
125.4311107582807
 30
0.0
 11
356.3570551450746
 21
125.6419859350147
 31
0.0
  0
LINE
  5
1432
330
1F
100
AcDbEntity
  8
0
 62
     3
100
AcDbLine
 10
356.3570551450746
 20
125.6419859350147
 30
0.0
 11
356.3920415892606
 21
125.890730166052
 31
0.0
  0
LINE
  5
1433
330
1F
100
AcDbEntity
  8
0
 62
     3
100
AcDbLine
 10
356.3920415892606
 20
164.690730166052
 30
0.0
 11
356.3570551450746
 21
164.9394743970892
 31
0.0
  0
LINE
  5
1434
330
1F
100
AcDbEntity
  8
0
 62
     3
100
AcDbLine
 10
356.3570551450746
 20
164.9394743970892
 30
0.0
 11
356.2574221814892
 21
165.1503495738233
 31
0.0
  0
LINE
  5
1435
330
1F
100
AcDbEntity
  8
0
 62
     3
100
AcDbLine
 10
356.2574221814892
 20
165.1503495738233
 30
0.0
 11
356.1083109140371
 21
165.2912518621843
 31
0.0
  0
LINE
  5
1436
330
1F
100
AcDbEntity
  8
0
 62
     3
100
AcDbLine
 10
356.1083109140371
 20
165.2912518621843
 30
0.0
 11
355.9324221814894
 21
165.340730166052
 31
0.0
  0
LINE
  5
1437
330
1F
100
AcDbEntity
  8
0
 62
     3
100
AcDbLine
 10
355.9324221814894
 20
165.340730166052
 30
0.0
 11
355.7565334489416
 21
165.2912518621843
 31
0.0
  0
LINE
  5
1438
330
1F
100
AcDbEntity
  8
0
 62
     3
100
AcDbLine
 10
355.7565334489416
 20
165.2912518621843
 30
0.0
 11
355.6074221814895
 21
165.1503495738233
 31
0.0
  0
LINE
  5
1439
330
1F
100
AcDbEntity
  8
0
 62
     3
100
AcDbLine
 10
355.6074221814895
 20
165.1503495738233
 30
0.0
 11
355.5077892179042
 21
164.9394743970892
 31
0.0
  0
LINE
  5
143A
330
1F
100
AcDbEntity
  8
0
 62
     3
100
AcDbLine
 10
355.5077892179042
 20
164.9394743970892
 30
0.0
 11
355.4728027737181
 21
164.690730166052
 31
0.0
  0
LINE
  5
143B
330
1F
100
AcDbEntity
  8
0
 62
     3
100
AcDbLine
 10
355.4728027737181
 20
164.690730166052
 30
0.0
 11
355.5077892179042
 21
164.4419859350147
 31
0.0
  0
LINE
  5
143C
330
1F
100
AcDbEntity
  8
0
 62
     3
100
AcDbLine
 10
355.5077892179042
 20
164.4419859350147
 30
0.0
 11
355.6074221814895
 21
164.2311107582808
 31
0.0
  0
LINE
  5
143D
330
1F
100
AcDbEntity
  8
0
 62
     3
100
AcDbLine
 10
355.6074221814895
 20
164.2311107582808
 30
0.0
 11
355.7565334489416
 21
164.0902084699196
 31
0.0
  0
LINE
  5
143E
330
1F
100
AcDbEntity
  8
0
 62
     3
100
AcDbLine
 10
355.7565334489416
 20
164.0902084699196
 30
0.0
 11
355.9324221814894
 21
164.0407301660519
 31
0.0
  0
LINE
  5
143F
330
1F
100
AcDbEntity
  8
0
 62
     3
100
AcDbLine
 10
355.9324221814894
 20
164.0407301660519
 30
0.0
 11
356.1083109140371
 21
164.0902084699196
 31
0.0
  0
LINE
  5
1440
330
1F
100
AcDbEntity
  8
0
 62
     3
100
AcDbLine
 10
356.1083109140371
 20
164.0902084699196
 30
0.0
 11
356.2574221814892
 21
164.2311107582808
 31
0.0
  0
LINE
  5
1441
330
1F
100
AcDbEntity
  8
0
 62
     3
100
AcDbLine
 10
356.2574221814892
 20
164.2311107582808
 30
0.0
 11
356.3570551450746
 21
164.4419859350147
 31
0.0
  0
LINE
  5
1442
330
1F
100
AcDbEntity
  8
0
 62
     3
100
AcDbLine
 10
356.3570551450746
 20
164.4419859350147
 30
0.0
 11
356.3920415892606
 21
164.690730166052
 31
0.0
  0
LINE
  5
1443
330
1F
100
AcDbEntity
  8
0
 62
     3
100
AcDbLine
 10
258.3108167418812
 20
256.8621957130913
 30
0.0
 11
258.5595609729188
 21
256.911674016959
 31
0.0
  0
LINE
  5
1444
330
1F
100
AcDbEntity
  8
0
 62
     3
100
AcDbLine
 10
258.5595609729188
 20
256.911674016959
 30
0.0
 11
258.7704361496524
 21
257.0525763053201
 31
0.0
  0
LINE
  5
1445
330
1F
100
AcDbEntity
  8
0
 62
     3
100
AcDbLine
 10
258.7704361496524
 20
257.0525763053201
 30
0.0
 11
258.9113384380133
 21
257.2634514820539
 31
0.0
  0
LINE
  5
1446
330
1F
100
AcDbEntity
  8
0
 62
     3
100
AcDbLine
 10
258.9113384380133
 20
257.2634514820539
 30
0.0
 11
258.9608167418817
 21
257.5121957130913
 31
0.0
  0
LINE
  5
1447
330
1F
100
AcDbEntity
  8
0
 62
     3
100
AcDbLine
 10
258.9608167418817
 20
257.5121957130913
 30
0.0
 11
258.9113384380133
 21
257.7609399441286
 31
0.0
  0
LINE
  5
1448
330
1F
100
AcDbEntity
  8
0
 62
     3
100
AcDbLine
 10
258.9113384380133
 20
257.7609399441286
 30
0.0
 11
258.7704361496524
 21
257.9718151208625
 31
0.0
  0
LINE
  5
1449
330
1F
100
AcDbEntity
  8
0
 62
     3
100
AcDbLine
 10
258.7704361496524
 20
257.9718151208625
 30
0.0
 11
258.5595609729188
 21
258.1127174092236
 31
0.0
  0
LINE
  5
144A
330
1F
100
AcDbEntity
  8
0
 62
     3
100
AcDbLine
 10
258.5595609729188
 20
258.1127174092236
 30
0.0
 11
258.3108167418812
 21
258.1621957130914
 31
0.0
  0
LINE
  5
144B
330
1F
100
AcDbEntity
  8
0
 62
     3
100
AcDbLine
 10
258.3108167418812
 20
258.1621957130914
 30
0.0
 11
258.3108167418812
 21
258.1621957130914
 31
0.0
  0
LINE
  5
144C
330
1F
100
AcDbEntity
  8
0
 62
     3
100
AcDbLine
 10
149.510816741881
 20
256.8621957130913
 30
0.0
 11
149.2620725108443
 21
256.911674016959
 31
0.0
  0
LINE
  5
144D
330
1F
100
AcDbEntity
  8
0
 62
     3
100
AcDbLine
 10
149.2620725108443
 20
256.911674016959
 30
0.0
 11
149.0511973341097
 21
257.0525763053201
 31
0.0
  0
LINE
  5
144E
330
1F
100
AcDbEntity
  8
0
 62
     3
100
AcDbLine
 10
149.0511973341097
 20
257.0525763053201
 30
0.0
 11
148.9102950457489
 21
257.2634514820539
 31
0.0
  0
LINE
  5
144F
330
1F
100
AcDbEntity
  8
0
 62
     3
100
AcDbLine
 10
148.9102950457489
 20
257.2634514820539
 30
0.0
 11
148.8608167418813
 21
257.5121957130913
 31
0.0
  0
LINE
  5
1450
330
1F
100
AcDbEntity
  8
0
 62
     3
100
AcDbLine
 10
148.8608167418813
 20
257.5121957130913
 30
0.0
 11
148.9102950457489
 21
257.7609399441286
 31
0.0
  0
LINE
  5
1451
330
1F
100
AcDbEntity
  8
0
 62
     3
100
AcDbLine
 10
148.9102950457489
 20
257.7609399441286
 30
0.0
 11
149.0511973341097
 21
257.9718151208625
 31
0.0
  0
LINE
  5
1452
330
1F
100
AcDbEntity
  8
0
 62
     3
100
AcDbLine
 10
149.0511973341097
 20
257.9718151208625
 30
0.0
 11
149.2620725108443
 21
258.1127174092236
 31
0.0
  0
LINE
  5
1453
330
1F
100
AcDbEntity
  8
0
 62
     3
100
AcDbLine
 10
149.2620725108443
 20
258.1127174092236
 30
0.0
 11
149.510816741881
 21
258.1621957130914
 31
0.0
  0
LINE
  5
1454
330
1F
100
AcDbEntity
  8
0
 62
     3
100
AcDbLine
 10
149.510816741881
 20
258.1621957130914
 30
0.0
 11
149.510816741881
 21
258.1621957130914
 31
0.0
  0
LINE
  5
1455
330
1F
100
AcDbEntity
  8
0
 62
     3
100
AcDbLine
 10
185.760816741881
 20
256.7003493857328
 30
0.0
 11
186.0095609729185
 21
256.7353358299192
 31
0.0
  0
LINE
  5
1456
330
1F
100
AcDbEntity
  8
0
 62
     3
100
AcDbLine
 10
186.0095609729185
 20
256.7353358299192
 30
0.0
 11
186.2204361496521
 21
256.8349687935041
 31
0.0
  0
LINE
  5
1457
330
1F
100
AcDbEntity
  8
0
 62
     3
100
AcDbLine
 10
186.2204361496521
 20
256.8349687935041
 30
0.0
 11
186.361338438014
 21
256.9840800609564
 31
0.0
  0
LINE
  5
1458
330
1F
100
AcDbEntity
  8
0
 62
     3
100
AcDbLine
 10
186.361338438014
 20
256.9840800609564
 30
0.0
 11
186.4108167418815
 21
257.159968793504
 31
0.0
  0
LINE
  5
1459
330
1F
100
AcDbEntity
  8
0
 62
     3
100
AcDbLine
 10
186.4108167418815
 20
257.159968793504
 30
0.0
 11
186.361338438014
 21
257.3358575260515
 31
0.0
  0
LINE
  5
145A
330
1F
100
AcDbEntity
  8
0
 62
     3
100
AcDbLine
 10
186.361338438014
 20
257.3358575260515
 30
0.0
 11
186.2204361496521
 21
257.484968793504
 31
0.0
  0
LINE
  5
145B
330
1F
100
AcDbEntity
  8
0
 62
     3
100
AcDbLine
 10
186.2204361496521
 20
257.484968793504
 30
0.0
 11
186.0095609729185
 21
257.5846017570889
 31
0.0
  0
LINE
  5
145C
330
1F
100
AcDbEntity
  8
0
 62
     3
100
AcDbLine
 10
186.0095609729185
 20
257.5846017570889
 30
0.0
 11
185.760816741881
 21
257.6195882012754
 31
0.0
  0
LINE
  5
145D
330
1F
100
AcDbEntity
  8
0
 62
     3
100
AcDbLine
 10
185.760816741881
 20
257.6195882012754
 30
0.0
 11
185.5120725108443
 21
257.5846017570889
 31
0.0
  0
LINE
  5
145E
330
1F
100
AcDbEntity
  8
0
 62
     3
100
AcDbLine
 10
185.5120725108443
 20
257.5846017570889
 30
0.0
 11
185.3011973341097
 21
257.484968793504
 31
0.0
  0
LINE
  5
145F
330
1F
100
AcDbEntity
  8
0
 62
     3
100
AcDbLine
 10
185.3011973341097
 20
257.484968793504
 30
0.0
 11
185.1602950457489
 21
257.3358575260515
 31
0.0
  0
LINE
  5
1460
330
1F
100
AcDbEntity
  8
0
 62
     3
100
AcDbLine
 10
185.1602950457489
 20
257.3358575260515
 30
0.0
 11
185.1108167418813
 21
257.159968793504
 31
0.0
  0
LINE
  5
1461
330
1F
100
AcDbEntity
  8
0
 62
     3
100
AcDbLine
 10
185.1108167418813
 20
257.159968793504
 30
0.0
 11
185.1602950457489
 21
256.9840800609564
 31
0.0
  0
LINE
  5
1462
330
1F
100
AcDbEntity
  8
0
 62
     3
100
AcDbLine
 10
185.1602950457489
 20
256.9840800609564
 30
0.0
 11
185.3011973341097
 21
256.8349687935041
 31
0.0
  0
LINE
  5
1463
330
1F
100
AcDbEntity
  8
0
 62
     3
100
AcDbLine
 10
185.3011973341097
 20
256.8349687935041
 30
0.0
 11
185.5120725108443
 21
256.7353358299192
 31
0.0
  0
LINE
  5
1464
330
1F
100
AcDbEntity
  8
0
 62
     3
100
AcDbLine
 10
185.5120725108443
 20
256.7353358299192
 30
0.0
 11
185.760816741881
 21
256.7003493857328
 31
0.0
  0
LINE
  5
1465
330
1F
100
AcDbEntity
  8
0
 62
     3
100
AcDbLine
 10
222.0608167418812
 20
256.7003493857328
 30
0.0
 11
222.3095609729187
 21
256.7353358299192
 31
0.0
  0
LINE
  5
1466
330
1F
100
AcDbEntity
  8
0
 62
     3
100
AcDbLine
 10
222.3095609729187
 20
256.7353358299192
 30
0.0
 11
222.5204361496524
 21
256.8349687935041
 31
0.0
  0
LINE
  5
1467
330
1F
100
AcDbEntity
  8
0
 62
     3
100
AcDbLine
 10
222.5204361496524
 20
256.8349687935041
 30
0.0
 11
222.6613384380133
 21
256.9840800609564
 31
0.0
  0
LINE
  5
1468
330
1F
100
AcDbEntity
  8
0
 62
     3
100
AcDbLine
 10
222.6613384380133
 20
256.9840800609564
 30
0.0
 11
222.7108167418817
 21
257.159968793504
 31
0.0
  0
LINE
  5
1469
330
1F
100
AcDbEntity
  8
0
 62
     3
100
AcDbLine
 10
222.7108167418817
 20
257.159968793504
 30
0.0
 11
222.6613384380133
 21
257.3358575260515
 31
0.0
  0
LINE
  5
146A
330
1F
100
AcDbEntity
  8
0
 62
     3
100
AcDbLine
 10
222.6613384380133
 20
257.3358575260515
 30
0.0
 11
222.5204361496524
 21
257.484968793504
 31
0.0
  0
LINE
  5
146B
330
1F
100
AcDbEntity
  8
0
 62
     3
100
AcDbLine
 10
222.5204361496524
 20
257.484968793504
 30
0.0
 11
222.3095609729187
 21
257.5846017570889
 31
0.0
  0
LINE
  5
146C
330
1F
100
AcDbEntity
  8
0
 62
     3
100
AcDbLine
 10
222.3095609729187
 20
257.5846017570889
 30
0.0
 11
222.0608167418812
 21
257.6195882012754
 31
0.0
  0
LINE
  5
146D
330
1F
100
AcDbEntity
  8
0
 62
     3
100
AcDbLine
 10
222.0608167418812
 20
257.6195882012754
 30
0.0
 11
221.8120725108445
 21
257.5846017570889
 31
0.0
  0
LINE
  5
146E
330
1F
100
AcDbEntity
  8
0
 62
     3
100
AcDbLine
 10
221.8120725108445
 20
257.5846017570889
 30
0.0
 11
221.60119733411
 21
257.484968793504
 31
0.0
  0
LINE
  5
146F
330
1F
100
AcDbEntity
  8
0
 62
     3
100
AcDbLine
 10
221.60119733411
 20
257.484968793504
 30
0.0
 11
221.4602950457491
 21
257.3358575260515
 31
0.0
  0
LINE
  5
1470
330
1F
100
AcDbEntity
  8
0
 62
     3
100
AcDbLine
 10
221.4602950457491
 20
257.3358575260515
 30
0.0
 11
221.4108167418816
 21
257.159968793504
 31
0.0
  0
LINE
  5
1471
330
1F
100
AcDbEntity
  8
0
 62
     3
100
AcDbLine
 10
221.4108167418816
 20
257.159968793504
 30
0.0
 11
221.4602950457491
 21
256.9840800609564
 31
0.0
  0
LINE
  5
1472
330
1F
100
AcDbEntity
  8
0
 62
     3
100
AcDbLine
 10
221.4602950457491
 20
256.9840800609564
 30
0.0
 11
221.60119733411
 21
256.8349687935041
 31
0.0
  0
LINE
  5
1473
330
1F
100
AcDbEntity
  8
0
 62
     3
100
AcDbLine
 10
221.60119733411
 20
256.8349687935041
 30
0.0
 11
221.8120725108445
 21
256.7353358299192
 31
0.0
  0
LINE
  5
1474
330
1F
100
AcDbEntity
  8
0
 62
     3
100
AcDbLine
 10
221.8120725108445
 20
256.7353358299192
 30
0.0
 11
222.0608167418812
 21
256.7003493857328
 31
0.0
  0
LINE
  5
1475
330
1F
100
AcDbEntity
  8
0
 62
     3
100
AcDbLine
 10
259.6843762599208
 20
126.5407301660519
 30
0.0
 11
259.8602649924686
 21
126.4912518621843
 31
0.0
  0
LINE
  5
1476
330
1F
100
AcDbEntity
  8
0
 62
     3
100
AcDbLine
 10
259.8602649924686
 20
126.4912518621843
 30
0.0
 11
260.0093762599215
 21
126.3503495738232
 31
0.0
  0
LINE
  5
1477
330
1F
100
AcDbEntity
  8
0
 62
     3
100
AcDbLine
 10
260.0093762599215
 20
126.3503495738232
 30
0.0
 11
260.1090092235061
 21
126.1394743970893
 31
0.0
  0
LINE
  5
1478
330
1F
100
AcDbEntity
  8
0
 62
     3
100
AcDbLine
 10
260.1090092235061
 20
126.1394743970893
 30
0.0
 11
260.1439956676921
 21
125.890730166052
 31
0.0
  0
LINE
  5
1479
330
1F
100
AcDbEntity
  8
0
 62
     3
100
AcDbLine
 10
260.1439956676921
 20
125.890730166052
 30
0.0
 11
260.1090092235061
 21
125.6419859350147
 31
0.0
  0
LINE
  5
147A
330
1F
100
AcDbEntity
  8
0
 62
     3
100
AcDbLine
 10
260.1090092235061
 20
125.6419859350147
 30
0.0
 11
260.0093762599215
 21
125.4311107582807
 31
0.0
  0
LINE
  5
147B
330
1F
100
AcDbEntity
  8
0
 62
     3
100
AcDbLine
 10
260.0093762599215
 20
125.4311107582807
 30
0.0
 11
259.8602649924686
 21
125.2902084699196
 31
0.0
  0
LINE
  5
147C
330
1F
100
AcDbEntity
  8
0
 62
     3
100
AcDbLine
 10
259.8602649924686
 20
125.2902084699196
 30
0.0
 11
259.6843762599208
 21
125.240730166052
 31
0.0
  0
LINE
  5
147D
330
1F
100
AcDbEntity
  8
0
 62
     3
100
AcDbLine
 10
148.1372572238421
 20
126.5407301660519
 30
0.0
 11
147.9613684912945
 21
126.4912518621843
 31
0.0
  0
LINE
  5
147E
330
1F
100
AcDbEntity
  8
0
 62
     3
100
AcDbLine
 10
147.9613684912945
 20
126.4912518621843
 30
0.0
 11
147.8122572238415
 21
126.3503495738232
 31
0.0
  0
LINE
  5
147F
330
1F
100
AcDbEntity
  8
0
 62
     3
100
AcDbLine
 10
147.8122572238415
 20
126.3503495738232
 30
0.0
 11
147.712624260257
 21
126.1394743970893
 31
0.0
  0
LINE
  5
1480
330
1F
100
AcDbEntity
  8
0
 62
     3
100
AcDbLine
 10
147.712624260257
 20
126.1394743970893
 30
0.0
 11
147.677637816071
 21
125.890730166052
 31
0.0
  0
LINE
  5
1481
330
1F
100
AcDbEntity
  8
0
 62
     3
100
AcDbLine
 10
147.677637816071
 20
125.890730166052
 30
0.0
 11
147.712624260257
 21
125.6419859350147
 31
0.0
  0
LINE
  5
1482
330
1F
100
AcDbEntity
  8
0
 62
     3
100
AcDbLine
 10
147.712624260257
 20
125.6419859350147
 30
0.0
 11
147.8122572238415
 21
125.4311107582807
 31
0.0
  0
LINE
  5
1483
330
1F
100
AcDbEntity
  8
0
 62
     3
100
AcDbLine
 10
147.8122572238415
 20
125.4311107582807
 30
0.0
 11
147.9613684912945
 21
125.2902084699196
 31
0.0
  0
LINE
  5
1484
330
1F
100
AcDbEntity
  8
0
 62
     3
100
AcDbLine
 10
147.9613684912945
 20
125.2902084699196
 30
0.0
 11
148.1372572238421
 21
125.240730166052
 31
0.0
  0
LINE
  5
1485
330
1F
100
AcDbEntity
  8
0
 62
     3
100
AcDbLine
 10
148.1372572238421
 20
165.340730166052
 30
0.0
 11
147.9613684912945
 21
165.2912518621843
 31
0.0
  0
LINE
  5
1486
330
1F
100
AcDbEntity
  8
0
 62
     3
100
AcDbLine
 10
147.9613684912945
 20
165.2912518621843
 30
0.0
 11
147.8122572238415
 21
165.1503495738233
 31
0.0
  0
LINE
  5
1487
330
1F
100
AcDbEntity
  8
0
 62
     3
100
AcDbLine
 10
147.8122572238415
 20
165.1503495738233
 30
0.0
 11
147.712624260257
 21
164.9394743970892
 31
0.0
  0
LINE
  5
1488
330
1F
100
AcDbEntity
  8
0
 62
     3
100
AcDbLine
 10
147.712624260257
 20
164.9394743970892
 30
0.0
 11
147.677637816071
 21
164.690730166052
 31
0.0
  0
LINE
  5
1489
330
1F
100
AcDbEntity
  8
0
 62
     3
100
AcDbLine
 10
147.677637816071
 20
164.690730166052
 30
0.0
 11
147.712624260257
 21
164.4419859350147
 31
0.0
  0
LINE
  5
148A
330
1F
100
AcDbEntity
  8
0
 62
     3
100
AcDbLine
 10
147.712624260257
 20
164.4419859350147
 30
0.0
 11
147.8122572238415
 21
164.2311107582808
 31
0.0
  0
LINE
  5
148B
330
1F
100
AcDbEntity
  8
0
 62
     3
100
AcDbLine
 10
147.8122572238415
 20
164.2311107582808
 30
0.0
 11
147.9613684912945
 21
164.0902084699196
 31
0.0
  0
LINE
  5
148C
330
1F
100
AcDbEntity
  8
0
 62
     3
100
AcDbLine
 10
147.9613684912945
 20
164.0902084699196
 30
0.0
 11
148.1372572238421
 21
164.0407301660519
 31
0.0
  0
LINE
  5
148D
330
1F
100
AcDbEntity
  8
0
 62
     3
100
AcDbLine
 10
259.6843762599208
 20
165.340730166052
 30
0.0
 11
259.8602649924686
 21
165.2912518621843
 31
0.0
  0
LINE
  5
148E
330
1F
100
AcDbEntity
  8
0
 62
     3
100
AcDbLine
 10
259.8602649924686
 20
165.2912518621843
 30
0.0
 11
260.0093762599215
 21
165.1503495738233
 31
0.0
  0
LINE
  5
148F
330
1F
100
AcDbEntity
  8
0
 62
     3
100
AcDbLine
 10
260.0093762599215
 20
165.1503495738233
 30
0.0
 11
260.1090092235061
 21
164.9394743970892
 31
0.0
  0
LINE
  5
1490
330
1F
100
AcDbEntity
  8
0
 62
     3
100
AcDbLine
 10
260.1090092235061
 20
164.9394743970892
 30
0.0
 11
260.1439956676921
 21
164.690730166052
 31
0.0
  0
LINE
  5
1491
330
1F
100
AcDbEntity
  8
0
 62
     3
100
AcDbLine
 10
260.1439956676921
 20
164.690730166052
 30
0.0
 11
260.1090092235061
 21
164.4419859350147
 31
0.0
  0
LINE
  5
1492
330
1F
100
AcDbEntity
  8
0
 62
     3
100
AcDbLine
 10
260.1090092235061
 20
164.4419859350147
 30
0.0
 11
260.0093762599215
 21
164.2311107582808
 31
0.0
  0
LINE
  5
1493
330
1F
100
AcDbEntity
  8
0
 62
     3
100
AcDbLine
 10
260.0093762599215
 20
164.2311107582808
 30
0.0
 11
259.8602649924686
 21
164.0902084699196
 31
0.0
  0
LINE
  5
1494
330
1F
100
AcDbEntity
  8
0
 62
     3
100
AcDbLine
 10
259.8602649924686
 20
164.0902084699196
 30
0.0
 11
259.6843762599208
 21
164.0407301660519
 31
0.0
  0
TEXT
  5
1495
330
1F
100
AcDbEntity
  8
0
 62
     4
100
AcDbText
 10
124.2697096234175
 20
144.631815541375
 30
0.0
 40
3.0
  1
180.2
 50
90.0
100
AcDbText
  0
LINE
  5
1496
330
1F
100
AcDbEntity
  8
0
  6
ByBlock
 62
     0
370
    -2
100
AcDbLine
 10
124.2248371234175
 20
187.8407301660521
 30
0.0
 11
124.8947096234175
 21
190.3407301660521
 31
0.0
  0
LINE
  5
1497
330
1F
100
AcDbEntity
  8
0
  6
ByBlock
 62
     0
370
    -2
100
AcDbLine
 10
124.8947096234175
 20
190.3407301660521
 30
0.0
 11
125.5645821234175
 21
187.8407301660521
 31
0.0
  0
LINE
  5
1498
330
1F
100
AcDbEntity
  8
0
  6
ByBlock
 62
     0
370
    -2
100
AcDbLine
 10
124.8947096234175
 20
190.3407301660521
 30
0.0
 11
124.8947096234175
 21
187.8407301660521
 31
0.0
  0
LINE
  5
1499
330
1F
100
AcDbEntity
  8
0
  6
ByBlock
 62
     0
370
    -2
100
AcDbLine
 10
125.5645821234175
 20
102.7407301660519
 30
0.0
 11
124.8947096234175
 21
100.2407301660519
 31
0.0
  0
LINE
  5
149A
330
1F
100
AcDbEntity
  8
0
  6
ByBlock
 62
     0
370
    -2
100
AcDbLine
 10
124.8947096234175
 20
100.2407301660519
 30
0.0
 11
124.2248371234175
 21
102.7407301660519
 31
0.0
  0
LINE
  5
149B
330
1F
100
AcDbEntity
  8
0
  6
ByBlock
 62
     0
370
    -2
100
AcDbLine
 10
124.8947096234175
 20
100.2407301660519
 30
0.0
 11
124.8947096234175
 21
102.7407301660519
 31
0.0
  0
TEXT
  5
149C
330
1F
100
AcDbEntity
  8
0
 62
     4
100
AcDbText
 10
351.640420904123
 20
199.3476039721976
 30
0.0
 40
3.0
  1
15
100
AcDbText
  0
LINE
  5
149D
330
1F
100
AcDbEntity
  8
0
  6
ByBlock
 62
     0
370
    -2
100
AcDbLine
 10
354.5488626634506
 20
199.3924764721976
 30
0.0
 11
357.0488626634506
 21
198.7226039721976
 31
0.0
  0
LINE
  5
149E
330
1F
100
AcDbEntity
  8
0
  6
ByBlock
 62
     0
370
    -2
100
AcDbLine
 10
357.0488626634506
 20
198.7226039721976
 30
0.0
 11
354.5488626634506
 21
198.0527314721976
 31
0.0
  0
LINE
  5
149F
330
1F
100
AcDbEntity
  8
0
  6
ByBlock
 62
     0
370
    -2
100
AcDbLine
 10
357.0488626634506
 20
198.7226039721976
 30
0.0
 11
354.5488626634506
 21
198.7226039721976
 31
0.0
  0
LINE
  5
14A0
330
1F
100
AcDbEntity
  8
0
  6
ByBlock
 62
     0
370
    -2
100
AcDbLine
 10
352.0488626634497
 20
198.0527314721976
 30
0.0
 11
349.5488626634497
 21
198.7226039721976
 31
0.0
  0
LINE
  5
14A1
330
1F
100
AcDbEntity
  8
0
  6
ByBlock
 62
     0
370
    -2
100
AcDbLine
 10
349.5488626634497
 20
198.7226039721976
 30
0.0
 11
352.0488626634497
 21
199.3924764721976
 31
0.0
  0
LINE
  5
14A2
330
1F
100
AcDbEntity
  8
0
  6
ByBlock
 62
     0
370
    -2
100
AcDbLine
 10
349.5488626634497
 20
198.7226039721976
 30
0.0
 11
352.0488626634497
 21
198.7226039721976
 31
0.0
  0
TEXT
  5
14A3
330
1F
100
AcDbEntity
  8
0
 62
     4
100
AcDbText
 10
197.1280048063234
 20
238.5634532679172
 30
0.0
 40
3.0
  1
224.9
100
AcDbText
  0
LINE
  5
14A4
330
1F
100
AcDbEntity
  8
0
  6
ByBlock
 62
     0
370
    -2
100
AcDbLine
 10
150.177637816071
 20
237.2685807679172
 30
0.0
 11
147.677637816071
 21
237.9384532679172
 31
0.0
  0
LINE
  5
14A5
330
1F
100
AcDbEntity
  8
0
  6
ByBlock
 62
     0
370
    -2
100
AcDbLine
 10
147.677637816071
 20
237.9384532679172
 30
0.0
 11
150.177637816071
 21
238.6083257679171
 31
0.0
  0
LINE
  5
14A6
330
1F
100
AcDbEntity
  8
0
  6
ByBlock
 62
     0
370
    -2
100
AcDbLine
 10
147.677637816071
 20
237.9384532679172
 30
0.0
 11
150.177637816071
 21
237.9384532679172
 31
0.0
  0
LINE
  5
14A7
330
1F
100
AcDbEntity
  8
0
  6
ByBlock
 62
     0
370
    -2
100
AcDbLine
 10
257.6439956676921
 20
238.6083257679171
 30
0.0
 11
260.1439956676921
 21
237.9384532679172
 31
0.0
  0
LINE
  5
14A8
330
1F
100
AcDbEntity
  8
0
  6
ByBlock
 62
     0
370
    -2
100
AcDbLine
 10
260.1439956676921
 20
237.9384532679172
 30
0.0
 11
257.6439956676921
 21
237.2685807679172
 31
0.0
  0
LINE
  5
14A9
330
1F
100
AcDbEntity
  8
0
  6
ByBlock
 62
     0
370
    -2
100
AcDbLine
 10
260.1439956676921
 20
237.9384532679172
 30
0.0
 11
257.6439956676921
 21
237.9384532679172
 31
0.0
  0
TEXT
  5
14AA
330
1F
100
AcDbEntity
  8
0
 62
     4
100
AcDbText
 10
280.7327597376077
 20
263.7871957130923
 30
0.0
 40
3.0
  1
12.4
 50
90.0
100
AcDbText
  0
LINE
  5
14AB
330
1F
100
AcDbEntity
  8
0
  6
ByBlock
 62
     0
370
    -2
100
AcDbLine
 10
282.0276322376077
 20
260.6621957130914
 30
0.0
 11
281.3577597376077
 21
258.1621957130914
 31
0.0
  0
LINE
  5
14AC
330
1F
100
AcDbEntity
  8
0
  6
ByBlock
 62
     0
370
    -2
100
AcDbLine
 10
281.3577597376077
 20
258.1621957130914
 30
0.0
 11
280.6878872376078
 21
260.6621957130914
 31
0.0
  0
LINE
  5
14AD
330
1F
100
AcDbEntity
  8
0
  6
ByBlock
 62
     0
370
    -2
100
AcDbLine
 10
281.3577597376077
 20
258.1621957130914
 30
0.0
 11
281.3577597376077
 21
260.6621957130914
 31
0.0
  0
LINE
  5
14AE
330
1F
100
AcDbEntity
  8
0
  6
ByBlock
 62
     0
370
    -2
100
AcDbLine
 10
280.6878872376078
 20
249.4621957130913
 30
0.0
 11
281.3577597376077
 21
251.9621957130913
 31
0.0
  0
LINE
  5
14AF
330
1F
100
AcDbEntity
  8
0
  6
ByBlock
 62
     0
370
    -2
100
AcDbLine
 10
281.3577597376077
 20
251.9621957130913
 30
0.0
 11
282.0276322376077
 21
249.4621957130913
 31
0.0
  0
LINE
  5
14B0
330
1F
100
AcDbEntity
  8
0
  6
ByBlock
 62
     0
370
    -2
100
AcDbLine
 10
281.3577597376077
 20
251.9621957130913
 30
0.0
 11
281.3577597376077
 21
249.4621957130913
 31
0.0
  0
TEXT
  5
14B1
330
1F
100
AcDbEntity
  8
0
 62
     4
100
AcDbText
 10
198.1608167418815
 20
218.7000701022084
 30
0.0
 40
3.0
  1
220.2
100
AcDbText
  0
LINE
  5
14B2
330
1F
100
AcDbEntity
  8
0
  6
ByBlock
 62
     0
370
    -2
100
AcDbLine
 10
151.3608167418813
 20
217.4051976022084
 30
0.0
 11
148.8608167418813
 21
218.0750701022084
 31
0.0
  0
LINE
  5
14B3
330
1F
100
AcDbEntity
  8
0
  6
ByBlock
 62
     0
370
    -2
100
AcDbLine
 10
148.8608167418813
 20
218.0750701022084
 30
0.0
 11
151.3608167418813
 21
218.7449426022084
 31
0.0
  0
LINE
  5
14B4
330
1F
100
AcDbEntity
  8
0
  6
ByBlock
 62
     0
370
    -2
100
AcDbLine
 10
148.8608167418813
 20
218.0750701022084
 30
0.0
 11
151.3608167418813
 21
218.0750701022084
 31
0.0
  0
LINE
  5
14B5
330
1F
100
AcDbEntity
  8
0
  6
ByBlock
 62
     0
370
    -2
100
AcDbLine
 10
256.4608167418817
 20
218.7449426022084
 30
0.0
 11
258.9608167418817
 21
218.0750701022084
 31
0.0
  0
LINE
  5
14B6
330
1F
100
AcDbEntity
  8
0
  6
ByBlock
 62
     0
370
    -2
100
AcDbLine
 10
258.9608167418817
 20
218.0750701022084
 30
0.0
 11
256.4608167418817
 21
217.4051976022084
 31
0.0
  0
LINE
  5
14B7
330
1F
100
AcDbEntity
  8
0
  6
ByBlock
 62
     0
370
    -2
100
AcDbLine
 10
258.9608167418817
 20
218.0750701022084
 30
0.0
 11
256.4608167418817
 21
218.0750701022084
 31
0.0
  0
TEXT
  5
14B8
330
1F
100
AcDbEntity
  8
0
 62
     4
100
AcDbText
 10
327.3826136269532
 20
194.4370798582125
 30
0.0
 40
3.0
  1
任意
100
AcDbText
  0
LINE
  5
14B9
330
1F
100
AcDbEntity
  8
0
  6
ByBlock
 62
     0
370
    -2
100
AcDbLine
 10
310.6834876107185
 20
193.1422073582125
 30
0.0
 11
308.1834876107185
 21
193.8120798582125
 31
0.0
  0
LINE
  5
14BA
330
1F
100
AcDbEntity
  8
0
  6
ByBlock
 62
     0
370
    -2
100
AcDbLine
 10
308.1834876107185
 20
193.8120798582125
 30
0.0
 11
310.6834876107185
 21
194.4819523582125
 31
0.0
  0
LINE
  5
14BB
330
1F
100
AcDbEntity
  8
0
  6
ByBlock
 62
     0
370
    -2
100
AcDbLine
 10
308.1834876107185
 20
193.8120798582125
 30
0.0
 11
310.6834876107185
 21
193.8120798582125
 31
0.0
  0
LINE
  5
14BC
330
1F
100
AcDbEntity
  8
0
  6
ByBlock
 62
     0
370
    -2
100
AcDbLine
 10
304.2571718212428
 20
194.4819523582125
 30
0.0
 11
306.7571718212428
 21
193.8120798582125
 31
0.0
  0
LINE
  5
14BD
330
1F
100
AcDbEntity
  8
0
  6
ByBlock
 62
     0
370
    -2
100
AcDbLine
 10
306.7571718212428
 20
193.8120798582125
 30
0.0
 11
304.2571718212428
 21
193.1422073582125
 31
0.0
  0
LINE
  5
14BE
330
1F
100
AcDbEntity
  8
0
  6
ByBlock
 62
     0
370
    -2
100
AcDbLine
 10
306.7571718212428
 20
193.8120798582125
 30
0.0
 11
304.2571718212428
 21
193.8120798582125
 31
0.0
  0
TEXT
  5
14BF
330
1F
100
AcDbEntity
  8
0
 62
     4
100
AcDbText
 10
321.8193344847725
 20
215.57289197271
 30
0.0
 40
3.0
  1
\U+03C65(内径)
 50
40.32500641219146
100
AcDbText
  0
LINE
  5
14C0
330
1F
100
AcDbEntity
  8
0
  6
ByBlock
 62
     0
370
    -2
100
AcDbLine
 10
309.9289070782557
 20
203.781703621341
 30
0.0
 11
307.5894525342219
 21
202.6745985664089
 31
0.0
  0
LINE
  5
14C1
330
1F
100
AcDbEntity
  8
0
  6
ByBlock
 62
     0
370
    -2
100
AcDbLine
 10
307.5894525342219
 20
202.6745985664089
 30
0.0
 11
309.0619278371958
 21
204.8031064119168
 31
0.0
  0
LINE
  5
14C2
330
1F
100
AcDbEntity
  8
0
  6
ByBlock
 62
     0
370
    -2
100
AcDbLine
 10
307.5894525342219
 20
202.6745985664089
 30
0.0
 11
309.4954174577257
 21
204.2924050166289
 31
0.0
  0
LINE
  5
14C3
330
1F
100
AcDbEntity
  8
0
  6
ByBlock
 62
     0
370
    -2
100
AcDbLine
 10
301.4380681431794
 20
198.3318806110359
 30
0.0
 11
303.7775226872132
 21
199.4389856659679
 31
0.0
  0
LINE
  5
14C4
330
1F
100
AcDbEntity
  8
0
  6
ByBlock
 62
     0
370
    -2
100
AcDbLine
 10
303.7775226872132
 20
199.4389856659679
 30
0.0
 11
302.3050473842393
 21
197.31047782046
 31
0.0
  0
LINE
  5
14C5
330
1F
100
AcDbEntity
  8
0
  6
ByBlock
 62
     0
370
    -2
100
AcDbLine
 10
303.7775226872132
 20
199.4389856659679
 30
0.0
 11
301.8715577637094
 21
197.821179215748
 31
0.0
  0
TEXT
  5
14C6
330
1F
100
AcDbEntity
  8
0
 62
     4
100
AcDbText
 10
275.8809334328869
 20
107.1414863622578
 30
0.0
 40
3.0
  1
(44.9)
 50
90.0
100
AcDbText
  0
LINE
  5
14C7
330
1F
100
AcDbEntity
  8
0
  6
ByBlock
 62
     0
370
    -2
100
AcDbLine
 10
277.1758059328869
 20
105.2907301660519
 30
0.0
 11
276.5059334328869
 21
102.7907301660519
 31
0.0
  0
LINE
  5
14C8
330
1F
100
AcDbEntity
  8
0
  6
ByBlock
 62
     0
370
    -2
100
AcDbLine
 10
276.5059334328869
 20
102.7907301660519
 30
0.0
 11
275.8360609328869
 21
105.2907301660519
 31
0.0
  0
LINE
  5
14C9
330
1F
100
AcDbEntity
  8
0
  6
ByBlock
 62
     0
370
    -2
100
AcDbLine
 10
276.5059334328869
 20
102.7907301660519
 30
0.0
 11
276.5059334328869
 21
105.2907301660519
 31
0.0
  0
LINE
  5
14CA
330
1F
100
AcDbEntity
  8
0
  6
ByBlock
 62
     0
370
    -2
100
AcDbLine
 10
275.8360609328869
 20
122.740730166052
 30
0.0
 11
276.5059334328869
 21
125.240730166052
 31
0.0
  0
LINE
  5
14CB
330
1F
100
AcDbEntity
  8
0
  6
ByBlock
 62
     0
370
    -2
100
AcDbLine
 10
276.5059334328869
 20
125.240730166052
 30
0.0
 11
277.1758059328869
 21
122.740730166052
 31
0.0
  0
LINE
  5
14CC
330
1F
100
AcDbEntity
  8
0
  6
ByBlock
 62
     0
370
    -2
100
AcDbLine
 10
276.5059334328869
 20
125.240730166052
 30
0.0
 11
276.5059334328869
 21
122.740730166052
 31
0.0
  0
TEXT
  5
14CD
330
1F
100
AcDbEntity
  8
0
 62
     4
100
AcDbText
 10
277.432170379161
 20
169.2663306516789
 30
0.0
 40
3.0
  1
(44.9)
 50
90.0
100
AcDbText
  0
LINE
  5
14CE
330
1F
100
AcDbEntity
  8
0
  6
ByBlock
 62
     0
370
    -2
100
AcDbLine
 10
278.7270428791611
 20
167.840730166052
 30
0.0
 11
278.057170379161
 21
165.340730166052
 31
0.0
  0
LINE
  5
14CF
330
1F
100
AcDbEntity
  8
0
  6
ByBlock
 62
     0
370
    -2
100
AcDbLine
 10
278.057170379161
 20
165.340730166052
 30
0.0
 11
277.3872978791611
 21
167.840730166052
 31
0.0
  0
LINE
  5
14D0
330
1F
100
AcDbEntity
  8
0
  6
ByBlock
 62
     0
370
    -2
100
AcDbLine
 10
278.057170379161
 20
165.340730166052
 30
0.0
 11
278.057170379161
 21
167.840730166052
 31
0.0
  0
LINE
  5
14D1
330
1F
100
AcDbEntity
  8
0
  6
ByBlock
 62
     0
370
    -2
100
AcDbLine
 10
277.3872978791611
 20
185.2907301660519
 30
0.0
 11
278.057170379161
 21
187.7907301660519
 31
0.0
  0
LINE
  5
14D2
330
1F
100
AcDbEntity
  8
0
  6
ByBlock
 62
     0
370
    -2
100
AcDbLine
 10
278.057170379161
 20
187.7907301660519
 30
0.0
 11
278.7270428791611
 21
185.2907301660519
 31
0.0
  0
LINE
  5
14D3
330
1F
100
AcDbEntity
  8
0
  6
ByBlock
 62
     0
370
    -2
100
AcDbLine
 10
278.057170379161
 20
187.7907301660519
 30
0.0
 11
278.057170379161
 21
185.2907301660519
 31
0.0
  0
TEXT
  5
14D4
330
1F
100
AcDbEntity
  8
0
 62
     4
100
AcDbText
 10
285.675649554132
 20
141.8012976436079
 30
0.0
 40
3.0
  1
170
 50
90.0
100
AcDbText
  0
LINE
  5
14D5
330
1F
100
AcDbEntity
  8
0
  6
ByBlock
 62
     0
370
    -2
100
AcDbLine
 10
286.970522054132
 20
105.2907301660519
 30
0.0
 11
286.300649554132
 21
102.7907301660519
 31
0.0
  0
LINE
  5
14D6
330
1F
100
AcDbEntity
  8
0
  6
ByBlock
 62
     0
370
    -2
100
AcDbLine
 10
286.300649554132
 20
102.7907301660519
 30
0.0
 11
285.630777054132
 21
105.2907301660519
 31
0.0
  0
LINE
  5
14D7
330
1F
100
AcDbEntity
  8
0
  6
ByBlock
 62
     0
370
    -2
100
AcDbLine
 10
286.300649554132
 20
102.7907301660519
 30
0.0
 11
286.300649554132
 21
105.2907301660519
 31
0.0
  0
LINE
  5
14D8
330
1F
100
AcDbEntity
  8
0
  6
ByBlock
 62
     0
370
    -2
100
AcDbLine
 10
285.6307770541321
 20
185.2907301660519
 30
0.0
 11
286.3006495541321
 21
187.7907301660519
 31
0.0
  0
LINE
  5
14D9
330
1F
100
AcDbEntity
  8
0
  6
ByBlock
 62
     0
370
    -2
100
AcDbLine
 10
286.3006495541321
 20
187.7907301660519
 30
0.0
 11
286.970522054132
 21
185.2907301660519
 31
0.0
  0
LINE
  5
14DA
330
1F
100
AcDbEntity
  8
0
  6
ByBlock
 62
     0
370
    -2
100
AcDbLine
 10
286.3006495541321
 20
187.7907301660519
 30
0.0
 11
286.3006495541321
 21
185.2907301660519
 31
0.0
  0
TEXT
  5
14DB
330
1F
100
AcDbEntity
  8
0
 62
     4
100
AcDbText
 10
242.1043591720007
 20
85.81995803260122
 30
0.0
 40
3.0
  1
72.5
100
AcDbText
  0
LINE
  5
14DC
330
1F
100
AcDbEntity
  8
0
  6
ByBlock
 62
     0
370
    -2
100
AcDbLine
 10
225.2108167418817
 20
84.52508553260122
 30
0.0
 11
222.7108167418817
 21
85.19495803260122
 31
0.0
  0
LINE
  5
14DD
330
1F
100
AcDbEntity
  8
0
  6
ByBlock
 62
     0
370
    -2
100
AcDbLine
 10
222.7108167418817
 20
85.19495803260122
 30
0.0
 11
225.2108167418817
 21
85.86483053260122
 31
0.0
  0
LINE
  5
14DE
330
1F
100
AcDbEntity
  8
0
  6
ByBlock
 62
     0
370
    -2
100
AcDbLine
 10
222.7108167418817
 20
85.19495803260122
 30
0.0
 11
225.2108167418817
 21
85.19495803260122
 31
0.0
  0
LINE
  5
14DF
330
1F
100
AcDbEntity
  8
0
  6
ByBlock
 62
     0
370
    -2
100
AcDbLine
 10
256.4608167418817
 20
85.86483053260122
 30
0.0
 11
258.9608167418817
 21
85.19495803260122
 31
0.0
  0
LINE
  5
14E0
330
1F
100
AcDbEntity
  8
0
  6
ByBlock
 62
     0
370
    -2
100
AcDbLine
 10
258.9608167418817
 20
85.19495803260122
 30
0.0
 11
256.4608167418817
 21
84.52508553260122
 31
0.0
  0
LINE
  5
14E1
330
1F
100
AcDbEntity
  8
0
  6
ByBlock
 62
     0
370
    -2
100
AcDbLine
 10
258.9608167418817
 20
85.19495803260122
 30
0.0
 11
256.4608167418817
 21
85.19495803260122
 31
0.0
  0
TEXT
  5
14E2
330
1F
100
AcDbEntity
  8
0
 62
     4
100
AcDbText
 10
155.2112596240111
 20
83.50984308843214
 30
0.0
 40
3.0
  1
72.5
100
AcDbText
  0
LINE
  5
14E3
330
1F
100
AcDbEntity
  8
0
  6
ByBlock
 62
     0
370
    -2
100
AcDbLine
 10
182.6108167418813
 20
83.55471558843213
 30
0.0
 11
185.1108167418813
 21
82.88484308843214
 31
0.0
  0
LINE
  5
14E4
330
1F
100
AcDbEntity
  8
0
  6
ByBlock
 62
     0
370
    -2
100
AcDbLine
 10
185.1108167418813
 20
82.88484308843214
 30
0.0
 11
182.6108167418813
 21
82.21497058843214
 31
0.0
  0
LINE
  5
14E5
330
1F
100
AcDbEntity
  8
0
  6
ByBlock
 62
     0
370
    -2
100
AcDbLine
 10
185.1108167418813
 20
82.88484308843214
 30
0.0
 11
182.6108167418813
 21
82.88484308843214
 31
0.0
  0
LINE
  5
14E6
330
1F
100
AcDbEntity
  8
0
  6
ByBlock
 62
     0
370
    -2
100
AcDbLine
 10
151.3608167418813
 20
82.21497058843214
 30
0.0
 11
148.8608167418813
 21
82.88484308843214
 31
0.0
  0
LINE
  5
14E7
330
1F
100
AcDbEntity
  8
0
  6
ByBlock
 62
     0
370
    -2
100
AcDbLine
 10
148.8608167418813
 20
82.88484308843214
 30
0.0
 11
151.3608167418813
 21
83.55471558843213
 31
0.0
  0
LINE
  5
14E8
330
1F
100
AcDbEntity
  8
0
  6
ByBlock
 62
     0
370
    -2
100
AcDbLine
 10
148.8608167418813
 20
82.88484308843214
 30
0.0
 11
151.3608167418813
 21
82.88484308843214
 31
0.0
  0
TEXT
  5
14E9
330
1F
100
AcDbEntity
  8
0
 62
     4
100
AcDbText
 10
130.52816197256
 20
110.6585759290659
 30
0.0
 40
3.0
  1
50
 50
90.0
100
AcDbText
  0
LINE
  5
14EA
330
1F
100
AcDbEntity
  8
0
  6
ByBlock
 62
     0
370
    -2
100
AcDbLine
 10
131.82303447256
 20
102.740730166052
 30
0.0
 11
131.15316197256
 21
100.240730166052
 31
0.0
  0
LINE
  5
14EB
330
1F
100
AcDbEntity
  8
0
  6
ByBlock
 62
     0
370
    -2
100
AcDbLine
 10
131.15316197256
 20
100.240730166052
 30
0.0
 11
130.48328947256
 21
102.740730166052
 31
0.0
  0
LINE
  5
14EC
330
1F
100
AcDbEntity
  8
0
  6
ByBlock
 62
     0
370
    -2
100
AcDbLine
 10
131.15316197256
 20
100.240730166052
 30
0.0
 11
131.15316197256
 21
102.740730166052
 31
0.0
  0
LINE
  5
14ED
330
1F
100
AcDbEntity
  8
0
  6
ByBlock
 62
     0
370
    -2
100
AcDbLine
 10
130.48328947256
 20
122.7407301660521
 30
0.0
 11
131.15316197256
 21
125.2407301660521
 31
0.0
  0
LINE
  5
14EE
330
1F
100
AcDbEntity
  8
0
  6
ByBlock
 62
     0
370
    -2
100
AcDbLine
 10
131.15316197256
 20
125.2407301660521
 30
0.0
 11
131.82303447256
 21
122.7407301660521
 31
0.0
  0
LINE
  5
14EF
330
1F
100
AcDbEntity
  8
0
  6
ByBlock
 62
     0
370
    -2
100
AcDbLine
 10
131.15316197256
 20
125.2407301660521
 30
0.0
 11
131.15316197256
 21
122.7407301660521
 31
0.0
  0
TEXT
  5
14F0
330
1F
100
AcDbEntity
  8
0
 62
     4
100
AcDbText
 10
130.7796944610552
 20
175.5907301660519
 30
0.0
 40
3.0
  1
50
 50
90.0
100
AcDbText
  0
LINE
  5
14F1
330
1F
100
AcDbEntity
  8
0
  6
ByBlock
 62
     0
370
    -2
100
AcDbLine
 10
132.0745669610552
 20
167.840730166052
 30
0.0
 11
131.4046944610552
 21
165.340730166052
 31
0.0
  0
LINE
  5
14F2
330
1F
100
AcDbEntity
  8
0
  6
ByBlock
 62
     0
370
    -2
100
AcDbLine
 10
131.4046944610552
 20
165.340730166052
 30
0.0
 11
130.7348219610552
 21
167.840730166052
 31
0.0
  0
LINE
  5
14F3
330
1F
100
AcDbEntity
  8
0
  6
ByBlock
 62
     0
370
    -2
100
AcDbLine
 10
131.4046944610552
 20
165.340730166052
 30
0.0
 11
131.4046944610552
 21
167.840730166052
 31
0.0
  0
LINE
  5
14F4
330
1F
100
AcDbEntity
  8
0
  6
ByBlock
 62
     0
370
    -2
100
AcDbLine
 10
130.7348219610552
 20
187.8407301660519
 30
0.0
 11
131.4046944610552
 21
190.3407301660519
 31
0.0
  0
LINE
  5
14F5
330
1F
100
AcDbEntity
  8
0
  6
ByBlock
 62
     0
370
    -2
100
AcDbLine
 10
131.4046944610552
 20
190.3407301660519
 30
0.0
 11
132.0745669610552
 21
187.8407301660519
 31
0.0
  0
LINE
  5
14F6
330
1F
100
AcDbEntity
  8
0
  6
ByBlock
 62
     0
370
    -2
100
AcDbLine
 10
131.4046944610552
 20
190.3407301660519
 30
0.0
 11
131.4046944610552
 21
187.8407301660519
 31
0.0
  0
TEXT
  5
14F7
330
1F
100
AcDbEntity
  8
0
 62
     4
100
AcDbText
 10
201.6904522712265
 20
211.8001129966208
 30
0.0
 40
3.0
  1
210
100
AcDbText
  0
LINE
  5
14F8
330
1F
100
AcDbEntity
  8
0
  6
ByBlock
 62
     0
370
    -2
100
AcDbLine
 10
153.9108167418815
 20
210.5052404966208
 30
0.0
 11
151.4108167418815
 21
211.1751129966208
 31
0.0
  0
LINE
  5
14F9
330
1F
100
AcDbEntity
  8
0
  6
ByBlock
 62
     0
370
    -2
100
AcDbLine
 10
151.4108167418815
 20
211.1751129966208
 30
0.0
 11
153.9108167418815
 21
211.8449854966208
 31
0.0
  0
LINE
  5
14FA
330
1F
100
AcDbEntity
  8
0
  6
ByBlock
 62
     0
370
    -2
100
AcDbLine
 10
151.4108167418815
 20
211.1751129966208
 30
0.0
 11
153.9108167418815
 21
211.1751129966208
 31
0.0
  0
LINE
  5
14FB
330
1F
100
AcDbEntity
  8
0
  6
ByBlock
 62
     0
370
    -2
100
AcDbLine
 10
253.9108167418815
 20
211.8449854966208
 30
0.0
 11
256.4108167418815
 21
211.1751129966208
 31
0.0
  0
LINE
  5
14FC
330
1F
100
AcDbEntity
  8
0
  6
ByBlock
 62
     0
370
    -2
100
AcDbLine
 10
256.4108167418815
 20
211.1751129966208
 30
0.0
 11
253.9108167418815
 21
210.5052404966208
 31
0.0
  0
LINE
  5
14FD
330
1F
100
AcDbEntity
  8
0
  6
ByBlock
 62
     0
370
    -2
100
AcDbLine
 10
256.4108167418815
 20
211.1751129966208
 30
0.0
 11
253.9108167418815
 21
211.1751129966208
 31
0.0
  0
ENDSEC
  0
SECTION
  2
OBJECTS
  0
DICTIONARY
  5
C
330
0
100
AcDbDictionary
281
     1
  3
ACAD_2007HEADERVARS_RT
350
1502
  3
ACAD_COLOR
350
73
  3
ACAD_GROUP
350
D
  3
ACAD_LAYOUT
350
1A
  3
ACAD_MATERIAL
350
72
  3
ACAD_MLEADERSTYLE
350
168
  3
ACAD_MLINESTYLE
350
17
  3
ACAD_PLOTSETTINGS
350
19
  3
ACAD_PLOTSTYLENAME
350
E
  3
ACAD_SCALELIST
350
156
  3
ACAD_TABLESTYLE
350
86
  3
ACAD_VISUALSTYLE
350
99
  3
ACDB_RECOMPOSE_DATA
350
1500
  3
AcDbVariableDictionary
350
66
  3
DWGPROPS
350
1501
  0
DICTIONARY
  5
DD
330
2
100
AcDbDictionary
280
     1
281
     1
  3
ACAD_LAYERSTATES
360
DE
  0
DICTIONARY
  5
72C
330
10
100
AcDbDictionary
280
     1
281
     1
  3
ADSK_XREC_LAYER_RECONCILED
360
72D
  0
DICTIONARY
  5
709
330
1F
100
AcDbDictionary
280
     1
281
     1
  3
ACAD_SORTENTS
360
70A
  0
DICTIONARY
  5
1502
102
{ACAD_REACTORS
330
C
102
}
330
C
100
AcDbDictionary
281
     1
  3
DIMARCSYM
350
1504
  3
DIMFXL
350
1503
  3
DIMJOGANG
350
1505
  0
DICTIONARY
  5
73
102
{ACAD_REACTORS
330
C
102
}
330
C
100
AcDbDictionary
281
     1
  0
DICTIONARY
  5
D
102
{ACAD_REACTORS
330
C
102
}
330
C
100
AcDbDictionary
281
     1
  0
DICTIONARY
  5
1A
102
{ACAD_REACTORS
330
C
102
}
330
C
100
AcDbDictionary
281
     1
  3
Model
350
22
  3
レイアウト1
350
59
  3
レイアウト2
350
5E
  0
DICTIONARY
  5
72
102
{ACAD_REACTORS
330
C
102
}
330
C
100
AcDbDictionary
281
     1
  3
ByBlock
350
97
  3
ByLayer
350
96
  3
Global
350
98
  0
DICTIONARY
  5
168
102
{ACAD_REACTORS
330
C
102
}
330
C
100
AcDbDictionary
281
     1
  3
Standard
350
169
  0
DICTIONARY
  5
17
102
{ACAD_REACTORS
330
C
102
}
330
C
100
AcDbDictionary
281
     1
  3
Standard
350
18
  0
DICTIONARY
  5
19
102
{ACAD_REACTORS
330
C
102
}
330
C
100
AcDbDictionary
281
     1
  0
ACDBDICTIONARYWDFLT
  5
E
102
{ACAD_REACTORS
330
C
102
}
330
C
100
AcDbDictionary
281
     1
  3
Normal
350
F
100
AcDbDictionaryWithDefault
340
F
  0
DICTIONARY
  5
156
102
{ACAD_REACTORS
330
C
102
}
330
C
100
AcDbDictionary
281
     1
  3
A0
350
157
  3
A1
350
158
  3
A2
350
159
  3
A3
350
15A
  3
A4
350
15B
  3
A5
350
15C
  3
A6
350
15D
  3
A7
350
15E
  3
A8
350
15F
  3
A9
350
160
  3
B0
350
161
  3
B1
350
162
  3
B2
350
163
  3
B3
350
164
  3
B4
350
165
  3
B5
350
166
  3
B6
350
167
  0
DICTIONARY
  5
86
102
{ACAD_REACTORS
330
C
102
}
330
C
100
AcDbDictionary
281
     1
  3
Standard
350
87
  3
部品表
350
1201
  0
DICTIONARY
  5
99
102
{ACAD_REACTORS
330
C
102
}
330
C
100
AcDbDictionary
281
     1
  3
2dWireframe
350
9F
  3
3D Hidden
350
A1
  3
3dWireframe
350
A0
  3
Basic
350
9E
  3
Brighten
350
A5
  3
ColorChange
350
A9
  3
Conceptual
350
A2
  3
Dim
350
A4
  3
EdgeColorOff
350
155
  3
Facepattern
350
A8
  3
Flat
350
9A
  3
FlatWithEdges
350
9B
  3
Gouraud
350
9C
  3
GouraudWithEdges
350
9D
  3
Hidden
350
14D
  3
JitterOff
350
153
  3
Linepattern
350
A7
  3
OverhangOff
350
154
  3
Realistic
350
A3
  3
Shaded
350
152
  3
Shaded with edges
350
151
  3
Shades of Gray
350
14E
  3
Sketchy
350
14F
  3
Thicken
350
A6
  3
Wireframe
350
14C
  3
X-Ray
350
150
  0
XRECORD
  5
1500
102
{ACAD_REACTORS
330
C
102
}
330
C
100
AcDbXrecord
280
     1
 90
        1
330
87
330
1201
  0
DICTIONARY
  5
66
102
{ACAD_REACTORS
330
C
102
}
330
C
100
AcDbDictionary
281
     1
  3
CANNOSCALE
350
732
  3
CMLEADERSTYLE
350
731
  3
CTABLESTYLE
350
89
  3
DIMASSOC
350
67
  3
HIDETEXT
350
6B
  3
INDEXCTL
350
734
  3
SORTENTS
350
733
  3
XCLIPFRAME
350
1341
  0
XRECORD
  5
1501
102
{ACAD_REACTORS
330
C
102
}
330
C
100
AcDbXrecord
280
     1
  1
DWGPROPS COOKIE
  2

  3

  4

  6

  7

  8
imamura
  9

300
=
301
=
302
=
303
=
304
=
305
=
306
=
307
=
308
=
309
=
 40
0.0250216319444445
 41
2455650.791382373
 42
2456856.611048322
  1

 90
        0
  0
DICTIONARY
  5
DE
102
{ACAD_REACTORS
330
DD
102
}
330
DD
100
AcDbDictionary
281
     1
  0
XRECORD
  5
72D
102
{ACAD_REACTORS
330
72C
102
}
330
72C
100
AcDbXrecord
280
     1
290
     1
  0
SORTENTSTABLE
  5
70A
102
{ACAD_REACTORS
330
709
102
}
330
709
100
AcDbSortentsTable
330
1F
331
4A6
  5
4CA
331
42C
  5
42C
331
4A2
  5
4C6
331
428
  5
428
331
467
  5
467
331
4DD
  5
588
331
49E
  5
4C2
331
424
  5
424
331
463
  5
463
331
49A
  5
4BE
331
420
  5
420
331
5A7
  5
1495
331
52D
  5
5CD
331
5A3
  5
1491
331
529
  5
5BE
331
CF6
  5
14E7
331
59F
  5
1477
331
564
  5
13B6
331
59B
  5
144C
331
560
  5
13B2
331
70E
  5
5BA
331
8B4
  5
590
331
13AE
  5
146C
331
5B3
  5
14BF
331
13AA
  5
147D
331
1247
  5
14FA
331
13A6
  5
1479
331
13E5
  5
1239
331
1243
  5
14F6
331
13A2
  5
1489
331
149F
  5
14BB
331
1425
  5
57B
331
123F
  5
14F2
331
149B
  5
14C8
331
1421
  5
13B0
331
123B
  5
14EE
331
1497
  5
14CA
331
14D6
  5
1446
331
141D
  5
13AC
331
145C
  5
51D
331
14D2
  5
1454
331
1419
  5
13A8
331
1458
  5
518
331
1493
  5
48D
331
45F
  5
45F
331
4D5
  5
564
331
496
  5
4B8
331
41C
  5
41C
331
45B
  5
45B
331
4D1
  5
560
331
492
  5
4B2
331
457
  5
457
331
4CD
  5
55C
331
48E
  5
4AE
331
453
  5
453
331
4C9
  5
558
331
48A
  5
4AA
331
8BE
  5
14E6
331
597
  5
140C
331
55C
  5
CF6
331
14FB
  5
13EC
331
593
  5
13E4
331
558
  5
72A
331
554
  5
726
331
58F
  5
13E0
331
726
  5
59F
331
550
  5
71E
331
58B
  5
13DC
331
722
  5
5A4
331
5EA
  5
14E1
331
5E6
  5
14DD
331
5CF
  5
14CF
331
5CB
  5
14CD
331
139A
  5
149D
331
13D9
  5
13FB
331
1237
  5
14EA
331
1392
  5
14A9
331
14CE
  5
1459
331
1415
  5
13A4
331
1454
  5
535
331
148F
  5
489
331
14CA
  5
1464
331
1411
  5
13A0
331
1450
  5
531
331
148B
  5
495
331
14C6
  5
146B
331
140D
  5
139C
331
144C
  5
52D
331
1487
  5
491
331
14C2
  5
1474
331
1409
  5
1397
331
1448
  5
543
331
1483
  5
49D
331
44F
  5
44F
331
4C5
  5
554
331
44B
  5
44B
331
4C1
  5
550
331
447
  5
447
331
482
  5
482
331
4BD
  5
54C
331
443
  5
443
331
47E
  5
47E
331
4B9
  5
52B
331
14F7
  5
13F5
331
47A
  5
47A
331
14F3
  5
1408
331
14EF
  5
1417
331
54C
  5
71B
331
587
  5
13D8
331
71E
  5
5A8
331
14EB
  5
1419
331
548
  5
717
331
583
  5
13D4
331
71A
  5
5AC
331
4F9
  5
59A
331
544
  5
713
331
57F
  5
13D1
331
716
  5
5B0
331
4F5
  5
599
331
540
  5
5E6
331
57B
  5
13CD
331
712
  5
5B4
331
5DA
  5
14DA
331
138E
  5
14B5
331
13CD
  5
1420
331
1386
  5
14C3
331
728
  5
59D
331
13C1
  5
1440
331
14BE
  5
1480
331
1405
  5
1395
331
1444
  5
537
331
147F
  5
499
331
14BA
  5
1482
331
1401
  5
1390
331
1440
  5
575
331
147B
  5
4A5
331
14B6
  5
148B
331
13FD
  5
138C
331
143C
  5
571
331
1477
  5
4A1
331
14B2
  5
148D
331
13F9
  5
1388
331
1438
  5
56D
331
1473
  5
4EA
331
43F
  5
43F
331
43B
  5
43B
331
476
  5
476
331
4B1
  5
4D5
331
437
  5
437
331
472
  5
472
331
4AD
  5
4D1
331
433
  5
433
331
46E
  5
46E
331
4A9
  5
4CD
331
14E7
  5
1426
331
46A
  5
46A
331
14E3
  5
1428
331
14DF
  5
1433
331
5D6
  5
14D6
331
53C
  5
5DE
331
577
  5
13C9
331
14DB
  5
143C
331
538
  5
5D6
331
5D2
  5
14D2
331
4E9
  5
595
331
573
  5
13C5
331
534
  5
5D2
331
5AE
  5
149A
331
4E5
  5
591
331
56F
  5
13C1
331
530
  5
5CE
331
5AA
  5
1498
331
4E1
  5
58D
331
56B
  5
13BD
331
13B5
  5
145F
331
14AE
  5
14A0
331
13F5
  5
1249
331
1434
  5
569
331
146F
  5
4E6
331
14AA
  5
14A6
331
13F1
  5
1245
331
1430
  5
585
331
146B
  5
4E1
331
124A
  5
14FD
331
14A6
  5
14B1
331
13ED
  5
1241
331
142C
  5
581
331
1467
  5
4DD
331
14A2
  5
14B8
331
13E9
  5
123D
331
1428
  5
57E
331
1463
  5
528
331
42F
  5
42F
331
4A5
  5
4C9
331
42B
  5
42B
331
4A1
  5
4C5
331
427
  5
427
331
466
  5
466
331
4DC
  5
589
331
49D
  5
4C1
331
423
  5
423
331
462
  5
462
331
4D8
  5
567
331
499
  5
4BD
331
5A6
  5
1494
331
52C
  5
5CA
331
567
  5
13B9
331
5A2
  5
1486
331
528
  5
5BD
331
59E
  5
1476
331
563
  5
13B5
331
59A
  5
143E
331
70D
  5
5BB
331
5B6
  5
14C2
331
5B2
  5
14BE
331
13A9
  5
147C
331
1246
  5
14F9
331
13E4
  5
1238
331
1242
  5
14F5
331
13A1
  5
1488
331
13E0
  5
13E8
331
149E
  5
14BA
331
1424
  5
57A
331
123E
  5
14F1
331
149A
  5
14C7
331
1420
  5
13AF
331
145F
  5
524
331
123A
  5
14ED
331
1496
  5
14C9
331
14D5
  5
1445
331
141C
  5
13AA
331
145B
  5
51C
331
14D1
  5
1453
331
1418
  5
13A7
331
1492
  5
48C
331
45E
  5
45E
331
41F
  5
41F
331
4D4
  5
563
331
495
  5
4B6
331
41B
  5
41B
331
45A
  5
45A
331
4D0
  5
55F
331
491
  5
4B1
331
456
  5
456
331
4CC
  5
55B
331
48D
  5
4AD
331
452
  5
452
331
4C8
  5
557
331
489
  5
4A9
331
55F
  5
1237
331
8BD
  5
14E5
331
596
  5
140B
331
55B
  5
8BE
331
14FA
  5
13F4
331
592
  5
13E3
331
557
  5
729
331
553
  5
725
331
58E
  5
13DF
331
725
  5
5A0
331
58A
  5
13DB
331
721
  5
5A5
331
5E9
  5
14E0
331
5E5
  5
14DC
331
1399
  5
149C
331
13D8
  5
13F7
331
1236
  5
14E9
331
13D4
  5
1411
331
1457
  5
517
331
14CD
  5
145C
331
1414
  5
13A3
331
1453
  5
534
331
148E
  5
488
331
14C9
  5
1469
331
1410
  5
139F
331
144F
  5
530
331
148A
  5
494
331
14C5
  5
1471
331
140C
  5
139A
331
144B
  5
54B
331
1486
  5
490
331
14C1
  5
1473
331
1408
  5
1398
331
1482
  5
49C
331
44E
  5
44E
331
4C4
  5
553
331
44A
  5
44A
331
4C0
  5
54F
331
446
  5
446
331
481
  5
481
331
442
  5
442
331
47D
  5
47D
331
4B8
  5
52A
331
14F6
  5
1402
331
479
  5
479
331
14F2
  5
1404
331
54F
  5
722
331
14EE
  5
1413
331
54B
  5
71A
331
586
  5
13D7
331
71D
  5
5A9
331
14EA
  5
1418
331
547
  5
716
331
582
  5
13D3
331
719
  5
5AD
331
543
  5
710
331
57E
  5
13D0
331
715
  5
5B1
331
57A
  5
13CC
331
711
  5
5B5
331
5D9
  5
14D9
331
138D
  5
14B4
331
13CC
  5
141F
331
13C8
  5
1432
331
72B
  5
59B
331
1447
  5
542
331
13C0
  5
143F
331
14BD
  5
147F
331
1404
  5
1393
331
1443
  5
536
331
147E
  5
498
331
14B9
  5
1481
331
1400
  5
138F
331
143F
  5
574
331
147A
  5
4A4
331
14B5
  5
148A
331
13FC
  5
138A
331
143B
  5
570
331
1476
  5
4A0
331
14B1
  5
1490
331
13F8
  5
1387
331
1472
  5
4E9
331
43E
  5
43E
331
4B4
  5
4D8
331
43A
  5
43A
331
475
  5
475
331
4B0
  5
4D4
331
436
  5
436
331
471
  5
471
331
4AC
  5
4D0
331
432
  5
432
331
46D
  5
46D
331
4A8
  5
4CC
331
14E6
  5
1425
331
469
  5
469
331
14E2
  5
142B
331
53F
  5
5E5
331
14DE
  5
143B
331
5D5
  5
14D5
331
53B
  5
5DE
331
576
  5
13C8
331
14DA
  5
1444
331
537
  5
5D5
331
5D1
  5
14D1
331
4E8
  5
594
331
572
  5
13C4
331
533
  5
5D1
331
5AD
  5
1499
331
4E4
  5
58F
331
56E
  5
13C0
331
5A9
  5
1496
331
4E0
  5
58C
331
56A
  5
13BC
331
13BC
  5
1452
331
13B4
  5
145D
331
1437
  5
56C
331
13B0
  5
146E
331
14AD
  5
14A5
331
13F4
  5
1248
331
1433
  5
568
331
146E
  5
4E5
331
14A9
  5
14AE
331
13F0
  5
1243
331
142F
  5
584
331
146A
  5
4E0
331
1249
  5
14FC
331
14A5
  5
14B0
331
13EC
  5
1240
331
142B
  5
581
331
1466
  5
4DC
331
14A1
  5
14B7
331
13E8
  5
123C
331
1462
  5
527
331
42E
  5
42E
331
4A4
  5
4C8
331
42A
  5
42A
331
4DF
  5
58B
331
4A0
  5
4C4
331
426
  5
426
331
465
  5
465
331
49C
  5
4C0
331
422
  5
422
331
461
  5
461
331
498
  5
4BA
331
52F
  5
5CE
331
5A5
  5
1493
331
52B
  5
5C4
331
5A1
  5
1485
331
566
  5
13B8
331
59D
  5
146A
331
562
  5
13B4
331
599
  5
143D
331
70C
  5
5BB
331
708
  5
14E4
331
5B5
  5
14C1
331
5B1
  5
14BD
331
13A8
  5
147B
331
13E7
  5
123B
331
1245
  5
14F8
331
1427
  5
57D
331
1241
  5
14F4
331
13A0
  5
1487
331
149D
  5
14B9
331
1423
  5
579
331
123D
  5
14F0
331
1499
  5
14C6
331
141F
  5
13AE
331
145E
  5
523
331
1239
  5
14EC
331
1495
  5
14CC
331
14D4
  5
144B
331
141B
  5
13AB
331
145A
  5
51B
331
14D0
  5
145B
331
1491
  5
48B
331
45D
  5
45D
331
4D7
  5
566
331
41E
  5
41E
331
4D3
  5
562
331
494
  5
4B4
331
41A
  5
41A
331
459
  5
459
331
4CF
  5
55E
331
490
  5
4B0
331
455
  5
455
331
4CB
  5
55A
331
48C
  5
4AC
331
451
  5
451
331
488
  5
4A8
331
55E
  5
1236
331
14FD
  5
13EE
331
595
  5
13F6
331
55A
  5
8BD
331
14F9
  5
13F3
331
591
  5
13E2
331
556
  5
728
331
552
  5
724
331
58D
  5
13DE
331
724
  5
5A1
331
589
  5
13DA
331
720
  5
5A6
331
5EC
  5
14E3
331
5E8
  5
14DF
331
13DF
  5
13E7
331
5E4
  5
14DB
331
139C
  5
149F
331
1398
  5
149B
331
1394
  5
14AB
331
13D3
  5
1410
331
1417
  5
13A6
331
1456
  5
4F7
331
14CC
  5
1466
331
1413
  5
13A2
331
1452
  5
533
331
148D
  5
487
331
14C8
  5
1468
331
140F
  5
139E
331
144E
  5
52F
331
1489
  5
493
331
14C4
  5
1470
331
140B
  5
139B
331
144A
  5
54A
331
1485
  5
48F
331
14C0
  5
1472
331
1481
  5
49B
331
4C7
  5
556
331
44D
  5
44D
331
4C3
  5
552
331
449
  5
449
331
4BF
  5
54E
331
445
  5
445
331
480
  5
480
331
441
  5
441
331
47C
  5
47C
331
14F5
  5
1401
331
478
  5
478
331
14F1
  5
1403
331
54E
  5
71D
331
14ED
  5
1412
331
54A
  5
719
331
585
  5
13D6
331
71C
  5
5AA
331
14E9
  5
141D
331
546
  5
715
331
718
  5
5AE
331
542
  5
70F
331
57D
  5
13CF
331
714
  5
5B2
331
579
  5
13CB
331
710
  5
5B6
331
5D8
  5
14D8
331
138C
  5
14B3
331
1388
  5
14C5
331
13C7
  5
1431
331
1407
  5
1396
331
1446
  5
541
331
14BC
  5
147E
331
1403
  5
1392
331
1442
  5
577
331
147D
  5
497
331
14B8
  5
1484
331
13FF
  5
138E
331
143E
  5
573
331
1479
  5
4A3
331
14B4
  5
148F
331
13FB
  5
138B
331
143A
  5
56F
331
1475
  5
49F
331
14B0
  5
14A2
331
1471
  5
4E8
331
43D
  5
43D
331
4B3
  5
4D7
331
439
  5
439
331
474
  5
474
331
4AF
  5
4D3
331
435
  5
435
331
470
  5
470
331
4AB
  5
4CF
331
431
  5
431
331
46C
  5
46C
331
14E5
  5
142A
331
468
  5
468
331
14E1
  5
1438
331
53E
  5
5E4
331
14DD
  5
143A
331
53A
  5
5DB
331
5D4
  5
14D4
331
4EB
  5
597
331
575
  5
13C7
331
14D9
  5
1443
331
536
  5
5D9
331
5D0
  5
14D0
331
4E7
  5
593
331
571
  5
13C3
331
532
  5
5D0
331
56D
  5
13BF
331
4E3
  5
58E
331
5A8
  5
1497
331
569
  5
13BB
331
13BB
  5
144E
331
13F7
  5
1386
331
1436
  5
56B
331
14AC
  5
14A4
331
13F3
  5
1247
331
1432
  5
587
331
146D
  5
4E4
331
14A8
  5
14AD
331
13EF
  5
1244
331
142E
  5
583
331
1469
  5
4DF
331
1248
  5
14FB
331
14A4
  5
14AF
331
13EB
  5
123F
331
142A
  5
580
331
1465
  5
4DA
331
14A0
  5
14B6
331
1461
  5
526
331
4A7
  5
4CB
331
42D
  5
42D
331
4A3
  5
4C7
331
429
  5
429
331
4DE
  5
58A
331
49F
  5
4C3
331
425
  5
425
331
464
  5
464
331
460
  5
460
331
4DA
  5
578
331
49B
  5
4BF
331
421
  5
421
331
52E
  5
5CC
331
5A4
  5
1492
331
52A
  5
5C1
331
CF7
  5
14E8
331
5A0
  5
1478
331
565
  5
13B7
331
59C
  5
145E
331
561
  5
13B3
331
598
  5
142C
331
70F
  5
5B7
331
70B
  5
5BC
331
13AF
  5
146D
331
5B4
  5
14C0
331
5B0
  5
14A8
331
13A7
  5
147A
331
13E6
  5
123A
331
1244
  5
14F7
331
1426
  5
57C
331
1240
  5
14F3
331
149C
  5
14BC
331
1422
  5
13B1
331
123C
  5
14EF
331
1498
  5
14CB
331
14D7
  5
144A
331
141E
  5
13AD
331
145D
  5
51E
331
1238
  5
14EB
331
14D3
  5
1458
331
141A
  5
13A9
331
1459
  5
51A
331
1494
  5
48E
331
1490
  5
48A
331
45C
  5
45C
331
4D6
  5
565
331
497
  5
4B9
331
41D
  5
41D
331
4D2
  5
561
331
493
  5
4B3
331
458
  5
458
331
4CE
  5
55D
331
48F
  5
4AF
331
454
  5
454
331
4CA
  5
559
331
48B
  5
4AB
331
450
  5
450
331
55D
  5
CF7
331
14FC
  5
13ED
331
594
  5
13E5
331
559
  5
8B4
331
14F8
  5
13EF
331
555
  5
727
331
590
  5
13E1
331
727
  5
59E
331
551
  5
723
331
58C
  5
13DD
331
723
  5
5A2
331
588
  5
13D9
331
5EB
  5
14E2
331
5E7
  5
14DE
331
13DE
  5
13E6
331
5CC
  5
14CE
331
139B
  5
149E
331
13DA
  5
13FC
331
1393
  5
14AA
331
13D2
  5
140A
331
14CF
  5
145A
331
1416
  5
13A5
331
1455
  5
4F6
331
14CB
  5
1465
331
1412
  5
13A1
331
1451
  5
532
331
148C
  5
496
331
14C7
  5
1467
331
140E
  5
139D
331
144D
  5
52E
331
1488
  5
492
331
14C3
  5
146F
331
140A
  5
1399
331
1449
  5
544
331
1484
  5
49E
331
1480
  5
49A
331
4C6
  5
555
331
487
  5
4A7
331
44C
  5
44C
331
4C2
  5
551
331
448
  5
448
331
4BE
  5
54D
331
444
  5
444
331
47F
  5
47F
331
4BA
  5
52C
331
47B
  5
47B
331
440
  5
440
331
14F4
  5
13FD
331
14F0
  5
1409
331
54D
  5
71C
331
71F
  5
5A7
331
14EC
  5
141A
331
549
  5
718
331
584
  5
13D5
331
71B
  5
5AB
331
14E8
  5
1427
331
545
  5
714
331
580
  5
13D2
331
717
  5
5AF
331
4F6
  5
598
331
541
  5
5E7
331
57C
  5
13CE
331
713
  5
5B3
331
578
  5
13CA
331
13CE
  5
1421
331
1387
  5
14C4
331
13C6
  5
1430
331
729
  5
59C
331
13C2
  5
1441
331
14BF
  5
1475
331
1406
  5
1394
331
1445
  5
538
331
14BB
  5
1483
331
1402
  5
1391
331
1441
  5
576
331
147C
  5
4A6
331
14B7
  5
148C
331
13FE
  5
138D
331
143D
  5
572
331
1478
  5
4A2
331
14B3
  5
148E
331
13FA
  5
1389
331
1439
  5
56E
331
1474
  5
4EB
331
1470
  5
4E7
331
4B6
  5
4EC
331
43C
  5
43C
331
477
  5
477
331
4B2
  5
4D6
331
438
  5
438
331
473
  5
473
331
4AE
  5
4D2
331
434
  5
434
331
46F
  5
46F
331
4AA
  5
4CE
331
430
  5
430
331
46B
  5
46B
331
14E4
  5
1429
331
14E0
  5
1434
331
5D7
  5
14D7
331
53D
  5
5E1
331
14DC
  5
1439
331
539
  5
5DA
331
5D3
  5
14D3
331
4EA
  5
596
331
574
  5
13C6
331
14D8
  5
1442
331
535
  5
5D3
331
5AF
  5
14A7
331
4E6
  5
592
331
570
  5
13C2
331
56C
  5
13BE
331
531
  5
5CF
331
568
  5
13BA
331
13BA
  5
144D
331
13B6
  5
1460
331
14AF
  5
14A1
331
13F6
  5
124A
331
1435
  5
56A
331
14AB
  5
14A3
331
13F2
  5
1246
331
1431
  5
586
331
146C
  5
4E3
331
14A7
  5
14AC
331
13EE
  5
1242
331
142D
  5
582
331
1468
  5
4DE
331
14A3
  5
14B2
331
13EA
  5
123E
331
1429
  5
57F
331
1464
  5
529
331
1460
  5
525
  0
XRECORD
  5
1504
102
{ACAD_REACTORS
330
1502
102
}
330
1502
100
AcDbXrecord
280
     1
 70
     2
  0
XRECORD
  5
1503
102
{ACAD_REACTORS
330
1502
102
}
330
1502
100
AcDbXrecord
280
     1
 40
1.25
  0
XRECORD
  5
1505
102
{ACAD_REACTORS
330
1502
102
}
330
1502
100
AcDbXrecord
280
     1
 40
1.570796326794896
  0
LAYOUT
  5
22
102
{ACAD_XDICTIONARY
360
1506
102
}
102
{ACAD_REACTORS
330
1A
102
}
330
1A
100
AcDbPlotSettings
  1

  2
none_device
  4
ANSI_A_(8.50_x_11.00_Inches)
  6

 40
6.349999904632567
 41
19.04999923706055
 42
6.350006103515625
 43
19.04998779296875
 44
215.8999938964844
 45
279.3999938964844
 46
0.0
 47
0.0
 48
0.0
 49
0.0
140
0.0
141
0.0
142
1.0
143
2.584895464708373
 70
 11952
 72
     0
 73
     1
 74
     0
  7

 75
     0
147
0.3868628397755418
148
0.0
149
0.0
100
AcDbLayout
  1
Model
 70
     1
 71
     0
 10
0.0
 20
0.0
 11
12.0
 21
9.0
 12
0.0
 22
0.0
 32
0.0
 14
0.0
 24
0.0
 34
0.0
 15
0.0
 25
0.0
 35
0.0
146
0.0
 13
0.0
 23
0.0
 33
0.0
 16
1.0
 26
0.0
 36
0.0
 17
0.0
 27
1.0
 37
0.0
 76
     0
330
1F
331
94
  0
LAYOUT
  5
59
102
{ACAD_XDICTIONARY
360
1508
102
}
102
{ACAD_REACTORS
330
1A
102
}
330
1A
100
AcDbPlotSettings
  1

  2
None
  4

  6

 40
0.0
 41
0.0
 42
0.0
 43
0.0
 44
0.0
 45
0.0
 46
0.0
 47
0.0
 48
0.0
 49
0.0
140
0.0
141
0.0
142
1.0
143
1.0
 70
   688
 72
     0
 73
     0
 74
     5
  7

 75
    16
147
1.0
148
0.0
149
0.0
100
AcDbLayout
  1
レイアウト1
 70
     1
 71
     1
 10
0.0
 20
0.0
 11
12.0
 21
9.0
 12
0.0
 22
0.0
 32
0.0
 14
0.0
 24
0.0
 34
0.0
 15
0.0
 25
0.0
 35
0.0
146
0.0
 13
0.0
 23
0.0
 33
0.0
 16
1.0
 26
0.0
 36
0.0
 17
0.0
 27
1.0
 37
0.0
 76
     0
330
58
  0
LAYOUT
  5
5E
102
{ACAD_XDICTIONARY
360
150A
102
}
102
{ACAD_REACTORS
330
1A
102
}
330
1A
100
AcDbPlotSettings
  1

  2
None
  4

  6

 40
0.0
 41
0.0
 42
0.0
 43
0.0
 44
0.0
 45
0.0
 46
0.0
 47
0.0
 48
0.0
 49
0.0
140
0.0
141
0.0
142
1.0
143
1.0
 70
   688
 72
     0
 73
     0
 74
     5
  7

 75
    16
147
1.0
148
0.0
149
0.0
100
AcDbLayout
  1
レイアウト2
 70
     1
 71
     2
 10
0.0
 20
0.0
 11
12.0
 21
9.0
 12
0.0
 22
0.0
 32
0.0
 14
0.0
 24
0.0
 34
0.0
 15
0.0
 25
0.0
 35
0.0
146
0.0
 13
0.0
 23
0.0
 33
0.0
 16
1.0
 26
0.0
 36
0.0
 17
0.0
 27
1.0
 37
0.0
 76
     0
330
5D
  0
MATERIAL
  5
97
102
{ACAD_XDICTIONARY
360
747
102
}
102
{ACAD_REACTORS
330
72
102
}
330
72
100
AcDbMaterial
  1
ByBlock
  0
MATERIAL
  5
96
102
{ACAD_XDICTIONARY
360
745
102
}
102
{ACAD_REACTORS
330
72
102
}
330
72
100
AcDbMaterial
  1
ByLayer
  0
MATERIAL
  5
98
102
{ACAD_XDICTIONARY
360
749
102
}
102
{ACAD_REACTORS
330
72
102
}
330
72
100
AcDbMaterial
  1
Global
  0
MLEADERSTYLE
  5
169
102
{ACAD_REACTORS
330
168
102
}
330
168
100
AcDbMLeaderStyle
170
     2
171
     1
172
     0
 90
        2
 40
0.0
 41
0.0
173
     1
 91
-1056964608
340
14
 92
       -2
290
     1
 42
2.0
291
     1
 43
0.36
  3
Standard
 44
4.0
300

342
11
174
     1
178
     6
175
     1
176
     0
 93
-1056964608
 45
4.0
292
     0
297
     0
 46
4.0
 94
-1056964608
 47
1.0
 49
1.0
140
1.0
293
     1
141
0.0
294
     1
177
     0
142
1.0
295
     0
296
     0
143
0.125
1001
ACAD
1000
AcRTDxfName
1000
MLEADERSTYLE
1001
ACAD_MLEADERVER
1070
     2
  0
MLINESTYLE
  5
18
102
{ACAD_REACTORS
330
17
102
}
330
17
100
AcDbMlineStyle
  2
STANDARD
 70
     0
  3

 62
   256
 51
90.0
 52
90.0
 71
     2
 49
0.5
 62
   256
  6
BYLAYER
 49
-0.5
 62
   256
  6
BYLAYER
  0
ACDBPLACEHOLDER
  5
F
102
{ACAD_REACTORS
330
E
102
}
330
E
  0
SCALE
  5
157
102
{ACAD_REACTORS
330
156
102
}
330
156
100
AcDbScale
 70
     0
300
1:1
140
1.0
141
1.0
290
     1
1001
ACAD
1000
AcRTDxfName
1000
SCALE
  0
SCALE
  5
158
102
{ACAD_REACTORS
330
156
102
}
330
156
100
AcDbScale
 70
     0
300
1:2
140
1.0
141
2.0
290
     0
1001
ACAD
1000
AcRTDxfName
1000
SCALE
  0
SCALE
  5
159
102
{ACAD_REACTORS
330
156
102
}
330
156
100
AcDbScale
 70
     0
300
1:4
140
1.0
141
4.0
290
     0
1001
ACAD
1000
AcRTDxfName
1000
SCALE
  0
SCALE
  5
15A
102
{ACAD_REACTORS
330
156
102
}
330
156
100
AcDbScale
 70
     0
300
1:5
140
1.0
141
5.0
290
     0
1001
ACAD
1000
AcRTDxfName
1000
SCALE
  0
SCALE
  5
15B
102
{ACAD_REACTORS
330
156
102
}
330
156
100
AcDbScale
 70
     0
300
1:8
140
1.0
141
8.0
290
     0
1001
ACAD
1000
AcRTDxfName
1000
SCALE
  0
SCALE
  5
15C
102
{ACAD_REACTORS
330
156
102
}
330
156
100
AcDbScale
 70
     0
300
1:10
140
1.0
141
10.0
290
     0
1001
ACAD
1000
AcRTDxfName
1000
SCALE
  0
SCALE
  5
15D
102
{ACAD_REACTORS
330
156
102
}
330
156
100
AcDbScale
 70
     0
300
1:16
140
1.0
141
16.0
290
     0
1001
ACAD
1000
AcRTDxfName
1000
SCALE
  0
SCALE
  5
15E
102
{ACAD_REACTORS
330
156
102
}
330
156
100
AcDbScale
 70
     0
300
1:20
140
1.0
141
20.0
290
     0
1001
ACAD
1000
AcRTDxfName
1000
SCALE
  0
SCALE
  5
15F
102
{ACAD_REACTORS
330
156
102
}
330
156
100
AcDbScale
 70
     0
300
1:30
140
1.0
141
30.0
290
     0
1001
ACAD
1000
AcRTDxfName
1000
SCALE
  0
SCALE
  5
160
102
{ACAD_REACTORS
330
156
102
}
330
156
100
AcDbScale
 70
     0
300
1:40
140
1.0
141
40.0
290
     0
1001
ACAD
1000
AcRTDxfName
1000
SCALE
  0
SCALE
  5
161
102
{ACAD_REACTORS
330
156
102
}
330
156
100
AcDbScale
 70
     0
300
1:50
140
1.0
141
50.0
290
     0
1001
ACAD
1000
AcRTDxfName
1000
SCALE
  0
SCALE
  5
162
102
{ACAD_REACTORS
330
156
102
}
330
156
100
AcDbScale
 70
     0
300
1:100
140
1.0
141
100.0
290
     0
1001
ACAD
1000
AcRTDxfName
1000
SCALE
  0
SCALE
  5
163
102
{ACAD_REACTORS
330
156
102
}
330
156
100
AcDbScale
 70
     0
300
2:1
140
2.0
141
1.0
290
     0
1001
ACAD
1000
AcRTDxfName
1000
SCALE
  0
SCALE
  5
164
102
{ACAD_REACTORS
330
156
102
}
330
156
100
AcDbScale
 70
     0
300
4:1
140
4.0
141
1.0
290
     0
1001
ACAD
1000
AcRTDxfName
1000
SCALE
  0
SCALE
  5
165
102
{ACAD_REACTORS
330
156
102
}
330
156
100
AcDbScale
 70
     0
300
8:1
140
8.0
141
1.0
290
     0
1001
ACAD
1000
AcRTDxfName
1000
SCALE
  0
SCALE
  5
166
102
{ACAD_REACTORS
330
156
102
}
330
156
100
AcDbScale
 70
     0
300
10:1
140
10.0
141
1.0
290
     0
1001
ACAD
1000
AcRTDxfName
1000
SCALE
  0
SCALE
  5
167
102
{ACAD_REACTORS
330
156
102
}
330
156
100
AcDbScale
 70
     0
300
100:1
140
100.0
141
1.0
290
     0
1001
ACAD
1000
AcRTDxfName
1000
SCALE
  0
TABLESTYLE
  5
87
102
{ACAD_XDICTIONARY
360
736
102
}
102
{ACAD_REACTORS
330
86
102
}
330
86
100
AcDbTableStyle
  3
Standard
 70
     0
 71
     0
 40
0.06
 41
0.06
280
     0
281
     0
  7
Standard
140
0.18
170
     2
 62
     0
 63
     7
283
     0
274
    -2
284
     1
 64
     0
275
    -2
285
     1
 65
     0
276
    -2
286
     1
 66
     0
277
    -2
287
     1
 67
     0
278
    -2
288
     1
 68
     0
279
    -2
289
     1
 69
     0
  7
Standard
140
0.25
170
     5
 62
     0
 63
     7
283
     0
274
    -2
284
     1
 64
     0
275
    -2
285
     1
 65
     0
276
    -2
286
     1
 66
     0
277
    -2
287
     1
 67
     0
278
    -2
288
     1
 68
     0
279
    -2
289
     1
 69
     0
  7
Standard
140
0.18
170
     5
 62
     0
 63
     7
283
     0
274
    -2
284
     1
 64
     0
275
    -2
285
     1
 65
     0
276
    -2
286
     1
 66
     0
277
    -2
287
     1
 67
     0
278
    -2
288
     1
 68
     0
279
    -2
289
     1
 69
     0
  0
TABLESTYLE
  5
1201
102
{ACAD_XDICTIONARY
360
1202
102
}
102
{ACAD_REACTORS
330
86
102
}
330
86
100
AcDbTableStyle
  3
Standard
 70
     1
 71
     0
 40
1.5
 41
0.5
280
     0
281
     0
  7
高3.2
140
0.18
170
     7
 62
     3
 63
     7
283
     0
274
    -2
284
     1
 64
     3
275
    -2
285
     1
 65
     7
276
    -2
286
     1
 66
     3
277
    -2
287
     1
 67
     3
278
    -2
288
     1
 68
     7
279
    -2
289
     1
 69
     3
  7
高3.2
140
0.25
170
     8
 62
     3
 63
     7
283
     0
274
    -2
284
     1
 64
     0
275
    -2
285
     1
 65
     0
276
    -2
286
     1
 66
     0
277
    -2
287
     1
 67
     0
278
    -2
288
     1
 68
     0
279
    -2
289
     1
 69
     0
  7
高3.2
140
0.18
170
     7
 62
     3
 63
     7
283
     0
274
    -2
284
     1
 64
     3
275
    -2
285
     1
 65
     7
276
    -2
286
     1
 66
     3
277
    -2
287
     1
 67
     3
278
    -2
288
     1
 68
     7
279
    -2
289
     1
 69
     3
  0
VISUALSTYLE
  5
9F
102
{ACAD_XDICTIONARY
360
1517
102
}
102
{ACAD_REACTORS
330
99
102
}
330
99
100
AcDbVisualStyle
  2

 70
     4
 71
     0
 72
     2
 73
     1
 90
        0
 40
-0.6
 41
-30.0
 62
     5
 63
     7
 74
     1
 91
        4
 64
     7
 65
   257
 75
     1
175
     1
 42
1.0
 92
        0
 66
   257
 43
1.0
 76
     1
 77
     6
 78
     2
 67
     7
 79
     5
170
     0
171
     0
290
     0
174
     0
 93
        1
 44
0.0
173
     0
291
     0
 45
0.0
1001
ACAD
1000
AcDbSavedByObjectVersion
1070
     0
  0
VISUALSTYLE
  5
A1
102
{ACAD_XDICTIONARY
360
151B
102
}
102
{ACAD_REACTORS
330
99
102
}
330
99
100
AcDbVisualStyle
  2

 70
     6
 71
     1
 72
     2
 73
     2
 90
        0
 40
-0.6
 41
-30.0
 62
     5
 63
     7
 74
     2
 91
        2
 64
     7
 65
   257
 75
     2
175
     1
 42
40.0
 92
        0
 66
   257
 43
1.0
 76
     1
 77
     6
 78
     2
 67
     7
 79
     3
170
     0
171
     0
290
     0
174
     0
 93
        1
 44
0.0
173
     0
291
     0
 45
0.0
1001
ACAD
1000
AcDbSavedByObjectVersion
1070
     0
  0
VISUALSTYLE
  5
A0
102
{ACAD_XDICTIONARY
360
1519
102
}
102
{ACAD_REACTORS
330
99
102
}
330
99
100
AcDbVisualStyle
  2

 70
     5
 71
     0
 72
     2
 73
     1
 90
        0
 40
-0.6
 41
-30.0
 62
     5
 63
     7
 74
     1
 91
        4
 64
     7
 65
   257
 75
     1
175
     1
 42
1.0
 92
        0
 66
   257
 43
1.0
 76
     1
 77
     6
 78
     2
 67
     7
 79
     5
170
     0
171
     0
290
     0
174
     0
 93
        1
 44
0.0
173
     0
291
     0
 45
0.0
1001
ACAD
1000
AcDbSavedByObjectVersion
1070
     0
  0
VISUALSTYLE
  5
9E
102
{ACAD_XDICTIONARY
360
1515
102
}
102
{ACAD_REACTORS
330
99
102
}
330
99
100
AcDbVisualStyle
  2

 70
     7
 71
     1
 72
     0
 73
     1
 90
        0
 40
-0.6
 41
-30.0
 62
     5
 63
     7
 74
     0
 91
        4
 64
     7
 65
   257
 75
     1
175
     1
 42
1.0
 92
        8
 66
     7
 43
1.0
 76
     1
 77
     6
 78
     2
 67
     7
 79
     5
170
     0
171
     0
290
     0
174
     0
 93
        1
 44
0.0
173
     0
291
     1
 45
0.0
1001
ACAD
1000
AcDbSavedByObjectVersion
1070
     0
  0
VISUALSTYLE
  5
A5
102
{ACAD_XDICTIONARY
360
1523
102
}
102
{ACAD_REACTORS
330
99
102
}
330
99
100
AcDbVisualStyle
  2

 70
    12
 71
     2
 72
     2
 73
     1
 90
        0
 40
-0.6
 41
-30.0
 62
     5
 63
     7
 74
     1
 91
        4
 64
     7
 65
   257
 75
     1
175
     1
 42
1.0
 92
        8
 66
     7
 43
1.0
 76
     1
 77
     6
 78
     2
 67
     7
 79
     5
170
     0
171
     0
290
     0
174
     0
 93
        1
 44
50.0
173
     0
291
     1
 45
0.0
1001
ACAD
1000
AcDbSavedByObjectVersion
1070
     0
  0
VISUALSTYLE
  5
A9
102
{ACAD_XDICTIONARY
360
152B
102
}
102
{ACAD_REACTORS
330
99
102
}
330
99
100
AcDbVisualStyle
  2

 70
    16
 71
     2
 72
     2
 73
     3
 90
        0
 40
-0.6
 41
-30.0
 62
     5
 63
     8
 74
     1
 91
        4
 64
     7
 65
   257
 75
     1
175
     1
 42
1.0
 92
        8
 66
     8
 43
1.0
 76
     1
 77
     6
 78
     2
 67
     7
 79
     5
170
     0
171
     0
290
     0
174
     0
 93
        1
 44
0.0
173
     0
291
     1
 45
0.0
1001
ACAD
1000
AcDbSavedByObjectVersion
1070
     0
  0
VISUALSTYLE
  5
A2
102
{ACAD_XDICTIONARY
360
151D
102
}
102
{ACAD_REACTORS
330
99
102
}
330
99
100
AcDbVisualStyle
  2

 70
     9
 71
     3
 72
     2
 73
     1
 90
        0
 40
-0.6
 41
-30.0
 62
     5
 63
     7
 74
     2
 91
        2
 64
     7
 65
   257
 75
     1
175
     1
 42
40.0
 92
        8
 66
     7
 43
1.0
 76
     1
 77
     6
 78
     2
 67
     7
 79
     3
170
     0
171
     0
290
     0
174
     0
 93
        1
 44
0.0
173
     0
291
     0
 45
0.0
1001
ACAD
1000
AcDbSavedByObjectVersion
1070
     0
  0
VISUALSTYLE
  5
A4
102
{ACAD_XDICTIONARY
360
1521
102
}
102
{ACAD_REACTORS
330
99
102
}
330
99
100
AcDbVisualStyle
  2

 70
    11
 71
     2
 72
     2
 73
     1
 90
        0
 40
-0.6
 41
-30.0
 62
     5
 63
     7
 74
     1
 91
        4
 64
     7
 65
   257
 75
     1
175
     1
 42
1.0
 92
        8
 66
     7
 43
1.0
 76
     1
 77
     6
 78
     2
 67
     7
 79
     5
170
     0
171
     0
290
     0
174
     0
 93
        1
 44
-50.0
173
     0
291
     1
 45
0.0
1001
ACAD
1000
AcDbSavedByObjectVersion
1070
     0
  0
VISUALSTYLE
  5
155
102
{ACAD_XDICTIONARY
360
153F
102
}
102
{ACAD_REACTORS
330
99
102
}
330
99
100
AcDbVisualStyle
  2

 70
    22
 71
     2
 72
     2
 73
     0
 90
        0
 40
-0.6
 41
-30.0
 62
     5
 63
     7
 74
     1
 91
        4
 64
     7
 65
   257
 75
     1
175
     1
 42
1.0
 92
        8
 66
     7
 43
1.0
 76
     1
 77
     6
 78
     2
 67
     7
 79
     5
170
     0
171
     0
290
     0
174
     0
 93
        1
 44
0.0
173
     0
291
     1
 45
0.0
1001
ACAD
1000
AcDbSavedByObjectVersion
1070
     0
  0
VISUALSTYLE
  5
A8
102
{ACAD_XDICTIONARY
360
1529
102
}
102
{ACAD_REACTORS
330
99
102
}
330
99
100
AcDbVisualStyle
  2

 70
    15
 71
     2
 72
     2
 73
     1
 90
        0
 40
-0.6
 41
-30.0
 62
     5
 63
     7
 74
     1
 91
        4
 64
     7
 65
   257
 75
     1
175
     1
 42
1.0
 92
        8
 66
     7
 43
1.0
 76
     1
 77
     6
 78
     2
 67
     7
 79
     5
170
     0
171
     0
290
     0
174
     0
 93
        1
 44
0.0
173
     0
291
     1
 45
0.0
1001
ACAD
1000
AcDbSavedByObjectVersion
1070
     0
  0
VISUALSTYLE
  5
9A
102
{ACAD_XDICTIONARY
360
150D
102
}
102
{ACAD_REACTORS
330
99
102
}
330
99
100
AcDbVisualStyle
  2

 70
     0
 71
     2
 72
     1
 73
     1
 90
        2
 40
-0.6
 41
30.0
 62
     5
 63
     7
 74
     0
 91
        4
 64
     7
 65
   257
 75
     1
175
     1
 42
1.0
 92
        8
 66
     7
 43
1.0
 76
     1
 77
     6
 78
     2
 67
     7
 79
     5
170
     0
171
     0
290
     0
174
     0
 93
        1
 44
0.0
173
     0
291
     1
 45
0.0
1001
ACAD
1000
AcDbSavedByObjectVersion
1070
     0
  0
VISUALSTYLE
  5
9B
102
{ACAD_XDICTIONARY
360
150F
102
}
102
{ACAD_REACTORS
330
99
102
}
330
99
100
AcDbVisualStyle
  2

 70
     1
 71
     2
 72
     1
 73
     1
 90
        2
 40
-0.6
 41
30.0
 62
     5
 63
     7
 74
     1
 91
        4
 64
     7
 65
   257
 75
     1
175
     1
 42
1.0
 92
        0
 66
   257
 43
1.0
 76
     1
 77
     6
 78
     2
 67
     7
 79
     5
170
     0
171
     0
290
     0
174
     0
 93
        1
 44
0.0
173
     0
291
     1
 45
0.0
1001
ACAD
1000
AcDbSavedByObjectVersion
1070
     0
  0
VISUALSTYLE
  5
9C
102
{ACAD_XDICTIONARY
360
1511
102
}
102
{ACAD_REACTORS
330
99
102
}
330
99
100
AcDbVisualStyle
  2

 70
     2
 71
     2
 72
     2
 73
     1
 90
        2
 40
-0.6
 41
30.0
 62
     5
 63
     7
 74
     0
 91
        4
 64
     7
 65
   257
 75
     1
175
     1
 42
1.0
 92
        0
 66
     7
 43
1.0
 76
     1
 77
     6
 78
     2
 67
     7
 79
     5
170
     0
171
     0
290
     0
174
     0
 93
        1
 44
0.0
173
     0
291
     1
 45
0.0
1001
ACAD
1000
AcDbSavedByObjectVersion
1070
     0
  0
VISUALSTYLE
  5
9D
102
{ACAD_XDICTIONARY
360
1513
102
}
102
{ACAD_REACTORS
330
99
102
}
330
99
100
AcDbVisualStyle
  2

 70
     3
 71
     2
 72
     2
 73
     1
 90
        2
 40
-0.6
 41
30.0
 62
     5
 63
     7
 74
     1
 91
        4
 64
     7
 65
   257
 75
     1
175
     1
 42
1.0
 92
        0
 66
   257
 43
1.0
 76
     1
 77
     6
 78
     2
 67
     7
 79
     5
170
     0
171
     0
290
     0
174
     0
 93
        1
 44
0.0
173
     0
291
     1
 45
0.0
1001
ACAD
1000
AcDbSavedByObjectVersion
1070
     0
  0
VISUALSTYLE
  5
14D
102
{ACAD_XDICTIONARY
360
152F
102
}
102
{ACAD_REACTORS
330
99
102
}
330
99
100
AcDbVisualStyle
  2

 70
     6
 71
     1
 72
     2
 73
     2
 90
        0
 40
-0.6
 41
-30.0
 62
     5
 63
     7
 74
     2
 91
        2
 64
     7
 65
   257
 75
     2
175
     1
 42
40.0
 92
        0
 66
   257
 43
1.0
 76
     1
 77
     6
 78
     2
 67
     7
 79
     3
170
     0
171
     0
290
     0
174
     0
 93
        1
 44
0.0
173
     0
291
     0
 45
0.0
1001
ACAD
1000
AcDbSavedByObjectVersion
1070
     0
  0
VISUALSTYLE
  5
153
102
{ACAD_XDICTIONARY
360
153B
102
}
102
{ACAD_REACTORS
330
99
102
}
330
99
100
AcDbVisualStyle
  2

 70
    20
 71
     2
 72
     2
 73
     0
 90
        0
 40
-0.6
 41
-30.0
 62
     5
 63
     7
 74
     1
 91
        4
 64
     7
 65
   257
 75
     1
175
     1
 42
1.0
 92
       10
 66
     7
 43
1.0
 76
     1
 77
     6
 78
     2
 67
     7
 79
     5
170
     0
171
     0
290
     0
174
     0
 93
        1
 44
0.0
173
     0
291
     1
 45
0.0
1001
ACAD
1000
AcDbSavedByObjectVersion
1070
     0
  0
VISUALSTYLE
  5
A7
102
{ACAD_XDICTIONARY
360
1527
102
}
102
{ACAD_REACTORS
330
99
102
}
330
99
100
AcDbVisualStyle
  2

 70
    14
 71
     2
 72
     2
 73
     1
 90
        0
 40
-0.6
 41
-30.0
 62
     5
 63
     7
 74
     1
 91
        4
 64
     7
 65
   257
 75
     7
175
     7
 42
1.0
 92
        8
 66
     7
 43
1.0
 76
     1
 77
     6
 78
     2
 67
     7
 79
     5
170
     0
171
     0
290
     0
174
     0
 93
        1
 44
0.0
173
     0
291
     1
 45
0.0
1001
ACAD
1000
AcDbSavedByObjectVersion
1070
     0
  0
VISUALSTYLE
  5
154
102
{ACAD_XDICTIONARY
360
153D
102
}
102
{ACAD_REACTORS
330
99
102
}
330
99
100
AcDbVisualStyle
  2

 70
    21
 71
     2
 72
     2
 73
     0
 90
        0
 40
-0.6
 41
-30.0
 62
     5
 63
     7
 74
     1
 91
        4
 64
     7
 65
   257
 75
     1
175
     1
 42
1.0
 92
        9
 66
     7
 43
1.0
 76
     1
 77
     6
 78
     2
 67
     7
 79
     5
170
     0
171
     0
290
     0
174
     0
 93
        1
 44
0.0
173
     0
291
     1
 45
0.0
1001
ACAD
1000
AcDbSavedByObjectVersion
1070
     0
  0
VISUALSTYLE
  5
A3
102
{ACAD_XDICTIONARY
360
151F
102
}
102
{ACAD_REACTORS
330
99
102
}
330
99
100
AcDbVisualStyle
  2

 70
     8
 71
     2
 72
     2
 73
     1
 90
        0
 40
-0.6
 41
-30.0
 62
     5
 63
     7
 74
     1
 91
        0
 64
     7
 65
   257
 75
     1
175
     1
 42
1.0
 92
        8
 66
     8
 43
1.0
 76
     1
 77
     6
 78
     2
 67
     7
 79
     5
170
     0
171
     0
290
     0
174
     0
 93
       13
 44
0.0
173
     0
291
     0
 45
0.0
1001
ACAD
1000
AcDbSavedByObjectVersion
1070
     0
  0
VISUALSTYLE
  5
152
102
{ACAD_XDICTIONARY
360
1539
102
}
102
{ACAD_REACTORS
330
99
102
}
330
99
100
AcDbVisualStyle
  2

 70
    27
 71
     2
 72
     2
 73
     1
 90
        2
 40
-0.6
 41
30.0
 62
     5
 63
     7
 74
     0
 91
        4
 64
     7
 65
   257
 75
     1
175
     1
 42
1.0
 92
        8
 66
   257
 43
1.0
 76
     1
 77
     6
 78
     2
 67
     8
 79
     3
170
     0
171
     0
290
     0
174
     0
 93
        5
 44
0.0
173
     0
291
     0
 45
0.0
1001
ACAD
1000
AcDbSavedByObjectVersion
1070
     0
  0
VISUALSTYLE
  5
151
102
{ACAD_XDICTIONARY
360
1537
102
}
102
{ACAD_REACTORS
330
99
102
}
330
99
100
AcDbVisualStyle
  2

 70
    26
 71
     2
 72
     2
 73
     1
 90
        2
 40
-0.6
 41
30.0
 62
     5
 63
     7
 74
     1
 91
       10
 64
     7
 65
   257
 75
     2
175
     1
 42
1.0
 92
        8
 66
   257
 43
1.0
 76
     1
 77
     6
 78
     2
 67
     7
 79
     3
170
     0
171
     0
290
     0
174
     0
 93
        5
 44
0.0
173
     0
291
     0
 45
0.0
1001
ACAD
1000
AcDbSavedByObjectVersion
1070
     0
  0
VISUALSTYLE
  5
14E
102
{ACAD_XDICTIONARY
360
1531
102
}
102
{ACAD_REACTORS
330
99
102
}
330
99
100
AcDbVisualStyle
  2

 70
    23
 71
     2
 72
     2
 73
     3
 90
        0
 40
-0.6
 41
-30.0
 62
     5
 63
     7
 74
     2
 91
        2
 64
     7
 65
     7
 75
     1
175
     1
 42
40.0
 92
        8
 66
     7
 43
1.0
 76
     1
 77
     6
 78
     2
 67
     7
 79
     3
170
     0
171
     0
290
     0
174
     0
 93
        1
 44
0.0
173
     0
291
     0
 45
0.0
1001
ACAD
1000
AcDbSavedByObjectVersion
1070
     0
  0
VISUALSTYLE
  5
14F
102
{ACAD_XDICTIONARY
360
1533
102
}
102
{ACAD_REACTORS
330
99
102
}
330
99
100
AcDbVisualStyle
  2

 70
    24
 71
     1
 72
     2
 73
     2
 90
        0
 40
-0.6
 41
-30.0
 62
     5
 63
     7
 74
     2
 91
        2
 64
     7
 65
     7
 75
     1
175
     1
 42
40.0
 92
       11
 66
     7
 43
1.0
 76
     1
 77
     6
 78
     2
 67
     7
 79
     6
170
     0
171
     0
290
     0
174
     0
 93
        1
 44
0.0
173
     0
291
     0
 45
0.0
1001
ACAD
1000
AcDbSavedByObjectVersion
1070
     0
  0
VISUALSTYLE
  5
A6
102
{ACAD_XDICTIONARY
360
1525
102
}
102
{ACAD_REACTORS
330
99
102
}
330
99
100
AcDbVisualStyle
  2

 70
    13
 71
     2
 72
     2
 73
     1
 90
        0
 40
-0.6
 41
-30.0
 62
     5
 63
     7
 74
     1
 91
        4
 64
     7
 65
   257
 75
     1
175
     1
 42
1.0
 92
       12
 66
     7
 43
1.0
 76
     1
 77
     6
 78
     2
 67
     7
 79
     5
170
     0
171
     0
290
     0
174
     0
 93
        1
 44
0.0
173
     0
291
     1
 45
0.0
1001
ACAD
1000
AcDbSavedByObjectVersion
1070
     0
  0
VISUALSTYLE
  5
14C
102
{ACAD_XDICTIONARY
360
152D
102
}
102
{ACAD_REACTORS
330
99
102
}
330
99
100
AcDbVisualStyle
  2

 70
     5
 71
     0
 72
     2
 73
     0
 90
        0
 40
-0.6
 41
-30.0
 62
     5
 63
     7
 74
     1
 91
        4
 64
     7
 65
   257
 75
     1
175
     1
 42
1.0
 92
        0
 66
   257
 43
1.0
 76
     1
 77
     6
 78
     2
 67
     7
 79
     3
170
     0
171
     0
290
     0
174
     0
 93
        1
 44
0.0
173
     0
291
     0
 45
0.0
1001
ACAD
1000
AcDbSavedByObjectVersion
1070
     0
  0
VISUALSTYLE
  5
150
102
{ACAD_XDICTIONARY
360
1535
102
}
102
{ACAD_REACTORS
330
99
102
}
330
99
100
AcDbVisualStyle
  2

 70
    25
 71
     2
 72
     2
 73
     1
 90
        1
 40
0.5
 41
-30.0
 62
     5
 63
     7
 74
     1
 91
        0
 64
     7
 65
   257
 75
     1
175
     1
 42
1.0
 92
        8
 66
     7
 43
1.0
 76
     1
 77
     6
 78
     2
 67
     7
 79
     3
170
     0
171
     0
290
     0
174
     0
 93
       13
 44
0.0
173
     0
291
     0
 45
0.0
1001
ACAD
1000
AcDbSavedByObjectVersion
1070
     0
  0
DICTIONARYVAR
  5
732
102
{ACAD_REACTORS
330
66
102
}
330
66
100
DictionaryVariables
280
     0
  1
1:1
  0
DICTIONARYVAR
  5
731
102
{ACAD_REACTORS
330
66
102
}
330
66
100
DictionaryVariables
280
     0
  1
STANDARD
  0
DICTIONARYVAR
  5
89
102
{ACAD_REACTORS
330
66
102
}
330
66
100
DictionaryVariables
280
     0
  1
STANDARD
  0
DICTIONARYVAR
  5
67
102
{ACAD_REACTORS
330
66
102
}
330
66
100
DictionaryVariables
280
     0
  1
2
  0
DICTIONARYVAR
  5
6B
102
{ACAD_REACTORS
330
66
102
}
330
66
100
DictionaryVariables
280
     0
  1
1
  0
DICTIONARYVAR
  5
734
102
{ACAD_REACTORS
330
66
102
}
330
66
100
DictionaryVariables
280
     0
  1
0
  0
DICTIONARYVAR
  5
733
102
{ACAD_REACTORS
330
66
102
}
330
66
100
DictionaryVariables
280
     0
  1
127
  0
DICTIONARYVAR
  5
1341
102
{ACAD_REACTORS
330
66
102
}
330
66
100
DictionaryVariables
280
     0
  1
2
  0
DICTIONARY
  5
1506
330
22
100
AcDbDictionary
280
     1
281
     1
  3
ACAD_XREC_ROUNDTRIP
360
1507
  0
DICTIONARY
  5
1508
330
59
100
AcDbDictionary
280
     1
281
     1
  3
ACAD_XREC_ROUNDTRIP
360
1509
  0
DICTIONARY
  5
150A
330
5E
100
AcDbDictionary
280
     1
281
     1
  3
ACAD_XREC_ROUNDTRIP
360
150B
  0
DICTIONARY
  5
747
330
97
100
AcDbDictionary
280
     1
281
     1
  3
ACAD_XREC_ROUNDTRIP
360
748
  0
DICTIONARY
  5
745
330
96
100
AcDbDictionary
280
     1
281
     1
  3
ACAD_XREC_ROUNDTRIP
360
746
  0
DICTIONARY
  5
749
330
98
100
AcDbDictionary
280
     1
281
     1
  3
ACAD_XREC_ROUNDTRIP
360
74A
  0
DICTIONARY
  5
736
330
87
100
AcDbDictionary
280
     1
281
     1
  3
ACAD_ROUNDTRIP_2008_TABLESTYLE_CELLSTYLEMAP
360
14FE
  3
ACAD_XREC_ROUNDTRIP
360
150C
  0
DICTIONARY
  5
1202
330
1201
100
AcDbDictionary
280
     1
281
     1
  3
ACAD_ROUNDTRIP_2008_TABLESTYLE_CELLSTYLEMAP
360
14FF
  3
ACAD_XREC_ROUNDTRIP
360
1541
  0
DICTIONARY
  5
1517
330
9F
100
AcDbDictionary
280
     1
281
     1
  3
ACAD_XREC_ROUNDTRIP
360
1518
  0
DICTIONARY
  5
151B
330
A1
100
AcDbDictionary
280
     1
281
     1
  3
ACAD_XREC_ROUNDTRIP
360
151C
  0
DICTIONARY
  5
1519
330
A0
100
AcDbDictionary
280
     1
281
     1
  3
ACAD_XREC_ROUNDTRIP
360
151A
  0
DICTIONARY
  5
1515
330
9E
100
AcDbDictionary
280
     1
281
     1
  3
ACAD_XREC_ROUNDTRIP
360
1516
  0
DICTIONARY
  5
1523
330
A5
100
AcDbDictionary
280
     1
281
     1
  3
ACAD_XREC_ROUNDTRIP
360
1524
  0
DICTIONARY
  5
152B
330
A9
100
AcDbDictionary
280
     1
281
     1
  3
ACAD_XREC_ROUNDTRIP
360
152C
  0
DICTIONARY
  5
151D
330
A2
100
AcDbDictionary
280
     1
281
     1
  3
ACAD_XREC_ROUNDTRIP
360
151E
  0
DICTIONARY
  5
1521
330
A4
100
AcDbDictionary
280
     1
281
     1
  3
ACAD_XREC_ROUNDTRIP
360
1522
  0
DICTIONARY
  5
153F
330
155
100
AcDbDictionary
280
     1
281
     1
  3
ACAD_XREC_ROUNDTRIP
360
1540
  0
DICTIONARY
  5
1529
330
A8
100
AcDbDictionary
280
     1
281
     1
  3
ACAD_XREC_ROUNDTRIP
360
152A
  0
DICTIONARY
  5
150D
330
9A
100
AcDbDictionary
280
     1
281
     1
  3
ACAD_XREC_ROUNDTRIP
360
150E
  0
DICTIONARY
  5
150F
330
9B
100
AcDbDictionary
280
     1
281
     1
  3
ACAD_XREC_ROUNDTRIP
360
1510
  0
DICTIONARY
  5
1511
330
9C
100
AcDbDictionary
280
     1
281
     1
  3
ACAD_XREC_ROUNDTRIP
360
1512
  0
DICTIONARY
  5
1513
330
9D
100
AcDbDictionary
280
     1
281
     1
  3
ACAD_XREC_ROUNDTRIP
360
1514
  0
DICTIONARY
  5
152F
330
14D
100
AcDbDictionary
280
     1
281
     1
  3
ACAD_XREC_ROUNDTRIP
360
1530
  0
DICTIONARY
  5
153B
330
153
100
AcDbDictionary
280
     1
281
     1
  3
ACAD_XREC_ROUNDTRIP
360
153C
  0
DICTIONARY
  5
1527
330
A7
100
AcDbDictionary
280
     1
281
     1
  3
ACAD_XREC_ROUNDTRIP
360
1528
  0
DICTIONARY
  5
153D
330
154
100
AcDbDictionary
280
     1
281
     1
  3
ACAD_XREC_ROUNDTRIP
360
153E
  0
DICTIONARY
  5
151F
330
A3
100
AcDbDictionary
280
     1
281
     1
  3
ACAD_XREC_ROUNDTRIP
360
1520
  0
DICTIONARY
  5
1539
330
152
100
AcDbDictionary
280
     1
281
     1
  3
ACAD_XREC_ROUNDTRIP
360
153A
  0
DICTIONARY
  5
1537
330
151
100
AcDbDictionary
280
     1
281
     1
  3
ACAD_XREC_ROUNDTRIP
360
1538
  0
DICTIONARY
  5
1531
330
14E
100
AcDbDictionary
280
     1
281
     1
  3
ACAD_XREC_ROUNDTRIP
360
1532
  0
DICTIONARY
  5
1533
330
14F
100
AcDbDictionary
280
     1
281
     1
  3
ACAD_XREC_ROUNDTRIP
360
1534
  0
DICTIONARY
  5
1525
330
A6
100
AcDbDictionary
280
     1
281
     1
  3
ACAD_XREC_ROUNDTRIP
360
1526
  0
DICTIONARY
  5
152D
330
14C
100
AcDbDictionary
280
     1
281
     1
  3
ACAD_XREC_ROUNDTRIP
360
152E
  0
DICTIONARY
  5
1535
330
150
100
AcDbDictionary
280
     1
281
     1
  3
ACAD_XREC_ROUNDTRIP
360
1536
  0
XRECORD
  5
1507
102
{ACAD_REACTORS
330
1506
102
}
330
1506
100
AcDbXrecord
280
     1
102
SHADEPLOT
 70
     0
102
SHADEPLOTRESLEVEL
 70
     2
102
SHADEPLOTCUSTOMDPI
 70
   300
  0
XRECORD
  5
1509
102
{ACAD_REACTORS
330
1508
102
}
330
1508
100
AcDbXrecord
280
     1
102
SHADEPLOT
 70
     0
102
SHADEPLOTRESLEVEL
 70
     2
102
SHADEPLOTCUSTOMDPI
 70
   300
  0
XRECORD
  5
150B
102
{ACAD_REACTORS
330
150A
102
}
330
150A
100
AcDbXrecord
280
     1
102
SHADEPLOT
 70
     0
102
SHADEPLOTRESLEVEL
 70
     2
102
SHADEPLOTCUSTOMDPI
 70
   300
  0
XRECORD
  5
748
102
{ACAD_REACTORS
330
747
102
}
330
747
100
AcDbXrecord
280
     1
102
MATERIAL
148
0.0
149
0.0
149
0.0
 93
        0
 94
      127
282
     0
 72
     1
 77
     1
171
     1
175
     1
179
     1
273
     0
  0
XRECORD
  5
746
102
{ACAD_REACTORS
330
745
102
}
330
745
100
AcDbXrecord
280
     1
102
MATERIAL
148
0.0
149
0.0
149
0.0
 93
        0
 94
      127
282
     0
 72
     1
 77
     1
171
     1
175
     1
179
     1
273
     0
  0
XRECORD
  5
74A
102
{ACAD_REACTORS
330
749
102
}
330
749
100
AcDbXrecord
280
     1
102
MATERIAL
148
0.0
149
0.0
149
0.0
 93
        0
 94
      127
282
     0
 72
     1
 77
     1
171
     1
175
     1
179
     1
273
     0
  0
CELLSTYLEMAP
  5
14FE
102
{ACAD_REACTORS
330
736
102
}
330
736
100
AcDbCellStyleMap
 90
        3
300
CELLSTYLE
  1
TABLEFORMAT_BEGIN
 90
        5
170
     1
 91
        0
 92
    32768
 62
   257
 93
        1
300
CONTENTFORMAT
  1
CONTENTFORMAT_BEGIN
 90
        0
 91
        0
 92
      512
 93
        0
300

 40
0.0
140
1.0
 94
        5
 62
     0
340
11
144
0.25
309
CONTENTFORMAT_END
171
     1
301
MARGIN
  1
CELLMARGIN_BEGIN
 40
0.06
 40
0.06
 40
0.06
 40
0.06
 40
0.18
 40
0.18
309
CELLMARGIN_END
 94
        6
 95
        1
302
GRIDFORMAT
  1
GRIDFORMAT_BEGIN
 90
        0
 91
        1
 62
     0
 92
       -2
340
0
 93
        0
 40
0.045
309
GRIDFORMAT_END
 95
        2
302
GRIDFORMAT
  1
GRIDFORMAT_BEGIN
 90
        0
 91
        1
 62
     0
 92
       -2
340
0
 93
        0
 40
0.045
309
GRIDFORMAT_END
 95
        4
302
GRIDFORMAT
  1
GRIDFORMAT_BEGIN
 90
        0
 91
        1
 62
     0
 92
       -2
340
0
 93
        0
 40
0.045
309
GRIDFORMAT_END
 95
        8
302
GRIDFORMAT
  1
GRIDFORMAT_BEGIN
 90
        0
 91
        1
 62
     0
 92
       -2
340
0
 93
        0
 40
0.045
309
GRIDFORMAT_END
 95
       16
302
GRIDFORMAT
  1
GRIDFORMAT_BEGIN
 90
        0
 91
        1
 62
     0
 92
       -2
340
0
 93
        0
 40
0.045
309
GRIDFORMAT_END
 95
       32
302
GRIDFORMAT
  1
GRIDFORMAT_BEGIN
 90
        0
 91
        1
 62
     0
 92
       -2
340
0
 93
        0
 40
0.045
309
GRIDFORMAT_END
309
TABLEFORMAT_END
  1
CELLSTYLE_BEGIN
 90
        1
 91
        1
300
_TITLE
309
CELLSTYLE_END
300
CELLSTYLE
  1
TABLEFORMAT_BEGIN
 90
        5
170
     1
 91
        0
 92
        0
 62
   257
 93
        1
300
CONTENTFORMAT
  1
CONTENTFORMAT_BEGIN
 90
        0
 91
        0
 92
      512
 93
        0
300

 40
0.0
140
1.0
 94
        5
 62
     0
340
11
144
0.18
309
CONTENTFORMAT_END
171
     1
301
MARGIN
  1
CELLMARGIN_BEGIN
 40
0.06
 40
0.06
 40
0.06
 40
0.06
 40
0.18
 40
0.18
309
CELLMARGIN_END
 94
        6
 95
        1
302
GRIDFORMAT
  1
GRIDFORMAT_BEGIN
 90
        0
 91
        1
 62
     0
 92
       -2
340
0
 93
        0
 40
0.045
309
GRIDFORMAT_END
 95
        2
302
GRIDFORMAT
  1
GRIDFORMAT_BEGIN
 90
        0
 91
        1
 62
     0
 92
       -2
340
0
 93
        0
 40
0.045
309
GRIDFORMAT_END
 95
        4
302
GRIDFORMAT
  1
GRIDFORMAT_BEGIN
 90
        0
 91
        1
 62
     0
 92
       -2
340
0
 93
        0
 40
0.045
309
GRIDFORMAT_END
 95
        8
302
GRIDFORMAT
  1
GRIDFORMAT_BEGIN
 90
        0
 91
        1
 62
     0
 92
       -2
340
0
 93
        0
 40
0.045
309
GRIDFORMAT_END
 95
       16
302
GRIDFORMAT
  1
GRIDFORMAT_BEGIN
 90
        0
 91
        1
 62
     0
 92
       -2
340
0
 93
        0
 40
0.045
309
GRIDFORMAT_END
 95
       32
302
GRIDFORMAT
  1
GRIDFORMAT_BEGIN
 90
        0
 91
        1
 62
     0
 92
       -2
340
0
 93
        0
 40
0.045
309
GRIDFORMAT_END
309
TABLEFORMAT_END
  1
CELLSTYLE_BEGIN
 90
        2
 91
        1
300
_HEADER
309
CELLSTYLE_END
300
CELLSTYLE
  1
TABLEFORMAT_BEGIN
 90
        5
170
     1
 91
        0
 92
        0
 62
   257
 93
        1
300
CONTENTFORMAT
  1
CONTENTFORMAT_BEGIN
 90
        0
 91
        0
 92
      512
 93
        0
300

 40
0.0
140
1.0
 94
        2
 62
     0
340
11
144
0.18
309
CONTENTFORMAT_END
171
     1
301
MARGIN
  1
CELLMARGIN_BEGIN
 40
0.06
 40
0.06
 40
0.06
 40
0.06
 40
0.18
 40
0.18
309
CELLMARGIN_END
 94
        6
 95
        1
302
GRIDFORMAT
  1
GRIDFORMAT_BEGIN
 90
        0
 91
        1
 62
     0
 92
       -2
340
0
 93
        0
 40
0.045
309
GRIDFORMAT_END
 95
        2
302
GRIDFORMAT
  1
GRIDFORMAT_BEGIN
 90
        0
 91
        1
 62
     0
 92
       -2
340
0
 93
        0
 40
0.045
309
GRIDFORMAT_END
 95
        4
302
GRIDFORMAT
  1
GRIDFORMAT_BEGIN
 90
        0
 91
        1
 62
     0
 92
       -2
340
0
 93
        0
 40
0.045
309
GRIDFORMAT_END
 95
        8
302
GRIDFORMAT
  1
GRIDFORMAT_BEGIN
 90
        0
 91
        1
 62
     0
 92
       -2
340
0
 93
        0
 40
0.045
309
GRIDFORMAT_END
 95
       16
302
GRIDFORMAT
  1
GRIDFORMAT_BEGIN
 90
        0
 91
        1
 62
     0
 92
       -2
340
0
 93
        0
 40
0.045
309
GRIDFORMAT_END
 95
       32
302
GRIDFORMAT
  1
GRIDFORMAT_BEGIN
 90
        0
 91
        1
 62
     0
 92
       -2
340
0
 93
        0
 40
0.045
309
GRIDFORMAT_END
309
TABLEFORMAT_END
  1
CELLSTYLE_BEGIN
 90
        3
 91
        2
300
_DATA
309
CELLSTYLE_END
  0
XRECORD
  5
150C
102
{ACAD_REACTORS
330
736
102
}
330
736
100
AcDbXrecord
280
     1
102
ACAD_ROUNDTRIP_PRE2007_TABLESTYLE
 90
      512
 91
        0
  1

 92
      512
 93
        0
  2

 94
      512
 95
        0
  3

  0
CELLSTYLEMAP
  5
14FF
102
{ACAD_REACTORS
330
1202
102
}
330
1202
100
AcDbCellStyleMap
 90
        3
300
CELLSTYLE
  1
TABLEFORMAT_BEGIN
 90
        5
170
     1
 91
        0
 92
    32768
 62
   257
 93
        1
300
CONTENTFORMAT
  1
CONTENTFORMAT_BEGIN
 90
        0
 91
        0
 92
      512
 93
        0
300

 40
0.0
140
1.0
 94
        8
 62
     3
340
11D
144
0.25
309
CONTENTFORMAT_END
171
     1
301
MARGIN
  1
CELLMARGIN_BEGIN
 40
0.5
 40
10.0
 40
0.06
 40
0.06
 40
0.18
 40
0.18
309
CELLMARGIN_END
 94
        6
 95
        1
302
GRIDFORMAT
  1
GRIDFORMAT_BEGIN
 90
        0
 91
        1
 62
     0
 92
       -2
340
0
 93
        0
 40
0.045
309
GRIDFORMAT_END
 95
        2
302
GRIDFORMAT
  1
GRIDFORMAT_BEGIN
 90
        0
 91
        1
 62
     0
 92
       -2
340
0
 93
        0
 40
0.045
309
GRIDFORMAT_END
 95
        4
302
GRIDFORMAT
  1
GRIDFORMAT_BEGIN
 90
        0
 91
        1
 62
     0
 92
       -2
340
0
 93
        0
 40
0.045
309
GRIDFORMAT_END
 95
        8
302
GRIDFORMAT
  1
GRIDFORMAT_BEGIN
 90
        0
 91
        1
 62
     0
 92
       -2
340
0
 93
        0
 40
0.045
309
GRIDFORMAT_END
 95
       16
302
GRIDFORMAT
  1
GRIDFORMAT_BEGIN
 90
        0
 91
        1
 62
     0
 92
       -2
340
0
 93
        0
 40
0.045
309
GRIDFORMAT_END
 95
       32
302
GRIDFORMAT
  1
GRIDFORMAT_BEGIN
 90
        0
 91
        1
 62
     0
 92
       -2
340
0
 93
        0
 40
0.045
309
GRIDFORMAT_END
309
TABLEFORMAT_END
  1
CELLSTYLE_BEGIN
 90
        1
 91
        1
300
_TITLE
309
CELLSTYLE_END
300
CELLSTYLE
  1
TABLEFORMAT_BEGIN
 90
        5
170
     1
 91
        0
 92
        0
 62
   257
 93
        1
300
CONTENTFORMAT
  1
CONTENTFORMAT_BEGIN
 90
        0
 91
        0
 92
      512
 93
        0
300

 40
0.0
140
1.0
 94
        7
 62
     3
340
11D
144
0.18
309
CONTENTFORMAT_END
171
     1
301
MARGIN
  1
CELLMARGIN_BEGIN
 40
0.5
 40
1.5
 40
0.06
 40
0.06
 40
0.18
 40
0.18
309
CELLMARGIN_END
 94
        6
 95
        1
302
GRIDFORMAT
  1
GRIDFORMAT_BEGIN
 90
        0
 91
        1
 62
     3
 92
       -2
340
14
 93
        0
 40
0.045
309
GRIDFORMAT_END
 95
        2
302
GRIDFORMAT
  1
GRIDFORMAT_BEGIN
 90
        0
 91
        1
 62
     7
 92
       -2
340
14
 93
        0
 40
0.045
309
GRIDFORMAT_END
 95
        4
302
GRIDFORMAT
  1
GRIDFORMAT_BEGIN
 90
        0
 91
        1
 62
     3
 92
       -2
340
14
 93
        0
 40
0.045
309
GRIDFORMAT_END
 95
        8
302
GRIDFORMAT
  1
GRIDFORMAT_BEGIN
 90
        0
 91
        1
 62
     3
 92
       -2
340
14
 93
        0
 40
0.045
309
GRIDFORMAT_END
 95
       16
302
GRIDFORMAT
  1
GRIDFORMAT_BEGIN
 90
        0
 91
        1
 62
     7
 92
       -2
340
14
 93
        0
 40
0.045
309
GRIDFORMAT_END
 95
       32
302
GRIDFORMAT
  1
GRIDFORMAT_BEGIN
 90
        0
 91
        1
 62
     3
 92
       -2
340
14
 93
        0
 40
0.045
309
GRIDFORMAT_END
309
TABLEFORMAT_END
  1
CELLSTYLE_BEGIN
 90
        2
 91
        1
300
_HEADER
309
CELLSTYLE_END
300
CELLSTYLE
  1
TABLEFORMAT_BEGIN
 90
        5
170
     1
 91
        0
 92
        0
 62
   257
 93
        1
300
CONTENTFORMAT
  1
CONTENTFORMAT_BEGIN
 90
        0
 91
        0
 92
      512
 93
        0
300

 40
0.0
140
1.0
 94
        7
 62
     3
340
11D
144
0.18
309
CONTENTFORMAT_END
171
     1
301
MARGIN
  1
CELLMARGIN_BEGIN
 40
0.5
 40
1.5
 40
0.06
 40
0.06
 40
0.18
 40
0.18
309
CELLMARGIN_END
 94
        6
 95
        1
302
GRIDFORMAT
  1
GRIDFORMAT_BEGIN
 90
        0
 91
        1
 62
     3
 92
       -2
340
14
 93
        0
 40
0.045
309
GRIDFORMAT_END
 95
        2
302
GRIDFORMAT
  1
GRIDFORMAT_BEGIN
 90
        0
 91
        1
 62
     7
 92
       -2
340
14
 93
        0
 40
0.045
309
GRIDFORMAT_END
 95
        4
302
GRIDFORMAT
  1
GRIDFORMAT_BEGIN
 90
        0
 91
        1
 62
     3
 92
       -2
340
14
 93
        0
 40
0.045
309
GRIDFORMAT_END
 95
        8
302
GRIDFORMAT
  1
GRIDFORMAT_BEGIN
 90
        0
 91
        1
 62
     3
 92
       -2
340
14
 93
        0
 40
0.045
309
GRIDFORMAT_END
 95
       16
302
GRIDFORMAT
  1
GRIDFORMAT_BEGIN
 90
        0
 91
        1
 62
     7
 92
       -2
340
14
 93
        0
 40
0.045
309
GRIDFORMAT_END
 95
       32
302
GRIDFORMAT
  1
GRIDFORMAT_BEGIN
 90
        0
 91
        1
 62
     3
 92
       -2
340
14
 93
        0
 40
0.045
309
GRIDFORMAT_END
309
TABLEFORMAT_END
  1
CELLSTYLE_BEGIN
 90
        3
 91
        2
300
_DATA
309
CELLSTYLE_END
  0
XRECORD
  5
1541
102
{ACAD_REACTORS
330
1202
102
}
330
1202
100
AcDbXrecord
280
     1
102
ACAD_ROUNDTRIP_PRE2007_TABLESTYLE
 90
      512
 91
        0
  1

 92
      512
 93
        0
  2

 94
      512
 95
        0
  3

  0
XRECORD
  5
1518
102
{ACAD_REACTORS
330
1517
102
}
330
1517
100
AcDbXrecord
280
     1
102
RTVSPropertyOp0
 70
     1
102
RTVSPropertyOp1
 70
     1
102
RTVSPropertyOp2
 70
     1
102
RTVSPropertyOp3
 70
     1
102
RTVSPropertyOp4
 70
     1
102
RTVSPropertyOp5
 70
     1
102
RTVSPropertyOp6
 70
     1
102
RTVSPropertyOp7
 70
     1
102
RTVSPropertyOp8
 70
     1
102
RTVSPropertyOp9
 70
     1
102
RTVSPropertyOp10
 70
     1
102
RTVSPropertyOp11
 70
     1
102
RTVSPropertyOp12
 70
     1
102
RTVSPropertyOp13
 70
     1
102
RTVSPropertyOp14
 70
     1
102
RTVSPropertyOp15
 70
     1
102
RTVSPropertyOp16
 70
     1
102
RTVSPropertyOp17
 70
     1
102
RTVSPropertyOp18
 70
     1
102
RTVSPropertyOp19
 70
     1
102
RTVSPropertyOp20
 70
     1
102
RTVSPropertyOp21
 70
     1
102
RTVSPropertyOp22
 70
     1
102
RTVSPropertyOp23
 70
     1
102
RTVSPropertyOp24
 70
     1
102
RTVSPropertyOp25
 70
     1
102
RTVSPropertyOp26
 70
     1
102
RTVSPropertyOp27
 70
     1
102
RTVSPropertyOp28
 70
     1
102
RTVSPropertyOp29
 70
     1
102
RTVSPropertyOp30
 70
     1
102
RTVSPropertyOp31
 70
     1
102
RTVSPropertyOp32
 70
     1
  0
XRECORD
  5
151C
102
{ACAD_REACTORS
330
151B
102
}
330
151B
100
AcDbXrecord
280
     1
102
RTVSPropertyOp0
 70
     1
102
RTVSPropertyOp1
 70
     1
102
RTVSPropertyOp2
 70
     1
102
RTVSPropertyOp3
 70
     1
102
RTVSPropertyOp4
 70
     1
102
RTVSPropertyOp5
 70
     1
102
RTVSPropertyOp6
 70
     1
102
RTVSPropertyOp7
 70
     1
102
RTVSPropertyOp8
 70
     1
102
RTVSPropertyOp9
 70
     1
102
RTVSPropertyOp10
 70
     1
102
RTVSPropertyOp11
 70
     1
102
RTVSPropertyOp12
 70
     1
102
RTVSPropertyOp13
 70
     1
102
RTVSPropertyOp14
 70
     1
102
RTVSPropertyOp15
 70
     1
102
RTVSPropertyOp16
 70
     1
102
RTVSPropertyOp17
 70
     1
102
RTVSPropertyOp18
 70
     1
102
RTVSPropertyOp19
 70
     1
102
RTVSPropertyOp20
 70
     1
102
RTVSPropertyOp21
 70
     1
102
RTVSPropertyOp22
 70
     1
102
RTVSPropertyOp23
 70
     1
102
RTVSPropertyOp24
 70
     1
102
RTVSPropertyOp25
 70
     1
102
RTVSPropertyOp26
 70
     1
102
RTVSPropertyOp27
 70
     1
102
RTVSPropertyOp28
 70
     1
102
RTVSPropertyOp29
 70
     1
102
RTVSPropertyOp30
 70
     1
102
RTVSPropertyOp31
 70
     1
102
RTVSPropertyOp32
 70
     1
  0
XRECORD
  5
151A
102
{ACAD_REACTORS
330
1519
102
}
330
1519
100
AcDbXrecord
280
     1
102
RTVSPropertyOp0
 70
     1
102
RTVSPropertyOp1
 70
     1
102
RTVSPropertyOp2
 70
     1
102
RTVSPropertyOp3
 70
     1
102
RTVSPropertyOp4
 70
     1
102
RTVSPropertyOp5
 70
     1
102
RTVSPropertyOp6
 70
     1
102
RTVSPropertyOp7
 70
     1
102
RTVSPropertyOp8
 70
     1
102
RTVSPropertyOp9
 70
     1
102
RTVSPropertyOp10
 70
     1
102
RTVSPropertyOp11
 70
     1
102
RTVSPropertyOp12
 70
     1
102
RTVSPropertyOp13
 70
     1
102
RTVSPropertyOp14
 70
     1
102
RTVSPropertyOp15
 70
     1
102
RTVSPropertyOp16
 70
     1
102
RTVSPropertyOp17
 70
     1
102
RTVSPropertyOp18
 70
     1
102
RTVSPropertyOp19
 70
     1
102
RTVSPropertyOp20
 70
     1
102
RTVSPropertyOp21
 70
     1
102
RTVSPropertyOp22
 70
     1
102
RTVSPropertyOp23
 70
     1
102
RTVSPropertyOp24
 70
     1
102
RTVSPropertyOp25
 70
     1
102
RTVSPropertyOp26
 70
     1
102
RTVSPropertyOp27
 70
     1
102
RTVSPropertyOp28
 70
     1
102
RTVSPropertyOp29
 70
     1
102
RTVSPropertyOp30
 70
     1
102
RTVSPropertyOp31
 70
     1
102
RTVSPropertyOp32
 70
     1
  0
XRECORD
  5
1516
102
{ACAD_REACTORS
330
1515
102
}
330
1515
100
AcDbXrecord
280
     1
102
RTVSPropertyOp0
 70
     1
102
RTVSPropertyOp1
 70
     1
102
RTVSPropertyOp2
 70
     1
102
RTVSPropertyOp3
 70
     1
102
RTVSPropertyOp4
 70
     1
102
RTVSPropertyOp5
 70
     1
102
RTVSPropertyOp6
 70
     1
102
RTVSPropertyOp7
 70
     1
102
RTVSPropertyOp8
 70
     1
102
RTVSPropertyOp9
 70
     1
102
RTVSPropertyOp10
 70
     1
102
RTVSPropertyOp11
 70
     1
102
RTVSPropertyOp12
 70
     1
102
RTVSPropertyOp13
 70
     1
102
RTVSPropertyOp14
 70
     1
102
RTVSPropertyOp15
 70
     1
102
RTVSPropertyOp16
 70
     1
102
RTVSPropertyOp17
 70
     1
102
RTVSPropertyOp18
 70
     1
102
RTVSPropertyOp19
 70
     1
102
RTVSPropertyOp20
 70
     1
102
RTVSPropertyOp21
 70
     1
102
RTVSPropertyOp22
 70
     1
102
RTVSPropertyOp23
 70
     1
102
RTVSPropertyOp24
 70
     1
102
RTVSPropertyOp25
 70
     1
102
RTVSPropertyOp26
 70
     1
102
RTVSPropertyOp27
 70
     1
102
RTVSPropertyOp28
 70
     1
102
RTVSPropertyOp29
 70
     1
102
RTVSPropertyOp30
 70
     1
102
RTVSPropertyOp31
 70
     1
102
RTVSPropertyOp32
 70
     1
  0
XRECORD
  5
1524
102
{ACAD_REACTORS
330
1523
102
}
330
1523
100
AcDbXrecord
280
     1
102
RTVSPropertyOp0
 70
     1
102
RTVSPropertyOp1
 70
     1
102
RTVSPropertyOp2
 70
     1
102
RTVSPropertyOp3
 70
     1
102
RTVSPropertyOp4
 70
     1
102
RTVSPropertyOp5
 70
     1
102
RTVSPropertyOp6
 70
     1
102
RTVSPropertyOp7
 70
     1
102
RTVSPropertyOp8
 70
     1
102
RTVSPropertyOp9
 70
     1
102
RTVSPropertyOp10
 70
     1
102
RTVSPropertyOp11
 70
     1
102
RTVSPropertyOp12
 70
     1
102
RTVSPropertyOp13
 70
     1
102
RTVSPropertyOp14
 70
     1
102
RTVSPropertyOp15
 70
     1
102
RTVSPropertyOp16
 70
     1
102
RTVSPropertyOp17
 70
     1
102
RTVSPropertyOp18
 70
     1
102
RTVSPropertyOp19
 70
     1
102
RTVSPropertyOp20
 70
     1
102
RTVSPropertyOp21
 70
     1
102
RTVSPropertyOp22
 70
     1
102
RTVSPropertyOp23
 70
     1
102
RTVSPropertyOp24
 70
     1
102
RTVSPropertyOp25
 70
     1
102
RTVSPropertyOp26
 70
     1
102
RTVSPropertyOp27
 70
     1
102
RTVSPropertyOp28
 70
     1
102
RTVSPropertyOp29
 70
     1
102
RTVSPropertyOp30
 70
     1
102
RTVSPropertyOp31
 70
     1
102
RTVSPropertyOp32
 70
     1
  0
XRECORD
  5
152C
102
{ACAD_REACTORS
330
152B
102
}
330
152B
100
AcDbXrecord
280
     1
102
RTVSPropertyOp0
 70
     1
102
RTVSPropertyOp1
 70
     1
102
RTVSPropertyOp2
 70
     1
102
RTVSPropertyOp3
 70
     1
102
RTVSPropertyOp4
 70
     1
102
RTVSPropertyOp5
 70
     1
102
RTVSPropertyOp6
 70
     1
102
RTVSPropertyOp7
 70
     1
102
RTVSPropertyOp8
 70
     1
102
RTVSPropertyOp9
 70
     1
102
RTVSPropertyOp10
 70
     1
102
RTVSPropertyOp11
 70
     1
102
RTVSPropertyOp12
 70
     1
102
RTVSPropertyOp13
 70
     1
102
RTVSPropertyOp14
 70
     1
102
RTVSPropertyOp15
 70
     1
102
RTVSPropertyOp16
 70
     1
102
RTVSPropertyOp17
 70
     1
102
RTVSPropertyOp18
 70
     1
102
RTVSPropertyOp19
 70
     1
102
RTVSPropertyOp20
 70
     1
102
RTVSPropertyOp21
 70
     1
102
RTVSPropertyOp22
 70
     1
102
RTVSPropertyOp23
 70
     1
102
RTVSPropertyOp24
 70
     1
102
RTVSPropertyOp25
 70
     1
102
RTVSPropertyOp26
 70
     1
102
RTVSPropertyOp27
 70
     1
102
RTVSPropertyOp28
 70
     1
102
RTVSPropertyOp29
 70
     1
102
RTVSPropertyOp30
 70
     1
102
RTVSPropertyOp31
 70
     1
102
RTVSPropertyOp32
 70
     1
  0
XRECORD
  5
151E
102
{ACAD_REACTORS
330
151D
102
}
330
151D
100
AcDbXrecord
280
     1
102
RTVSPropertyOp0
 70
     1
102
RTVSPropertyOp1
 70
     1
102
RTVSPropertyOp2
 70
     1
102
RTVSPropertyOp3
 70
     1
102
RTVSPropertyOp4
 70
     1
102
RTVSPropertyOp5
 70
     1
102
RTVSPropertyOp6
 70
     1
102
RTVSPropertyOp7
 70
     1
102
RTVSPropertyOp8
 70
     1
102
RTVSPropertyOp9
 70
     1
102
RTVSPropertyOp10
 70
     1
102
RTVSPropertyOp11
 70
     1
102
RTVSPropertyOp12
 70
     1
102
RTVSPropertyOp13
 70
     1
102
RTVSPropertyOp14
 70
     1
102
RTVSPropertyOp15
 70
     1
102
RTVSPropertyOp16
 70
     1
102
RTVSPropertyOp17
 70
     1
102
RTVSPropertyOp18
 70
     1
102
RTVSPropertyOp19
 70
     1
102
RTVSPropertyOp20
 70
     1
102
RTVSPropertyOp21
 70
     1
102
RTVSPropertyOp22
 70
     1
102
RTVSPropertyOp23
 70
     1
102
RTVSPropertyOp24
 70
     1
102
RTVSPropertyOp25
 70
     1
102
RTVSPropertyOp26
 70
     1
102
RTVSPropertyOp27
 70
     1
102
RTVSPropertyOp28
 70
     1
102
RTVSPropertyOp29
 70
     1
102
RTVSPropertyOp30
 70
     1
102
RTVSPropertyOp31
 70
     1
102
RTVSPropertyOp32
 70
     1
  0
XRECORD
  5
1522
102
{ACAD_REACTORS
330
1521
102
}
330
1521
100
AcDbXrecord
280
     1
102
RTVSPropertyOp0
 70
     1
102
RTVSPropertyOp1
 70
     1
102
RTVSPropertyOp2
 70
     1
102
RTVSPropertyOp3
 70
     1
102
RTVSPropertyOp4
 70
     1
102
RTVSPropertyOp5
 70
     1
102
RTVSPropertyOp6
 70
     1
102
RTVSPropertyOp7
 70
     1
102
RTVSPropertyOp8
 70
     1
102
RTVSPropertyOp9
 70
     1
102
RTVSPropertyOp10
 70
     1
102
RTVSPropertyOp11
 70
     1
102
RTVSPropertyOp12
 70
     1
102
RTVSPropertyOp13
 70
     1
102
RTVSPropertyOp14
 70
     1
102
RTVSPropertyOp15
 70
     1
102
RTVSPropertyOp16
 70
     1
102
RTVSPropertyOp17
 70
     1
102
RTVSPropertyOp18
 70
     1
102
RTVSPropertyOp19
 70
     1
102
RTVSPropertyOp20
 70
     1
102
RTVSPropertyOp21
 70
     1
102
RTVSPropertyOp22
 70
     1
102
RTVSPropertyOp23
 70
     1
102
RTVSPropertyOp24
 70
     1
102
RTVSPropertyOp25
 70
     1
102
RTVSPropertyOp26
 70
     1
102
RTVSPropertyOp27
 70
     1
102
RTVSPropertyOp28
 70
     1
102
RTVSPropertyOp29
 70
     1
102
RTVSPropertyOp30
 70
     1
102
RTVSPropertyOp31
 70
     1
102
RTVSPropertyOp32
 70
     1
  0
XRECORD
  5
1540
102
{ACAD_REACTORS
330
153F
102
}
330
153F
100
AcDbXrecord
280
     1
102
RTVSPropertyOp0
 70
     0
102
RTVSPropertyOp1
 70
     0
102
RTVSPropertyOp2
 70
     0
102
RTVSPropertyOp3
 70
     0
102
RTVSPropertyOp4
 70
     0
102
RTVSPropertyOp5
 70
     0
102
RTVSPropertyOp6
 70
     0
102
RTVSPropertyOp7
 70
     0
102
RTVSPropertyOp8
 70
     0
102
RTVSPropertyOp9
 70
     0
102
RTVSPropertyOp10
 70
     0
102
RTVSPropertyOp11
 70
     0
102
RTVSPropertyOp12
 70
     0
102
RTVSPropertyOp13
 70
     0
102
RTVSPropertyOp14
 70
     2
102
RTVSPropertyOp15
 70
     0
102
RTVSPropertyOp16
 70
     0
102
RTVSPropertyOp17
 70
     0
102
RTVSPropertyOp18
 70
     0
102
RTVSPropertyOp19
 70
     0
102
RTVSPropertyOp20
 70
     0
102
RTVSPropertyOp21
 70
     0
102
RTVSPropertyOp22
 70
     0
102
RTVSPropertyOp23
 70
     0
102
RTVSPropertyOp24
 70
     0
102
RTVSPropertyOp25
 70
     0
102
RTVSPropertyOp26
 70
     0
102
RTVSPropertyOp27
 70
     0
102
RTVSPropertyOp28
 70
     0
102
RTVSPropertyOp29
 70
     0
102
RTVSPropertyOp30
 70
     0
102
RTVSPropertyOp31
 70
     0
102
RTVSPropertyOp32
 70
     0
  0
XRECORD
  5
152A
102
{ACAD_REACTORS
330
1529
102
}
330
1529
100
AcDbXrecord
280
     1
102
RTVSPropertyOp0
 70
     1
102
RTVSPropertyOp1
 70
     1
102
RTVSPropertyOp2
 70
     1
102
RTVSPropertyOp3
 70
     1
102
RTVSPropertyOp4
 70
     1
102
RTVSPropertyOp5
 70
     1
102
RTVSPropertyOp6
 70
     1
102
RTVSPropertyOp7
 70
     1
102
RTVSPropertyOp8
 70
     1
102
RTVSPropertyOp9
 70
     1
102
RTVSPropertyOp10
 70
     1
102
RTVSPropertyOp11
 70
     1
102
RTVSPropertyOp12
 70
     1
102
RTVSPropertyOp13
 70
     1
102
RTVSPropertyOp14
 70
     1
102
RTVSPropertyOp15
 70
     1
102
RTVSPropertyOp16
 70
     1
102
RTVSPropertyOp17
 70
     1
102
RTVSPropertyOp18
 70
     1
102
RTVSPropertyOp19
 70
     1
102
RTVSPropertyOp20
 70
     1
102
RTVSPropertyOp21
 70
     1
102
RTVSPropertyOp22
 70
     1
102
RTVSPropertyOp23
 70
     1
102
RTVSPropertyOp24
 70
     1
102
RTVSPropertyOp25
 70
     1
102
RTVSPropertyOp26
 70
     1
102
RTVSPropertyOp27
 70
     1
102
RTVSPropertyOp28
 70
     1
102
RTVSPropertyOp29
 70
     1
102
RTVSPropertyOp30
 70
     1
102
RTVSPropertyOp31
 70
     1
102
RTVSPropertyOp32
 70
     1
  0
XRECORD
  5
150E
102
{ACAD_REACTORS
330
150D
102
}
330
150D
100
AcDbXrecord
280
     1
102
RTVSPropertyOp0
 70
     1
102
RTVSPropertyOp1
 70
     1
102
RTVSPropertyOp2
 70
     1
102
RTVSPropertyOp3
 70
     1
102
RTVSPropertyOp4
 70
     1
102
RTVSPropertyOp5
 70
     1
102
RTVSPropertyOp6
 70
     1
102
RTVSPropertyOp7
 70
     1
102
RTVSPropertyOp8
 70
     1
102
RTVSPropertyOp9
 70
     1
102
RTVSPropertyOp10
 70
     1
102
RTVSPropertyOp11
 70
     1
102
RTVSPropertyOp12
 70
     1
102
RTVSPropertyOp13
 70
     1
102
RTVSPropertyOp14
 70
     1
102
RTVSPropertyOp15
 70
     1
102
RTVSPropertyOp16
 70
     1
102
RTVSPropertyOp17
 70
     1
102
RTVSPropertyOp18
 70
     1
102
RTVSPropertyOp19
 70
     1
102
RTVSPropertyOp20
 70
     1
102
RTVSPropertyOp21
 70
     1
102
RTVSPropertyOp22
 70
     1
102
RTVSPropertyOp23
 70
     1
102
RTVSPropertyOp24
 70
     1
102
RTVSPropertyOp25
 70
     1
102
RTVSPropertyOp26
 70
     1
102
RTVSPropertyOp27
 70
     1
102
RTVSPropertyOp28
 70
     1
102
RTVSPropertyOp29
 70
     1
102
RTVSPropertyOp30
 70
     1
102
RTVSPropertyOp31
 70
     1
102
RTVSPropertyOp32
 70
     1
  0
XRECORD
  5
1510
102
{ACAD_REACTORS
330
150F
102
}
330
150F
100
AcDbXrecord
280
     1
102
RTVSPropertyOp0
 70
     1
102
RTVSPropertyOp1
 70
     1
102
RTVSPropertyOp2
 70
     1
102
RTVSPropertyOp3
 70
     1
102
RTVSPropertyOp4
 70
     1
102
RTVSPropertyOp5
 70
     1
102
RTVSPropertyOp6
 70
     1
102
RTVSPropertyOp7
 70
     1
102
RTVSPropertyOp8
 70
     1
102
RTVSPropertyOp9
 70
     1
102
RTVSPropertyOp10
 70
     1
102
RTVSPropertyOp11
 70
     1
102
RTVSPropertyOp12
 70
     1
102
RTVSPropertyOp13
 70
     1
102
RTVSPropertyOp14
 70
     1
102
RTVSPropertyOp15
 70
     1
102
RTVSPropertyOp16
 70
     1
102
RTVSPropertyOp17
 70
     1
102
RTVSPropertyOp18
 70
     1
102
RTVSPropertyOp19
 70
     1
102
RTVSPropertyOp20
 70
     1
102
RTVSPropertyOp21
 70
     1
102
RTVSPropertyOp22
 70
     1
102
RTVSPropertyOp23
 70
     1
102
RTVSPropertyOp24
 70
     1
102
RTVSPropertyOp25
 70
     1
102
RTVSPropertyOp26
 70
     1
102
RTVSPropertyOp27
 70
     1
102
RTVSPropertyOp28
 70
     1
102
RTVSPropertyOp29
 70
     1
102
RTVSPropertyOp30
 70
     1
102
RTVSPropertyOp31
 70
     1
102
RTVSPropertyOp32
 70
     1
  0
XRECORD
  5
1512
102
{ACAD_REACTORS
330
1511
102
}
330
1511
100
AcDbXrecord
280
     1
102
RTVSPropertyOp0
 70
     1
102
RTVSPropertyOp1
 70
     1
102
RTVSPropertyOp2
 70
     1
102
RTVSPropertyOp3
 70
     1
102
RTVSPropertyOp4
 70
     1
102
RTVSPropertyOp5
 70
     1
102
RTVSPropertyOp6
 70
     1
102
RTVSPropertyOp7
 70
     1
102
RTVSPropertyOp8
 70
     1
102
RTVSPropertyOp9
 70
     1
102
RTVSPropertyOp10
 70
     1
102
RTVSPropertyOp11
 70
     1
102
RTVSPropertyOp12
 70
     1
102
RTVSPropertyOp13
 70
     1
102
RTVSPropertyOp14
 70
     1
102
RTVSPropertyOp15
 70
     1
102
RTVSPropertyOp16
 70
     1
102
RTVSPropertyOp17
 70
     1
102
RTVSPropertyOp18
 70
     1
102
RTVSPropertyOp19
 70
     1
102
RTVSPropertyOp20
 70
     1
102
RTVSPropertyOp21
 70
     1
102
RTVSPropertyOp22
 70
     1
102
RTVSPropertyOp23
 70
     1
102
RTVSPropertyOp24
 70
     1
102
RTVSPropertyOp25
 70
     1
102
RTVSPropertyOp26
 70
     1
102
RTVSPropertyOp27
 70
     1
102
RTVSPropertyOp28
 70
     1
102
RTVSPropertyOp29
 70
     1
102
RTVSPropertyOp30
 70
     1
102
RTVSPropertyOp31
 70
     1
102
RTVSPropertyOp32
 70
     1
  0
XRECORD
  5
1514
102
{ACAD_REACTORS
330
1513
102
}
330
1513
100
AcDbXrecord
280
     1
102
RTVSPropertyOp0
 70
     1
102
RTVSPropertyOp1
 70
     1
102
RTVSPropertyOp2
 70
     1
102
RTVSPropertyOp3
 70
     1
102
RTVSPropertyOp4
 70
     1
102
RTVSPropertyOp5
 70
     1
102
RTVSPropertyOp6
 70
     1
102
RTVSPropertyOp7
 70
     1
102
RTVSPropertyOp8
 70
     1
102
RTVSPropertyOp9
 70
     1
102
RTVSPropertyOp10
 70
     1
102
RTVSPropertyOp11
 70
     1
102
RTVSPropertyOp12
 70
     1
102
RTVSPropertyOp13
 70
     1
102
RTVSPropertyOp14
 70
     1
102
RTVSPropertyOp15
 70
     1
102
RTVSPropertyOp16
 70
     1
102
RTVSPropertyOp17
 70
     1
102
RTVSPropertyOp18
 70
     1
102
RTVSPropertyOp19
 70
     1
102
RTVSPropertyOp20
 70
     1
102
RTVSPropertyOp21
 70
     1
102
RTVSPropertyOp22
 70
     1
102
RTVSPropertyOp23
 70
     1
102
RTVSPropertyOp24
 70
     1
102
RTVSPropertyOp25
 70
     1
102
RTVSPropertyOp26
 70
     1
102
RTVSPropertyOp27
 70
     1
102
RTVSPropertyOp28
 70
     1
102
RTVSPropertyOp29
 70
     1
102
RTVSPropertyOp30
 70
     1
102
RTVSPropertyOp31
 70
     1
102
RTVSPropertyOp32
 70
     1
  0
XRECORD
  5
1530
102
{ACAD_REACTORS
330
152F
102
}
330
152F
100
AcDbXrecord
280
     1
102
RTVSPropertyOp0
 70
     1
102
RTVSPropertyOp1
 70
     1
102
RTVSPropertyOp2
 70
     1
102
RTVSPropertyOp3
 70
     1
102
RTVSPropertyOp4
 70
     1
102
RTVSPropertyOp5
 70
     1
102
RTVSPropertyOp6
 70
     1
102
RTVSPropertyOp7
 70
     1
102
RTVSPropertyOp8
 70
     1
102
RTVSPropertyOp9
 70
     1
102
RTVSPropertyOp10
 70
     1
102
RTVSPropertyOp11
 70
     1
102
RTVSPropertyOp12
 70
     1
102
RTVSPropertyOp13
 70
     1
102
RTVSPropertyOp14
 70
     1
102
RTVSPropertyOp15
 70
     1
102
RTVSPropertyOp16
 70
     1
102
RTVSPropertyOp17
 70
     1
102
RTVSPropertyOp18
 70
     1
102
RTVSPropertyOp19
 70
     1
102
RTVSPropertyOp20
 70
     1
102
RTVSPropertyOp21
 70
     1
102
RTVSPropertyOp22
 70
     1
102
RTVSPropertyOp23
 70
     1
102
RTVSPropertyOp24
 70
     1
102
RTVSPropertyOp25
 70
     1
102
RTVSPropertyOp26
 70
     1
102
RTVSPropertyOp27
 70
     1
102
RTVSPropertyOp28
 70
     1
102
RTVSPropertyOp29
 70
     1
102
RTVSPropertyOp30
 70
     1
102
RTVSPropertyOp31
 70
     1
102
RTVSPropertyOp32
 70
     1
  0
XRECORD
  5
153C
102
{ACAD_REACTORS
330
153B
102
}
330
153B
100
AcDbXrecord
280
     1
102
RTVSPropertyOp0
 70
     0
102
RTVSPropertyOp1
 70
     0
102
RTVSPropertyOp2
 70
     0
102
RTVSPropertyOp3
 70
     0
102
RTVSPropertyOp4
 70
     0
102
RTVSPropertyOp5
 70
     0
102
RTVSPropertyOp6
 70
     0
102
RTVSPropertyOp7
 70
     0
102
RTVSPropertyOp8
 70
     0
102
RTVSPropertyOp9
 70
     0
102
RTVSPropertyOp10
 70
     0
102
RTVSPropertyOp11
 70
     0
102
RTVSPropertyOp12
 70
     0
102
RTVSPropertyOp13
 70
     0
102
RTVSPropertyOp14
 70
     2
102
RTVSPropertyOp15
 70
     0
102
RTVSPropertyOp16
 70
     0
102
RTVSPropertyOp17
 70
     0
102
RTVSPropertyOp18
 70
     0
102
RTVSPropertyOp19
 70
     0
102
RTVSPropertyOp20
 70
     0
102
RTVSPropertyOp21
 70
     0
102
RTVSPropertyOp22
 70
     0
102
RTVSPropertyOp23
 70
     0
102
RTVSPropertyOp24
 70
     0
102
RTVSPropertyOp25
 70
     0
102
RTVSPropertyOp26
 70
     0
102
RTVSPropertyOp27
 70
     0
102
RTVSPropertyOp28
 70
     0
102
RTVSPropertyOp29
 70
     0
102
RTVSPropertyOp30
 70
     0
102
RTVSPropertyOp31
 70
     0
102
RTVSPropertyOp32
 70
     0
  0
XRECORD
  5
1528
102
{ACAD_REACTORS
330
1527
102
}
330
1527
100
AcDbXrecord
280
     1
102
RTVSPropertyOp0
 70
     1
102
RTVSPropertyOp1
 70
     1
102
RTVSPropertyOp2
 70
     1
102
RTVSPropertyOp3
 70
     1
102
RTVSPropertyOp4
 70
     1
102
RTVSPropertyOp5
 70
     1
102
RTVSPropertyOp6
 70
     1
102
RTVSPropertyOp7
 70
     1
102
RTVSPropertyOp8
 70
     1
102
RTVSPropertyOp9
 70
     1
102
RTVSPropertyOp10
 70
     1
102
RTVSPropertyOp11
 70
     1
102
RTVSPropertyOp12
 70
     1
102
RTVSPropertyOp13
 70
     1
102
RTVSPropertyOp14
 70
     1
102
RTVSPropertyOp15
 70
     1
102
RTVSPropertyOp16
 70
     1
102
RTVSPropertyOp17
 70
     1
102
RTVSPropertyOp18
 70
     1
102
RTVSPropertyOp19
 70
     1
102
RTVSPropertyOp20
 70
     1
102
RTVSPropertyOp21
 70
     1
102
RTVSPropertyOp22
 70
     1
102
RTVSPropertyOp23
 70
     1
102
RTVSPropertyOp24
 70
     1
102
RTVSPropertyOp25
 70
     1
102
RTVSPropertyOp26
 70
     1
102
RTVSPropertyOp27
 70
     1
102
RTVSPropertyOp28
 70
     1
102
RTVSPropertyOp29
 70
     1
102
RTVSPropertyOp30
 70
     1
102
RTVSPropertyOp31
 70
     1
102
RTVSPropertyOp32
 70
     1
  0
XRECORD
  5
153E
102
{ACAD_REACTORS
330
153D
102
}
330
153D
100
AcDbXrecord
280
     1
102
RTVSPropertyOp0
 70
     0
102
RTVSPropertyOp1
 70
     0
102
RTVSPropertyOp2
 70
     0
102
RTVSPropertyOp3
 70
     0
102
RTVSPropertyOp4
 70
     0
102
RTVSPropertyOp5
 70
     0
102
RTVSPropertyOp6
 70
     0
102
RTVSPropertyOp7
 70
     0
102
RTVSPropertyOp8
 70
     0
102
RTVSPropertyOp9
 70
     0
102
RTVSPropertyOp10
 70
     0
102
RTVSPropertyOp11
 70
     0
102
RTVSPropertyOp12
 70
     0
102
RTVSPropertyOp13
 70
     0
102
RTVSPropertyOp14
 70
     2
102
RTVSPropertyOp15
 70
     0
102
RTVSPropertyOp16
 70
     0
102
RTVSPropertyOp17
 70
     0
102
RTVSPropertyOp18
 70
     0
102
RTVSPropertyOp19
 70
     0
102
RTVSPropertyOp20
 70
     0
102
RTVSPropertyOp21
 70
     0
102
RTVSPropertyOp22
 70
     0
102
RTVSPropertyOp23
 70
     0
102
RTVSPropertyOp24
 70
     0
102
RTVSPropertyOp25
 70
     0
102
RTVSPropertyOp26
 70
     0
102
RTVSPropertyOp27
 70
     0
102
RTVSPropertyOp28
 70
     0
102
RTVSPropertyOp29
 70
     0
102
RTVSPropertyOp30
 70
     0
102
RTVSPropertyOp31
 70
     0
102
RTVSPropertyOp32
 70
     0
  0
XRECORD
  5
1520
102
{ACAD_REACTORS
330
151F
102
}
330
151F
100
AcDbXrecord
280
     1
102
RTVSPropertyOp0
 70
     1
102
RTVSPropertyOp1
 70
     1
102
RTVSPropertyOp2
 70
     1
102
RTVSPropertyOp3
 70
     1
102
RTVSPropertyOp4
 70
     1
102
RTVSPropertyOp5
 70
     1
102
RTVSPropertyOp6
 70
     1
102
RTVSPropertyOp7
 70
     1
102
RTVSPropertyOp8
 70
     1
102
RTVSPropertyOp9
 70
     1
102
RTVSPropertyOp10
 70
     1
102
RTVSPropertyOp11
 70
     1
102
RTVSPropertyOp12
 70
     1
102
RTVSPropertyOp13
 70
     1
102
RTVSPropertyOp14
 70
     1
102
RTVSPropertyOp15
 70
     1
102
RTVSPropertyOp16
 70
     1
102
RTVSPropertyOp17
 70
     1
102
RTVSPropertyOp18
 70
     1
102
RTVSPropertyOp19
 70
     1
102
RTVSPropertyOp20
 70
     1
102
RTVSPropertyOp21
 70
     1
102
RTVSPropertyOp22
 70
     1
102
RTVSPropertyOp23
 70
     1
102
RTVSPropertyOp24
 70
     1
102
RTVSPropertyOp25
 70
     1
102
RTVSPropertyOp26
 70
     1
102
RTVSPropertyOp27
 70
     1
102
RTVSPropertyOp28
 70
     1
102
RTVSPropertyOp29
 70
     1
102
RTVSPropertyOp30
 70
     1
102
RTVSPropertyOp31
 70
     1
102
RTVSPropertyOp32
 70
     1
  0
XRECORD
  5
153A
102
{ACAD_REACTORS
330
1539
102
}
330
1539
100
AcDbXrecord
280
     1
102
RTVSPropertyOp0
 70
     1
102
RTVSPropertyOp1
 70
     1
102
RTVSPropertyOp2
 70
     1
102
RTVSPropertyOp3
 70
     1
102
RTVSPropertyOp4
 70
     1
102
RTVSPropertyOp5
 70
     1
102
RTVSPropertyOp6
 70
     1
102
RTVSPropertyOp7
 70
     1
102
RTVSPropertyOp8
 70
     1
102
RTVSPropertyOp9
 70
     1
102
RTVSPropertyOp10
 70
     1
102
RTVSPropertyOp11
 70
     1
102
RTVSPropertyOp12
 70
     1
102
RTVSPropertyOp13
 70
     1
102
RTVSPropertyOp14
 70
     1
102
RTVSPropertyOp15
 70
     1
102
RTVSPropertyOp16
 70
     1
102
RTVSPropertyOp17
 70
     1
102
RTVSPropertyOp18
 70
     1
102
RTVSPropertyOp19
 70
     1
102
RTVSPropertyOp20
 70
     1
102
RTVSPropertyOp21
 70
     1
102
RTVSPropertyOp22
 70
     1
102
RTVSPropertyOp23
 70
     1
102
RTVSPropertyOp24
 70
     1
102
RTVSPropertyOp25
 70
     1
102
RTVSPropertyOp26
 70
     1
102
RTVSPropertyOp27
 70
     1
102
RTVSPropertyOp28
 70
     1
102
RTVSPropertyOp29
 70
     1
102
RTVSPropertyOp30
 70
     1
102
RTVSPropertyOp31
 70
     1
102
RTVSPropertyOp32
 70
     1
  0
XRECORD
  5
1538
102
{ACAD_REACTORS
330
1537
102
}
330
1537
100
AcDbXrecord
280
     1
102
RTVSPropertyOp0
 70
     1
102
RTVSPropertyOp1
 70
     1
102
RTVSPropertyOp2
 70
     1
102
RTVSPropertyOp3
 70
     1
102
RTVSPropertyOp4
 70
     1
102
RTVSPropertyOp5
 70
     1
102
RTVSPropertyOp6
 70
     1
102
RTVSPropertyOp7
 70
     1
102
RTVSPropertyOp8
 70
     1
102
RTVSPropertyOp9
 70
     1
102
RTVSPropertyOp10
 70
     1
102
RTVSPropertyOp11
 70
     1
102
RTVSPropertyOp12
 70
     1
102
RTVSPropertyOp13
 70
     1
102
RTVSPropertyOp14
 70
     1
102
RTVSPropertyOp15
 70
     1
102
RTVSPropertyOp16
 70
     1
102
RTVSPropertyOp17
 70
     1
102
RTVSPropertyOp18
 70
     1
102
RTVSPropertyOp19
 70
     1
102
RTVSPropertyOp20
 70
     1
102
RTVSPropertyOp21
 70
     1
102
RTVSPropertyOp22
 70
     1
102
RTVSPropertyOp23
 70
     1
102
RTVSPropertyOp24
 70
     1
102
RTVSPropertyOp25
 70
     1
102
RTVSPropertyOp26
 70
     1
102
RTVSPropertyOp27
 70
     1
102
RTVSPropertyOp28
 70
     1
102
RTVSPropertyOp29
 70
     1
102
RTVSPropertyOp30
 70
     1
102
RTVSPropertyOp31
 70
     1
102
RTVSPropertyOp32
 70
     1
  0
XRECORD
  5
1532
102
{ACAD_REACTORS
330
1531
102
}
330
1531
100
AcDbXrecord
280
     1
102
RTVSPropertyOp0
 70
     1
102
RTVSPropertyOp1
 70
     1
102
RTVSPropertyOp2
 70
     1
102
RTVSPropertyOp3
 70
     1
102
RTVSPropertyOp4
 70
     1
102
RTVSPropertyOp5
 70
     1
102
RTVSPropertyOp6
 70
     1
102
RTVSPropertyOp7
 70
     1
102
RTVSPropertyOp8
 70
     1
102
RTVSPropertyOp9
 70
     1
102
RTVSPropertyOp10
 70
     1
102
RTVSPropertyOp11
 70
     1
102
RTVSPropertyOp12
 70
     1
102
RTVSPropertyOp13
 70
     1
102
RTVSPropertyOp14
 70
     1
102
RTVSPropertyOp15
 70
     1
102
RTVSPropertyOp16
 70
     1
102
RTVSPropertyOp17
 70
     1
102
RTVSPropertyOp18
 70
     1
102
RTVSPropertyOp19
 70
     1
102
RTVSPropertyOp20
 70
     1
102
RTVSPropertyOp21
 70
     1
102
RTVSPropertyOp22
 70
     1
102
RTVSPropertyOp23
 70
     1
102
RTVSPropertyOp24
 70
     1
102
RTVSPropertyOp25
 70
     1
102
RTVSPropertyOp26
 70
     1
102
RTVSPropertyOp27
 70
     1
102
RTVSPropertyOp28
 70
     1
102
RTVSPropertyOp29
 70
     1
102
RTVSPropertyOp30
 70
     1
102
RTVSPropertyOp31
 70
     1
102
RTVSPropertyOp32
 70
     1
  0
XRECORD
  5
1534
102
{ACAD_REACTORS
330
1533
102
}
330
1533
100
AcDbXrecord
280
     1
102
RTVSPropertyOp0
 70
     1
102
RTVSPropertyOp1
 70
     1
102
RTVSPropertyOp2
 70
     1
102
RTVSPropertyOp3
 70
     1
102
RTVSPropertyOp4
 70
     1
102
RTVSPropertyOp5
 70
     1
102
RTVSPropertyOp6
 70
     1
102
RTVSPropertyOp7
 70
     1
102
RTVSPropertyOp8
 70
     1
102
RTVSPropertyOp9
 70
     1
102
RTVSPropertyOp10
 70
     1
102
RTVSPropertyOp11
 70
     1
102
RTVSPropertyOp12
 70
     1
102
RTVSPropertyOp13
 70
     1
102
RTVSPropertyOp14
 70
     1
102
RTVSPropertyOp15
 70
     1
102
RTVSPropertyOp16
 70
     1
102
RTVSPropertyOp17
 70
     1
102
RTVSPropertyOp18
 70
     1
102
RTVSPropertyOp19
 70
     1
102
RTVSPropertyOp20
 70
     1
102
RTVSPropertyOp21
 70
     1
102
RTVSPropertyOp22
 70
     1
102
RTVSPropertyOp23
 70
     1
102
RTVSPropertyOp24
 70
     1
102
RTVSPropertyOp25
 70
     1
102
RTVSPropertyOp26
 70
     1
102
RTVSPropertyOp27
 70
     1
102
RTVSPropertyOp28
 70
     1
102
RTVSPropertyOp29
 70
     1
102
RTVSPropertyOp30
 70
     1
102
RTVSPropertyOp31
 70
     1
102
RTVSPropertyOp32
 70
     1
  0
XRECORD
  5
1526
102
{ACAD_REACTORS
330
1525
102
}
330
1525
100
AcDbXrecord
280
     1
102
RTVSPropertyOp0
 70
     1
102
RTVSPropertyOp1
 70
     1
102
RTVSPropertyOp2
 70
     1
102
RTVSPropertyOp3
 70
     1
102
RTVSPropertyOp4
 70
     1
102
RTVSPropertyOp5
 70
     1
102
RTVSPropertyOp6
 70
     1
102
RTVSPropertyOp7
 70
     1
102
RTVSPropertyOp8
 70
     1
102
RTVSPropertyOp9
 70
     1
102
RTVSPropertyOp10
 70
     1
102
RTVSPropertyOp11
 70
     1
102
RTVSPropertyOp12
 70
     1
102
RTVSPropertyOp13
 70
     1
102
RTVSPropertyOp14
 70
     1
102
RTVSPropertyOp15
 70
     1
102
RTVSPropertyOp16
 70
     1
102
RTVSPropertyOp17
 70
     1
102
RTVSPropertyOp18
 70
     1
102
RTVSPropertyOp19
 70
     1
102
RTVSPropertyOp20
 70
     1
102
RTVSPropertyOp21
 70
     1
102
RTVSPropertyOp22
 70
     1
102
RTVSPropertyOp23
 70
     1
102
RTVSPropertyOp24
 70
     1
102
RTVSPropertyOp25
 70
     1
102
RTVSPropertyOp26
 70
     1
102
RTVSPropertyOp27
 70
     1
102
RTVSPropertyOp28
 70
     1
102
RTVSPropertyOp29
 70
     1
102
RTVSPropertyOp30
 70
     1
102
RTVSPropertyOp31
 70
     1
102
RTVSPropertyOp32
 70
     1
  0
XRECORD
  5
152E
102
{ACAD_REACTORS
330
152D
102
}
330
152D
100
AcDbXrecord
280
     1
102
RTVSPropertyOp0
 70
     1
102
RTVSPropertyOp1
 70
     1
102
RTVSPropertyOp2
 70
     1
102
RTVSPropertyOp3
 70
     1
102
RTVSPropertyOp4
 70
     1
102
RTVSPropertyOp5
 70
     1
102
RTVSPropertyOp6
 70
     1
102
RTVSPropertyOp7
 70
     1
102
RTVSPropertyOp8
 70
     1
102
RTVSPropertyOp9
 70
     1
102
RTVSPropertyOp10
 70
     1
102
RTVSPropertyOp11
 70
     1
102
RTVSPropertyOp12
 70
     1
102
RTVSPropertyOp13
 70
     1
102
RTVSPropertyOp14
 70
     1
102
RTVSPropertyOp15
 70
     1
102
RTVSPropertyOp16
 70
     1
102
RTVSPropertyOp17
 70
     1
102
RTVSPropertyOp18
 70
     1
102
RTVSPropertyOp19
 70
     1
102
RTVSPropertyOp20
 70
     1
102
RTVSPropertyOp21
 70
     1
102
RTVSPropertyOp22
 70
     1
102
RTVSPropertyOp23
 70
     1
102
RTVSPropertyOp24
 70
     1
102
RTVSPropertyOp25
 70
     1
102
RTVSPropertyOp26
 70
     1
102
RTVSPropertyOp27
 70
     1
102
RTVSPropertyOp28
 70
     1
102
RTVSPropertyOp29
 70
     1
102
RTVSPropertyOp30
 70
     1
102
RTVSPropertyOp31
 70
     1
102
RTVSPropertyOp32
 70
     1
  0
XRECORD
  5
1536
102
{ACAD_REACTORS
330
1535
102
}
330
1535
100
AcDbXrecord
280
     1
102
RTVSPropertyOp0
 70
     1
102
RTVSPropertyOp1
 70
     1
102
RTVSPropertyOp2
 70
     1
102
RTVSPropertyOp3
 70
     1
102
RTVSPropertyOp4
 70
     1
102
RTVSPropertyOp5
 70
     1
102
RTVSPropertyOp6
 70
     1
102
RTVSPropertyOp7
 70
     1
102
RTVSPropertyOp8
 70
     1
102
RTVSPropertyOp9
 70
     1
102
RTVSPropertyOp10
 70
     1
102
RTVSPropertyOp11
 70
     1
102
RTVSPropertyOp12
 70
     1
102
RTVSPropertyOp13
 70
     1
102
RTVSPropertyOp14
 70
     1
102
RTVSPropertyOp15
 70
     1
102
RTVSPropertyOp16
 70
     1
102
RTVSPropertyOp17
 70
     1
102
RTVSPropertyOp18
 70
     1
102
RTVSPropertyOp19
 70
     1
102
RTVSPropertyOp20
 70
     1
102
RTVSPropertyOp21
 70
     1
102
RTVSPropertyOp22
 70
     1
102
RTVSPropertyOp23
 70
     1
102
RTVSPropertyOp24
 70
     1
102
RTVSPropertyOp25
 70
     1
102
RTVSPropertyOp26
 70
     1
102
RTVSPropertyOp27
 70
     1
102
RTVSPropertyOp28
 70
     1
102
RTVSPropertyOp29
 70
     1
102
RTVSPropertyOp30
 70
     1
102
RTVSPropertyOp31
 70
     1
102
RTVSPropertyOp32
 70
     1
  0
ENDSEC
  0
EOF
