  0
SECTION
  2
HEADER
  9
$ACADVER
  1
AC1015
  9
$ACADMAINTVER
 70
    20
  9
$DWGCODEPAGE
  3
ANSI_932
  9
$INSBASE
 10
0.0
 20
0.0
 30
0.0
  9
$EXTMIN
 10
650.7429270949399
 20
-34.85943082277652
 30
-0.0015258207003583
  9
$EXTMAX
 10
1055.764564730895
 20
244.9902838758487
 30
0.0000000349246037
  9
$LIMMIN
 10
650.75528662
 20
-34.85089166
  9
$LIMMAX
 10
1055.78310449
 20
244.98174341
  9
$ORTHOMODE
 70
     1
  9
$REGENMODE
 70
     1
  9
$FILLMODE
 70
     1
  9
$QTEXTMODE
 70
     0
  9
$MIRRTEXT
 70
     0
  9
$LTSCALE
 40
6.750430299999997
  9
$ATTMODE
 70
     1
  9
$TEXTSIZE
 40
3.2
  9
$TRACEWID
 40
0.05
  9
$TEXTSTYLE
  7
高3.2
  9
$CLAYER
  8
0
  9
$CELTYPE
  6
CONTINUOUS
  9
$CECOLOR
 62
   256
  9
$CELTSCALE
 40
1.0
  9
$DISPSILH
 70
     0
  9
$DIMSCALE
 40
1.0
  9
$DIMASZ
 40
2.5
  9
$DIMEXO
 40
0.25
  9
$DIMDLI
 40
0.2
  9
$DIMRND
 40
0.0
  9
$DIMDLE
 40
0.0
  9
$DIMEXE
 40
1.25
  9
$DIMTP
 40
0.0
  9
$DIMTM
 40
0.0
  9
$DIMTXT
 40
3.0
  9
$DIMCEN
 40
0.0
  9
$DIMTSZ
 40
0.0
  9
$DIMTOL
 70
     0
  9
$DIMLIM
 70
     0
  9
$DIMTIH
 70
     0
  9
$DIMTOH
 70
     0
  9
$DIMSE1
 70
     0
  9
$DIMSE2
 70
     0
  9
$DIMTAD
 70
     3
  9
$DIMZIN
 70
     8
  9
$DIMBLK
  1
Open30
  9
$DIMASO
 70
     1
  9
$DIMSHO
 70
     1
  9
$DIMPOST
  1

  9
$DIMAPOST
  1

  9
$DIMALT
 70
     0
  9
$DIMALTD
 70
     3
  9
$DIMALTF
 40
0.03937007874016
  9
$DIMLFAC
 40
1.0
  9
$DIMTOFL
 70
     1
  9
$DIMTVP
 40
0.0
  9
$DIMTIX
 70
     0
  9
$DIMSOXD
 70
     0
  9
$DIMSAH
 70
     0
  9
$DIMBLK1
  1

  9
$DIMBLK2
  1

  9
$DIMSTYLE
  2
FREE
  9
$DIMCLRD
 70
     0
  9
$DIMCLRE
 70
     0
  9
$DIMCLRT
 70
     4
  9
$DIMTFAC
 40
1.0
  9
$DIMGAP
 40
0.625
  9
$DIMJUST
 70
     0
  9
$DIMSD1
 70
     0
  9
$DIMSD2
 70
     0
  9
$DIMTOLJ
 70
     0
  9
$DIMTZIN
 70
     8
  9
$DIMALTZ
 70
     0
  9
$DIMALTTZ
 70
     0
  9
$DIMUPT
 70
     1
  9
$DIMDEC
 70
     2
  9
$DIMTDEC
 70
     2
  9
$DIMALTU
 70
     2
  9
$DIMALTTD
 70
     3
  9
$DIMTXSTY
  7
STANDARD
  9
$DIMAUNIT
 70
     0
  9
$DIMADEC
 70
     1
  9
$DIMALTRND
 40
0.0
  9
$DIMAZIN
 70
     2
  9
$DIMDSEP
 70
    46
  9
$DIMATFIT
 70
     0
  9
$DIMFRAC
 70
     0
  9
$DIMLDRBLK
  1
Open30
  9
$DIMLUNIT
 70
     2
  9
$DIMLWD
 70
    -2
  9
$DIMLWE
 70
    -2
  9
$DIMTMOVE
 70
     0
  9
$LUNITS
 70
     2
  9
$LUPREC
 70
     4
  9
$SKETCHINC
 40
0.1
  9
$FILLETRAD
 40
0.0
  9
$AUNITS
 70
     0
  9
$AUPREC
 70
     0
  9
$MENU
  1
.
  9
$ELEVATION
 40
0.0
  9
$PELEVATION
 40
0.0
  9
$THICKNESS
 40
0.0
  9
$LIMCHECK
 70
     0
  9
$CHAMFERA
 40
0.0
  9
$CHAMFERB
 40
0.0
  9
$CHAMFERC
 40
0.0
  9
$CHAMFERD
 40
0.0
  9
$SKPOLY
 70
     0
  9
$TDCREATE
 40
2455692.798457929
  9
$TDUCREATE
 40
2455692.423457929
  9
$TDUPDATE
 40
2456855.851257998
  9
$TDUUPDATE
 40
2456855.476257997
  9
$TDINDWG
 40
0.0293093634
  9
$TDUSRTIMER
 40
0.0293091898
  9
$USRTIMER
 70
     1
  9
$ANGBASE
 50
0.0
  9
$ANGDIR
 70
     0
  9
$PDMODE
 70
     0
  9
$PDSIZE
 40
0.0
  9
$PLINEWID
 40
0.0
  9
$SPLFRAME
 70
     0
  9
$SPLINETYPE
 70
     6
  9
$SPLINESEGS
 70
     8
  9
$HANDSEED
  5
CA9
  9
$SURFTAB1
 70
     6
  9
$SURFTAB2
 70
     6
  9
$SURFTYPE
 70
     6
  9
$SURFU
 70
     6
  9
$SURFV
 70
     6
  9
$UCSBASE
  2

  9
$UCSNAME
  2

  9
$UCSORG
 10
0.0
 20
0.0
 30
0.0
  9
$UCSXDIR
 10
1.0
 20
0.0
 30
0.0
  9
$UCSYDIR
 10
0.0
 20
1.0
 30
0.0
  9
$UCSORTHOREF
  2

  9
$UCSORTHOVIEW
 70
     0
  9
$UCSORGTOP
 10
0.0
 20
0.0
 30
0.0
  9
$UCSORGBOTTOM
 10
0.0
 20
0.0
 30
0.0
  9
$UCSORGLEFT
 10
0.0
 20
0.0
 30
0.0
  9
$UCSORGRIGHT
 10
0.0
 20
0.0
 30
0.0
  9
$UCSORGFRONT
 10
0.0
 20
0.0
 30
0.0
  9
$UCSORGBACK
 10
0.0
 20
0.0
 30
0.0
  9
$PUCSBASE
  2

  9
$PUCSNAME
  2

  9
$PUCSORG
 10
0.0
 20
0.0
 30
0.0
  9
$PUCSXDIR
 10
1.0
 20
0.0
 30
0.0
  9
$PUCSYDIR
 10
0.0
 20
1.0
 30
0.0
  9
$PUCSORTHOREF
  2

  9
$PUCSORTHOVIEW
 70
     0
  9
$PUCSORGTOP
 10
0.0
 20
0.0
 30
0.0
  9
$PUCSORGBOTTOM
 10
0.0
 20
0.0
 30
0.0
  9
$PUCSORGLEFT
 10
0.0
 20
0.0
 30
0.0
  9
$PUCSORGRIGHT
 10
0.0
 20
0.0
 30
0.0
  9
$PUCSORGFRONT
 10
0.0
 20
0.0
 30
0.0
  9
$PUCSORGBACK
 10
0.0
 20
0.0
 30
0.0
  9
$USERI1
 70
     0
  9
$USERI2
 70
     0
  9
$USERI3
 70
     0
  9
$USERI4
 70
     0
  9
$USERI5
 70
     0
  9
$USERR1
 40
0.0
  9
$USERR2
 40
0.0
  9
$USERR3
 40
0.0
  9
$USERR4
 40
0.0
  9
$USERR5
 40
0.0
  9
$WORLDVIEW
 70
     1
  9
$SHADEDGE
 70
     3
  9
$SHADEDIF
 70
    70
  9
$TILEMODE
 70
     1
  9
$MAXACTVP
 70
    64
  9
$PINSBASE
 10
0.0
 20
0.0
 30
0.0
  9
$PLIMCHECK
 70
     0
  9
$PEXTMIN
 10
1.000000000000000E+20
 20
1.000000000000000E+20
 30
1.000000000000000E+20
  9
$PEXTMAX
 10
-1.000000000000000E+20
 20
-1.000000000000000E+20
 30
-1.000000000000000E+20
  9
$PLIMMIN
 10
0.0
 20
0.0
  9
$PLIMMAX
 10
12.0
 20
9.0
  9
$UNITMODE
 70
     0
  9
$VISRETAIN
 70
     1
  9
$PLINEGEN
 70
     0
  9
$PSLTSCALE
 70
     1
  9
$TREEDEPTH
 70
  3020
  9
$CMLSTYLE
  2
Standard
  9
$CMLJUST
 70
     0
  9
$CMLSCALE
 40
1.0
  9
$PROXYGRAPHICS
 70
     1
  9
$MEASUREMENT
 70
     0
  9
$CELWEIGHT
370
    -1
  9
$ENDCAPS
280
     0
  9
$JOINSTYLE
280
     0
  9
$LWDISPLAY
290
     0
  9
$INSUNITS
 70
     0
  9
$HYPERLINKBASE
  1

  9
$STYLESHEET
  1
n-plot.ctb
  9
$XEDIT
290
     1
  9
$CEPSNTYPE
380
     0
  9
$PSTYLEMODE
290
     1
  9
$FINGERPRINTGUID
  2
{27C85743-DF4E-4913-B290-22180198A303}
  9
$VERSIONGUID
  2
{710CBEB0-3F64-4FFB-B111-53B991173B6F}
  9
$EXTNAMES
290
     1
  9
$PSVPSCALE
 40
0.0
  9
$OLESTARTUP
290
     0
  0
ENDSEC
  0
SECTION
  2
CLASSES
  0
CLASS
  1
ACDBDICTIONARYWDFLT
  2
AcDbDictionaryWithDefault
  3
ObjectDBX Classes
 90
        0
280
     0
281
     0
  0
CLASS
  1
MATERIAL
  2
AcDbMaterial
  3
ObjectDBX Classes
 90
     1153
280
     0
281
     0
  0
CLASS
  1
VISUALSTYLE
  2
AcDbVisualStyle
  3
ObjectDBX Classes
 90
     4095
280
     0
281
     0
  0
CLASS
  1
SCALE
  2
AcDbScale
  3
ObjectDBX Classes
 90
     1153
280
     0
281
     0
  0
CLASS
  1
TABLESTYLE
  2
AcDbTableStyle
  3
ObjectDBX Classes
 90
     4095
280
     0
281
     0
  0
CLASS
  1
MLEADERSTYLE
  2
AcDbMLeaderStyle
  3
ACDB_MLEADERSTYLE_CLASS
 90
     4095
280
     0
281
     0
  0
CLASS
  1
DICTIONARYVAR
  2
AcDbDictionaryVar
  3
ObjectDBX Classes
 90
        0
280
     0
281
     0
  0
CLASS
  1
CELLSTYLEMAP
  2
AcDbCellStyleMap
  3
ObjectDBX Classes
 90
     1152
280
     0
281
     0
  0
CLASS
  1
ACDBPLACEHOLDER
  2
AcDbPlaceHolder
  3
ObjectDBX Classes
 90
        0
280
     0
281
     0
  0
CLASS
  1
LAYOUT
  2
AcDbLayout
  3
ObjectDBX Classes
 90
        0
280
     0
281
     0
  0
CLASS
  1
SORTENTSTABLE
  2
AcDbSortentsTable
  3
ObjectDBX Classes
 90
        0
280
     0
281
     0
  0
ENDSEC
  0
SECTION
  2
TABLES
  0
TABLE
  2
VPORT
  5
8
330
0
100
AcDbSymbolTable
 70
     1
  0
VPORT
  5
8B
330
8
100
AcDbSymbolTableRecord
100
AcDbViewportTableRecord
  2
*Active
 70
     0
 10
0.0
 20
0.0
 11
1.0
 21
1.0
 12
985.4724654203382
 22
84.76646880448157
 13
0.0
 23
0.0
 14
1.0
 24
1.0
 15
0.0
 25
0.0
 16
0.0
 26
0.0
 36
1.0
 17
0.0
 27
0.0
 37
0.0
 40
528.0566317689735
 41
2.289370078740157
 42
50.0
 43
0.0
 44
0.0
 50
0.0
 51
0.0
 71
     0
 72
   100
 73
     1
 74
     1
 75
     0
 76
     0
 77
     0
 78
     0
281
     0
 65
     1
110
0.0
120
0.0
130
0.0
111
1.0
121
0.0
131
0.0
112
0.0
122
1.0
132
0.0
 79
     0
146
0.0
  0
ENDTAB
  0
TABLE
  2
LTYPE
  5
5
330
0
100
AcDbSymbolTable
 70
    11
  0
LTYPE
  5
5A
330
5
100
AcDbSymbolTableRecord
100
AcDbLinetypeTableRecord
  2
ByBlock
 70
     0
  3

 72
    65
 73
     0
 40
0.0
  0
LTYPE
  5
5B
330
5
100
AcDbSymbolTableRecord
100
AcDbLinetypeTableRecord
  2
ByLayer
 70
     0
  3

 72
    65
 73
     0
 40
0.0
  0
LTYPE
  5
5C
330
5
100
AcDbSymbolTableRecord
100
AcDbLinetypeTableRecord
  2
CONTINUOUS
 70
     0
  3
Solid-line
 72
    65
 73
     0
 40
0.0
  0
LTYPE
  5
72
330
5
100
AcDbSymbolTableRecord
100
AcDbLinetypeTableRecord
  2
CENTER
 70
     0
  3
CENTER
 72
    65
 73
     4
 40
2.0
 49
1.25
 74
     0
 49
-0.25
 74
     0
 49
0.25
 74
     0
 49
-0.25
 74
     0
  0
ENDTAB
  0
TABLE
  2
LAYER
  5
2
102
{ACAD_XDICTIONARY
360
563
102
}
330
0
100
AcDbSymbolTable
 70
     3
  0
LAYER
  5
54
102
{ACAD_XDICTIONARY
360
744
102
}
330
2
100
AcDbSymbolTableRecord
100
AcDbLayerTableRecord
  2
0
 70
     0
 62
     7
  6
CONTINUOUS
370
    -3
390
F
  0
LAYER
  5
463
330
2
100
AcDbSymbolTableRecord
100
AcDbLayerTableRecord
  2
Defpoints
 70
     0
 62
     7
  6
CONTINUOUS
290
     0
370
    -3
390
F
  0
ENDTAB
  0
TABLE
  2
STYLE
  5
3
330
0
100
AcDbSymbolTable
 70
     7
  0
STYLE
  5
55
330
3
100
AcDbSymbolTableRecord
100
AcDbTextStyleTableRecord
  2
STANDARD
 70
     0
 40
0.0
 41
1.0
 50
0.0
 71
     0
 42
0.2
  3
TXT
  4
BIGFONT
  0
STYLE
  5
54F
330
3
100
AcDbSymbolTableRecord
100
AcDbTextStyleTableRecord
  2
高3.2
 70
     0
 40
3.2
 41
1.0
 50
0.0
 71
     0
 42
3.2
  3
txt.shx
  4
bigfont.shx
  0
STYLE
  5
550
330
3
100
AcDbSymbolTableRecord
100
AcDbTextStyleTableRecord
  2
高6.3
 70
     0
 40
6.299999999999998
 41
1.0
 50
0.0
 71
     0
 42
6.299999999999998
  3
txt.shx
  4
bigfont.shx
  0
STYLE
  5
551
330
3
100
AcDbSymbolTableRecord
100
AcDbTextStyleTableRecord
  2
高2.5
 70
     0
 40
2.5
 41
1.0
 50
0.0
 71
     0
 42
0.2
  3
txt.shx
  4
bigfont.shx
  0
STYLE
  5
552
330
3
100
AcDbSymbolTableRecord
100
AcDbTextStyleTableRecord
  2
高4.5
 70
     0
 40
4.5
 41
1.0
 50
0.0
 71
     0
 42
6.299999999999998
  3
txt.shx
  4
bigfont.shx
  0
STYLE
  5
553
330
3
100
AcDbSymbolTableRecord
100
AcDbTextStyleTableRecord
  2
高2
 70
     0
 40
2.0
 41
1.0
 50
0.0
 71
     0
 42
6.299999999999998
  3
txt.shx
  4
bigfont.shx
  0
ENDTAB
  0
TABLE
  2
VIEW
  5
6
330
0
100
AcDbSymbolTable
 70
     0
  0
ENDTAB
  0
TABLE
  2
UCS
  5
7
330
0
100
AcDbSymbolTable
 70
     0
  0
ENDTAB
  0
TABLE
  2
APPID
  5
9
330
0
100
AcDbSymbolTable
 70
    11
  0
APPID
  5
56
330
9
100
AcDbSymbolTableRecord
100
AcDbRegAppTableRecord
  2
ACAD
 70
     0
  0
APPID
  5
5D
330
9
100
AcDbSymbolTableRecord
100
AcDbRegAppTableRecord
  2
AcadAnnotative
 70
     0
  0
APPID
  5
55E
330
9
100
AcDbSymbolTableRecord
100
AcDbRegAppTableRecord
  2
ACAD_DSTYLE_DIMJOGGED_JOGANGLE_SYMBOL
 70
     0
  0
APPID
  5
55F
330
9
100
AcDbSymbolTableRecord
100
AcDbRegAppTableRecord
  2
ACAD_DSTYLE_DIMJAG
 70
     0
  0
APPID
  5
560
330
9
100
AcDbSymbolTableRecord
100
AcDbRegAppTableRecord
  2
ACAD_DSTYLE_DIMBREAK
 70
     0
  0
APPID
  5
561
330
9
100
AcDbSymbolTableRecord
100
AcDbRegAppTableRecord
  2
ACAD_DSTYLE_DIMTALN
 70
     0
  0
APPID
  5
6F1
330
9
100
AcDbSymbolTableRecord
100
AcDbRegAppTableRecord
  2
ACAD_EXEMPT_FROM_CAD_STANDARDS
 70
     0
  0
APPID
  5
7CD
330
9
100
AcDbSymbolTableRecord
100
AcDbRegAppTableRecord
  2
ACAD_MLEADERVER
 70
     0
  0
APPID
  5
7D2
330
9
100
AcDbSymbolTableRecord
100
AcDbRegAppTableRecord
  2
ACAD_DSTYLE_DIMARC_LENGTH_SYMBOL
 70
     0
  0
APPID
  5
7D3
330
9
100
AcDbSymbolTableRecord
100
AcDbRegAppTableRecord
  2
ACAD_DSTYLE_DIMEXT_LENGTH
 70
     0
  0
APPID
  5
C62
330
9
100
AcDbSymbolTableRecord
100
AcDbRegAppTableRecord
  2
ACAD_PSEXT
 70
     0
  0
ENDTAB
  0
TABLE
  2
DIMSTYLE
  5
A
330
0
100
AcDbSymbolTable
 70
    12
100
AcDbDimStyleTable
 71
     1
340
55D
  0
DIMSTYLE
105
57
330
A
100
AcDbSymbolTableRecord
100
AcDbDimStyleTableRecord
  2
Standard
 70
     0
340
55
  0
DIMSTYLE
105
554
330
A
100
AcDbSymbolTableRecord
100
AcDbDimStyleTableRecord
  2
1：1
 70
     0
 41
2.5
 42
0.25
 43
0.2
 44
1.25
 73
     0
 74
     0
 77
     3
 78
     8
 79
     2
140
3.0
141
0.0
143
0.03937007874016
147
0.625
171
     3
172
     1
178
     4
179
     1
271
     2
272
     2
274
     3
283
     0
284
     8
288
     1
289
     0
340
55
341
4BF
342
4BF
1001
ACAD_DSTYLE_DIMARC_LENGTH_SYMBOL
1070
   379
1070
     2
1001
ACAD_DSTYLE_DIMEXT_LENGTH
1070
   378
1040
1.25
1001
ACAD_DSTYLE_DIMJOGGED_JOGANGLE_SYMBOL
1070
   384
1040
1.570796326794896
  0
DIMSTYLE
105
555
330
A
100
AcDbSymbolTableRecord
100
AcDbDimStyleTableRecord
  2
2：1
 70
     0
 41
2.5
 42
0.25
 43
0.2
 44
1.25
 73
     0
 74
     0
 77
     3
 78
     8
 79
     2
140
3.0
141
0.0
143
0.03937007874016
144
0.5
147
0.625
171
     3
172
     1
178
     4
179
     1
271
     2
272
     2
274
     3
283
     0
284
     8
288
     1
289
     0
340
55
341
4BF
342
4BF
1001
ACAD_DSTYLE_DIMARC_LENGTH_SYMBOL
1070
   379
1070
     2
1001
ACAD_DSTYLE_DIMEXT_LENGTH
1070
   378
1040
1.25
1001
ACAD_DSTYLE_DIMJOGGED_JOGANGLE_SYMBOL
1070
   384
1040
1.570796326794896
  0
DIMSTYLE
105
556
330
A
100
AcDbSymbolTableRecord
100
AcDbDimStyleTableRecord
  2
5：1
 70
     0
 41
2.5
 42
0.25
 43
0.2
 44
1.25
 73
     0
 74
     0
 77
     3
 78
     8
 79
     2
140
3.0
141
0.0
143
0.03937007874016
144
0.2
147
0.625
171
     3
172
     1
178
     4
179
     1
271
     2
272
     2
274
     3
283
     0
284
     8
288
     1
289
     0
340
55
341
4BF
342
4BF
1001
ACAD_DSTYLE_DIMARC_LENGTH_SYMBOL
1070
   379
1070
     2
1001
ACAD_DSTYLE_DIMEXT_LENGTH
1070
   378
1040
1.25
1001
ACAD_DSTYLE_DIMJOGGED_JOGANGLE_SYMBOL
1070
   384
1040
1.570796326794896
  0
DIMSTYLE
105
557
330
A
100
AcDbSymbolTableRecord
100
AcDbDimStyleTableRecord
  2
10：1
 70
     0
 41
2.5
 42
0.25
 43
0.2
 44
1.25
 73
     0
 74
     0
 77
     3
 78
     8
 79
     2
140
3.0
141
0.0
143
0.03937007874016
144
0.1
147
0.625
171
     3
172
     1
178
     4
179
     1
271
     2
272
     2
274
     3
283
     0
284
     8
288
     1
289
     0
340
55
341
4BF
342
4BF
1001
ACAD_DSTYLE_DIMARC_LENGTH_SYMBOL
1070
   379
1070
     2
1001
ACAD_DSTYLE_DIMEXT_LENGTH
1070
   378
1040
1.25
1001
ACAD_DSTYLE_DIMJOGGED_JOGANGLE_SYMBOL
1070
   384
1040
1.570796326794896
  0
DIMSTYLE
105
558
330
A
100
AcDbSymbolTableRecord
100
AcDbDimStyleTableRecord
  2
1／2
 70
     0
 41
2.5
 42
0.25
 43
0.2
 44
1.25
 73
     0
 74
     0
 77
     3
 78
     8
 79
     2
140
3.0
141
0.0
143
0.03937007874016
144
2.0
147
0.625
171
     3
172
     1
178
     4
179
     1
271
     2
272
     2
274
     3
283
     0
284
     8
288
     1
289
     0
340
55
341
4BF
342
4BF
1001
ACAD_DSTYLE_DIMARC_LENGTH_SYMBOL
1070
   379
1070
     2
1001
ACAD_DSTYLE_DIMEXT_LENGTH
1070
   378
1040
1.25
1001
ACAD_DSTYLE_DIMJOGGED_JOGANGLE_SYMBOL
1070
   384
1040
1.570796326794896
  0
DIMSTYLE
105
559
330
A
100
AcDbSymbolTableRecord
100
AcDbDimStyleTableRecord
  2
1／5
 70
     0
 41
2.5
 42
0.25
 43
0.2
 44
1.25
 73
     0
 74
     0
 77
     3
 78
     8
 79
     2
140
3.0
141
0.0
143
0.03937007874016
144
5.0
147
0.625
171
     3
172
     1
178
     4
179
     1
271
     2
272
     2
274
     3
283
     0
284
     8
288
     1
289
     0
340
55
341
4BF
342
4BF
1001
ACAD_DSTYLE_DIMARC_LENGTH_SYMBOL
1070
   379
1070
     2
1001
ACAD_DSTYLE_DIMEXT_LENGTH
1070
   378
1040
1.25
1001
ACAD_DSTYLE_DIMJOGGED_JOGANGLE_SYMBOL
1070
   384
1040
1.570796326794896
  0
DIMSTYLE
105
55A
330
A
100
AcDbSymbolTableRecord
100
AcDbDimStyleTableRecord
  2
1／10
 70
     0
 41
2.5
 42
0.25
 43
0.2
 44
1.25
 73
     0
 74
     0
 77
     3
 78
     8
 79
     2
140
3.0
141
0.0
143
0.03937007874016
144
10.0
147
0.625
171
     3
172
     1
178
     4
179
     1
271
     2
272
     2
274
     3
283
     0
284
     8
288
     1
289
     0
340
55
341
4BF
342
4BF
1001
ACAD_DSTYLE_DIMARC_LENGTH_SYMBOL
1070
   379
1070
     2
1001
ACAD_DSTYLE_DIMEXT_LENGTH
1070
   378
1040
1.25
1001
ACAD_DSTYLE_DIMJOGGED_JOGANGLE_SYMBOL
1070
   384
1040
1.570796326794896
  0
DIMSTYLE
105
55B
330
A
100
AcDbSymbolTableRecord
100
AcDbDimStyleTableRecord
  2
1／4
 70
     0
 41
2.5
 42
0.25
 43
0.2
 44
1.25
 73
     0
 74
     0
 77
     3
 78
     8
 79
     2
140
3.0
141
0.0
143
0.03937007874016
144
4.0
147
0.625
171
     3
172
     1
178
     4
179
     1
271
     2
272
     2
274
     3
283
     0
284
     8
288
     1
289
     0
340
55
341
4BF
342
4BF
1001
ACAD_DSTYLE_DIMARC_LENGTH_SYMBOL
1070
   379
1070
     2
1001
ACAD_DSTYLE_DIMEXT_LENGTH
1070
   378
1040
1.25
1001
ACAD_DSTYLE_DIMJOGGED_JOGANGLE_SYMBOL
1070
   384
1040
1.570796326794896
  0
DIMSTYLE
105
55C
330
A
100
AcDbSymbolTableRecord
100
AcDbDimStyleTableRecord
  2
1／3
 70
     0
 41
2.5
 42
0.25
 43
0.2
 44
1.25
 73
     0
 74
     0
 77
     3
 78
     8
 79
     2
140
3.0
141
0.0
143
0.03937007874016
144
3.0
147
0.625
171
     3
172
     1
178
     4
179
     1
271
     2
272
     2
274
     3
283
     0
284
     8
288
     1
289
     0
340
55
341
4BF
342
4BF
1001
ACAD_DSTYLE_DIMARC_LENGTH_SYMBOL
1070
   379
1070
     2
1001
ACAD_DSTYLE_DIMEXT_LENGTH
1070
   378
1040
1.25
1001
ACAD_DSTYLE_DIMJOGGED_JOGANGLE_SYMBOL
1070
   384
1040
1.570796326794896
  0
DIMSTYLE
105
55D
330
A
100
AcDbSymbolTableRecord
100
AcDbDimStyleTableRecord
  2
FREE
 70
     0
 41
2.5
 42
0.25
 43
0.2
 44
1.25
 73
     0
 74
     0
 77
     3
 78
     8
 79
     2
140
3.0
141
0.0
143
0.03937007874016
147
0.625
171
     3
172
     1
178
     4
179
     1
271
     2
272
     2
274
     3
283
     0
284
     8
288
     1
289
     0
340
55
341
4BF
342
4BF
1001
ACAD_DSTYLE_DIMBREAK
1070
   391
1040
3.75
1001
ACAD_DSTYLE_DIMJAG
1070
   388
1040
1.5
1001
ACAD_DSTYLE_DIMTALN
1070
   392
1070
     0
1001
ACAD_DSTYLE_DIMARC_LENGTH_SYMBOL
1070
   379
1070
     2
1001
ACAD_DSTYLE_DIMEXT_LENGTH
1070
   378
1040
1.25
1001
ACAD_DSTYLE_DIMJOGGED_JOGANGLE_SYMBOL
1070
   384
1040
1.570796326794896
  0
ENDTAB
  0
TABLE
  2
BLOCK_RECORD
  5
1
330
0
100
AcDbSymbolTable
 70
    30
  0
BLOCK_RECORD
  5
6B
102
{ACAD_XDICTIONARY
360
B0C
102
}
330
1
100
AcDbSymbolTableRecord
100
AcDbBlockTableRecord
  2
*Model_Space
340
6E
  0
BLOCK_RECORD
  5
67
330
1
100
AcDbSymbolTableRecord
100
AcDbBlockTableRecord
  2
*Paper_Space
340
6A
  0
BLOCK_RECORD
  5
464
330
1
100
AcDbSymbolTableRecord
100
AcDbBlockTableRecord
  2
*D0
340
0
  0
BLOCK_RECORD
  5
471
330
1
100
AcDbSymbolTableRecord
100
AcDbBlockTableRecord
  2
*D1
340
0
  0
BLOCK_RECORD
  5
47E
330
1
100
AcDbSymbolTableRecord
100
AcDbBlockTableRecord
  2
*D2
340
0
  0
BLOCK_RECORD
  5
48B
330
1
100
AcDbSymbolTableRecord
100
AcDbBlockTableRecord
  2
*D3
340
0
  0
BLOCK_RECORD
  5
498
330
1
100
AcDbSymbolTableRecord
100
AcDbBlockTableRecord
  2
*D4
340
0
  0
BLOCK_RECORD
  5
4A5
330
1
100
AcDbSymbolTableRecord
100
AcDbBlockTableRecord
  2
*D5
340
0
  0
BLOCK_RECORD
  5
4B2
330
1
100
AcDbSymbolTableRecord
100
AcDbBlockTableRecord
  2
*D6
340
0
  0
BLOCK_RECORD
  5
4BF
330
1
100
AcDbSymbolTableRecord
100
AcDbBlockTableRecord
  2
_Open30
340
0
102
{BLKREFS
331
A24
331
A25
331
A2F
331
A30
331
A3A
331
A3B
331
A45
331
A46
331
A50
331
A51
331
A5B
331
A5C
331
A66
331
A67
331
A71
331
A72
331
A7C
331
A7D
331
A85
331
A86
331
A8F
331
A90
331
A98
331
A99
331
AA1
331
AA2
331
AAA
331
AAB
331
AB3
331
AB4
331
ABC
331
ABD
331
AC5
331
AC6
102
}
  0
BLOCK_RECORD
  5
995
330
1
100
AcDbSymbolTableRecord
100
AcDbBlockTableRecord
  2
*D19
340
0
  0
BLOCK_RECORD
  5
9A3
330
1
100
AcDbSymbolTableRecord
100
AcDbBlockTableRecord
  2
*D20
340
0
  0
BLOCK_RECORD
  5
9B1
330
1
100
AcDbSymbolTableRecord
100
AcDbBlockTableRecord
  2
*D21
340
0
  0
BLOCK_RECORD
  5
9BF
330
1
100
AcDbSymbolTableRecord
100
AcDbBlockTableRecord
  2
*D22
340
0
  0
BLOCK_RECORD
  5
9CD
330
1
100
AcDbSymbolTableRecord
100
AcDbBlockTableRecord
  2
*D23
340
0
  0
BLOCK_RECORD
  5
9DB
330
1
100
AcDbSymbolTableRecord
100
AcDbBlockTableRecord
  2
*D24
340
0
  0
BLOCK_RECORD
  5
9E9
330
1
100
AcDbSymbolTableRecord
100
AcDbBlockTableRecord
  2
*D25
340
0
  0
BLOCK_RECORD
  5
9F7
330
1
100
AcDbSymbolTableRecord
100
AcDbBlockTableRecord
  2
*D26
340
0
  0
BLOCK_RECORD
  5
A05
330
1
100
AcDbSymbolTableRecord
100
AcDbBlockTableRecord
  2
*D27
340
0
  0
BLOCK_RECORD
  5
A13
330
1
100
AcDbSymbolTableRecord
100
AcDbBlockTableRecord
  2
*D28
340
0
  0
ENDTAB
  0
ENDSEC
  0
SECTION
  2
BLOCKS
  0
BLOCK
  5
6C
330
6B
100
AcDbEntity
  8
0
100
AcDbBlockBegin
  2
*Model_Space
 70
     0
 10
0.0
 20
0.0
 30
0.0
  3
*Model_Space
  1

  0
ENDBLK
  5
6D
330
6B
100
AcDbEntity
  8
0
100
AcDbBlockEnd
  0
BLOCK
  5
68
330
67
100
AcDbEntity
 67
     1
  8
0
100
AcDbBlockBegin
  2
*Paper_Space
 70
     0
 10
0.0
 20
0.0
 30
0.0
  3
*Paper_Space
  1

  0
ENDBLK
  5
69
330
67
100
AcDbEntity
 67
     1
  8
0
100
AcDbBlockEnd
  0
BLOCK
  5
465
330
464
100
AcDbEntity
  8
0
100
AcDbBlockBegin
  2
*D0
 70
     1
 10
0.0
 20
0.0
 30
0.0
  3
*D0
  1

  0
LINE
  5
AB0
330
464
100
AcDbEntity
  8
0
 62
     0
370
    -2
100
AcDbLine
 10
723.50388143
 20
193.4308092737899
 30
0.0
 11
723.50388143
 21
209.13844497
 31
0.0
  0
LINE
  5
AB1
330
464
100
AcDbEntity
  8
0
 62
     0
370
    -2
100
AcDbLine
 10
740.7879985
 20
191.29580556
 30
0.0
 11
740.7879985
 21
209.13844497
 31
0.0
  0
LINE
  5
AB2
330
464
100
AcDbEntity
  8
0
 62
     0
370
    -2
100
AcDbLine
 10
726.0038814299999
 20
207.88844497
 30
0.0
 11
738.2879985
 21
207.88844497
 31
0.0
  0
INSERT
  5
AB3
330
464
100
AcDbEntity
  8
0
 62
     0
370
    -2
100
AcDbBlockReference
  2
_Open30
 10
723.50388143
 20
207.88844497
 30
0.0
 41
2.5
 42
2.5
 43
2.5
 50
180.0
  0
INSERT
  5
AB4
330
464
100
AcDbEntity
  8
0
 62
     0
370
    -2
100
AcDbBlockReference
  2
_Open30
 10
740.7879985
 20
207.88844497
 30
0.0
 41
2.5
 42
2.5
 43
2.5
  0
MTEXT
  5
AB5
330
464
100
AcDbEntity
  8
0
 62
     4
100
AcDbMText
 10
732.145939965
 20
210.01344497
 30
0.0
 40
3.0
 41
0.0
 71
     5
 72
     1
  1
38
 73
     1
 44
1.0
1001
ACAD
1000
MTEXTBEGIN
1070
    73
1070
     1
1070
    44
1040
1.0
1070
    74
1070
     0
1000
MTEXTEND
  0
POINT
  5
AB6
330
464
100
AcDbEntity
  8
Defpoints
 62
     0
100
AcDbPoint
 10
723.50388143
 20
193.18080927379
 30
0.0
  0
POINT
  5
AB7
330
464
100
AcDbEntity
  8
Defpoints
 62
     0
100
AcDbPoint
 10
740.7879985
 20
191.04580556
 30
0.0
  0
POINT
  5
AB8
330
464
100
AcDbEntity
  8
Defpoints
 62
     0
100
AcDbPoint
 10
740.7879985
 20
207.88844497
 30
0.0
  0
ENDBLK
  5
466
330
464
100
AcDbEntity
  8
0
100
AcDbBlockEnd
  0
BLOCK
  5
472
330
471
100
AcDbEntity
  8
0
100
AcDbBlockBegin
  2
*D1
 70
     1
 10
0.0
 20
0.0
 30
0.0
  3
*D1
  1

  0
LINE
  5
A8C
330
471
100
AcDbEntity
  8
0
 62
     0
370
    -2
100
AcDbLine
 10
723.50388143
 20
193.4308092737899
 30
0.0
 11
723.50388143
 21
217.324608
 31
0.0
  0
LINE
  5
A8D
330
471
100
AcDbEntity
  8
0
 62
     0
370
    -2
100
AcDbLine
 10
867.2879984999998
 20
191.79580556
 30
0.0
 11
867.2879984999998
 21
217.324608
 31
0.0
  0
LINE
  5
A8E
330
471
100
AcDbEntity
  8
0
 62
     0
370
    -2
100
AcDbLine
 10
726.0038814299999
 20
216.074608
 30
0.0
 11
864.7879984999997
 21
216.074608
 31
0.0
  0
INSERT
  5
A8F
330
471
100
AcDbEntity
  8
0
 62
     0
370
    -2
100
AcDbBlockReference
  2
_Open30
 10
723.50388143
 20
216.074608
 30
0.0
 41
2.5
 42
2.5
 43
2.5
 50
180.0
  0
INSERT
  5
A90
330
471
100
AcDbEntity
  8
0
 62
     0
370
    -2
100
AcDbBlockReference
  2
_Open30
 10
867.2879984999998
 20
216.074608
 30
0.0
 41
2.5
 42
2.5
 43
2.5
  0
MTEXT
  5
A91
330
471
100
AcDbEntity
  8
0
 62
     4
100
AcDbMText
 10
795.3959399649997
 20
218.199608
 30
0.0
 40
3.0
 41
0.0
 71
     5
 72
     1
  1
296
 73
     1
 44
1.0
1001
ACAD
1000
MTEXTBEGIN
1070
    73
1070
     1
1070
    44
1040
1.0
1070
    74
1070
     0
1000
MTEXTEND
  0
POINT
  5
A92
330
471
100
AcDbEntity
  8
Defpoints
 62
     0
100
AcDbPoint
 10
723.50388143
 20
193.18080927379
 30
0.0
  0
POINT
  5
A93
330
471
100
AcDbEntity
  8
Defpoints
 62
     0
100
AcDbPoint
 10
867.2879984999998
 20
191.54580556
 30
0.0
  0
POINT
  5
A94
330
471
100
AcDbEntity
  8
Defpoints
 62
     0
100
AcDbPoint
 10
867.2879984999998
 20
216.074608
 30
0.0
  0
ENDBLK
  5
473
330
471
100
AcDbEntity
  8
0
100
AcDbBlockEnd
  0
BLOCK
  5
47F
330
47E
100
AcDbEntity
  8
0
100
AcDbBlockBegin
  2
*D2
 70
     1
 10
0.0
 20
0.0
 30
0.0
  3
*D2
  1

  0
LINE
  5
A95
330
47E
100
AcDbEntity
  8
0
 62
     0
370
    -2
100
AcDbLine
 10
740.7879985
 20
190.79580556
 30
0.0
 11
740.7879985
 21
209.13844497
 31
0.0
  0
LINE
  5
A96
330
47E
100
AcDbEntity
  8
0
 62
     0
370
    -2
100
AcDbLine
 10
867.2879984999998
 20
190.79580556
 30
0.0
 11
867.2879984999998
 21
209.13844497
 31
0.0
  0
LINE
  5
A97
330
47E
100
AcDbEntity
  8
0
 62
     0
370
    -2
100
AcDbLine
 10
743.2879985
 20
207.88844497
 30
0.0
 11
864.7879984999997
 21
207.88844497
 31
0.0
  0
INSERT
  5
A98
330
47E
100
AcDbEntity
  8
0
 62
     0
370
    -2
100
AcDbBlockReference
  2
_Open30
 10
740.7879985
 20
207.88844497
 30
0.0
 41
2.5
 42
2.5
 43
2.5
 50
180.0
  0
INSERT
  5
A99
330
47E
100
AcDbEntity
  8
0
 62
     0
370
    -2
100
AcDbBlockReference
  2
_Open30
 10
867.2879984999998
 20
207.88844497
 30
0.0
 41
2.5
 42
2.5
 43
2.5
  0
MTEXT
  5
A9A
330
47E
100
AcDbEntity
  8
0
 62
     4
100
AcDbMText
 10
804.0379984999999
 20
210.01344497
 30
0.0
 40
3.0
 41
0.0
 71
     5
 72
     1
  1
258
 73
     1
 44
1.0
1001
ACAD
1000
MTEXTBEGIN
1070
    73
1070
     1
1070
    44
1040
1.0
1070
    74
1070
     0
1000
MTEXTEND
  0
POINT
  5
A9B
330
47E
100
AcDbEntity
  8
Defpoints
 62
     0
100
AcDbPoint
 10
740.7879985
 20
190.54580556
 30
0.0
  0
POINT
  5
A9C
330
47E
100
AcDbEntity
  8
Defpoints
 62
     0
100
AcDbPoint
 10
867.2879984999998
 20
190.54580556
 30
0.0
  0
POINT
  5
A9D
330
47E
100
AcDbEntity
  8
Defpoints
 62
     0
100
AcDbPoint
 10
867.2879984999998
 20
207.88844497
 30
0.0
  0
ENDBLK
  5
480
330
47E
100
AcDbEntity
  8
0
100
AcDbBlockEnd
  0
BLOCK
  5
48C
330
48B
100
AcDbEntity
  8
0
100
AcDbBlockBegin
  2
*D3
 70
     1
 10
0.0
 20
0.0
 30
0.0
  3
*D3
  1

  0
LINE
  5
AB9
330
48B
100
AcDbEntity
  8
0
 62
     0
370
    -2
100
AcDbLine
 10
748.0076634499998
 20
124.36696284
 30
0.0
 11
716.74454756
 21
124.36696284
 31
0.0
  0
LINE
  5
ABA
330
48B
100
AcDbEntity
  8
0
 62
     0
370
    -2
100
AcDbLine
 10
748.0076634499998
 20
160.36696284
 30
0.0
 11
716.74454756
 21
160.36696284
 31
0.0
  0
LINE
  5
ABB
330
48B
100
AcDbEntity
  8
0
 62
     0
370
    -2
100
AcDbLine
 10
717.99454756
 20
126.86696284
 30
0.0
 11
717.99454756
 21
157.86696284
 31
0.0
  0
INSERT
  5
ABC
330
48B
100
AcDbEntity
  8
0
 62
     0
370
    -2
100
AcDbBlockReference
  2
_Open30
 10
717.99454756
 20
124.36696284
 30
0.0
 41
2.5
 42
2.5
 43
2.5
 50
270.0
  0
INSERT
  5
ABD
330
48B
100
AcDbEntity
  8
0
 62
     0
370
    -2
100
AcDbBlockReference
  2
_Open30
 10
717.99454756
 20
160.36696284
 30
0.0
 41
2.5
 42
2.5
 43
2.5
 50
90.0
  0
MTEXT
  5
ABE
330
48B
100
AcDbEntity
  8
0
 62
     4
100
AcDbMText
 10
715.86954756
 20
142.3669628400001
 30
0.0
 40
3.0
 41
0.0
 71
     5
 72
     1
  1
72
 11
0.0000000000000001
 21
1.0
 31
0.0
 73
     1
 44
1.0
1001
ACAD
1000
MTEXTBEGIN
1070
    73
1070
     1
1070
    44
1040
1.0
1070
    74
1070
     0
1000
MTEXTEND
  0
POINT
  5
ABF
330
48B
100
AcDbEntity
  8
Defpoints
 62
     0
100
AcDbPoint
 10
748.2576634499999
 20
124.36696284
 30
0.0
  0
POINT
  5
AC0
330
48B
100
AcDbEntity
  8
Defpoints
 62
     0
100
AcDbPoint
 10
748.2576634499999
 20
160.36696284
 30
0.0
  0
POINT
  5
AC1
330
48B
100
AcDbEntity
  8
Defpoints
 62
     0
100
AcDbPoint
 10
717.99454756
 20
160.36696284
 30
0.0
  0
ENDBLK
  5
48D
330
48B
100
AcDbEntity
  8
0
100
AcDbBlockEnd
  0
BLOCK
  5
499
330
498
100
AcDbEntity
  8
0
100
AcDbBlockBegin
  2
*D4
 70
     1
 10
0.0
 20
0.0
 30
0.0
  3
*D4
  1

  0
LINE
  5
AC2
330
498
100
AcDbEntity
  8
0
 62
     0
370
    -2
100
AcDbLine
 10
856.0379984999997
 20
130.86696284
 30
0.0
 11
877.4037825399997
 21
130.86696284
 31
0.0
  0
LINE
  5
AC3
330
498
100
AcDbEntity
  8
0
 62
     0
370
    -2
100
AcDbLine
 10
856.0379984999997
 20
153.86696284
 30
0.0
 11
877.4037825399997
 21
153.86696284
 31
0.0
  0
LINE
  5
AC4
330
498
100
AcDbEntity
  8
0
 62
     0
370
    -2
100
AcDbLine
 10
876.1537825399997
 20
133.36696284
 30
0.0
 11
876.1537825399997
 21
151.36696284
 31
0.0
  0
INSERT
  5
AC5
330
498
100
AcDbEntity
  8
0
 62
     0
370
    -2
100
AcDbBlockReference
  2
_Open30
 10
876.1537825399997
 20
130.86696284
 30
0.0
 41
2.5
 42
2.5
 43
2.5
 50
270.0
  0
INSERT
  5
AC6
330
498
100
AcDbEntity
  8
0
 62
     0
370
    -2
100
AcDbBlockReference
  2
_Open30
 10
876.1537825399997
 20
153.86696284
 30
0.0
 41
2.5
 42
2.5
 43
2.5
 50
90.0
  0
MTEXT
  5
AC7
330
498
100
AcDbEntity
  8
0
 62
     4
100
AcDbMText
 10
874.0287825399997
 20
142.3669628400001
 30
0.0
 40
3.0
 41
0.0
 71
     5
 72
     1
  1
46
 11
0.0000000000000001
 21
1.0
 31
0.0
 73
     1
 44
1.0
1001
ACAD
1000
MTEXTBEGIN
1070
    73
1070
     1
1070
    44
1040
1.0
1070
    74
1070
     0
1000
MTEXTEND
  0
POINT
  5
AC8
330
498
100
AcDbEntity
  8
Defpoints
 62
     0
100
AcDbPoint
 10
855.7879984999997
 20
130.86696284
 30
0.0
  0
POINT
  5
AC9
330
498
100
AcDbEntity
  8
Defpoints
 62
     0
100
AcDbPoint
 10
855.7879984999997
 20
153.86696284
 30
0.0
  0
POINT
  5
ACA
330
498
100
AcDbEntity
  8
Defpoints
 62
     0
100
AcDbPoint
 10
876.1537825399997
 20
153.86696284
 30
0.0
  0
ENDBLK
  5
49A
330
498
100
AcDbEntity
  8
0
100
AcDbBlockEnd
  0
BLOCK
  5
4A6
330
4A5
100
AcDbEntity
  8
0
100
AcDbBlockBegin
  2
*D5
 70
     1
 10
0.0
 20
0.0
 30
0.0
  3
*D5
  1

  0
LINE
  5
AA7
330
4A5
100
AcDbEntity
  8
0
 62
     0
370
    -2
100
AcDbLine
 10
843.59306993
 20
184.99335911
 30
0.0
 11
876.4867766999998
 21
184.99335911
 31
0.0
  0
LINE
  5
AA8
330
4A5
100
AcDbEntity
  8
0
 62
     0
370
    -2
100
AcDbLine
 10
843.59306993
 20
199.0377004
 30
0.0
 11
876.4867766999998
 21
199.0377004
 31
0.0
  0
LINE
  5
AA9
330
4A5
100
AcDbEntity
  8
0
 62
     0
370
    -2
100
AcDbLine
 10
875.2367766999999
 20
187.49335911
 30
0.0
 11
875.2367766999999
 21
196.5377004
 31
0.0
  0
INSERT
  5
AAA
330
4A5
100
AcDbEntity
  8
0
 62
     0
370
    -2
100
AcDbBlockReference
  2
_Open30
 10
875.2367766999999
 20
184.99335911
 30
0.0
 41
2.5
 42
2.5
 43
2.5
 50
270.0
  0
INSERT
  5
AAB
330
4A5
100
AcDbEntity
  8
0
 62
     0
370
    -2
100
AcDbBlockReference
  2
_Open30
 10
875.2367766999999
 20
199.0377004
 30
0.0
 41
2.5
 42
2.5
 43
2.5
 50
90.0
  0
MTEXT
  5
AAC
330
4A5
100
AcDbEntity
  8
0
 62
     4
100
AcDbMText
 10
873.1117766999998
 20
192.0155297550001
 30
0.0
 40
3.0
 41
0.0
 71
     5
 72
     1
  1
28
 11
0.0000000000000001
 21
1.0
 31
0.0
 73
     1
 44
1.0
1001
ACAD
1000
MTEXTBEGIN
1070
    73
1070
     1
1070
    44
1040
1.0
1070
    74
1070
     0
1000
MTEXTEND
  0
POINT
  5
AAD
330
4A5
100
AcDbEntity
  8
Defpoints
 62
     0
100
AcDbPoint
 10
843.34306993
 20
184.99335911
 30
0.0
  0
POINT
  5
AAE
330
4A5
100
AcDbEntity
  8
Defpoints
 62
     0
100
AcDbPoint
 10
843.34306993
 20
199.0377004
 30
0.0
  0
POINT
  5
AAF
330
4A5
100
AcDbEntity
  8
Defpoints
 62
     0
100
AcDbPoint
 10
875.2367766999999
 20
199.0377004
 30
0.0
  0
ENDBLK
  5
4A7
330
4A5
100
AcDbEntity
  8
0
100
AcDbBlockEnd
  0
BLOCK
  5
4B3
330
4B2
100
AcDbEntity
  8
0
100
AcDbBlockBegin
  2
*D6
 70
     1
 10
0.0
 20
0.0
 30
0.0
  3
*D6
  1

  0
LINE
  5
A9E
330
4B2
100
AcDbEntity
  8
0
 62
     0
370
    -2
100
AcDbLine
 10
801.2841356699997
 20
181.5502675
 30
0.0
 11
885.7864298399997
 21
181.5502675
 31
0.0
  0
LINE
  5
A9F
330
4B2
100
AcDbEntity
  8
0
 62
     0
370
    -2
100
AcDbLine
 10
804.2879984999997
 20
200.57858314
 30
0.0
 11
885.7864298399997
 21
200.57858314
 31
0.0
  0
LINE
  5
AA0
330
4B2
100
AcDbEntity
  8
0
 62
     0
370
    -2
100
AcDbLine
 10
884.5364298399996
 20
184.0502675
 30
0.0
 11
884.5364298399996
 21
198.07858314
 31
0.0
  0
INSERT
  5
AA1
330
4B2
100
AcDbEntity
  8
0
 62
     0
370
    -2
100
AcDbBlockReference
  2
_Open30
 10
884.5364298399996
 20
181.5502675
 30
0.0
 41
2.5
 42
2.5
 43
2.5
 50
270.0
  0
INSERT
  5
AA2
330
4B2
100
AcDbEntity
  8
0
 62
     0
370
    -2
100
AcDbBlockReference
  2
_Open30
 10
884.5364298399996
 20
200.57858314
 30
0.0
 41
2.5
 42
2.5
 43
2.5
 50
90.0
  0
MTEXT
  5
AA3
330
4B2
100
AcDbEntity
  8
0
 62
     4
100
AcDbMText
 10
882.4114298399996
 20
191.0644253200001
 30
0.0
 40
3.0
 41
0.0
 71
     5
 72
     1
  1
38
 11
0.0000000000000001
 21
1.0
 31
0.0
 73
     1
 44
1.0
1001
ACAD
1000
MTEXTBEGIN
1070
    73
1070
     1
1070
    44
1040
1.0
1070
    74
1070
     0
1000
MTEXTEND
  0
POINT
  5
AA4
330
4B2
100
AcDbEntity
  8
Defpoints
 62
     0
100
AcDbPoint
 10
801.0341356699997
 20
181.5502675
 30
0.0
  0
POINT
  5
AA5
330
4B2
100
AcDbEntity
  8
Defpoints
 62
     0
100
AcDbPoint
 10
804.0379984999997
 20
200.57858314
 30
0.0
  0
POINT
  5
AA6
330
4B2
100
AcDbEntity
  8
Defpoints
 62
     0
100
AcDbPoint
 10
884.5364298399996
 20
200.57858314
 30
0.0
  0
ENDBLK
  5
4B4
330
4B2
100
AcDbEntity
  8
0
100
AcDbBlockEnd
  0
BLOCK
  5
4C0
330
4BF
100
AcDbEntity
  8
0
100
AcDbBlockBegin
  2
_Open30
 70
     0
 10
0.0
 20
0.0
 30
0.0
  3
_Open30
  1

  0
LINE
  5
4C1
330
4BF
100
AcDbEntity
  8
0
  6
ByBlock
 62
     0
370
    -2
100
AcDbLine
 10
-1.0
 20
0.267949
 30
0.0
 11
0.0
 21
0.0
 31
0.0
  0
LINE
  5
4C2
330
4BF
100
AcDbEntity
  8
0
  6
ByBlock
 62
     0
370
    -2
100
AcDbLine
 10
0.0
 20
0.0
 30
0.0
 11
-1.0
 21
-0.267949
 31
0.0
  0
LINE
  5
4C3
330
4BF
100
AcDbEntity
  8
0
  6
ByBlock
 62
     0
370
    -2
100
AcDbLine
 10
0.0
 20
0.0
 30
0.0
 11
-1.0
 21
0.0
 31
0.0
  0
ENDBLK
  5
4C4
330
4BF
100
AcDbEntity
  8
0
100
AcDbBlockEnd
  0
BLOCK
  5
996
330
995
100
AcDbEntity
  8
0
100
AcDbBlockBegin
  2
*D19
 70
     1
 10
0.0
 20
0.0
 30
0.0
  3
*D19
  1

  0
LINE
  5
A1F
330
995
100
AcDbEntity
  8
0
 62
     0
370
    -2
100
AcDbLine
 10
1336.471504575946
 20
217.3416173328225
 30
0.0
 11
1336.471504575946
 21
214.4319859108136
 31
0.0
  0
LINE
  5
A20
330
995
100
AcDbEntity
  8
0
 62
     0
370
    -2
100
AcDbLine
 10
1334.014317521825
 20
217.3416173328225
 30
0.0
 11
1334.014317521825
 21
214.4319859108136
 31
0.0
  0
LINE
  5
A21
330
995
100
AcDbEntity
  8
0
 62
     0
370
    -2
100
AcDbLine
 10
1338.971504575946
 20
215.6819859108136
 30
0.0
 11
1341.471504575945
 21
215.6819859108136
 31
0.0
  0
LINE
  5
A22
330
995
100
AcDbEntity
  8
0
 62
     0
370
    -2
100
AcDbLine
 10
1331.514317521825
 20
215.6819859108136
 30
0.0
 11
1318.764317521825
 21
215.6819859108136
 31
0.0
  0
LINE
  5
A23
330
995
100
AcDbEntity
  8
0
 62
     0
370
    -2
100
AcDbLine
 10
1336.471504575946
 20
215.6819859108136
 30
0.0
 11
1334.014317521825
 21
215.6819859108136
 31
0.0
  0
INSERT
  5
A24
330
995
100
AcDbEntity
  8
0
 62
     0
370
    -2
100
AcDbBlockReference
  2
_Open30
 10
1336.471504575946
 20
215.6819859108136
 30
0.0
 41
2.5
 42
2.5
 43
2.5
 50
180.0
  0
INSERT
  5
A25
330
995
100
AcDbEntity
  8
0
 62
     0
370
    -2
100
AcDbBlockReference
  2
_Open30
 10
1334.014317521825
 20
215.6819859108136
 30
0.0
 41
2.5
 42
2.5
 43
2.5
  0
MTEXT
  5
A26
330
995
100
AcDbEntity
  8
0
 62
     4
100
AcDbMText
 10
1323.889317521825
 20
217.8069859108136
 30
0.0
 40
3.0
 41
0.0
 71
     5
 72
     1
  1
2.46
 73
     1
 44
1.0
1001
ACAD
1000
MTEXTBEGIN
1070
    73
1070
     1
1070
    44
1040
1.0
1070
    74
1070
     0
1000
MTEXTEND
  0
POINT
  5
A27
330
995
100
AcDbEntity
  8
Defpoints
 62
     0
100
AcDbPoint
 10
1336.471504575946
 20
217.5916173328225
 30
0.0
  0
POINT
  5
A28
330
995
100
AcDbEntity
  8
Defpoints
 62
     0
100
AcDbPoint
 10
1334.014317521825
 20
217.5916173328225
 30
0.0
  0
POINT
  5
A29
330
995
100
AcDbEntity
  8
Defpoints
 62
     0
100
AcDbPoint
 10
1334.014317521825
 20
215.6819859108136
 30
0.0
  0
ENDBLK
  5
997
330
995
100
AcDbEntity
  8
0
100
AcDbBlockEnd
  0
BLOCK
  5
9A4
330
9A3
100
AcDbEntity
  8
0
100
AcDbBlockBegin
  2
*D20
 70
     1
 10
0.0
 20
0.0
 30
0.0
  3
*D20
  1

  0
LINE
  5
A2A
330
9A3
100
AcDbEntity
  8
0
 62
     0
370
    -2
100
AcDbLine
 10
1338.109629482019
 20
211.8855277600601
 30
0.0
 11
1338.109629482019
 21
209.3396356905968
 31
0.0
  0
LINE
  5
A2B
330
9A3
100
AcDbEntity
  8
0
 62
     0
370
    -2
100
AcDbLine
 10
1335.015393683876
 20
211.8855277600601
 30
0.0
 11
1335.015393683876
 21
209.3396356905968
 31
0.0
  0
LINE
  5
A2C
330
9A3
100
AcDbEntity
  8
0
 62
     0
370
    -2
100
AcDbLine
 10
1340.609629482019
 20
210.5896356905968
 30
0.0
 11
1343.109629482019
 21
210.5896356905968
 31
0.0
  0
LINE
  5
A2D
330
9A3
100
AcDbEntity
  8
0
 62
     0
370
    -2
100
AcDbLine
 10
1332.515393683876
 20
210.5896356905968
 30
0.0
 11
1318.682060350542
 21
210.5896356905968
 31
0.0
  0
LINE
  5
A2E
330
9A3
100
AcDbEntity
  8
0
 62
     0
370
    -2
100
AcDbLine
 10
1338.109629482019
 20
210.5896356905968
 30
0.0
 11
1335.015393683876
 21
210.5896356905968
 31
0.0
  0
INSERT
  5
A2F
330
9A3
100
AcDbEntity
  8
0
 62
     0
370
    -2
100
AcDbBlockReference
  2
_Open30
 10
1338.109629482019
 20
210.5896356905968
 30
0.0
 41
2.5
 42
2.5
 43
2.5
 50
180.0
  0
INSERT
  5
A30
330
9A3
100
AcDbEntity
  8
0
 62
     0
370
    -2
100
AcDbBlockReference
  2
_Open30
 10
1335.015393683876
 20
210.5896356905968
 30
0.0
 41
2.5
 42
2.5
 43
2.5
  0
MTEXT
  5
A31
330
9A3
100
AcDbEntity
  8
0
 62
     4
100
AcDbMText
 10
1323.890393683876
 20
212.4646356905968
 30
0.0
 40
2.5
 41
0.0
 71
     5
 72
     1
  1
15.47
  7
高2.5
 73
     1
 44
1.0
1001
ACAD
1000
MTEXTBEGIN
1070
    73
1070
     1
1070
    44
1040
1.0
1070
    74
1070
     0
1000
MTEXTEND
  0
POINT
  5
A32
330
9A3
100
AcDbEntity
  8
Defpoints
 62
     0
100
AcDbPoint
 10
1338.109629482019
 20
212.1355277600601
 30
0.0
  0
POINT
  5
A33
330
9A3
100
AcDbEntity
  8
Defpoints
 62
     0
100
AcDbPoint
 10
1335.015393683876
 20
212.1355277600601
 30
0.0
  0
POINT
  5
A34
330
9A3
100
AcDbEntity
  8
Defpoints
 62
     0
100
AcDbPoint
 10
1335.015393683876
 20
210.5896356905968
 30
0.0
  0
ENDBLK
  5
9A5
330
9A3
100
AcDbEntity
  8
0
100
AcDbBlockEnd
  0
BLOCK
  5
9B2
330
9B1
100
AcDbEntity
  8
0
100
AcDbBlockBegin
  2
*D21
 70
     1
 10
0.0
 20
0.0
 30
0.0
  3
*D21
  1

  0
LINE
  5
A35
330
9B1
100
AcDbEntity
  8
0
 62
     0
370
    -2
100
AcDbLine
 10
1339.838761090104
 20
206.4294380442136
 30
0.0
 11
1339.838761090104
 21
204.1563503818463
 31
0.0
  0
LINE
  5
A36
330
9B1
100
AcDbEntity
  8
0
 62
     0
370
    -2
100
AcDbLine
 10
1335.834456136912
 20
206.4294380442136
 30
0.0
 11
1335.834456136912
 21
204.1563503818463
 31
0.0
  0
LINE
  5
A37
330
9B1
100
AcDbEntity
  8
0
 62
     0
370
    -2
100
AcDbLine
 10
1342.338761090104
 20
205.4063503818463
 30
0.0
 11
1344.838761090104
 21
205.4063503818463
 31
0.0
  0
LINE
  5
A38
330
9B1
100
AcDbEntity
  8
0
 62
     0
370
    -2
100
AcDbLine
 10
1333.334456136913
 20
205.4063503818463
 30
0.0
 11
1321.584456136912
 21
205.4063503818463
 31
0.0
  0
LINE
  5
A39
330
9B1
100
AcDbEntity
  8
0
 62
     0
370
    -2
100
AcDbLine
 10
1339.838761090104
 20
205.4063503818463
 30
0.0
 11
1335.834456136912
 21
205.4063503818463
 31
0.0
  0
INSERT
  5
A3A
330
9B1
100
AcDbEntity
  8
0
 62
     0
370
    -2
100
AcDbBlockReference
  2
_Open30
 10
1339.838761090104
 20
205.4063503818463
 30
0.0
 41
2.5
 42
2.5
 43
2.5
 50
180.0
  0
INSERT
  5
A3B
330
9B1
100
AcDbEntity
  8
0
 62
     0
370
    -2
100
AcDbBlockReference
  2
_Open30
 10
1335.834456136912
 20
205.4063503818463
 30
0.0
 41
2.5
 42
2.5
 43
2.5
  0
MTEXT
  5
A3C
330
9B1
100
AcDbEntity
  8
0
 62
     4
100
AcDbMText
 10
1326.209456136912
 20
207.6313503818463
 30
0.0
 40
3.2
 41
0.0
 71
     5
 72
     1
  1
8.01
  7
高3.2
 73
     1
 44
1.0
1001
ACAD
1000
MTEXTBEGIN
1070
    73
1070
     1
1070
    44
1040
1.0
1070
    74
1070
     0
1000
MTEXTEND
  0
POINT
  5
A3D
330
9B1
100
AcDbEntity
  8
Defpoints
 62
     0
100
AcDbPoint
 10
1339.838761090104
 20
206.6794380442136
 30
0.0
  0
POINT
  5
A3E
330
9B1
100
AcDbEntity
  8
Defpoints
 62
     0
100
AcDbPoint
 10
1335.834456136912
 20
206.6794380442136
 30
0.0
  0
POINT
  5
A3F
330
9B1
100
AcDbEntity
  8
Defpoints
 62
     0
100
AcDbPoint
 10
1335.834456136912
 20
205.4063503818463
 30
0.0
  0
ENDBLK
  5
9B3
330
9B1
100
AcDbEntity
  8
0
100
AcDbBlockEnd
  0
BLOCK
  5
9C0
330
9BF
100
AcDbEntity
  8
0
100
AcDbBlockBegin
  2
*D22
 70
     1
 10
0.0
 20
0.0
 30
0.0
  3
*D22
  1

  0
LINE
  5
A40
330
9BF
100
AcDbEntity
  8
0
 62
     0
370
    -2
100
AcDbLine
 10
1339.747754388092
 20
201.155218076182
 30
0.0
 11
1339.747754388092
 21
199.3368045687256
 31
0.0
  0
LINE
  5
A41
330
9BF
100
AcDbEntity
  8
0
 62
     0
370
    -2
100
AcDbLine
 10
1335.015393683876
 20
201.155218076182
 30
0.0
 11
1335.015393683876
 21
199.3368045687256
 31
0.0
  0
LINE
  5
A42
330
9BF
100
AcDbEntity
  8
0
 62
     0
370
    -2
100
AcDbLine
 10
1342.247754388092
 20
200.5868045687256
 30
0.0
 11
1344.747754388092
 21
200.5868045687256
 31
0.0
  0
LINE
  5
A43
330
9BF
100
AcDbEntity
  8
0
 62
     0
370
    -2
100
AcDbLine
 10
1332.515393683876
 20
200.5868045687256
 30
0.0
 11
1310.765393683876
 21
200.5868045687256
 31
0.0
  0
LINE
  5
A44
330
9BF
100
AcDbEntity
  8
0
 62
     0
370
    -2
100
AcDbLine
 10
1339.747754388092
 20
200.5868045687256
 30
0.0
 11
1335.015393683876
 21
200.5868045687256
 31
0.0
  0
INSERT
  5
A45
330
9BF
100
AcDbEntity
  8
0
 62
     0
370
    -2
100
AcDbBlockReference
  2
_Open30
 10
1339.747754388092
 20
200.5868045687256
 30
0.0
 41
2.5
 42
2.5
 43
2.5
 50
180.0
  0
INSERT
  5
A46
330
9BF
100
AcDbEntity
  8
0
 62
     0
370
    -2
100
AcDbBlockReference
  2
_Open30
 10
1335.015393683876
 20
200.5868045687256
 30
0.0
 41
2.5
 42
2.5
 43
2.5
  0
MTEXT
  5
A47
330
9BF
100
AcDbEntity
  8
0
 62
     4
100
AcDbMText
 10
1320.390393683876
 20
203.4618045687256
 30
0.0
 40
4.5
 41
0.0
 71
     5
 72
     1
  1
47.32
  7
高4.5
 73
     1
 44
1.0
1001
ACAD
1000
MTEXTBEGIN
1070
    73
1070
     1
1070
    44
1040
1.0
1070
    74
1070
     0
1000
MTEXTEND
  0
POINT
  5
A48
330
9BF
100
AcDbEntity
  8
Defpoints
 62
     0
100
AcDbPoint
 10
1339.747754388092
 20
201.405218076182
 30
0.0
  0
POINT
  5
A49
330
9BF
100
AcDbEntity
  8
Defpoints
 62
     0
100
AcDbPoint
 10
1335.015393683876
 20
201.405218076182
 30
0.0
  0
POINT
  5
A4A
330
9BF
100
AcDbEntity
  8
Defpoints
 62
     0
100
AcDbPoint
 10
1335.015393683876
 20
200.5868045687256
 30
0.0
  0
ENDBLK
  5
9C1
330
9BF
100
AcDbEntity
  8
0
100
AcDbBlockEnd
  0
BLOCK
  5
9CE
330
9CD
100
AcDbEntity
  8
0
100
AcDbBlockBegin
  2
*D23
 70
     1
 10
0.0
 20
0.0
 30
0.0
  3
*D23
  1

  0
LINE
  5
A4B
330
9CD
100
AcDbEntity
  8
0
 62
     0
370
    -2
100
AcDbLine
 10
1361.2253906561
 20
217.3416173328225
 30
0.0
 11
1361.2253906561
 21
214.4319859108136
 31
0.0
  0
LINE
  5
A4C
330
9CD
100
AcDbEntity
  8
0
 62
     0
370
    -2
100
AcDbLine
 10
1358.768203601979
 20
217.3416173328225
 30
0.0
 11
1358.768203601979
 21
214.4319859108136
 31
0.0
  0
LINE
  5
A4D
330
9CD
100
AcDbEntity
  8
0
 62
     0
370
    -2
100
AcDbLine
 10
1363.7253906561
 20
215.6819859108136
 30
0.0
 11
1366.2253906561
 21
215.6819859108136
 31
0.0
  0
LINE
  5
A4E
330
9CD
100
AcDbEntity
  8
0
 62
     0
370
    -2
100
AcDbLine
 10
1356.268203601979
 20
215.6819859108136
 30
0.0
 11
1334.668203601979
 21
215.6819859108136
 31
0.0
  0
LINE
  5
A4F
330
9CD
100
AcDbEntity
  8
0
 62
     0
370
    -2
100
AcDbLine
 10
1361.2253906561
 20
215.6819859108136
 30
0.0
 11
1358.768203601979
 21
215.6819859108136
 31
0.0
  0
INSERT
  5
A50
330
9CD
100
AcDbEntity
  8
0
 62
     0
370
    -2
100
AcDbBlockReference
  2
_Open30
 10
1361.2253906561
 20
215.6819859108136
 30
0.0
 41
2.5
 42
2.5
 43
2.5
 50
180.0
  0
INSERT
  5
A51
330
9CD
100
AcDbEntity
  8
0
 62
     0
370
    -2
100
AcDbBlockReference
  2
_Open30
 10
1358.768203601979
 20
215.6819859108136
 30
0.0
 41
2.5
 42
2.5
 43
2.5
  0
MTEXT
  5
A52
330
9CD
100
AcDbEntity
  8
0
 62
     4
100
AcDbMText
 10
1344.218203601979
 20
219.4569859108137
 30
0.0
 40
6.299999999999998
 41
0.0
 71
     5
 72
     1
  1
0.25
  7
高6.3
 73
     1
 44
1.0
1001
ACAD
1000
MTEXTBEGIN
1070
    73
1070
     1
1070
    44
1040
1.0
1070
    74
1070
     0
1000
MTEXTEND
  0
POINT
  5
A53
330
9CD
100
AcDbEntity
  8
Defpoints
 62
     0
100
AcDbPoint
 10
1361.2253906561
 20
217.5916173328225
 30
0.0
  0
POINT
  5
A54
330
9CD
100
AcDbEntity
  8
Defpoints
 62
     0
100
AcDbPoint
 10
1358.768203601979
 20
217.5916173328225
 30
0.0
  0
POINT
  5
A55
330
9CD
100
AcDbEntity
  8
Defpoints
 62
     0
100
AcDbPoint
 10
1358.768203601979
 20
215.6819859108136
 30
0.0
  0
ENDBLK
  5
9CF
330
9CD
100
AcDbEntity
  8
0
100
AcDbBlockEnd
  0
BLOCK
  5
9DC
330
9DB
100
AcDbEntity
  8
0
100
AcDbBlockBegin
  2
*D24
 70
     1
 10
0.0
 20
0.0
 30
0.0
  3
*D24
  1

  0
LINE
  5
A56
330
9DB
100
AcDbEntity
  8
0
 62
     0
370
    -2
100
AcDbLine
 10
1362.863515562173
 20
211.8855277600601
 30
0.0
 11
1362.863515562173
 21
209.3396356905968
 31
0.0
  0
LINE
  5
A57
330
9DB
100
AcDbEntity
  8
0
 62
     0
370
    -2
100
AcDbLine
 10
1359.76927976403
 20
211.8855277600601
 30
0.0
 11
1359.76927976403
 21
209.3396356905968
 31
0.0
  0
LINE
  5
A58
330
9DB
100
AcDbEntity
  8
0
 62
     0
370
    -2
100
AcDbLine
 10
1365.363515562173
 20
210.5896356905968
 30
0.0
 11
1367.863515562173
 21
210.5896356905968
 31
0.0
  0
LINE
  5
A59
330
9DB
100
AcDbEntity
  8
0
 62
     0
370
    -2
100
AcDbLine
 10
1357.26927976403
 20
210.5896356905968
 30
0.0
 11
1345.26927976403
 21
210.5896356905968
 31
0.0
  0
LINE
  5
A5A
330
9DB
100
AcDbEntity
  8
0
 62
     0
370
    -2
100
AcDbLine
 10
1362.863515562173
 20
210.5896356905968
 30
0.0
 11
1359.76927976403
 21
210.5896356905968
 31
0.0
  0
INSERT
  5
A5B
330
9DB
100
AcDbEntity
  8
0
 62
     0
370
    -2
100
AcDbBlockReference
  2
_Open30
 10
1362.863515562173
 20
210.5896356905968
 30
0.0
 41
2.5
 42
2.5
 43
2.5
 50
180.0
  0
INSERT
  5
A5C
330
9DB
100
AcDbEntity
  8
0
 62
     0
370
    -2
100
AcDbBlockReference
  2
_Open30
 10
1359.76927976403
 20
210.5896356905968
 30
0.0
 41
2.5
 42
2.5
 43
2.5
  0
MTEXT
  5
A5D
330
9DB
100
AcDbEntity
  8
0
 62
     4
100
AcDbMText
 10
1349.89427976403
 20
212.7146356905968
 30
0.0
 40
3.0
 41
0.0
 71
     5
 72
     1
  1
1.55
 73
     1
 44
1.0
1001
ACAD
1000
MTEXTBEGIN
1070
    73
1070
     1
1070
    44
1040
1.0
1070
    74
1070
     0
1000
MTEXTEND
  0
POINT
  5
A5E
330
9DB
100
AcDbEntity
  8
Defpoints
 62
     0
100
AcDbPoint
 10
1362.863515562173
 20
212.1355277600601
 30
0.0
  0
POINT
  5
A5F
330
9DB
100
AcDbEntity
  8
Defpoints
 62
     0
100
AcDbPoint
 10
1359.76927976403
 20
212.1355277600601
 30
0.0
  0
POINT
  5
A60
330
9DB
100
AcDbEntity
  8
Defpoints
 62
     0
100
AcDbPoint
 10
1359.76927976403
 20
210.5896356905968
 30
0.0
  0
ENDBLK
  5
9DD
330
9DB
100
AcDbEntity
  8
0
100
AcDbBlockEnd
  0
BLOCK
  5
9EA
330
9E9
100
AcDbEntity
  8
0
100
AcDbBlockBegin
  2
*D25
 70
     1
 10
0.0
 20
0.0
 30
0.0
  3
*D25
  1

  0
LINE
  5
A61
330
9E9
100
AcDbEntity
  8
0
 62
     0
370
    -2
100
AcDbLine
 10
1364.592647170258
 20
206.4294380442136
 30
0.0
 11
1364.592647170258
 21
204.1563503818463
 31
0.0
  0
LINE
  5
A62
330
9E9
100
AcDbEntity
  8
0
 62
     0
370
    -2
100
AcDbLine
 10
1360.588342217067
 20
206.4294380442136
 30
0.0
 11
1360.588342217067
 21
204.1563503818463
 31
0.0
  0
LINE
  5
A63
330
9E9
100
AcDbEntity
  8
0
 62
     0
370
    -2
100
AcDbLine
 10
1367.092647170258
 20
205.4063503818463
 30
0.0
 11
1369.592647170258
 21
205.4063503818463
 31
0.0
  0
LINE
  5
A64
330
9E9
100
AcDbEntity
  8
0
 62
     0
370
    -2
100
AcDbLine
 10
1358.088342217066
 20
205.4063503818463
 30
0.0
 11
1349.755008883733
 21
205.4063503818463
 31
0.0
  0
LINE
  5
A65
330
9E9
100
AcDbEntity
  8
0
 62
     0
370
    -2
100
AcDbLine
 10
1364.592647170258
 20
205.4063503818463
 30
0.0
 11
1360.588342217067
 21
205.4063503818463
 31
0.0
  0
INSERT
  5
A66
330
9E9
100
AcDbEntity
  8
0
 62
     0
370
    -2
100
AcDbBlockReference
  2
_Open30
 10
1364.592647170258
 20
205.4063503818463
 30
0.0
 41
2.5
 42
2.5
 43
2.5
 50
180.0
  0
INSERT
  5
A67
330
9E9
100
AcDbEntity
  8
0
 62
     0
370
    -2
100
AcDbBlockReference
  2
_Open30
 10
1360.588342217067
 20
205.4063503818463
 30
0.0
 41
2.5
 42
2.5
 43
2.5
  0
MTEXT
  5
A68
330
9E9
100
AcDbEntity
  8
0
 62
     4
100
AcDbMText
 10
1352.213342217067
 20
207.0313503818463
 30
0.0
 40
2.0
 41
0.0
 71
     5
 72
     1
  1
0.8
  7
高2
 73
     1
 44
1.0
1001
ACAD
1000
MTEXTBEGIN
1070
    73
1070
     1
1070
    44
1040
1.0
1070
    74
1070
     0
1000
MTEXTEND
  0
POINT
  5
A69
330
9E9
100
AcDbEntity
  8
Defpoints
 62
     0
100
AcDbPoint
 10
1364.592647170258
 20
206.6794380442136
 30
0.0
  0
POINT
  5
A6A
330
9E9
100
AcDbEntity
  8
Defpoints
 62
     0
100
AcDbPoint
 10
1360.588342217067
 20
206.6794380442136
 30
0.0
  0
POINT
  5
A6B
330
9E9
100
AcDbEntity
  8
Defpoints
 62
     0
100
AcDbPoint
 10
1360.588342217067
 20
205.4063503818463
 30
0.0
  0
ENDBLK
  5
9EB
330
9E9
100
AcDbEntity
  8
0
100
AcDbBlockEnd
  0
BLOCK
  5
9F8
330
9F7
100
AcDbEntity
  8
0
100
AcDbBlockBegin
  2
*D26
 70
     1
 10
0.0
 20
0.0
 30
0.0
  3
*D26
  1

  0
LINE
  5
A6C
330
9F7
100
AcDbEntity
  8
0
 62
     0
370
    -2
100
AcDbLine
 10
1364.501640468246
 20
201.155218076182
 30
0.0
 11
1364.501640468246
 21
199.3368045687256
 31
0.0
  0
LINE
  5
A6D
330
9F7
100
AcDbEntity
  8
0
 62
     0
370
    -2
100
AcDbLine
 10
1359.76927976403
 20
201.155218076182
 30
0.0
 11
1359.76927976403
 21
199.3368045687256
 31
0.0
  0
LINE
  5
A6E
330
9F7
100
AcDbEntity
  8
0
 62
     0
370
    -2
100
AcDbLine
 10
1367.001640468246
 20
200.5868045687256
 30
0.0
 11
1369.501640468246
 21
200.5868045687256
 31
0.0
  0
LINE
  5
A6F
330
9F7
100
AcDbEntity
  8
0
 62
     0
370
    -2
100
AcDbLine
 10
1357.26927976403
 20
200.5868045687256
 30
0.0
 11
1342.51927976403
 21
200.5868045687256
 31
0.0
  0
LINE
  5
A70
330
9F7
100
AcDbEntity
  8
0
 62
     0
370
    -2
100
AcDbLine
 10
1364.501640468246
 20
200.5868045687256
 30
0.0
 11
1359.76927976403
 21
200.5868045687256
 31
0.0
  0
INSERT
  5
A71
330
9F7
100
AcDbEntity
  8
0
 62
     0
370
    -2
100
AcDbBlockReference
  2
_Open30
 10
1364.501640468246
 20
200.5868045687256
 30
0.0
 41
2.5
 42
2.5
 43
2.5
 50
180.0
  0
INSERT
  5
A72
330
9F7
100
AcDbEntity
  8
0
 62
     0
370
    -2
100
AcDbBlockReference
  2
_Open30
 10
1359.76927976403
 20
200.5868045687256
 30
0.0
 41
2.5
 42
2.5
 43
2.5
  0
MTEXT
  5
A73
330
9F7
100
AcDbEntity
  8
0
 62
     4
100
AcDbMText
 10
1348.64427976403
 20
202.7118045687256
 30
0.0
 40
3.0
 41
0.0
 71
     5
 72
     1
  1
18.93
 73
     1
 44
1.0
1001
ACAD
1000
MTEXTBEGIN
1070
    73
1070
     1
1070
    44
1040
1.0
1070
    74
1070
     0
1000
MTEXTEND
  0
POINT
  5
A74
330
9F7
100
AcDbEntity
  8
Defpoints
 62
     0
100
AcDbPoint
 10
1364.501640468246
 20
201.405218076182
 30
0.0
  0
POINT
  5
A75
330
9F7
100
AcDbEntity
  8
Defpoints
 62
     0
100
AcDbPoint
 10
1359.76927976403
 20
201.405218076182
 30
0.0
  0
POINT
  5
A76
330
9F7
100
AcDbEntity
  8
Defpoints
 62
     0
100
AcDbPoint
 10
1359.76927976403
 20
200.5868045687256
 30
0.0
  0
ENDBLK
  5
9F9
330
9F7
100
AcDbEntity
  8
0
100
AcDbBlockEnd
  0
BLOCK
  5
A06
330
A05
100
AcDbEntity
  8
0
100
AcDbBlockBegin
  2
*D27
 70
     1
 10
0.0
 20
0.0
 30
0.0
  3
*D27
  1

  0
LINE
  5
A77
330
A05
100
AcDbEntity
  8
0
 62
     0
370
    -2
100
AcDbLine
 10
1361.697213617108
 20
196.0993778695922
 30
0.0
 11
1361.697213617108
 21
193.7894567927166
 31
0.0
  0
LINE
  5
A78
330
A05
100
AcDbEntity
  8
0
 62
     0
370
    -2
100
AcDbLine
 10
1357.10853841496
 20
196.0993778695922
 30
0.0
 11
1357.10853841496
 21
193.7894567927166
 31
0.0
  0
LINE
  5
A79
330
A05
100
AcDbEntity
  8
0
 62
     0
370
    -2
100
AcDbLine
 10
1364.197213617108
 20
195.0394567927167
 30
0.0
 11
1366.697213617108
 21
195.0394567927167
 31
0.0
  0
LINE
  5
A7A
330
A05
100
AcDbEntity
  8
0
 62
     0
370
    -2
100
AcDbLine
 10
1354.60853841496
 20
195.0394567927167
 30
0.0
 11
1339.85853841496
 21
195.0394567927167
 31
0.0
  0
LINE
  5
A7B
330
A05
100
AcDbEntity
  8
0
 62
     0
370
    -2
100
AcDbLine
 10
1361.697213617108
 20
195.0394567927167
 30
0.0
 11
1357.10853841496
 21
195.0394567927167
 31
0.0
  0
INSERT
  5
A7C
330
A05
100
AcDbEntity
  8
0
 62
     0
370
    -2
100
AcDbBlockReference
  2
_Open30
 10
1361.697213617108
 20
195.0394567927167
 30
0.0
 41
2.5
 42
2.5
 43
2.5
 50
180.0
  0
INSERT
  5
A7D
330
A05
100
AcDbEntity
  8
0
 62
     0
370
    -2
100
AcDbBlockReference
  2
_Open30
 10
1357.10853841496
 20
195.0394567927167
 30
0.0
 41
2.5
 42
2.5
 43
2.5
  0
MTEXT
  5
A7E
330
A05
100
AcDbEntity
  8
0
 62
     4
100
AcDbMText
 10
1345.98353841496
 20
197.1644567927167
 30
0.0
 40
3.0
 41
0.0
 71
     5
 72
     1
  1
13.77
 73
     1
 44
1.0
1001
ACAD
1000
MTEXTBEGIN
1070
    73
1070
     1
1070
    44
1040
1.0
1070
    74
1070
     0
1000
MTEXTEND
  0
POINT
  5
A7F
330
A05
100
AcDbEntity
  8
Defpoints
 62
     0
100
AcDbPoint
 10
1361.697213617108
 20
196.3493778695922
 30
0.0
  0
POINT
  5
A80
330
A05
100
AcDbEntity
  8
Defpoints
 62
     0
100
AcDbPoint
 10
1357.10853841496
 20
196.3493778695922
 30
0.0
  0
POINT
  5
A81
330
A05
100
AcDbEntity
  8
Defpoints
 62
     0
100
AcDbPoint
 10
1357.10853841496
 20
195.0394567927167
 30
0.0
  0
ENDBLK
  5
A07
330
A05
100
AcDbEntity
  8
0
100
AcDbBlockEnd
  0
BLOCK
  5
A14
330
A13
100
AcDbEntity
  8
0
100
AcDbBlockBegin
  2
*D28
 70
     1
 10
0.0
 20
0.0
 30
0.0
  3
*D28
  1

  0
LINE
  5
A82
330
A13
100
AcDbEntity
  8
0
 62
     0
370
    -2
100
AcDbLine
 10
1354.600930783957
 20
227.0288691878666
 30
0.0
 11
1354.600930783957
 21
234.4254026658043
 31
0.0
  0
LINE
  5
A83
330
A13
100
AcDbEntity
  8
0
 62
     0
370
    -2
100
AcDbLine
 10
1344.662456414467
 20
227.0288691878666
 30
0.0
 11
1344.662456414467
 21
234.4254026658043
 31
0.0
  0
LINE
  5
A84
330
A13
100
AcDbEntity
  8
0
 62
     0
370
    -2
100
AcDbLine
 10
1352.100930783957
 20
233.1754026658043
 30
0.0
 11
1347.162456414467
 21
233.1754026658043
 31
0.0
  0
INSERT
  5
A85
330
A13
100
AcDbEntity
  8
0
 62
     0
370
    -2
100
AcDbBlockReference
  2
_Open30
 10
1354.600930783957
 20
233.1754026658043
 30
0.0
 41
2.5
 42
2.5
 43
2.5
  0
INSERT
  5
A86
330
A13
100
AcDbEntity
  8
0
 62
     0
370
    -2
100
AcDbBlockReference
  2
_Open30
 10
1344.662456414467
 20
233.1754026658043
 30
0.0
 41
2.5
 42
2.5
 43
2.5
 50
180.0
  0
MTEXT
  5
A87
330
A13
100
AcDbEntity
  8
0
 62
     4
100
AcDbMText
 10
1349.631693599212
 20
236.2504026658043
 30
0.0
 40
3.0
 41
0.0
 71
     5
 72
     1
  1
9.94\H0.7X;\S+0^ -0.02;
 73
     1
 44
1.0
1001
ACAD
1000
MTEXTBEGIN
1070
    73
1070
     1
1070
    44
1040
1.0
1070
    74
1070
     0
1000
MTEXTEND
  0
POINT
  5
A88
330
A13
100
AcDbEntity
  8
Defpoints
 62
     0
100
AcDbPoint
 10
1354.600930783957
 20
226.7788691878666
 30
0.0
  0
POINT
  5
A89
330
A13
100
AcDbEntity
  8
Defpoints
 62
     0
100
AcDbPoint
 10
1344.662456414467
 20
226.7788691878666
 30
0.0
  0
POINT
  5
A8A
330
A13
100
AcDbEntity
  8
Defpoints
 62
     0
100
AcDbPoint
 10
1344.662456414467
 20
233.1754026658043
 30
0.0
  0
ENDBLK
  5
A15
330
A13
100
AcDbEntity
  8
0
100
AcDbBlockEnd
  0
ENDSEC
  0
SECTION
  2
ENTITIES
  0
LINE
  5
EF
330
6B
100
AcDbEntity
  8
0
 62
     3
100
AcDbLine
 10
923.16905762
 20
180.33061534
 30
0.0
 11
923.16905762
 21
177.33061534
 31
0.0
  0
LINE
  5
F0
330
6B
100
AcDbEntity
  8
0
 62
     3
100
AcDbLine
 10
923.16905762
 20
180.33061534
 30
0.0
 11
929.16905762
 21
180.33061534
 31
0.0
  0
LINE
  5
F1
330
6B
100
AcDbEntity
  8
0
 62
     3
100
AcDbLine
 10
923.16905762
 20
177.33061534
 30
0.0
 11
929.16905762
 21
177.33061534
 31
0.0
  0
LINE
  5
F2
330
6B
100
AcDbEntity
  8
0
 62
     3
100
AcDbLine
 10
935.1690576199999
 20
181.83061534
 30
0.0
 11
935.1690576199999
 21
175.83061534
 31
0.0
  0
LINE
  5
F3
330
6B
100
AcDbEntity
  8
0
 62
     3
100
AcDbLine
 10
977.24953177
 20
166.52892945
 30
0.0
 11
977.24953177
 21
164.02892945
 31
0.0
  0
LINE
  5
F4
330
6B
100
AcDbEntity
  8
0
 62
     3
100
AcDbLine
 10
952.1828372099999
 20
172.8047724
 30
0.0
 11
973.8616103
 21
172.8047724
 31
0.0
  0
LINE
  5
F5
330
6B
100
AcDbEntity
  8
0
 62
     3
100
AcDbLine
 10
952.1828372099999
 20
171.3047724
 30
0.0
 11
973.8616103
 21
171.3047724
 31
0.0
  0
LINE
  5
F6
330
6B
100
AcDbEntity
  8
0
 62
     3
100
AcDbLine
 10
952.1828372099999
 20
166.02892945
 30
0.0
 11
977.24953177
 21
166.02892945
 31
0.0
  0
LINE
  5
F7
330
6B
100
AcDbEntity
  8
0
 62
     3
100
AcDbLine
 10
952.1828372099999
 20
164.52892945
 30
0.0
 11
977.24953177
 21
164.52892945
 31
0.0
  0
ARC
  5
F8
330
6B
100
AcDbEntity
  8
0
 62
     3
100
AcDbCircle
 10
973.8616103
 20
175.44269387
 30
0.0
 40
4.13792147
100
AcDbArc
 50
270.0
 51
90.0
  0
ARC
  5
F9
330
6B
100
AcDbEntity
  8
0
 62
     3
100
AcDbCircle
 10
973.8616103
 20
175.44269387
 30
0.0
 40
2.63792147
100
AcDbArc
 50
270.0
 51
90.0
  0
ARC
  5
FA
330
6B
100
AcDbEntity
  8
0
 62
     3
100
AcDbCircle
 10
952.1828372099999
 20
168.66685092
 30
0.0
 40
4.13792147
100
AcDbArc
 50
90.0
 51
270.0
  0
ARC
  5
FB
330
6B
100
AcDbEntity
  8
0
 62
     3
100
AcDbCircle
 10
952.1828372099999
 20
168.66685092
 30
0.0
 40
2.63792147
100
AcDbArc
 50
90.0
 51
270.0
  0
LINE
  5
FC
330
6B
100
AcDbEntity
  8
0
 62
     3
100
AcDbLine
 10
983.2495317699999
 20
167.27892945
 30
0.0
 11
977.24953177
 21
166.52892945
 31
0.0
  0
LINE
  5
FD
330
6B
100
AcDbEntity
  8
0
 62
     3
100
AcDbLine
 10
977.24953177
 20
164.02892945
 30
0.0
 11
983.2495317699999
 21
163.27892945
 31
0.0
  0
LINE
  5
FE
330
6B
100
AcDbEntity
  8
0
 62
     7
100
AcDbLine
 10
1010.24953177
 20
162.27892945
 30
0.0
 11
1010.24953177
 21
154.52892945
 31
0.0
  0
LINE
  5
FF
330
6B
100
AcDbEntity
  8
0
 62
     7
100
AcDbLine
 10
1006.24953177
 20
162.27892945
 30
0.0
 11
1006.24953177
 21
154.52892945
 31
0.0
  0
LINE
  5
100
330
6B
100
AcDbEntity
  8
0
 62
     7
100
AcDbLine
 10
1006.24953177
 20
154.52892945
 30
0.0
 11
1010.24953177
 21
154.52892945
 31
0.0
  0
ARC
  5
101
330
6B
100
AcDbEntity
  8
0
 62
     7
100
AcDbCircle
 10
1008.24953177
 20
156.82059612
 30
0.0
 40
3.04166667
100
AcDbArc
 50
228.88790956
 51
311.11209044
  0
CIRCLE
  5
102
330
6B
100
AcDbEntity
  8
0
 62
     7
100
AcDbCircle
 10
1008.24953177
 20
156.27892945
 30
0.0
 40
0.75
  0
LINE
  5
103
330
6B
100
AcDbEntity
  8
0
 62
     3
100
AcDbLine
 10
923.16905762
 20
135.35856735
 30
0.0
 11
929.16905762
 21
135.35856735
 31
0.0
  0
LINE
  5
104
330
6B
100
AcDbEntity
  8
0
 62
     3
100
AcDbLine
 10
923.16905762
 20
138.35856735
 30
0.0
 11
929.16905762
 21
138.35856735
 31
0.0
  0
LINE
  5
105
330
6B
100
AcDbEntity
  8
0
 62
     3
100
AcDbLine
 10
923.16905762
 20
138.35856735
 30
0.0
 11
923.16905762
 21
135.35856735
 31
0.0
  0
LINE
  5
106
330
6B
100
AcDbEntity
  8
0
 62
     3
100
AcDbLine
 10
935.1690576199999
 20
139.85856735
 30
0.0
 11
935.1690576199999
 21
133.85856735
 31
0.0
  0
LINE
  5
107
330
6B
100
AcDbEntity
  8
0
 62
     3
100
AcDbLine
 10
952.1828372099999
 20
129.3327244
 30
0.0
 11
973.8616103
 21
129.3327244
 31
0.0
  0
LINE
  5
108
330
6B
100
AcDbEntity
  8
0
 62
     3
100
AcDbLine
 10
952.1828372099999
 20
130.8327244
 30
0.0
 11
973.8616103
 21
130.8327244
 31
0.0
  0
LINE
  5
109
330
6B
100
AcDbEntity
  8
0
 62
     3
100
AcDbLine
 10
977.24953177
 20
124.55688146
 30
0.0
 11
977.24953177
 21
122.05688146
 31
0.0
  0
LINE
  5
10A
330
6B
100
AcDbEntity
  8
0
 62
     7
100
AcDbLine
 10
1013.24953177
 20
124.30688146
 30
0.0
 11
1013.24953177
 21
122.30688146
 31
0.0
  0
LINE
  5
10B
330
6B
100
AcDbEntity
  8
0
 62
     3
100
AcDbLine
 10
952.1828372099999
 20
124.05688146
 30
0.0
 11
977.24953177
 21
124.05688146
 31
0.0
  0
LINE
  5
10C
330
6B
100
AcDbEntity
  8
0
 62
     3
100
AcDbLine
 10
952.1828372099999
 20
122.55688146
 30
0.0
 11
977.24953177
 21
122.55688146
 31
0.0
  0
ARC
  5
10D
330
6B
100
AcDbEntity
  8
0
 62
     3
100
AcDbCircle
 10
973.8616103
 20
133.47064587
 30
0.0
 40
2.63792147
100
AcDbArc
 50
270.0
 51
90.0
  0
ARC
  5
10E
330
6B
100
AcDbEntity
  8
0
 62
     3
100
AcDbCircle
 10
973.8616103
 20
133.47064587
 30
0.0
 40
4.13792147
100
AcDbArc
 50
270.0
 51
90.0
  0
ARC
  5
10F
330
6B
100
AcDbEntity
  8
0
 62
     3
100
AcDbCircle
 10
952.1828372099999
 20
126.69480293
 30
0.0
 40
2.63792147
100
AcDbArc
 50
90.0
 51
270.0
  0
ARC
  5
110
330
6B
100
AcDbEntity
  8
0
 62
     3
100
AcDbCircle
 10
952.1828372099999
 20
126.69480293
 30
0.0
 40
4.13792147
100
AcDbArc
 50
90.0
 51
270.0
  0
LINE
  5
111
330
6B
100
AcDbEntity
  8
0
 62
     3
100
AcDbLine
 10
983.2495317699999
 20
125.30688146
 30
0.0
 11
977.24953177
 21
124.55688146
 31
0.0
  0
LINE
  5
112
330
6B
100
AcDbEntity
  8
0
 62
     3
100
AcDbLine
 10
977.24953177
 20
122.05688146
 30
0.0
 11
983.2495317699999
 21
121.30688146
 31
0.0
  0
LINE
  5
113
330
6B
100
AcDbEntity
  8
0
 62
     7
100
AcDbLine
 10
1011.74953177
 20
124.30688146
 30
0.0
 11
1013.24953177
 21
124.30688146
 31
0.0
  0
LINE
  5
114
330
6B
100
AcDbEntity
  8
0
 62
     7
100
AcDbLine
 10
1011.74953177
 20
122.30688146
 30
0.0
 11
1013.24953177
 21
122.30688146
 31
0.0
  0
LINE
  5
115
330
6B
100
AcDbEntity
  8
0
 62
     3
100
AcDbLine
 10
1011.74953177
 20
126.80688146
 30
0.0
 11
1011.74953177
 21
119.80688146
 31
0.0
  0
LINE
  5
116
330
6B
100
AcDbEntity
  8
0
 62
     3
100
AcDbLine
 10
1010.24953177
 20
126.80688146
 30
0.0
 11
1011.74953177
 21
126.80688146
 31
0.0
  0
LINE
  5
117
330
6B
100
AcDbEntity
  8
0
 62
     3
100
AcDbLine
 10
1010.24953177
 20
119.80688146
 30
0.0
 11
1011.74953177
 21
119.80688146
 31
0.0
  0
ARC
  5
118
330
6B
100
AcDbEntity
  8
0
 62
     7
100
AcDbCircle
 10
1000.88654844
 20
123.47271157
 30
0.0
 40
5.80831148
100
AcDbArc
 50
41.30885871
 51
138.69114129
  0
ARC
  5
119
330
6B
100
AcDbEntity
  8
0
 62
     7
100
AcDbCircle
 10
1000.88654844
 20
123.47271157
 30
0.0
 40
5.30831148
100
AcDbArc
 50
46.24433394999999
 51
133.75566605
  0
ARC
  5
11A
330
6B
100
AcDbEntity
  8
0
 62
     7
100
AcDbCircle
 10
1000.88654844
 20
123.14105134
 30
0.0
 40
5.80831148
100
AcDbArc
 50
221.30885871
 51
318.69114129
  0
ARC
  5
11B
330
6B
100
AcDbEntity
  8
0
 62
     7
100
AcDbCircle
 10
1000.88654844
 20
123.14105134
 30
0.0
 40
5.30831148
100
AcDbArc
 50
226.24433395
 51
313.75566605
  0
LINE
  5
142
330
6B
100
AcDbEntity
  8
0
 62
     3
100
AcDbLine
 10
1030.05690227
 20
-18.1841685
 30
0.0
 11
1030.05690227
 21
4.815831499999998
 31
0.0
  0
LINE
  5
144
330
6B
100
AcDbEntity
  8
0
 62
     3
100
AcDbLine
 10
977.0032928399999
 20
-25.1841685
 30
0.0
 11
977.0032928399999
 21
-11.1841685
 31
0.0
  0
TEXT
  5
146
330
6B
100
AcDbEntity
  8
0
 62
     3
100
AcDbText
 10
1006.06722037
 20
1.020947569999999
 30
0.0
 40
2.0
  1
A
 41
0.6999999900000003
100
AcDbText
  0
TEXT
  5
147
330
6B
100
AcDbEntity
  8
0
 62
     3
100
AcDbText
 10
1008.60250656
 20
1.020947569999999
 30
0.0
 40
2.0
  1
P
 41
0.6999999900000003
100
AcDbText
  0
TEXT
  5
148
330
6B
100
AcDbEntity
  8
0
 62
     3
100
AcDbText
 10
1011.13779274
 20
1.020947569999999
 30
0.0
 40
2.0
  1
P
 41
0.6999999900000003
100
AcDbText
  0
TEXT
  5
149
330
6B
100
AcDbEntity
  8
0
 62
     3
100
AcDbText
 10
1013.67307893
 20
1.020947569999999
 30
0.0
 40
2.0
  1
D
 41
0.6999999900000003
100
AcDbText
  0
TEXT
  5
14A
330
6B
100
AcDbEntity
  8
0
 62
     3
100
AcDbText
 10
1019.04176217
 20
1.020947569999999
 30
0.0
 40
2.0
  1
C
 41
0.6999999900000003
100
AcDbText
  0
TEXT
  5
14B
330
6B
100
AcDbEntity
  8
0
 62
     3
100
AcDbText
 10
1021.57704836
 20
1.020947569999999
 30
0.0
 40
2.0
  1
H
 41
0.6999999900000003
100
AcDbText
  0
TEXT
  5
14C
330
6B
100
AcDbEntity
  8
0
 62
     3
100
AcDbText
 10
1024.11233455
 20
1.020947569999999
 30
0.0
 40
2.0
  1
C
 41
0.6999999900000003
100
AcDbText
  0
TEXT
  5
14D
330
6B
100
AcDbEntity
  8
0
 62
     3
100
AcDbText
 10
1026.64762073
 20
1.020947569999999
 30
0.0
 40
2.0
  1
K
 41
0.6999999900000003
100
AcDbText
  0
TEXT
  5
14E
330
6B
100
AcDbEntity
  8
0
 62
     3
100
AcDbText
 10
1032.32158731
 20
1.020947569999999
 30
0.0
 40
2.0
  1
DESN
 41
1.216762539999999
100
AcDbText
  0
TEXT
  5
14F
330
6B
100
AcDbEntity
  8
0
 62
     3
100
AcDbText
 10
947.3152285700001
 20
-28.32555029
 30
0.0
 40
2.0
  1
NICHIDO IND.CO.LTD
 41
1.27487637
100
AcDbText
  0
LINE
  5
150
330
6B
100
AcDbEntity
  8
0
 62
     3
100
AcDbLine
 10
957.69825789
 20
4.815831499999998
 30
0.0
 11
957.69825789
 21
-18.1841685
 31
0.0
  0
LINE
  5
151
330
6B
100
AcDbEntity
  8
0
 62
     3
100
AcDbLine
 10
1004.05690227
 20
4.815831499999998
 30
0.0
 11
1004.05690227
 21
-34.84989103
 31
0.0
  0
LINE
  5
156
330
6B
100
AcDbEntity
  8
0
 62
     3
100
AcDbLine
 10
1017.05690227
 20
4.815831499999998
 30
0.0
 11
1017.05690227
 21
-25.1841685
 31
0.0
  0
TEXT
  5
157
330
6B
100
AcDbEntity
  8
0
 62
     3
100
AcDbText
 10
1005.169347
 20
-24.3194817
 30
0.0
 40
3.200000049999998
  1
作成日
 41
1.01722639
100
AcDbText
  0
LINE
  5
158
330
6B
100
AcDbEntity
  8
0
 62
     3
100
AcDbLine
 10
1055.75626575
 20
4.815831499999998
 30
0.0
 11
944.4528232500001
 21
4.815831499999998
 31
0.0
  0
LINE
  5
159
330
6B
100
AcDbEntity
  8
0
 62
     3
100
AcDbLine
 10
1043.05690227
 20
-18.1841685
 30
0.0
 11
1043.05690227
 21
4.815831499999998
 31
0.0
  0
TEXT
  5
15A
330
6B
100
AcDbEntity
  8
0
 62
     3
100
AcDbText
 10
1046.38070557
 20
1.106766069999999
 30
0.0
 40
1.799999949999999
  1
D
 41
0.66666671
100
AcDbText
  0
TEXT
  5
15B
330
6B
100
AcDbEntity
  8
0
 62
     3
100
AcDbText
 10
1049.19733379
 20
1.106766069999999
 30
0.0
 40
1.799999949999999
  1
E
 41
0.66666671
100
AcDbText
  0
TEXT
  5
15C
330
6B
100
AcDbEntity
  8
0
 62
     3
100
AcDbText
 10
1052.01396201
 20
1.106766069999999
 30
0.0
 40
1.799999949999999
  1
F
 41
0.66666671
100
AcDbText
  0
TEXT
  5
15D
330
6B
100
AcDbEntity
  8
0
 62
     3
100
AcDbText
 10
1046.38070557
 20
-2.885787239999998
 30
0.0
 40
3.200000049999998
  1
製図
 41
1.076368849999999
100
AcDbText
  0
LINE
  5
15E
330
6B
100
AcDbEntity
  8
0
 62
     3
100
AcDbLine
 10
944.4528232500001
 20
4.815831499999998
 30
0.0
 11
944.4528232500001
 21
-34.84989103
 31
0.0
  0
TEXT
  5
15F
330
6B
100
AcDbEntity
  8
0
 62
     3
100
AcDbText
 10
945.8294761099999
 20
-34.51742555
 30
0.0
 40
5.0
  1
日動工業株式会社
 41
0.8333333299999999
100
AcDbText
  0
LINE
  5
160
330
6B
100
AcDbEntity
  8
0
 62
     3
100
AcDbLine
 10
987.3352271999999
 20
-11.1841685
 30
0.0
 11
987.3352271999999
 21
-34.84989103
 31
0.0
  0
LINE
  5
161
330
6B
100
AcDbEntity
  8
0
 62
     3
100
AcDbLine
 10
987.3352271999999
 20
-30.01702977
 30
0.0
 11
1004.05690227
 21
-30.01702977
 31
0.0
  0
TEXT
  5
162
330
6B
100
AcDbEntity
  8
0
 62
     3
100
AcDbText
 10
987.92182914
 20
-29.20059916
 30
0.0
 40
3.200000049999998
  1
出図コード
 41
0.8356862900000001
100
AcDbText
  0
LINE
  5
174
330
6B
100
AcDbEntity
  8
0
 62
     3
100
AcDbLine
 10
944.4528232500001
 20
-25.18416849999999
 30
0.0
 11
1055.75626575
 21
-25.1841685
 31
0.0
  0
LINE
  5
176
330
6B
100
AcDbEntity
  8
0
 62
     3
100
AcDbLine
 10
944.4528232500001
 20
-4.1841685
 30
0.0
 11
1055.75626575
 21
-4.1841685
 31
0.0
  0
LINE
  5
17C
330
6B
100
AcDbEntity
  8
0
 62
     3
100
AcDbLine
 10
944.4528232500001
 20
-11.1841685
 30
0.0
 11
1004.05690227
 21
-11.1841685
 31
0.0
  0
LINE
  5
182
330
6B
100
AcDbEntity
  8
0
 62
     3
100
AcDbLine
 10
944.4528232500001
 20
-18.1841685
 30
0.0
 11
1055.75626575
 21
-18.1841685
 31
0.0
  0
LINE
  5
186
330
6B
100
AcDbEntity
  8
0
 62
     3
100
AcDbLine
 10
1055.75626575
 20
239.20547002
 30
0.0
 11
1055.75626575
 21
-34.84989102999998
 31
0.0
  0
LINE
  5
187
330
6B
100
AcDbEntity
  8
0
 62
     3
100
AcDbLine
 10
665.75626575
 20
239.20547002
 30
0.0
 11
665.75626575
 21
-34.84989103
 31
0.0
  0
LINE
  5
188
330
6B
100
AcDbEntity
  8
0
 62
     3
100
AcDbLine
 10
1055.75626575
 20
-34.84989103
 30
0.0
 11
665.75626575
 21
-34.84989103
 31
0.0
  0
TEXT
  5
18B
330
6B
100
AcDbEntity
  8
0
 62
     3
100
AcDbText
 10
987.78928083
 20
-34.38834828388917
 30
0.0
 40
3.200000049999998
  1
ZK-A3X
 41
0.8112849199999999
100
AcDbText
  0
LINE
  5
18C
330
6B
100
AcDbEntity
  8
0
 62
     2
100
AcDbLine
 10
843.5311552199998
 20
241.64547216
 30
0.0
 11
844.1536522299996
 21
241.32051768
 31
0.0
  0
LINE
  5
18D
330
6B
100
AcDbEntity
  8
0
 62
     2
100
AcDbLine
 10
843.5311552199998
 20
236.31600006
 30
0.0
 11
844.1536522299996
 21
236.64095454
 31
0.0
  0
LINE
  5
18E
330
6B
100
AcDbEntity
  8
0
 62
     2
100
AcDbLine
 10
844.1536522299996
 20
241.32051768
 30
0.0
 11
844.1536522299996
 21
236.64095454
 31
0.0
  0
LINE
  5
18F
330
6B
100
AcDbEntity
  8
0
 62
     2
100
AcDbLine
 10
845.73010569
 20
236.31600006
 30
0.0
 11
845.10760868
 21
236.64095454
 31
0.0
  0
LINE
  5
190
330
6B
100
AcDbEntity
  8
0
 62
     2
100
AcDbLine
 10
845.10760868
 20
239.49360999
 30
0.0
 11
845.10760868
 21
236.64095454
 31
0.0
  0
LINE
  5
191
330
6B
100
AcDbEntity
  8
0
 62
     2
100
AcDbLine
 10
849.3613382299999
 20
241.64547216
 30
0.0
 11
848.7388412200001
 21
241.32051768
 31
0.0
  0
LINE
  5
192
330
6B
100
AcDbEntity
  8
0
 62
     2
100
AcDbLine
 10
847.16238776
 20
241.64547216
 30
0.0
 11
847.7848847699997
 21
241.32051768
 31
0.0
  0
LINE
  5
193
330
6B
100
AcDbEntity
  8
0
 62
     2
100
AcDbLine
 10
847.7848847699997
 20
241.32051768
 30
0.0
 11
847.7848847699997
 21
239.26003616
 31
0.0
  0
LINE
  5
194
330
6B
100
AcDbEntity
  8
0
 62
     2
100
AcDbLine
 10
848.7388412200001
 20
241.32051768
 30
0.0
 11
848.7388412200001
 21
236.01376985
 31
0.0
  0
LINE
  5
195
330
6B
100
AcDbEntity
  8
0
 62
     2
100
AcDbLine
 10
849.6689056599999
 20
241.64546841
 30
0.0
 11
850.2914004299999
 21
241.32050964
 31
0.0
  0
LINE
  5
196
330
6B
100
AcDbEntity
  8
0
 62
     2
100
AcDbLine
 10
849.6687942800001
 20
236.31607145
 30
0.0
 11
850.2913026299996
 21
236.6410042
 31
0.0
  0
LINE
  5
197
330
6B
100
AcDbEntity
  8
0
 62
     2
100
AcDbLine
 10
850.2914004299999
 20
241.32050964
 30
0.0
 11
850.2914004299999
 21
236.6410042
 31
0.0
  0
LINE
  5
198
330
6B
100
AcDbEntity
  8
0
 62
     2
100
AcDbLine
 10
852.42538623
 20
241.64543459
 30
0.0
 11
851.80288467
 21
241.32048883
 31
0.0
  0
LINE
  5
199
330
6B
100
AcDbEntity
  8
0
 62
     2
100
AcDbLine
 10
851.80288467
 20
241.32048883
 30
0.0
 11
851.80288467
 21
236.64098339
 31
0.0
  0
LINE
  5
19A
330
6B
100
AcDbEntity
  8
0
 62
     2
100
AcDbLine
 10
852.42538623
 20
236.31603763
 30
0.0
 11
851.80288467
 21
236.64098339
 31
0.0
  0
LINE
  5
19B
330
6B
100
AcDbEntity
  8
0
 62
     2
100
AcDbLine
 10
857.6971768599999
 20
241.64537602
 30
0.0
 11
858.31967274
 21
241.3204194
 31
0.0
  0
LINE
  5
19C
330
6B
100
AcDbEntity
  8
0
 62
     2
100
AcDbLine
 10
858.31967274
 20
241.3204194
 30
0.0
 11
858.31959107
 21
236.64091395
 31
0.0
  0
LINE
  5
19D
330
6B
100
AcDbEntity
  8
0
 62
     2
100
AcDbLine
 10
857.6970838399999
 20
236.31597906
 30
0.0
 11
858.31959107
 21
236.64091395
 31
0.0
  0
LINE
  5
19E
330
6B
100
AcDbEntity
  8
0
 62
     2
100
AcDbLine
 10
860.4861210899999
 20
241.64537602
 30
0.0
 11
859.86362521
 21
241.3204194
 31
0.0
  0
LINE
  5
19F
330
6B
100
AcDbEntity
  8
0
 62
     2
100
AcDbLine
 10
860.4862141099996
 20
236.31597906
 30
0.0
 11
859.86370688
 21
236.64091395
 31
0.0
  0
LINE
  5
1A0
330
6B
100
AcDbEntity
  8
0
 62
     2
100
AcDbLine
 10
860.77716089
 20
241.64537602
 30
0.0
 11
861.3996567799999
 21
241.3204194
 31
0.0
  0
LINE
  5
1A1
330
6B
100
AcDbEntity
  8
0
 62
     2
100
AcDbLine
 10
860.7770678799999
 20
236.31597906
 30
0.0
 11
861.39957511
 21
236.64091395
 31
0.0
  0
LINE
  5
1A2
330
6B
100
AcDbEntity
  8
0
 62
     2
100
AcDbLine
 10
863.5661051299999
 20
241.64537602
 30
0.0
 11
862.94360925
 21
241.3204194
 31
0.0
  0
LINE
  5
1A3
330
6B
100
AcDbEntity
  8
0
 62
     2
100
AcDbLine
 10
862.94360925
 20
241.3204194
 30
0.0
 11
862.94369092
 21
236.64091395
 31
0.0
  0
LINE
  5
1A4
330
6B
100
AcDbEntity
  8
0
 62
     2
100
AcDbLine
 10
863.56619815
 20
236.31597906
 30
0.0
 11
862.94369092
 21
236.64091395
 31
0.0
  0
LINE
  5
1A5
330
6B
100
AcDbEntity
  8
0
 62
     2
100
AcDbLine
 10
861.3996211999998
 20
239.28165779
 30
0.0
 11
859.8636607900001
 21
239.28165779
 31
0.0
  0
LINE
  5
1A6
330
6B
100
AcDbEntity
  8
0
 62
     2
100
AcDbLine
 10
861.39961069
 20
238.67981442
 30
0.0
 11
859.8636712899999
 21
238.67981442
 31
0.0
  0
LINE
  5
1A7
330
6B
100
AcDbEntity
  8
0
 62
     2
100
AcDbLine
 10
861.3996567799999
 20
241.3204194
 30
0.0
 11
861.3996211999998
 21
239.28165779
 31
0.0
  0
LINE
  5
1A8
330
6B
100
AcDbEntity
  8
0
 62
     2
100
AcDbLine
 10
861.39961069
 20
238.67981442
 30
0.0
 11
861.39957511
 21
236.64091395
 31
0.0
  0
LINE
  5
1A9
330
6B
100
AcDbEntity
  8
0
 62
     2
100
AcDbLine
 10
859.86362521
 20
241.3204194
 30
0.0
 11
859.8636607900001
 21
239.28165779
 31
0.0
  0
LINE
  5
1AA
330
6B
100
AcDbEntity
  8
0
 62
     2
100
AcDbLine
 10
859.8636712899999
 20
238.67981442
 30
0.0
 11
859.86370688
 21
236.64091395
 31
0.0
  0
LINE
  5
1AB
330
6B
100
AcDbEntity
  8
0
 62
     2
100
AcDbLine
 10
863.86176102
 20
241.64537602
 30
0.0
 11
864.4842568999999
 21
241.3204194
 31
0.0
  0
LINE
  5
1AC
330
6B
100
AcDbEntity
  8
0
 62
     2
100
AcDbLine
 10
864.4842568999999
 20
241.3204194
 30
0.0
 11
864.4841752299999
 21
236.64091395
 31
0.0
  0
LINE
  5
1AD
330
6B
100
AcDbEntity
  8
0
 62
     2
100
AcDbLine
 10
863.861668
 20
236.31597906
 30
0.0
 11
864.4841752299999
 21
236.64091395
 31
0.0
  0
LINE
  5
1AE
330
6B
100
AcDbEntity
  8
0
 62
     2
100
AcDbLine
 10
866.6182042599999
 20
241.64537602
 30
0.0
 11
865.99570837
 21
241.3204194
 31
0.0
  0
LINE
  5
1AF
330
6B
100
AcDbEntity
  8
0
 62
     2
100
AcDbLine
 10
865.99570837
 20
241.3204194
 30
0.0
 11
865.99579004
 21
236.64091395
 31
0.0
  0
LINE
  5
1B0
330
6B
100
AcDbEntity
  8
0
 62
     2
100
AcDbLine
 10
866.6182972699997
 20
236.31597906
 30
0.0
 11
865.99579004
 21
236.64091395
 31
0.0
  0
LINE
  5
1B1
330
6B
100
AcDbEntity
  8
0
 62
     2
100
AcDbLine
 10
866.9244322099999
 20
241.64537602
 30
0.0
 11
867.5469280999998
 21
241.3204194
 31
0.0
  0
LINE
  5
1B2
330
6B
100
AcDbEntity
  8
0
 62
     2
100
AcDbLine
 10
867.5469280999998
 20
241.3204194
 30
0.0
 11
867.5468464299997
 21
236.64091395
 31
0.0
  0
LINE
  5
1B3
330
6B
100
AcDbEntity
  8
0
 62
     2
100
AcDbLine
 10
866.9243392
 20
236.31597906
 30
0.0
 11
867.5468464299997
 21
236.64091395
 31
0.0
  0
ARC
  5
1B4
330
6B
100
AcDbEntity
  8
0
 62
     2
100
AcDbCircle
 10
855.7087321899999
 20
238.99415005
 30
0.0
 40
2.98040844
100
AcDbArc
 50
97.70152351
 51
270.0
  0
ARC
  5
1B5
330
6B
100
AcDbEntity
  8
0
 62
     2
100
AcDbCircle
 10
874.1095905299996
 20
238.96421201
 30
0.0
 40
3.012776259999998
100
AcDbArc
 50
0.31425027
 51
69.00558245
  0
ARC
  5
1B6
330
6B
100
AcDbEntity
  8
0
 62
     2
100
AcDbCircle
 10
874.7676981399999
 20
238.96421201
 30
0.0
 40
3.012776259999998
100
AcDbArc
 50
110.99441755
 51
148.11661102
  0
ARC
  5
1B7
330
6B
100
AcDbEntity
  8
0
 62
     2
100
AcDbCircle
 10
874.1095905299996
 20
238.99726021
 30
0.0
 40
3.012776259999998
100
AcDbArc
 50
290.99441755
 51
359.68574973
  0
ARC
  5
1B8
330
6B
100
AcDbEntity
  8
0
 62
     2
100
AcDbCircle
 10
874.7676981399999
 20
238.99726021
 30
0.0
 40
3.012776259999998
100
AcDbArc
 50
211.88338898
 51
249.00558245
  0
ARC
  5
1B9
330
6B
100
AcDbEntity
  8
0
 62
     2
100
AcDbCircle
 10
874.4386443299999
 20
240.21331524
 30
0.0
 40
1.73438712
100
AcDbArc
 50
64.3651719
 51
115.6348281
  0
ARC
  5
1BA
330
6B
100
AcDbEntity
  8
0
 62
     2
100
AcDbCircle
 10
874.4386443299999
 20
237.74815698
 30
0.0
 40
1.73438712
100
AcDbArc
 50
244.3651719
 51
295.6348281
  0
ARC
  5
1BB
330
6B
100
AcDbEntity
  8
0
 62
     2
100
AcDbCircle
 10
874.4386443299999
 20
240.2462605
 30
0.0
 40
0.85122233
100
AcDbArc
 50
19.48660554
 51
160.51339446
  0
ARC
  5
1BC
330
6B
100
AcDbEntity
  8
0
 62
     2
100
AcDbCircle
 10
874.4386443299999
 20
237.71521172
 30
0.0
 40
0.85122233
100
AcDbArc
 50
199.48660554
 51
340.51339446
  0
ARC
  5
1BD
330
6B
100
AcDbEntity
  8
0
 62
     3
100
AcDbCircle
 10
867.66368362
 20
207.22636491
 30
0.0
 40
37.20000000000001
100
AcDbArc
 50
69.50571479999999
 51
81.68998806999999
  0
ARC
  5
1BE
330
6B
100
AcDbEntity
  8
0
 62
     3
100
AcDbCircle
 10
867.66368362
 20
270.73510731
 30
0.0
 40
37.20000000000001
100
AcDbArc
 50
278.31001193
 51
290.4942852
  0
ARC
  5
1BF
330
6B
100
AcDbEntity
  8
0
 62
     3
100
AcDbCircle
 10
879.5325466499999
 20
238.98073611
 30
0.0
 40
3.299999999999998
100
AcDbArc
 50
290.4942852
 51
69.50571479999999
  0
ARC
  5
1C0
330
6B
100
AcDbEntity
  8
0
 62
     3
100
AcDbCircle
 10
840.5325466499999
 20
238.98073611
 30
0.0
 40
3.299999999999998
100
AcDbArc
 50
110.4942852
 51
249.5057148
  0
ARC
  5
1C1
330
6B
100
AcDbEntity
  8
0
 62
     3
100
AcDbCircle
 10
852.40140969
 20
207.22636491
 30
0.0
 40
37.20000000000001
100
AcDbArc
 50
98.31001192999998
 51
110.4942852
  0
ARC
  5
1C2
330
6B
100
AcDbEntity
  8
0
 62
     3
100
AcDbCircle
 10
852.40140969
 20
270.73510731
 30
0.0
 40
37.20000000000001
100
AcDbArc
 50
249.5057148
 51
261.68998807
  0
ARC
  5
1C3
330
6B
100
AcDbEntity
  8
0
 62
     3
100
AcDbCircle
 10
860.0325466499999
 20
154.98073611
 30
0.0
 40
89.99999981
100
AcDbArc
 50
81.68998806999999
 51
98.31001192999998
  0
ARC
  5
1C4
330
6B
100
AcDbEntity
  8
0
 62
     3
100
AcDbCircle
 10
860.0325466499999
 20
322.98073611
 30
0.0
 40
89.99999981
100
AcDbArc
 50
261.68998807
 51
278.31001193
  0
ARC
  5
1C5
330
6B
100
AcDbEntity
  8
0
 62
     3
100
AcDbCircle
 10
860.0325466499999
 20
154.98073611
 30
0.0
 40
89.09999981
100
AcDbArc
 50
81.68998806999999
 51
98.31001192999998
  0
ARC
  5
1C6
330
6B
100
AcDbEntity
  8
0
 62
     3
100
AcDbCircle
 10
860.0325466499999
 20
322.98073611
 30
0.0
 40
89.09999981
100
AcDbArc
 50
261.68998807
 51
278.31001193
  0
ARC
  5
1C7
330
6B
100
AcDbEntity
  8
0
 62
     3
100
AcDbCircle
 10
867.66368362
 20
270.73510731
 30
0.0
 40
36.3
100
AcDbArc
 50
278.31001193
 51
290.4942852
  0
ARC
  5
1C8
330
6B
100
AcDbEntity
  8
0
 62
     3
100
AcDbCircle
 10
867.66368362
 20
207.22636491
 30
0.0
 40
36.3
100
AcDbArc
 50
69.50571479999999
 51
81.68998806999999
  0
ARC
  5
1C9
330
6B
100
AcDbEntity
  8
0
 62
     3
100
AcDbCircle
 10
879.5325466499999
 20
238.98073611
 30
0.0
 40
2.399999999999999
100
AcDbArc
 50
290.4942852
 51
69.50571479999999
  0
ARC
  5
1CA
330
6B
100
AcDbEntity
  8
0
 62
     3
100
AcDbCircle
 10
840.5325466499999
 20
238.98073611
 30
0.0
 40
2.399999999999999
100
AcDbArc
 50
110.4942852
 51
249.5057148
  0
ARC
  5
1CB
330
6B
100
AcDbEntity
  8
0
 62
     3
100
AcDbCircle
 10
852.40140969
 20
207.22636491
 30
0.0
 40
36.3
100
AcDbArc
 50
98.31001192999998
 51
110.4942852
  0
ARC
  5
1CC
330
6B
100
AcDbEntity
  8
0
 62
     3
100
AcDbCircle
 10
852.40140969
 20
270.73510731
 30
0.0
 40
36.3
100
AcDbArc
 50
249.5057148
 51
261.68998807
  0
LINE
  5
1CD
330
6B
100
AcDbEntity
  8
0
 62
     2
100
AcDbLine
 10
866.61820538
 20
236.01376985
 30
0.0
 11
863.8617598999998
 21
236.01376985
 31
0.0
  0
LINE
  5
1CE
330
6B
100
AcDbEntity
  8
0
 62
     2
100
AcDbLine
 10
866.61820538
 20
236.31600006
 30
0.0
 11
866.61820538
 21
236.01376985
 31
0.0
  0
LINE
  5
1CF
330
6B
100
AcDbEntity
  8
0
 62
     2
100
AcDbLine
 10
863.56610625
 20
241.94756134
 30
0.0
 11
860.7771597700001
 21
241.94756134
 31
0.0
  0
LINE
  5
1D0
330
6B
100
AcDbEntity
  8
0
 62
     2
100
AcDbLine
 10
863.56610625
 20
241.94756134
 30
0.0
 11
863.56610625
 21
241.64547216
 31
0.0
  0
LINE
  5
1D1
330
6B
100
AcDbEntity
  8
0
 62
     2
100
AcDbLine
 10
863.56610625
 20
236.31600006
 30
0.0
 11
863.56610625
 21
236.01362883
 31
0.0
  0
LINE
  5
1D2
330
6B
100
AcDbEntity
  8
0
 62
     2
100
AcDbLine
 10
863.56610625
 20
236.01362883
 30
0.0
 11
860.7771597700001
 21
236.01362883
 31
0.0
  0
LINE
  5
1D3
330
6B
100
AcDbEntity
  8
0
 62
     2
100
AcDbLine
 10
866.61820538
 20
241.94770237
 30
0.0
 11
866.61820538
 21
241.64547216
 31
0.0
  0
LINE
  5
1D4
330
6B
100
AcDbEntity
  8
0
 62
     2
100
AcDbLine
 10
866.61820538
 20
241.94770237
 30
0.0
 11
863.8617598999998
 21
241.94770237
 31
0.0
  0
LINE
  5
1D5
330
6B
100
AcDbEntity
  8
0
 62
     2
100
AcDbLine
 10
863.8617598999998
 20
241.94770237
 30
0.0
 11
863.8617598999998
 21
241.64547216
 31
0.0
  0
LINE
  5
1D6
330
6B
100
AcDbEntity
  8
0
 62
     2
100
AcDbLine
 10
866.9244310899996
 20
236.31600006
 30
0.0
 11
866.9244310899996
 21
236.01376985
 31
0.0
  0
LINE
  5
1D7
330
6B
100
AcDbEntity
  8
0
 62
     2
100
AcDbLine
 10
869.75914618
 20
236.01376985
 30
0.0
 11
866.9244310899996
 21
236.01376985
 31
0.0
  0
LINE
  5
1D8
330
6B
100
AcDbEntity
  8
0
 62
     2
100
AcDbLine
 10
869.05837956
 20
240.99374591
 30
0.0
 11
869.05837956
 21
236.96772631
 31
0.0
  0
LINE
  5
1D9
330
6B
100
AcDbEntity
  8
0
 62
     2
100
AcDbLine
 10
869.05837956
 20
236.96772631
 30
0.0
 11
869.3298780799999
 21
236.96772631
 31
0.0
  0
ARC
  5
1DA
330
6B
100
AcDbEntity
  8
0
 62
     2
100
AcDbCircle
 10
867.9416127499999
 20
238.98073611
 30
0.0
 40
2.44529939
100
AcDbArc
 50
304.59195527
 51
55.40804473
  0
LINE
  5
1DB
330
6B
100
AcDbEntity
  8
0
 62
     2
100
AcDbLine
 10
869.75914618
 20
241.94770237
 30
0.0
 11
866.9244310899996
 21
241.94770237
 31
0.0
  0
LINE
  5
1DC
330
6B
100
AcDbEntity
  8
0
 62
     2
100
AcDbLine
 10
866.9244310899996
 20
241.94770237
 30
0.0
 11
866.9244310899996
 21
241.64547216
 31
0.0
  0
LINE
  5
1DD
330
6B
100
AcDbEntity
  8
0
 62
     2
100
AcDbLine
 10
863.8617598999998
 20
236.31600006
 30
0.0
 11
863.8617598999998
 21
236.01376985
 31
0.0
  0
LINE
  5
1DE
330
6B
100
AcDbEntity
  8
0
 62
     2
100
AcDbLine
 10
869.05837956
 20
240.99374591
 30
0.0
 11
869.3298780799999
 21
240.99374591
 31
0.0
  0
LINE
  5
1DF
330
6B
100
AcDbEntity
  8
0
 62
     2
100
AcDbLine
 10
852.42529433
 20
236.31600006
 30
0.0
 11
852.4252890599997
 21
236.01374161
 31
0.0
  0
LINE
  5
1E0
330
6B
100
AcDbEntity
  8
0
 62
     2
100
AcDbLine
 10
849.6688435800001
 20
236.0137981
 30
0.0
 11
852.4252890599997
 21
236.01374999
 31
0.0
  0
LINE
  5
1E1
330
6B
100
AcDbEntity
  8
0
 62
     2
100
AcDbLine
 10
843.5311552199998
 20
236.01376985
 30
0.0
 11
845.73010569
 21
236.01376985
 31
0.0
  0
ARC
  5
1E2
330
6B
100
AcDbEntity
  8
0
 62
     2
100
AcDbCircle
 10
836.41409424
 20
239.05060271
 30
0.0
 40
21.01937947
100
AcDbArc
 50
353.86600619
 51
357.69403426
  0
LINE
  5
1E3
330
6B
100
AcDbEntity
  8
0
 62
     2
100
AcDbLine
 10
856.00920834
 20
238.2100775
 30
0.0
 11
857.41645246
 21
238.20487053
 31
0.0
  0
LINE
  5
226
330
6B
100
AcDbEntity
  8
0
 62
     2
100
AcDbLine
 10
856.0148917899999
 20
239.74609856
 30
0.0
 11
857.4221359099999
 21
239.74089159
 31
0.0
  0
ARC
  5
227
330
6B
100
AcDbEntity
  8
0
 62
     2
100
AcDbCircle
 10
836.41409424
 20
239.05060271
 30
0.0
 40
21.01937947
100
AcDbArc
 50
1.88196574
 51
5.709993809999997
  0
LINE
  5
228
330
6B
100
AcDbEntity
  8
0
 62
     2
100
AcDbLine
 10
852.42539262
 20
241.94767412
 30
0.0
 11
852.4253873500001
 21
241.64547216
 31
0.0
  0
LINE
  5
229
330
6B
100
AcDbEntity
  8
0
 62
     2
100
AcDbLine
 10
849.6689471399999
 20
241.94773061
 30
0.0
 11
852.42539262
 21
241.9476825
 31
0.0
  0
LINE
  5
22A
330
6B
100
AcDbEntity
  8
0
 62
     2
100
AcDbLine
 10
849.66884885
 20
236.31600006
 30
0.0
 11
849.6688435800001
 21
236.0137981
 31
0.0
  0
LINE
  5
22B
330
6B
100
AcDbEntity
  8
0
 62
     2
100
AcDbLine
 10
849.6689471399999
 20
241.94773061
 30
0.0
 11
849.66894187
 21
241.64547216
 31
0.0
  0
LINE
  5
22C
330
6B
100
AcDbEntity
  8
0
 62
     2
100
AcDbLine
 10
845.73010569
 20
236.31600006
 30
0.0
 11
845.73010569
 21
236.01376985
 31
0.0
  0
LINE
  5
22D
330
6B
100
AcDbEntity
  8
0
 62
     2
100
AcDbLine
 10
845.10760868
 20
239.49360999
 30
0.0
 11
847.28250876
 21
236.01376985
 31
0.0
  0
LINE
  5
22E
330
6B
100
AcDbEntity
  8
0
 62
     2
100
AcDbLine
 10
847.28250876
 20
236.01376985
 30
0.0
 11
848.7388412200001
 21
236.01376985
 31
0.0
  0
LINE
  5
22F
330
6B
100
AcDbEntity
  8
0
 62
     2
100
AcDbLine
 10
849.3613382299999
 20
241.94770237
 30
0.0
 11
849.3613382299999
 21
241.64547216
 31
0.0
  0
LINE
  5
230
330
6B
100
AcDbEntity
  8
0
 62
     2
100
AcDbLine
 10
847.16238776
 20
241.94770237
 30
0.0
 11
849.3613382299999
 21
241.94770237
 31
0.0
  0
LINE
  5
231
330
6B
100
AcDbEntity
  8
0
 62
     2
100
AcDbLine
 10
847.16238776
 20
241.94770237
 30
0.0
 11
847.16238776
 21
241.64547216
 31
0.0
  0
LINE
  5
232
330
6B
100
AcDbEntity
  8
0
 62
     2
100
AcDbLine
 10
847.7848847699997
 20
239.26003616
 30
0.0
 11
846.02110382
 21
241.94770237
 31
0.0
  0
LINE
  5
233
330
6B
100
AcDbEntity
  8
0
 62
     2
100
AcDbLine
 10
843.5311552199998
 20
241.94770237
 30
0.0
 11
846.02110382
 21
241.94770237
 31
0.0
  0
LINE
  5
234
330
6B
100
AcDbEntity
  8
0
 62
     2
100
AcDbLine
 10
857.69717574
 20
241.94756134
 30
0.0
 11
860.48612221
 21
241.94756134
 31
0.0
  0
LINE
  5
235
330
6B
100
AcDbEntity
  8
0
 62
     2
100
AcDbLine
 10
857.69717574
 20
241.64547216
 30
0.0
 11
857.69717574
 21
241.94756134
 31
0.0
  0
LINE
  5
236
330
6B
100
AcDbEntity
  8
0
 62
     2
100
AcDbLine
 10
857.69717574
 20
236.01362883
 30
0.0
 11
857.69717574
 21
236.31600006
 31
0.0
  0
LINE
  5
237
330
6B
100
AcDbEntity
  8
0
 62
     2
100
AcDbLine
 10
857.69717574
 20
236.01362883
 30
0.0
 11
860.48612221
 21
236.01362883
 31
0.0
  0
LINE
  5
238
330
6B
100
AcDbEntity
  8
0
 62
     2
100
AcDbLine
 10
860.7771597700001
 20
236.31600006
 30
0.0
 11
860.7771597700001
 21
236.01362883
 31
0.0
  0
LINE
  5
239
330
6B
100
AcDbEntity
  8
0
 62
     2
100
AcDbLine
 10
860.48612221
 20
236.31600006
 30
0.0
 11
860.48612221
 21
236.01362883
 31
0.0
  0
LINE
  5
23A
330
6B
100
AcDbEntity
  8
0
 62
     2
100
AcDbLine
 10
860.48612221
 20
241.64547216
 30
0.0
 11
860.48612221
 21
241.94756134
 31
0.0
  0
LINE
  5
23B
330
6B
100
AcDbEntity
  8
0
 62
     2
100
AcDbLine
 10
860.7771597700001
 20
241.64547216
 30
0.0
 11
860.7771597700001
 21
241.94756134
 31
0.0
  0
LINE
  5
23C
330
6B
100
AcDbEntity
  8
0
 62
     2
100
AcDbLine
 10
843.5311552199998
 20
236.31600006
 30
0.0
 11
843.5311552199998
 21
236.01376985
 31
0.0
  0
LINE
  5
23D
330
6B
100
AcDbEntity
  8
0
 62
     2
100
AcDbLine
 10
843.5311552199998
 20
241.94770237
 30
0.0
 11
843.5311552199998
 21
241.64547216
 31
0.0
  0
ARC
  5
23E
330
6B
100
AcDbEntity
  8
0
 62
     2
100
AcDbCircle
 10
870.05914618
 20
239.60323312
 30
0.0
 40
2.344469249999999
100
AcDbArc
 50
17.30874898
 51
23.76507096
  0
ARC
  5
23F
330
6B
100
AcDbEntity
  8
0
 62
     2
100
AcDbCircle
 10
868.06161275
 20
238.98073611
 30
0.0
 40
4.43675086
100
AcDbArc
 50
342.69125102
 51
17.30856644
  0
ARC
  5
240
330
6B
100
AcDbEntity
  8
0
 62
     2
100
AcDbCircle
 10
870.05914618
 20
238.3582391
 30
0.0
 40
2.344469249999999
100
AcDbArc
 50
336.23492904
 51
342.69125102
  0
ARC
  5
241
330
6B
100
AcDbEntity
  8
0
 62
     2
100
AcDbCircle
 10
869.75914618
 20
239.60323312
 30
0.0
 40
2.344469249999999
100
AcDbArc
 50
17.30874898
 51
90.0
  0
ARC
  5
242
330
6B
100
AcDbEntity
  8
0
 62
     2
100
AcDbCircle
 10
867.76161275
 20
238.98073611
 30
0.0
 40
4.43675086
100
AcDbArc
 50
342.69125102
 51
17.30856644
  0
ARC
  5
243
330
6B
100
AcDbEntity
  8
0
 62
     2
100
AcDbCircle
 10
869.75914618
 20
238.3582391
 30
0.0
 40
2.344469249999999
100
AcDbArc
 50
270.0
 51
342.69125102
  0
ARC
  5
244
330
6B
100
AcDbEntity
  8
0
 62
     2
100
AcDbCircle
 10
855.2963742099999
 20
238.98073611
 30
0.0
 40
2.966966259999998
100
AcDbArc
 50
46.75287961
 51
89.74999828999996
  0
ARC
  5
245
330
6B
100
AcDbEntity
  8
0
 62
     2
100
AcDbCircle
 10
855.2963742099999
 20
238.98073611
 30
0.0
 40
2.966966259999998
100
AcDbArc
 50
273.97633315
 51
312.82312039
  0
ARC
  5
246
330
6B
100
AcDbEntity
  8
0
 62
     2
100
AcDbCircle
 10
871.64181414
 20
238.93493393
 30
0.0
 40
3.936984289999998
100
AcDbArc
 50
0.6665840600000001
 51
23.90392827
  0
ARC
  5
247
330
6B
100
AcDbEntity
  8
0
 62
     2
100
AcDbCircle
 10
877.2354745300001
 20
238.93493393
 30
0.0
 40
3.936984289999998
100
AcDbArc
 50
156.09607173
 51
179.33341594
  0
ARC
  5
248
330
6B
100
AcDbEntity
  8
0
 62
     2
100
AcDbCircle
 10
871.64181414
 20
239.02653829
 30
0.0
 40
3.936984289999998
100
AcDbArc
 50
336.09607173
 51
359.33341594
  0
ARC
  5
249
330
6B
100
AcDbEntity
  8
0
 62
     2
100
AcDbCircle
 10
877.2354745300001
 20
239.02653829
 30
0.0
 40
3.936984289999998
100
AcDbArc
 50
180.66658406
 51
203.90392827
  0
LINE
  5
24A
330
6B
100
AcDbEntity
  8
0
 62
     3
100
AcDbLine
 10
884.4129909299999
 20
239.20547002
 30
0.0
 11
1055.75626575
 21
239.20547002
 31
0.0
  0
LINE
  5
24B
330
6B
100
AcDbEntity
  8
0
 62
     3
100
AcDbLine
 10
835.85895625
 20
239.20547002
 30
0.0
 11
665.75626575
 21
239.20547002
 31
0.0
  0
TEXT
  5
24C
330
6B
100
AcDbEntity
  8
0
 62
     3
100
AcDbText
 10
946.27022021
 20
0.9853573
 30
0.0
 40
2.0
  1
CONPONENTS
 41
0.53316033
100
AcDbText
  0
TEXT
  5
24D
330
6B
100
AcDbEntity
  8
0
 62
     3
100
AcDbText
 10
945.92049359
 20
-17.94681949
 30
0.0
 40
3.0
  1
材
 41
0.8333333299999999
100
AcDbText
  0
TEXT
  5
24E
330
6B
100
AcDbEntity
  8
0
 62
     3
100
AcDbText
 10
953.4561362199999
 20
-17.94681949
 30
0.0
 40
3.0
  1
質
 41
0.8333333299999999
100
AcDbText
  0
TEXT
  5
24F
330
6B
100
AcDbEntity
  8
0
 62
     3
100
AcDbText
 10
946.0085642200001
 20
-7.32229487
 30
0.0
 40
2.0
  1
MODEL
 41
1.031073209999997
100
AcDbText
  0
TEXT
  5
250
330
6B
100
AcDbEntity
  8
0
 62
     3
100
AcDbText
 10
945.92049359
 20
-14.26451129
 30
0.0
 40
2.0
  1
MATERIAL
 41
0.65927843
100
AcDbText
  0
TEXT
  5
251
330
6B
100
AcDbEntity
  8
0
 62
     3
100
AcDbText
 10
977.2277739599999
 20
-17.94681949
 30
0.0
 40
3.0
  1
備
 41
0.8333333299999999
100
AcDbText
  0
TEXT
  5
252
330
6B
100
AcDbEntity
  8
0
 62
     3
100
AcDbText
 10
983.9607756599999
 20
-17.94681949
 30
0.0
 40
3.0
  1
考
 41
0.8333333299999999
100
AcDbText
  0
TEXT
  5
253
330
6B
100
AcDbEntity
  8
0
 62
     3
100
AcDbText
 10
977.7342447717906
 20
-14.26451129
 30
0.0
 40
2.0
  1
REMARKS
 41
0.6757942400000001
100
AcDbText
  0
TEXT
  5
254
330
6B
100
AcDbEntity
  8
0
 62
     3
100
AcDbText
 10
947.51022257
 20
-21.1846319
 30
0.0
 40
2.0
  1
3AD
 41
1.42613983
100
AcDbText
  0
TEXT
  5
255
330
6B
100
AcDbEntity
  8
0
 62
     3
100
AcDbText
 10
956.8212022699999
 20
-21.01889834
 30
0.0
 40
2.0
  1
ANGLE
 41
1.66988373
100
AcDbText
  0
TEXT
  5
256
330
6B
100
AcDbEntity
  8
0
 62
     3
100
AcDbText
 10
977.75508936
 20
-21.39573923
 30
0.0
 40
2.0
  1
SCALE
 41
0.7719631200000002
100
AcDbText
  0
TEXT
  5
257
330
6B
100
AcDbEntity
  8
0
 62
     3
100
AcDbText
 10
947.1963523399999
 20
-25.1841685
 30
0.0
 40
3.0
  1
第
 41
0.8333333299999999
100
AcDbText
  0
TEXT
  5
258
330
6B
100
AcDbEntity
  8
0
 62
     3
100
AcDbText
 10
954.98320232
 20
-25.1841685
 30
0.0
 40
3.0
  1
三
 41
0.8333333299999999
100
AcDbText
  0
TEXT
  5
259
330
6B
100
AcDbEntity
  8
0
 62
     3
100
AcDbText
 10
962.7700522999999
 20
-25.1841685
 30
0.0
 40
3.0
  1
角
 41
0.8333333299999999
100
AcDbText
  0
TEXT
  5
25A
330
6B
100
AcDbEntity
  8
0
 62
     3
100
AcDbText
 10
970.55690227
 20
-25.1841685
 30
0.0
 40
3.0
  1
法
 41
0.8333333299999999
100
AcDbText
  0
TEXT
  5
25B
330
6B
100
AcDbEntity
  8
0
 62
     3
100
AcDbText
 10
977.61829432
 20
-24.89573923
 30
0.0
 40
3.0
  1
尺
 41
0.8333333299999999
100
AcDbText
  0
TEXT
  5
25C
330
6B
100
AcDbEntity
  8
0
 62
     3
100
AcDbText
 10
984.3512960199999
 20
-24.89573923
 30
0.0
 40
3.0
  1
度
 41
0.8333333299999999
100
AcDbText
  0
TEXT
  5
25D
330
6B
100
AcDbEntity
  8
0
 62
     3
100
AcDbText
 10
1006.93456649
 20
-2.72643956
 30
0.0
 40
3.0
  1
承認
 41
1.0894733
100
AcDbText
  0
TEXT
  5
25E
330
6B
100
AcDbEntity
  8
0
 62
     3
100
AcDbText
 10
1020.17744671
 20
-2.784168499999998
 30
0.0
 40
3.0
  1
検図
 41
0.931761
100
AcDbText
  0
TEXT
  5
25F
330
6B
100
AcDbEntity
  8
0
 62
     3
100
AcDbText
 10
1033.17784343
 20
-2.784168499999998
 30
0.0
 40
3.0
  1
設
 41
0.8333333299999999
100
AcDbText
  0
TEXT
  5
260
330
6B
100
AcDbEntity
  8
0
 62
     3
100
AcDbText
 10
1037.6677116
 20
-2.784168499999998
 30
0.0
 40
3.0
  1
計
 41
0.8333333299999999
100
AcDbText
  0
TEXT
  5
261
330
6B
100
AcDbEntity
  8
0
 62
     3
100
AcDbText
 10
946.34032672
 20
-2.611616119999998
 30
0.0
 40
3.0
  1
品
 41
0.8333333299999999
100
AcDbText
  0
TEXT
  5
262
330
6B
100
AcDbEntity
  8
0
 62
     3
100
AcDbText
 10
953.8759688599999
 20
-2.611616119999998
 30
0.0
 40
3.0
  1
名
 41
0.8333333299999999
100
AcDbText
  0
TEXT
  5
263
330
6B
100
AcDbEntity
  8
0
 62
     3
100
AcDbText
 10
946.0085642200001
 20
-10.78648477866471
 30
0.0
 40
3.0
  1
型
 41
0.8333333299999999
100
AcDbText
  0
TEXT
  5
264
330
6B
100
AcDbEntity
  8
0
 62
     3
100
AcDbText
 10
953.55665467
 20
-10.78648477866471
 30
0.0
 40
3.0
  1
式
 41
0.8333333299999999
100
AcDbText
  0
LINE
  5
26C
330
6B
100
AcDbEntity
  8
0
 62
     3
100
AcDbLine
 10
1055.65622961
 20
10.8158315
 30
0.0
 11
1004.05690227
 21
10.8158315
 31
0.0
  0
TEXT
  5
26D
330
6B
100
AcDbEntity
  8
0
 62
     3
100
AcDbText
 10
726.6158558875023
 20
-34.34989103
 30
0.0
 40
3.2
  1
備　　　　　考　
 41
0.8
  7
高3.2
100
AcDbText
  0
TEXT
  5
26E
330
6B
100
AcDbEntity
  8
0
 62
     3
100
AcDbText
 10
705.8337769091212
 20
-34.34989103
 30
0.0
 40
3.2
  1
個数
 41
0.8
  7
高3.2
100
AcDbText
  0
TEXT
  5
26F
330
6B
100
AcDbEntity
  8
0
 62
     3
100
AcDbText
 10
667.25626575
 20
-34.34989103
 30
0.0
 40
3.2
  1
No
 41
0.8
  7
高3.2
100
AcDbText
  0
TEXT
  5
270
330
6B
100
AcDbEntity
  8
0
 62
     3
100
AcDbText
 10
667.25626575
 20
-19.34989103
 30
0.0
 40
3.2
  1
3
 41
0.8
  7
高3.2
100
AcDbText
  0
TEXT
  5
271
330
6B
100
AcDbEntity
  8
0
 62
     3
100
AcDbText
 10
667.25626575
 20
-14.34989103
 30
0.0
 40
3.2
  1
4
 41
0.8
  7
高3.2
100
AcDbText
  0
TEXT
  5
272
330
6B
100
AcDbEntity
  8
0
 62
     3
100
AcDbText
 10
667.25626575
 20
-9.349891029999998
 30
0.0
 40
3.2
  1
5
 41
0.8
  7
高3.2
100
AcDbText
  0
TEXT
  5
273
330
6B
100
AcDbEntity
  8
0
 62
     3
100
AcDbText
 10
667.25626575
 20
-29.34989103
 30
0.0
 40
3.2
  1
1
 41
0.8
  7
高3.2
100
AcDbText
  0
TEXT
  5
274
330
6B
100
AcDbEntity
  8
0
 62
     3
100
AcDbText
 10
667.25626575
 20
-24.34989103
 30
0.0
 40
3.2
  1
2
 41
0.8
  7
高3.2
100
AcDbText
  0
TEXT
  5
275
330
6B
100
AcDbEntity
  8
0
 62
     3
100
AcDbText
 10
674.1219050049179
 20
-29.34989103
 30
0.0
 40
3.2
  1
ケース本体
 41
0.8
  7
高3.2
100
AcDbText
  0
TEXT
  5
276
330
6B
100
AcDbEntity
  8
0
 62
     3
100
AcDbText
 10
705.8337769091212
 20
-14.34989103
 30
0.0
 40
3.2
  1
1
 41
0.8
  7
高3.2
100
AcDbText
  0
TEXT
  5
277
330
6B
100
AcDbEntity
  8
0
 62
     3
100
AcDbText
 10
705.8337769091212
 20
-29.34989103
 30
0.0
 40
3.2
  1
1式
 41
0.8
  7
高3.2
100
AcDbText
  0
TEXT
  5
278
330
6B
100
AcDbEntity
  8
0
 62
     3
100
AcDbText
 10
715.193704402906
 20
-14.34989103
 30
0.0
 40
3.2
  1
-
 41
0.8
  7
高3.2
100
AcDbText
  0
TEXT
  5
279
330
6B
100
AcDbEntity
  8
0
 62
     3
100
AcDbText
 10
705.8337769091212
 20
-24.34989103
 30
0.0
 40
3.2
  1
1
 41
0.8
  7
高3.2
100
AcDbText
  0
TEXT
  5
27A
330
6B
100
AcDbEntity
  8
0
 62
     3
100
AcDbText
 10
715.193704402906
 20
-19.34989103
 30
0.0
 40
3.2
  1
-
 41
0.8
  7
高3.2
100
AcDbText
  0
TEXT
  5
27B
330
6B
100
AcDbEntity
  8
0
 62
     3
100
AcDbText
 10
674.1219050049179
 20
-34.34989103
 30
0.0
 40
3.2
  1
部　品　名
 41
0.8
  7
高3.2
100
AcDbText
  0
TEXT
  5
27C
330
6B
100
AcDbEntity
  8
0
 62
     3
100
AcDbText
 10
715.193704402906
 20
-34.34989103
 30
0.0
 40
3.2
  1
材　質
 41
0.8
  7
高3.2
100
AcDbText
  0
TEXT
  5
27D
330
6B
100
AcDbEntity
  8
0
 62
     3
100
AcDbText
 10
705.8337769091212
 20
-9.349891029999998
 30
0.0
 40
3.2
  1
1
 41
0.8
  7
高3.2
100
AcDbText
  0
LINE
  5
27E
330
6B
100
AcDbEntity
  8
0
 62
     3
100
AcDbLine
 10
1030.05690227
 20
4.815831499999998
 30
0.0
 11
1030.05690227
 21
10.8158315
 31
0.0
  0
LINE
  5
27F
330
6B
100
AcDbEntity
  8
0
 62
     3
100
AcDbLine
 10
1004.05690227
 20
4.815831499999998
 30
0.0
 11
1004.05690227
 21
10.8158315
 31
0.0
  0
LINE
  5
280
330
6B
100
AcDbEntity
  8
0
 62
     3
100
AcDbLine
 10
950.24997068
 20
80.83027370000001
 30
0.0
 11
1032.03671552
 21
80.83027370000001
 31
0.0
  0
LINE
  5
281
330
6B
100
AcDbEntity
  8
0
 62
     3
100
AcDbLine
 10
950.24997068
 20
74.83027370000002
 30
0.0
 11
1032.03671552
 21
74.83027370000002
 31
0.0
  0
LINE
  5
282
330
6B
100
AcDbEntity
  8
0
 62
     3
100
AcDbLine
 10
950.24997068
 20
26.8302737
 30
0.0
 11
1032.03671552
 21
26.8302737
 31
0.0
  0
LINE
  5
289
330
6B
100
AcDbEntity
  8
0
 62
     3
100
AcDbLine
 10
653.35434196
 20
105.65010897
 30
0.0
 11
650.75626575
 21
104.15010897
 31
0.0
  0
LINE
  5
28A
330
6B
100
AcDbEntity
  8
0
 62
     3
100
AcDbLine
 10
653.35434196
 20
105.65010897
 30
0.0
 11
650.75626575
 21
107.15010897
 31
0.0
  0
LINE
  5
28B
330
6B
100
AcDbEntity
  8
0
 62
     3
100
AcDbLine
 10
650.75626575
 20
104.15010897
 30
0.0
 11
650.75626575
 21
107.15010897
 31
0.0
  0
LINE
  5
28C
330
6B
100
AcDbEntity
  8
0
 62
     3
100
AcDbLine
 10
956.22578571
 20
179.58061534
 30
0.0
 11
942.66905762
 21
179.58061534
 31
0.0
  0
LINE
  5
28D
330
6B
100
AcDbEntity
  8
0
 62
     3
100
AcDbLine
 10
958.8088538199999
 20
179.58061534
 30
0.0
 11
973.8616103
 21
179.58061534
 31
0.0
  0
LINE
  5
28E
330
6B
100
AcDbEntity
  8
0
 62
     3
100
AcDbLine
 10
957.3047591999999
 20
178.08061534
 30
0.0
 11
942.66905762
 21
178.08061534
 31
0.0
  0
LINE
  5
28F
330
6B
100
AcDbEntity
  8
0
 62
     3
100
AcDbLine
 10
959.88782919
 20
178.08061534
 30
0.0
 11
973.8616103
 21
178.08061534
 31
0.0
  0
LINE
  5
290
330
6B
100
AcDbEntity
  8
0
 62
     3
100
AcDbLine
 10
956.22578569
 20
137.60856735
 30
0.0
 11
942.66905762
 21
137.60856735
 31
0.0
  0
LINE
  5
291
330
6B
100
AcDbEntity
  8
0
 62
     3
100
AcDbLine
 10
958.8088538399999
 20
137.60856735
 30
0.0
 11
973.8616103
 21
137.60856735
 31
0.0
  0
LINE
  5
292
330
6B
100
AcDbEntity
  8
0
 62
     3
100
AcDbLine
 10
957.3047587800001
 20
136.10856735
 30
0.0
 11
942.66905762
 21
136.10856735
 31
0.0
  0
LINE
  5
293
330
6B
100
AcDbEntity
  8
0
 62
     3
100
AcDbLine
 10
959.8878281199999
 20
136.10856735
 30
0.0
 11
973.8616103
 21
136.10856735
 31
0.0
  0
LINE
  5
299
330
6B
100
AcDbEntity
  8
0
 62
     7
100
AcDbLine
 10
973.8616103
 20
179.58061534
 30
0.0
 11
980.7202726399999
 21
186.64524566
 31
0.0
  0
CIRCLE
  5
29A
330
6B
100
AcDbEntity
  8
0
 62
     7
100
AcDbCircle
 10
984.20312415
 20
190.23268839
 30
0.0
 40
5.0
  0
TEXT
  5
29B
330
6B
100
AcDbEntity
  8
0
 62
     4
100
AcDbText
 10
982.0440812802893
 20
187.0219116288644
 30
0.0
 40
6.299999999999998
  1
7
  7
高6.3
100
AcDbText
  0
LINE
  5
2A1
330
6B
100
AcDbEntity
  8
0
 62
     7
100
AcDbLine
 10
973.8616103
 20
137.60856735
 30
0.0
 11
979.3098722999999
 21
143.13650375
 31
0.0
  0
CIRCLE
  5
2A2
330
6B
100
AcDbEntity
  8
0
 62
     7
100
AcDbCircle
 10
982.81964989
 20
146.69760769
 30
0.0
 40
5.0
  0
TEXT
  5
2A3
330
6B
100
AcDbEntity
  8
0
 62
     4
100
AcDbText
 10
980.660607020289
 20
143.4868309288644
 30
0.0
 40
6.299999999999998
  1
8
  7
高6.3
100
AcDbText
  0
TEXT
  5
2A4
330
6B
100
AcDbEntity
  8
0
 62
     3
100
AcDbText
 10
705.8337769091211
 20
-4.349891029999998
 30
0.0
 40
3.2
  1
1
 41
0.8
  7
高3.2
100
AcDbText
  0
TEXT
  5
2A5
330
6B
100
AcDbEntity
  8
0
 62
     3
100
AcDbText
 10
705.8337769091211
 20
0.6501089700000016
 30
0.0
 40
3.2
  1
1
 41
0.8
  7
高3.2
100
AcDbText
  0
TEXT
  5
2A6
330
6B
100
AcDbEntity
  8
0
 62
     3
100
AcDbText
 10
705.8337769091211
 20
5.65010897
 30
0.0
 40
3.2
  1
1
 41
0.8
  7
高3.2
100
AcDbText
  0
TEXT
  5
2A7
330
6B
100
AcDbEntity
  8
0
 62
     3
100
AcDbText
 10
667.25626575
 20
-4.349891029999998
 30
0.0
 40
3.2
  1
6
 41
0.8
  7
高3.2
100
AcDbText
  0
TEXT
  5
2A8
330
6B
100
AcDbEntity
  8
0
 62
     3
100
AcDbText
 10
667.25626575
 20
0.6501089700000016
 30
0.0
 40
3.2
  1
7
 41
0.8
  7
高3.2
100
AcDbText
  0
TEXT
  5
2A9
330
6B
100
AcDbEntity
  8
0
 62
     3
100
AcDbText
 10
667.25626575
 20
5.65010897
 30
0.0
 40
3.2
  1
8
 41
0.8
  7
高3.2
100
AcDbText
  0
TEXT
  5
2AA
330
6B
100
AcDbEntity
  8
0
 62
     3
100
AcDbText
 10
674.1219050049179
 20
-24.34989103
 30
0.0
 40
3.2
  1
フック
 41
0.8
  7
高3.2
100
AcDbText
  0
TEXT
  5
2AB
330
6B
100
AcDbEntity
  8
0
 62
     3
100
AcDbText
 10
674.1219050049179
 20
-19.34989103
 30
0.0
 40
3.2
  1
LED
 41
0.8
  7
高3.2
100
AcDbText
  0
TEXT
  5
2AC
330
6B
100
AcDbEntity
  8
0
 62
     3
100
AcDbText
 10
674.1219050049179
 20
-9.349891029999998
 30
0.0
 40
3.2
  1
マグネット
 41
0.8
  7
高3.2
100
AcDbText
  0
TEXT
  5
2AD
330
6B
100
AcDbEntity
  8
0
 62
     3
100
AcDbText
 10
674.1219050049179
 20
-4.349891029999998
 30
0.0
 40
3.2
  1
充電端子
 41
0.8
  7
高3.2
100
AcDbText
  0
TEXT
  5
2AE
330
6B
100
AcDbEntity
  8
0
 62
     3
100
AcDbText
 10
674.1219050049179
 20
0.6501089700000016
 30
0.0
 40
3.2
  1
ACアダプタ
 41
0.8
  7
高3.2
100
AcDbText
  0
TEXT
  5
2AF
330
6B
100
AcDbEntity
  8
0
 62
     3
100
AcDbText
 10
674.1219050049179
 20
5.65010897
 30
0.0
 40
3.2
  1
シガレットアダプタ
 41
0.8
  7
高3.2
100
AcDbText
  0
LINE
  5
2B0
330
6B
100
AcDbEntity
  8
0
 62
     7
100
AcDbLine
 10
672.6219050049179
 20
-34.84989103
 30
0.0
 11
672.6219050049179
 21
15.15010897
 31
0.0
  0
LINE
  5
2B1
330
6B
100
AcDbEntity
  8
0
 62
     7
100
AcDbLine
 10
759.0794471303706
 20
-34.84989103
 30
0.0
 11
759.0794471303706
 21
15.15010897
 31
0.0
  0
LINE
  5
2B2
330
6B
100
AcDbEntity
  8
0
 62
     7
100
AcDbLine
 10
713.693704402906
 20
-34.84989103
 30
0.0
 11
713.693704402906
 21
15.15010897
 31
0.0
  0
LINE
  5
2B3
330
6B
100
AcDbEntity
  8
0
 62
     7
100
AcDbLine
 10
704.3337769091213
 20
-34.84989103
 30
0.0
 11
704.3337769091212
 21
15.15010897
 31
0.0
  0
LINE
  5
2B4
330
6B
100
AcDbEntity
  8
0
 62
     7
100
AcDbLine
 10
725.1158558875023
 20
-34.84989103
 30
0.0
 11
725.1158558875023
 21
15.15010897
 31
0.0
  0
TEXT
  5
2B5
330
6B
100
AcDbEntity
  8
0
 62
     3
100
AcDbText
 10
715.193704402906
 20
-29.34989103
 30
0.0
 40
3.2
  1
ABS
 41
0.8
  7
高3.2
100
AcDbText
  0
TEXT
  5
2B6
330
6B
100
AcDbEntity
  8
0
 62
     3
100
AcDbText
 10
726.6158558875023
 20
-29.34989103
 30
0.0
 40
3.2
  1
-
 41
0.8
  7
高3.2
100
AcDbText
  0
TEXT
  5
2B7
330
6B
100
AcDbEntity
  8
0
 62
     3
100
AcDbText
 10
715.193704402906
 20
-24.34989103
 30
0.0
 40
3.2
  1
ABS
 41
0.8
  7
高3.2
100
AcDbText
  0
TEXT
  5
2B8
330
6B
100
AcDbEntity
  8
0
 62
     3
100
AcDbText
 10
726.6158558875023
 20
-24.34989103
 30
0.0
 40
3.2
  1
-
 41
0.8
  7
高3.2
100
AcDbText
  0
TEXT
  5
2B9
330
6B
100
AcDbEntity
  8
0
 62
     3
100
AcDbText
 10
726.6158558875023
 20
-19.34989103
 30
0.0
 40
3.2
  1
高輝度LED
 41
0.8
  7
高3.2
100
AcDbText
  0
TEXT
  5
2BA
330
6B
100
AcDbEntity
  8
0
 62
     3
100
AcDbText
 10
726.6158558875023
 20
-14.34989103
 30
0.0
 40
3.2
  1
プッシュ式
 41
0.8
  7
高3.2
100
AcDbText
  0
TEXT
  5
2BB
330
6B
100
AcDbEntity
  8
0
 62
     3
100
AcDbText
 10
726.6158558875023
 20
-9.349891029999998
 30
0.0
 40
3.2
  1
-
 41
0.8
  7
高3.2
100
AcDbText
  0
TEXT
  5
2BC
330
6B
100
AcDbEntity
  8
0
 62
     3
100
AcDbText
 10
726.6158558875023
 20
-4.349891029999999
 30
0.0
 40
3.2
  1
-
 41
0.8
  7
高3.2
100
AcDbText
  0
TEXT
  5
2BD
330
6B
100
AcDbEntity
  8
0
 62
     3
100
AcDbText
 10
726.6158558875023
 20
0.6501089700000016
 30
0.0
 40
3.2
  1
DC7.5V 300mA
 41
0.8
  7
高3.2
100
AcDbText
  0
TEXT
  5
2BE
330
6B
100
AcDbEntity
  8
0
 62
     3
100
AcDbText
 10
726.6158558875023
 20
5.65010897
 30
0.0
 40
3.2
  1
DC7.5V 300mA
 41
0.8
  7
高3.2
100
AcDbText
  0
TEXT
  5
2BF
330
6B
100
AcDbEntity
  8
0
 62
     3
100
AcDbText
 10
715.1937044029059
 20
5.65010897
 30
0.0
 40
3.2
  1
-
 41
0.8
  7
高3.2
100
AcDbText
  0
TEXT
  5
2C0
330
6B
100
AcDbEntity
  8
0
 62
     3
100
AcDbText
 10
715.1937044029059
 20
0.6501089700000016
 30
0.0
 40
3.2
  1
-
 41
0.8
  7
高3.2
100
AcDbText
  0
TEXT
  5
2C1
330
6B
100
AcDbEntity
  8
0
 62
     3
100
AcDbText
 10
715.1937044029059
 20
-4.349891029999999
 30
0.0
 40
3.2
  1
-
 41
0.8
  7
高3.2
100
AcDbText
  0
TEXT
  5
2C2
330
6B
100
AcDbEntity
  8
0
 62
     3
100
AcDbText
 10
715.1937044029059
 20
-9.349891029999998
 30
0.0
 40
3.2
  1
-
 41
0.8
  7
高3.2
100
AcDbText
  0
TEXT
  5
2C3
330
6B
100
AcDbEntity
  8
0
 62
     4
100
AcDbText
 10
937.8196498900001
 20
146.69760769
 30
0.0
 40
3.2
  1
シガレットアダプタ
  7
高3.2
100
AcDbText
  0
TEXT
  5
2C4
330
6B
100
AcDbEntity
  8
0
 62
     4
100
AcDbText
 10
943.3070243599999
 20
189.58135503
 30
0.0
 40
3.2
  1
ACアダプタ
  7
高3.2
100
AcDbText
  0
LINE
  5
2C5
330
6B
100
AcDbEntity
  8
0
 62
     7
100
AcDbLine
 10
974.5720248015436
 20
56.83027370000001
 30
0.0
 11
1032.03671552
 21
56.83027370000001
 31
0.0
  0
LINE
  5
2C6
330
6B
100
AcDbEntity
  8
0
 62
     7
100
AcDbLine
 10
974.5720248015436
 20
50.83027369999999
 30
0.0
 11
1032.03671552
 21
50.83027369999999
 31
0.0
  0
LINE
  5
2C7
330
6B
100
AcDbEntity
  8
0
 62
     7
100
AcDbLine
 10
950.24997068
 20
68.8302737
 30
0.0
 11
1032.03671552
 21
68.8302737
 31
0.0
  0
LINE
  5
2C8
330
6B
100
AcDbEntity
  8
0
 62
     7
100
AcDbLine
 10
974.5720248015436
 20
38.8302737
 30
0.0
 11
1032.03671552
 21
38.8302737
 31
0.0
  0
LINE
  5
2C9
330
6B
100
AcDbEntity
  8
0
 62
     7
100
AcDbLine
 10
950.24997068
 20
32.8302737
 30
0.0
 11
1032.03671552
 21
32.8302737
 31
0.0
  0
TEXT
  5
2CA
330
6B
100
AcDbEntity
  8
0
 62
     3
100
AcDbText
 10
951.43582481
 20
52.01172037
 30
0.0
 40
4.5
  1
点灯時間
  7
高4.5
100
AcDbText
  0
LINE
  5
2CB
330
6B
100
AcDbEntity
  8
0
 62
     7
100
AcDbLine
 10
950.24997068
 20
62.8302737
 30
0.0
 11
1032.03671552
 21
62.8302737
 31
0.0
  0
TEXT
  5
2CC
330
6B
100
AcDbEntity
  8
0
 62
     3
100
AcDbText
 10
951.8143118399999
 20
63.37733058
 30
0.0
 40
4.5
  1
充電時間
  7
高4.5
100
AcDbText
  0
LINE
  5
2CD
330
6B
100
AcDbEntity
  8
0
 62
     3
100
AcDbLine
 10
950.24997068
 20
80.83027370000001
 30
0.0
 11
950.24997068
 21
26.8302737
 31
0.0
  0
LINE
  5
2CE
330
6B
100
AcDbEntity
  8
0
 62
     3
100
AcDbLine
 10
1032.03671552
 20
26.8302737
 30
0.0
 11
1032.03671552
 21
80.83027370000001
 31
0.0
  0
LINE
  5
2CF
330
6B
100
AcDbEntity
  8
0
 62
     7
100
AcDbLine
 10
950.24997068
 20
44.8302737
 30
0.0
 11
1032.03671552
 21
44.8302737
 31
0.0
  0
LINE
  5
2D0
330
6B
100
AcDbEntity
  8
0
 62
     7
100
AcDbLine
 10
974.5720248015436
 20
74.83027370000002
 30
0.0
 11
974.5720248015436
 21
26.8302737
 31
0.0
  0
TEXT
  5
2D1
330
6B
100
AcDbEntity
  8
0
 62
     3
100
AcDbText
 10
959.8115470999999
 20
0.3768695823835124
 30
0.0
 40
3.2
  1
LEDハンディライト
  7
高3.2
100
AcDbText
  0
TEXT
  5
2D2
330
6B
100
AcDbEntity
  8
0
 62
     3
100
AcDbText
 10
1017.74895144
 20
-24.37557524
 30
0.0
 40
3.2
  1
2008.09.18
  7
高3.2
100
AcDbText
  0
LINE
  5
2D3
330
6B
100
AcDbEntity
  8
0
 62
     3
100
AcDbLine
 10
942.66905762
 20
138.35856735
 30
0.0
 11
935.1690576199999
 21
139.85856735
 31
0.0
  0
LINE
  5
2D4
330
6B
100
AcDbEntity
  8
0
 62
     3
100
AcDbLine
 10
942.66905762
 20
138.35856735
 30
0.0
 11
942.66905762
 21
135.35856735
 31
0.0
  0
LINE
  5
2D5
330
6B
100
AcDbEntity
  8
0
 62
     3
100
AcDbLine
 10
942.66905762
 20
135.35856735
 30
0.0
 11
935.1690576199999
 21
133.85856735
 31
0.0
  0
LINE
  5
2D6
330
6B
100
AcDbEntity
  8
0
 62
     3
100
AcDbLine
 10
929.16905762
 20
133.85856735
 30
0.0
 11
935.1690576199999
 21
133.85856735
 31
0.0
  0
LINE
  5
2D7
330
6B
100
AcDbEntity
  8
0
 62
     3
100
AcDbLine
 10
929.16905762
 20
139.85856735
 30
0.0
 11
929.16905762
 21
133.85856735
 31
0.0
  0
LINE
  5
2D8
330
6B
100
AcDbEntity
  8
0
 62
     3
100
AcDbLine
 10
929.16905762
 20
139.85856735
 30
0.0
 11
935.1690576199999
 21
139.85856735
 31
0.0
  0
LINE
  5
2D9
330
6B
100
AcDbEntity
  8
0
 62
     3
100
AcDbLine
 10
942.66905762
 20
177.33061534
 30
0.0
 11
935.1690576199999
 21
175.83061534
 31
0.0
  0
LINE
  5
2DA
330
6B
100
AcDbEntity
  8
0
 62
     3
100
AcDbLine
 10
942.66905762
 20
180.33061534
 30
0.0
 11
935.1690576199999
 21
181.83061534
 31
0.0
  0
LINE
  5
2DB
330
6B
100
AcDbEntity
  8
0
 62
     3
100
AcDbLine
 10
942.66905762
 20
180.33061534
 30
0.0
 11
942.66905762
 21
177.33061534
 31
0.0
  0
LINE
  5
2DC
330
6B
100
AcDbEntity
  8
0
 62
     3
100
AcDbLine
 10
929.16905762
 20
181.83061534
 30
0.0
 11
935.1690576199999
 21
181.83061534
 31
0.0
  0
LINE
  5
2DD
330
6B
100
AcDbEntity
  8
0
 62
     3
100
AcDbLine
 10
929.16905762
 20
175.83061534
 30
0.0
 11
935.1690576199999
 21
175.83061534
 31
0.0
  0
LINE
  5
2DE
330
6B
100
AcDbEntity
  8
0
 62
     3
100
AcDbLine
 10
929.16905762
 20
181.83061534
 30
0.0
 11
929.16905762
 21
175.83061534
 31
0.0
  0
LINE
  5
2DF
330
6B
100
AcDbEntity
  8
0
 62
     3
100
AcDbLine
 10
983.2495317699999
 20
127.30688146
 30
0.0
 11
983.2495317699999
 21
119.30688146
 31
0.0
  0
LINE
  5
2E0
330
6B
100
AcDbEntity
  8
0
 62
     3
100
AcDbLine
 10
983.2495317699999
 20
127.30688146
 30
0.0
 11
1005.24953177
 21
127.30688146
 31
0.0
  0
LINE
  5
2E1
330
6B
100
AcDbEntity
  8
0
 62
     3
100
AcDbLine
 10
983.2495317699999
 20
119.30688146
 30
0.0
 11
1005.24953177
 21
119.30688146
 31
0.0
  0
LINE
  5
2E2
330
6B
100
AcDbEntity
  8
0
 62
     3
100
AcDbLine
 10
1005.24953177
 20
128.30688146
 30
0.0
 11
1005.24953177
 21
118.30688146
 31
0.0
  0
LINE
  5
2E3
330
6B
100
AcDbEntity
  8
0
 62
     3
100
AcDbLine
 10
1005.24953177
 20
128.30688146
 30
0.0
 11
1010.24953177
 21
128.30688146
 31
0.0
  0
LINE
  5
2E4
330
6B
100
AcDbEntity
  8
0
 62
     3
100
AcDbLine
 10
1010.24953177
 20
128.30688146
 30
0.0
 11
1010.24953177
 21
118.30688146
 31
0.0
  0
LINE
  5
2E5
330
6B
100
AcDbEntity
  8
0
 62
     3
100
AcDbLine
 10
1005.24953177
 20
118.30688146
 30
0.0
 11
1010.24953177
 21
118.30688146
 31
0.0
  0
LINE
  5
2E6
330
6B
100
AcDbEntity
  8
0
 62
     3
100
AcDbLine
 10
985.7495317699999
 20
182.27892945
 30
0.0
 11
1010.74953177
 21
182.27892945
 31
0.0
  0
LINE
  5
2E7
330
6B
100
AcDbEntity
  8
0
 62
     3
100
AcDbLine
 10
1013.24953177
 20
168.27892945
 30
0.0
 11
1013.24953177
 21
162.27892945
 31
0.0
  0
LINE
  5
2E8
330
6B
100
AcDbEntity
  8
0
 62
     3
100
AcDbLine
 10
1010.74953177
 20
182.27892945
 30
0.0
 11
1013.24953177
 21
168.27892945
 31
0.0
  0
LINE
  5
2E9
330
6B
100
AcDbEntity
  8
0
 62
     3
100
AcDbLine
 10
983.2495317699999
 20
162.27892945
 30
0.0
 11
1013.24953177
 21
162.27892945
 31
0.0
  0
LINE
  5
2EA
330
6B
100
AcDbEntity
  8
0
 62
     3
100
AcDbLine
 10
983.2495317699999
 20
168.27892945
 30
0.0
 11
983.2495317699999
 21
162.27892945
 31
0.0
  0
LINE
  5
2EB
330
6B
100
AcDbEntity
  8
0
 62
     3
100
AcDbLine
 10
985.7495317699999
 20
182.27892945
 30
0.0
 11
983.2495317699999
 21
168.27892945
 31
0.0
  0
TEXT
  5
2EC
330
6B
100
AcDbEntity
  8
0
 62
     3
100
AcDbText
 10
959.6584770799999
 20
-3.756020977616486
 30
0.0
 40
3.2
  1
ラケットライト
  7
高3.2
100
AcDbText
  0
TEXT
  5
2ED
330
6B
100
AcDbEntity
  8
0
 62
     3
100
AcDbText
 10
964.76795661
 20
-10.61390989
 30
0.0
 40
4.5
  1
LEH-36P
  7
高4.5
100
AcDbText
  0
TEXT
  5
2EE
330
6B
100
AcDbEntity
  8
0
 62
     3
100
AcDbText
 10
989.33594708
 20
-24.11536786
 30
0.0
 40
3.2
  1
FREE
  7
高3.2
100
AcDbText
  0
TEXT
  5
2EF
330
6B
100
AcDbEntity
  8
0
 62
     3
100
AcDbText
 10
1006.391380909726
 20
-33.86980314385096
 30
0.0
 40
6.299999999999998
  1
LEH-36P
 41
0.8
  7
高6.3
100
AcDbText
  0
TEXT
  5
2F0
330
6B
100
AcDbEntity
  8
0
 62
     3
100
AcDbText
 10
986.5355353915436
 20
69.39079811
 30
0.0
 40
4.5
  1
LEH-36P
  7
高4.5
100
AcDbText
  0
TEXT
  5
2F1
330
6B
100
AcDbEntity
  8
0
 62
     3
100
AcDbText
 10
991.8026777115436
 20
63.39643743999999
 30
0.0
 40
4.5
  1
約5時間
  7
高4.5
100
AcDbText
  0
TEXT
  5
2F2
330
6B
100
AcDbEntity
  8
0
 62
     3
100
AcDbText
 10
982.0363548549233
 20
51.57689627999999
 30
0.0
 40
4.5
  1
18灯／約8時間
  7
高4.5
100
AcDbText
  0
TEXT
  5
2F3
330
6B
100
AcDbEntity
  8
0
 62
     3
100
AcDbText
 10
975.6910871115435
 20
33.27237199000001
 30
0.0
 40
4.5
  1
18灯／216000mcd
  7
高4.5
100
AcDbText
  0
TEXT
  5
2F4
330
6B
100
AcDbEntity
  8
0
 62
     3
100
AcDbText
 10
984.3278368615436
 20
45.66746607999998
 30
0.0
 40
4.5
  1
点滅／約32時間
  7
高4.5
100
AcDbText
  0
TEXT
  5
2F5
330
6B
100
AcDbEntity
  8
0
 62
     3
100
AcDbText
 10
977.2670840582332
 20
39.45283083000001
 30
0.0
 40
4.5
  1
全灯／432000mcd
  7
高4.5
100
AcDbText
  0
TEXT
  5
2F6
330
6B
100
AcDbEntity
  8
0
 62
     3
100
AcDbText
 10
705.8337769091212
 20
-19.34989103
 30
0.0
 40
3.2
  1
36
 41
0.8
  7
高3.2
100
AcDbText
  0
ARC
  5
2F7
330
6B
100
AcDbEntity
  8
0
 62
     3
100
AcDbCircle
 10
781.2379985
 20
142.36696284
 30
0.0
 40
40.45
100
AcDbArc
 50
158.48691631
 51
201.51308369
  0
LINE
  5
2F8
330
6B
100
AcDbEntity
  8
0
 62
     3
100
AcDbLine
 10
740.7879985
 20
143.99196284
 30
0.0
 11
740.7879985
 21
140.74196284
 31
0.0
  0
CIRCLE
  5
2F9
330
6B
100
AcDbEntity
  8
0
 62
     3
100
AcDbCircle
 10
808.48998382
 20
154.0799008
 30
0.0
 40
1.5
  0
CIRCLE
  5
2FA
330
6B
100
AcDbEntity
  8
0
 62
     3
100
AcDbCircle
 10
801.4899838199996
 20
154.0799008
 30
0.0
 40
1.5
  0
CIRCLE
  5
2FB
330
6B
100
AcDbEntity
  8
0
 62
     3
100
AcDbCircle
 10
794.48998382
 20
154.0799008
 30
0.0
 40
1.5
  0
CIRCLE
  5
2FC
330
6B
100
AcDbEntity
  8
0
 62
     3
100
AcDbCircle
 10
787.48998382
 20
154.0799008
 30
0.0
 40
1.5
  0
CIRCLE
  5
2FD
330
6B
100
AcDbEntity
  8
0
 62
     3
100
AcDbCircle
 10
780.48998382
 20
154.0799008
 30
0.0
 40
1.5
  0
LINE
  5
2FE
330
6B
100
AcDbEntity
  8
0
 62
     3
100
AcDbLine
 10
748.2576634499999
 20
160.36696284
 30
0.0
 11
798.2879984999997
 21
160.36696284
 31
0.0
  0
ARC
  5
2FF
330
6B
100
AcDbEntity
  8
0
 62
     3
100
AcDbCircle
 10
748.2576634499999
 20
155.36696284
 30
0.0
 40
5.0
100
AcDbArc
 50
90.0
 51
158.48691631
  0
ARC
  5
300
330
6B
100
AcDbEntity
  8
0
 62
     3
100
AcDbCircle
 10
748.2576634499999
 20
129.36696284
 30
0.0
 40
5.0
100
AcDbArc
 50
201.51308369
 51
270.0
  0
LINE
  5
301
330
6B
100
AcDbEntity
  8
0
 62
     3
100
AcDbLine
 10
813.2879984999997
 20
155.54812482
 30
0.0
 11
813.2879984999997
 21
129.18580086
 31
0.0
  0
ARC
  5
302
330
6B
100
AcDbEntity
  8
0
 62
     3
100
AcDbCircle
 10
826.1150392299999
 20
180.2477092
 30
0.0
 40
26.38074636
100
AcDbArc
 50
240.9070828
 51
270.0
  0
ARC
  5
303
330
6B
100
AcDbEntity
  8
0
 62
     3
100
AcDbCircle
 10
798.2879984999997
 20
123.31013781
 30
0.0
 40
37.05682503
100
AcDbArc
 50
66.1224245
 51
90.0
  0
LINE
  5
304
330
6B
100
AcDbEntity
  8
0
 62
     3
100
AcDbLine
 10
826.1150392299999
 20
130.86696284
 30
0.0
 11
855.7879984999997
 21
130.86696284
 31
0.0
  0
LINE
  5
305
330
6B
100
AcDbEntity
  8
0
 62
     3
100
AcDbLine
 10
826.1150392299999
 20
153.86696284
 30
0.0
 11
855.7879984999997
 21
153.86696284
 31
0.0
  0
ARC
  5
306
330
6B
100
AcDbEntity
  8
0
 62
     3
100
AcDbCircle
 10
855.7879984999997
 20
142.36696284
 30
0.0
 40
11.5
100
AcDbArc
 50
270.0
 51
90.0
  0
ARC
  5
307
330
6B
100
AcDbEntity
  8
0
 62
     3
100
AcDbCircle
 10
826.1150392299999
 20
104.48621648
 30
0.0
 40
26.38074636
100
AcDbArc
 50
90.0
 51
119.0929172
  0
ARC
  5
308
330
6B
100
AcDbEntity
  8
0
 62
     3
100
AcDbCircle
 10
798.2879984999997
 20
161.42378787
 30
0.0
 40
37.05682503
100
AcDbArc
 50
270.0
 51
293.8775755
  0
LINE
  5
309
330
6B
100
AcDbEntity
  8
0
 62
     3
100
AcDbLine
 10
748.2576634499999
 20
124.36696284
 30
0.0
 11
798.2879984999997
 21
124.36696284
 31
0.0
  0
ARC
  5
30A
330
6B
100
AcDbEntity
  8
0
 62
     3
100
AcDbCircle
 10
798.2879984999997
 20
123.31013781
 30
0.0
 40
35.55682503
100
AcDbArc
 50
66.1224245
 51
87.96425842999999
  0
LINE
  5
30B
330
6B
100
AcDbEntity
  8
0
 62
     3
100
AcDbLine
 10
748.2576634499999
 20
158.86696284
 30
0.0
 11
797.0510806800001
 21
158.86696284
 31
0.0
  0
ARC
  5
30C
330
6B
100
AcDbEntity
  8
0
 62
     3
100
AcDbCircle
 10
748.2576634499999
 20
155.36696284
 30
0.0
 40
3.5
100
AcDbArc
 50
90.0
 51
120.92790018
  0
ARC
  5
30D
330
6B
100
AcDbEntity
  8
0
 62
     3
100
AcDbCircle
 10
748.2576634499999
 20
129.36696284
 30
0.0
 40
3.5
100
AcDbArc
 50
239.07209982
 51
270.0
  0
LINE
  5
30E
330
6B
100
AcDbEntity
  8
0
 62
     3
100
AcDbLine
 10
748.2576634499999
 20
125.86696284
 30
0.0
 11
797.0510806800001
 21
125.86696284
 31
0.0
  0
ARC
  5
30F
330
6B
100
AcDbEntity
  8
0
 62
     3
100
AcDbCircle
 10
798.2879984999997
 20
161.42378787
 30
0.0
 40
35.55682503
100
AcDbArc
 50
272.03574157
 51
293.8775755
  0
ARC
  5
310
330
6B
100
AcDbEntity
  8
0
 62
     3
100
AcDbCircle
 10
743.6660913399999
 20
142.36696284
 30
0.0
 40
2.5
100
AcDbArc
 50
270.0
 51
90.0
  0
LINE
  5
311
330
6B
100
AcDbEntity
  8
0
 62
     3
100
AcDbLine
 10
740.8653282899996
 20
144.86696284
 30
0.0
 11
743.6660913399999
 21
144.86696284
 31
0.0
  0
LINE
  5
312
330
6B
100
AcDbEntity
  8
0
 62
     3
100
AcDbLine
 10
740.8653282899996
 20
139.86696284
 30
0.0
 11
743.6660913399999
 21
139.86696284
 31
0.0
  0
ARC
  5
313
330
6B
100
AcDbEntity
  8
0
 62
     3
100
AcDbCircle
 10
781.2379985
 20
142.36696284
 30
0.0
 40
38.95
100
AcDbArc
 50
158.81402708
 51
176.31994911
  0
ARC
  5
314
330
6B
100
AcDbEntity
  8
0
 62
     3
100
AcDbCircle
 10
781.2379985
 20
142.36696284
 30
0.0
 40
38.95
100
AcDbArc
 50
183.68005089
 51
201.11811006
  0
LINE
  5
315
330
6B
100
AcDbEntity
  8
0
 62
     3
100
AcDbLine
 10
799.55108068
 20
158.37550005
 30
0.0
 11
799.55108068
 21
159.98347572
 31
0.0
  0
LINE
  5
316
330
6B
100
AcDbEntity
  8
0
 62
     3
100
AcDbLine
 10
797.0510806800001
 20
158.37550005
 30
0.0
 11
797.0510806800001
 21
160.02974834
 31
0.0
  0
ARC
  5
317
330
6B
100
AcDbEntity
  8
0
 62
     3
100
AcDbCircle
 10
798.30108068
 20
158.37550005
 30
0.0
 40
1.25
100
AcDbArc
 50
180.0
 51
0.0
  0
LINE
  5
318
330
6B
100
AcDbEntity
  8
0
 62
     3
100
AcDbLine
 10
746.87519797
 20
157.96381195
 30
0.0
 11
745.3586231199997
 21
159.44072831
 31
0.0
  0
LINE
  5
319
330
6B
100
AcDbEntity
  8
0
 62
     3
100
AcDbLine
 10
745.11801638
 20
156.18561638
 30
0.0
 11
743.75872719
 21
157.54860728
 31
0.0
  0
ARC
  5
31A
330
6B
100
AcDbEntity
  8
0
 62
     3
100
AcDbCircle
 10
746.0031009199997
 20
157.06829716
 30
0.0
 40
1.25
100
AcDbArc
 50
224.92209045
 51
45.75902382
  0
ARC
  5
31B
330
6B
100
AcDbEntity
  8
0
 62
     3
100
AcDbCircle
 10
798.30108068
 20
126.35842563
 30
0.0
 40
1.25
100
AcDbArc
 50
0.0
 51
180.0
  0
LINE
  5
31C
330
6B
100
AcDbEntity
  8
0
 62
     3
100
AcDbLine
 10
797.0510806800001
 20
126.35842563
 30
0.0
 11
797.0510806800001
 21
124.70417734
 31
0.0
  0
LINE
  5
31D
330
6B
100
AcDbEntity
  8
0
 62
     3
100
AcDbLine
 10
799.55108068
 20
126.35842563
 30
0.0
 11
799.55108068
 21
124.75044996
 31
0.0
  0
ARC
  5
31E
330
6B
100
AcDbEntity
  8
0
 62
     3
100
AcDbCircle
 10
746.0031009199997
 20
127.66562852
 30
0.0
 40
1.25
100
AcDbArc
 50
314.24097618
 51
135.07790955
  0
LINE
  5
31F
330
6B
100
AcDbEntity
  8
0
 62
     3
100
AcDbLine
 10
746.87519797
 20
126.77011373
 30
0.0
 11
745.3586231199997
 21
125.29319737
 31
0.0
  0
LINE
  5
320
330
6B
100
AcDbEntity
  8
0
 62
     3
100
AcDbLine
 10
745.11801638
 20
128.5483093
 30
0.0
 11
743.75872719
 21
127.1853184
 31
0.0
  0
CIRCLE
  5
321
330
6B
100
AcDbEntity
  8
0
 62
     3
100
AcDbCircle
 10
752.42894359
 20
154.0799008
 30
0.0
 40
1.5
  0
CIRCLE
  5
322
330
6B
100
AcDbEntity
  8
0
 62
     3
100
AcDbCircle
 10
759.42894359
 20
154.0799008
 30
0.0
 40
1.5
  0
CIRCLE
  5
323
330
6B
100
AcDbEntity
  8
0
 62
     3
100
AcDbCircle
 10
766.42894359
 20
154.0799008
 30
0.0
 40
1.5
  0
CIRCLE
  5
324
330
6B
100
AcDbEntity
  8
0
 62
     3
100
AcDbCircle
 10
773.42894359
 20
154.0799008
 30
0.0
 40
1.5
  0
CIRCLE
  5
325
330
6B
100
AcDbEntity
  8
0
 62
     3
100
AcDbCircle
 10
808.48998382
 20
146.31522067
 30
0.0
 40
1.5
  0
CIRCLE
  5
326
330
6B
100
AcDbEntity
  8
0
 62
     3
100
AcDbCircle
 10
801.4899838199996
 20
146.31522067
 30
0.0
 40
1.5
  0
CIRCLE
  5
327
330
6B
100
AcDbEntity
  8
0
 62
     3
100
AcDbCircle
 10
794.48998382
 20
146.31522067
 30
0.0
 40
1.5
  0
CIRCLE
  5
328
330
6B
100
AcDbEntity
  8
0
 62
     3
100
AcDbCircle
 10
787.48998382
 20
146.31522067
 30
0.0
 40
1.5
  0
CIRCLE
  5
329
330
6B
100
AcDbEntity
  8
0
 62
     3
100
AcDbCircle
 10
780.48998382
 20
146.31522067
 30
0.0
 40
1.5
  0
CIRCLE
  5
32A
330
6B
100
AcDbEntity
  8
0
 62
     3
100
AcDbCircle
 10
752.42894359
 20
146.31522067
 30
0.0
 40
1.5
  0
CIRCLE
  5
32B
330
6B
100
AcDbEntity
  8
0
 62
     3
100
AcDbCircle
 10
759.42894359
 20
146.31522067
 30
0.0
 40
1.5
  0
CIRCLE
  5
32C
330
6B
100
AcDbEntity
  8
0
 62
     3
100
AcDbCircle
 10
766.42894359
 20
146.31522067
 30
0.0
 40
1.5
  0
CIRCLE
  5
32D
330
6B
100
AcDbEntity
  8
0
 62
     3
100
AcDbCircle
 10
773.42894359
 20
146.31522067
 30
0.0
 40
1.5
  0
CIRCLE
  5
32E
330
6B
100
AcDbEntity
  8
0
 62
     3
100
AcDbCircle
 10
808.48998382
 20
138.41870501
 30
0.0
 40
1.5
  0
CIRCLE
  5
32F
330
6B
100
AcDbEntity
  8
0
 62
     3
100
AcDbCircle
 10
801.4899838199996
 20
138.41870501
 30
0.0
 40
1.5
  0
CIRCLE
  5
330
330
6B
100
AcDbEntity
  8
0
 62
     3
100
AcDbCircle
 10
794.48998382
 20
138.41870501
 30
0.0
 40
1.5
  0
CIRCLE
  5
331
330
6B
100
AcDbEntity
  8
0
 62
     3
100
AcDbCircle
 10
787.48998382
 20
138.41870501
 30
0.0
 40
1.5
  0
CIRCLE
  5
332
330
6B
100
AcDbEntity
  8
0
 62
     3
100
AcDbCircle
 10
780.48998382
 20
138.41870501
 30
0.0
 40
1.5
  0
CIRCLE
  5
333
330
6B
100
AcDbEntity
  8
0
 62
     3
100
AcDbCircle
 10
752.42894359
 20
138.41870501
 30
0.0
 40
1.5
  0
CIRCLE
  5
334
330
6B
100
AcDbEntity
  8
0
 62
     3
100
AcDbCircle
 10
759.42894359
 20
138.41870501
 30
0.0
 40
1.5
  0
CIRCLE
  5
335
330
6B
100
AcDbEntity
  8
0
 62
     3
100
AcDbCircle
 10
766.42894359
 20
138.41870501
 30
0.0
 40
1.5
  0
CIRCLE
  5
336
330
6B
100
AcDbEntity
  8
0
 62
     3
100
AcDbCircle
 10
773.42894359
 20
138.41870501
 30
0.0
 40
1.5
  0
CIRCLE
  5
337
330
6B
100
AcDbEntity
  8
0
 62
     3
100
AcDbCircle
 10
808.48998382
 20
130.65402488
 30
0.0
 40
1.5
  0
CIRCLE
  5
338
330
6B
100
AcDbEntity
  8
0
 62
     3
100
AcDbCircle
 10
801.4899838199996
 20
130.65402488
 30
0.0
 40
1.5
  0
CIRCLE
  5
339
330
6B
100
AcDbEntity
  8
0
 62
     3
100
AcDbCircle
 10
794.48998382
 20
130.65402488
 30
0.0
 40
1.5
  0
CIRCLE
  5
33A
330
6B
100
AcDbEntity
  8
0
 62
     3
100
AcDbCircle
 10
787.48998382
 20
130.65402488
 30
0.0
 40
1.5
  0
CIRCLE
  5
33B
330
6B
100
AcDbEntity
  8
0
 62
     3
100
AcDbCircle
 10
780.48998382
 20
130.65402488
 30
0.0
 40
1.5
  0
CIRCLE
  5
33C
330
6B
100
AcDbEntity
  8
0
 62
     3
100
AcDbCircle
 10
752.42894359
 20
130.65402488
 30
0.0
 40
1.5
  0
CIRCLE
  5
33D
330
6B
100
AcDbEntity
  8
0
 62
     3
100
AcDbCircle
 10
759.42894359
 20
130.65402488
 30
0.0
 40
1.5
  0
CIRCLE
  5
33E
330
6B
100
AcDbEntity
  8
0
 62
     3
100
AcDbCircle
 10
766.42894359
 20
130.65402488
 30
0.0
 40
1.5
  0
CIRCLE
  5
33F
330
6B
100
AcDbEntity
  8
0
 62
     3
100
AcDbCircle
 10
773.42894359
 20
130.65402488
 30
0.0
 40
1.5
  0
LINE
  5
340
330
6B
100
AcDbEntity
  8
0
 62
     3
100
AcDbLine
 10
813.2879984999997
 20
129.18580086
 30
0.0
 11
812.6808228999998
 21
128.91018438
 31
0.0
  0
LINE
  5
341
330
6B
100
AcDbEntity
  8
0
 62
     3
100
AcDbLine
 10
812.6808228999998
 20
155.8237413
 30
0.0
 11
813.2879984999997
 21
155.54812482
 31
0.0
  0
ARC
  5
342
330
6B
100
AcDbEntity
  8
0
 62
     7
100
AcDbCircle
 10
828.21206881
 20
142.36696284
 30
0.0
 40
8.5
100
AcDbArc
 50
122.42379801
 51
237.57620199
  0
ARC
  5
343
330
6B
100
AcDbEntity
  8
0
 62
     7
100
AcDbCircle
 10
826.2120688099999
 20
142.36696284
 30
0.0
 40
8.5
100
AcDbArc
 50
122.42379801
 51
237.57620199
  0
ARC
  5
344
330
6B
100
AcDbEntity
  8
0
 62
     7
100
AcDbCircle
 10
824.2120688099996
 20
142.36696284
 30
0.0
 40
8.5
100
AcDbArc
 50
122.42379801
 51
237.57620199
  0
ARC
  5
345
330
6B
100
AcDbEntity
  8
0
 62
     3
100
AcDbCircle
 10
856.64058028
 20
142.38834212
 30
0.0
 40
8.52137929
100
AcDbArc
 50
270.0
 51
95.74216986999999
  0
LINE
  5
346
330
6B
100
AcDbEntity
  8
0
 62
     3
100
AcDbLine
 10
826.1150392299999
 20
150.86696284
 30
0.0
 11
855.7879984999997
 21
150.86696284
 31
0.0
  0
ARC
  5
347
330
6B
100
AcDbEntity
  8
0
 62
     3
100
AcDbCircle
 10
826.1150392299999
 20
104.48621648
 30
0.0
 40
29.38074636
100
AcDbArc
 50
90.0
 51
115.88586245
  0
ARC
  5
348
330
6B
100
AcDbEntity
  8
0
 62
     3
100
AcDbCircle
 10
826.1150392299999
 20
180.2477092
 30
0.0
 40
29.38074636
100
AcDbArc
 50
244.11413755
 51
270.0
  0
LINE
  5
349
330
6B
100
AcDbEntity
  8
0
 62
     3
100
AcDbLine
 10
826.15456054
 20
149.54185785
 30
0.0
 11
830.14119085
 21
152.07417373
 31
0.0
  0
ARC
  5
34A
330
6B
100
AcDbEntity
  8
0
 62
     3
100
AcDbCircle
 10
836.30723145
 20
142.36696284
 30
0.0
 40
11.5
100
AcDbArc
 50
90.0
 51
122.42379801
  0
ARC
  5
34B
330
6B
100
AcDbEntity
  8
0
 62
     3
100
AcDbCircle
 10
830.7120688099999
 20
142.36696284
 30
0.0
 40
8.5
100
AcDbArc
 50
122.42379801
 51
237.57620199
  0
LINE
  5
34C
330
6B
100
AcDbEntity
  8
0
 62
     3
100
AcDbLine
 10
826.15456054
 20
135.19206783
 30
0.0
 11
830.14119085
 21
132.65975195
 31
0.0
  0
ARC
  5
34D
330
6B
100
AcDbEntity
  8
0
 62
     3
100
AcDbCircle
 10
836.30723145
 20
142.36696284
 30
0.0
 40
11.5
100
AcDbArc
 50
237.57620199
 51
270.0
  0
ARC
  5
34E
330
6B
100
AcDbEntity
  8
0
 62
     3
100
AcDbCircle
 10
849.0394016499998
 20
142.36696284
 30
0.0
 40
11.5
100
AcDbArc
 50
270.0
 51
302.42379801
  0
LINE
  5
34F
330
6B
100
AcDbEntity
  8
0
 62
     3
100
AcDbLine
 10
859.1920725600001
 20
135.19206783
 30
0.0
 11
855.2054422500001
 21
132.65975195
 31
0.0
  0
ARC
  5
350
330
6B
100
AcDbEntity
  8
0
 62
     3
100
AcDbCircle
 10
854.63456429
 20
142.36696284
 30
0.0
 40
8.5
100
AcDbArc
 50
302.42379801
 51
57.57620199000001
  0
LINE
  5
351
330
6B
100
AcDbEntity
  8
0
 62
     3
100
AcDbLine
 10
859.1920725600001
 20
149.54185785
 30
0.0
 11
855.2054422500001
 21
152.07417373
 31
0.0
  0
ARC
  5
352
330
6B
100
AcDbEntity
  8
0
 62
     3
100
AcDbCircle
 10
849.0394016499998
 20
142.36696284
 30
0.0
 40
11.5
100
AcDbArc
 50
57.57620199000001
 51
90.0
  0
LINE
  5
353
330
6B
100
AcDbEntity
  8
0
 62
     3
100
AcDbLine
 10
826.1150392299999
 20
133.86696284
 30
0.0
 11
857.12791302
 21
133.86696284
 31
0.0
  0
ARC
  5
354
330
6B
100
AcDbEntity
  8
0
 62
     3
100
AcDbCircle
 10
781.2379985
 20
67.40071163999999
 30
0.0
 40
40.45
100
AcDbArc
 50
158.48691631
 51
201.51308369
  0
LINE
  5
355
330
6B
100
AcDbEntity
  8
0
 62
     3
100
AcDbLine
 10
748.2576634499999
 20
49.40071163999999
 30
0.0
 11
798.2879984999997
 21
49.40071163999999
 31
0.0
  0
ARC
  5
356
330
6B
100
AcDbEntity
  8
0
 62
     3
100
AcDbCircle
 10
748.2576634499999
 20
54.40071163999999
 30
0.0
 40
5.0
100
AcDbArc
 50
201.51308369
 51
270.0
  0
ARC
  5
357
330
6B
100
AcDbEntity
  8
0
 62
     3
100
AcDbCircle
 10
748.2576634499999
 20
80.40071164
 30
0.0
 40
5.0
100
AcDbArc
 50
90.0
 51
158.48691631
  0
ARC
  5
358
330
6B
100
AcDbEntity
  8
0
 62
     3
100
AcDbCircle
 10
826.1150392299999
 20
29.51996527
 30
0.0
 40
26.38074636
100
AcDbArc
 50
90.0
 51
119.0929172
  0
ARC
  5
359
330
6B
100
AcDbEntity
  8
0
 62
     3
100
AcDbCircle
 10
798.2879984999997
 20
86.45753666999999
 30
0.0
 40
37.05682503
100
AcDbArc
 50
270.0
 51
293.8775755
  0
LINE
  5
35A
330
6B
100
AcDbEntity
  8
0
 62
     3
100
AcDbLine
 10
826.1150392299999
 20
78.90071164
 30
0.0
 11
855.7879984999997
 21
78.90071164
 31
0.0
  0
LINE
  5
35B
330
6B
100
AcDbEntity
  8
0
 62
     3
100
AcDbLine
 10
826.1150392299999
 20
55.90071164
 30
0.0
 11
855.7879984999997
 21
55.90071164
 31
0.0
  0
ARC
  5
35C
330
6B
100
AcDbEntity
  8
0
 62
     3
100
AcDbCircle
 10
855.7879984999997
 20
67.40071163999999
 30
0.0
 40
11.5
100
AcDbArc
 50
270.0
 51
90.0
  0
ARC
  5
35D
330
6B
100
AcDbEntity
  8
0
 62
     3
100
AcDbCircle
 10
826.1150392299999
 20
105.281458
 30
0.0
 40
26.38074636
100
AcDbArc
 50
240.9070828
 51
270.0
  0
ARC
  5
35E
330
6B
100
AcDbEntity
  8
0
 62
     3
100
AcDbCircle
 10
798.2879984999997
 20
48.34388661
 30
0.0
 40
37.05682503
100
AcDbArc
 50
66.1224245
 51
90.0
  0
LINE
  5
35F
330
6B
100
AcDbEntity
  8
0
 62
     3
100
AcDbLine
 10
748.2576634499999
 20
85.40071164
 30
0.0
 11
798.2879984999997
 21
85.40071164
 31
0.0
  0
CIRCLE
  5
360
330
6B
100
AcDbEntity
  8
0
 62
     7
100
AcDbCircle
 10
865.0279987200001
 20
67.40071163999999
 30
0.0
 40
1.25
  0
CIRCLE
  5
361
330
6B
100
AcDbEntity
  8
0
 62
     7
100
AcDbCircle
 10
746.0565510899997
 20
82.04922743999999
 30
0.0
 40
1.25
  0
CIRCLE
  5
362
330
6B
100
AcDbEntity
  8
0
 62
     7
100
AcDbCircle
 10
798.30108068
 20
83.15071164
 30
0.0
 40
1.25
  0
CIRCLE
  5
363
330
6B
100
AcDbEntity
  8
0
 62
     7
100
AcDbCircle
 10
817.30108068
 20
78.04116116
 30
0.0
 40
1.25
  0
CIRCLE
  5
364
330
6B
100
AcDbEntity
  8
0
 62
     7
100
AcDbCircle
 10
746.0565510899997
 20
52.75219583
 30
0.0
 40
1.25
  0
CIRCLE
  5
365
330
6B
100
AcDbEntity
  8
0
 62
     7
100
AcDbCircle
 10
798.30108068
 20
51.65071164
 30
0.0
 40
1.25
  0
CIRCLE
  5
366
330
6B
100
AcDbEntity
  8
0
 62
     7
100
AcDbCircle
 10
817.30108068
 20
56.76026212
 30
0.0
 40
1.25
  0
LINE
  5
367
330
6B
100
AcDbEntity
  8
0
 62
     7
100
AcDbLine
 10
740.8374725199997
 20
69.40071163999999
 30
0.0
 11
749.01712504
 21
69.40071163999999
 31
0.0
  0
LINE
  5
368
330
6B
100
AcDbEntity
  8
0
 62
     7
100
AcDbLine
 10
740.8374725199997
 20
65.40071164
 30
0.0
 11
749.31560949
 21
65.40071164
 31
0.0
  0
ARC
  5
369
330
6B
100
AcDbEntity
  8
0
 62
     7
100
AcDbCircle
 10
749.01712504
 20
58.29954012
 30
0.0
 40
7.10117152
100
AcDbArc
 50
40.19713781
 51
90.0
  0
ARC
  5
36A
330
6B
100
AcDbEntity
  8
0
 62
     7
100
AcDbCircle
 10
749.01712504
 20
76.50188316000002
 30
0.0
 40
7.10117152
100
AcDbArc
 50
270.0
 51
319.80286219
  0
ARC
  5
36B
330
6B
100
AcDbEntity
  8
0
 62
     3
100
AcDbCircle
 10
744.7879985000001
 20
67.40071163999999
 30
0.0
 40
2.5
100
AcDbArc
 50
126.86989765
 51
233.13010235
  0
ARC
  5
36C
330
6B
100
AcDbEntity
  8
0
 62
     3
100
AcDbCircle
 10
744.7879985000001
 20
67.40071163999999
 30
0.0
 40
2.5
100
AcDbArc
 50
306.86989765
 51
53.13010235000001
  0
LINE
  5
36D
330
6B
100
AcDbEntity
  8
0
 62
     3
100
AcDbLine
 10
749.5379984999997
 20
68.77442628
 30
0.0
 11
746.87675605
 21
68.77442628
 31
0.0
  0
LINE
  5
36E
330
6B
100
AcDbEntity
  8
0
 62
     3
100
AcDbLine
 10
749.5379984999997
 20
66.023837
 30
0.0
 11
746.8746743899997
 21
66.023837
 31
0.0
  0
ARC
  5
36F
330
6B
100
AcDbEntity
  8
0
 62
     3
100
AcDbCircle
 10
749.01712504
 20
76.50188316000002
 30
0.0
 40
7.751171519999997
100
AcDbArc
 50
270.0
 51
319.80286219
  0
ARC
  5
370
330
6B
100
AcDbEntity
  8
0
 62
     3
100
AcDbCircle
 10
749.06455552
 20
74.53323928999998
 30
0.0
 40
8.50940229
100
AcDbArc
 50
270.0
 51
325.43759808
  0
ARC
  5
371
330
6B
100
AcDbEntity
  8
0
 62
     3
100
AcDbCircle
 10
758.09788596
 20
61.95535024
 30
0.0
 40
0.64838259
100
AcDbArc
 50
69.56265343
 51
252.75688212
  0
ARC
  5
372
330
6B
100
AcDbEntity
  8
0
 62
     3
100
AcDbCircle
 10
759.9822601399996
 20
67.01218837
 30
0.0
 40
4.74814202
100
AcDbArc
 50
249.56265343
 51
145.43759808
  0
CIRCLE
  5
373
330
6B
100
AcDbEntity
  8
0
 62
     3
100
AcDbCircle
 10
789.7754589899997
 20
67.40071163999999
 30
0.0
 40
4.25
  0
CIRCLE
  5
3BF
330
6B
100
AcDbEntity
  8
0
 62
     3
100
AcDbCircle
 10
808.06149592
 20
67.40071163999999
 30
0.0
 40
3.5
  0
LINE
  5
3C0
330
6B
100
AcDbEntity
  8
0
 62
     3
100
AcDbLine
 10
784.27965554
 20
74.90071163999998
 30
0.0
 11
798.45097729
 21
74.90071163999998
 31
0.0
  0
LINE
  5
3C1
330
6B
100
AcDbEntity
  8
0
 62
     3
100
AcDbLine
 10
784.27965554
 20
77.99510082000002
 30
0.0
 11
798.45097729
 21
77.99510082000002
 31
0.0
  0
LINE
  5
3C2
330
6B
100
AcDbEntity
  8
0
 62
     3
100
AcDbLine
 10
798.45097729
 20
74.90071163999998
 30
0.0
 11
798.45097729
 21
77.99510082000002
 31
0.0
  0
LINE
  5
3C3
330
6B
100
AcDbEntity
  8
0
 62
     3
100
AcDbLine
 10
784.27965554
 20
74.90071163999998
 30
0.0
 11
784.27965554
 21
77.99510082000002
 31
0.0
  0
LINE
  5
3C4
330
6B
100
AcDbEntity
  8
0
 62
     3
100
AcDbLine
 10
784.27965554
 20
59.90071163999999
 30
0.0
 11
798.45097729
 21
59.90071163999999
 31
0.0
  0
LINE
  5
3C5
330
6B
100
AcDbEntity
  8
0
 62
     3
100
AcDbLine
 10
784.27965554
 20
56.80632246
 30
0.0
 11
798.45097729
 21
56.80632246
 31
0.0
  0
LINE
  5
3C6
330
6B
100
AcDbEntity
  8
0
 62
     3
100
AcDbLine
 10
798.45097729
 20
59.90071163999999
 30
0.0
 11
798.45097729
 21
56.80632246
 31
0.0
  0
LINE
  5
3C7
330
6B
100
AcDbEntity
  8
0
 62
     3
100
AcDbLine
 10
784.27965554
 20
59.90071163999999
 30
0.0
 11
784.27965554
 21
56.80632246
 31
0.0
  0
LINE
  5
3C8
330
6B
100
AcDbEntity
  8
0
 62
     7
100
AcDbLine
 10
766.72287825
 20
68.35330959999999
 30
0.0
 11
765.52455753
 21
68.27918665999999
 31
0.0
  0
LINE
  5
3C9
330
6B
100
AcDbEntity
  8
0
 62
     7
100
AcDbLine
 10
766.72287825
 20
66.44811368
 30
0.0
 11
765.52455753
 21
66.52223660999999
 31
0.0
  0
LINE
  5
3CA
330
6B
100
AcDbEntity
  8
0
 62
     7
100
AcDbLine
 10
765.52455753
 20
68.27918665999999
 30
0.0
 11
765.52455753
 21
66.52223660999999
 31
0.0
  0
ARC
  5
3CB
330
6B
100
AcDbEntity
  8
0
 62
     7
100
AcDbCircle
 10
759.7879984999997
 20
67.40071163999999
 30
0.0
 40
7.0
100
AcDbArc
 50
220.19713781
 51
352.17861071
  0
ARC
  5
3CC
330
6B
100
AcDbEntity
  8
0
 62
     7
100
AcDbCircle
 10
759.7879984999997
 20
67.40071163999999
 30
0.0
 40
7.0
100
AcDbArc
 50
7.821389289999996
 51
139.80286219
  0
ARC
  5
3CD
330
6B
100
AcDbEntity
  8
0
 62
     3
100
AcDbCircle
 10
759.7879984999997
 20
67.40071163999999
 30
0.0
 40
6.349999999999997
100
AcDbArc
 50
252.75688212
 51
351.739365
  0
ARC
  5
3CE
330
6B
100
AcDbEntity
  8
0
 62
     3
100
AcDbCircle
 10
759.7879984999997
 20
67.40071163999999
 30
0.0
 40
6.349999999999997
100
AcDbArc
 50
8.260635
 51
139.80286219
  0
ARC
  5
3CF
330
6B
100
AcDbEntity
  8
0
 62
     3
100
AcDbCircle
 10
729.59373687
 20
142.75548611
 30
0.0
 40
4.74814202
100
AcDbArc
 50
69.56265343
 51
325.43759808
  0
ARC
  5
3D0
330
6B
100
AcDbEntity
  8
0
 62
     3
100
AcDbCircle
 10
740.51144149
 20
135.23443519
 30
0.0
 40
8.50940229
100
AcDbArc
 50
90.0
 51
145.43759808
  0
ARC
  5
3D1
330
6B
100
AcDbEntity
  8
0
 62
     3
100
AcDbCircle
 10
740.55887197
 20
133.26579132
 30
0.0
 40
7.751171519999997
100
AcDbArc
 50
90.0
 51
139.80286219
  0
LINE
  5
3D2
330
6B
100
AcDbEntity
  8
0
 62
     3
100
AcDbLine
 10
740.0379984999997
 20
140.9932482
 30
0.0
 11
740.81133146
 21
140.9932482
 31
0.0
  0
LINE
  5
3D3
330
6B
100
AcDbEntity
  8
0
 62
     3
100
AcDbLine
 10
740.0379984999997
 20
143.74383748
 30
0.0
 11
740.81143896
 21
143.74383748
 31
0.0
  0
ARC
  5
3D4
330
6B
100
AcDbEntity
  8
0
 62
     3
100
AcDbCircle
 10
729.7879984999997
 20
142.36696284
 30
0.0
 40
6.349999999999997
100
AcDbArc
 50
188.260635
 51
319.80286219
  0
ARC
  5
3D5
330
6B
100
AcDbEntity
  8
0
 62
     3
100
AcDbCircle
 10
729.7879984999997
 20
142.36696284
 30
0.0
 40
6.349999999999997
100
AcDbArc
 50
72.75688212
 51
171.739365
  0
ARC
  5
3D6
330
6B
100
AcDbEntity
  8
0
 62
     3
100
AcDbCircle
 10
731.47811105
 20
147.81232424
 30
0.0
 40
0.64838259
100
AcDbArc
 50
249.56265343
 51
72.75688212
  0
LINE
  5
3D7
330
6B
100
AcDbEntity
  8
0
 62
     3
100
AcDbLine
 10
723.50388143
 20
143.27930744
 30
0.0
 11
723.50388143
 21
141.45461824
 31
0.0
  0
LINE
  5
3D8
330
6B
100
AcDbEntity
  8
0
 62
     3
100
AcDbLine
 10
867.2879984999998
 20
193.92840983
 30
0.0
 11
867.2879984999998
 21
184.10945691
 31
0.0
  0
LINE
  5
3D9
330
6B
100
AcDbEntity
  8
0
 62
     3
100
AcDbLine
 10
740.7879985
 20
193.92840983
 30
0.0
 11
740.7879985
 21
185.92976353
 31
0.0
  0
ARC
  5
3DA
330
6B
100
AcDbEntity
  8
0
 62
     3
100
AcDbCircle
 10
804.0379984999997
 20
-301.49172936
 30
0.0
 40
502.0703124999998
100
AcDbArc
 50
83.06608425
 51
96.93391574999999
  0
ARC
  5
3DB
330
6B
100
AcDbEntity
  8
0
 62
     3
100
AcDbCircle
 10
743.7879984999997
 20
185.92976353
 30
0.0
 40
3.0
100
AcDbArc
 50
180.0
 51
267.16027483
  0
ARC
  5
3DC
330
6B
100
AcDbEntity
  8
0
 62
     3
100
AcDbCircle
 10
743.7879984999997
 20
193.92840983
 30
0.0
 40
3.0
100
AcDbArc
 50
96.93391574999999
 51
180.0
  0
ARC
  5
3DD
330
6B
100
AcDbEntity
  8
0
 62
     3
100
AcDbCircle
 10
798.30108068
 20
1284.91345708
 30
0.0
 40
1103.33487394
100
AcDbArc
 50
267.16027483
 51
270.0
  0
ARC
  5
3DE
330
6B
100
AcDbEntity
  8
0
 62
     3
100
AcDbCircle
 10
843.34306993
 20
117.84953852
 30
0.0
 40
67.14382059
100
AcDbArc
 50
72.06589950999997
 51
90.0
  0
ARC
  5
3DF
330
6B
100
AcDbEntity
  8
0
 62
     3
100
AcDbCircle
 10
843.34306993
 20
55.23713714
 30
0.0
 40
129.75622197
100
AcDbArc
 50
90.0
 51
99.30493046
  0
ARC
  5
3E0
330
6B
100
AcDbEntity
  8
0
 62
     3
100
AcDbCircle
 10
801.0341356699997
 20
313.46306274
 30
0.0
 40
131.91279525
100
AcDbArc
 50
268.81282387
 51
279.30493046
  0
ARC
  5
3E1
330
6B
100
AcDbEntity
  8
0
 62
     3
100
AcDbCircle
 10
864.7879984999999
 20
184.10945691
 30
0.0
 40
2.5
100
AcDbArc
 50
252.06589951
 51
0.0
  0
ARC
  5
3E2
330
6B
100
AcDbEntity
  8
0
 62
     3
100
AcDbCircle
 10
864.2879985
 20
193.92840983
 30
0.0
 40
3.0
100
AcDbArc
 50
0.0
 51
83.06608425
  0
LINE
  5
3E3
330
6B
100
AcDbEntity
  8
0
 62
     3
100
AcDbLine
 10
867.2879984999998
 20
190.54580556
 30
0.0
 11
740.7879985
 21
190.54580556
 31
0.0
  0
LINE
  5
3E4
330
6B
100
AcDbEntity
  8
0
 62
     3
100
AcDbLine
 10
813.2879984999997
 20
155.54812482
 30
0.0
 11
813.2879984999997
 21
157.19535998
 31
0.0
  0
LINE
  5
3E5
330
6B
100
AcDbEntity
  8
0
 62
     3
100
AcDbLine
 10
813.2879984999997
 20
129.18580086
 30
0.0
 11
813.2879984999997
 21
127.5385657
 31
0.0
  0
LINE
  5
3E6
330
6B
100
AcDbEntity
  8
0
 62
     3
100
AcDbLine
 10
813.2879984999997
 20
190.54580556
 30
0.0
 11
813.2879984999997
 21
182.12065377
 31
0.0
  0
LINE
  5
3E7
330
6B
100
AcDbEntity
  8
0
 62
     3
100
AcDbLine
 10
796.12404209
 20
196.67503891
 30
0.0
 11
798.44864582
 21
196.67503891
 31
0.0
  0
LINE
  5
3E8
330
6B
100
AcDbEntity
  8
0
 62
     3
100
AcDbLine
 10
796.12404209
 20
193.64947775
 30
0.0
 11
798.44864582
 21
193.64947775
 31
0.0
  0
LINE
  5
3E9
330
6B
100
AcDbEntity
  8
0
 62
     3
100
AcDbLine
 10
798.44864582
 20
196.67503891
 30
0.0
 11
798.44864582
 21
193.64947775
 31
0.0
  0
LINE
  5
3EA
330
6B
100
AcDbEntity
  8
0
 62
     3
100
AcDbLine
 10
796.12404209
 20
196.67503891
 30
0.0
 11
796.12404209
 21
193.64947775
 31
0.0
  0
CIRCLE
  5
3EB
330
6B
100
AcDbEntity
  8
0
 62
     3
100
AcDbCircle
 10
797.27068842
 20
195.19525211
 30
0.0
 40
0.9525238899999999
  0
CIRCLE
  5
3EC
330
6B
100
AcDbEntity
  8
0
 62
     3
100
AcDbCircle
 10
791.26820318
 20
195.13268285
 30
0.0
 40
0.8329579799999999
  0
LINE
  5
3ED
330
6B
100
AcDbEntity
  8
0
 62
     3
100
AcDbLine
 10
723.50388143
 20
191.78000186379
 30
0.0
 11
723.50388143
 21
193.18080927379
 31
0.0
  0
LINE
  5
3EE
330
6B
100
AcDbEntity
  8
0
 62
     3
100
AcDbLine
 10
724.00388143
 20
193.68080927379
 30
0.0
 11
740.7879985
 21
193.68080927379
 31
0.0
  0
LINE
  5
3EF
330
6B
100
AcDbEntity
  8
0
 62
     3
100
AcDbLine
 10
724.00388143
 20
191.2800018637899
 30
0.0
 11
740.7879985
 21
191.2800018637899
 31
0.0
  0
LINE
  5
3F0
330
6B
100
AcDbEntity
  8
0
 62
     3
100
AcDbLine
 10
724.00388143
 20
193.68080927379
 30
0.0
 11
723.50388143
 21
193.18080927379
 31
0.0
  0
LINE
  5
3F1
330
6B
100
AcDbEntity
  8
0
 62
     3
100
AcDbLine
 10
723.50388143
 20
191.78000186379
 30
0.0
 11
724.00388143
 21
191.2800018637899
 31
0.0
  0
LINE
  5
3F2
330
6B
100
AcDbEntity
  8
0
  6
CENTER
 62
     7
100
AcDbLine
 10
721.80591802
 20
142.36696284
 30
0.0
 11
870.5668022800001
 21
142.36696284
 31
0.0
  0
LINE
  5
3F3
330
6B
100
AcDbEntity
  8
0
 62
     3
100
AcDbLine
 10
834.28954088
 20
184.67712614
 30
0.0
 11
834.28954088
 21
190.54580556
 31
0.0
  0
LINE
  5
3F4
330
6B
100
AcDbEntity
  8
0
 62
     3
100
AcDbLine
 10
851.3428948799999
 20
184.51508767
 30
0.0
 11
851.3428948799999
 21
190.54580556
 31
0.0
  0
LINE
  5
3FA
330
6B
100
AcDbEntity
  8
0
 62
     7
100
AcDbLine
 10
790.98615056
 20
194.34893206
 30
0.0
 11
783.8285492899997
 21
175.84861808
 31
0.0
  0
LINE
  5
3FB
330
6B
100
AcDbEntity
  8
0
 62
     7
100
AcDbLine
 10
783.8285492899997
 20
175.84861808
 30
0.0
 11
764.5785492899997
 21
175.84861808
 31
0.0
  0
TEXT
  5
3FC
330
6B
100
AcDbEntity
  8
0
 62
     4
100
AcDbText
 10
767.3285492899997
 20
176.84861808
 30
0.0
 40
3.200000049999998
  1
充電ランプ
 41
0.7161458200000002
100
AcDbText
  0
LINE
  5
402
330
6B
100
AcDbEntity
  8
0
 62
     7
100
AcDbLine
 10
840.6312569
 20
150.86696284
 30
0.0
 11
845.95281692
 21
160.84172421
 31
0.0
  0
LINE
  5
403
330
6B
100
AcDbEntity
  8
0
 62
     7
100
AcDbLine
 10
845.95281692
 20
160.84172421
 30
0.0
 11
876.20281692
 21
160.84172421
 31
0.0
  0
TEXT
  5
404
330
6B
100
AcDbEntity
  8
0
 62
     4
100
AcDbText
 10
848.70281692
 20
161.84172421
 30
0.0
 40
3.200000049999998
  1
ノンスリップラバー
 41
0.7161458200000002
100
AcDbText
  0
LINE
  5
40A
330
6B
100
AcDbEntity
  8
0
 62
     7
100
AcDbLine
 10
791.4952872699997
 20
77.53861077999999
 30
0.0
 11
783.4055510799997
 21
94.25755737000001
 31
0.0
  0
LINE
  5
40B
330
6B
100
AcDbEntity
  8
0
 62
     7
100
AcDbLine
 10
783.4055510799997
 20
94.25755737000001
 30
0.0
 11
769.65555108
 21
94.25755737000001
 31
0.0
  0
TEXT
  5
40C
330
6B
100
AcDbEntity
  8
0
 62
     4
100
AcDbText
 10
772.40555108
 20
95.25755737
 30
0.0
 40
3.200000049999998
  1
ラバー
 41
0.7161458200000002
100
AcDbText
  0
LINE
  5
412
330
6B
100
AcDbEntity
  8
0
 62
     7
100
AcDbLine
 10
761.56827453
 20
72.55120827
 30
0.0
 11
753.3566754199996
 21
94.76269452
 31
0.0
  0
LINE
  5
413
330
6B
100
AcDbEntity
  8
0
 62
     7
100
AcDbLine
 10
753.3566754199996
 20
94.76269452
 30
0.0
 11
734.1066754199996
 21
94.76269452
 31
0.0
  0
TEXT
  5
414
330
6B
100
AcDbEntity
  8
0
 62
     4
100
AcDbText
 10
736.8566754199996
 20
95.76269452
 30
0.0
 40
3.200000049999998
  1
収納フック
 41
0.7161458200000002
100
AcDbText
  0
LINE
  5
41A
330
6B
100
AcDbEntity
  8
0
 62
     7
100
AcDbLine
 10
797.44741428
 20
193.64947775
 30
0.0
 11
801.8924082999998
 21
177.58517465
 31
0.0
  0
CIRCLE
  5
41B
330
6B
100
AcDbEntity
  8
0
 62
     7
100
AcDbCircle
 10
803.2258056399998
 20
172.76624826
 30
0.0
 40
5.0
  0
TEXT
  5
41C
330
6B
100
AcDbEntity
  8
0
 62
     4
100
AcDbText
 10
801.066762770289
 20
169.5554715088644
 30
0.0
 40
6.299999999999998
  1
6
  7
高6.3
100
AcDbText
  0
LINE
  5
422
330
6B
100
AcDbEntity
  8
0
 62
     7
100
AcDbLine
 10
809.03418594
 20
70.76283508999998
 30
0.0
 11
820.42705514
 21
93.72522463999999
 31
0.0
  0
CIRCLE
  5
423
330
6B
100
AcDbEntity
  8
0
 62
     7
100
AcDbCircle
 10
822.6493295799999
 20
98.20423082000001
 30
0.0
 40
5.0
  0
TEXT
  5
424
330
6B
100
AcDbEntity
  8
0
 62
     4
100
AcDbText
 10
820.4902867102891
 20
94.9934540688644
 30
0.0
 40
6.299999999999998
  1
4
  7
高6.3
100
AcDbText
  0
LINE
  5
42A
330
6B
100
AcDbEntity
  8
0
 62
     7
100
AcDbLine
 10
791.8143282499999
 20
71.12972118
 30
0.0
 11
804.1376984299999
 21
93.81083817
 31
0.0
  0
CIRCLE
  5
42B
330
6B
100
AcDbEntity
  8
0
 62
     7
100
AcDbCircle
 10
806.52476799
 20
98.20423082000001
 30
0.0
 40
5.0
  0
TEXT
  5
42C
330
6B
100
AcDbEntity
  8
0
 62
     4
100
AcDbText
 10
804.3657251202889
 20
94.9934540688644
 30
0.0
 40
6.299999999999998
  1
5
  7
高6.3
100
AcDbText
  0
LINE
  5
432
330
6B
100
AcDbEntity
  8
0
 62
     7
100
AcDbLine
 10
787.70986281
 20
129.17022799
 30
0.0
 11
781.86302218
 21
117.72593131
 31
0.0
  0
CIRCLE
  5
433
330
6B
100
AcDbEntity
  8
0
 62
     7
100
AcDbCircle
 10
779.5882278
 20
113.27336906
 30
0.0
 40
5.0
  0
TEXT
  5
434
330
6B
100
AcDbEntity
  8
0
 62
     4
100
AcDbText
 10
777.4291849302891
 20
110.0625923088644
 30
0.0
 40
6.299999999999998
  1
3
  7
高6.3
100
AcDbText
  0
LINE
  5
43A
330
6B
100
AcDbEntity
  8
0
 62
     7
100
AcDbLine
 10
768.15892049
 20
124.36696284
 30
0.0
 11
763.78849174
 21
117.49279908
 31
0.0
  0
CIRCLE
  5
43B
330
6B
100
AcDbEntity
  8
0
 62
     7
100
AcDbCircle
 10
761.1058791599997
 20
113.27336906
 30
0.0
 40
5.0
  0
TEXT
  5
43C
330
6B
100
AcDbEntity
  8
0
 62
     4
100
AcDbText
 10
760.1550279933676
 20
110.0482512332255
 30
0.0
 40
6.299999999999998
  1
1
  7
高6.3
100
AcDbText
  0
LINE
  5
442
330
6B
100
AcDbEntity
  8
0
 62
     7
100
AcDbLine
 10
730.49802949
 20
136.05678408
 30
0.0
 11
723.7069306099997
 21
117.95477304
 31
0.0
  0
CIRCLE
  5
443
330
6B
100
AcDbEntity
  8
0
 62
     7
100
AcDbCircle
 10
721.9506684399997
 20
113.27336906
 30
0.0
 40
5.0
  0
TEXT
  5
444
330
6B
100
AcDbEntity
  8
0
 62
     4
100
AcDbText
 10
719.7916255702891
 20
110.0625923088644
 30
0.0
 40
6.299999999999998
  1
2
  7
高6.3
100
AcDbText
  0
TEXT
  5
445
330
6B
100
AcDbEntity
  8
0
 62
     4
100
AcDbText
 10
828.6567541
 20
95.4562607
 30
0.0
 40
3.2
  1
2秒以上長押し/SOSモールス信号点滅
  7
高3.2
100
AcDbText
  0
TEXT
  5
446
330
6B
100
AcDbEntity
  8
0
 62
     3
100
AcDbText
 10
951.47081101
 20
36.78199096
 30
0.0
 40
4.5
  1
光　　度
  7
高4.5
100
AcDbText
  0
TEXT
  5
447
330
6B
100
AcDbEntity
  8
0
 62
     3
100
AcDbText
 10
951.7393682499999
 20
27.44730297
 30
0.0
 40
4.5
  1
質　　量
  7
高4.5
100
AcDbText
  0
TEXT
  5
448
330
6B
100
AcDbEntity
  8
0
 62
     3
100
AcDbText
 10
951.64256142
 20
69.33027370000001
 30
0.0
 40
4.5
  1
型　　式
  7
高4.5
100
AcDbText
  0
TEXT
  5
449
330
6B
100
AcDbEntity
  8
0
 62
     3
100
AcDbText
 10
978.4342740099999
 20
75.43207682000002
 30
0.0
 40
4.5
  1
主　仕　様
  7
高4.5
100
AcDbText
  0
TEXT
  5
44A
330
6B
100
AcDbEntity
  8
0
 62
     3
100
AcDbText
 10
984.5610213015437
 20
57.61269226
 30
0.0
 40
4.5
  1
全灯／約4.5時間
  7
高4.5
100
AcDbText
  0
TEXT
  5
44B
330
6B
100
AcDbEntity
  8
0
 62
     3
100
AcDbText
 10
992.7472874615435
 20
27.43368294
 30
0.0
 40
4.5
  1
235g
  7
高4.5
100
AcDbText
  0
TEXT
  5
44C
330
6B
100
AcDbEntity
  8
0
 62
     3
100
AcDbText
 10
674.1219050049179
 20
-14.34989103
 30
0.0
 40
3.2
  1
3段スイッチ
 41
0.8
  7
高3.2
100
AcDbText
  0
TEXT
  5
44D
330
6B
100
AcDbEntity
  8
0
 62
     3
100
AcDbText
 10
1035.81688753
 20
5.432833969999999
 30
0.0
 40
4.5
  1
9065
  7
高4.5
100
AcDbText
  0
TEXT
  5
44E
330
6B
100
AcDbEntity
  8
0
 62
     3
100
AcDbText
 10
1009.417339362661
 20
5.63145713
 30
0.0
 40
4.5
  1
コード
  7
高4.5
100
AcDbText
  0
LINE
  5
44F
330
6B
100
AcDbEntity
  8
0
 62
     3
100
AcDbLine
 10
823.1026290315401
 20
-34.84989103
 30
0.0
 11
823.1026290315401
 21
15.15010897
 31
0.0
  0
TEXT
  5
450
330
6B
100
AcDbEntity
  8
0
 62
     3
100
AcDbText
 10
760.5794471303705
 20
-34.34989103
 30
0.0
 40
3.2
  1
コード
 41
0.8
  7
高3.2
100
AcDbText
  0
LINE
  5
451
330
6B
100
AcDbEntity
  8
0
 62
     7
100
AcDbLine
 10
665.75626575
 20
-24.84989103
 30
0.0
 11
823.1026290315401
 21
-24.84989103
 31
0.0
  0
LINE
  5
452
330
6B
100
AcDbEntity
  8
0
 62
     7
100
AcDbLine
 10
665.75626575
 20
-19.84989103
 30
0.0
 11
823.1026290315401
 21
-19.84989103
 31
0.0
  0
LINE
  5
453
330
6B
100
AcDbEntity
  8
0
 62
     7
100
AcDbLine
 10
665.75626575
 20
-14.84989103
 30
0.0
 11
823.1026290315401
 21
-14.84989103
 31
0.0
  0
LINE
  5
454
330
6B
100
AcDbEntity
  8
0
 62
     7
100
AcDbLine
 10
665.75626575
 20
-9.849891029999998
 30
0.0
 11
823.1026290315401
 21
-9.849891029999998
 31
0.0
  0
LINE
  5
455
330
6B
100
AcDbEntity
  8
0
 62
     3
100
AcDbLine
 10
665.75626575
 20
-29.84989103
 30
0.0
 11
823.1026290315401
 21
-29.84989103
 31
0.0
  0
LINE
  5
456
330
6B
100
AcDbEntity
  8
0
 62
     7
100
AcDbLine
 10
665.75626575
 20
10.15010897
 30
0.0
 11
823.1026290315401
 21
10.15010897
 31
0.0
  0
LINE
  5
457
330
6B
100
AcDbEntity
  8
0
 62
     7
100
AcDbLine
 10
665.75626575
 20
-4.849891029999998
 30
0.0
 11
823.1026290315401
 21
-4.84989103
 31
0.0
  0
LINE
  5
458
330
6B
100
AcDbEntity
  8
0
 62
     7
100
AcDbLine
 10
665.75626575
 20
0.1501089700000016
 30
0.0
 11
823.1026290315401
 21
0.1501089700000016
 31
0.0
  0
LINE
  5
459
330
6B
100
AcDbEntity
  8
0
 62
     7
100
AcDbLine
 10
665.75626575
 20
5.15010897
 30
0.0
 11
823.1026290315401
 21
5.15010897
 31
0.0
  0
TEXT
  5
45A
330
6B
100
AcDbEntity
  8
0
 62
     3
100
AcDbText
 10
760.5794471303705
 20
5.65010897
 30
0.0
 40
3.2
  1
54838
 41
0.8
  7
高3.2
100
AcDbText
  0
TEXT
  5
45B
330
6B
100
AcDbEntity
  8
0
 62
     3
100
AcDbText
 10
760.5794471303705
 20
0.6501089700000016
 30
0.0
 40
3.2
  1
53572
 41
0.8
  7
高3.2
100
AcDbText
  0
TEXT
  5
45C
330
6B
100
AcDbEntity
  8
0
 62
     3
100
AcDbText
 10
760.5794471303705
 20
-4.349891029999999
 30
0.0
 40
3.2
  1
-
 41
0.8
  7
高3.2
100
AcDbText
  0
TEXT
  5
45D
330
6B
100
AcDbEntity
  8
0
 62
     3
100
AcDbText
 10
760.5794471303705
 20
-9.349891029999998
 30
0.0
 40
3.2
  1
-
 41
0.8
  7
高3.2
100
AcDbText
  0
TEXT
  5
45E
330
6B
100
AcDbEntity
  8
0
 62
     3
100
AcDbText
 10
760.5794471303705
 20
-14.34989103
 30
0.0
 40
3.2
  1
-
 41
0.8
  7
高3.2
100
AcDbText
  0
TEXT
  5
45F
330
6B
100
AcDbEntity
  8
0
 62
     3
100
AcDbText
 10
760.5794471303705
 20
-19.34989103
 30
0.0
 40
3.2
  1
-
 41
0.8
  7
高3.2
100
AcDbText
  0
TEXT
  5
460
330
6B
100
AcDbEntity
  8
0
 62
     3
100
AcDbText
 10
760.5794471303705
 20
-24.34989103
 30
0.0
 40
3.2
  1
54837
 41
0.8
  7
高3.2
100
AcDbText
  0
TEXT
  5
461
330
6B
100
AcDbEntity
  8
0
 62
     3
100
AcDbText
 10
760.5794471303705
 20
-29.34989103
 30
0.0
 40
3.2
  1
-
 41
0.8
  7
高3.2
100
AcDbText
  0
LINE
  5
73A
330
6B
100
AcDbEntity
  8
0
 62
     7
100
AcDbLine
 10
774.6461722688548
 20
-34.84989103
 30
0.0
 11
774.6461722688548
 21
15.15010897
 31
0.0
  0
TEXT
  5
73B
330
6B
100
AcDbEntity
  8
0
 62
     3
100
AcDbText
 10
776.1461722688547
 20
-34.34989103
 30
0.0
 40
3.2
  1
コード番号名称
 41
0.6
  7
高3.2
100
AcDbText
  0
TEXT
  5
73C
330
6B
100
AcDbEntity
  8
0
 62
     3
100
AcDbText
 10
776.1461722688547
 20
5.650108969999998
 30
0.0
 40
3.2
  1
LEH-36P用　車載充電器
 41
0.6
  7
高3.2
100
AcDbText
  0
TEXT
  5
73D
330
6B
100
AcDbEntity
  8
0
 62
     3
100
AcDbText
 10
776.1461722688547
 20
0.650108969999998
 30
0.0
 40
3.2
  1
LEH-36P用AC100V　充電アダプター
 41
0.6
  7
高3.2
100
AcDbText
  0
TEXT
  5
73E
330
6B
100
AcDbEntity
  8
0
 62
     3
100
AcDbText
 10
776.1461722688547
 20
-4.349891029999998
 30
0.0
 40
3.2
  1
-
 41
0.6
  7
高3.2
100
AcDbText
  0
TEXT
  5
73F
330
6B
100
AcDbEntity
  8
0
 62
     3
100
AcDbText
 10
776.1461722688547
 20
-9.349891029999994
 30
0.0
 40
3.2
  1
-
 41
0.6
  7
高3.2
100
AcDbText
  0
TEXT
  5
740
330
6B
100
AcDbEntity
  8
0
 62
     3
100
AcDbText
 10
776.1461722688547
 20
-14.34989103
 30
0.0
 40
3.2
  1
-
 41
0.6
  7
高3.2
100
AcDbText
  0
TEXT
  5
741
330
6B
100
AcDbEntity
  8
0
 62
     3
100
AcDbText
 10
776.1461722688547
 20
-19.34989103
 30
0.0
 40
3.2
  1
-
 41
0.6
  7
高3.2
100
AcDbText
  0
TEXT
  5
742
330
6B
100
AcDbEntity
  8
0
 62
     3
100
AcDbText
 10
776.1461722688547
 20
-24.34989103
 30
0.0
 40
3.2
  1
LEH-36P用　フック
 41
0.6
  7
高3.2
100
AcDbText
  0
TEXT
  5
743
330
6B
100
AcDbEntity
  8
0
 62
     3
100
AcDbText
 10
776.1461722688547
 20
-29.34989103
 30
0.0
 40
3.2
  1
-
 41
0.6
  7
高3.2
100
AcDbText
  0
CIRCLE
  5
82C
330
6B
100
AcDbEntity
  8
0
 62
     7
100
AcDbCircle
 10
738.7449082260309
 20
172.76624826
 30
0.0
 40
5.0
  0
TEXT
  5
82D
330
6B
100
AcDbEntity
  8
0
 62
     4
100
AcDbText
 10
736.58586535632
 20
169.5554715088644
 30
0.0
 40
6.299999999999998
  1
9
  7
高6.3
100
AcDbText
  0
TEXT
  5
830
330
6B
100
AcDbEntity
  8
0
 62
     3
100
AcDbText
 10
705.8337769091211
 20
10.65010897
 30
0.0
 40
3.2
  1
1
 41
0.8
  7
高3.2
100
AcDbText
  0
TEXT
  5
831
330
6B
100
AcDbEntity
  8
0
 62
     3
100
AcDbText
 10
667.25626575
 20
10.65010897
 30
0.0
 40
3.2
  1
9
 41
0.8
  7
高3.2
100
AcDbText
  0
TEXT
  5
832
330
6B
100
AcDbEntity
  8
0
 62
     3
100
AcDbText
 10
674.1219050049179
 20
10.65010897
 30
0.0
 40
3.2
  1
透明カバー
 41
0.8
  7
高3.2
100
AcDbText
  0
TEXT
  5
833
330
6B
100
AcDbEntity
  8
0
 62
     3
100
AcDbText
 10
726.6158558875023
 20
10.65010897
 30
0.0
 40
3.2
  1
-
 41
0.8
  7
高3.2
100
AcDbText
  0
TEXT
  5
834
330
6B
100
AcDbEntity
  8
0
 62
     3
100
AcDbText
 10
715.1937044029059
 20
10.65010897
 30
0.0
 40
3.2
  1
-
 41
0.8
  7
高3.2
100
AcDbText
  0
LINE
  5
835
330
6B
100
AcDbEntity
  8
0
 62
     3
100
AcDbLine
 10
665.75626575
 20
15.15010897
 30
0.0
 11
823.1026290315401
 21
15.15010897
 31
0.0
  0
TEXT
  5
836
330
6B
100
AcDbEntity
  8
0
 62
     3
100
AcDbText
 10
760.5794471303705
 20
10.65010897
 30
0.0
 40
3.2
  1
54839
 41
0.8
  7
高3.2
100
AcDbText
  0
TEXT
  5
837
330
6B
100
AcDbEntity
  8
0
 62
     3
100
AcDbText
 10
776.1461722688547
 20
10.65010897
 30
0.0
 40
3.2
  1
LEH-36P用　透明カバー
 41
0.6
  7
高3.2
100
AcDbText
  0
TEXT
  5
980
330
6B
100
AcDbEntity
  8
0
 62
     3
100
AcDbText
 10
1043.25626575
 20
229.70547002
 30
0.0
 40
3.2
  1
担　当
  7
高3.2
100
AcDbText
  0
TEXT
  5
981
330
6B
100
AcDbEntity
  8
0
 62
     3
100
AcDbText
 10
999.2562657499998
 20
229.70547002
 30
0.0
 40
3.2
  1
変更・追記内容
  7
高3.2
100
AcDbText
  0
TEXT
  5
982
330
6B
100
AcDbEntity
  8
0
 62
     3
100
AcDbText
 10
974.3697807503391
 20
225.0349315100917
 30
0.0
 40
2.0
  1
1
  7
高2
100
AcDbText
  0
TEXT
  5
983
330
6B
100
AcDbEntity
  8
0
 62
     3
100
AcDbText
 10
974.0612692735819
 20
219.8651147978188
 30
0.0
 40
2.0
  1
2
  7
高2
100
AcDbText
  0
TEXT
  5
984
330
6B
100
AcDbEntity
  8
0
 62
     3
100
AcDbText
 10
981.2562657499999
 20
229.70547002
 30
0.0
 40
3.2
  1
日　付
  7
高3.2
100
AcDbText
  0
TEXT
  5
985
330
6B
100
AcDbEntity
  8
0
 62
     3
100
AcDbText
 10
981.2562657499999
 20
234.70547002
 30
0.0
 40
3.2
  1
図　　　　面　　　　略　　　　歴
  7
高3.2
100
AcDbText
  0
TEXT
  5
986
330
6B
100
AcDbEntity
  8
0
 62
     3
100
AcDbText
 10
971.2562657499999
 20
229.70547002
 30
0.0
 40
3.2
  1
記号
  7
高3.2
100
AcDbText
  0
LINE
  5
987
330
6B
100
AcDbEntity
  8
0
 62
     7
100
AcDbLine
 10
974.7562657499999
 20
222.9963660200001
 30
0.0
 11
972.8562657499999
 21
219.70547002
 31
0.0
  0
LINE
  5
988
330
6B
100
AcDbEntity
  8
0
 62
     7
100
AcDbLine
 10
974.7562657499999
 20
222.9963660200001
 30
0.0
 11
976.6562657499999
 21
219.70547002
 31
0.0
  0
LINE
  5
989
330
6B
100
AcDbEntity
  8
0
 62
     7
100
AcDbLine
 10
972.8562657499999
 20
219.70547002
 30
0.0
 11
976.6562657499999
 21
219.70547002
 31
0.0
  0
LINE
  5
98A
330
6B
100
AcDbEntity
  8
0
 62
     7
100
AcDbLine
 10
974.7562657499999
 20
227.9963670200001
 30
0.0
 11
972.8562657499999
 21
224.70547002
 31
0.0
  0
LINE
  5
98B
330
6B
100
AcDbEntity
  8
0
 62
     7
100
AcDbLine
 10
974.7562657499999
 20
227.9963670200001
 30
0.0
 11
976.6562657499999
 21
224.70547002
 31
0.0
  0
LINE
  5
98C
330
6B
100
AcDbEntity
  8
0
 62
     7
100
AcDbLine
 10
972.8562657499999
 20
224.70547002
 30
0.0
 11
976.6562657499999
 21
224.70547002
 31
0.0
  0
LINE
  5
98D
330
6B
100
AcDbEntity
  8
0
 62
     3
100
AcDbLine
 10
969.7562657499998
 20
234.20547002
 30
0.0
 11
1055.75626575
 21
234.20547002
 31
0.0
  0
LINE
  5
98E
330
6B
100
AcDbEntity
  8
0
 62
     3
100
AcDbLine
 10
969.7562657499998
 20
229.20547002
 30
0.0
 11
1055.75626575
 21
229.20547002
 31
0.0
  0
LINE
  5
98F
330
6B
100
AcDbEntity
  8
0
 62
     7
100
AcDbLine
 10
969.7562657499998
 20
224.20547002
 30
0.0
 11
1055.75626575
 21
224.20547002
 31
0.0
  0
LINE
  5
990
330
6B
100
AcDbEntity
  8
0
 62
     3
100
AcDbLine
 10
969.7562657499998
 20
219.20547002
 30
0.0
 11
1055.75626575
 21
219.20547002
 31
0.0
  0
LINE
  5
991
330
6B
100
AcDbEntity
  8
0
 62
     7
100
AcDbLine
 10
1041.75626575
 20
219.20547002
 30
0.0
 11
1041.75626575
 21
234.20547002
 31
0.0
  0
LINE
  5
992
330
6B
100
AcDbEntity
  8
0
 62
     7
100
AcDbLine
 10
997.75626575
 20
219.20547002
 30
0.0
 11
997.75626575
 21
234.20547002
 31
0.0
  0
LINE
  5
993
330
6B
100
AcDbEntity
  8
0
 62
     7
100
AcDbLine
 10
979.7562657499998
 20
219.20547002
 30
0.0
 11
979.7562657499998
 21
234.20547002
 31
0.0
  0
LINE
  5
994
330
6B
100
AcDbEntity
  8
0
 62
     3
100
AcDbLine
 10
969.7562657499998
 20
219.20547002
 30
0.0
 11
969.7562657499998
 21
239.20547002
 31
0.0
  0
LINE
  5
B0E
330
6B
100
AcDbEntity
  8
0
 62
     7
100
AcDbLine
 10
730.29727597
 20
133.99598688
 30
0.0
 11
730.49802949
 21
136.05678408
 31
0.0
  0
LINE
  5
B0F
330
6B
100
AcDbEntity
  8
0
 62
     7
100
AcDbLine
 10
730.49802949
 20
136.05678408
 30
0.0
 11
729.2937732699997
 21
134.3724581
 31
0.0
  0
LINE
  5
B10
330
6B
100
AcDbEntity
  8
0
 62
     7
100
AcDbLine
 10
767.5381125799997
 20
122.39166929
 30
0.0
 11
768.15892049
 21
124.36696284
 31
0.0
  0
LINE
  5
B11
330
6B
100
AcDbEntity
  8
0
 62
     7
100
AcDbLine
 10
768.15892049
 20
124.36696284
 30
0.0
 11
766.63363832
 21
122.96671237
 31
0.0
  0
LINE
  5
B12
330
6B
100
AcDbEntity
  8
0
 62
     7
100
AcDbLine
 10
787.27716922
 20
127.14539137
 30
0.0
 11
787.70986281
 21
129.17022799
 31
0.0
  0
LINE
  5
B13
330
6B
100
AcDbEntity
  8
0
 62
     7
100
AcDbLine
 10
787.70986281
 20
129.17022799
 30
0.0
 11
786.32272089
 21
127.63301481
 31
0.0
  0
LINE
  5
B14
330
6B
100
AcDbEntity
  8
0
 62
     7
100
AcDbLine
 10
792.2982736799997
 20
73.14292356999998
 30
0.0
 11
791.8143282499999
 21
71.12972118
 31
0.0
  0
LINE
  5
B15
330
6B
100
AcDbEntity
  8
0
 62
     7
100
AcDbLine
 10
791.8143282499999
 20
71.12972118
 30
0.0
 11
793.2400384600001
 21
72.6312329
 31
0.0
  0
LINE
  5
B16
330
6B
100
AcDbEntity
  8
0
 62
     7
100
AcDbLine
 10
809.4430372999999
 20
72.79262021
 30
0.0
 11
809.03418594
 21
70.76283508999998
 31
0.0
  0
LINE
  5
B17
330
6B
100
AcDbEntity
  8
0
 62
     7
100
AcDbLine
 10
809.03418594
 20
70.76283508999998
 30
0.0
 11
810.4031541399999
 21
72.31625490999999
 31
0.0
  0
LINE
  5
B18
330
6B
100
AcDbEntity
  8
0
 62
     7
100
AcDbLine
 10
798.4972641699997
 20
191.86482028
 30
0.0
 11
797.44741428
 21
193.64947775
 31
0.0
  0
LINE
  5
B19
330
6B
100
AcDbEntity
  8
0
 62
     7
100
AcDbLine
 10
797.44741428
 20
193.64947775
 30
0.0
 11
797.4642822599999
 21
191.5789941
 31
0.0
  0
LINE
  5
B1A
330
6B
100
AcDbEntity
  8
0
 62
     7
100
AcDbLine
 10
760.37210326
 20
74.24128559
 30
0.0
 11
761.56827453
 21
72.55120827
 31
0.0
  0
LINE
  5
B1B
330
6B
100
AcDbEntity
  8
0
 62
     7
100
AcDbLine
 10
761.56827453
 20
72.55120827
 30
0.0
 11
761.3773984499996
 21
74.6129438
 31
0.0
  0
LINE
  5
B1C
330
6B
100
AcDbEntity
  8
0
 62
     7
100
AcDbLine
 10
790.14177736
 20
79.10551791999998
 30
0.0
 11
791.4952872699997
 21
77.53861077999999
 31
0.0
  0
LINE
  5
B1D
330
6B
100
AcDbEntity
  8
0
 62
     7
100
AcDbLine
 10
791.4952872699997
 20
77.53861077999999
 30
0.0
 11
791.10656685
 21
79.57234712
 31
0.0
  0
LINE
  5
B1E
330
6B
100
AcDbEntity
  8
0
 62
     7
100
AcDbLine
 10
841.0998474599999
 20
152.8837945
 30
0.0
 11
840.6312569
 21
150.86696284
 31
0.0
  0
LINE
  5
B1F
330
6B
100
AcDbEntity
  8
0
 62
     7
100
AcDbLine
 10
840.6312569
 20
150.86696284
 30
0.0
 11
842.0454840399996
 21
152.37929503
 31
0.0
  0
LINE
  5
B20
330
6B
100
AcDbEntity
  8
0
 62
     7
100
AcDbLine
 10
790.7642928699997
 20
192.29029993
 30
0.0
 11
790.98615056
 21
194.34893206
 31
0.0
  0
LINE
  5
B21
330
6B
100
AcDbEntity
  8
0
 62
     7
100
AcDbLine
 10
790.98615056
 20
194.34893206
 30
0.0
 11
789.7647001300001
 21
192.67703317
 31
0.0
  0
LINE
  5
B22
330
6B
100
AcDbEntity
  8
0
 62
     3
100
AcDbLine
 10
815.06149592
 20
67.40071163999999
 30
0.0
 11
815.0348588099998
 21
67.83649035
 31
0.0
  0
LINE
  5
B23
330
6B
100
AcDbEntity
  8
0
 62
     3
100
AcDbLine
 10
815.0348588099998
 20
67.83649035
 30
0.0
 11
814.9551502000001
 21
68.26895253
 31
0.0
  0
LINE
  5
B24
330
6B
100
AcDbEntity
  8
0
 62
     3
100
AcDbLine
 10
814.9551502000001
 20
68.26895253
 30
0.0
 11
814.82297671
 21
68.69480686
 31
0.0
  0
LINE
  5
B25
330
6B
100
AcDbEntity
  8
0
 62
     3
100
AcDbLine
 10
814.82297671
 20
68.69480686
 30
0.0
 11
814.63934427
 21
69.11081235000001
 31
0.0
  0
LINE
  5
B26
330
6B
100
AcDbEntity
  8
0
 62
     3
100
AcDbLine
 10
814.63934427
 20
69.11081235000001
 30
0.0
 11
814.4056504299996
 21
69.51380294999998
 31
0.0
  0
LINE
  5
B27
330
6B
100
AcDbEntity
  8
0
 62
     3
100
AcDbLine
 10
814.4056504299996
 20
69.51380294999998
 30
0.0
 11
814.1236737499998
 21
69.90071163999999
 31
0.0
  0
LINE
  5
B28
330
6B
100
AcDbEntity
  8
0
 62
     3
100
AcDbLine
 10
814.1236737499998
 20
69.90071163999999
 30
0.0
 11
813.7955602299998
 21
70.26859382000001
 31
0.0
  0
LINE
  5
B29
330
6B
100
AcDbEntity
  8
0
 62
     3
100
AcDbLine
 10
813.7955602299998
 20
70.26859382000001
 30
0.0
 11
813.42380703
 21
70.61464968999998
 31
0.0
  0
LINE
  5
B2A
330
6B
100
AcDbEntity
  8
0
 62
     3
100
AcDbLine
 10
813.42380703
 20
70.61464968999998
 30
0.0
 11
813.01124339
 21
70.93624554
 31
0.0
  0
LINE
  5
B2B
330
6B
100
AcDbEntity
  8
0
 62
     3
100
AcDbLine
 10
813.01124339
 20
70.93624554
 30
0.0
 11
812.56100919
 21
71.23093385
 31
0.0
  0
LINE
  5
B2C
330
6B
100
AcDbEntity
  8
0
 62
     3
100
AcDbLine
 10
812.56100919
 20
71.23093385
 30
0.0
 11
812.0765309800001
 21
71.49647186
 31
0.0
  0
LINE
  5
B2D
330
6B
100
AcDbEntity
  8
0
 62
     3
100
AcDbLine
 10
812.0765309800001
 20
71.49647186
 30
0.0
 11
811.56149592
 21
71.73083866
 31
0.0
  0
LINE
  5
B2E
330
6B
100
AcDbEntity
  8
0
 62
     3
100
AcDbLine
 10
811.56149592
 20
71.73083866
 30
0.0
 11
811.01982376
 21
71.93225056999998
 31
0.0
  0
LINE
  5
B2F
330
6B
100
AcDbEntity
  8
0
 62
     3
100
AcDbLine
 10
811.01982376
 20
71.93225056999998
 30
0.0
 11
810.4556369299999
 21
72.09917474
 31
0.0
  0
LINE
  5
B30
330
6B
100
AcDbEntity
  8
0
 62
     3
100
AcDbLine
 10
810.4556369299999
 20
72.09917474
 30
0.0
 11
809.8732292399999
 21
72.23034077
 31
0.0
  0
LINE
  5
B31
330
6B
100
AcDbEntity
  8
0
 62
     3
100
AcDbLine
 10
809.8732292399999
 20
72.23034077
 30
0.0
 11
809.27703317
 21
72.32475040000001
 31
0.0
  0
LINE
  5
B32
330
6B
100
AcDbEntity
  8
0
 62
     3
100
AcDbLine
 10
809.27703317
 20
72.32475040000001
 30
0.0
 11
808.67158612
 21
72.38168512999997
 31
0.0
  0
LINE
  5
B33
330
6B
100
AcDbEntity
  8
0
 62
     3
100
AcDbLine
 10
808.67158612
 20
72.38168512999997
 30
0.0
 11
808.06149592
 21
72.40071163999998
 31
0.0
  0
LINE
  5
B34
330
6B
100
AcDbEntity
  8
0
 62
     3
100
AcDbLine
 10
808.06149592
 20
72.40071163999998
 30
0.0
 11
807.45140573
 21
72.38168512999997
 31
0.0
  0
LINE
  5
B35
330
6B
100
AcDbEntity
  8
0
 62
     3
100
AcDbLine
 10
807.45140573
 20
72.38168512999997
 30
0.0
 11
806.8459586799999
 21
72.32475040000001
 31
0.0
  0
LINE
  5
B36
330
6B
100
AcDbEntity
  8
0
 62
     3
100
AcDbLine
 10
806.8459586799999
 20
72.32475040000001
 30
0.0
 11
806.2497626099997
 21
72.23034077
 31
0.0
  0
LINE
  5
B37
330
6B
100
AcDbEntity
  8
0
 62
     3
100
AcDbLine
 10
806.2497626099997
 20
72.23034077
 30
0.0
 11
805.6673549199999
 21
72.09917474
 31
0.0
  0
LINE
  5
B38
330
6B
100
AcDbEntity
  8
0
 62
     3
100
AcDbLine
 10
805.6673549199999
 20
72.09917474
 30
0.0
 11
805.1031680900001
 21
71.93225056999998
 31
0.0
  0
LINE
  5
B39
330
6B
100
AcDbEntity
  8
0
 62
     3
100
AcDbLine
 10
805.1031680900001
 20
71.93225056999998
 30
0.0
 11
804.5614959199998
 21
71.73083866
 31
0.0
  0
LINE
  5
B3A
330
6B
100
AcDbEntity
  8
0
 62
     3
100
AcDbLine
 10
804.5614959199998
 20
71.73083866
 30
0.0
 11
804.04646087
 21
71.49647186
 31
0.0
  0
LINE
  5
B3B
330
6B
100
AcDbEntity
  8
0
 62
     3
100
AcDbLine
 10
804.04646087
 20
71.49647186
 30
0.0
 11
803.5619826599999
 21
71.23093385
 31
0.0
  0
LINE
  5
B3C
330
6B
100
AcDbEntity
  8
0
 62
     3
100
AcDbLine
 10
803.5619826599999
 20
71.23093385
 30
0.0
 11
803.1117484599999
 21
70.93624554
 31
0.0
  0
LINE
  5
B3D
330
6B
100
AcDbEntity
  8
0
 62
     3
100
AcDbLine
 10
803.1117484599999
 20
70.93624554
 30
0.0
 11
802.6991848199996
 21
70.61464968999998
 31
0.0
  0
LINE
  5
B3E
330
6B
100
AcDbEntity
  8
0
 62
     3
100
AcDbLine
 10
802.6991848199996
 20
70.61464968999998
 30
0.0
 11
802.32743161
 21
70.26859382000001
 31
0.0
  0
LINE
  5
B3F
330
6B
100
AcDbEntity
  8
0
 62
     3
100
AcDbLine
 10
802.32743161
 20
70.26859382000001
 30
0.0
 11
801.9993181
 21
69.90071163999999
 31
0.0
  0
LINE
  5
B40
330
6B
100
AcDbEntity
  8
0
 62
     3
100
AcDbLine
 10
801.9993181
 20
69.90071163999999
 30
0.0
 11
801.71734142
 21
69.51380294999998
 31
0.0
  0
LINE
  5
B41
330
6B
100
AcDbEntity
  8
0
 62
     3
100
AcDbLine
 10
801.71734142
 20
69.51380294999998
 30
0.0
 11
801.4836475800001
 21
69.11081235000001
 31
0.0
  0
LINE
  5
B42
330
6B
100
AcDbEntity
  8
0
 62
     3
100
AcDbLine
 10
801.4836475800001
 20
69.11081235000001
 30
0.0
 11
801.3000151399996
 21
68.69480686
 31
0.0
  0
LINE
  5
B43
330
6B
100
AcDbEntity
  8
0
 62
     3
100
AcDbLine
 10
801.3000151399996
 20
68.69480686
 30
0.0
 11
801.16784165
 21
68.26895253
 31
0.0
  0
LINE
  5
B44
330
6B
100
AcDbEntity
  8
0
 62
     3
100
AcDbLine
 10
801.16784165
 20
68.26895253
 30
0.0
 11
801.08813304
 21
67.83649035
 31
0.0
  0
LINE
  5
B45
330
6B
100
AcDbEntity
  8
0
 62
     3
100
AcDbLine
 10
801.08813304
 20
67.83649035
 30
0.0
 11
801.0614959199997
 21
67.40071163999999
 31
0.0
  0
LINE
  5
B46
330
6B
100
AcDbEntity
  8
0
 62
     3
100
AcDbLine
 10
801.0614959199997
 20
67.40071163999999
 30
0.0
 11
801.08813304
 21
66.96493291999999
 31
0.0
  0
LINE
  5
B47
330
6B
100
AcDbEntity
  8
0
 62
     3
100
AcDbLine
 10
801.08813304
 20
66.96493291999999
 30
0.0
 11
801.16784165
 21
66.53247075
 31
0.0
  0
LINE
  5
B48
330
6B
100
AcDbEntity
  8
0
 62
     3
100
AcDbLine
 10
801.16784165
 20
66.53247075
 30
0.0
 11
801.3000151399996
 21
66.10661641
 31
0.0
  0
LINE
  5
B49
330
6B
100
AcDbEntity
  8
0
 62
     3
100
AcDbLine
 10
801.3000151399996
 20
66.10661641
 30
0.0
 11
801.4836475800001
 21
65.69061092
 31
0.0
  0
LINE
  5
B4A
330
6B
100
AcDbEntity
  8
0
 62
     3
100
AcDbLine
 10
801.4836475800001
 20
65.69061092
 30
0.0
 11
801.71734142
 21
65.28762032999999
 31
0.0
  0
LINE
  5
B4B
330
6B
100
AcDbEntity
  8
0
 62
     3
100
AcDbLine
 10
801.71734142
 20
65.28762032999999
 30
0.0
 11
801.9993181
 21
64.90071163999999
 31
0.0
  0
LINE
  5
B4C
330
6B
100
AcDbEntity
  8
0
 62
     3
100
AcDbLine
 10
801.9993181
 20
64.90071163999999
 30
0.0
 11
802.32743161
 21
64.53282946
 31
0.0
  0
LINE
  5
B4D
330
6B
100
AcDbEntity
  8
0
 62
     3
100
AcDbLine
 10
802.32743161
 20
64.53282946
 30
0.0
 11
802.6991848199996
 21
64.18677359
 31
0.0
  0
LINE
  5
B4E
330
6B
100
AcDbEntity
  8
0
 62
     3
100
AcDbLine
 10
802.6991848199996
 20
64.18677359
 30
0.0
 11
803.1117484599999
 21
63.86517773
 31
0.0
  0
LINE
  5
B4F
330
6B
100
AcDbEntity
  8
0
 62
     3
100
AcDbLine
 10
803.1117484599999
 20
63.86517773
 30
0.0
 11
803.5619826599999
 21
63.57048942
 31
0.0
  0
LINE
  5
B50
330
6B
100
AcDbEntity
  8
0
 62
     3
100
AcDbLine
 10
803.5619826599999
 20
63.57048942
 30
0.0
 11
804.04646087
 21
63.30495142
 31
0.0
  0
LINE
  5
B51
330
6B
100
AcDbEntity
  8
0
 62
     3
100
AcDbLine
 10
804.04646087
 20
63.30495142
 30
0.0
 11
804.5614959199998
 21
63.07058462
 31
0.0
  0
LINE
  5
B52
330
6B
100
AcDbEntity
  8
0
 62
     3
100
AcDbLine
 10
804.5614959199998
 20
63.07058462
 30
0.0
 11
805.1031680900001
 21
62.8691727
 31
0.0
  0
LINE
  5
B53
330
6B
100
AcDbEntity
  8
0
 62
     3
100
AcDbLine
 10
805.1031680900001
 20
62.8691727
 30
0.0
 11
805.6673549199999
 21
62.70224853
 31
0.0
  0
LINE
  5
B54
330
6B
100
AcDbEntity
  8
0
 62
     3
100
AcDbLine
 10
805.6673549199999
 20
62.70224853
 30
0.0
 11
806.2497626099997
 21
62.57108251
 31
0.0
  0
LINE
  5
B55
330
6B
100
AcDbEntity
  8
0
 62
     3
100
AcDbLine
 10
806.2497626099997
 20
62.57108251
 30
0.0
 11
806.8459586799999
 21
62.47667287
 31
0.0
  0
LINE
  5
B56
330
6B
100
AcDbEntity
  8
0
 62
     3
100
AcDbLine
 10
806.8459586799999
 20
62.47667287
 30
0.0
 11
807.45140573
 21
62.41973815
 31
0.0
  0
LINE
  5
B57
330
6B
100
AcDbEntity
  8
0
 62
     3
100
AcDbLine
 10
807.45140573
 20
62.41973815
 30
0.0
 11
808.06149592
 21
62.40071163999999
 31
0.0
  0
LINE
  5
B58
330
6B
100
AcDbEntity
  8
0
 62
     3
100
AcDbLine
 10
808.06149592
 20
62.40071163999999
 30
0.0
 11
808.67158612
 21
62.41973815
 31
0.0
  0
LINE
  5
B59
330
6B
100
AcDbEntity
  8
0
 62
     3
100
AcDbLine
 10
808.67158612
 20
62.41973815
 30
0.0
 11
809.27703317
 21
62.47667287
 31
0.0
  0
LINE
  5
B5A
330
6B
100
AcDbEntity
  8
0
 62
     3
100
AcDbLine
 10
809.27703317
 20
62.47667287
 30
0.0
 11
809.8732292399999
 21
62.57108251
 31
0.0
  0
LINE
  5
B5B
330
6B
100
AcDbEntity
  8
0
 62
     3
100
AcDbLine
 10
809.8732292399999
 20
62.57108251
 30
0.0
 11
810.4556369299999
 21
62.70224853
 31
0.0
  0
LINE
  5
B5C
330
6B
100
AcDbEntity
  8
0
 62
     3
100
AcDbLine
 10
810.4556369299999
 20
62.70224853
 30
0.0
 11
811.01982376
 21
62.8691727
 31
0.0
  0
LINE
  5
B5D
330
6B
100
AcDbEntity
  8
0
 62
     3
100
AcDbLine
 10
811.01982376
 20
62.8691727
 30
0.0
 11
811.56149592
 21
63.07058462
 31
0.0
  0
LINE
  5
B5E
330
6B
100
AcDbEntity
  8
0
 62
     3
100
AcDbLine
 10
811.56149592
 20
63.07058462
 30
0.0
 11
812.0765309800001
 21
63.30495142
 31
0.0
  0
LINE
  5
B5F
330
6B
100
AcDbEntity
  8
0
 62
     3
100
AcDbLine
 10
812.0765309800001
 20
63.30495142
 30
0.0
 11
812.56100919
 21
63.57048942
 31
0.0
  0
LINE
  5
B60
330
6B
100
AcDbEntity
  8
0
 62
     3
100
AcDbLine
 10
812.56100919
 20
63.57048942
 30
0.0
 11
813.01124339
 21
63.86517773
 31
0.0
  0
LINE
  5
B61
330
6B
100
AcDbEntity
  8
0
 62
     3
100
AcDbLine
 10
813.01124339
 20
63.86517773
 30
0.0
 11
813.42380703
 21
64.18677359
 31
0.0
  0
LINE
  5
B62
330
6B
100
AcDbEntity
  8
0
 62
     3
100
AcDbLine
 10
813.42380703
 20
64.18677359
 30
0.0
 11
813.7955602299998
 21
64.53282946
 31
0.0
  0
LINE
  5
B63
330
6B
100
AcDbEntity
  8
0
 62
     3
100
AcDbLine
 10
813.7955602299998
 20
64.53282946
 30
0.0
 11
814.1236737499998
 21
64.90071163999999
 31
0.0
  0
LINE
  5
B64
330
6B
100
AcDbEntity
  8
0
 62
     3
100
AcDbLine
 10
814.1236737499998
 20
64.90071163999999
 30
0.0
 11
814.4056504299996
 21
65.28762032999999
 31
0.0
  0
LINE
  5
B65
330
6B
100
AcDbEntity
  8
0
 62
     3
100
AcDbLine
 10
814.4056504299996
 20
65.28762032999999
 30
0.0
 11
814.63934427
 21
65.69061092
 31
0.0
  0
LINE
  5
B66
330
6B
100
AcDbEntity
  8
0
 62
     3
100
AcDbLine
 10
814.63934427
 20
65.69061092
 30
0.0
 11
814.82297671
 21
66.10661641
 31
0.0
  0
LINE
  5
B67
330
6B
100
AcDbEntity
  8
0
 62
     3
100
AcDbLine
 10
814.82297671
 20
66.10661641
 30
0.0
 11
814.9551502000001
 21
66.53247075
 31
0.0
  0
LINE
  5
B68
330
6B
100
AcDbEntity
  8
0
 62
     3
100
AcDbLine
 10
814.9551502000001
 20
66.53247075
 30
0.0
 11
815.0348588099998
 21
66.96493291999999
 31
0.0
  0
LINE
  5
B69
330
6B
100
AcDbEntity
  8
0
 62
     3
100
AcDbLine
 10
815.0348588099998
 20
66.96493291999999
 30
0.0
 11
815.06149592
 21
67.40071163999999
 31
0.0
  0
LINE
  5
B6A
330
6B
100
AcDbEntity
  8
0
 62
     7
100
AcDbLine
 10
974.8838433800001
 20
139.40918574
 30
0.0
 11
973.8616103
 21
137.60856735
 31
0.0
  0
LINE
  5
B6B
330
6B
100
AcDbEntity
  8
0
 62
     7
100
AcDbLine
 10
973.8616103
 20
137.60856735
 30
0.0
 11
975.6471992899999
 21
138.65683211
 31
0.0
  0
LINE
  5
B6C
330
6B
100
AcDbEntity
  8
0
 62
     7
100
AcDbLine
 10
974.87024996
 20
181.38888332
 30
0.0
 11
973.8616103
 21
179.58061534
 31
0.0
  0
LINE
  5
B6D
330
6B
100
AcDbEntity
  8
0
 62
     7
100
AcDbLine
 10
973.8616103
 20
179.58061534
 30
0.0
 11
975.63925185
 21
180.64230155
 31
0.0
  0
LINE
  5
B6E
330
6B
100
AcDbEntity
  8
0
 62
     2
100
AcDbLine
 10
856.0148917899999
 20
239.74609856
 30
0.0
 11
855.9882810399997
 21
239.91648108
 31
0.0
  0
LINE
  5
B6F
330
6B
100
AcDbEntity
  8
0
 62
     2
100
AcDbLine
 10
855.9882810399997
 20
239.91648108
 30
0.0
 11
855.9563222000001
 21
240.07963077
 31
0.0
  0
LINE
  5
B70
330
6B
100
AcDbEntity
  8
0
 62
     2
100
AcDbLine
 10
855.9563222000001
 20
240.07963077
 30
0.0
 11
855.9192623100001
 21
240.23428657
 31
0.0
  0
LINE
  5
B71
330
6B
100
AcDbEntity
  8
0
 62
     2
100
AcDbLine
 10
855.9192623100001
 20
240.23428657
 30
0.0
 11
855.87738781
 21
240.37925307
 31
0.0
  0
LINE
  5
B72
330
6B
100
AcDbEntity
  8
0
 62
     2
100
AcDbLine
 10
855.87738781
 20
240.37925307
 30
0.0
 11
855.8310223800001
 21
240.51340976
 31
0.0
  0
LINE
  5
B73
330
6B
100
AcDbEntity
  8
0
 62
     2
100
AcDbLine
 10
855.8310223800001
 20
240.51340976
 30
0.0
 11
855.78052439
 21
240.63571966
 31
0.0
  0
LINE
  5
B74
330
6B
100
AcDbEntity
  8
0
 62
     2
100
AcDbLine
 10
855.78052439
 20
240.63571966
 30
0.0
 11
855.72628417
 21
240.7452374
 31
0.0
  0
LINE
  5
B75
330
6B
100
AcDbEntity
  8
0
 62
     2
100
AcDbLine
 10
855.72628417
 20
240.7452374
 30
0.0
 11
855.6687209699999
 21
240.84111645
 31
0.0
  0
LINE
  5
B76
330
6B
100
AcDbEntity
  8
0
 62
     2
100
AcDbLine
 10
855.6687209699999
 20
240.84111645
 30
0.0
 11
855.60827972
 21
240.92261572
 31
0.0
  0
LINE
  5
B77
330
6B
100
AcDbEntity
  8
0
 62
     2
100
AcDbLine
 10
855.60827972
 20
240.92261572
 30
0.0
 11
855.54542759
 21
240.98910526
 31
0.0
  0
LINE
  5
B78
330
6B
100
AcDbEntity
  8
0
 62
     2
100
AcDbLine
 10
855.54542759
 20
240.98910526
 30
0.0
 11
855.48065042
 21
241.04007114
 31
0.0
  0
LINE
  5
B79
330
6B
100
AcDbEntity
  8
0
 62
     2
100
AcDbLine
 10
855.48065042
 20
241.04007114
 30
0.0
 11
855.41444888
 21
241.07511942
 31
0.0
  0
LINE
  5
B7A
330
6B
100
AcDbEntity
  8
0
 62
     2
100
AcDbLine
 10
855.41444888
 20
241.07511942
 30
0.0
 11
855.34733469
 21
241.09397919
 31
0.0
  0
LINE
  5
B7B
330
6B
100
AcDbEntity
  8
0
 62
     2
100
AcDbLine
 10
855.34733469
 20
241.09397919
 30
0.0
 11
855.2798265999998
 21
241.09650468
 31
0.0
  0
LINE
  5
B7C
330
6B
100
AcDbEntity
  8
0
 62
     2
100
AcDbLine
 10
855.2798265999998
 20
241.09650468
 30
0.0
 11
855.21244642
 21
241.08267638
 31
0.0
  0
LINE
  5
B7D
330
6B
100
AcDbEntity
  8
0
 62
     2
100
AcDbLine
 10
855.21244642
 20
241.08267638
 30
0.0
 11
855.1457149499999
 21
241.05260115
 31
0.0
  0
LINE
  5
B7E
330
6B
100
AcDbEntity
  8
0
 62
     2
100
AcDbLine
 10
855.1457149499999
 20
241.05260115
 30
0.0
 11
855.080148
 21
241.00651148
 31
0.0
  0
LINE
  5
B7F
330
6B
100
AcDbEntity
  8
0
 62
     2
100
AcDbLine
 10
855.080148
 20
241.00651148
 30
0.0
 11
855.0162523699999
 21
240.9447636
 31
0.0
  0
LINE
  5
B80
330
6B
100
AcDbEntity
  8
0
 62
     2
100
AcDbLine
 10
855.0162523699999
 20
240.9447636
 30
0.0
 11
854.95452194
 21
240.86783481
 31
0.0
  0
LINE
  5
B81
330
6B
100
AcDbEntity
  8
0
 62
     2
100
AcDbLine
 10
854.95452194
 20
240.86783481
 30
0.0
 11
854.8954338499999
 21
240.77631971
 31
0.0
  0
LINE
  5
B82
330
6B
100
AcDbEntity
  8
0
 62
     2
100
AcDbLine
 10
854.8954338499999
 20
240.77631971
 30
0.0
 11
854.8394448199998
 21
240.67092568
 31
0.0
  0
LINE
  5
B83
330
6B
100
AcDbEntity
  8
0
 62
     2
100
AcDbLine
 10
854.8394448199998
 20
240.67092568
 30
0.0
 11
854.78698762
 21
240.55246735
 31
0.0
  0
LINE
  5
B84
330
6B
100
AcDbEntity
  8
0
 62
     2
100
AcDbLine
 10
854.78698762
 20
240.55246735
 30
0.0
 11
854.73846772
 21
240.42186034
 31
0.0
  0
LINE
  5
B85
330
6B
100
AcDbEntity
  8
0
 62
     2
100
AcDbLine
 10
854.73846772
 20
240.42186034
 30
0.0
 11
854.6942601399999
 21
240.28011419
 31
0.0
  0
LINE
  5
B86
330
6B
100
AcDbEntity
  8
0
 62
     2
100
AcDbLine
 10
854.6942601399999
 20
240.28011419
 30
0.0
 11
854.6547066
 21
240.12832452
 31
0.0
  0
LINE
  5
B87
330
6B
100
AcDbEntity
  8
0
 62
     2
100
AcDbLine
 10
854.6547066
 20
240.12832452
 30
0.0
 11
854.6201128199996
 21
239.96766458
 31
0.0
  0
LINE
  5
B88
330
6B
100
AcDbEntity
  8
0
 62
     2
100
AcDbLine
 10
854.6201128199996
 20
239.96766458
 30
0.0
 11
854.59074619
 21
239.79937618
 31
0.0
  0
LINE
  5
B89
330
6B
100
AcDbEntity
  8
0
 62
     2
100
AcDbLine
 10
854.59074619
 20
239.79937618
 30
0.0
 11
854.5668337
 21
239.62476013
 31
0.0
  0
LINE
  5
B8A
330
6B
100
AcDbEntity
  8
0
 62
     2
100
AcDbLine
 10
854.5668337
 20
239.62476013
 30
0.0
 11
854.5485601899999
 21
239.4451661
 31
0.0
  0
LINE
  5
B8B
330
6B
100
AcDbEntity
  8
0
 62
     2
100
AcDbLine
 10
854.5485601899999
 20
239.4451661
 30
0.0
 11
854.53606689
 21
239.26198226
 31
0.0
  0
LINE
  5
B8C
330
6B
100
AcDbEntity
  8
0
 62
     2
100
AcDbLine
 10
854.53606689
 20
239.26198226
 30
0.0
 11
854.5294503699999
 21
239.07662454
 31
0.0
  0
LINE
  5
B8D
330
6B
100
AcDbEntity
  8
0
 62
     2
100
AcDbLine
 10
854.5294503699999
 20
239.07662454
 30
0.0
 11
854.5287617899999
 21
238.89052564
 31
0.0
  0
LINE
  5
B8E
330
6B
100
AcDbEntity
  8
0
 62
     2
100
AcDbLine
 10
854.5287617899999
 20
238.89052564
 30
0.0
 11
854.5340064499999
 21
238.70512403
 31
0.0
  0
LINE
  5
B8F
330
6B
100
AcDbEntity
  8
0
 62
     2
100
AcDbLine
 10
854.5340064499999
 20
238.70512403
 30
0.0
 11
854.54514382
 21
238.52185276
 31
0.0
  0
LINE
  5
B90
330
6B
100
AcDbEntity
  8
0
 62
     2
100
AcDbLine
 10
854.54514382
 20
238.52185276
 30
0.0
 11
854.5620878199999
 21
238.34212842
 31
0.0
  0
LINE
  5
B91
330
6B
100
AcDbEntity
  8
0
 62
     2
100
AcDbLine
 10
854.5620878199999
 20
238.34212842
 30
0.0
 11
854.5847074700001
 21
238.16734019
 31
0.0
  0
LINE
  5
B92
330
6B
100
AcDbEntity
  8
0
 62
     2
100
AcDbLine
 10
854.5847074700001
 20
238.16734019
 30
0.0
 11
854.6128279399999
 21
237.99883909
 31
0.0
  0
LINE
  5
B93
330
6B
100
AcDbEntity
  8
0
 62
     2
100
AcDbLine
 10
854.6128279399999
 20
237.99883909
 30
0.0
 11
854.6462318699997
 21
237.83792755
 31
0.0
  0
LINE
  5
B94
330
6B
100
AcDbEntity
  8
0
 62
     2
100
AcDbLine
 10
854.6462318699997
 20
237.83792755
 30
0.0
 11
854.6846610600001
 21
237.68584933
 31
0.0
  0
LINE
  5
B95
330
6B
100
AcDbEntity
  8
0
 62
     2
100
AcDbLine
 10
854.6846610600001
 20
237.68584933
 30
0.0
 11
854.7278184899999
 21
237.54377991
 31
0.0
  0
LINE
  5
B96
330
6B
100
AcDbEntity
  8
0
 62
     2
100
AcDbLine
 10
854.7278184899999
 20
237.54377991
 30
0.0
 11
854.7753705499998
 21
237.41281743
 31
0.0
  0
LINE
  5
B97
330
6B
100
AcDbEntity
  8
0
 62
     2
100
AcDbLine
 10
854.7753705499998
 20
237.41281743
 30
0.0
 11
854.8269497099999
 21
237.29397416
 31
0.0
  0
LINE
  5
B98
330
6B
100
AcDbEntity
  8
0
 62
     2
100
AcDbLine
 10
854.8269497099999
 20
237.29397416
 30
0.0
 11
854.8821572799999
 21
237.18816868
 31
0.0
  0
LINE
  5
B99
330
6B
100
AcDbEntity
  8
0
 62
     2
100
AcDbLine
 10
854.8821572799999
 20
237.18816868
 30
0.0
 11
854.94056653
 21
237.09621883
 31
0.0
  0
LINE
  5
B9A
330
6B
100
AcDbEntity
  8
0
 62
     2
100
AcDbLine
 10
854.94056653
 20
237.09621883
 30
0.0
 11
855.00172599
 21
237.01883533
 31
0.0
  0
LINE
  5
B9B
330
6B
100
AcDbEntity
  8
0
 62
     2
100
AcDbLine
 10
855.00172599
 20
237.01883533
 30
0.0
 11
855.06516293
 21
236.95661631
 31
0.0
  0
LINE
  5
B9C
330
6B
100
AcDbEntity
  8
0
 62
     2
100
AcDbLine
 10
855.06516293
 20
236.95661631
 30
0.0
 11
855.1303870099998
 21
236.91004269
 31
0.0
  0
LINE
  5
B9D
330
6B
100
AcDbEntity
  8
0
 62
     2
100
AcDbLine
 10
855.1303870099998
 20
236.91004269
 30
0.0
 11
855.19689409
 21
236.87947447
 31
0.0
  0
LINE
  5
B9E
330
6B
100
AcDbEntity
  8
0
 62
     2
100
AcDbLine
 10
855.19689409
 20
236.87947447
 30
0.0
 11
855.2641700999997
 21
236.86514792
 31
0.0
  0
LINE
  5
B9F
330
6B
100
AcDbEntity
  8
0
 62
     2
100
AcDbLine
 10
855.2641700999997
 20
236.86514792
 30
0.0
 11
855.3316950299999
 21
236.86717378
 31
0.0
  0
LINE
  5
BA0
330
6B
100
AcDbEntity
  8
0
 62
     2
100
AcDbLine
 10
855.3316950299999
 20
236.86717378
 30
0.0
 11
855.3989469499999
 21
236.88553638
 31
0.0
  0
LINE
  5
BA1
330
6B
100
AcDbEntity
  8
0
 62
     2
100
AcDbLine
 10
855.3989469499999
 20
236.88553638
 30
0.0
 11
855.46540603
 21
236.9200938
 31
0.0
  0
LINE
  5
BA2
330
6B
100
AcDbEntity
  8
0
 62
     2
100
AcDbLine
 10
855.46540603
 20
236.9200938
 30
0.0
 11
855.5305585900001
 21
236.97057893
 31
0.0
  0
LINE
  5
BA3
330
6B
100
AcDbEntity
  8
0
 62
     2
100
AcDbLine
 10
855.5305585900001
 20
236.97057893
 30
0.0
 11
855.5939010199999
 21
237.03660153
 31
0.0
  0
LINE
  5
BA4
330
6B
100
AcDbEntity
  8
0
 62
     2
100
AcDbLine
 10
855.5939010199999
 20
237.03660153
 30
0.0
 11
855.6549437200001
 21
237.11765129
 31
0.0
  0
LINE
  5
BA5
330
6B
100
AcDbEntity
  8
0
 62
     2
100
AcDbLine
 10
855.6549437200001
 20
237.11765129
 30
0.0
 11
855.71321486
 21
237.21310174
 31
0.0
  0
LINE
  5
BA6
330
6B
100
AcDbEntity
  8
0
 62
     2
100
AcDbLine
 10
855.71321486
 20
237.21310174
 30
0.0
 11
855.7682640399999
 21
237.3222151
 31
0.0
  0
LINE
  5
BA7
330
6B
100
AcDbEntity
  8
0
 62
     2
100
AcDbLine
 10
855.7682640399999
 20
237.3222151
 30
0.0
 11
855.8196657599996
 21
237.44414796
 31
0.0
  0
LINE
  5
BA8
330
6B
100
AcDbEntity
  8
0
 62
     2
100
AcDbLine
 10
855.8196657599996
 20
237.44414796
 30
0.0
 11
855.8670227
 21
237.57795787
 31
0.0
  0
LINE
  5
BA9
330
6B
100
AcDbEntity
  8
0
 62
     2
100
AcDbLine
 10
855.8670227
 20
237.57795787
 30
0.0
 11
855.9099688199999
 21
237.72261052
 31
0.0
  0
LINE
  5
BAA
330
6B
100
AcDbEntity
  8
0
 62
     2
100
AcDbLine
 10
855.9099688199999
 20
237.72261052
 30
0.0
 11
855.94817217
 21
237.87698784
 31
0.0
  0
LINE
  5
BAB
330
6B
100
AcDbEntity
  8
0
 62
     2
100
AcDbLine
 10
855.94817217
 20
237.87698784
 30
0.0
 11
855.9813374599999
 21
238.03989657
 31
0.0
  0
LINE
  5
BAC
330
6B
100
AcDbEntity
  8
0
 62
     2
100
AcDbLine
 10
855.9813374599999
 20
238.03989657
 30
0.0
 11
856.00920834
 21
238.2100775
 31
0.0
  0
LINE
  5
BAD
330
6B
100
AcDbEntity
  8
0
 62
     7
100
AcDbLine
 10
960.21530294
 20
182.6730574
 30
0.0
 11
959.0069689199999
 21
181.51066037
 31
0.0
  0
LINE
  5
BAE
330
6B
100
AcDbEntity
  8
0
 62
     7
100
AcDbLine
 10
959.0069689199999
 20
181.51066037
 30
0.0
 11
958.5450305
 21
180.28007921
 31
0.0
  0
LINE
  5
BAF
330
6B
100
AcDbEntity
  8
0
 62
     7
100
AcDbLine
 10
958.5450305
 20
180.28007921
 30
0.0
 11
959.5163365199999
 21
178.58726004
 31
0.0
  0
LINE
  5
BB0
330
6B
100
AcDbEntity
  8
0
 62
     7
100
AcDbLine
 10
959.5163365199999
 20
178.58726004
 30
0.0
 11
960.27097851
 21
176.9966904
 31
0.0
  0
LINE
  5
BB1
330
6B
100
AcDbEntity
  8
0
 62
     7
100
AcDbLine
 10
960.27097851
 20
176.9966904
 30
0.0
 11
959.7151601
 21
176.20785714
 31
0.0
  0
LINE
  5
BB2
330
6B
100
AcDbEntity
  8
0
 62
     7
100
AcDbLine
 10
959.7151601
 20
176.20785714
 30
0.0
 11
958.65638165
 21
175.49412225
 31
0.0
  0
LINE
  5
BB3
330
6B
100
AcDbEntity
  8
0
 62
     7
100
AcDbLine
 10
957.6322348700001
 20
182.6730574
 30
0.0
 11
956.4239008499999
 21
181.51066037
 31
0.0
  0
LINE
  5
BB4
330
6B
100
AcDbEntity
  8
0
 62
     7
100
AcDbLine
 10
956.4239008499999
 20
181.51066037
 30
0.0
 11
955.9619624399999
 21
180.28007921
 31
0.0
  0
LINE
  5
BB5
330
6B
100
AcDbEntity
  8
0
 62
     7
100
AcDbLine
 10
955.9619624399999
 20
180.28007921
 30
0.0
 11
956.93326846
 21
178.58726004
 31
0.0
  0
LINE
  5
BB6
330
6B
100
AcDbEntity
  8
0
 62
     7
100
AcDbLine
 10
956.93326846
 20
178.58726004
 30
0.0
 11
957.6879104499999
 21
176.9966904
 31
0.0
  0
LINE
  5
BB7
330
6B
100
AcDbEntity
  8
0
 62
     7
100
AcDbLine
 10
957.6879104499999
 20
176.9966904
 30
0.0
 11
957.1320920299999
 21
176.20785714
 31
0.0
  0
LINE
  5
BB8
330
6B
100
AcDbEntity
  8
0
 62
     7
100
AcDbLine
 10
957.1320920299999
 20
176.20785714
 30
0.0
 11
956.0733135799999
 21
175.49412225
 31
0.0
  0
LINE
  5
BB9
330
6B
100
AcDbEntity
  8
0
 62
     7
100
AcDbLine
 10
960.21530294
 20
140.7010094
 30
0.0
 11
959.0069689199999
 21
139.53861237
 31
0.0
  0
LINE
  5
BBA
330
6B
100
AcDbEntity
  8
0
 62
     7
100
AcDbLine
 10
959.0069689199999
 20
139.53861237
 30
0.0
 11
958.5450305
 21
138.30803121
 31
0.0
  0
LINE
  5
BBB
330
6B
100
AcDbEntity
  8
0
 62
     7
100
AcDbLine
 10
958.5450305
 20
138.30803121
 30
0.0
 11
959.5163365199999
 21
136.61521205
 31
0.0
  0
LINE
  5
BBC
330
6B
100
AcDbEntity
  8
0
 62
     7
100
AcDbLine
 10
959.5163365199999
 20
136.61521205
 30
0.0
 11
960.27097851
 21
135.0246424
 31
0.0
  0
LINE
  5
BBD
330
6B
100
AcDbEntity
  8
0
 62
     7
100
AcDbLine
 10
960.27097851
 20
135.0246424
 30
0.0
 11
959.7151601
 21
134.23580915
 31
0.0
  0
LINE
  5
BBE
330
6B
100
AcDbEntity
  8
0
 62
     7
100
AcDbLine
 10
959.7151601
 20
134.23580915
 30
0.0
 11
958.65638165
 21
133.52207426
 31
0.0
  0
LINE
  5
BBF
330
6B
100
AcDbEntity
  8
0
 62
     7
100
AcDbLine
 10
957.6322348700001
 20
140.7010094
 30
0.0
 11
956.4239008499999
 21
139.53861237
 31
0.0
  0
LINE
  5
BC0
330
6B
100
AcDbEntity
  8
0
 62
     7
100
AcDbLine
 10
956.4239008499999
 20
139.53861237
 30
0.0
 11
955.9619624399999
 21
138.30803121
 31
0.0
  0
LINE
  5
BC1
330
6B
100
AcDbEntity
  8
0
 62
     7
100
AcDbLine
 10
955.9619624399999
 20
138.30803121
 30
0.0
 11
956.93326846
 21
136.61521205
 31
0.0
  0
LINE
  5
BC2
330
6B
100
AcDbEntity
  8
0
 62
     7
100
AcDbLine
 10
956.93326846
 20
136.61521205
 30
0.0
 11
957.6879104499999
 21
135.0246424
 31
0.0
  0
LINE
  5
BC3
330
6B
100
AcDbEntity
  8
0
 62
     7
100
AcDbLine
 10
957.6879104499999
 20
135.0246424
 30
0.0
 11
957.1320920299999
 21
134.23580915
 31
0.0
  0
LINE
  5
BC4
330
6B
100
AcDbEntity
  8
0
 62
     7
100
AcDbLine
 10
957.1320920299999
 20
134.23580915
 30
0.0
 11
956.0733135799999
 21
133.52207426
 31
0.0
  0
LINE
  5
BC5
330
6B
100
AcDbEntity
  8
0
100
AcDbLine
 10
723.50388143
 20
193.4308092737899
 30
0.0
 11
723.50388143
 21
209.13844497
 31
0.0
  0
LINE
  5
BC6
330
6B
100
AcDbEntity
  8
0
100
AcDbLine
 10
740.7879985
 20
191.29580556
 30
0.0
 11
740.7879985
 21
209.13844497
 31
0.0
  0
LINE
  5
BC7
330
6B
100
AcDbEntity
  8
0
100
AcDbLine
 10
726.0038814299999
 20
207.88844497
 30
0.0
 11
738.2879985
 21
207.88844497
 31
0.0
  0
LINE
  5
BCB
330
6B
100
AcDbEntity
  8
0
100
AcDbLine
 10
723.50388143
 20
193.4308092737899
 30
0.0
 11
723.50388143
 21
217.324608
 31
0.0
  0
LINE
  5
BCC
330
6B
100
AcDbEntity
  8
0
100
AcDbLine
 10
867.2879984999998
 20
191.79580556
 30
0.0
 11
867.2879984999998
 21
217.324608
 31
0.0
  0
LINE
  5
BCD
330
6B
100
AcDbEntity
  8
0
100
AcDbLine
 10
726.0038814299999
 20
216.074608
 30
0.0
 11
864.7879984999997
 21
216.074608
 31
0.0
  0
LINE
  5
BD1
330
6B
100
AcDbEntity
  8
0
100
AcDbLine
 10
740.7879985
 20
190.79580556
 30
0.0
 11
740.7879985
 21
209.13844497
 31
0.0
  0
LINE
  5
BD2
330
6B
100
AcDbEntity
  8
0
100
AcDbLine
 10
867.2879984999998
 20
190.79580556
 30
0.0
 11
867.2879984999998
 21
209.13844497
 31
0.0
  0
LINE
  5
BD3
330
6B
100
AcDbEntity
  8
0
100
AcDbLine
 10
743.2879985
 20
207.88844497
 30
0.0
 11
864.7879984999997
 21
207.88844497
 31
0.0
  0
LINE
  5
BD7
330
6B
100
AcDbEntity
  8
0
100
AcDbLine
 10
748.0076634499998
 20
124.36696284
 30
0.0
 11
716.74454756
 21
124.36696284
 31
0.0
  0
LINE
  5
BD8
330
6B
100
AcDbEntity
  8
0
100
AcDbLine
 10
748.0076634499998
 20
160.36696284
 30
0.0
 11
716.74454756
 21
160.36696284
 31
0.0
  0
LINE
  5
BD9
330
6B
100
AcDbEntity
  8
0
100
AcDbLine
 10
717.99454756
 20
126.86696284
 30
0.0
 11
717.99454756
 21
157.86696284
 31
0.0
  0
LINE
  5
BDD
330
6B
100
AcDbEntity
  8
0
100
AcDbLine
 10
856.0379984999997
 20
130.86696284
 30
0.0
 11
877.4037825399997
 21
130.86696284
 31
0.0
  0
LINE
  5
BDE
330
6B
100
AcDbEntity
  8
0
100
AcDbLine
 10
856.0379984999997
 20
153.86696284
 30
0.0
 11
877.4037825399997
 21
153.86696284
 31
0.0
  0
LINE
  5
BDF
330
6B
100
AcDbEntity
  8
0
100
AcDbLine
 10
876.1537825399997
 20
133.36696284
 30
0.0
 11
876.1537825399997
 21
151.36696284
 31
0.0
  0
LINE
  5
BE3
330
6B
100
AcDbEntity
  8
0
100
AcDbLine
 10
843.59306993
 20
184.99335911
 30
0.0
 11
876.4867766999998
 21
184.99335911
 31
0.0
  0
LINE
  5
BE4
330
6B
100
AcDbEntity
  8
0
100
AcDbLine
 10
843.59306993
 20
199.0377004
 30
0.0
 11
876.4867766999998
 21
199.0377004
 31
0.0
  0
LINE
  5
BE5
330
6B
100
AcDbEntity
  8
0
100
AcDbLine
 10
875.2367766999999
 20
187.49335911
 30
0.0
 11
875.2367766999999
 21
196.5377004
 31
0.0
  0
LINE
  5
BE9
330
6B
100
AcDbEntity
  8
0
100
AcDbLine
 10
801.2841356699997
 20
181.5502675
 30
0.0
 11
885.7864298399997
 21
181.5502675
 31
0.0
  0
LINE
  5
BEA
330
6B
100
AcDbEntity
  8
0
100
AcDbLine
 10
804.2879984999997
 20
200.57858314
 30
0.0
 11
885.7864298399997
 21
200.57858314
 31
0.0
  0
LINE
  5
BEB
330
6B
100
AcDbEntity
  8
0
100
AcDbLine
 10
884.5364298399996
 20
184.0502675
 30
0.0
 11
884.5364298399996
 21
198.07858314
 31
0.0
  0
LINE
  5
BEF
330
6B
100
AcDbEntity
  8
0
  6
Continuous
100
AcDbLine
 10
742.5549863555894
 20
180.6808692686758
 30
0.0
 11
740.9136788744671
 21
177.2714046251533
 31
0.0
1001
ACAD
1000
DSTYLE
1002
{
1070
   147
1040
0.625
1070
    77
1070
     0
1002
}
  0
LINE
  5
BF0
330
6B
100
AcDbEntity
  8
0
  6
ByBlock
 62
     0
370
    -2
100
AcDbLine
 10
741.9514102841461
 20
180.9714292319147
 30
0.0
 11
743.6393716798074
 21
182.9334474512525
 31
0.0
  0
LINE
  5
BF1
330
6B
100
AcDbEntity
  8
0
  6
ByBlock
 62
     0
370
    -2
100
AcDbLine
 10
743.6393716798074
 20
182.9334474512525
 30
0.0
 11
743.1585624270327
 21
180.3903093054369
 31
0.0
  0
LINE
  5
BF2
330
6B
100
AcDbEntity
  8
0
  6
ByBlock
 62
     0
370
    -2
100
AcDbLine
 10
743.6393716798074
 20
182.9334474512525
 30
0.0
 11
742.5549863555894
 21
180.6808692686758
 31
0.0
  0
TEXT
  5
BF3
330
6B
100
AcDbEntity
  8
0
  6
Continuous
 62
     4
100
AcDbText
 10
729.645939965
 20
208.51344497
 30
0.0
 40
3.0
  1
38
100
AcDbText
  0
LINE
  5
BF4
330
6B
100
AcDbEntity
  8
0
  6
ByBlock
 62
     0
370
    -2
100
AcDbLine
 10
738.2879985
 20
208.55831747
 30
0.0
 11
740.7879985
 21
207.88844497
 31
0.0
  0
LINE
  5
BF5
330
6B
100
AcDbEntity
  8
0
  6
ByBlock
 62
     0
370
    -2
100
AcDbLine
 10
740.7879985
 20
207.88844497
 30
0.0
 11
738.2879985
 21
207.21857247
 31
0.0
  0
LINE
  5
BF6
330
6B
100
AcDbEntity
  8
0
  6
ByBlock
 62
     0
370
    -2
100
AcDbLine
 10
740.7879985
 20
207.88844497
 30
0.0
 11
738.2879985
 21
207.88844497
 31
0.0
  0
LINE
  5
BF7
330
6B
100
AcDbEntity
  8
0
  6
ByBlock
 62
     0
370
    -2
100
AcDbLine
 10
726.0038814299999
 20
207.21857247
 30
0.0
 11
723.50388143
 21
207.88844497
 31
0.0
  0
LINE
  5
BF8
330
6B
100
AcDbEntity
  8
0
  6
ByBlock
 62
     0
370
    -2
100
AcDbLine
 10
723.50388143
 20
207.88844497
 30
0.0
 11
726.0038814299999
 21
208.55831747
 31
0.0
  0
LINE
  5
BF9
330
6B
100
AcDbEntity
  8
0
  6
ByBlock
 62
     0
370
    -2
100
AcDbLine
 10
723.50388143
 20
207.88844497
 30
0.0
 11
726.0038814299999
 21
207.88844497
 31
0.0
  0
TEXT
  5
BFA
330
6B
100
AcDbEntity
  8
0
  6
Continuous
 62
     4
100
AcDbText
 10
791.3959399649997
 20
216.699608
 30
0.0
 40
3.0
  1
296
100
AcDbText
  0
LINE
  5
BFB
330
6B
100
AcDbEntity
  8
0
  6
ByBlock
 62
     0
370
    -2
100
AcDbLine
 10
864.7879984999997
 20
216.7444805
 30
0.0
 11
867.2879984999998
 21
216.074608
 31
0.0
  0
LINE
  5
BFC
330
6B
100
AcDbEntity
  8
0
  6
ByBlock
 62
     0
370
    -2
100
AcDbLine
 10
867.2879984999998
 20
216.074608
 30
0.0
 11
864.7879984999997
 21
215.4047355
 31
0.0
  0
LINE
  5
BFD
330
6B
100
AcDbEntity
  8
0
  6
ByBlock
 62
     0
370
    -2
100
AcDbLine
 10
867.2879984999998
 20
216.074608
 30
0.0
 11
864.7879984999997
 21
216.074608
 31
0.0
  0
LINE
  5
BFE
330
6B
100
AcDbEntity
  8
0
  6
ByBlock
 62
     0
370
    -2
100
AcDbLine
 10
726.0038814299999
 20
215.4047355
 30
0.0
 11
723.50388143
 21
216.074608
 31
0.0
  0
LINE
  5
BFF
330
6B
100
AcDbEntity
  8
0
  6
ByBlock
 62
     0
370
    -2
100
AcDbLine
 10
723.50388143
 20
216.074608
 30
0.0
 11
726.0038814299999
 21
216.7444805
 31
0.0
  0
LINE
  5
C00
330
6B
100
AcDbEntity
  8
0
  6
ByBlock
 62
     0
370
    -2
100
AcDbLine
 10
723.50388143
 20
216.074608
 30
0.0
 11
726.0038814299999
 21
216.074608
 31
0.0
  0
TEXT
  5
C01
330
6B
100
AcDbEntity
  8
0
  6
Continuous
 62
     4
100
AcDbText
 10
800.0379985
 20
208.51344497
 30
0.0
 40
3.0
  1
258
100
AcDbText
  0
LINE
  5
C02
330
6B
100
AcDbEntity
  8
0
  6
ByBlock
 62
     0
370
    -2
100
AcDbLine
 10
864.7879984999997
 20
208.55831747
 30
0.0
 11
867.2879984999998
 21
207.88844497
 31
0.0
  0
LINE
  5
C03
330
6B
100
AcDbEntity
  8
0
  6
ByBlock
 62
     0
370
    -2
100
AcDbLine
 10
867.2879984999998
 20
207.88844497
 30
0.0
 11
864.7879984999997
 21
207.21857247
 31
0.0
  0
LINE
  5
C04
330
6B
100
AcDbEntity
  8
0
  6
ByBlock
 62
     0
370
    -2
100
AcDbLine
 10
867.2879984999998
 20
207.88844497
 30
0.0
 11
864.7879984999997
 21
207.88844497
 31
0.0
  0
LINE
  5
C05
330
6B
100
AcDbEntity
  8
0
  6
ByBlock
 62
     0
370
    -2
100
AcDbLine
 10
743.2879985
 20
207.21857247
 30
0.0
 11
740.7879985
 21
207.88844497
 31
0.0
  0
LINE
  5
C06
330
6B
100
AcDbEntity
  8
0
  6
ByBlock
 62
     0
370
    -2
100
AcDbLine
 10
740.7879985
 20
207.88844497
 30
0.0
 11
743.2879985
 21
208.55831747
 31
0.0
  0
LINE
  5
C07
330
6B
100
AcDbEntity
  8
0
  6
ByBlock
 62
     0
370
    -2
100
AcDbLine
 10
740.7879985
 20
207.88844497
 30
0.0
 11
743.2879985
 21
207.88844497
 31
0.0
  0
TEXT
  5
C08
330
6B
100
AcDbEntity
  8
0
  6
Continuous
 62
     4
100
AcDbText
 10
717.3695475599999
 20
139.8669628400001
 30
0.0
 40
3.0
  1
72
 50
90.0
100
AcDbText
  0
LINE
  5
C09
330
6B
100
AcDbEntity
  8
0
  6
ByBlock
 62
     0
370
    -2
100
AcDbLine
 10
717.32467506
 20
157.86696284
 30
0.0
 11
717.99454756
 21
160.36696284
 31
0.0
  0
LINE
  5
C0A
330
6B
100
AcDbEntity
  8
0
  6
ByBlock
 62
     0
370
    -2
100
AcDbLine
 10
717.99454756
 20
160.36696284
 30
0.0
 11
718.6644200599999
 21
157.86696284
 31
0.0
  0
LINE
  5
C0B
330
6B
100
AcDbEntity
  8
0
  6
ByBlock
 62
     0
370
    -2
100
AcDbLine
 10
717.99454756
 20
160.36696284
 30
0.0
 11
717.99454756
 21
157.86696284
 31
0.0
  0
LINE
  5
C0C
330
6B
100
AcDbEntity
  8
0
  6
ByBlock
 62
     0
370
    -2
100
AcDbLine
 10
718.6644200599999
 20
126.86696284
 30
0.0
 11
717.99454756
 21
124.36696284
 31
0.0
  0
LINE
  5
C0D
330
6B
100
AcDbEntity
  8
0
  6
ByBlock
 62
     0
370
    -2
100
AcDbLine
 10
717.99454756
 20
124.36696284
 30
0.0
 11
717.32467506
 21
126.86696284
 31
0.0
  0
LINE
  5
C0E
330
6B
100
AcDbEntity
  8
0
  6
ByBlock
 62
     0
370
    -2
100
AcDbLine
 10
717.99454756
 20
124.36696284
 30
0.0
 11
717.99454756
 21
126.86696284
 31
0.0
  0
TEXT
  5
C0F
330
6B
100
AcDbEntity
  8
0
  6
Continuous
 62
     4
100
AcDbText
 10
875.5287825399998
 20
139.8669628400001
 30
0.0
 40
3.0
  1
46
 50
90.0
100
AcDbText
  0
LINE
  5
C10
330
6B
100
AcDbEntity
  8
0
  6
ByBlock
 62
     0
370
    -2
100
AcDbLine
 10
875.4839100399998
 20
151.36696284
 30
0.0
 11
876.1537825399997
 21
153.86696284
 31
0.0
  0
LINE
  5
C11
330
6B
100
AcDbEntity
  8
0
  6
ByBlock
 62
     0
370
    -2
100
AcDbLine
 10
876.1537825399997
 20
153.86696284
 30
0.0
 11
876.8236550399997
 21
151.36696284
 31
0.0
  0
LINE
  5
C12
330
6B
100
AcDbEntity
  8
0
  6
ByBlock
 62
     0
370
    -2
100
AcDbLine
 10
876.1537825399997
 20
153.86696284
 30
0.0
 11
876.1537825399997
 21
151.36696284
 31
0.0
  0
LINE
  5
C13
330
6B
100
AcDbEntity
  8
0
  6
ByBlock
 62
     0
370
    -2
100
AcDbLine
 10
876.8236550399997
 20
133.36696284
 30
0.0
 11
876.1537825399997
 21
130.86696284
 31
0.0
  0
LINE
  5
C14
330
6B
100
AcDbEntity
  8
0
  6
ByBlock
 62
     0
370
    -2
100
AcDbLine
 10
876.1537825399997
 20
130.86696284
 30
0.0
 11
875.4839100399998
 21
133.36696284
 31
0.0
  0
LINE
  5
C15
330
6B
100
AcDbEntity
  8
0
  6
ByBlock
 62
     0
370
    -2
100
AcDbLine
 10
876.1537825399997
 20
130.86696284
 30
0.0
 11
876.1537825399997
 21
133.36696284
 31
0.0
  0
TEXT
  5
C16
330
6B
100
AcDbEntity
  8
0
  6
Continuous
 62
     4
100
AcDbText
 10
874.6117766999999
 20
189.5155297550001
 30
0.0
 40
3.0
  1
28
 50
90.0
100
AcDbText
  0
LINE
  5
C17
330
6B
100
AcDbEntity
  8
0
  6
ByBlock
 62
     0
370
    -2
100
AcDbLine
 10
874.5669041999999
 20
196.5377004
 30
0.0
 11
875.2367766999999
 21
199.0377004
 31
0.0
  0
LINE
  5
C18
330
6B
100
AcDbEntity
  8
0
  6
ByBlock
 62
     0
370
    -2
100
AcDbLine
 10
875.2367766999999
 20
199.0377004
 30
0.0
 11
875.9066491999998
 21
196.5377004
 31
0.0
  0
LINE
  5
C19
330
6B
100
AcDbEntity
  8
0
  6
ByBlock
 62
     0
370
    -2
100
AcDbLine
 10
875.2367766999999
 20
199.0377004
 30
0.0
 11
875.2367766999999
 21
196.5377004
 31
0.0
  0
LINE
  5
C1A
330
6B
100
AcDbEntity
  8
0
  6
ByBlock
 62
     0
370
    -2
100
AcDbLine
 10
875.9066491999998
 20
187.49335911
 30
0.0
 11
875.2367766999999
 21
184.99335911
 31
0.0
  0
LINE
  5
C1B
330
6B
100
AcDbEntity
  8
0
  6
ByBlock
 62
     0
370
    -2
100
AcDbLine
 10
875.2367766999999
 20
184.99335911
 30
0.0
 11
874.5669041999999
 21
187.49335911
 31
0.0
  0
LINE
  5
C1C
330
6B
100
AcDbEntity
  8
0
  6
ByBlock
 62
     0
370
    -2
100
AcDbLine
 10
875.2367766999999
 20
184.99335911
 30
0.0
 11
875.2367766999999
 21
187.49335911
 31
0.0
  0
TEXT
  5
C1D
330
6B
100
AcDbEntity
  8
0
  6
Continuous
 62
     4
100
AcDbText
 10
883.9114298399996
 20
188.5644253200001
 30
0.0
 40
3.0
  1
38
 50
90.0
100
AcDbText
  0
LINE
  5
C1E
330
6B
100
AcDbEntity
  8
0
  6
ByBlock
 62
     0
370
    -2
100
AcDbLine
 10
883.8665573399996
 20
198.07858314
 30
0.0
 11
884.5364298399996
 21
200.57858314
 31
0.0
  0
LINE
  5
C1F
330
6B
100
AcDbEntity
  8
0
  6
ByBlock
 62
     0
370
    -2
100
AcDbLine
 10
884.5364298399996
 20
200.57858314
 30
0.0
 11
885.2063023399995
 21
198.07858314
 31
0.0
  0
LINE
  5
C20
330
6B
100
AcDbEntity
  8
0
  6
ByBlock
 62
     0
370
    -2
100
AcDbLine
 10
884.5364298399996
 20
200.57858314
 30
0.0
 11
884.5364298399996
 21
198.07858314
 31
0.0
  0
LINE
  5
C21
330
6B
100
AcDbEntity
  8
0
  6
ByBlock
 62
     0
370
    -2
100
AcDbLine
 10
885.2063023399995
 20
184.0502675
 30
0.0
 11
884.5364298399996
 21
181.5502675
 31
0.0
  0
LINE
  5
C22
330
6B
100
AcDbEntity
  8
0
  6
ByBlock
 62
     0
370
    -2
100
AcDbLine
 10
884.5364298399996
 20
181.5502675
 30
0.0
 11
883.8665573399996
 21
184.0502675
 31
0.0
  0
LINE
  5
C23
330
6B
100
AcDbEntity
  8
0
  6
ByBlock
 62
     0
370
    -2
100
AcDbLine
 10
884.5364298399996
 20
181.5502675
 30
0.0
 11
884.5364298399996
 21
184.0502675
 31
0.0
  0
ENDSEC
  0
SECTION
  2
OBJECTS
  0
DICTIONARY
  5
C
330
0
100
AcDbDictionary
281
     1
  3
ACAD_2007HEADERVARS_RT
350
C6E
  3
ACAD_COLOR
350
62
  3
ACAD_GROUP
350
D
  3
ACAD_LAYOUT
350
61
  3
ACAD_MATERIAL
350
10
  3
ACAD_MLEADERSTYLE
350
65
  3
ACAD_MLINESTYLE
350
5E
  3
ACAD_PLOTSETTINGS
350
60
  3
ACAD_PLOTSTYLENAME
350
E
  3
ACAD_SCALELIST
350
42
  3
ACAD_TABLESTYLE
350
63
  3
ACAD_VISUALSTYLE
350
29
  3
ACDB_RECOMPOSE_DATA
350
C6C
  3
AcDbVariableDictionary
350
748
  3
DWGPROPS
350
C6D
  0
DICTIONARY
  5
563
330
2
100
AcDbDictionary
280
     1
281
     1
  3
ACAD_LAYERSTATES
360
564
  0
DICTIONARY
  5
744
330
54
100
AcDbDictionary
280
     1
281
     1
  3
ADSK_XREC_LAYER_RECONCILED
360
745
  0
DICTIONARY
  5
B0C
330
6B
100
AcDbDictionary
280
     1
281
     1
  3
ACAD_SORTENTS
360
B0D
  0
DICTIONARY
  5
C6E
102
{ACAD_REACTORS
330
C
102
}
330
C
100
AcDbDictionary
281
     1
  3
DIMARCSYM
350
C70
  3
DIMFXL
350
C6F
  3
DIMJOGANG
350
C71
  0
DICTIONARY
  5
62
102
{ACAD_REACTORS
330
C
102
}
330
C
100
AcDbDictionary
281
     1
  0
DICTIONARY
  5
D
102
{ACAD_REACTORS
330
C
102
}
330
C
100
AcDbDictionary
281
     1
  0
DICTIONARY
  5
61
102
{ACAD_REACTORS
330
C
102
}
330
C
100
AcDbDictionary
281
     1
  3
Model
350
6E
  3
レイアウト1
350
6A
  0
DICTIONARY
  5
10
102
{ACAD_REACTORS
330
C
102
}
330
C
100
AcDbDictionary
281
     1
  3
ByBlock
350
19
  3
ByLayer
350
11
  3
Global
350
21
  0
DICTIONARY
  5
65
102
{ACAD_REACTORS
330
C
102
}
330
C
100
AcDbDictionary
281
     1
  3
Standard
350
66
  0
DICTIONARY
  5
5E
102
{ACAD_REACTORS
330
C
102
}
330
C
100
AcDbDictionary
281
     1
  3
Standard
350
5F
  0
DICTIONARY
  5
60
102
{ACAD_REACTORS
330
C
102
}
330
C
100
AcDbDictionary
281
     1
  0
ACDBDICTIONARYWDFLT
  5
E
102
{ACAD_REACTORS
330
C
102
}
330
C
100
AcDbDictionary
281
     1
  3
Normal
350
F
100
AcDbDictionaryWithDefault
340
F
  0
DICTIONARY
  5
42
102
{ACAD_REACTORS
330
C
102
}
330
C
100
AcDbDictionary
281
     1
  3
A0
350
43
  3
A1
350
44
  3
A2
350
45
  3
A3
350
46
  3
A4
350
47
  3
A5
350
48
  3
A6
350
49
  3
A7
350
4A
  3
A8
350
4B
  3
A9
350
4C
  3
B0
350
4D
  3
B1
350
4E
  3
B2
350
4F
  3
B3
350
50
  3
B4
350
51
  3
B5
350
52
  3
B6
350
53
  0
DICTIONARY
  5
63
102
{ACAD_REACTORS
330
C
102
}
330
C
100
AcDbDictionary
281
     1
  3
Standard
350
64
  0
DICTIONARY
  5
29
102
{ACAD_REACTORS
330
C
102
}
330
C
100
AcDbDictionary
281
     1
  3
2dWireframe
350
2F
  3
3dWireframe
350
562
  3
Basic
350
2E
  3
Brighten
350
35
  3
ColorChange
350
39
  3
Conceptual
350
32
  3
Dim
350
34
  3
EdgeColorOff
350
41
  3
Facepattern
350
38
  3
Flat
350
2A
  3
FlatWithEdges
350
2B
  3
Gouraud
350
2C
  3
GouraudWithEdges
350
2D
  3
Hidden
350
31
  3
JitterOff
350
3F
  3
Linepattern
350
37
  3
OverhangOff
350
40
  3
Realistic
350
33
  3
Shaded
350
3E
  3
Shaded with edges
350
3D
  3
Shades of Gray
350
3A
  3
Sketchy
350
3B
  3
Thicken
350
36
  3
Wireframe
350
30
  3
X-Ray
350
3C
  0
XRECORD
  5
C6C
102
{ACAD_REACTORS
330
C
102
}
330
C
100
AcDbXrecord
280
     1
 90
        1
330
64
  0
DICTIONARY
  5
748
102
{ACAD_REACTORS
330
C
102
}
330
C
100
AcDbDictionary
281
     1
  3
CANNOSCALE
350
74B
  3
CMLEADERSTYLE
350
74A
  3
CTABLESTYLE
350
749
  3
DIMASSOC
350
74E
  3
INDEXCTL
350
74D
  3
SORTENTS
350
74C
  3
XCLIPFRAME
350
ACB
  0
XRECORD
  5
C6D
102
{ACAD_REACTORS
330
C
102
}
330
C
100
AcDbXrecord
280
     1
  1
DWGPROPS COOKIE
  2

  3

  4

  6

  7

  8
imamura
  9

300
=
301
=
302
=
303
=
304
=
305
=
306
=
307
=
308
=
309
=
 40
0.0293092476851852
 41
2455692.798457929
 42
2456855.851257998
  1

 90
        0
  0
DICTIONARY
  5
564
102
{ACAD_REACTORS
330
563
102
}
330
563
100
AcDbDictionary
281
     1
  0
XRECORD
  5
745
102
{ACAD_REACTORS
330
744
102
}
330
744
100
AcDbXrecord
280
     1
290
     1
  0
SORTENTSTABLE
  5
B0D
102
{ACAD_REACTORS
330
B0C
102
}
330
B0C
100
AcDbSortentsTable
330
6B
331
368
  5
B1C
331
1B8
  5
274
331
BA8
  5
2EA
331
1C9
  5
28B
331
292
  5
34E
331
BB1
  5
1DA
331
1DA
  5
2A6
331
2A3
  5
359
331
BC2
  5
1C7
331
3C3
  5
B74
331
F3
  5
19B
331
2B4
  5
36A
331
BD3
  5
15A
331
3D4
  5
B85
331
104
  5
1AC
331
2C5
  5
3C6
331
BE4
  5
103
331
3E5
  5
B96
331
115
  5
1BD
331
B16
  5
BBF
331
2D6
  5
3D7
331
BF5
  5
194
331
98E
  5
C1D
331
B27
  5
B2D
331
2E7
  5
3E8
331
2F8
  5
403
331
C17
  5
10E
331
B42
  5
B48
331
159
  5
22F
331
148
  5
1E0
331
B53
  5
B59
331
313
  5
446
331
233
  5
2FC
331
244
  5
30D
331
444
  5
BD9
331
324
  5
457
331
174
  5
239
331
B64
  5
B6A
331
455
  5
BEA
331
335
  5
740
331
B75
  5
2B7
331
255
  5
31E
331
73E
  5
BFB
331
346
  5
983
331
196
  5
24B
331
277
  5
339
331
B86
  5
2C8
331
357
  5
994
331
B97
  5
2D9
331
1A7
  5
25C
331
C06
  5
15C
331
278
  5
33A
331
358
  5
B0A
331
1A8
  5
25D
331
289
  5
345
331
B98
  5
2DA
331
369
  5
B1D
331
1B9
  5
275
331
BA9
  5
2EB
331
1CA
  5
28C
331
293
  5
34F
331
BB2
  5
1DB
331
1DB
  5
2A7
331
2A4
  5
35A
331
BC3
  5
1C8
331
3C4
  5
B75
331
F4
  5
19C
331
2B5
  5
36B
331
3D5
  5
B86
331
105
  5
1AD
331
2C6
  5
3C7
331
BE5
  5
107
331
3E6
  5
B97
331
116
  5
1BE
331
B17
  5
BC0
331
2D7
  5
3D8
331
BF6
  5
195
331
98F
  5
C1E
331
B28
  5
B2E
331
2E8
  5
3E9
331
2F9
  5
404
331
C18
  5
10F
331
42A
  5
BC6
331
15A
  5
230
331
149
  5
1E1
331
B43
  5
B49
331
B54
  5
B5A
331
314
  5
447
331
445
  5
BDA
331
325
  5
458
331
245
  5
30E
331
234
  5
2FD
331
B65
  5
B6B
331
456
  5
BEB
331
336
  5
741
331
186
  5
23D
331
256
  5
31F
331
B76
  5
2B8
331
73F
  5
BFC
331
347
  5
984
331
197
  5
24C
331
B87
  5
2C9
331
C07
  5
15D
331
830
  5
C07
331
348
  5
985
331
198
  5
24D
331
279
  5
33B
331
B88
  5
2CA
331
359
  5
B0B
331
1A9
  5
25E
331
28A
  5
346
331
B99
  5
2DB
331
36A
  5
B1E
331
1BA
  5
276
331
BAA
  5
2EC
331
1CB
  5
28D
331
1DC
  5
2A8
331
BB3
  5
1D0
331
2A5
  5
35B
331
BC4
  5
1C9
331
3C5
  5
B76
331
F5
  5
19D
331
2B6
  5
36C
331
3D6
  5
B87
331
106
  5
1AE
331
2C7
  5
3C8
331
3E7
  5
B98
331
117
  5
1BF
331
EF
  5
197
331
B18
  5
BBA
331
2D8
  5
3D9
331
990
  5
C1F
331
C08
  5
157
331
B29
  5
B2F
331
2E9
  5
3EA
331
2FA
  5
40A
331
C19
  5
113
331
41A
  5
BBC
331
14A
  5
1E2
331
42B
  5
BC7
331
15B
  5
231
331
B44
  5
B4A
331
B55
  5
B5B
331
315
  5
448
331
246
  5
30F
331
235
  5
2FE
331
446
  5
BDB
331
326
  5
459
331
176
  5
23A
331
B66
  5
B6C
331
457
  5
BEC
331
337
  5
742
331
187
  5
23E
331
257
  5
320
331
B77
  5
2B9
331
BF7
  5
190
331
258
  5
321
331
740
  5
BFD
331
458
  5
BED
331
338
  5
743
331
188
  5
23F
331
B78
  5
2BA
331
831
  5
C08
331
349
  5
986
331
199
  5
24E
331
27A
  5
33C
331
B89
  5
2CB
331
35A
  5
B0E
331
1AA
  5
25F
331
28B
  5
347
331
B9A
  5
2DC
331
36B
  5
B1F
331
1BB
  5
277
331
BAB
  5
2ED
331
1CC
  5
28E
331
1DD
  5
2A9
331
BB4
  5
1D1
331
2A6
  5
35C
331
BC5
  5
18D
331
3C6
  5
B77
331
F6
  5
19E
331
2B7
  5
36D
331
3D7
  5
B88
331
107
  5
1AF
331
2C8
  5
3C9
331
3E8
  5
B99
331
118
  5
1C0
331
980
  5
C0F
331
BF8
  5
191
331
B19
  5
BBB
331
2D9
  5
3DA
331
991
  5
C20
331
2EA
  5
3EB
331
40A
  5
BB2
331
142
  5
1DC
331
B2A
  5
B30
331
2FB
  5
40B
331
41B
  5
BBD
331
14B
  5
1E3
331
C1A
  5
108
331
42C
  5
BC8
331
15C
  5
232
331
B45
  5
B4B
331
B56
  5
B5C
331
316
  5
449
331
447
  5
BDC
331
327
  5
45A
331
247
  5
310
331
236
  5
2FF
331
B67
  5
B6D
331
C09
  5
150
331
448
  5
BDD
331
328
  5
45B
331
248
  5
311
331
B68
  5
B6E
331
741
  5
BFE
331
459
  5
BEE
331
339
  5
82C
331
B79
  5
2BB
331
259
  5
322
331
832
  5
C09
331
34A
  5
987
331
19A
  5
24F
331
27B
  5
33D
331
B8A
  5
2CC
331
35B
  5
B0F
331
1AB
  5
260
331
28C
  5
348
331
B9B
  5
2DD
331
36C
  5
B20
331
1BC
  5
278
331
BAC
  5
2EE
331
1CD
  5
28F
331
1DE
  5
2AA
331
BB5
  5
1D2
331
2A7
  5
35D
331
BC6
  5
18E
331
3C7
  5
B78
331
F7
  5
19F
331
2B8
  5
36E
331
BD7
  5
14A
331
3D8
  5
B89
331
108
  5
1B0
331
2C9
  5
3CA
331
3E9
  5
B9A
331
119
  5
1C1
331
981
  5
C10
331
BF9
  5
192
331
B1A
  5
BB5
331
3FA
  5
BA8
331
2DA
  5
3DB
331
992
  5
C21
331
C0A
  5
151
331
40B
  5
BB3
331
B2B
  5
B31
331
2FC
  5
40C
331
41C
  5
BBE
331
14C
  5
226
331
C1B
  5
109
331
B46
  5
B4C
331
226
  5
2EF
331
15D
  5
233
331
B57
  5
B5D
331
317
  5
44A
331
237
  5
300
331
2EB
  5
3EC
331
B58
  5
B5E
331
318
  5
44B
331
238
  5
301
331
449
  5
BDE
331
329
  5
45C
331
249
  5
312
331
B69
  5
B6F
331
742
  5
BFF
331
45A
  5
BEF
331
33A
  5
82D
331
B7A
  5
2BC
331
25A
  5
323
331
833
  5
C0A
331
34B
  5
988
331
19B
  5
250
331
27C
  5
33E
331
B8B
  5
2CD
331
35C
  5
B10
331
1AC
  5
261
331
28D
  5
349
331
B9C
  5
2DE
331
36D
  5
B21
331
1BD
  5
279
331
1CE
  5
290
331
BAD
  5
1D6
331
1DF
  5
2AB
331
BB6
  5
1D3
331
2A8
  5
35E
331
BC7
  5
18F
331
3C8
  5
B79
331
F8
  5
1A0
331
2B9
  5
36F
331
BD8
  5
14B
331
3D9
  5
B8A
331
109
  5
1B1
331
2CA
  5
3CB
331
3EA
  5
B9B
331
11A
  5
1C2
331
982
  5
C11
331
BFA
  5
18C
331
B1B
  5
BB6
331
3FB
  5
BA9
331
2DB
  5
3DC
331
993
  5
C22
331
C0B
  5
156
331
2EC
  5
3ED
331
40C
  5
BB4
331
144
  5
1DD
331
B2C
  5
B32
331
2FD
  5
412
331
B47
  5
B4D
331
227
  5
2F0
331
15E
  5
234
331
14D
  5
227
331
C1C
  5
10D
331
BE9
  5
EF
331
B48
  5
B4E
331
308
  5
42C
331
228
  5
2F1
331
B59
  5
B5F
331
319
  5
44C
331
239
  5
302
331
44A
  5
BDF
331
32A
  5
45D
331
24A
  5
313
331
B6A
  5
355
331
25B
  5
324
331
743
  5
C00
331
45B
  5
BF0
331
33B
  5
830
331
18B
  5
240
331
26C
  5
32E
331
B7B
  5
2BD
331
834
  5
C0B
331
34C
  5
989
331
19C
  5
251
331
27D
  5
33F
331
B8C
  5
2CE
331
35D
  5
B11
331
1AD
  5
262
331
28E
  5
34A
331
B9D
  5
2DF
331
36E
  5
B22
331
1BE
  5
27A
331
3BF
  5
B70
331
1CF
  5
291
331
BAE
  5
1D7
331
2A9
  5
35F
331
BB7
  5
1D4
331
3C9
  5
B7A
331
F9
  5
1A1
331
2BA
  5
370
331
BD9
  5
14C
331
3DA
  5
B8B
331
10A
  5
1B2
331
2CB
  5
3CC
331
3EB
  5
B9C
331
11B
  5
1C3
331
983
  5
C12
331
BFB
  5
187
331
B1C
  5
BB0
331
3FC
  5
BAA
331
2DC
  5
3DD
331
994
  5
C23
331
C0C
  5
14D
331
B2D
  5
B33
331
2ED
  5
3EE
331
2FE
  5
413
331
C1D
  5
101
331
15F
  5
235
331
14E
  5
228
331
BEA
  5
F0
331
1E0
  5
2AC
331
B38
  5
B3E
331
160
  5
236
331
B49
  5
B4F
331
309
  5
432
331
229
  5
2F2
331
43A
  5
BD2
331
31A
  5
44D
331
23A
  5
303
331
B5A
  5
B60
331
44B
  5
BE0
331
32B
  5
45E
331
B6B
  5
356
331
24B
  5
314
331
25C
  5
325
331
45C
  5
BF1
331
33C
  5
831
331
18C
  5
241
331
26D
  5
32F
331
B7C
  5
2BE
331
835
  5
C0C
331
34D
  5
98A
331
19D
  5
252
331
27E
  5
340
331
B8D
  5
2CF
331
35E
  5
B12
331
1AE
  5
263
331
28F
  5
34B
331
B9E
  5
2E0
331
36F
  5
B23
331
1BF
  5
27B
331
1D0
  5
292
331
BAF
  5
1D8
331
2AA
  5
360
331
299
  5
352
331
BB8
  5
1D5
331
3CA
  5
B7B
331
FA
  5
1A2
331
2BB
  5
371
331
3DB
  5
B8C
331
10B
  5
1B3
331
3EC
  5
B9D
331
2CC
  5
3CD
331
984
  5
C13
331
BFC
  5
188
331
B1D
  5
BB1
331
2DD
  5
3DE
331
2EE
  5
3EF
331
C0D
  5
14E
331
B2E
  5
B34
331
146
  5
1DE
331
2FF
  5
414
331
C1E
  5
FB
331
14F
  5
229
331
BEB
  5
F1
331
300
  5
41A
331
1E1
  5
2AD
331
150
  5
22A
331
B39
  5
B3F
331
161
  5
237
331
B4A
  5
B50
331
30A
  5
433
331
22A
  5
2F3
331
43B
  5
BD3
331
31B
  5
44E
331
23B
  5
304
331
B5B
  5
B61
331
44C
  5
BE1
331
32C
  5
45F
331
17C
  5
23B
331
24C
  5
315
331
B6C
  5
350
331
25D
  5
326
331
45D
  5
BF2
331
33D
  5
832
331
18D
  5
242
331
26E
  5
330
331
B7D
  5
2BF
331
836
  5
C0D
331
34E
  5
98B
331
19E
  5
253
331
27F
  5
341
331
B8E
  5
2D0
331
35F
  5
B13
331
1AF
  5
264
331
B9F
  5
2E1
331
370
  5
B24
331
1C0
  5
27C
331
1D1
  5
293
331
2AB
  5
361
331
29A
  5
353
331
BB9
  5
1CA
331
3CB
  5
B7C
331
FB
  5
1A3
331
2BC
  5
372
331
3DC
  5
B8D
331
10C
  5
1B4
331
3ED
  5
B9E
331
2CD
  5
3CE
331
985
  5
C14
331
BFD
  5
18B
331
B1E
  5
BAB
331
2DE
  5
3DF
331
2EF
  5
3F0
331
C0E
  5
14F
331
B2F
  5
B35
331
147
  5
1DF
331
C1F
  5
FC
331
B30
  5
B36
331
2F0
  5
3F1
331
301
  5
41B
331
C20
  5
FD
331
1E2
  5
2AE
331
151
  5
22B
331
432
  5
BCB
331
162
  5
238
331
B3A
  5
B40
331
B4B
  5
B51
331
30B
  5
434
331
43C
  5
BD4
331
31C
  5
44F
331
23C
  5
305
331
22B
  5
2F4
331
B5C
  5
B62
331
44D
  5
BE2
331
32D
  5
460
331
B6D
  5
351
331
24D
  5
316
331
25E
  5
327
331
45E
  5
BF3
331
33E
  5
833
331
18E
  5
243
331
26F
  5
331
331
B7E
  5
2C0
331
837
  5
C0E
331
34F
  5
98C
331
19F
  5
254
331
280
  5
342
331
B8F
  5
2D1
331
360
  5
B14
331
1B0
  5
26C
331
BA0
  5
2E2
331
371
  5
B25
331
1C1
  5
27D
331
1D2
  5
299
331
29B
  5
354
331
BBA
  5
1CB
331
2AC
  5
362
331
BCB
  5
162
331
3CC
  5
B7D
331
FC
  5
1A4
331
2BD
  5
373
331
3DD
  5
B8E
331
10D
  5
1B5
331
B0E
  5
BD5
331
3EE
  5
B9F
331
2CE
  5
3CF
331
986
  5
C15
331
B1F
  5
BAC
331
2DF
  5
3E0
331
C0F
  5
149
331
BFE
  5
17C
331
B20
  5
BA6
331
2E0
  5
3E1
331
B31
  5
B37
331
2F1
  5
3F2
331
C10
  5
146
331
422
  5
BC1
331
302
  5
41C
331
C21
  5
F5
331
433
  5
BCC
331
1E3
  5
2AF
331
B3B
  5
B41
331
B4C
  5
B52
331
30C
  5
43A
331
B5D
  5
B63
331
31D
  5
450
331
23D
  5
306
331
22C
  5
2F5
331
44E
  5
BE3
331
32E
  5
461
331
24E
  5
317
331
25F
  5
328
331
B6E
  5
2B0
331
45F
  5
BF4
331
33F
  5
834
331
18F
  5
244
331
270
  5
332
331
B7F
  5
2C1
331
350
  5
98D
331
1A0
  5
255
331
281
  5
343
331
B90
  5
2D2
331
361
  5
B15
331
1B1
  5
26D
331
BA1
  5
2E3
331
372
  5
B26
331
1C2
  5
27E
331
1D3
  5
29A
331
BBB
  5
1CC
331
2AD
  5
363
331
BCC
  5
174
331
3CD
  5
B7E
331
FD
  5
1A5
331
2BE
  5
3BF
331
BDD
  5
115
331
3DE
  5
B8F
331
10E
  5
1B6
331
B0F
  5
BD6
331
3EF
  5
BA0
331
2CF
  5
3D0
331
987
  5
C16
331
BFF
  5
182
331
B10
  5
BCE
331
3F0
  5
BA1
331
2D0
  5
3D1
331
988
  5
C17
331
C00
  5
186
331
B21
  5
BA7
331
2E1
  5
3E2
331
412
  5
BB7
331
2F2
  5
3F3
331
C11
  5
147
331
B32
  5
B38
331
434
  5
BCD
331
423
  5
BC2
331
303
  5
422
331
B3C
  5
B42
331
C22
  5
F6
331
B4D
  5
B53
331
30D
  5
43B
331
B5E
  5
B64
331
31E
  5
451
331
23E
  5
307
331
22D
  5
2F6
331
44F
  5
BE4
331
32F
  5
73A
331
24F
  5
318
331
260
  5
329
331
B6F
  5
2B1
331
340
  5
835
331
190
  5
245
331
271
  5
333
331
B80
  5
2C2
331
351
  5
98E
331
1A1
  5
256
331
282
  5
344
331
B91
  5
2D3
331
362
  5
B16
331
1B2
  5
26E
331
373
  5
B27
331
1C3
  5
27F
331
BA2
  5
2E4
331
1D4
  5
29B
331
BBC
  5
1CD
331
2AE
  5
364
331
BCD
  5
176
331
3CE
  5
B7F
331
FE
  5
1A6
331
2BF
  5
3C0
331
BDE
  5
119
331
BEF
  5
C06
331
3DF
  5
B90
331
10F
  5
1B7
331
2C0
  5
3C1
331
BF0
  5
C03
331
3E0
  5
B91
331
110
  5
1B8
331
B11
  5
BCF
331
3F1
  5
BA2
331
2D1
  5
3D2
331
989
  5
C18
331
C01
  5
161
331
402
  5
BAD
331
2E2
  5
3E3
331
B22
  5
B28
331
413
  5
BB8
331
2F3
  5
3F4
331
B33
  5
B39
331
C12
  5
148
331
82C
  5
C01
331
424
  5
BC3
331
304
  5
423
331
B3D
  5
B43
331
C23
  5
F7
331
B4E
  5
B54
331
30E
  5
43C
331
B5F
  5
B65
331
31F
  5
452
331
23F
  5
308
331
22E
  5
2F7
331
450
  5
BE5
331
330
  5
73B
331
250
  5
319
331
261
  5
32A
331
B70
  5
2B2
331
341
  5
836
331
191
  5
246
331
272
  5
334
331
B81
  5
2C3
331
352
  5
98F
331
1A2
  5
257
331
363
  5
B17
331
1B3
  5
26F
331
B92
  5
2D4
331
BA3
  5
2E5
331
1D5
  5
2A1
331
1C4
  5
280
331
2AF
  5
365
331
BBD
  5
1CE
331
3CF
  5
B80
331
FF
  5
1A7
331
BDF
  5
11A
331
2B0
  5
366
331
3D0
  5
B81
331
100
  5
1A8
331
2C1
  5
3C2
331
BF1
  5
C04
331
3E1
  5
B92
331
111
  5
1B9
331
B12
  5
BC9
331
3F2
  5
BA3
331
2D2
  5
3D3
331
98A
  5
C19
331
C02
  5
15E
331
403
  5
BAE
331
2E3
  5
3E4
331
B23
  5
B29
331
414
  5
BB9
331
2F4
  5
3FA
331
B34
  5
B3A
331
82D
  5
C02
331
B3E
  5
B44
331
305
  5
424
331
B4F
  5
B55
331
30F
  5
442
331
B60
  5
B66
331
320
  5
453
331
240
  5
309
331
22F
  5
2F8
331
451
  5
BE6
331
331
  5
73C
331
251
  5
31A
331
262
  5
32B
331
B71
  5
2B3
331
73A
  5
BF7
331
342
  5
837
331
192
  5
247
331
273
  5
335
331
B82
  5
2C4
331
353
  5
990
331
B93
  5
2D5
331
1A3
  5
258
331
364
  5
B18
331
1B4
  5
270
331
BA4
  5
2E6
331
1D6
  5
2A2
331
1C5
  5
281
331
BBE
  5
1CF
331
C13
  5
11B
331
3C0
  5
B71
331
F0
  5
198
331
2B1
  5
367
331
3D1
  5
B82
331
101
  5
1A9
331
2C2
  5
3C3
331
BF2
  5
C05
331
3E2
  5
B93
331
112
  5
1BA
331
B13
  5
BCA
331
3F3
  5
BA4
331
2D3
  5
3D4
331
98B
  5
C1A
331
C03
  5
15F
331
404
  5
BAF
331
2E4
  5
3E5
331
B24
  5
B2A
331
B35
  5
B3B
331
2F5
  5
3FB
331
306
  5
42A
331
C14
  5
142
331
B3F
  5
B45
331
B50
  5
B56
331
310
  5
443
331
230
  5
2F9
331
B61
  5
B67
331
321
  5
454
331
241
  5
30A
331
252
  5
31B
331
452
  5
BE7
331
332
  5
73D
331
182
  5
23C
331
263
  5
32C
331
B72
  5
2B4
331
73B
  5
BF8
331
343
  5
980
331
193
  5
248
331
274
  5
336
331
B83
  5
2C5
331
354
  5
991
331
B94
  5
2D6
331
1A4
  5
259
331
365
  5
B19
331
1B5
  5
271
331
BA5
  5
2E7
331
1D7
  5
2A3
331
1C6
  5
282
331
BBF
  5
1C4
331
156
  5
22C
331
290
  5
34C
331
460
  5
BF5
331
1D8
  5
2A4
331
2A1
  5
357
331
BC0
  5
1C5
331
3C1
  5
B72
331
F1
  5
199
331
2B2
  5
368
331
BD1
  5
158
331
3D2
  5
B83
331
102
  5
1AA
331
2C3
  5
3C4
331
3E3
  5
B94
331
113
  5
1BB
331
B14
  5
BC4
331
3F4
  5
BA5
331
2D4
  5
3D5
331
BF3
  5
196
331
98C
  5
C1B
331
C04
  5
160
331
B25
  5
B2B
331
2E5
  5
3E6
331
B36
  5
B3C
331
2F6
  5
3FC
331
C15
  5
144
331
307
  5
42B
331
B40
  5
B46
331
157
  5
22D
331
B51
  5
B57
331
311
  5
444
331
442
  5
BD7
331
322
  5
455
331
242
  5
30B
331
B62
  5
B68
331
453
  5
BE8
331
333
  5
73E
331
264
  5
32D
331
B73
  5
2B5
331
253
  5
31C
331
73C
  5
BF9
331
344
  5
981
331
194
  5
249
331
275
  5
337
331
B84
  5
2C6
331
355
  5
992
331
1A5
  5
25A
331
366
  5
B1A
331
1B6
  5
272
331
B95
  5
2D7
331
BA6
  5
2E8
331
1C7
  5
289
331
231
  5
2FA
331
1C8
  5
28A
331
291
  5
34D
331
BB0
  5
1D9
331
461
  5
BF6
331
1D9
  5
2A5
331
2A2
  5
358
331
BC1
  5
1C6
331
3C2
  5
B73
331
F2
  5
19A
331
2B3
  5
369
331
BD2
  5
159
331
3D3
  5
B84
331
103
  5
1AB
331
2C4
  5
3C5
331
BE3
  5
102
331
3E4
  5
B95
331
114
  5
1BC
331
B15
  5
BC5
331
2D5
  5
3D6
331
BF4
  5
193
331
98D
  5
C1C
331
B26
  5
B2C
331
2E6
  5
3E7
331
B37
  5
B3D
331
2F7
  5
402
331
C16
  5
114
331
B41
  5
B47
331
158
  5
22E
331
B52
  5
B58
331
312
  5
445
331
232
  5
2FB
331
443
  5
BD8
331
323
  5
456
331
243
  5
30C
331
B63
  5
B69
331
454
  5
BE9
331
334
  5
73F
331
B74
  5
2B6
331
254
  5
31D
331
73D
  5
BFA
331
345
  5
982
331
195
  5
24A
331
276
  5
338
331
B85
  5
2C7
331
356
  5
993
331
1A6
  5
25B
331
367
  5
B1B
331
1B7
  5
273
331
B96
  5
2D8
331
BA7
  5
2E9
331
C05
  5
15B
  0
XRECORD
  5
C70
102
{ACAD_REACTORS
330
C6E
102
}
330
C6E
100
AcDbXrecord
280
     1
 70
     2
  0
XRECORD
  5
C6F
102
{ACAD_REACTORS
330
C6E
102
}
330
C6E
100
AcDbXrecord
280
     1
 40
1.25
  0
XRECORD
  5
C71
102
{ACAD_REACTORS
330
C6E
102
}
330
C6E
100
AcDbXrecord
280
     1
 40
1.570796326794896
  0
LAYOUT
  5
6E
102
{ACAD_XDICTIONARY
360
CA5
102
}
102
{ACAD_REACTORS
330
61
102
}
330
61
100
AcDbPlotSettings
  1

  2
none_device
  4
Letter_(8.50_x_11.00_Inches)
  6

 40
6.349999904632568
 41
6.349999904632568
 42
6.350006103515625
 43
6.350006103515625
 44
215.8999938964844
 45
279.3999938964844
 46
0.0
 47
0.0
 48
0.0
 49
0.0
140
0.0
141
0.0
142
1.0
143
115.1349626240786
 70
 11952
 72
     0
 73
     1
 74
     0
  7

 75
     0
147
0.008685459023121
148
-9677.754052993689
149
4553.250915832131
100
AcDbLayout
  1
Model
 70
     1
 71
     0
 10
0.0
 20
0.0
 11
12.0
 21
9.0
 12
0.0
 22
0.0
 32
0.0
 14
0.0
 24
0.0
 34
0.0
 15
0.0
 25
0.0
 35
0.0
146
0.0
 13
0.0
 23
0.0
 33
0.0
 16
1.0
 26
0.0
 36
0.0
 17
0.0
 27
1.0
 37
0.0
 76
     0
330
6B
331
8B
1001
ACAD_PSEXT
1000
なし
1000
なし
1000
適切ではありません
1000
新しいプロッタ環境設定名を選択しない限り、レイアウトは印刷されません。
1070
     0
  0
LAYOUT
  5
6A
102
{ACAD_XDICTIONARY
360
CA3
102
}
102
{ACAD_REACTORS
330
61
102
}
330
61
100
AcDbPlotSettings
  1

  2
FX DP 205
  4

  6

 40
0.0
 41
0.0
 42
0.0
 43
0.0
 44
0.0
 45
0.0
 46
0.0
 47
0.0
 48
0.0
 49
0.0
140
0.0
141
0.0
142
1.0
143
1.0
 70
   688
 72
     0
 73
     0
 74
     5
  7

 75
    16
147
1.0
148
0.0
149
0.0
100
AcDbLayout
  1
レイアウト1
 70
     1
 71
     1
 10
0.0
 20
0.0
 11
12.0
 21
9.0
 12
0.0
 22
0.0
 32
0.0
 14
1.000000000000000E+20
 24
1.000000000000000E+20
 34
1.000000000000000E+20
 15
-1.000000000000000E+20
 25
-1.000000000000000E+20
 35
-1.000000000000000E+20
146
0.0
 13
0.0
 23
0.0
 33
0.0
 16
1.0
 26
0.0
 36
0.0
 17
0.0
 27
1.0
 37
0.0
 76
     0
330
67
  0
MATERIAL
  5
19
102
{ACAD_XDICTIONARY
360
1A
102
}
102
{ACAD_REACTORS
330
10
102
}
330
10
100
AcDbMaterial
  1
ByBlock
 72
     0
 43
0.0208333333333333
 43
0.0
 43
0.0
 43
0.0
 43
0.0
 43
0.0208333333333333
 43
0.0
 43
0.0
 43
0.0
 43
0.0
 43
1.0
 43
0.0
 43
0.0
 43
0.0
 43
0.0
 43
1.0
 77
     0
 47
0.0208333333333333
 47
0.0
 47
0.0
 47
0.0
 47
0.0
 47
0.0208333333333333
 47
0.0
 47
0.0
 47
0.0
 47
0.0
 47
1.0
 47
0.0
 47
0.0
 47
0.0
 47
0.0
 47
1.0
171
     0
 49
0.0208333333333333
 49
0.0
 49
0.0
 49
0.0
 49
0.0
 49
0.0208333333333333
 49
0.0
 49
0.0
 49
0.0
 49
0.0
 49
1.0
 49
0.0
 49
0.0
 49
0.0
 49
0.0
 49
1.0
175
     0
142
0.0208333333333333
142
0.0
142
0.0
142
0.0
142
0.0
142
0.0208333333333333
142
0.0
142
0.0
142
0.0
142
0.0
142
1.0
142
0.0
142
0.0
142
0.0
142
0.0
142
1.0
179
     0
144
0.0208333333333333
144
0.0
144
0.0
144
0.0
144
0.0
144
0.0208333333333333
144
0.0
144
0.0
144
0.0
144
0.0
144
1.0
144
0.0
144
0.0
144
0.0
144
0.0
144
1.0
147
0.0208333333333333
147
0.0
147
0.0
147
0.0
147
0.0
147
0.0208333333333333
147
0.0
147
0.0
147
0.0
147
0.0
147
1.0
147
0.0
147
0.0
147
0.0
147
0.0
147
1.0
  0
MATERIAL
  5
11
102
{ACAD_XDICTIONARY
360
12
102
}
102
{ACAD_REACTORS
330
10
102
}
330
10
100
AcDbMaterial
  1
ByLayer
 72
     0
 43
0.0208333333333333
 43
0.0
 43
0.0
 43
0.0
 43
0.0
 43
0.0208333333333333
 43
0.0
 43
0.0
 43
0.0
 43
0.0
 43
1.0
 43
0.0
 43
0.0
 43
0.0
 43
0.0
 43
1.0
 77
     0
 47
0.0208333333333333
 47
0.0
 47
0.0
 47
0.0
 47
0.0
 47
0.0208333333333333
 47
0.0
 47
0.0
 47
0.0
 47
0.0
 47
1.0
 47
0.0
 47
0.0
 47
0.0
 47
0.0
 47
1.0
171
     0
 49
0.0208333333333333
 49
0.0
 49
0.0
 49
0.0
 49
0.0
 49
0.0208333333333333
 49
0.0
 49
0.0
 49
0.0
 49
0.0
 49
1.0
 49
0.0
 49
0.0
 49
0.0
 49
0.0
 49
1.0
175
     0
142
0.0208333333333333
142
0.0
142
0.0
142
0.0
142
0.0
142
0.0208333333333333
142
0.0
142
0.0
142
0.0
142
0.0
142
1.0
142
0.0
142
0.0
142
0.0
142
0.0
142
1.0
179
     0
144
0.0208333333333333
144
0.0
144
0.0
144
0.0
144
0.0
144
0.0208333333333333
144
0.0
144
0.0
144
0.0
144
0.0
144
1.0
144
0.0
144
0.0
144
0.0
144
0.0
144
1.0
147
0.0208333333333333
147
0.0
147
0.0
147
0.0
147
0.0
147
0.0208333333333333
147
0.0
147
0.0
147
0.0
147
0.0
147
1.0
147
0.0
147
0.0
147
0.0
147
0.0
147
1.0
  0
MATERIAL
  5
21
102
{ACAD_XDICTIONARY
360
22
102
}
102
{ACAD_REACTORS
330
10
102
}
330
10
100
AcDbMaterial
  1
Global
 72
     0
 43
0.0208333333333333
 43
0.0
 43
0.0
 43
0.0
 43
0.0
 43
0.0208333333333333
 43
0.0
 43
0.0
 43
0.0
 43
0.0
 43
1.0
 43
0.0
 43
0.0
 43
0.0
 43
0.0
 43
1.0
 77
     0
 47
0.0208333333333333
 47
0.0
 47
0.0
 47
0.0
 47
0.0
 47
0.0208333333333333
 47
0.0
 47
0.0
 47
0.0
 47
0.0
 47
1.0
 47
0.0
 47
0.0
 47
0.0
 47
0.0
 47
1.0
171
     0
 49
0.0208333333333333
 49
0.0
 49
0.0
 49
0.0
 49
0.0
 49
0.0208333333333333
 49
0.0
 49
0.0
 49
0.0
 49
0.0
 49
1.0
 49
0.0
 49
0.0
 49
0.0
 49
0.0
 49
1.0
175
     0
142
0.0208333333333333
142
0.0
142
0.0
142
0.0
142
0.0
142
0.0208333333333333
142
0.0
142
0.0
142
0.0
142
0.0
142
1.0
142
0.0
142
0.0
142
0.0
142
0.0
142
1.0
179
     0
144
0.0208333333333333
144
0.0
144
0.0
144
0.0
144
0.0
144
0.0208333333333333
144
0.0
144
0.0
144
0.0
144
0.0
144
1.0
144
0.0
144
0.0
144
0.0
144
0.0
144
1.0
147
0.0208333333333333
147
0.0
147
0.0
147
0.0
147
0.0
147
0.0208333333333333
147
0.0
147
0.0
147
0.0
147
0.0
147
1.0
147
0.0
147
0.0
147
0.0
147
0.0
147
1.0
  0
MLEADERSTYLE
  5
66
102
{ACAD_REACTORS
330
65
102
}
330
65
100
AcDbMLeaderStyle
170
     2
171
     1
172
     0
 90
        2
 40
0.0
 41
0.0
173
     1
 91
-1056964608
340
5A
 92
       -2
290
     1
 42
0.09
291
     1
 43
0.36
  3
Standard
 44
0.18
300

342
55
174
     1
178
     6
175
     1
176
     0
 93
-1056964608
 45
0.18
292
     0
297
     0
 46
0.18
 94
-1056964608
 47
1.0
 49
1.0
140
1.0
293
     1
141
0.0
294
     1
177
     0
142
1.0
295
     0
296
     0
143
0.125
1001
ACAD_MLEADERVER
1070
     2
  0
MLINESTYLE
  5
5F
102
{ACAD_REACTORS
330
5E
102
}
330
5E
100
AcDbMlineStyle
  2
STANDARD
 70
     0
  3

 62
   256
 51
90.0
 52
90.0
 71
     2
 49
0.5
 62
   256
  6
BYLAYER
 49
-0.5
 62
   256
  6
BYLAYER
  0
ACDBPLACEHOLDER
  5
F
102
{ACAD_REACTORS
330
E
102
}
330
E
  0
SCALE
  5
43
102
{ACAD_REACTORS
330
42
102
}
330
42
100
AcDbScale
 70
     0
300
1:1
140
1.0
141
1.0
290
     1
  0
SCALE
  5
44
102
{ACAD_REACTORS
330
42
102
}
330
42
100
AcDbScale
 70
     0
300
1/128" = 1'-0"
140
0.0078125
141
12.0
290
     0
  0
SCALE
  5
45
102
{ACAD_REACTORS
330
42
102
}
330
42
100
AcDbScale
 70
     0
300
1/64" = 1'-0"
140
0.015625
141
12.0
290
     0
  0
SCALE
  5
46
102
{ACAD_REACTORS
330
42
102
}
330
42
100
AcDbScale
 70
     0
300
1/32" = 1'-0"
140
0.03125
141
12.0
290
     0
  0
SCALE
  5
47
102
{ACAD_REACTORS
330
42
102
}
330
42
100
AcDbScale
 70
     0
300
1/16" = 1'-0"
140
0.0625
141
12.0
290
     0
  0
SCALE
  5
48
102
{ACAD_REACTORS
330
42
102
}
330
42
100
AcDbScale
 70
     0
300
3/32" = 1'-0"
140
0.09375
141
12.0
290
     0
  0
SCALE
  5
49
102
{ACAD_REACTORS
330
42
102
}
330
42
100
AcDbScale
 70
     0
300
1/8" = 1'-0"
140
0.125
141
12.0
290
     0
  0
SCALE
  5
4A
102
{ACAD_REACTORS
330
42
102
}
330
42
100
AcDbScale
 70
     0
300
3/16" = 1'-0"
140
0.1875
141
12.0
290
     0
  0
SCALE
  5
4B
102
{ACAD_REACTORS
330
42
102
}
330
42
100
AcDbScale
 70
     0
300
1/4" = 1'-0"
140
0.25
141
12.0
290
     0
  0
SCALE
  5
4C
102
{ACAD_REACTORS
330
42
102
}
330
42
100
AcDbScale
 70
     0
300
3/8" = 1'-0"
140
0.375
141
12.0
290
     0
  0
SCALE
  5
4D
102
{ACAD_REACTORS
330
42
102
}
330
42
100
AcDbScale
 70
     0
300
1/2" = 1'-0"
140
0.5
141
12.0
290
     0
  0
SCALE
  5
4E
102
{ACAD_REACTORS
330
42
102
}
330
42
100
AcDbScale
 70
     0
300
3/4" = 1'-0"
140
0.75
141
12.0
290
     0
  0
SCALE
  5
4F
102
{ACAD_REACTORS
330
42
102
}
330
42
100
AcDbScale
 70
     0
300
1" = 1'-0"
140
1.0
141
12.0
290
     0
  0
SCALE
  5
50
102
{ACAD_REACTORS
330
42
102
}
330
42
100
AcDbScale
 70
     0
300
1-1/2" = 1'-0"
140
1.5
141
12.0
290
     0
  0
SCALE
  5
51
102
{ACAD_REACTORS
330
42
102
}
330
42
100
AcDbScale
 70
     0
300
3" = 1'-0"
140
3.0
141
12.0
290
     0
  0
SCALE
  5
52
102
{ACAD_REACTORS
330
42
102
}
330
42
100
AcDbScale
 70
     0
300
6" = 1'-0"
140
6.0
141
12.0
290
     0
  0
SCALE
  5
53
102
{ACAD_REACTORS
330
42
102
}
330
42
100
AcDbScale
 70
     0
300
1'-0" = 1'-0"
140
12.0
141
12.0
290
     0
  0
TABLESTYLE
  5
64
102
{ACAD_XDICTIONARY
360
791
102
}
102
{ACAD_REACTORS
330
63
102
}
330
63
100
AcDbTableStyle
  3
Standard
 70
     0
 71
     0
 40
0.06
 41
0.06
280
     0
281
     0
  7
STANDARD
140
0.18
170
     2
 62
     0
 63
     7
283
     0
274
    -2
284
     1
 64
     0
275
    -2
285
     1
 65
     0
276
    -2
286
     1
 66
     0
277
    -2
287
     1
 67
     0
278
    -2
288
     1
 68
     0
279
    -2
289
     1
 69
     0
  7
STANDARD
140
0.25
170
     5
 62
     0
 63
     7
283
     0
274
    -2
284
     1
 64
     0
275
    -2
285
     1
 65
     0
276
    -2
286
     1
 66
     0
277
    -2
287
     1
 67
     0
278
    -2
288
     1
 68
     0
279
    -2
289
     1
 69
     0
  7
STANDARD
140
0.18
170
     5
 62
     0
 63
     7
283
     0
274
    -2
284
     1
 64
     0
275
    -2
285
     1
 65
     0
276
    -2
286
     1
 66
     0
277
    -2
287
     1
 67
     0
278
    -2
288
     1
 68
     0
279
    -2
289
     1
 69
     0
  0
VISUALSTYLE
  5
2F
102
{ACAD_XDICTIONARY
360
C7C
102
}
102
{ACAD_REACTORS
330
29
102
}
330
29
100
AcDbVisualStyle
  2

 70
     4
 71
     0
 72
     2
 73
     0
 90
        0
 40
-0.6
 41
-30.0
 62
     5
 63
     7
 74
     1
 91
        4
 64
     7
 65
   257
 75
     1
175
     1
 42
1.0
 92
        0
 66
   257
 43
1.0
 76
     1
 77
     6
 78
     2
 67
     7
 79
     5
170
     0
171
     0
290
     0
174
     0
 93
        1
 44
0.0
173
     0
291
     0
 45
0.0
1001
ACAD
1000
AcDbSavedByObjectVersion
1070
     0
  0
VISUALSTYLE
  5
562
102
{ACAD_XDICTIONARY
360
CA7
102
}
102
{ACAD_REACTORS
330
29
102
}
330
29
100
AcDbVisualStyle
  2

 70
     5
 71
     0
 72
     2
 73
     1
 90
        0
 40
-0.6
 41
-30.0
 62
     5
 63
     7
 74
     1
 91
        4
 64
     7
 65
   257
 75
     1
175
     1
 42
1.0
 92
        0
 66
   257
 43
1.0
 76
     1
 77
     6
 78
     2
 67
     7
 79
     5
170
     0
171
     0
290
     0
174
     0
 93
        1
 44
0.0
173
     0
291
     0
 45
0.0
1001
ACAD
1000
AcDbSavedByObjectVersion
1070
     0
  0
VISUALSTYLE
  5
2E
102
{ACAD_XDICTIONARY
360
C7A
102
}
102
{ACAD_REACTORS
330
29
102
}
330
29
100
AcDbVisualStyle
  2

 70
     7
 71
     1
 72
     0
 73
     1
 90
        0
 40
-0.6
 41
-30.0
 62
     5
 63
     7
 74
     0
 91
        4
 64
     7
 65
   257
 75
     1
175
     1
 42
1.0
 92
        8
 66
     7
 43
1.0
 76
     1
 77
     6
 78
     2
 67
     7
 79
     5
170
     0
171
     0
290
     0
174
     0
 93
        1
 44
0.0
173
     0
291
     1
 45
0.0
1001
ACAD
1000
AcDbSavedByObjectVersion
1070
     0
  0
VISUALSTYLE
  5
35
102
{ACAD_XDICTIONARY
360
C88
102
}
102
{ACAD_REACTORS
330
29
102
}
330
29
100
AcDbVisualStyle
  2

 70
    12
 71
     2
 72
     2
 73
     0
 90
        0
 40
-0.6
 41
-30.0
 62
     5
 63
     7
 74
     1
 91
        4
 64
     7
 65
   257
 75
     1
175
     1
 42
1.0
 92
        8
 66
     7
 43
1.0
 76
     1
 77
     6
 78
     2
 67
     7
 79
     5
170
     0
171
     0
290
     0
174
     0
 93
        1
 44
50.0
173
     0
291
     1
 45
0.0
1001
ACAD
1000
AcDbSavedByObjectVersion
1070
     0
  0
VISUALSTYLE
  5
39
102
{ACAD_XDICTIONARY
360
C90
102
}
102
{ACAD_REACTORS
330
29
102
}
330
29
100
AcDbVisualStyle
  2

 70
    16
 71
     2
 72
     2
 73
     3
 90
        0
 40
-0.6
 41
-30.0
 62
     5
 63
     8
 74
     1
 91
        4
 64
     7
 65
   257
 75
     1
175
     1
 42
1.0
 92
        8
 66
     8
 43
1.0
 76
     1
 77
     6
 78
     2
 67
     7
 79
     5
170
     0
171
     0
290
     0
174
     0
 93
        1
 44
0.0
173
     0
291
     1
 45
0.0
1001
ACAD
1000
AcDbSavedByObjectVersion
1070
     0
  0
VISUALSTYLE
  5
32
102
{ACAD_XDICTIONARY
360
C82
102
}
102
{ACAD_REACTORS
330
29
102
}
330
29
100
AcDbVisualStyle
  2

 70
     9
 71
     3
 72
     2
 73
     0
 90
        0
 40
-0.6
 41
-30.0
 62
     5
 63
     7
 74
     2
 91
        2
 64
     7
 65
   257
 75
     1
175
     1
 42
179.0
 92
        8
 66
     7
 43
1.0
 76
     1
 77
     6
 78
     2
 67
     7
 79
     3
170
     0
171
     0
290
     0
174
     0
 93
        1
 44
0.0
173
     0
291
     0
 45
0.0
1001
ACAD
1000
AcDbSavedByObjectVersion
1070
     0
  0
VISUALSTYLE
  5
34
102
{ACAD_XDICTIONARY
360
C86
102
}
102
{ACAD_REACTORS
330
29
102
}
330
29
100
AcDbVisualStyle
  2

 70
    11
 71
     2
 72
     2
 73
     0
 90
        0
 40
-0.6
 41
-30.0
 62
     5
 63
     7
 74
     1
 91
        4
 64
     7
 65
   257
 75
     1
175
     1
 42
1.0
 92
        8
 66
     7
 43
1.0
 76
     1
 77
     6
 78
     2
 67
     7
 79
     5
170
     0
171
     0
290
     0
174
     0
 93
        1
 44
-50.0
173
     0
291
     1
 45
0.0
1001
ACAD
1000
AcDbSavedByObjectVersion
1070
     0
  0
VISUALSTYLE
  5
41
102
{ACAD_XDICTIONARY
360
CA0
102
}
102
{ACAD_REACTORS
330
29
102
}
330
29
100
AcDbVisualStyle
  2

 70
    22
 71
     2
 72
     2
 73
     0
 90
        0
 40
-0.6
 41
-30.0
 62
     5
 63
     7
 74
     1
 91
        4
 64
     7
 65
   257
 75
     1
175
     1
 42
1.0
 92
        8
 66
     7
 43
1.0
 76
     1
 77
     6
 78
     2
 67
     7
 79
     5
170
     0
171
     0
290
     0
174
     0
 93
        1
 44
0.0
173
     0
291
     1
 45
0.0
1001
ACAD
1000
AcDbSavedByObjectVersion
1070
     0
  0
VISUALSTYLE
  5
38
102
{ACAD_XDICTIONARY
360
C8E
102
}
102
{ACAD_REACTORS
330
29
102
}
330
29
100
AcDbVisualStyle
  2

 70
    15
 71
     2
 72
     2
 73
     0
 90
        0
 40
-0.6
 41
-30.0
 62
     5
 63
     7
 74
     1
 91
        4
 64
     7
 65
   257
 75
     1
175
     1
 42
1.0
 92
        8
 66
     7
 43
1.0
 76
     1
 77
     6
 78
     2
 67
     7
 79
     5
170
     0
171
     0
290
     0
174
     0
 93
        1
 44
0.0
173
     0
291
     1
 45
0.0
1001
ACAD
1000
AcDbSavedByObjectVersion
1070
     0
  0
VISUALSTYLE
  5
2A
102
{ACAD_XDICTIONARY
360
C72
102
}
102
{ACAD_REACTORS
330
29
102
}
330
29
100
AcDbVisualStyle
  2

 70
     0
 71
     2
 72
     1
 73
     1
 90
        2
 40
-0.6
 41
30.0
 62
     5
 63
     7
 74
     0
 91
        0
 64
     7
 65
   257
 75
     1
175
     1
 42
1.0
 92
        8
 66
     7
 43
1.0
 76
     1
 77
     6
 78
     2
 67
     7
 79
     5
170
     0
171
     0
290
     0
174
     0
 93
       13
 44
0.0
173
     0
291
     1
 45
0.0
1001
ACAD
1000
AcDbSavedByObjectVersion
1070
     0
  0
VISUALSTYLE
  5
2B
102
{ACAD_XDICTIONARY
360
C74
102
}
102
{ACAD_REACTORS
330
29
102
}
330
29
100
AcDbVisualStyle
  2

 70
     1
 71
     2
 72
     1
 73
     1
 90
        2
 40
-0.6
 41
30.0
 62
     5
 63
     7
 74
     1
 91
        0
 64
     7
 65
   257
 75
     1
175
     1
 42
1.0
 92
        0
 66
   257
 43
1.0
 76
     1
 77
     6
 78
     2
 67
     7
 79
     5
170
     0
171
     0
290
     0
174
     0
 93
       13
 44
0.0
173
     0
291
     1
 45
0.0
1001
ACAD
1000
AcDbSavedByObjectVersion
1070
     0
  0
VISUALSTYLE
  5
2C
102
{ACAD_XDICTIONARY
360
C76
102
}
102
{ACAD_REACTORS
330
29
102
}
330
29
100
AcDbVisualStyle
  2

 70
     2
 71
     2
 72
     2
 73
     1
 90
        2
 40
-0.6
 41
30.0
 62
     5
 63
     7
 74
     0
 91
        0
 64
     7
 65
   257
 75
     1
175
     1
 42
1.0
 92
        0
 66
     7
 43
1.0
 76
     1
 77
     6
 78
     2
 67
     7
 79
     5
170
     0
171
     0
290
     0
174
     0
 93
       13
 44
0.0
173
     0
291
     1
 45
0.0
1001
ACAD
1000
AcDbSavedByObjectVersion
1070
     0
  0
VISUALSTYLE
  5
2D
102
{ACAD_XDICTIONARY
360
C78
102
}
102
{ACAD_REACTORS
330
29
102
}
330
29
100
AcDbVisualStyle
  2

 70
     3
 71
     2
 72
     2
 73
     1
 90
        2
 40
-0.6
 41
30.0
 62
     5
 63
     7
 74
     1
 91
        0
 64
     7
 65
   257
 75
     1
175
     1
 42
1.0
 92
        0
 66
   257
 43
1.0
 76
     1
 77
     6
 78
     2
 67
     7
 79
     5
170
     0
171
     0
290
     0
174
     0
 93
       13
 44
0.0
173
     0
291
     1
 45
0.0
1001
ACAD
1000
AcDbSavedByObjectVersion
1070
     0
  0
VISUALSTYLE
  5
31
102
{ACAD_XDICTIONARY
360
C80
102
}
102
{ACAD_REACTORS
330
29
102
}
330
29
100
AcDbVisualStyle
  2

 70
     6
 71
     1
 72
     2
 73
     2
 90
        0
 40
-0.6
 41
-30.0
 62
     5
 63
     7
 74
     2
 91
        2
 64
     7
 65
   257
 75
     2
175
     1
 42
40.0
 92
        0
 66
   257
 43
1.0
 76
     1
 77
     6
 78
     2
 67
     7
 79
     3
170
     0
171
     0
290
     0
174
     0
 93
        1
 44
0.0
173
     0
291
     0
 45
0.0
1001
ACAD
1000
AcDbSavedByObjectVersion
1070
     0
  0
VISUALSTYLE
  5
3F
102
{ACAD_XDICTIONARY
360
C9C
102
}
102
{ACAD_REACTORS
330
29
102
}
330
29
100
AcDbVisualStyle
  2

 70
    20
 71
     2
 72
     2
 73
     0
 90
        0
 40
-0.6
 41
-30.0
 62
     5
 63
     7
 74
     1
 91
        4
 64
     7
 65
   257
 75
     1
175
     1
 42
1.0
 92
       10
 66
     7
 43
1.0
 76
     1
 77
     6
 78
     2
 67
     7
 79
     5
170
     0
171
     0
290
     0
174
     0
 93
        1
 44
0.0
173
     0
291
     1
 45
0.0
1001
ACAD
1000
AcDbSavedByObjectVersion
1070
     0
  0
VISUALSTYLE
  5
37
102
{ACAD_XDICTIONARY
360
C8C
102
}
102
{ACAD_REACTORS
330
29
102
}
330
29
100
AcDbVisualStyle
  2

 70
    14
 71
     2
 72
     2
 73
     0
 90
        0
 40
-0.6
 41
-30.0
 62
     5
 63
     7
 74
     1
 91
        4
 64
     7
 65
   257
 75
     7
175
     7
 42
1.0
 92
        8
 66
     7
 43
1.0
 76
     1
 77
     6
 78
     2
 67
     7
 79
     5
170
     0
171
     0
290
     0
174
     0
 93
        1
 44
0.0
173
     0
291
     1
 45
0.0
1001
ACAD
1000
AcDbSavedByObjectVersion
1070
     0
  0
VISUALSTYLE
  5
40
102
{ACAD_XDICTIONARY
360
C9E
102
}
102
{ACAD_REACTORS
330
29
102
}
330
29
100
AcDbVisualStyle
  2

 70
    21
 71
     2
 72
     2
 73
     0
 90
        0
 40
-0.6
 41
-30.0
 62
     5
 63
     7
 74
     1
 91
        4
 64
     7
 65
   257
 75
     1
175
     1
 42
1.0
 92
        9
 66
     7
 43
1.0
 76
     1
 77
     6
 78
     2
 67
     7
 79
     5
170
     0
171
     0
290
     0
174
     0
 93
        1
 44
0.0
173
     0
291
     1
 45
0.0
1001
ACAD
1000
AcDbSavedByObjectVersion
1070
     0
  0
VISUALSTYLE
  5
33
102
{ACAD_XDICTIONARY
360
C84
102
}
102
{ACAD_REACTORS
330
29
102
}
330
29
100
AcDbVisualStyle
  2

 70
     8
 71
     2
 72
     3
 73
     0
 90
        2
 40
-0.6
 41
30.0
 62
     5
 63
     7
 74
     0
 91
        0
 64
     7
 65
   257
 75
     1
175
     1
 42
1.0
 92
        8
 66
   257
 43
1.0
 76
     1
 77
     6
 78
     2
 67
     7
 79
     3
170
     0
171
     0
290
     0
174
     0
 93
       13
 44
0.0
173
     0
291
     0
 45
0.0
1001
ACAD
1000
AcDbSavedByObjectVersion
1070
     0
  0
VISUALSTYLE
  5
3E
102
{ACAD_XDICTIONARY
360
C9A
102
}
102
{ACAD_REACTORS
330
29
102
}
330
29
100
AcDbVisualStyle
  2

 70
    27
 71
     2
 72
     2
 73
     1
 90
        2
 40
-0.6
 41
30.0
 62
     5
 63
     7
 74
     0
 91
        4
 64
     7
 65
   257
 75
     1
175
     1
 42
1.0
 92
        8
 66
   257
 43
1.0
 76
     1
 77
     6
 78
     2
 67
     8
 79
     3
170
     0
171
     0
290
     0
174
     0
 93
        5
 44
0.0
173
     0
291
     0
 45
0.0
1001
ACAD
1000
AcDbSavedByObjectVersion
1070
     0
  0
VISUALSTYLE
  5
3D
102
{ACAD_XDICTIONARY
360
C98
102
}
102
{ACAD_REACTORS
330
29
102
}
330
29
100
AcDbVisualStyle
  2

 70
    26
 71
     2
 72
     2
 73
     1
 90
        2
 40
-0.6
 41
30.0
 62
     5
 63
     7
 74
     1
 91
       10
 64
     7
 65
   257
 75
     2
175
     1
 42
1.0
 92
        8
 66
   257
 43
1.0
 76
     1
 77
     6
 78
     2
 67
     7
 79
     3
170
     0
171
     0
290
     0
174
     0
 93
        5
 44
0.0
173
     0
291
     0
 45
0.0
1001
ACAD
1000
AcDbSavedByObjectVersion
1070
     0
  0
VISUALSTYLE
  5
3A
102
{ACAD_XDICTIONARY
360
C92
102
}
102
{ACAD_REACTORS
330
29
102
}
330
29
100
AcDbVisualStyle
  2

 70
    23
 71
     2
 72
     2
 73
     3
 90
        0
 40
-0.6
 41
-30.0
 62
     5
 63
     7
 74
     2
 91
        2
 64
     7
 65
     7
 75
     1
175
     1
 42
40.0
 92
        8
 66
     7
 43
1.0
 76
     1
 77
     6
 78
     2
 67
     7
 79
     3
170
     0
171
     0
290
     0
174
     0
 93
        1
 44
0.0
173
     0
291
     0
 45
0.0
1001
ACAD
1000
AcDbSavedByObjectVersion
1070
     0
  0
VISUALSTYLE
  5
3B
102
{ACAD_XDICTIONARY
360
C94
102
}
102
{ACAD_REACTORS
330
29
102
}
330
29
100
AcDbVisualStyle
  2

 70
    24
 71
     1
 72
     2
 73
     2
 90
        0
 40
-0.6
 41
-30.0
 62
     5
 63
     7
 74
     2
 91
        2
 64
     7
 65
     7
 75
     1
175
     1
 42
40.0
 92
       11
 66
     7
 43
1.0
 76
     1
 77
     6
 78
     2
 67
     7
 79
     6
170
     0
171
     0
290
     0
174
     0
 93
        1
 44
0.0
173
     0
291
     0
 45
0.0
1001
ACAD
1000
AcDbSavedByObjectVersion
1070
     0
  0
VISUALSTYLE
  5
36
102
{ACAD_XDICTIONARY
360
C8A
102
}
102
{ACAD_REACTORS
330
29
102
}
330
29
100
AcDbVisualStyle
  2

 70
    13
 71
     2
 72
     2
 73
     0
 90
        0
 40
-0.6
 41
-30.0
 62
     5
 63
     7
 74
     1
 91
        4
 64
     7
 65
   257
 75
     1
175
     1
 42
1.0
 92
       12
 66
     7
 43
1.0
 76
     1
 77
     6
 78
     2
 67
     7
 79
     5
170
     0
171
     0
290
     0
174
     0
 93
        1
 44
0.0
173
     0
291
     1
 45
0.0
1001
ACAD
1000
AcDbSavedByObjectVersion
1070
     0
  0
VISUALSTYLE
  5
30
102
{ACAD_XDICTIONARY
360
C7E
102
}
102
{ACAD_REACTORS
330
29
102
}
330
29
100
AcDbVisualStyle
  2

 70
     5
 71
     0
 72
     2
 73
     0
 90
        0
 40
-0.6
 41
-30.0
 62
     5
 63
     7
 74
     1
 91
        4
 64
     7
 65
   257
 75
     1
175
     1
 42
1.0
 92
        0
 66
   257
 43
1.0
 76
     1
 77
     6
 78
     2
 67
     7
 79
     3
170
     0
171
     0
290
     0
174
     0
 93
        1
 44
0.0
173
     0
291
     0
 45
0.0
1001
ACAD
1000
AcDbSavedByObjectVersion
1070
     0
  0
VISUALSTYLE
  5
3C
102
{ACAD_XDICTIONARY
360
C96
102
}
102
{ACAD_REACTORS
330
29
102
}
330
29
100
AcDbVisualStyle
  2

 70
    25
 71
     2
 72
     2
 73
     1
 90
        1
 40
0.5
 41
-30.0
 62
     5
 63
     7
 74
     1
 91
        0
 64
     7
 65
   257
 75
     1
175
     1
 42
1.0
 92
        8
 66
     7
 43
1.0
 76
     1
 77
     6
 78
     2
 67
     7
 79
     3
170
     0
171
     0
290
     0
174
     0
 93
       13
 44
0.0
173
     0
291
     0
 45
0.0
1001
ACAD
1000
AcDbSavedByObjectVersion
1070
     0
  0
DICTIONARYVAR
  5
74B
102
{ACAD_REACTORS
330
748
102
}
330
748
100
DictionaryVariables
280
     0
  1
1:1
  0
DICTIONARYVAR
  5
74A
102
{ACAD_REACTORS
330
748
102
}
330
748
100
DictionaryVariables
280
     0
  1
STANDARD
  0
DICTIONARYVAR
  5
749
102
{ACAD_REACTORS
330
748
102
}
330
748
100
DictionaryVariables
280
     0
  1
STANDARD
  0
DICTIONARYVAR
  5
74E
102
{ACAD_REACTORS
330
748
102
}
330
748
100
DictionaryVariables
280
     0
  1
1
  0
DICTIONARYVAR
  5
74D
102
{ACAD_REACTORS
330
748
102
}
330
748
100
DictionaryVariables
280
     0
  1
0
  0
DICTIONARYVAR
  5
74C
102
{ACAD_REACTORS
330
748
102
}
330
748
100
DictionaryVariables
280
     0
  1
127
  0
DICTIONARYVAR
  5
ACB
102
{ACAD_REACTORS
330
748
102
}
330
748
100
DictionaryVariables
280
     0
  1
2
  0
DICTIONARY
  5
CA5
330
6E
100
AcDbDictionary
280
     1
281
     1
  3
ACAD_XREC_ROUNDTRIP
360
CA6
  0
DICTIONARY
  5
CA3
330
6A
100
AcDbDictionary
280
     1
281
     1
  3
ACAD_XREC_ROUNDTRIP
360
CA4
  0
DICTIONARY
  5
1A
330
19
100
AcDbDictionary
280
     1
281
     1
  3
ACAD_XREC_ROUNDTRIP
360
79A
  3
BUMPTILE
360
1C
  3
DIFFUSETILE
360
1B
  3
OPACITYTILE
360
1F
  3
REFLECTIONTILE
360
1E
  3
REFRACTIONTILE
360
20
  3
SPECULARTILE
360
1D
  0
DICTIONARY
  5
12
330
11
100
AcDbDictionary
280
     1
281
     1
  3
ACAD_XREC_ROUNDTRIP
360
799
  3
BUMPTILE
360
14
  3
DIFFUSETILE
360
13
  3
OPACITYTILE
360
17
  3
REFLECTIONTILE
360
16
  3
REFRACTIONTILE
360
18
  3
SPECULARTILE
360
15
  0
DICTIONARY
  5
22
330
21
100
AcDbDictionary
280
     1
281
     1
  3
ACAD_XREC_ROUNDTRIP
360
79B
  3
BUMPTILE
360
24
  3
DIFFUSETILE
360
23
  3
OPACITYTILE
360
27
  3
REFLECTIONTILE
360
26
  3
REFRACTIONTILE
360
28
  3
SPECULARTILE
360
25
  0
DICTIONARY
  5
791
330
64
100
AcDbDictionary
280
     1
281
     1
  3
ACAD_ROUNDTRIP_2008_TABLESTYLE_CELLSTYLEMAP
360
C6B
  3
ACAD_XREC_ROUNDTRIP
360
CA2
  0
DICTIONARY
  5
C7C
330
2F
100
AcDbDictionary
280
     1
281
     1
  3
ACAD_XREC_ROUNDTRIP
360
C7D
  0
DICTIONARY
  5
CA7
330
562
100
AcDbDictionary
280
     1
281
     1
  3
ACAD_XREC_ROUNDTRIP
360
CA8
  0
DICTIONARY
  5
C7A
330
2E
100
AcDbDictionary
280
     1
281
     1
  3
ACAD_XREC_ROUNDTRIP
360
C7B
  0
DICTIONARY
  5
C88
330
35
100
AcDbDictionary
280
     1
281
     1
  3
ACAD_XREC_ROUNDTRIP
360
C89
  0
DICTIONARY
  5
C90
330
39
100
AcDbDictionary
280
     1
281
     1
  3
ACAD_XREC_ROUNDTRIP
360
C91
  0
DICTIONARY
  5
C82
330
32
100
AcDbDictionary
280
     1
281
     1
  3
ACAD_XREC_ROUNDTRIP
360
C83
  0
DICTIONARY
  5
C86
330
34
100
AcDbDictionary
280
     1
281
     1
  3
ACAD_XREC_ROUNDTRIP
360
C87
  0
DICTIONARY
  5
CA0
330
41
100
AcDbDictionary
280
     1
281
     1
  3
ACAD_XREC_ROUNDTRIP
360
CA1
  0
DICTIONARY
  5
C8E
330
38
100
AcDbDictionary
280
     1
281
     1
  3
ACAD_XREC_ROUNDTRIP
360
C8F
  0
DICTIONARY
  5
C72
330
2A
100
AcDbDictionary
280
     1
281
     1
  3
ACAD_XREC_ROUNDTRIP
360
C73
  0
DICTIONARY
  5
C74
330
2B
100
AcDbDictionary
280
     1
281
     1
  3
ACAD_XREC_ROUNDTRIP
360
C75
  0
DICTIONARY
  5
C76
330
2C
100
AcDbDictionary
280
     1
281
     1
  3
ACAD_XREC_ROUNDTRIP
360
C77
  0
DICTIONARY
  5
C78
330
2D
100
AcDbDictionary
280
     1
281
     1
  3
ACAD_XREC_ROUNDTRIP
360
C79
  0
DICTIONARY
  5
C80
330
31
100
AcDbDictionary
280
     1
281
     1
  3
ACAD_XREC_ROUNDTRIP
360
C81
  0
DICTIONARY
  5
C9C
330
3F
100
AcDbDictionary
280
     1
281
     1
  3
ACAD_XREC_ROUNDTRIP
360
C9D
  0
DICTIONARY
  5
C8C
330
37
100
AcDbDictionary
280
     1
281
     1
  3
ACAD_XREC_ROUNDTRIP
360
C8D
  0
DICTIONARY
  5
C9E
330
40
100
AcDbDictionary
280
     1
281
     1
  3
ACAD_XREC_ROUNDTRIP
360
C9F
  0
DICTIONARY
  5
C84
330
33
100
AcDbDictionary
280
     1
281
     1
  3
ACAD_XREC_ROUNDTRIP
360
C85
  0
DICTIONARY
  5
C9A
330
3E
100
AcDbDictionary
280
     1
281
     1
  3
ACAD_XREC_ROUNDTRIP
360
C9B
  0
DICTIONARY
  5
C98
330
3D
100
AcDbDictionary
280
     1
281
     1
  3
ACAD_XREC_ROUNDTRIP
360
C99
  0
DICTIONARY
  5
C92
330
3A
100
AcDbDictionary
280
     1
281
     1
  3
ACAD_XREC_ROUNDTRIP
360
C93
  0
DICTIONARY
  5
C94
330
3B
100
AcDbDictionary
280
     1
281
     1
  3
ACAD_XREC_ROUNDTRIP
360
C95
  0
DICTIONARY
  5
C8A
330
36
100
AcDbDictionary
280
     1
281
     1
  3
ACAD_XREC_ROUNDTRIP
360
C8B
  0
DICTIONARY
  5
C7E
330
30
100
AcDbDictionary
280
     1
281
     1
  3
ACAD_XREC_ROUNDTRIP
360
C7F
  0
DICTIONARY
  5
C96
330
3C
100
AcDbDictionary
280
     1
281
     1
  3
ACAD_XREC_ROUNDTRIP
360
C97
  0
XRECORD
  5
CA6
102
{ACAD_REACTORS
330
CA5
102
}
330
CA5
100
AcDbXrecord
280
     1
102
SHADEPLOT
 70
     0
102
SHADEPLOTRESLEVEL
 70
     2
102
SHADEPLOTCUSTOMDPI
 70
   300
  0
XRECORD
  5
CA4
102
{ACAD_REACTORS
330
CA3
102
}
330
CA3
100
AcDbXrecord
280
     1
102
SHADEPLOT
 70
     0
102
SHADEPLOTRESLEVEL
 70
     2
102
SHADEPLOTCUSTOMDPI
 70
   300
  0
XRECORD
  5
79A
102
{ACAD_REACTORS
330
1A
102
}
330
1A
100
AcDbXrecord
280
     1
102
MATERIAL
148
0.0
149
0.0
149
0.0
 93
        0
 94
      127
282
     0
 72
     0
 77
     0
171
     0
175
     0
179
     0
273
     0
  0
XRECORD
  5
1C
102
{ACAD_REACTORS
330
1A
102
}
330
1A
100
AcDbXrecord
280
     1
270
     1
271
     1
  0
XRECORD
  5
1B
102
{ACAD_REACTORS
330
1A
102
}
330
1A
100
AcDbXrecord
280
     1
270
     1
271
     1
  0
XRECORD
  5
1F
102
{ACAD_REACTORS
330
1A
102
}
330
1A
100
AcDbXrecord
280
     1
270
     1
271
     1
  0
XRECORD
  5
1E
102
{ACAD_REACTORS
330
1A
102
}
330
1A
100
AcDbXrecord
280
     1
270
     1
271
     1
  0
XRECORD
  5
20
102
{ACAD_REACTORS
330
1A
102
}
330
1A
100
AcDbXrecord
280
     1
270
     1
271
     1
  0
XRECORD
  5
1D
102
{ACAD_REACTORS
330
1A
102
}
330
1A
100
AcDbXrecord
280
     1
270
     1
271
     1
  0
XRECORD
  5
799
102
{ACAD_REACTORS
330
12
102
}
330
12
100
AcDbXrecord
280
     1
102
MATERIAL
148
0.0
149
0.0
149
0.0
 93
        0
 94
      127
282
     0
 72
     0
 77
     0
171
     0
175
     0
179
     0
273
     0
  0
XRECORD
  5
14
102
{ACAD_REACTORS
330
12
102
}
330
12
100
AcDbXrecord
280
     1
270
     1
271
     1
  0
XRECORD
  5
13
102
{ACAD_REACTORS
330
12
102
}
330
12
100
AcDbXrecord
280
     1
270
     1
271
     1
  0
XRECORD
  5
17
102
{ACAD_REACTORS
330
12
102
}
330
12
100
AcDbXrecord
280
     1
270
     1
271
     1
  0
XRECORD
  5
16
102
{ACAD_REACTORS
330
12
102
}
330
12
100
AcDbXrecord
280
     1
270
     1
271
     1
  0
XRECORD
  5
18
102
{ACAD_REACTORS
330
12
102
}
330
12
100
AcDbXrecord
280
     1
270
     1
271
     1
  0
XRECORD
  5
15
102
{ACAD_REACTORS
330
12
102
}
330
12
100
AcDbXrecord
280
     1
270
     1
271
     1
  0
XRECORD
  5
79B
102
{ACAD_REACTORS
330
22
102
}
330
22
100
AcDbXrecord
280
     1
102
MATERIAL
148
0.0
149
0.0
149
0.0
 93
        0
 94
      127
282
     0
 72
     0
 77
     0
171
     0
175
     0
179
     0
273
     0
  0
XRECORD
  5
24
102
{ACAD_REACTORS
330
22
102
}
330
22
100
AcDbXrecord
280
     1
270
     1
271
     1
  0
XRECORD
  5
23
102
{ACAD_REACTORS
330
22
102
}
330
22
100
AcDbXrecord
280
     1
270
     1
271
     1
  0
XRECORD
  5
27
102
{ACAD_REACTORS
330
22
102
}
330
22
100
AcDbXrecord
280
     1
270
     1
271
     1
  0
XRECORD
  5
26
102
{ACAD_REACTORS
330
22
102
}
330
22
100
AcDbXrecord
280
     1
270
     1
271
     1
  0
XRECORD
  5
28
102
{ACAD_REACTORS
330
22
102
}
330
22
100
AcDbXrecord
280
     1
270
     1
271
     1
  0
XRECORD
  5
25
102
{ACAD_REACTORS
330
22
102
}
330
22
100
AcDbXrecord
280
     1
270
     1
271
     1
  0
CELLSTYLEMAP
  5
C6B
102
{ACAD_REACTORS
330
791
102
}
330
791
100
AcDbCellStyleMap
 90
        3
300
CELLSTYLE
  1
TABLEFORMAT_BEGIN
 90
        5
170
     1
 91
        0
 92
    32768
 62
   257
 93
        1
300
CONTENTFORMAT
  1
CONTENTFORMAT_BEGIN
 90
        0
 91
        0
 92
      512
 93
        0
300

 40
0.0
140
1.0
 94
        5
 62
     0
340
55
144
0.25
309
CONTENTFORMAT_END
171
     1
301
MARGIN
  1
CELLMARGIN_BEGIN
 40
0.06
 40
0.06
 40
0.06
 40
0.06
 40
0.18
 40
0.18
309
CELLMARGIN_END
 94
        6
 95
        1
302
GRIDFORMAT
  1
GRIDFORMAT_BEGIN
 90
        0
 91
        1
 62
     0
 92
       -2
340
0
 93
        0
 40
0.045
309
GRIDFORMAT_END
 95
        2
302
GRIDFORMAT
  1
GRIDFORMAT_BEGIN
 90
        0
 91
        1
 62
     0
 92
       -2
340
0
 93
        0
 40
0.045
309
GRIDFORMAT_END
 95
        4
302
GRIDFORMAT
  1
GRIDFORMAT_BEGIN
 90
        0
 91
        1
 62
     0
 92
       -2
340
0
 93
        0
 40
0.045
309
GRIDFORMAT_END
 95
        8
302
GRIDFORMAT
  1
GRIDFORMAT_BEGIN
 90
        0
 91
        1
 62
     0
 92
       -2
340
0
 93
        0
 40
0.045
309
GRIDFORMAT_END
 95
       16
302
GRIDFORMAT
  1
GRIDFORMAT_BEGIN
 90
        0
 91
        1
 62
     0
 92
       -2
340
0
 93
        0
 40
0.045
309
GRIDFORMAT_END
 95
       32
302
GRIDFORMAT
  1
GRIDFORMAT_BEGIN
 90
        0
 91
        1
 62
     0
 92
       -2
340
0
 93
        0
 40
0.045
309
GRIDFORMAT_END
309
TABLEFORMAT_END
  1
CELLSTYLE_BEGIN
 90
        1
 91
        1
300
_TITLE
309
CELLSTYLE_END
300
CELLSTYLE
  1
TABLEFORMAT_BEGIN
 90
        5
170
     1
 91
        0
 92
        0
 62
   257
 93
        1
300
CONTENTFORMAT
  1
CONTENTFORMAT_BEGIN
 90
        0
 91
        0
 92
      512
 93
        0
300

 40
0.0
140
1.0
 94
        5
 62
     0
340
55
144
0.18
309
CONTENTFORMAT_END
171
     1
301
MARGIN
  1
CELLMARGIN_BEGIN
 40
0.06
 40
0.06
 40
0.06
 40
0.06
 40
0.18
 40
0.18
309
CELLMARGIN_END
 94
        6
 95
        1
302
GRIDFORMAT
  1
GRIDFORMAT_BEGIN
 90
        0
 91
        1
 62
     0
 92
       -2
340
0
 93
        0
 40
0.045
309
GRIDFORMAT_END
 95
        2
302
GRIDFORMAT
  1
GRIDFORMAT_BEGIN
 90
        0
 91
        1
 62
     0
 92
       -2
340
0
 93
        0
 40
0.045
309
GRIDFORMAT_END
 95
        4
302
GRIDFORMAT
  1
GRIDFORMAT_BEGIN
 90
        0
 91
        1
 62
     0
 92
       -2
340
0
 93
        0
 40
0.045
309
GRIDFORMAT_END
 95
        8
302
GRIDFORMAT
  1
GRIDFORMAT_BEGIN
 90
        0
 91
        1
 62
     0
 92
       -2
340
0
 93
        0
 40
0.045
309
GRIDFORMAT_END
 95
       16
302
GRIDFORMAT
  1
GRIDFORMAT_BEGIN
 90
        0
 91
        1
 62
     0
 92
       -2
340
0
 93
        0
 40
0.045
309
GRIDFORMAT_END
 95
       32
302
GRIDFORMAT
  1
GRIDFORMAT_BEGIN
 90
        0
 91
        1
 62
     0
 92
       -2
340
0
 93
        0
 40
0.045
309
GRIDFORMAT_END
309
TABLEFORMAT_END
  1
CELLSTYLE_BEGIN
 90
        2
 91
        1
300
_HEADER
309
CELLSTYLE_END
300
CELLSTYLE
  1
TABLEFORMAT_BEGIN
 90
        5
170
     1
 91
        0
 92
        0
 62
   257
 93
        1
300
CONTENTFORMAT
  1
CONTENTFORMAT_BEGIN
 90
        0
 91
        0
 92
      512
 93
        0
300

 40
0.0
140
1.0
 94
        2
 62
     0
340
55
144
0.18
309
CONTENTFORMAT_END
171
     1
301
MARGIN
  1
CELLMARGIN_BEGIN
 40
0.06
 40
0.06
 40
0.06
 40
0.06
 40
0.18
 40
0.18
309
CELLMARGIN_END
 94
        6
 95
        1
302
GRIDFORMAT
  1
GRIDFORMAT_BEGIN
 90
        0
 91
        1
 62
     0
 92
       -2
340
0
 93
        0
 40
0.045
309
GRIDFORMAT_END
 95
        2
302
GRIDFORMAT
  1
GRIDFORMAT_BEGIN
 90
        0
 91
        1
 62
     0
 92
       -2
340
0
 93
        0
 40
0.045
309
GRIDFORMAT_END
 95
        4
302
GRIDFORMAT
  1
GRIDFORMAT_BEGIN
 90
        0
 91
        1
 62
     0
 92
       -2
340
0
 93
        0
 40
0.045
309
GRIDFORMAT_END
 95
        8
302
GRIDFORMAT
  1
GRIDFORMAT_BEGIN
 90
        0
 91
        1
 62
     0
 92
       -2
340
0
 93
        0
 40
0.045
309
GRIDFORMAT_END
 95
       16
302
GRIDFORMAT
  1
GRIDFORMAT_BEGIN
 90
        0
 91
        1
 62
     0
 92
       -2
340
0
 93
        0
 40
0.045
309
GRIDFORMAT_END
 95
       32
302
GRIDFORMAT
  1
GRIDFORMAT_BEGIN
 90
        0
 91
        1
 62
     0
 92
       -2
340
0
 93
        0
 40
0.045
309
GRIDFORMAT_END
309
TABLEFORMAT_END
  1
CELLSTYLE_BEGIN
 90
        3
 91
        2
300
_DATA
309
CELLSTYLE_END
  0
XRECORD
  5
CA2
102
{ACAD_REACTORS
330
791
102
}
330
791
100
AcDbXrecord
280
     1
102
ACAD_ROUNDTRIP_PRE2007_TABLESTYLE
 90
      512
 91
        0
  1

 92
      512
 93
        0
  2

 94
      512
 95
        0
  3

  0
XRECORD
  5
C7D
102
{ACAD_REACTORS
330
C7C
102
}
330
C7C
100
AcDbXrecord
280
     1
102
RTVSPropertyOp0
 70
     1
102
RTVSPropertyOp1
 70
     1
102
RTVSPropertyOp2
 70
     1
102
RTVSPropertyOp3
 70
     1
102
RTVSPropertyOp4
 70
     1
102
RTVSPropertyOp5
 70
     1
102
RTVSPropertyOp6
 70
     1
102
RTVSPropertyOp7
 70
     1
102
RTVSPropertyOp8
 70
     1
102
RTVSPropertyOp9
 70
     1
102
RTVSPropertyOp10
 70
     1
102
RTVSPropertyOp11
 70
     1
102
RTVSPropertyOp12
 70
     1
102
RTVSPropertyOp13
 70
     1
102
RTVSPropertyOp14
 70
     1
102
RTVSPropertyOp15
 70
     1
102
RTVSPropertyOp16
 70
     1
102
RTVSPropertyOp17
 70
     1
102
RTVSPropertyOp18
 70
     1
102
RTVSPropertyOp19
 70
     1
102
RTVSPropertyOp20
 70
     1
102
RTVSPropertyOp21
 70
     1
102
RTVSPropertyOp22
 70
     1
102
RTVSPropertyOp23
 70
     1
102
RTVSPropertyOp24
 70
     1
102
RTVSPropertyOp25
 70
     1
102
RTVSPropertyOp26
 70
     1
102
RTVSPropertyOp27
 70
     1
102
RTVSPropertyOp28
 70
     1
102
RTVSPropertyOp29
 70
     1
102
RTVSPropertyOp30
 70
     1
102
RTVSPropertyOp31
 70
     1
102
RTVSPropertyOp32
 70
     1
  0
XRECORD
  5
CA8
102
{ACAD_REACTORS
330
CA7
102
}
330
CA7
100
AcDbXrecord
280
     1
102
RTVSPropertyOp0
 70
     1
102
RTVSPropertyOp1
 70
     1
102
RTVSPropertyOp2
 70
     1
102
RTVSPropertyOp3
 70
     1
102
RTVSPropertyOp4
 70
     1
102
RTVSPropertyOp5
 70
     1
102
RTVSPropertyOp6
 70
     1
102
RTVSPropertyOp7
 70
     1
102
RTVSPropertyOp8
 70
     1
102
RTVSPropertyOp9
 70
     1
102
RTVSPropertyOp10
 70
     1
102
RTVSPropertyOp11
 70
     1
102
RTVSPropertyOp12
 70
     1
102
RTVSPropertyOp13
 70
     1
102
RTVSPropertyOp14
 70
     1
102
RTVSPropertyOp15
 70
     1
102
RTVSPropertyOp16
 70
     1
102
RTVSPropertyOp17
 70
     1
102
RTVSPropertyOp18
 70
     1
102
RTVSPropertyOp19
 70
     1
102
RTVSPropertyOp20
 70
     1
102
RTVSPropertyOp21
 70
     1
102
RTVSPropertyOp22
 70
     1
102
RTVSPropertyOp23
 70
     1
102
RTVSPropertyOp24
 70
     1
102
RTVSPropertyOp25
 70
     1
102
RTVSPropertyOp26
 70
     1
102
RTVSPropertyOp27
 70
     1
102
RTVSPropertyOp28
 70
     1
102
RTVSPropertyOp29
 70
     1
102
RTVSPropertyOp30
 70
     1
102
RTVSPropertyOp31
 70
     1
102
RTVSPropertyOp32
 70
     1
  0
XRECORD
  5
C7B
102
{ACAD_REACTORS
330
C7A
102
}
330
C7A
100
AcDbXrecord
280
     1
102
RTVSPropertyOp0
 70
     1
102
RTVSPropertyOp1
 70
     1
102
RTVSPropertyOp2
 70
     1
102
RTVSPropertyOp3
 70
     1
102
RTVSPropertyOp4
 70
     1
102
RTVSPropertyOp5
 70
     1
102
RTVSPropertyOp6
 70
     1
102
RTVSPropertyOp7
 70
     1
102
RTVSPropertyOp8
 70
     1
102
RTVSPropertyOp9
 70
     1
102
RTVSPropertyOp10
 70
     1
102
RTVSPropertyOp11
 70
     1
102
RTVSPropertyOp12
 70
     1
102
RTVSPropertyOp13
 70
     1
102
RTVSPropertyOp14
 70
     1
102
RTVSPropertyOp15
 70
     1
102
RTVSPropertyOp16
 70
     1
102
RTVSPropertyOp17
 70
     1
102
RTVSPropertyOp18
 70
     1
102
RTVSPropertyOp19
 70
     1
102
RTVSPropertyOp20
 70
     1
102
RTVSPropertyOp21
 70
     1
102
RTVSPropertyOp22
 70
     1
102
RTVSPropertyOp23
 70
     1
102
RTVSPropertyOp24
 70
     1
102
RTVSPropertyOp25
 70
     1
102
RTVSPropertyOp26
 70
     1
102
RTVSPropertyOp27
 70
     1
102
RTVSPropertyOp28
 70
     1
102
RTVSPropertyOp29
 70
     1
102
RTVSPropertyOp30
 70
     1
102
RTVSPropertyOp31
 70
     1
102
RTVSPropertyOp32
 70
     1
  0
XRECORD
  5
C89
102
{ACAD_REACTORS
330
C88
102
}
330
C88
100
AcDbXrecord
280
     1
102
RTVSPropertyOp0
 70
     1
102
RTVSPropertyOp1
 70
     1
102
RTVSPropertyOp2
 70
     1
102
RTVSPropertyOp3
 70
     1
102
RTVSPropertyOp4
 70
     1
102
RTVSPropertyOp5
 70
     1
102
RTVSPropertyOp6
 70
     1
102
RTVSPropertyOp7
 70
     1
102
RTVSPropertyOp8
 70
     1
102
RTVSPropertyOp9
 70
     1
102
RTVSPropertyOp10
 70
     1
102
RTVSPropertyOp11
 70
     1
102
RTVSPropertyOp12
 70
     1
102
RTVSPropertyOp13
 70
     1
102
RTVSPropertyOp14
 70
     1
102
RTVSPropertyOp15
 70
     1
102
RTVSPropertyOp16
 70
     1
102
RTVSPropertyOp17
 70
     1
102
RTVSPropertyOp18
 70
     1
102
RTVSPropertyOp19
 70
     1
102
RTVSPropertyOp20
 70
     1
102
RTVSPropertyOp21
 70
     1
102
RTVSPropertyOp22
 70
     1
102
RTVSPropertyOp23
 70
     1
102
RTVSPropertyOp24
 70
     1
102
RTVSPropertyOp25
 70
     1
102
RTVSPropertyOp26
 70
     1
102
RTVSPropertyOp27
 70
     1
102
RTVSPropertyOp28
 70
     1
102
RTVSPropertyOp29
 70
     1
102
RTVSPropertyOp30
 70
     1
102
RTVSPropertyOp31
 70
     1
102
RTVSPropertyOp32
 70
     1
  0
XRECORD
  5
C91
102
{ACAD_REACTORS
330
C90
102
}
330
C90
100
AcDbXrecord
280
     1
102
RTVSPropertyOp0
 70
     1
102
RTVSPropertyOp1
 70
     1
102
RTVSPropertyOp2
 70
     1
102
RTVSPropertyOp3
 70
     1
102
RTVSPropertyOp4
 70
     1
102
RTVSPropertyOp5
 70
     1
102
RTVSPropertyOp6
 70
     1
102
RTVSPropertyOp7
 70
     1
102
RTVSPropertyOp8
 70
     1
102
RTVSPropertyOp9
 70
     1
102
RTVSPropertyOp10
 70
     1
102
RTVSPropertyOp11
 70
     1
102
RTVSPropertyOp12
 70
     1
102
RTVSPropertyOp13
 70
     1
102
RTVSPropertyOp14
 70
     1
102
RTVSPropertyOp15
 70
     1
102
RTVSPropertyOp16
 70
     1
102
RTVSPropertyOp17
 70
     1
102
RTVSPropertyOp18
 70
     1
102
RTVSPropertyOp19
 70
     1
102
RTVSPropertyOp20
 70
     1
102
RTVSPropertyOp21
 70
     1
102
RTVSPropertyOp22
 70
     1
102
RTVSPropertyOp23
 70
     1
102
RTVSPropertyOp24
 70
     1
102
RTVSPropertyOp25
 70
     1
102
RTVSPropertyOp26
 70
     1
102
RTVSPropertyOp27
 70
     1
102
RTVSPropertyOp28
 70
     1
102
RTVSPropertyOp29
 70
     1
102
RTVSPropertyOp30
 70
     1
102
RTVSPropertyOp31
 70
     1
102
RTVSPropertyOp32
 70
     1
  0
XRECORD
  5
C83
102
{ACAD_REACTORS
330
C82
102
}
330
C82
100
AcDbXrecord
280
     1
102
RTVSPropertyOp0
 70
     1
102
RTVSPropertyOp1
 70
     1
102
RTVSPropertyOp2
 70
     1
102
RTVSPropertyOp3
 70
     1
102
RTVSPropertyOp4
 70
     1
102
RTVSPropertyOp5
 70
     1
102
RTVSPropertyOp6
 70
     1
102
RTVSPropertyOp7
 70
     1
102
RTVSPropertyOp8
 70
     1
102
RTVSPropertyOp9
 70
     1
102
RTVSPropertyOp10
 70
     1
102
RTVSPropertyOp11
 70
     1
102
RTVSPropertyOp12
 70
     1
102
RTVSPropertyOp13
 70
     1
102
RTVSPropertyOp14
 70
     1
102
RTVSPropertyOp15
 70
     1
102
RTVSPropertyOp16
 70
     1
102
RTVSPropertyOp17
 70
     1
102
RTVSPropertyOp18
 70
     1
102
RTVSPropertyOp19
 70
     1
102
RTVSPropertyOp20
 70
     1
102
RTVSPropertyOp21
 70
     1
102
RTVSPropertyOp22
 70
     1
102
RTVSPropertyOp23
 70
     1
102
RTVSPropertyOp24
 70
     1
102
RTVSPropertyOp25
 70
     1
102
RTVSPropertyOp26
 70
     1
102
RTVSPropertyOp27
 70
     1
102
RTVSPropertyOp28
 70
     1
102
RTVSPropertyOp29
 70
     1
102
RTVSPropertyOp30
 70
     1
102
RTVSPropertyOp31
 70
     1
102
RTVSPropertyOp32
 70
     1
  0
XRECORD
  5
C87
102
{ACAD_REACTORS
330
C86
102
}
330
C86
100
AcDbXrecord
280
     1
102
RTVSPropertyOp0
 70
     1
102
RTVSPropertyOp1
 70
     1
102
RTVSPropertyOp2
 70
     1
102
RTVSPropertyOp3
 70
     1
102
RTVSPropertyOp4
 70
     1
102
RTVSPropertyOp5
 70
     1
102
RTVSPropertyOp6
 70
     1
102
RTVSPropertyOp7
 70
     1
102
RTVSPropertyOp8
 70
     1
102
RTVSPropertyOp9
 70
     1
102
RTVSPropertyOp10
 70
     1
102
RTVSPropertyOp11
 70
     1
102
RTVSPropertyOp12
 70
     1
102
RTVSPropertyOp13
 70
     1
102
RTVSPropertyOp14
 70
     1
102
RTVSPropertyOp15
 70
     1
102
RTVSPropertyOp16
 70
     1
102
RTVSPropertyOp17
 70
     1
102
RTVSPropertyOp18
 70
     1
102
RTVSPropertyOp19
 70
     1
102
RTVSPropertyOp20
 70
     1
102
RTVSPropertyOp21
 70
     1
102
RTVSPropertyOp22
 70
     1
102
RTVSPropertyOp23
 70
     1
102
RTVSPropertyOp24
 70
     1
102
RTVSPropertyOp25
 70
     1
102
RTVSPropertyOp26
 70
     1
102
RTVSPropertyOp27
 70
     1
102
RTVSPropertyOp28
 70
     1
102
RTVSPropertyOp29
 70
     1
102
RTVSPropertyOp30
 70
     1
102
RTVSPropertyOp31
 70
     1
102
RTVSPropertyOp32
 70
     1
  0
XRECORD
  5
CA1
102
{ACAD_REACTORS
330
CA0
102
}
330
CA0
100
AcDbXrecord
280
     1
102
RTVSPropertyOp0
 70
     0
102
RTVSPropertyOp1
 70
     0
102
RTVSPropertyOp2
 70
     0
102
RTVSPropertyOp3
 70
     0
102
RTVSPropertyOp4
 70
     0
102
RTVSPropertyOp5
 70
     0
102
RTVSPropertyOp6
 70
     0
102
RTVSPropertyOp7
 70
     0
102
RTVSPropertyOp8
 70
     0
102
RTVSPropertyOp9
 70
     0
102
RTVSPropertyOp10
 70
     0
102
RTVSPropertyOp11
 70
     0
102
RTVSPropertyOp12
 70
     0
102
RTVSPropertyOp13
 70
     0
102
RTVSPropertyOp14
 70
     2
102
RTVSPropertyOp15
 70
     0
102
RTVSPropertyOp16
 70
     0
102
RTVSPropertyOp17
 70
     0
102
RTVSPropertyOp18
 70
     0
102
RTVSPropertyOp19
 70
     0
102
RTVSPropertyOp20
 70
     0
102
RTVSPropertyOp21
 70
     0
102
RTVSPropertyOp22
 70
     0
102
RTVSPropertyOp23
 70
     0
102
RTVSPropertyOp24
 70
     0
102
RTVSPropertyOp25
 70
     0
102
RTVSPropertyOp26
 70
     0
102
RTVSPropertyOp27
 70
     0
102
RTVSPropertyOp28
 70
     0
102
RTVSPropertyOp29
 70
     0
102
RTVSPropertyOp30
 70
     0
102
RTVSPropertyOp31
 70
     0
102
RTVSPropertyOp32
 70
     0
  0
XRECORD
  5
C8F
102
{ACAD_REACTORS
330
C8E
102
}
330
C8E
100
AcDbXrecord
280
     1
102
RTVSPropertyOp0
 70
     1
102
RTVSPropertyOp1
 70
     1
102
RTVSPropertyOp2
 70
     1
102
RTVSPropertyOp3
 70
     1
102
RTVSPropertyOp4
 70
     1
102
RTVSPropertyOp5
 70
     1
102
RTVSPropertyOp6
 70
     1
102
RTVSPropertyOp7
 70
     1
102
RTVSPropertyOp8
 70
     1
102
RTVSPropertyOp9
 70
     1
102
RTVSPropertyOp10
 70
     1
102
RTVSPropertyOp11
 70
     1
102
RTVSPropertyOp12
 70
     1
102
RTVSPropertyOp13
 70
     1
102
RTVSPropertyOp14
 70
     1
102
RTVSPropertyOp15
 70
     1
102
RTVSPropertyOp16
 70
     1
102
RTVSPropertyOp17
 70
     1
102
RTVSPropertyOp18
 70
     1
102
RTVSPropertyOp19
 70
     1
102
RTVSPropertyOp20
 70
     1
102
RTVSPropertyOp21
 70
     1
102
RTVSPropertyOp22
 70
     1
102
RTVSPropertyOp23
 70
     1
102
RTVSPropertyOp24
 70
     1
102
RTVSPropertyOp25
 70
     1
102
RTVSPropertyOp26
 70
     1
102
RTVSPropertyOp27
 70
     1
102
RTVSPropertyOp28
 70
     1
102
RTVSPropertyOp29
 70
     1
102
RTVSPropertyOp30
 70
     1
102
RTVSPropertyOp31
 70
     1
102
RTVSPropertyOp32
 70
     1
  0
XRECORD
  5
C73
102
{ACAD_REACTORS
330
C72
102
}
330
C72
100
AcDbXrecord
280
     1
102
RTVSPropertyOp0
 70
     1
102
RTVSPropertyOp1
 70
     1
102
RTVSPropertyOp2
 70
     1
102
RTVSPropertyOp3
 70
     1
102
RTVSPropertyOp4
 70
     1
102
RTVSPropertyOp5
 70
     1
102
RTVSPropertyOp6
 70
     1
102
RTVSPropertyOp7
 70
     1
102
RTVSPropertyOp8
 70
     1
102
RTVSPropertyOp9
 70
     1
102
RTVSPropertyOp10
 70
     1
102
RTVSPropertyOp11
 70
     1
102
RTVSPropertyOp12
 70
     1
102
RTVSPropertyOp13
 70
     1
102
RTVSPropertyOp14
 70
     1
102
RTVSPropertyOp15
 70
     1
102
RTVSPropertyOp16
 70
     1
102
RTVSPropertyOp17
 70
     1
102
RTVSPropertyOp18
 70
     1
102
RTVSPropertyOp19
 70
     1
102
RTVSPropertyOp20
 70
     1
102
RTVSPropertyOp21
 70
     1
102
RTVSPropertyOp22
 70
     1
102
RTVSPropertyOp23
 70
     1
102
RTVSPropertyOp24
 70
     1
102
RTVSPropertyOp25
 70
     1
102
RTVSPropertyOp26
 70
     1
102
RTVSPropertyOp27
 70
     1
102
RTVSPropertyOp28
 70
     1
102
RTVSPropertyOp29
 70
     1
102
RTVSPropertyOp30
 70
     1
102
RTVSPropertyOp31
 70
     1
102
RTVSPropertyOp32
 70
     1
  0
XRECORD
  5
C75
102
{ACAD_REACTORS
330
C74
102
}
330
C74
100
AcDbXrecord
280
     1
102
RTVSPropertyOp0
 70
     1
102
RTVSPropertyOp1
 70
     1
102
RTVSPropertyOp2
 70
     1
102
RTVSPropertyOp3
 70
     1
102
RTVSPropertyOp4
 70
     1
102
RTVSPropertyOp5
 70
     1
102
RTVSPropertyOp6
 70
     1
102
RTVSPropertyOp7
 70
     1
102
RTVSPropertyOp8
 70
     1
102
RTVSPropertyOp9
 70
     1
102
RTVSPropertyOp10
 70
     1
102
RTVSPropertyOp11
 70
     1
102
RTVSPropertyOp12
 70
     1
102
RTVSPropertyOp13
 70
     1
102
RTVSPropertyOp14
 70
     1
102
RTVSPropertyOp15
 70
     1
102
RTVSPropertyOp16
 70
     1
102
RTVSPropertyOp17
 70
     1
102
RTVSPropertyOp18
 70
     1
102
RTVSPropertyOp19
 70
     1
102
RTVSPropertyOp20
 70
     1
102
RTVSPropertyOp21
 70
     1
102
RTVSPropertyOp22
 70
     1
102
RTVSPropertyOp23
 70
     1
102
RTVSPropertyOp24
 70
     1
102
RTVSPropertyOp25
 70
     1
102
RTVSPropertyOp26
 70
     1
102
RTVSPropertyOp27
 70
     1
102
RTVSPropertyOp28
 70
     1
102
RTVSPropertyOp29
 70
     1
102
RTVSPropertyOp30
 70
     1
102
RTVSPropertyOp31
 70
     1
102
RTVSPropertyOp32
 70
     1
  0
XRECORD
  5
C77
102
{ACAD_REACTORS
330
C76
102
}
330
C76
100
AcDbXrecord
280
     1
102
RTVSPropertyOp0
 70
     1
102
RTVSPropertyOp1
 70
     1
102
RTVSPropertyOp2
 70
     1
102
RTVSPropertyOp3
 70
     1
102
RTVSPropertyOp4
 70
     1
102
RTVSPropertyOp5
 70
     1
102
RTVSPropertyOp6
 70
     1
102
RTVSPropertyOp7
 70
     1
102
RTVSPropertyOp8
 70
     1
102
RTVSPropertyOp9
 70
     1
102
RTVSPropertyOp10
 70
     1
102
RTVSPropertyOp11
 70
     1
102
RTVSPropertyOp12
 70
     1
102
RTVSPropertyOp13
 70
     1
102
RTVSPropertyOp14
 70
     1
102
RTVSPropertyOp15
 70
     1
102
RTVSPropertyOp16
 70
     1
102
RTVSPropertyOp17
 70
     1
102
RTVSPropertyOp18
 70
     1
102
RTVSPropertyOp19
 70
     1
102
RTVSPropertyOp20
 70
     1
102
RTVSPropertyOp21
 70
     1
102
RTVSPropertyOp22
 70
     1
102
RTVSPropertyOp23
 70
     1
102
RTVSPropertyOp24
 70
     1
102
RTVSPropertyOp25
 70
     1
102
RTVSPropertyOp26
 70
     1
102
RTVSPropertyOp27
 70
     1
102
RTVSPropertyOp28
 70
     1
102
RTVSPropertyOp29
 70
     1
102
RTVSPropertyOp30
 70
     1
102
RTVSPropertyOp31
 70
     1
102
RTVSPropertyOp32
 70
     1
  0
XRECORD
  5
C79
102
{ACAD_REACTORS
330
C78
102
}
330
C78
100
AcDbXrecord
280
     1
102
RTVSPropertyOp0
 70
     1
102
RTVSPropertyOp1
 70
     1
102
RTVSPropertyOp2
 70
     1
102
RTVSPropertyOp3
 70
     1
102
RTVSPropertyOp4
 70
     1
102
RTVSPropertyOp5
 70
     1
102
RTVSPropertyOp6
 70
     1
102
RTVSPropertyOp7
 70
     1
102
RTVSPropertyOp8
 70
     1
102
RTVSPropertyOp9
 70
     1
102
RTVSPropertyOp10
 70
     1
102
RTVSPropertyOp11
 70
     1
102
RTVSPropertyOp12
 70
     1
102
RTVSPropertyOp13
 70
     1
102
RTVSPropertyOp14
 70
     1
102
RTVSPropertyOp15
 70
     1
102
RTVSPropertyOp16
 70
     1
102
RTVSPropertyOp17
 70
     1
102
RTVSPropertyOp18
 70
     1
102
RTVSPropertyOp19
 70
     1
102
RTVSPropertyOp20
 70
     1
102
RTVSPropertyOp21
 70
     1
102
RTVSPropertyOp22
 70
     1
102
RTVSPropertyOp23
 70
     1
102
RTVSPropertyOp24
 70
     1
102
RTVSPropertyOp25
 70
     1
102
RTVSPropertyOp26
 70
     1
102
RTVSPropertyOp27
 70
     1
102
RTVSPropertyOp28
 70
     1
102
RTVSPropertyOp29
 70
     1
102
RTVSPropertyOp30
 70
     1
102
RTVSPropertyOp31
 70
     1
102
RTVSPropertyOp32
 70
     1
  0
XRECORD
  5
C81
102
{ACAD_REACTORS
330
C80
102
}
330
C80
100
AcDbXrecord
280
     1
102
RTVSPropertyOp0
 70
     1
102
RTVSPropertyOp1
 70
     1
102
RTVSPropertyOp2
 70
     1
102
RTVSPropertyOp3
 70
     1
102
RTVSPropertyOp4
 70
     1
102
RTVSPropertyOp5
 70
     1
102
RTVSPropertyOp6
 70
     1
102
RTVSPropertyOp7
 70
     1
102
RTVSPropertyOp8
 70
     1
102
RTVSPropertyOp9
 70
     1
102
RTVSPropertyOp10
 70
     1
102
RTVSPropertyOp11
 70
     1
102
RTVSPropertyOp12
 70
     1
102
RTVSPropertyOp13
 70
     1
102
RTVSPropertyOp14
 70
     1
102
RTVSPropertyOp15
 70
     1
102
RTVSPropertyOp16
 70
     1
102
RTVSPropertyOp17
 70
     1
102
RTVSPropertyOp18
 70
     1
102
RTVSPropertyOp19
 70
     1
102
RTVSPropertyOp20
 70
     1
102
RTVSPropertyOp21
 70
     1
102
RTVSPropertyOp22
 70
     1
102
RTVSPropertyOp23
 70
     1
102
RTVSPropertyOp24
 70
     1
102
RTVSPropertyOp25
 70
     1
102
RTVSPropertyOp26
 70
     1
102
RTVSPropertyOp27
 70
     1
102
RTVSPropertyOp28
 70
     1
102
RTVSPropertyOp29
 70
     1
102
RTVSPropertyOp30
 70
     1
102
RTVSPropertyOp31
 70
     1
102
RTVSPropertyOp32
 70
     1
  0
XRECORD
  5
C9D
102
{ACAD_REACTORS
330
C9C
102
}
330
C9C
100
AcDbXrecord
280
     1
102
RTVSPropertyOp0
 70
     0
102
RTVSPropertyOp1
 70
     0
102
RTVSPropertyOp2
 70
     0
102
RTVSPropertyOp3
 70
     0
102
RTVSPropertyOp4
 70
     0
102
RTVSPropertyOp5
 70
     0
102
RTVSPropertyOp6
 70
     0
102
RTVSPropertyOp7
 70
     0
102
RTVSPropertyOp8
 70
     0
102
RTVSPropertyOp9
 70
     0
102
RTVSPropertyOp10
 70
     0
102
RTVSPropertyOp11
 70
     0
102
RTVSPropertyOp12
 70
     0
102
RTVSPropertyOp13
 70
     0
102
RTVSPropertyOp14
 70
     2
102
RTVSPropertyOp15
 70
     0
102
RTVSPropertyOp16
 70
     0
102
RTVSPropertyOp17
 70
     0
102
RTVSPropertyOp18
 70
     0
102
RTVSPropertyOp19
 70
     0
102
RTVSPropertyOp20
 70
     0
102
RTVSPropertyOp21
 70
     0
102
RTVSPropertyOp22
 70
     0
102
RTVSPropertyOp23
 70
     0
102
RTVSPropertyOp24
 70
     0
102
RTVSPropertyOp25
 70
     0
102
RTVSPropertyOp26
 70
     0
102
RTVSPropertyOp27
 70
     0
102
RTVSPropertyOp28
 70
     0
102
RTVSPropertyOp29
 70
     0
102
RTVSPropertyOp30
 70
     0
102
RTVSPropertyOp31
 70
     0
102
RTVSPropertyOp32
 70
     0
  0
XRECORD
  5
C8D
102
{ACAD_REACTORS
330
C8C
102
}
330
C8C
100
AcDbXrecord
280
     1
102
RTVSPropertyOp0
 70
     1
102
RTVSPropertyOp1
 70
     1
102
RTVSPropertyOp2
 70
     1
102
RTVSPropertyOp3
 70
     1
102
RTVSPropertyOp4
 70
     1
102
RTVSPropertyOp5
 70
     1
102
RTVSPropertyOp6
 70
     1
102
RTVSPropertyOp7
 70
     1
102
RTVSPropertyOp8
 70
     1
102
RTVSPropertyOp9
 70
     1
102
RTVSPropertyOp10
 70
     1
102
RTVSPropertyOp11
 70
     1
102
RTVSPropertyOp12
 70
     1
102
RTVSPropertyOp13
 70
     1
102
RTVSPropertyOp14
 70
     1
102
RTVSPropertyOp15
 70
     1
102
RTVSPropertyOp16
 70
     1
102
RTVSPropertyOp17
 70
     1
102
RTVSPropertyOp18
 70
     1
102
RTVSPropertyOp19
 70
     1
102
RTVSPropertyOp20
 70
     1
102
RTVSPropertyOp21
 70
     1
102
RTVSPropertyOp22
 70
     1
102
RTVSPropertyOp23
 70
     1
102
RTVSPropertyOp24
 70
     1
102
RTVSPropertyOp25
 70
     1
102
RTVSPropertyOp26
 70
     1
102
RTVSPropertyOp27
 70
     1
102
RTVSPropertyOp28
 70
     1
102
RTVSPropertyOp29
 70
     1
102
RTVSPropertyOp30
 70
     1
102
RTVSPropertyOp31
 70
     1
102
RTVSPropertyOp32
 70
     1
  0
XRECORD
  5
C9F
102
{ACAD_REACTORS
330
C9E
102
}
330
C9E
100
AcDbXrecord
280
     1
102
RTVSPropertyOp0
 70
     0
102
RTVSPropertyOp1
 70
     0
102
RTVSPropertyOp2
 70
     0
102
RTVSPropertyOp3
 70
     0
102
RTVSPropertyOp4
 70
     0
102
RTVSPropertyOp5
 70
     0
102
RTVSPropertyOp6
 70
     0
102
RTVSPropertyOp7
 70
     0
102
RTVSPropertyOp8
 70
     0
102
RTVSPropertyOp9
 70
     0
102
RTVSPropertyOp10
 70
     0
102
RTVSPropertyOp11
 70
     0
102
RTVSPropertyOp12
 70
     0
102
RTVSPropertyOp13
 70
     0
102
RTVSPropertyOp14
 70
     2
102
RTVSPropertyOp15
 70
     0
102
RTVSPropertyOp16
 70
     0
102
RTVSPropertyOp17
 70
     0
102
RTVSPropertyOp18
 70
     0
102
RTVSPropertyOp19
 70
     0
102
RTVSPropertyOp20
 70
     0
102
RTVSPropertyOp21
 70
     0
102
RTVSPropertyOp22
 70
     0
102
RTVSPropertyOp23
 70
     0
102
RTVSPropertyOp24
 70
     0
102
RTVSPropertyOp25
 70
     0
102
RTVSPropertyOp26
 70
     0
102
RTVSPropertyOp27
 70
     0
102
RTVSPropertyOp28
 70
     0
102
RTVSPropertyOp29
 70
     0
102
RTVSPropertyOp30
 70
     0
102
RTVSPropertyOp31
 70
     0
102
RTVSPropertyOp32
 70
     0
  0
XRECORD
  5
C85
102
{ACAD_REACTORS
330
C84
102
}
330
C84
100
AcDbXrecord
280
     1
102
RTVSPropertyOp0
 70
     1
102
RTVSPropertyOp1
 70
     1
102
RTVSPropertyOp2
 70
     1
102
RTVSPropertyOp3
 70
     1
102
RTVSPropertyOp4
 70
     1
102
RTVSPropertyOp5
 70
     1
102
RTVSPropertyOp6
 70
     1
102
RTVSPropertyOp7
 70
     1
102
RTVSPropertyOp8
 70
     1
102
RTVSPropertyOp9
 70
     1
102
RTVSPropertyOp10
 70
     1
102
RTVSPropertyOp11
 70
     1
102
RTVSPropertyOp12
 70
     1
102
RTVSPropertyOp13
 70
     1
102
RTVSPropertyOp14
 70
     1
102
RTVSPropertyOp15
 70
     1
102
RTVSPropertyOp16
 70
     1
102
RTVSPropertyOp17
 70
     1
102
RTVSPropertyOp18
 70
     1
102
RTVSPropertyOp19
 70
     1
102
RTVSPropertyOp20
 70
     1
102
RTVSPropertyOp21
 70
     1
102
RTVSPropertyOp22
 70
     1
102
RTVSPropertyOp23
 70
     1
102
RTVSPropertyOp24
 70
     1
102
RTVSPropertyOp25
 70
     1
102
RTVSPropertyOp26
 70
     1
102
RTVSPropertyOp27
 70
     1
102
RTVSPropertyOp28
 70
     1
102
RTVSPropertyOp29
 70
     1
102
RTVSPropertyOp30
 70
     1
102
RTVSPropertyOp31
 70
     1
102
RTVSPropertyOp32
 70
     1
  0
XRECORD
  5
C9B
102
{ACAD_REACTORS
330
C9A
102
}
330
C9A
100
AcDbXrecord
280
     1
102
RTVSPropertyOp0
 70
     1
102
RTVSPropertyOp1
 70
     1
102
RTVSPropertyOp2
 70
     1
102
RTVSPropertyOp3
 70
     1
102
RTVSPropertyOp4
 70
     1
102
RTVSPropertyOp5
 70
     1
102
RTVSPropertyOp6
 70
     1
102
RTVSPropertyOp7
 70
     1
102
RTVSPropertyOp8
 70
     1
102
RTVSPropertyOp9
 70
     1
102
RTVSPropertyOp10
 70
     1
102
RTVSPropertyOp11
 70
     1
102
RTVSPropertyOp12
 70
     1
102
RTVSPropertyOp13
 70
     1
102
RTVSPropertyOp14
 70
     1
102
RTVSPropertyOp15
 70
     1
102
RTVSPropertyOp16
 70
     1
102
RTVSPropertyOp17
 70
     1
102
RTVSPropertyOp18
 70
     1
102
RTVSPropertyOp19
 70
     1
102
RTVSPropertyOp20
 70
     1
102
RTVSPropertyOp21
 70
     1
102
RTVSPropertyOp22
 70
     1
102
RTVSPropertyOp23
 70
     1
102
RTVSPropertyOp24
 70
     1
102
RTVSPropertyOp25
 70
     1
102
RTVSPropertyOp26
 70
     1
102
RTVSPropertyOp27
 70
     1
102
RTVSPropertyOp28
 70
     1
102
RTVSPropertyOp29
 70
     1
102
RTVSPropertyOp30
 70
     1
102
RTVSPropertyOp31
 70
     1
102
RTVSPropertyOp32
 70
     1
  0
XRECORD
  5
C99
102
{ACAD_REACTORS
330
C98
102
}
330
C98
100
AcDbXrecord
280
     1
102
RTVSPropertyOp0
 70
     1
102
RTVSPropertyOp1
 70
     1
102
RTVSPropertyOp2
 70
     1
102
RTVSPropertyOp3
 70
     1
102
RTVSPropertyOp4
 70
     1
102
RTVSPropertyOp5
 70
     1
102
RTVSPropertyOp6
 70
     1
102
RTVSPropertyOp7
 70
     1
102
RTVSPropertyOp8
 70
     1
102
RTVSPropertyOp9
 70
     1
102
RTVSPropertyOp10
 70
     1
102
RTVSPropertyOp11
 70
     1
102
RTVSPropertyOp12
 70
     1
102
RTVSPropertyOp13
 70
     1
102
RTVSPropertyOp14
 70
     1
102
RTVSPropertyOp15
 70
     1
102
RTVSPropertyOp16
 70
     1
102
RTVSPropertyOp17
 70
     1
102
RTVSPropertyOp18
 70
     1
102
RTVSPropertyOp19
 70
     1
102
RTVSPropertyOp20
 70
     1
102
RTVSPropertyOp21
 70
     1
102
RTVSPropertyOp22
 70
     1
102
RTVSPropertyOp23
 70
     1
102
RTVSPropertyOp24
 70
     1
102
RTVSPropertyOp25
 70
     1
102
RTVSPropertyOp26
 70
     1
102
RTVSPropertyOp27
 70
     1
102
RTVSPropertyOp28
 70
     1
102
RTVSPropertyOp29
 70
     1
102
RTVSPropertyOp30
 70
     1
102
RTVSPropertyOp31
 70
     1
102
RTVSPropertyOp32
 70
     1
  0
XRECORD
  5
C93
102
{ACAD_REACTORS
330
C92
102
}
330
C92
100
AcDbXrecord
280
     1
102
RTVSPropertyOp0
 70
     1
102
RTVSPropertyOp1
 70
     1
102
RTVSPropertyOp2
 70
     1
102
RTVSPropertyOp3
 70
     1
102
RTVSPropertyOp4
 70
     1
102
RTVSPropertyOp5
 70
     1
102
RTVSPropertyOp6
 70
     1
102
RTVSPropertyOp7
 70
     1
102
RTVSPropertyOp8
 70
     1
102
RTVSPropertyOp9
 70
     1
102
RTVSPropertyOp10
 70
     1
102
RTVSPropertyOp11
 70
     1
102
RTVSPropertyOp12
 70
     1
102
RTVSPropertyOp13
 70
     1
102
RTVSPropertyOp14
 70
     1
102
RTVSPropertyOp15
 70
     1
102
RTVSPropertyOp16
 70
     1
102
RTVSPropertyOp17
 70
     1
102
RTVSPropertyOp18
 70
     1
102
RTVSPropertyOp19
 70
     1
102
RTVSPropertyOp20
 70
     1
102
RTVSPropertyOp21
 70
     1
102
RTVSPropertyOp22
 70
     1
102
RTVSPropertyOp23
 70
     1
102
RTVSPropertyOp24
 70
     1
102
RTVSPropertyOp25
 70
     1
102
RTVSPropertyOp26
 70
     1
102
RTVSPropertyOp27
 70
     1
102
RTVSPropertyOp28
 70
     1
102
RTVSPropertyOp29
 70
     1
102
RTVSPropertyOp30
 70
     1
102
RTVSPropertyOp31
 70
     1
102
RTVSPropertyOp32
 70
     1
  0
XRECORD
  5
C95
102
{ACAD_REACTORS
330
C94
102
}
330
C94
100
AcDbXrecord
280
     1
102
RTVSPropertyOp0
 70
     1
102
RTVSPropertyOp1
 70
     1
102
RTVSPropertyOp2
 70
     1
102
RTVSPropertyOp3
 70
     1
102
RTVSPropertyOp4
 70
     1
102
RTVSPropertyOp5
 70
     1
102
RTVSPropertyOp6
 70
     1
102
RTVSPropertyOp7
 70
     1
102
RTVSPropertyOp8
 70
     1
102
RTVSPropertyOp9
 70
     1
102
RTVSPropertyOp10
 70
     1
102
RTVSPropertyOp11
 70
     1
102
RTVSPropertyOp12
 70
     1
102
RTVSPropertyOp13
 70
     1
102
RTVSPropertyOp14
 70
     1
102
RTVSPropertyOp15
 70
     1
102
RTVSPropertyOp16
 70
     1
102
RTVSPropertyOp17
 70
     1
102
RTVSPropertyOp18
 70
     1
102
RTVSPropertyOp19
 70
     1
102
RTVSPropertyOp20
 70
     1
102
RTVSPropertyOp21
 70
     1
102
RTVSPropertyOp22
 70
     1
102
RTVSPropertyOp23
 70
     1
102
RTVSPropertyOp24
 70
     1
102
RTVSPropertyOp25
 70
     1
102
RTVSPropertyOp26
 70
     1
102
RTVSPropertyOp27
 70
     1
102
RTVSPropertyOp28
 70
     1
102
RTVSPropertyOp29
 70
     1
102
RTVSPropertyOp30
 70
     1
102
RTVSPropertyOp31
 70
     1
102
RTVSPropertyOp32
 70
     1
  0
XRECORD
  5
C8B
102
{ACAD_REACTORS
330
C8A
102
}
330
C8A
100
AcDbXrecord
280
     1
102
RTVSPropertyOp0
 70
     1
102
RTVSPropertyOp1
 70
     1
102
RTVSPropertyOp2
 70
     1
102
RTVSPropertyOp3
 70
     1
102
RTVSPropertyOp4
 70
     1
102
RTVSPropertyOp5
 70
     1
102
RTVSPropertyOp6
 70
     1
102
RTVSPropertyOp7
 70
     1
102
RTVSPropertyOp8
 70
     1
102
RTVSPropertyOp9
 70
     1
102
RTVSPropertyOp10
 70
     1
102
RTVSPropertyOp11
 70
     1
102
RTVSPropertyOp12
 70
     1
102
RTVSPropertyOp13
 70
     1
102
RTVSPropertyOp14
 70
     1
102
RTVSPropertyOp15
 70
     1
102
RTVSPropertyOp16
 70
     1
102
RTVSPropertyOp17
 70
     1
102
RTVSPropertyOp18
 70
     1
102
RTVSPropertyOp19
 70
     1
102
RTVSPropertyOp20
 70
     1
102
RTVSPropertyOp21
 70
     1
102
RTVSPropertyOp22
 70
     1
102
RTVSPropertyOp23
 70
     1
102
RTVSPropertyOp24
 70
     1
102
RTVSPropertyOp25
 70
     1
102
RTVSPropertyOp26
 70
     1
102
RTVSPropertyOp27
 70
     1
102
RTVSPropertyOp28
 70
     1
102
RTVSPropertyOp29
 70
     1
102
RTVSPropertyOp30
 70
     1
102
RTVSPropertyOp31
 70
     1
102
RTVSPropertyOp32
 70
     1
  0
XRECORD
  5
C7F
102
{ACAD_REACTORS
330
C7E
102
}
330
C7E
100
AcDbXrecord
280
     1
102
RTVSPropertyOp0
 70
     1
102
RTVSPropertyOp1
 70
     1
102
RTVSPropertyOp2
 70
     1
102
RTVSPropertyOp3
 70
     1
102
RTVSPropertyOp4
 70
     1
102
RTVSPropertyOp5
 70
     1
102
RTVSPropertyOp6
 70
     1
102
RTVSPropertyOp7
 70
     1
102
RTVSPropertyOp8
 70
     1
102
RTVSPropertyOp9
 70
     1
102
RTVSPropertyOp10
 70
     1
102
RTVSPropertyOp11
 70
     1
102
RTVSPropertyOp12
 70
     1
102
RTVSPropertyOp13
 70
     1
102
RTVSPropertyOp14
 70
     1
102
RTVSPropertyOp15
 70
     1
102
RTVSPropertyOp16
 70
     1
102
RTVSPropertyOp17
 70
     1
102
RTVSPropertyOp18
 70
     1
102
RTVSPropertyOp19
 70
     1
102
RTVSPropertyOp20
 70
     1
102
RTVSPropertyOp21
 70
     1
102
RTVSPropertyOp22
 70
     1
102
RTVSPropertyOp23
 70
     1
102
RTVSPropertyOp24
 70
     1
102
RTVSPropertyOp25
 70
     1
102
RTVSPropertyOp26
 70
     1
102
RTVSPropertyOp27
 70
     1
102
RTVSPropertyOp28
 70
     1
102
RTVSPropertyOp29
 70
     1
102
RTVSPropertyOp30
 70
     1
102
RTVSPropertyOp31
 70
     1
102
RTVSPropertyOp32
 70
     1
  0
XRECORD
  5
C97
102
{ACAD_REACTORS
330
C96
102
}
330
C96
100
AcDbXrecord
280
     1
102
RTVSPropertyOp0
 70
     1
102
RTVSPropertyOp1
 70
     1
102
RTVSPropertyOp2
 70
     1
102
RTVSPropertyOp3
 70
     1
102
RTVSPropertyOp4
 70
     1
102
RTVSPropertyOp5
 70
     1
102
RTVSPropertyOp6
 70
     1
102
RTVSPropertyOp7
 70
     1
102
RTVSPropertyOp8
 70
     1
102
RTVSPropertyOp9
 70
     1
102
RTVSPropertyOp10
 70
     1
102
RTVSPropertyOp11
 70
     1
102
RTVSPropertyOp12
 70
     1
102
RTVSPropertyOp13
 70
     1
102
RTVSPropertyOp14
 70
     1
102
RTVSPropertyOp15
 70
     1
102
RTVSPropertyOp16
 70
     1
102
RTVSPropertyOp17
 70
     1
102
RTVSPropertyOp18
 70
     1
102
RTVSPropertyOp19
 70
     1
102
RTVSPropertyOp20
 70
     1
102
RTVSPropertyOp21
 70
     1
102
RTVSPropertyOp22
 70
     1
102
RTVSPropertyOp23
 70
     1
102
RTVSPropertyOp24
 70
     1
102
RTVSPropertyOp25
 70
     1
102
RTVSPropertyOp26
 70
     1
102
RTVSPropertyOp27
 70
     1
102
RTVSPropertyOp28
 70
     1
102
RTVSPropertyOp29
 70
     1
102
RTVSPropertyOp30
 70
     1
102
RTVSPropertyOp31
 70
     1
102
RTVSPropertyOp32
 70
     1
  0
ENDSEC
  0
EOF
