  0
SECTION
  2
HEADER
  9
$ACADVER
  1
AC1015
  9
$ACADMAINTVER
 70
    20
  9
$DWGCODEPAGE
  3
ANSI_932
  9
$INSBASE
 10
0.0
 20
0.0
 30
0.0
  9
$EXTMIN
 10
91.22630247218001
 20
-76.81999272803976
 30
0.0
  9
$EXTMAX
 10
283.22630247218
 20
203.5263594183642
 30
0.0
  9
$LIMMIN
 10
314.5575022
 20
-70.47230585
  9
$LIMMAX
 10
591.6880727499997
 20
122.00231226
  9
$ORTHOMODE
 70
     1
  9
$REGENMODE
 70
     1
  9
$FILLMODE
 70
     1
  9
$QTEXTMODE
 70
     0
  9
$MIRRTEXT
 70
     0
  9
$LTSCALE
 40
4.61880951
  9
$ATTMODE
 70
     1
  9
$TEXTSIZE
 40
3.2
  9
$TRACEWID
 40
0.05
  9
$TEXTSTYLE
  7
高3.2
  9
$CLAYER
  8
0
  9
$CELTYPE
  6
ByLayer
  9
$CECOLOR
 62
   256
  9
$CELTSCALE
 40
1.0
  9
$DISPSILH
 70
     0
  9
$DIMSCALE
 40
1.0
  9
$DIMASZ
 40
2.5
  9
$DIMEXO
 40
0.25
  9
$DIMDLI
 40
0.2
  9
$DIMRND
 40
0.0
  9
$DIMDLE
 40
0.0
  9
$DIMEXE
 40
1.25
  9
$DIMTP
 40
0.0
  9
$DIMTM
 40
0.0
  9
$DIMTXT
 40
3.0
  9
$DIMCEN
 40
0.0
  9
$DIMTSZ
 40
0.0
  9
$DIMTOL
 70
     0
  9
$DIMLIM
 70
     0
  9
$DIMTIH
 70
     0
  9
$DIMTOH
 70
     0
  9
$DIMSE1
 70
     0
  9
$DIMSE2
 70
     0
  9
$DIMTAD
 70
     3
  9
$DIMZIN
 70
     8
  9
$DIMBLK
  1
Open30
  9
$DIMASO
 70
     1
  9
$DIMSHO
 70
     1
  9
$DIMPOST
  1

  9
$DIMAPOST
  1

  9
$DIMALT
 70
     0
  9
$DIMALTD
 70
     3
  9
$DIMALTF
 40
0.03937007874016
  9
$DIMLFAC
 40
1.0
  9
$DIMTOFL
 70
     1
  9
$DIMTVP
 40
0.0
  9
$DIMTIX
 70
     0
  9
$DIMSOXD
 70
     0
  9
$DIMSAH
 70
     0
  9
$DIMBLK1
  1

  9
$DIMBLK2
  1

  9
$DIMSTYLE
  2
1：1
  9
$DIMCLRD
 70
     0
  9
$DIMCLRE
 70
     0
  9
$DIMCLRT
 70
     4
  9
$DIMTFAC
 40
1.0
  9
$DIMGAP
 40
0.625
  9
$DIMJUST
 70
     0
  9
$DIMSD1
 70
     0
  9
$DIMSD2
 70
     0
  9
$DIMTOLJ
 70
     0
  9
$DIMTZIN
 70
     8
  9
$DIMALTZ
 70
     0
  9
$DIMALTTZ
 70
     0
  9
$DIMUPT
 70
     1
  9
$DIMDEC
 70
     2
  9
$DIMTDEC
 70
     2
  9
$DIMALTU
 70
     2
  9
$DIMALTTD
 70
     3
  9
$DIMTXSTY
  7
STANDARD
  9
$DIMAUNIT
 70
     0
  9
$DIMADEC
 70
     1
  9
$DIMALTRND
 40
0.0
  9
$DIMAZIN
 70
     2
  9
$DIMDSEP
 70
    46
  9
$DIMATFIT
 70
     0
  9
$DIMFRAC
 70
     0
  9
$DIMLDRBLK
  1
Open30
  9
$DIMLUNIT
 70
     2
  9
$DIMLWD
 70
    -2
  9
$DIMLWE
 70
    -2
  9
$DIMTMOVE
 70
     0
  9
$LUNITS
 70
     2
  9
$LUPREC
 70
     4
  9
$SKETCHINC
 40
0.1
  9
$FILLETRAD
 40
0.0
  9
$AUNITS
 70
     0
  9
$AUPREC
 70
     0
  9
$MENU
  1
.
  9
$ELEVATION
 40
0.0
  9
$PELEVATION
 40
0.0
  9
$THICKNESS
 40
0.0
  9
$LIMCHECK
 70
     0
  9
$CHAMFERA
 40
0.0
  9
$CHAMFERB
 40
0.0
  9
$CHAMFERC
 40
0.0
  9
$CHAMFERD
 40
0.0
  9
$SKPOLY
 70
     0
  9
$TDCREATE
 40
2455680.461799479
  9
$TDUCREATE
 40
2455680.086799479
  9
$TDUPDATE
 40
2459163.577644317
  9
$TDUUPDATE
 40
2459163.202644317
  9
$TDINDWG
 40
0.0693487731
  9
$TDUSRTIMER
 40
0.0693481713
  9
$USRTIMER
 70
     1
  9
$ANGBASE
 50
0.0
  9
$ANGDIR
 70
     0
  9
$PDMODE
 70
     0
  9
$PDSIZE
 40
0.0
  9
$PLINEWID
 40
0.0
  9
$SPLFRAME
 70
     0
  9
$SPLINETYPE
 70
     6
  9
$SPLINESEGS
 70
     8
  9
$HANDSEED
  5
A6B
  9
$SURFTAB1
 70
     6
  9
$SURFTAB2
 70
     6
  9
$SURFTYPE
 70
     6
  9
$SURFU
 70
     6
  9
$SURFV
 70
     6
  9
$UCSBASE
  2

  9
$UCSNAME
  2

  9
$UCSORG
 10
0.0
 20
0.0
 30
0.0
  9
$UCSXDIR
 10
1.0
 20
0.0
 30
0.0
  9
$UCSYDIR
 10
0.0
 20
1.0
 30
0.0
  9
$UCSORTHOREF
  2

  9
$UCSORTHOVIEW
 70
     0
  9
$UCSORGTOP
 10
0.0
 20
0.0
 30
0.0
  9
$UCSORGBOTTOM
 10
0.0
 20
0.0
 30
0.0
  9
$UCSORGLEFT
 10
0.0
 20
0.0
 30
0.0
  9
$UCSORGRIGHT
 10
0.0
 20
0.0
 30
0.0
  9
$UCSORGFRONT
 10
0.0
 20
0.0
 30
0.0
  9
$UCSORGBACK
 10
0.0
 20
0.0
 30
0.0
  9
$PUCSBASE
  2

  9
$PUCSNAME
  2

  9
$PUCSORG
 10
0.0
 20
0.0
 30
0.0
  9
$PUCSXDIR
 10
1.0
 20
0.0
 30
0.0
  9
$PUCSYDIR
 10
0.0
 20
1.0
 30
0.0
  9
$PUCSORTHOREF
  2

  9
$PUCSORTHOVIEW
 70
     0
  9
$PUCSORGTOP
 10
0.0
 20
0.0
 30
0.0
  9
$PUCSORGBOTTOM
 10
0.0
 20
0.0
 30
0.0
  9
$PUCSORGLEFT
 10
0.0
 20
0.0
 30
0.0
  9
$PUCSORGRIGHT
 10
0.0
 20
0.0
 30
0.0
  9
$PUCSORGFRONT
 10
0.0
 20
0.0
 30
0.0
  9
$PUCSORGBACK
 10
0.0
 20
0.0
 30
0.0
  9
$USERI1
 70
     0
  9
$USERI2
 70
     0
  9
$USERI3
 70
     0
  9
$USERI4
 70
     0
  9
$USERI5
 70
     0
  9
$USERR1
 40
0.0
  9
$USERR2
 40
0.0
  9
$USERR3
 40
0.0
  9
$USERR4
 40
0.0
  9
$USERR5
 40
0.0
  9
$WORLDVIEW
 70
     1
  9
$SHADEDGE
 70
     3
  9
$SHADEDIF
 70
    70
  9
$TILEMODE
 70
     1
  9
$MAXACTVP
 70
    64
  9
$PINSBASE
 10
0.0
 20
0.0
 30
0.0
  9
$PLIMCHECK
 70
     0
  9
$PEXTMIN
 10
1.000000000000000E+20
 20
1.000000000000000E+20
 30
1.000000000000000E+20
  9
$PEXTMAX
 10
-1.000000000000000E+20
 20
-1.000000000000000E+20
 30
-1.000000000000000E+20
  9
$PLIMMIN
 10
0.0
 20
0.0
  9
$PLIMMAX
 10
12.0
 20
9.0
  9
$UNITMODE
 70
     0
  9
$VISRETAIN
 70
     1
  9
$PLINEGEN
 70
     0
  9
$PSLTSCALE
 70
     1
  9
$TREEDEPTH
 70
  3020
  9
$CMLSTYLE
  2
Standard
  9
$CMLJUST
 70
     0
  9
$CMLSCALE
 40
1.0
  9
$PROXYGRAPHICS
 70
     1
  9
$MEASUREMENT
 70
     0
  9
$CELWEIGHT
370
    -1
  9
$ENDCAPS
280
     0
  9
$JOINSTYLE
280
     0
  9
$LWDISPLAY
290
     0
  9
$INSUNITS
 70
     0
  9
$HYPERLINKBASE
  1

  9
$STYLESHEET
  1

  9
$XEDIT
290
     1
  9
$CEPSNTYPE
380
     0
  9
$PSTYLEMODE
290
     1
  9
$FINGERPRINTGUID
  2
{63C7A30B-53DD-4D3B-BF65-4C005DE4B153}
  9
$VERSIONGUID
  2
{079AF296-6C1D-430A-A264-708E32220FB9}
  9
$EXTNAMES
290
     1
  9
$PSVPSCALE
 40
0.0
  9
$OLESTARTUP
290
     0
  0
ENDSEC
  0
SECTION
  2
CLASSES
  0
CLASS
  1
ACDBDICTIONARYWDFLT
  2
AcDbDictionaryWithDefault
  3
ObjectDBX Classes
 90
        0
280
     0
281
     0
  0
CLASS
  1
MATERIAL
  2
AcDbMaterial
  3
ObjectDBX Classes
 90
     1153
280
     0
281
     0
  0
CLASS
  1
VISUALSTYLE
  2
AcDbVisualStyle
  3
ObjectDBX Classes
 90
     4095
280
     0
281
     0
  0
CLASS
  1
SCALE
  2
AcDbScale
  3
ObjectDBX Classes
 90
     1153
280
     0
281
     0
  0
CLASS
  1
TABLESTYLE
  2
AcDbTableStyle
  3
ObjectDBX Classes
 90
     4095
280
     0
281
     0
  0
CLASS
  1
MLEADERSTYLE
  2
AcDbMLeaderStyle
  3
ACDB_MLEADERSTYLE_CLASS
 90
     4095
280
     0
281
     0
  0
CLASS
  1
DICTIONARYVAR
  2
AcDbDictionaryVar
  3
ObjectDBX Classes
 90
        0
280
     0
281
     0
  0
CLASS
  1
CELLSTYLEMAP
  2
AcDbCellStyleMap
  3
ObjectDBX Classes
 90
     1152
280
     0
281
     0
  0
CLASS
  1
ACDBPLACEHOLDER
  2
AcDbPlaceHolder
  3
ObjectDBX Classes
 90
        0
280
     0
281
     0
  0
CLASS
  1
LAYOUT
  2
AcDbLayout
  3
ObjectDBX Classes
 90
        0
280
     0
281
     0
  0
CLASS
  1
SORTENTSTABLE
  2
AcDbSortentsTable
  3
ObjectDBX Classes
 90
        0
280
     0
281
     0
  0
CLASS
  1
AEC_REFEDIT_STATUS_TRACKER
  2
AecDbRefEditStatusTracker
  3
AecArchBase60|Product Desc: Autodesk Architectural Desktop 2007 |Company: Autodesk,Inc. |WEB Address: www.autodesk.com
 90
      129
280
     0
281
     0
  0
CLASS
  1
NPOCOLLECTION
  2
AcDbImpNonPersistentObjectsCollection
  3
ObjectDBX Classes
 90
     1153
280
     0
281
     0
  0
ENDSEC
  0
SECTION
  2
TABLES
  0
TABLE
  2
VPORT
  5
8
330
0
100
AcDbSymbolTable
 70
     1
  0
VPORT
  5
8B
330
8
100
AcDbSymbolTableRecord
100
AcDbViewportTableRecord
  2
*Active
 70
     0
 10
0.0
 20
0.0
 11
1.0
 21
1.0
 12
426.8542276143222
 22
79.1540270791441
 13
0.0
 23
0.0
 14
1.0
 24
1.0
 15
0.0
 25
0.0
 16
0.0
 26
0.0
 36
1.0
 17
0.0
 27
0.0
 37
0.0
 40
599.1344996164729
 41
2.020752269779507
 42
50.0
 43
0.0
 44
0.0
 50
0.0
 51
0.0
 71
     0
 72
   100
 73
     1
 74
     1
 75
     0
 76
     0
 77
     0
 78
     0
281
     0
 65
     1
110
0.0
120
0.0
130
0.0
111
1.0
121
0.0
131
0.0
112
0.0
122
1.0
132
0.0
 79
     0
146
0.0
  0
ENDTAB
  0
TABLE
  2
LTYPE
  5
5
330
0
100
AcDbSymbolTable
 70
     3
  0
LTYPE
  5
5A
330
5
100
AcDbSymbolTableRecord
100
AcDbLinetypeTableRecord
  2
ByBlock
 70
     0
  3

 72
    65
 73
     0
 40
0.0
  0
LTYPE
  5
5B
330
5
100
AcDbSymbolTableRecord
100
AcDbLinetypeTableRecord
  2
ByLayer
 70
     0
  3

 72
    65
 73
     0
 40
0.0
  0
LTYPE
  5
5C
330
5
100
AcDbSymbolTableRecord
100
AcDbLinetypeTableRecord
  2
CONTINUOUS
 70
     0
  3
Solid-line
 72
    65
 73
     0
 40
0.0
  0
LTYPE
  5
72
330
5
100
AcDbSymbolTableRecord
100
AcDbLinetypeTableRecord
  2
CENTER
 70
     0
  3
CENTER
 72
    65
 73
     4
 40
2.0
 49
1.25
 74
     0
 49
-0.25
 74
     0
 49
0.25
 74
     0
 49
-0.25
 74
     0
  0
ENDTAB
  0
TABLE
  2
LAYER
  5
2
102
{ACAD_XDICTIONARY
360
273
102
}
330
0
100
AcDbSymbolTable
 70
     2
  0
LAYER
  5
54
102
{ACAD_XDICTIONARY
360
3E7
102
}
330
2
100
AcDbSymbolTableRecord
100
AcDbLayerTableRecord
  2
0
 70
     0
 62
     7
  6
CONTINUOUS
370
    -3
390
F
  0
LAYER
  5
25E
330
2
100
AcDbSymbolTableRecord
100
AcDbLayerTableRecord
  2
Defpoints
 70
     0
 62
     7
  6
CONTINUOUS
290
     0
370
    -3
390
F
  0
ENDTAB
  0
TABLE
  2
STYLE
  5
3
330
0
100
AcDbSymbolTable
 70
     6
  0
STYLE
  5
55
330
3
100
AcDbSymbolTableRecord
100
AcDbTextStyleTableRecord
  2
STANDARD
 70
     0
 40
0.0
 41
1.0
 50
0.0
 71
     0
 42
0.2
  3
TXT
  4
BIGFONT
  0
STYLE
  5
25F
330
3
100
AcDbSymbolTableRecord
100
AcDbTextStyleTableRecord
  2
高3.2
 70
     0
 40
3.2
 41
1.0
 50
0.0
 71
     0
 42
3.2
  3
txt.shx
  4
bigfont.shx
  0
STYLE
  5
260
330
3
100
AcDbSymbolTableRecord
100
AcDbTextStyleTableRecord
  2
高6.3
 70
     0
 40
6.299999999999998
 41
1.0
 50
0.0
 71
     0
 42
6.299999999999998
  3
txt.shx
  4
bigfont.shx
  0
STYLE
  5
261
330
3
100
AcDbSymbolTableRecord
100
AcDbTextStyleTableRecord
  2
高2.5
 70
     0
 40
2.5
 41
1.0
 50
0.0
 71
     0
 42
0.2
  3
txt.shx
  4
bigfont.shx
  0
STYLE
  5
262
330
3
100
AcDbSymbolTableRecord
100
AcDbTextStyleTableRecord
  2
高4.5
 70
     0
 40
4.5
 41
1.0
 50
0.0
 71
     0
 42
6.299999999999998
  3
txt.shx
  4
bigfont.shx
  0
STYLE
  5
263
330
3
100
AcDbSymbolTableRecord
100
AcDbTextStyleTableRecord
  2
高2
 70
     0
 40
2.0
 41
1.0
 50
0.0
 71
     0
 42
6.299999999999998
  3
txt.shx
  4
bigfont.shx
  0
ENDTAB
  0
TABLE
  2
VIEW
  5
6
330
0
100
AcDbSymbolTable
 70
     0
  0
ENDTAB
  0
TABLE
  2
UCS
  5
7
330
0
100
AcDbSymbolTable
 70
     0
  0
ENDTAB
  0
TABLE
  2
APPID
  5
9
330
0
100
AcDbSymbolTable
 70
    10
  0
APPID
  5
56
330
9
100
AcDbSymbolTableRecord
100
AcDbRegAppTableRecord
  2
ACAD
 70
     0
  0
APPID
  5
5D
330
9
100
AcDbSymbolTableRecord
100
AcDbRegAppTableRecord
  2
AcadAnnotative
 70
     0
  0
APPID
  5
26E
330
9
100
AcDbSymbolTableRecord
100
AcDbRegAppTableRecord
  2
ACAD_DSTYLE_DIMJOGGED_JOGANGLE_SYMBOL
 70
     0
  0
APPID
  5
26F
330
9
100
AcDbSymbolTableRecord
100
AcDbRegAppTableRecord
  2
ACAD_DSTYLE_DIMJAG
 70
     0
  0
APPID
  5
270
330
9
100
AcDbSymbolTableRecord
100
AcDbRegAppTableRecord
  2
ACAD_DSTYLE_DIMBREAK
 70
     0
  0
APPID
  5
271
330
9
100
AcDbSymbolTableRecord
100
AcDbRegAppTableRecord
  2
ACAD_DSTYLE_DIMTALN
 70
     0
  0
APPID
  5
3C3
330
9
100
AcDbSymbolTableRecord
100
AcDbRegAppTableRecord
  2
ACAD_EXEMPT_FROM_CAD_STANDARDS
 70
     0
  0
APPID
  5
42F
330
9
100
AcDbSymbolTableRecord
100
AcDbRegAppTableRecord
  2
ACAD_MLEADERVER
 70
     0
  0
APPID
  5
434
330
9
100
AcDbSymbolTableRecord
100
AcDbRegAppTableRecord
  2
ACAD_DSTYLE_DIMARC_LENGTH_SYMBOL
 70
     0
  0
APPID
  5
435
330
9
100
AcDbSymbolTableRecord
100
AcDbRegAppTableRecord
  2
ACAD_DSTYLE_DIMEXT_LENGTH
 70
     0
  0
ENDTAB
  0
TABLE
  2
DIMSTYLE
  5
A
330
0
100
AcDbSymbolTable
 70
     6
100
AcDbDimStyleTable
 71
     1
340
264
  0
DIMSTYLE
105
57
330
A
100
AcDbSymbolTableRecord
100
AcDbDimStyleTableRecord
  2
Standard
 70
     0
340
55
  0
DIMSTYLE
105
264
330
A
100
AcDbSymbolTableRecord
100
AcDbDimStyleTableRecord
  2
1：1
 70
     0
 41
2.5
 42
0.25
 43
0.2
 44
1.25
 73
     0
 74
     0
 77
     3
 78
     8
 79
     2
140
3.0
141
0.0
143
0.03937007874016
147
0.625
171
     3
172
     1
178
     4
179
     1
271
     2
272
     2
274
     3
283
     0
284
     8
288
     1
289
     0
340
55
341
1CE
342
1CE
1001
ACAD_DSTYLE_DIMARC_LENGTH_SYMBOL
1070
   379
1070
     2
1001
ACAD_DSTYLE_DIMEXT_LENGTH
1070
   378
1040
1.25
1001
ACAD_DSTYLE_DIMJOGGED_JOGANGLE_SYMBOL
1070
   384
1040
1.570796326794896
  0
DIMSTYLE
105
7AA
330
A
100
AcDbSymbolTableRecord
100
AcDbDimStyleTableRecord
  2
2：1
 70
     0
 41
2.5
 42
0.25
 43
0.2
 44
1.25
 73
     0
 74
     0
 77
     3
 78
     8
 79
     2
140
3.0
141
0.0
143
0.03937007874016
144
0.5
147
0.625
171
     3
172
     1
178
     4
179
     1
271
     2
272
     2
274
     3
283
     0
284
     8
288
     1
289
     0
340
55
341
1CE
342
1CE
1001
ACAD_DSTYLE_DIMARC_LENGTH_SYMBOL
1070
   379
1070
     2
1001
ACAD_DSTYLE_DIMEXT_LENGTH
1070
   378
1040
1.25
1001
ACAD_DSTYLE_DIMJOGGED_JOGANGLE_SYMBOL
1070
   384
1040
1.570796326794896
  0
DIMSTYLE
105
7AB
330
A
100
AcDbSymbolTableRecord
100
AcDbDimStyleTableRecord
  2
5：1
 70
     0
 41
2.5
 42
0.25
 43
0.2
 44
1.25
 73
     0
 74
     0
 77
     3
 78
     8
 79
     2
140
3.0
141
0.0
143
0.03937007874016
144
0.2
147
0.625
171
     3
172
     1
178
     4
179
     1
271
     2
272
     2
274
     3
283
     0
284
     8
288
     1
289
     0
340
55
341
1CE
342
1CE
1001
ACAD_DSTYLE_DIMARC_LENGTH_SYMBOL
1070
   379
1070
     2
1001
ACAD_DSTYLE_DIMEXT_LENGTH
1070
   378
1040
1.25
1001
ACAD_DSTYLE_DIMJOGGED_JOGANGLE_SYMBOL
1070
   384
1040
1.570796326794896
  0
DIMSTYLE
105
7AC
330
A
100
AcDbSymbolTableRecord
100
AcDbDimStyleTableRecord
  2
10：1
 70
     0
 41
2.5
 42
0.25
 43
0.2
 44
1.25
 73
     0
 74
     0
 77
     3
 78
     8
 79
     2
140
3.0
141
0.0
143
0.03937007874016
144
0.1
147
0.625
171
     3
172
     1
178
     4
179
     1
271
     2
272
     2
274
     3
283
     0
284
     8
288
     1
289
     0
340
55
341
1CE
342
1CE
1001
ACAD_DSTYLE_DIMARC_LENGTH_SYMBOL
1070
   379
1070
     2
1001
ACAD_DSTYLE_DIMEXT_LENGTH
1070
   378
1040
1.25
1001
ACAD_DSTYLE_DIMJOGGED_JOGANGLE_SYMBOL
1070
   384
1040
1.570796326794896
  0
DIMSTYLE
105
7AD
330
A
100
AcDbSymbolTableRecord
100
AcDbDimStyleTableRecord
  2
1／5
 70
     0
 41
2.5
 42
0.25
 43
0.2
 44
1.25
 73
     0
 74
     0
 77
     3
 78
     8
 79
     2
140
3.0
141
0.0
143
0.03937007874016
144
5.0
147
0.625
171
     3
172
     1
178
     4
179
     1
271
     2
272
     2
274
     3
283
     0
284
     8
288
     1
289
     0
340
55
341
1CE
342
1CE
1001
ACAD_DSTYLE_DIMARC_LENGTH_SYMBOL
1070
   379
1070
     2
1001
ACAD_DSTYLE_DIMEXT_LENGTH
1070
   378
1040
1.25
1001
ACAD_DSTYLE_DIMJOGGED_JOGANGLE_SYMBOL
1070
   384
1040
1.570796326794896
  0
ENDTAB
  0
TABLE
  2
BLOCK_RECORD
  5
1
330
0
100
AcDbSymbolTable
 70
     4
  0
BLOCK_RECORD
  5
6B
102
{ACAD_XDICTIONARY
360
8D8
102
}
330
1
100
AcDbSymbolTableRecord
100
AcDbBlockTableRecord
  2
*Model_Space
340
6E
  0
BLOCK_RECORD
  5
67
330
1
100
AcDbSymbolTableRecord
100
AcDbBlockTableRecord
  2
*Paper_Space
340
6A
  0
BLOCK_RECORD
  5
1CE
330
1
100
AcDbSymbolTableRecord
100
AcDbBlockTableRecord
  2
_Open30
340
0
102
{BLKREFS
331
97C
331
97D
331
985
331
986
102
}
  0
BLOCK_RECORD
  5
383
330
1
100
AcDbSymbolTableRecord
100
AcDbBlockTableRecord
  2
*D1
340
0
  0
BLOCK_RECORD
  5
390
330
1
100
AcDbSymbolTableRecord
100
AcDbBlockTableRecord
  2
*D2
340
0
  0
BLOCK_RECORD
  5
6DC
102
{ACAD_XDICTIONARY
360
6DD
102
}
330
1
100
AcDbSymbolTableRecord
100
AcDbBlockTableRecord
  2
A$C3C162290
340
0
1001
ACAD
1000
DesignCenter Data
1002
{
1070
     1
1070
     1
1002
}
  0
ENDTAB
  0
ENDSEC
  0
SECTION
  2
BLOCKS
  0
BLOCK
  5
6C
330
6B
100
AcDbEntity
  8
0
100
AcDbBlockBegin
  2
*Model_Space
 70
     0
 10
0.0
 20
0.0
 30
0.0
  3
*Model_Space
  1

  0
ENDBLK
  5
6D
330
6B
100
AcDbEntity
  8
0
100
AcDbBlockEnd
  0
BLOCK
  5
68
330
67
100
AcDbEntity
 67
     1
  8
0
100
AcDbBlockBegin
  2
*Paper_Space
 70
     0
 10
0.0
 20
0.0
 30
0.0
  3
*Paper_Space
  1

  0
ENDBLK
  5
69
330
67
100
AcDbEntity
 67
     1
  8
0
100
AcDbBlockEnd
  0
BLOCK
  5
1CF
330
1CE
100
AcDbEntity
  8
0
100
AcDbBlockBegin
  2
_Open30
 70
     0
 10
0.0
 20
0.0
 30
0.0
  3
_Open30
  1

  0
LINE
  5
1D0
330
1CE
100
AcDbEntity
  8
0
  6
ByBlock
 62
     0
370
    -2
100
AcDbLine
 10
-1.0
 20
0.267949
 30
0.0
 11
0.0
 21
0.0
 31
0.0
  0
LINE
  5
1D1
330
1CE
100
AcDbEntity
  8
0
  6
ByBlock
 62
     0
370
    -2
100
AcDbLine
 10
0.0
 20
0.0
 30
0.0
 11
-1.0
 21
-0.267949
 31
0.0
  0
LINE
  5
1D2
330
1CE
100
AcDbEntity
  8
0
  6
ByBlock
 62
     0
370
    -2
100
AcDbLine
 10
0.0
 20
0.0
 30
0.0
 11
-1.0
 21
0.0
 31
0.0
  0
ENDBLK
  5
1D3
330
1CE
100
AcDbEntity
  8
0
100
AcDbBlockEnd
  0
BLOCK
  5
384
330
383
100
AcDbEntity
  8
0
100
AcDbBlockBegin
  2
*D1
 70
     1
 10
0.0
 20
0.0
 30
0.0
  3
*D1
  1

  0
LINE
  5
982
330
383
100
AcDbEntity
  8
0
 62
     0
370
    -2
100
AcDbLine
 10
155.2187117162414
 20
106.5740814182384
 30
0.0
 11
145.4720631462414
 21
106.5740814182384
 31
0.0
  0
LINE
  5
983
330
383
100
AcDbEntity
  8
0
 62
     0
370
    -2
100
AcDbLine
 10
155.2187117162414
 20
126.5740814182384
 30
0.0
 11
145.4720631462414
 21
126.5740814182384
 31
0.0
  0
LINE
  5
984
330
383
100
AcDbEntity
  8
0
 62
     0
370
    -2
100
AcDbLine
 10
146.7220631462414
 20
109.0740814182384
 30
0.0
 11
146.7220631462414
 21
124.0740814182384
 31
0.0
  0
INSERT
  5
985
330
383
100
AcDbEntity
  8
0
 62
     0
370
    -2
100
AcDbBlockReference
  2
_Open30
 10
146.7220631462414
 20
106.5740814182384
 30
0.0
 41
2.5
 42
2.5
 43
2.5
 50
270.0
  0
INSERT
  5
986
330
383
100
AcDbEntity
  8
0
 62
     0
370
    -2
100
AcDbBlockReference
  2
_Open30
 10
146.7220631462414
 20
126.5740814182384
 30
0.0
 41
2.5
 42
2.5
 43
2.5
 50
90.0
  0
MTEXT
  5
987
330
383
100
AcDbEntity
  8
0
 62
     4
100
AcDbMText
 10
144.5970631462413
 20
116.5740814182384
 30
0.0
 40
3.0
 41
0.0
 71
     5
 72
     1
  1
%%C20
 11
0.0000000000000001
 21
1.0
 31
0.0
 73
     1
 44
1.0
1001
ACAD
1000
MTEXTBEGIN
1070
    73
1070
     1
1070
    44
1040
1.0
1070
    74
1070
     0
1000
MTEXTEND
  0
POINT
  5
988
330
383
100
AcDbEntity
  8
Defpoints
 62
     0
100
AcDbPoint
 10
155.4687117162414
 20
106.5740814182384
 30
0.0
  0
POINT
  5
989
330
383
100
AcDbEntity
  8
Defpoints
 62
     0
100
AcDbPoint
 10
155.4687117162414
 20
126.5740814182384
 30
0.0
  0
POINT
  5
98A
330
383
100
AcDbEntity
  8
Defpoints
 62
     0
100
AcDbPoint
 10
146.7220631462414
 20
126.5740814182384
 30
0.0
  0
ENDBLK
  5
385
330
383
100
AcDbEntity
  8
0
100
AcDbBlockEnd
  0
BLOCK
  5
391
330
390
100
AcDbEntity
  8
0
100
AcDbBlockBegin
  2
*D2
 70
     1
 10
0.0
 20
0.0
 30
0.0
  3
*D2
  1

  0
LINE
  5
979
330
390
100
AcDbEntity
  8
0
 62
     0
370
    -2
100
AcDbLine
 10
155.4687117162414
 20
126.8240814182384
 30
0.0
 11
155.4687117162414
 21
147.3920041882385
 31
0.0
  0
LINE
  5
97A
330
390
100
AcDbEntity
  8
0
 62
     0
370
    -2
100
AcDbLine
 10
245.4687117162416
 20
126.3240814182384
 30
0.0
 11
245.4687117162416
 21
147.3920041882385
 31
0.0
  0
LINE
  5
97B
330
390
100
AcDbEntity
  8
0
 62
     0
370
    -2
100
AcDbLine
 10
157.9687117162414
 20
146.1420041882385
 30
0.0
 11
242.9687117162416
 21
146.1420041882385
 31
0.0
  0
INSERT
  5
97C
330
390
100
AcDbEntity
  8
0
 62
     0
370
    -2
100
AcDbBlockReference
  2
_Open30
 10
155.4687117162414
 20
146.1420041882385
 30
0.0
 41
2.5
 42
2.5
 43
2.5
 50
180.0
  0
INSERT
  5
97D
330
390
100
AcDbEntity
  8
0
 62
     0
370
    -2
100
AcDbBlockReference
  2
_Open30
 10
245.4687117162416
 20
146.1420041882385
 30
0.0
 41
2.5
 42
2.5
 43
2.5
  0
MTEXT
  5
97E
330
390
100
AcDbEntity
  8
0
 62
     4
100
AcDbMText
 10
200.4687117162415
 20
148.2670041882385
 30
0.0
 40
3.0
 41
0.0
 71
     5
 72
     1
  1
90
 73
     1
 44
1.0
1001
ACAD
1000
MTEXTBEGIN
1070
    73
1070
     1
1070
    44
1040
1.0
1070
    74
1070
     0
1000
MTEXTEND
  0
POINT
  5
97F
330
390
100
AcDbEntity
  8
Defpoints
 62
     0
100
AcDbPoint
 10
155.4687117162414
 20
126.5740814182384
 30
0.0
  0
POINT
  5
980
330
390
100
AcDbEntity
  8
Defpoints
 62
     0
100
AcDbPoint
 10
245.4687117162416
 20
126.0740814182384
 30
0.0
  0
POINT
  5
981
330
390
100
AcDbEntity
  8
Defpoints
 62
     0
100
AcDbPoint
 10
245.4687117162416
 20
146.1420041882385
 30
0.0
  0
ENDBLK
  5
392
330
390
100
AcDbEntity
  8
0
100
AcDbBlockEnd
  0
BLOCK
  5
6DF
330
6DC
100
AcDbEntity
  8
0
100
AcDbBlockBegin
  2
A$C3C162290
 70
     0
 10
0.0
 20
0.0
 30
0.0
  3
A$C3C162290
  1

  0
LINE
  5
6E0
330
6DC
100
AcDbEntity
  8
0
 62
     3
100
AcDbLine
 10
8.487926473143485
 20
138.4999995915839
 30
0.0
 11
7.999999643143496
 21
138.4999995915839
 31
0.0
  0
LINE
  5
6E1
330
6DC
100
AcDbEntity
  8
0
 62
     3
100
AcDbLine
 10
19.9999996431435
 20
276.9999995915839
 30
0.0
 11
19.9999996431435
 21
-0.0000004084160992
 31
0.0
  0
LINE
  5
6E2
330
6DC
100
AcDbEntity
  8
0
 62
   254
100
AcDbLine
 10
-0.0000003568565035
 20
286.9999995915839
 30
0.0
 11
-0.0000003568565035
 21
-0.0000004084160992
 31
0.0
  0
LINE
  5
6E3
330
6DC
100
AcDbEntity
  8
0
 62
     3
100
AcDbLine
 10
199.9999996431435
 20
-0.0000004084160992
 30
0.0
 11
199.9999996431435
 21
276.9999995915839
 31
0.0
  0
LINE
  5
6E4
330
6DC
100
AcDbEntity
  8
0
 62
     3
100
AcDbLine
 10
19.9999996431435
 20
-0.0000004084160992
 30
0.0
 11
199.9999996431435
 21
-0.0000004084160992
 31
0.0
  0
LINE
  5
6E5
330
6DC
100
AcDbEntity
  8
0
 62
     3
100
AcDbLine
 10
85.32766227314345
 20
276.9999995915839
 30
0.0
 11
199.9999996431435
 21
276.9999995915839
 31
0.0
  0
LINE
  5
6E6
330
6DC
100
AcDbEntity
  8
0
 62
   254
100
AcDbLine
 10
-0.0000003568565035
 20
286.9999995915839
 30
0.0
 11
199.9999996431435
 21
286.9999995915839
 31
0.0
  0
LINE
  5
6E7
330
6DC
100
AcDbEntity
  8
0
 62
     3
100
AcDbLine
 10
51.91491575314353
 20
276.9999995915839
 30
0.0
 11
19.9999996431435
 21
276.9999995915839
 31
0.0
  0
LINE
  5
6E8
330
6DC
100
AcDbEntity
  8
0
 62
     3
100
AcDbLine
 10
147.9999996431435
 20
-0.0000004084160992
 30
0.0
 11
147.9999996431435
 21
39.99999959158391
 31
0.0
  0
LINE
  5
6E9
330
6DC
100
AcDbEntity
  8
0
 62
     3
100
AcDbLine
 10
160.9999996431435
 20
9.9999995915839
 30
0.0
 11
160.9999996431435
 21
37.9999995915839
 31
0.0
  0
LINE
  5
6EA
330
6DC
100
AcDbEntity
  8
0
 62
     3
100
AcDbLine
 10
120.9999996431435
 20
9.9999995915839
 30
0.0
 11
120.9999996431435
 21
23.99999959158389
 31
0.0
  0
LINE
  5
6EB
330
6DC
100
AcDbEntity
  8
0
 62
     3
100
AcDbLine
 10
130.9999996431435
 20
23.99999959158389
 30
0.0
 11
130.9999996431435
 21
-0.0000004084160992
 31
0.0
  0
LINE
  5
6EC
330
6DC
100
AcDbEntity
  8
0
 62
     3
100
AcDbLine
 10
101.9999996431435
 20
39.99999959158389
 30
0.0
 11
101.9999996431435
 21
16.99999959158391
 31
0.0
  0
LINE
  5
6ED
330
6DC
100
AcDbEntity
  8
0
 62
     3
100
AcDbLine
 10
160.9999996431435
 20
37.9999995915839
 30
0.0
 11
160.9999996431435
 21
39.99999959158391
 31
0.0
  0
LINE
  5
6EE
330
6DC
100
AcDbEntity
  8
0
 62
     3
100
AcDbLine
 10
173.9999996431435
 20
16.99999959158391
 30
0.0
 11
173.9999996431435
 21
39.99999959158391
 31
0.0
  0
LINE
  5
6EF
330
6DC
100
AcDbEntity
  8
0
 62
     3
100
AcDbLine
 10
199.9999996431435
 20
39.99999959158391
 30
0.0
 11
88.75456500314362
 21
39.99999959158392
 31
0.0
  0
LINE
  5
6F0
330
6DC
100
AcDbEntity
  8
0
 62
     3
100
AcDbLine
 10
199.9999996431435
 20
30.9999995915839
 30
0.0
 11
88.75456500314355
 21
30.99999959158391
 31
0.0
  0
LINE
  5
6F1
330
6DC
100
AcDbEntity
  8
0
 62
     3
100
AcDbLine
 10
199.9999996431435
 20
16.99999959158391
 30
0.0
 11
88.75456500314355
 21
16.99999959158391
 31
0.0
  0
LINE
  5
6F2
330
6DC
100
AcDbEntity
  8
0
 62
     3
100
AcDbLine
 10
199.9999996431435
 20
9.9999995915839
 30
0.0
 11
88.69655714314342
 21
9.9999995915839
 31
0.0
  0
LINE
  5
6F3
330
6DC
100
AcDbEntity
  8
0
 62
     3
100
AcDbLine
 10
186.9999996431435
 20
16.99999959158391
 30
0.0
 11
186.9999996431435
 21
39.99999959158391
 31
0.0
  0
LINE
  5
6F4
330
6DC
100
AcDbEntity
  8
0
 62
     3
100
AcDbLine
 10
88.75456500314355
 20
39.99999959158392
 30
0.0
 11
88.75456500314355
 21
-0.0000004084160992
 31
0.0
  0
LINE
  5
6F5
330
6DC
100
AcDbEntity
  8
0
 62
     3
100
AcDbLine
 10
147.9999996431435
 20
23.99999959158389
 30
0.0
 11
88.75456500314355
 21
23.99999959158389
 31
0.0
  0
LINE
  5
6F6
330
6DC
100
AcDbEntity
  8
0
 62
     3
100
AcDbLine
 10
131.2783245731434
 20
4.832860851583888
 30
0.0
 11
147.9999996431435
 21
4.832860851583888
 31
0.0
  0
TEXT
  5
6F7
330
6DC
100
AcDbEntity
  8
0
 62
     3
100
AcDbText
 10
132.1643250564592
 20
19.07309644494925
 30
0.0
 40
2.5
  1
******
  7
高2.5
100
AcDbText
  0
TEXT
  5
6F8
330
6DC
100
AcDbEntity
  8
0
 62
     3
100
AcDbText
 10
103.1963683383957
 20
19.2978139965678
 30
0.0
 40
2.5
  1
*****
  7
高2.5
100
AcDbText
  0
TEXT
  5
6F9
330
6DC
100
AcDbEntity
  8
0
 62
     3
100
AcDbText
 10
103.4612760930931
 20
32.31224911534179
 30
0.0
 40
4.5
  1
**********
  7
高4.5
100
AcDbText
1001
ACAD
1000
ACAD_MTEXT_DEFINED_HEIGHT_BEGIN
1070
    46
1040
0.0
1000
ACAD_MTEXT_DEFINED_HEIGHT_END
  0
TEXT
  5
6FA
330
6DC
100
AcDbEntity
  8
0
 62
     3
100
AcDbText
 10
190.0655887366175
 20
36.51369169028749
 30
0.0
 40
2.0
  1
DEF
  7
高2
100
AcDbText
  0
TEXT
  5
6FB
330
6DC
100
AcDbEntity
  8
0
 62
     3
100
AcDbText
 10
176.1264903829093
 20
36.5136916902874
 30
0.0
 40
2.0
  1
DESN
  7
高2
100
AcDbText
  0
TEXT
  5
6FC
330
6DC
100
AcDbEntity
  8
0
 62
     3
100
AcDbText
 10
149.8721234429091
 20
36.51369169028749
 30
0.0
 40
2.0
  1
APPD
  7
高2
100
AcDbText
  0
TEXT
  5
6FD
330
6DC
100
AcDbEntity
  8
0
 62
     3
100
AcDbText
 10
162.9848595431434
 20
36.51369169028751
 30
0.0
 40
2.0
  1
CHCK
  7
高2
100
AcDbText
  0
TEXT
  5
6FE
330
6DC
100
AcDbEntity
  8
0
 62
     3
100
AcDbText
 10
121.9271652822962
 20
14.16839841481461
 30
0.0
 40
2.0
  1
SCALE
 41
0.8
  7
高2
100
AcDbText
  0
TEXT
  5
6FF
330
6DC
100
AcDbEntity
  8
0
 62
     3
100
AcDbText
 10
90.43914370618962
 20
14.16839841481463
 30
0.0
 40
2.0
  1
3AD　ANGLE
 41
1.5
  7
高2
100
AcDbText
  0
TEXT
  5
700
330
6DC
100
AcDbEntity
  8
0
 62
     3
100
AcDbText
 10
121.1965709731449
 20
20.91993648377173
 30
0.0
 40
2.0
  1
REMARKS
 41
0.7
  7
高2
100
AcDbText
  0
TEXT
  5
701
330
6DC
100
AcDbEntity
  8
0
 62
     3
100
AcDbText
 10
90.22223535314344
 20
20.99999959158391
 30
0.0
 40
2.0
  1
MATERIAL
 41
0.7
  7
高2
100
AcDbText
  0
TEXT
  5
702
330
6DC
100
AcDbEntity
  8
0
 62
     3
100
AcDbText
 10
90.7987225558976
 20
27.99999959158389
 30
0.0
 40
2.0
  1
MODEL
  7
高2
100
AcDbText
  0
TEXT
  5
703
330
6DC
100
AcDbEntity
  8
0
 62
     3
100
AcDbText
 10
90.43564343722879
 20
36.70702094218292
 30
0.0
 40
2.0
  1
CONPONENTS
 41
0.5
  7
高2
100
AcDbText
  0
TEXT
  5
704
330
6DC
100
AcDbEntity
  8
0
 62
     3
100
AcDbText
 10
103.1427589083956
 20
25.08748071939586
 30
0.0
 40
4.5
  1
********
  7
高4.5
100
AcDbText
  0
TEXT
  5
705
330
6DC
100
AcDbEntity
  8
0
 62
     3
100
AcDbText
 10
151.065045373762
 20
1.231861447008211
 30
0.0
 40
6.299999999999998
  1
*-********
 41
0.6
  7
高6.3
100
AcDbText
1001
ACAD
1000
ACAD_MTEXT_DEFINED_HEIGHT_BEGIN
1070
    46
1040
0.0
1000
ACAD_MTEXT_DEFINED_HEIGHT_END
  0
TEXT
  5
706
330
6DC
100
AcDbEntity
  8
0
 62
     3
100
AcDbText
 10
164.563509393473
 20
11.1008887498169
 30
0.0
 40
3.2
  1
******
  7
高3.2
100
AcDbText
1001
ACAD
1000
ACAD_MTEXT_DEFINED_HEIGHT_BEGIN
1070
    46
1040
0.0
1000
ACAD_MTEXT_DEFINED_HEIGHT_END
  0
TEXT
  5
707
330
6DC
100
AcDbEntity
  8
0
 62
     3
100
AcDbText
 10
134.7875975377898
 20
11.10091659415177
 30
0.0
 40
3.2
  1
1/1
  7
高3.2
100
AcDbText
  0
TEXT
  5
708
330
6DC
100
AcDbEntity
  8
0
 62
     3
100
AcDbText
 10
131.8649265131434
 20
0.8168777647198622
 30
0.0
 40
3.2
  1
ZK-A4Y
 41
0.8
  7
高3.2
100
AcDbText
  0
TEXT
  5
709
330
6DC
100
AcDbEntity
  8
0
 62
     3
100
AcDbText
 10
89.58526604314341
 20
6.524620013771727
 30
0.0
 40
2.0
  1
NICHIDO IND.CO.LTD
 41
1.3
  7
高2
100
AcDbText
  0
TEXT
  5
70A
330
6DC
100
AcDbEntity
  8
0
 62
     3
100
AcDbText
 10
90.76678930810066
 20
32.14052779946884
 30
0.0
 40
3.2
  1
品 名
  7
高3.2
100
AcDbText
1001
ACAD
1000
ACAD_MTEXT_DEFINED_HEIGHT_BEGIN
1070
    46
1040
0.0
1000
ACAD_MTEXT_DEFINED_HEIGHT_END
  0
TEXT
  5
70B
330
6DC
100
AcDbEntity
  8
0
 62
     3
100
AcDbText
 10
90.76678930810066
 20
24.49999959158389
 30
0.0
 40
3.2
  1
型 式
  7
高3.2
100
AcDbText
1001
ACAD
1000
ACAD_MTEXT_DEFINED_HEIGHT_BEGIN
1070
    46
1040
3.064735913775953
1000
ACAD_MTEXT_DEFINED_HEIGHT_END
  0
TEXT
  5
70C
330
6DC
100
AcDbEntity
  8
0
 62
     3
100
AcDbText
 10
90.76678930810066
 20
17.4999995915839
 30
0.0
 40
3.2
  1
材 質
  7
高3.2
100
AcDbText
1001
ACAD
1000
ACAD_MTEXT_DEFINED_HEIGHT_BEGIN
1070
    46
1040
0.0
1000
ACAD_MTEXT_DEFINED_HEIGHT_END
  0
TEXT
  5
70D
330
6DC
100
AcDbEntity
  8
0
 62
     3
100
AcDbText
 10
90.46175435810059
 20
10.46743958383014
 30
0.0
 40
3.2
  1
第 三 角 法
  7
高3.2
100
AcDbText
1001
ACAD
1000
ACAD_MTEXT_DEFINED_HEIGHT_BEGIN
1070
    46
1040
0.0
1000
ACAD_MTEXT_DEFINED_HEIGHT_END
  0
TEXT
  5
70E
330
6DC
100
AcDbEntity
  8
0
 62
     3
100
AcDbText
 10
88.86828696562952
 20
1.140527799468832
 30
0.0
 40
3.2
  1
日動工業株式会社
 41
1.199999999999999
  7
高3.2
100
AcDbText
1001
ACAD
1000
ACAD_MTEXT_DEFINED_HEIGHT_BEGIN
1070
    46
1040
0.0
1000
ACAD_MTEXT_DEFINED_HEIGHT_END
  0
TEXT
  5
70F
330
6DC
100
AcDbEntity
  8
0
 62
     3
100
AcDbText
 10
122.503911165108
 20
17.38457812475146
 30
0.0
 40
3.2
  1
備考
  7
高3.2
100
AcDbText
1001
ACAD
1000
ACAD_MTEXT_DEFINED_HEIGHT_BEGIN
1070
    46
1040
0.0
1000
ACAD_MTEXT_DEFINED_HEIGHT_END
  0
TEXT
  5
710
330
6DC
100
AcDbEntity
  8
0
 62
     3
100
AcDbText
 10
132.1529686121434
 20
6.146229617154192
 30
0.0
 40
2.5
  1
出図コード
  7
高2.5
100
AcDbText
1001
ACAD
1000
ACAD_MTEXT_DEFINED_HEIGHT_BEGIN
1070
    46
1040
0.0
1000
ACAD_MTEXT_DEFINED_HEIGHT_END
  0
TEXT
  5
711
330
6DC
100
AcDbEntity
  8
0
 62
     3
100
AcDbText
 10
122.3451450470205
 20
10.45323450199681
 30
0.0
 40
3.2
  1
尺度
  7
高3.2
100
AcDbText
1001
ACAD
1000
ACAD_MTEXT_DEFINED_HEIGHT_BEGIN
1070
    46
1040
0.0
1000
ACAD_MTEXT_DEFINED_HEIGHT_END
  0
TEXT
  5
712
330
6DC
100
AcDbEntity
  8
0
 62
     3
100
AcDbText
 10
149.4914065287993
 20
11.58471295011431
 30
0.0
 40
3.2
  1
作成日
  7
高3.2
100
AcDbText
1001
ACAD
1000
ACAD_MTEXT_DEFINED_HEIGHT_BEGIN
1070
    46
1040
0.0
1000
ACAD_MTEXT_DEFINED_HEIGHT_END
  0
TEXT
  5
713
330
6DC
100
AcDbEntity
  8
0
 62
     3
100
AcDbText
 10
149.3858805356633
 20
32.14052779946884
 30
0.0
 40
3.2
  1
承 認
  7
高3.2
100
AcDbText
1001
ACAD
1000
ACAD_MTEXT_DEFINED_HEIGHT_BEGIN
1070
    46
1040
0.0
1000
ACAD_MTEXT_DEFINED_HEIGHT_END
  0
TEXT
  5
714
330
6DC
100
AcDbEntity
  8
0
 62
     3
100
AcDbText
 10
162.3858805356632
 20
32.14052779946884
 30
0.0
 40
3.2
  1
検 図
  7
高3.2
100
AcDbText
1001
ACAD
1000
ACAD_MTEXT_DEFINED_HEIGHT_BEGIN
1070
    46
1040
0.0
1000
ACAD_MTEXT_DEFINED_HEIGHT_END
  0
TEXT
  5
715
330
6DC
100
AcDbEntity
  8
0
 62
     3
100
AcDbText
 10
175.3858805356632
 20
32.14052779946884
 30
0.0
 40
3.2
  1
設 計
  7
高3.2
100
AcDbText
1001
ACAD
1000
ACAD_MTEXT_DEFINED_HEIGHT_BEGIN
1070
    46
1040
0.0
1000
ACAD_MTEXT_DEFINED_HEIGHT_END
  0
TEXT
  5
716
330
6DC
100
AcDbEntity
  8
0
 62
     3
100
AcDbText
 10
188.6865170556632
 20
32.14052779946884
 30
0.0
 40
3.2
  1
製 図
  7
高3.2
100
AcDbText
1001
ACAD
1000
ACAD_MTEXT_DEFINED_HEIGHT_BEGIN
1070
    46
1040
0.0
1000
ACAD_MTEXT_DEFINED_HEIGHT_END
  0
LINE
  5
717
330
6DC
100
AcDbEntity
  8
0
 62
     3
100
AcDbLine
 10
59.25293360287717
 20
278.4481801852499
 30
0.0
 11
59.25293360287717
 21
275.2948313915841
 31
0.0
  0
LINE
  5
718
330
6DC
100
AcDbEntity
  8
0
 62
     3
100
AcDbLine
 10
59.89576267797656
 20
277.2171083655226
 30
0.0
 11
59.89576267797656
 21
275.2948313915841
 31
0.0
  0
LINE
  5
719
330
6DC
100
AcDbEntity
  8
0
 62
     3
100
AcDbLine
 10
61.6998595658506
 20
278.4481801852499
 30
0.0
 11
61.6998595658506
 21
277.0597132644989
 31
0.0
  0
LINE
  5
71A
330
6DC
100
AcDbEntity
  8
0
 62
     3
100
AcDbLine
 10
62.34268796709443
 20
278.4481801852499
 30
0.0
 11
62.34268796709443
 21
274.8721993930075
 31
0.0
  0
LINE
  5
71B
330
6DC
100
AcDbEntity
  8
0
 62
     3
100
AcDbLine
 10
63.36663412467465
 20
278.4265210809052
 30
0.0
 11
63.36663412467465
 21
275.2732106969974
 31
0.0
  0
LINE
  5
71C
330
6DC
100
AcDbEntity
  8
0
 62
     3
100
AcDbLine
 10
64.38515577894964
 20
278.4265069299419
 30
0.0
 11
64.38515577894964
 21
275.2731965460339
 31
0.0
  0
LINE
  5
71D
330
6DC
100
AcDbEntity
  8
0
 62
     3
100
AcDbLine
 10
68.15597884937665
 20
278.4264597600639
 30
0.0
 11
68.15592359323386
 21
275.2731500500114
 31
0.0
  0
LINE
  5
71E
330
6DC
100
AcDbEntity
  8
0
 62
     3
100
AcDbLine
 10
71.27184308874848
 20
278.4264597600639
 30
0.0
 11
71.27189834489104
 21
275.2731500500114
 31
0.0
  0
LINE
  5
71F
330
6DC
100
AcDbEntity
  8
0
 62
     3
100
AcDbLine
 10
70.23141843857614
 20
277.05262965244
 30
0.0
 11
69.19640349954898
 21
277.05262965244
 31
0.0
  0
LINE
  5
720
330
6DC
100
AcDbEntity
  8
0
 62
     3
100
AcDbLine
 10
70.23141170002213
 20
276.6470738235357
 30
0.0
 11
69.19641091195831
 21
276.6470738235357
 31
0.0
  0
LINE
  5
721
330
6DC
100
AcDbEntity
  8
0
 62
     3
100
AcDbLine
 10
70.23144269737054
 20
278.4264597600639
 30
0.0
 11
70.23141843857614
 21
277.05262965244
 31
0.0
  0
LINE
  5
722
330
6DC
100
AcDbEntity
  8
0
 62
     3
100
AcDbLine
 10
70.23141170002213
 20
276.6470738235357
 30
0.0
 11
70.23138744122753
 21
275.2731500500114
 31
0.0
  0
LINE
  5
723
330
6DC
100
AcDbEntity
  8
0
 62
     3
100
AcDbLine
 10
69.19637924075459
 20
278.4264597600639
 30
0.0
 11
69.19640349954898
 21
277.05262965244
 31
0.0
  0
LINE
  5
724
330
6DC
100
AcDbEntity
  8
0
 62
     3
100
AcDbLine
 10
69.19641091195831
 20
276.6470738235357
 30
0.0
 11
69.19643449689714
 21
275.2731500500114
 31
0.0
  0
LINE
  5
725
330
6DC
100
AcDbEntity
  8
0
 62
     3
100
AcDbLine
 10
72.29826422648716
 20
278.4264597600639
 30
0.0
 11
72.29820897034461
 21
275.2731500500114
 31
0.0
  0
LINE
  5
726
330
6DC
100
AcDbEntity
  8
0
 62
     3
100
AcDbLine
 10
73.31676431738968
 20
278.4264597600639
 30
0.0
 11
73.31681889967693
 21
275.2731500500114
 31
0.0
  0
LINE
  5
727
330
6DC
100
AcDbEntity
  8
0
 62
     3
100
AcDbLine
 10
74.35500991471371
 20
278.4264597600639
 30
0.0
 11
74.35495533242647
 21
275.2731500500114
 31
0.0
  0
ARC
  5
728
330
6DC
100
AcDbEntity
  8
0
 62
     3
100
AcDbCircle
 10
66.62693773325168
 20
276.8588908343133
 30
0.0
 40
2.008364022758428
100
AcDbArc
 50
97.70152399999972
 51
266.0248408089554
  0
ARC
  5
729
330
6DC
100
AcDbEntity
  8
0
 62
     3
100
AcDbCircle
 10
78.74673843866117
 20
276.8387169513708
 30
0.0
 40
2.030175374321248
100
AcDbArc
 50
0.3142499999973636
 51
69.00558199999754
  0
ARC
  5
72A
330
6DC
100
AcDbEntity
  8
0
 62
     3
100
AcDbCircle
 10
79.19020739389337
 20
276.8387169513708
 30
0.0
 40
2.030175374321248
100
AcDbArc
 50
110.9944180000024
 51
148.1166110000007
  0
ARC
  5
72B
330
6DC
100
AcDbEntity
  8
0
 62
     3
100
AcDbCircle
 10
78.74673843866117
 20
276.8609865246051
 30
0.0
 40
2.030175374321248
100
AcDbArc
 50
290.9944180000024
 51
359.685749999999
  0
ARC
  5
72C
330
6DC
100
AcDbEntity
  8
0
 62
     3
100
AcDbCircle
 10
79.19020739389337
 20
276.8609865246051
 30
0.0
 40
2.030175374321248
100
AcDbArc
 50
211.8833889999977
 51
249.0055819999976
  0
ARC
  5
72D
330
6DC
100
AcDbEntity
  8
0
 62
     3
100
AcDbCircle
 10
78.96847325320504
 20
277.6804317521362
 30
0.0
 40
1.168726044333501
100
AcDbArc
 50
64.3651719999999
 51
115.6348280000001
  0
ARC
  5
72E
330
6DC
100
AcDbEntity
  8
0
 62
     3
100
AcDbCircle
 10
78.96847325320504
 20
276.0192717238397
 30
0.0
 40
1.168726044333501
100
AcDbArc
 50
244.3651719999999
 51
295.6348280000002
  0
ARC
  5
72F
330
6DC
100
AcDbEntity
  8
0
 62
     3
100
AcDbCircle
 10
78.96847325320504
 20
277.7026325921198
 30
0.0
 40
0.5736005406576802
100
AcDbArc
 50
19.48660599999859
 51
160.5133940000014
  0
ARC
  5
730
330
6DC
100
AcDbEntity
  8
0
 62
     3
100
AcDbCircle
 10
78.96847325320504
 20
275.9970715577115
 30
0.0
 40
0.5736005406576802
100
AcDbArc
 50
199.4866059999986
 51
340.5133940000014
  0
LINE
  5
731
330
6DC
100
AcDbEntity
  8
0
 62
     3
100
AcDbLine
 10
73.65396743405449
 20
274.8505456795062
 30
0.0
 11
71.96106110982238
 21
274.8505456795062
 31
0.0
  0
LINE
  5
732
330
6DC
100
AcDbEntity
  8
0
 62
     3
100
AcDbLine
 10
73.65396743405449
 20
275.0542049968205
 30
0.0
 11
73.65396743405449
 21
274.8505456795062
 31
0.0
  0
LINE
  5
733
330
6DC
100
AcDbEntity
  8
0
 62
     3
100
AcDbLine
 10
71.6090468792688
 20
278.8490627828584
 30
0.0
 11
69.89423958070552
 21
278.8490627828584
 31
0.0
  0
LINE
  5
734
330
6DC
100
AcDbEntity
  8
0
 62
     3
100
AcDbLine
 10
71.6090468792688
 20
278.8490627828584
 30
0.0
 11
71.6090468792688
 21
278.6454984791553
 31
0.0
  0
LINE
  5
735
330
6DC
100
AcDbEntity
  8
0
 62
     3
100
AcDbLine
 10
71.6090468792688
 20
275.0542049968205
 30
0.0
 11
71.6090468792688
 21
274.8504506658949
 31
0.0
  0
LINE
  5
736
330
6DC
100
AcDbEntity
  8
0
 62
     3
100
AcDbLine
 10
71.6090468792688
 20
274.8504506658949
 30
0.0
 11
69.89423958070552
 21
274.8504506658949
 31
0.0
  0
LINE
  5
737
330
6DC
100
AcDbEntity
  8
0
 62
     3
100
AcDbLine
 10
73.65396743405449
 20
278.8491577964696
 30
0.0
 11
73.65396743405449
 21
278.6454984791553
 31
0.0
  0
LINE
  5
738
330
6DC
100
AcDbEntity
  8
0
 62
     3
100
AcDbLine
 10
73.65396743405449
 20
278.8491577964696
 30
0.0
 11
71.96106110982238
 21
278.8491577964696
 31
0.0
  0
LINE
  5
739
330
6DC
100
AcDbEntity
  8
0
 62
     3
100
AcDbLine
 10
71.96106110982238
 20
278.8491577964696
 30
0.0
 11
71.96106110982238
 21
278.6454984791553
 31
0.0
  0
LINE
  5
73A
330
6DC
100
AcDbEntity
  8
0
 62
     3
100
AcDbLine
 10
74.01780679804892
 20
275.0542049968205
 30
0.0
 11
74.01780679804892
 21
274.8505456795062
 31
0.0
  0
LINE
  5
73B
330
6DC
100
AcDbEntity
  8
0
 62
     3
100
AcDbLine
 10
75.84572495832481
 20
274.8505456795062
 30
0.0
 11
74.01780679804892
 21
274.8505456795062
 31
0.0
  0
LINE
  5
73C
330
6DC
100
AcDbEntity
  8
0
 62
     3
100
AcDbLine
 10
75.37351000561624
 20
278.2063293952258
 30
0.0
 11
75.37351000561624
 21
275.4933740807501
 31
0.0
  0
LINE
  5
73D
330
6DC
100
AcDbEntity
  8
0
 62
     3
100
AcDbLine
 10
75.37351000561624
 20
275.4933740807501
 30
0.0
 11
75.55646039880094
 21
275.4933740807501
 31
0.0
  0
ARC
  5
73E
330
6DC
100
AcDbEntity
  8
0
 62
     3
100
AcDbCircle
 10
74.62097053296566
 20
276.8498517379879
 30
0.0
 40
1.647777933922859
100
AcDbArc
 50
304.5919550000009
 51
55.40804499999918
  0
LINE
  5
73F
330
6DC
100
AcDbEntity
  8
0
 62
     3
100
AcDbLine
 10
75.84572495832481
 20
278.8491577964696
 30
0.0
 11
74.01780679804892
 21
278.8491577964696
 31
0.0
  0
LINE
  5
740
330
6DC
100
AcDbEntity
  8
0
 62
     3
100
AcDbLine
 10
74.01780679804892
 20
278.8491577964696
 30
0.0
 11
74.01780679804892
 21
278.6454984791553
 31
0.0
  0
LINE
  5
741
330
6DC
100
AcDbEntity
  8
0
 62
     3
100
AcDbLine
 10
71.96106110982238
 20
275.0542049968205
 30
0.0
 11
71.96106110982238
 21
274.8505456795062
 31
0.0
  0
LINE
  5
742
330
6DC
100
AcDbEntity
  8
0
 62
     3
100
AcDbLine
 10
75.37351000561624
 20
278.2063293952258
 30
0.0
 11
75.55646039880094
 21
278.2063293952258
 31
0.0
  0
LINE
  5
743
330
6DC
100
AcDbEntity
  8
0
 62
     3
100
AcDbLine
 10
64.72230027005207
 20
275.0541986224044
 30
0.0
 11
64.72229622691975
 21
274.8505204371389
 31
0.0
  0
LINE
  5
744
330
6DC
100
AcDbEntity
  8
0
 62
     3
100
AcDbLine
 10
58.91573048621217
 20
274.8721993930075
 30
0.0
 11
60.23296579464136
 21
274.8721993930075
 31
0.0
  0
ARC
  5
745
330
6DC
100
AcDbEntity
  8
0
 62
     3
100
AcDbCircle
 10
53.62514174043872
 20
276.8969319931671
 30
0.0
 40
14.16402202796531
100
AcDbArc
 50
353.8660059999992
 51
357.694034000001
  0
LINE
  5
746
330
6DC
100
AcDbEntity
  8
0
 62
     3
100
AcDbLine
 10
66.82941578205123
 20
276.3305396837151
 30
0.0
 11
67.77769474950878
 21
276.3270309186513
 31
0.0
  0
LWPOLYLINE
  5
747
330
6DC
100
AcDbEntity
  8
0
 62
     3
100
AcDbPolyline
 90
       64
 70
     0
 43
0.0
 10
66.83324530228515
 20
277.3655957279217
 10
66.81531333625571
 20
277.4804085585561
 10
66.79377759155113
 20
277.5903480669433
 10
66.76880518431062
 20
277.6945638475691
 10
66.7405874894671
 20
277.7922499693764
 10
66.70934418388106
 20
277.8826523881731
 10
66.67531583392997
 20
277.965071642055
 10
66.63876524321927
 20
278.0388702638143
 10
66.59997610487244
 20
278.1034788456387
 10
66.5592476106865
 20
278.1583980606774
 10
66.51689445113311
 20
278.2032020323179
 10
66.47324411993621
 20
278.2375457465958
 10
66.42863354479527
 20
278.2611630306287
 10
66.3834084135301
 20
278.2738719434584
 10
66.3379177832378
 20
278.275574102197
 10
66.29251340643645
 20
278.2662553558807
 10
66.24754568793401
 20
278.2459891547484
 10
66.20336301097154
 20
278.2149318332525
 10
66.1603070202366
 20
278.1733226100598
 10
66.11870925258563
 20
278.1214835880512
 10
66.07889248475498
 20
278.059815711189
 10
66.04116399480678
 20
277.9887953952409
 10
66.00581556212842
 20
277.9089711585015
 10
65.97312009815687
 20
277.8209609263721
 10
65.94333029866698
 20
277.7254446189504
 10
65.91667729606047
 20
277.6231607817542
 10
65.89336594237898
 20
277.5148991733112
 10
65.8735768308693
 20
277.4014967220273
 10
65.85746360056259
 20
277.2838307876325
 10
65.84514956699672
 20
277.1628104010602
 10
65.8367310914939
 20
277.0393708736045
 10
65.8322728641724
 20
276.9144670583663
 10
65.83180857780234
 20
276.7890632424218
 10
65.83534294937158
 20
276.6641291036907
 10
65.84284767695293
 20
276.5406309508153
 10
65.85426548283772
 20
276.4195222891857
 10
65.86950809196878
 20
276.3017404516621
 10
65.88845690579546
 20
276.1881951430336
 10
65.91096637155192
 20
276.0797643968855
 10
65.93686196068961
 20
275.9772851416234
 10
65.9659442120103
 20
275.8815511789078
 10
65.9979873839552
 20
275.7933010542562
 10
66.03274417159309
 20
275.7132180570435
 10
66.06994638047467
 20
275.6419207865263
 10
66.10930560048927
 20
275.5799597825655
 10
66.1505179228518
 20
275.5278141563501
 10
66.1932652878138
 20
275.4858875472644
 10
66.23721683237431
 20
275.4545040797554
 10
66.28203293341198
 20
275.4339056679111
 10
66.32736722925165
 20
275.4242513416061
 10
66.37286931508583
 20
275.425616572645
 10
66.41818743839599
 20
275.437989905486
 10
66.46297119437463
 20
275.4612770003731
 10
66.50687489520167
 20
275.4952965902041
 10
66.54955824390071
 20
275.5397865452286
 10
66.59069239903693
 20
275.5944018514821
 10
66.62995862700654
 20
275.6587220231956
 10
66.66705369287956
 20
275.7322484073737
 10
66.70169120811171
 20
275.81441361777
 10
66.73360297825388
 20
275.9045822087433
 10
66.76254237222997
 20
276.0020574138105
 10
66.78828567004734
 20
276.1060851887801
 10
66.81063475821884
 20
276.2158622980159
 10
66.82941578205123
 20
276.3305396837151
  0
LINE
  5
748
330
6DC
100
AcDbEntity
  8
0
 62
     3
100
AcDbLine
 10
66.83324530228515
 20
277.3655957279217
 30
0.0
 11
67.7815242697427
 21
277.3620869628577
 31
0.0
  0
ARC
  5
749
330
6DC
100
AcDbEntity
  8
0
 62
     3
100
AcDbCircle
 10
53.62514174043872
 20
276.8969319931671
 30
0.0
 40
14.16402202796531
100
AcDbArc
 50
1.881965999999206
 51
5.709993999999093
  0
LINE
  5
74A
330
6DC
100
AcDbEntity
  8
0
 62
     3
100
AcDbLine
 10
64.72236630803535
 20
278.8491402896916
 30
0.0
 11
64.72236293875835
 21
278.6454998403284
 31
0.0
  0
LINE
  5
74B
330
6DC
100
AcDbEntity
  8
0
 62
     3
100
AcDbLine
 10
63.02939394595137
 20
275.0542036356474
 30
0.0
 11
63.02939057667436
 21
274.8505631862842
 31
0.0
  0
LINE
  5
74C
330
6DC
100
AcDbEntity
  8
0
 62
     3
100
AcDbLine
 10
63.02945998378049
 20
278.8491759773598
 30
0.0
 11
63.02945661450348
 21
278.6454971182388
 31
0.0
  0
LINE
  5
74D
330
6DC
100
AcDbEntity
  8
0
 62
     3
100
AcDbLine
 10
60.23296579464136
 20
275.075858710322
 30
0.0
 11
60.23296579464136
 21
274.8721993930075
 31
0.0
  0
LINE
  5
74E
330
6DC
100
AcDbEntity
  8
0
 62
     3
100
AcDbLine
 10
59.89576267797656
 20
277.2171083655226
 30
0.0
 11
61.3613307857986
 21
274.8721993930075
 31
0.0
  0
LINE
  5
74F
330
6DC
100
AcDbEntity
  8
0
 62
     3
100
AcDbLine
 10
61.3613307857986
 20
274.8721993930075
 30
0.0
 11
62.34268796709443
 21
274.8721993930075
 31
0.0
  0
LINE
  5
750
330
6DC
100
AcDbEntity
  8
0
 62
     3
100
AcDbLine
 10
62.67989108375922
 20
278.870811509971
 30
0.0
 11
62.67989108375922
 21
278.6671521926566
 31
0.0
  0
LINE
  5
751
330
6DC
100
AcDbEntity
  8
0
 62
     3
100
AcDbLine
 10
61.36265644918558
 20
278.870811509971
 30
0.0
 11
62.67989108375922
 21
278.870811509971
 31
0.0
  0
LINE
  5
752
330
6DC
100
AcDbEntity
  8
0
 62
     3
100
AcDbLine
 10
61.36265644918558
 20
278.870811509971
 30
0.0
 11
61.36265644918558
 21
278.6671521926566
 31
0.0
  0
LINE
  5
753
330
6DC
100
AcDbEntity
  8
0
 62
     3
100
AcDbLine
 10
61.6998595658506
 20
277.0597132644989
 30
0.0
 11
60.51132621591159
 21
278.870811509971
 31
0.0
  0
LINE
  5
754
330
6DC
100
AcDbEntity
  8
0
 62
     3
100
AcDbLine
 10
58.91573048621217
 20
278.870811509971
 30
0.0
 11
60.51132621591159
 21
278.870811509971
 31
0.0
  0
LINE
  5
755
330
6DC
100
AcDbEntity
  8
0
 62
     3
100
AcDbLine
 10
67.81877573271163
 20
278.8490627828584
 30
0.0
 11
69.53358235741939
 21
278.8490627828583
 31
0.0
  0
LINE
  5
756
330
6DC
100
AcDbEntity
  8
0
 62
     3
100
AcDbLine
 10
67.81877573271163
 20
278.6454984791553
 30
0.0
 11
67.81877573271163
 21
278.8490627828584
 31
0.0
  0
LINE
  5
757
330
6DC
100
AcDbEntity
  8
0
 62
     3
100
AcDbLine
 10
67.81877573271163
 20
274.8504506658949
 30
0.0
 11
67.81877573271163
 21
275.0542049968205
 31
0.0
  0
LINE
  5
758
330
6DC
100
AcDbEntity
  8
0
 62
     3
100
AcDbLine
 10
67.81877573271163
 20
274.8504506658948
 30
0.0
 11
69.53358235741939
 21
274.8504506658949
 31
0.0
  0
LINE
  5
759
330
6DC
100
AcDbEntity
  8
0
 62
     3
100
AcDbLine
 10
69.89423958070552
 20
275.0542049968205
 30
0.0
 11
69.89423958070552
 21
274.8504506658949
 31
0.0
  0
LINE
  5
75A
330
6DC
100
AcDbEntity
  8
0
 62
     3
100
AcDbLine
 10
69.53358235741939
 20
275.0542049968205
 30
0.0
 11
69.53358235741939
 21
274.8504506658949
 31
0.0
  0
LINE
  5
75B
330
6DC
100
AcDbEntity
  8
0
 62
     3
100
AcDbLine
 10
69.53358235741939
 20
278.6454984791553
 30
0.0
 11
69.53358235741939
 21
278.8490627828584
 31
0.0
  0
LINE
  5
75C
330
6DC
100
AcDbEntity
  8
0
 62
     3
100
AcDbLine
 10
69.89423958070552
 20
278.6454984791553
 30
0.0
 11
69.89423958070552
 21
278.8490627828584
 31
0.0
  0
LINE
  5
75D
330
6DC
100
AcDbEntity
  8
0
 62
     3
100
AcDbLine
 10
58.91573048621217
 20
275.075858710322
 30
0.0
 11
58.91573048621217
 21
274.8721993930075
 31
0.0
  0
LINE
  5
75E
330
6DC
100
AcDbEntity
  8
0
 62
     3
100
AcDbLine
 10
58.91573048621217
 20
278.870811509971
 30
0.0
 11
58.91573048621217
 21
278.6671521926566
 31
0.0
  0
ARC
  5
75F
330
6DC
100
AcDbEntity
  8
0
 62
     3
100
AcDbCircle
 10
76.0173242060589
 20
277.2693247024529
 30
0.0
 40
1.579833094016801
100
AcDbArc
 50
17.30874900000322
 51
23.76507099999849
  0
ARC
  5
760
330
6DC
100
AcDbEntity
  8
0
 62
     3
100
AcDbCircle
 10
74.67127580883515
 20
276.8498517379879
 30
0.0
 40
2.989728616463745
100
AcDbArc
 50
342.6912509999968
 51
17.30856599999721
  0
ARC
  5
761
330
6DC
100
AcDbEntity
  8
0
 62
     3
100
AcDbCircle
 10
76.0173242060589
 20
276.430378773523
 30
0.0
 40
1.579833094016801
100
AcDbArc
 50
336.2349290000015
 51
342.6912509999968
  0
ARC
  5
762
330
6DC
100
AcDbEntity
  8
0
 62
     3
100
AcDbCircle
 10
75.84572495832481
 20
277.2693247024529
 30
0.0
 40
1.579833094016801
100
AcDbArc
 50
17.30874900000322
 51
90.0
  0
ARC
  5
763
330
6DC
100
AcDbEntity
  8
0
 62
     3
100
AcDbCircle
 10
74.49967317843402
 20
276.8498607706099
 30
0.0
 40
2.989728616463745
100
AcDbArc
 50
342.6912509999968
 51
17.30856599999721
  0
ARC
  5
764
330
6DC
100
AcDbEntity
  8
0
 62
     3
100
AcDbCircle
 10
75.84572495832481
 20
276.430378773523
 30
0.0
 40
1.579833094016801
100
AcDbArc
 50
270.0
 51
342.6912509999968
  0
ARC
  5
765
330
6DC
100
AcDbEntity
  8
0
 62
     3
100
AcDbCircle
 10
66.34906806852905
 20
276.8498517379879
 30
0.0
 40
1.99930605848175
100
AcDbArc
 50
46.7528800000023
 51
89.74999799999961
  0
ARC
  5
766
330
6DC
100
AcDbEntity
  8
0
 62
     3
100
AcDbCircle
 10
66.34906806852905
 20
276.8498517379879
 30
0.0
 40
1.99930605848175
100
AcDbArc
 50
273.9763330000016
 51
312.8231199999934
  0
ARC
  5
767
330
6DC
100
AcDbEntity
  8
0
 62
     3
100
AcDbCircle
 10
77.08381358307406
 20
276.8189878129916
 30
0.0
 40
2.652957925148358
100
AcDbArc
 50
0.666583999999372
 51
23.90392800000306
  0
ARC
  5
768
330
6DC
100
AcDbEntity
  8
0
 62
     3
100
AcDbCircle
 10
80.8531322494805
 20
276.8189878129916
 30
0.0
 40
2.652957925148358
100
AcDbArc
 50
156.0960719999969
 51
179.3334160000006
  0
ARC
  5
769
330
6DC
100
AcDbEntity
  8
0
 62
     3
100
AcDbCircle
 10
77.08381358307406
 20
276.8807156629842
 30
0.0
 40
2.652957925148358
100
AcDbArc
 50
336.0960719999969
 51
359.3334159999979
  0
ARC
  5
76A
330
6DC
100
AcDbEntity
  8
0
 62
     3
100
AcDbCircle
 10
80.8531322494805
 20
276.8807156629842
 30
0.0
 40
2.652957925148358
100
AcDbArc
 50
180.6665839999993
 51
203.903928000003
  0
LINE
  5
76B
330
6DC
100
AcDbEntity
  8
0
  6
Continuous
 62
     3
100
AcDbLine
 10
58.91573048621217
 20
278.6671521926566
 30
0.0
 11
59.25293360287717
 21
278.4481801852499
 31
0.0
  0
LINE
  5
76C
330
6DC
100
AcDbEntity
  8
0
  6
Continuous
 62
     3
100
AcDbLine
 10
61.36265644918558
 20
278.6671521926566
 30
0.0
 11
61.6998595658506
 21
278.4481801852499
 31
0.0
  0
LINE
  5
76D
330
6DC
100
AcDbEntity
  8
0
  6
Continuous
 62
     3
100
AcDbLine
 10
62.67989108375922
 20
278.6671521926566
 30
0.0
 11
62.34268796709443
 21
278.4481801852499
 31
0.0
  0
LINE
  5
76E
330
6DC
100
AcDbEntity
  8
0
  6
Continuous
 62
     3
100
AcDbLine
 10
63.02945661450348
 20
278.6454971182388
 30
0.0
 11
63.36663412467465
 21
278.4265210809052
 31
0.0
  0
LINE
  5
76F
330
6DC
100
AcDbEntity
  8
0
  6
Continuous
 62
     3
100
AcDbLine
 10
64.72236293875835
 20
278.6454998403284
 30
0.0
 11
64.38515577894964
 21
278.4265069299419
 31
0.0
  0
LINE
  5
770
330
6DC
100
AcDbEntity
  8
0
  6
Continuous
 62
     3
100
AcDbLine
 10
67.81877573271163
 20
278.6454984791553
 30
0.0
 11
68.15597884937665
 21
278.4264597600639
 31
0.0
  0
LINE
  5
771
330
6DC
100
AcDbEntity
  8
0
  6
Continuous
 62
     3
100
AcDbLine
 10
69.53358235741939
 20
278.6454984791553
 30
0.0
 11
69.19637924075459
 21
278.4264597600639
 31
0.0
  0
LINE
  5
772
330
6DC
100
AcDbEntity
  8
0
  6
Continuous
 62
     3
100
AcDbLine
 10
69.89423958070552
 20
278.6454984791553
 30
0.0
 11
70.23144269737054
 21
278.4264597600639
 31
0.0
  0
LINE
  5
773
330
6DC
100
AcDbEntity
  8
0
  6
Continuous
 62
     3
100
AcDbLine
 10
71.6090468792688
 20
278.6454984791553
 30
0.0
 11
71.27184308874848
 21
278.4264597600639
 31
0.0
  0
LINE
  5
774
330
6DC
100
AcDbEntity
  8
0
  6
Continuous
 62
     3
100
AcDbLine
 10
71.96106110982238
 20
278.6454984791553
 30
0.0
 11
72.29826422648716
 21
278.4264597600639
 31
0.0
  0
LINE
  5
775
330
6DC
100
AcDbEntity
  8
0
  6
Continuous
 62
     3
100
AcDbLine
 10
73.65396743405449
 20
278.6454984791553
 30
0.0
 11
73.31676431738968
 21
278.4264597600639
 31
0.0
  0
LINE
  5
776
330
6DC
100
AcDbEntity
  8
0
  6
Continuous
 62
     3
100
AcDbLine
 10
74.01780679804892
 20
278.6454984791553
 30
0.0
 11
74.35500991471371
 21
278.4264597600639
 31
0.0
  0
LINE
  5
777
330
6DC
100
AcDbEntity
  8
0
  6
Continuous
 62
     3
100
AcDbLine
 10
74.35495533242647
 20
275.2731500500114
 30
0.0
 11
74.01780679804892
 21
275.0542049968205
 31
0.0
  0
LINE
  5
778
330
6DC
100
AcDbEntity
  8
0
  6
Continuous
 62
     3
100
AcDbLine
 10
73.31681889967693
 20
275.2731500500114
 30
0.0
 11
73.65396743405449
 21
275.0542049968205
 31
0.0
  0
LINE
  5
779
330
6DC
100
AcDbEntity
  8
0
  6
Continuous
 62
     3
100
AcDbLine
 10
72.29820897034461
 20
275.2731500500114
 30
0.0
 11
71.96106110982238
 21
275.0542049968205
 31
0.0
  0
LINE
  5
77A
330
6DC
100
AcDbEntity
  8
0
  6
Continuous
 62
     3
100
AcDbLine
 10
71.6090468792688
 20
275.0542049968205
 30
0.0
 11
71.27189834489104
 21
275.2731500500114
 31
0.0
  0
LINE
  5
77B
330
6DC
100
AcDbEntity
  8
0
  6
Continuous
 62
     3
100
AcDbLine
 10
69.89423958070552
 20
275.0542049968205
 30
0.0
 11
70.23138744122753
 21
275.2731500500114
 31
0.0
  0
LINE
  5
77C
330
6DC
100
AcDbEntity
  8
0
  6
Continuous
 62
     3
100
AcDbLine
 10
69.53358235741939
 20
275.0542049968205
 30
0.0
 11
69.19643449689714
 21
275.2731500500114
 31
0.0
  0
LINE
  5
77D
330
6DC
100
AcDbEntity
  8
0
  6
Continuous
 62
     3
100
AcDbLine
 10
68.15592359323386
 20
275.2731500500114
 30
0.0
 11
67.81877573271163
 21
275.0542049968205
 31
0.0
  0
LINE
  5
77E
330
6DC
100
AcDbEntity
  8
0
  6
Continuous
 62
     3
100
AcDbLine
 10
64.72230027021101
 20
275.0542066299256
 30
0.0
 11
64.38515577894964
 21
275.2731965460339
 31
0.0
  0
LINE
  5
77F
330
6DC
100
AcDbEntity
  8
0
  6
Continuous
 62
     3
100
AcDbLine
 10
63.02939394595137
 20
275.0542036356474
 30
0.0
 11
63.36656808684529
 21
275.2732106969974
 31
0.0
  0
LINE
  5
780
330
6DC
100
AcDbEntity
  8
0
  6
Continuous
 62
     3
100
AcDbLine
 10
60.23296579464136
 20
275.075858710322
 30
0.0
 11
59.89576267797656
 21
275.2948313915841
 31
0.0
  0
LINE
  5
781
330
6DC
100
AcDbEntity
  8
0
  6
Continuous
 62
     3
100
AcDbLine
 10
58.91573048621217
 20
275.075858710322
 30
0.0
 11
59.25293360287717
 21
275.2948313915841
 31
0.0
  0
LINE
  5
782
330
6DC
100
AcDbEntity
  8
0
  6
Continuous
 62
     3
100
AcDbLine
 10
64.72229622707867
 20
274.8505284446602
 30
0.0
 11
63.02939057667436
 21
274.8505631862842
 31
0.0
  0
LINE
  5
783
330
6DC
100
AcDbEntity
  8
0
  6
Continuous
 62
     3
100
AcDbLine
 10
63.02945998378049
 20
278.8491759773598
 30
0.0
 11
64.72236630803535
 21
278.8491402896916
 31
0.0
  0
ARC
  5
784
330
6DC
100
AcDbEntity
  8
0
  6
Continuous
 62
     3
100
AcDbCircle
 10
82.24372228088146
 20
276.8377054007734
 30
0.0
 40
0.9989999999999998
100
AcDbArc
 50
293.7485430905184
 51
66.25145690948149
  0
ARC
  5
785
330
6DC
100
AcDbEntity
  8
0
  6
Continuous
 62
     3
100
AcDbCircle
 10
82.24372228088146
 20
276.8377054007734
 30
0.0
 40
1.498499999999999
100
AcDbArc
 50
293.7485430905184
 51
66.25145690948149
  0
ARC
  5
786
330
6DC
100
AcDbEntity
  8
0
  6
Continuous
 62
     3
100
AcDbCircle
 10
74.59962913488856
 20
259.463983837004
 30
0.0
 40
19.98
100
AcDbArc
 50
66.25145690948149
 51
81.41597019517911
  0
ARC
  5
787
330
6DC
100
AcDbEntity
  8
0
  6
Continuous
 62
     3
100
AcDbCircle
 10
74.59962913488856
 20
259.463983837004
 30
0.0
 40
20.4795
100
AcDbArc
 50
66.25145690948149
 51
81.41597019517911
  0
ARC
  5
788
330
6DC
100
AcDbEntity
  8
0
  6
Continuous
 62
     3
100
AcDbCircle
 10
56.21958147402825
 20
276.8377054007734
 30
0.0
 40
0.9989999999999998
100
AcDbArc
 50
113.7485430905185
 51
246.2514569094815
  0
ARC
  5
789
330
6DC
100
AcDbEntity
  8
0
  6
Continuous
 62
     3
100
AcDbCircle
 10
56.21958147402825
 20
276.8377054007734
 30
0.0
 40
1.498499999999999
100
AcDbArc
 50
113.7485430905185
 51
246.2514569094815
  0
ARC
  5
78A
330
6DC
100
AcDbEntity
  8
0
  6
Continuous
 62
     3
100
AcDbCircle
 10
63.86367462002089
 20
259.463983837004
 30
0.0
 40
19.98
100
AcDbArc
 50
98.5840298048209
 51
113.7485430905185
  0
ARC
  5
78B
330
6DC
100
AcDbEntity
  8
0
  6
Continuous
 62
     3
100
AcDbCircle
 10
63.86367462002089
 20
259.463983837004
 30
0.0
 40
20.4795
100
AcDbArc
 50
98.5840298048209
 51
113.7485430905185
  0
ARC
  5
78C
330
6DC
100
AcDbEntity
  8
0
  6
Continuous
 62
     3
100
AcDbCircle
 10
74.59962913488856
 20
294.2114269645427
 30
0.0
 40
19.98
100
AcDbArc
 50
278.5840298048209
 51
293.7485430905184
  0
ARC
  5
78D
330
6DC
100
AcDbEntity
  8
0
  6
Continuous
 62
     3
100
AcDbCircle
 10
74.59962913488856
 20
294.2114269645427
 30
0.0
 40
20.4795
100
AcDbArc
 50
278.5840298048209
 51
293.7485430905184
  0
ARC
  5
78E
330
6DC
100
AcDbEntity
  8
0
  6
Continuous
 62
     3
100
AcDbCircle
 10
63.86367462002089
 20
294.2114269645427
 30
0.0
 40
19.98
100
AcDbArc
 50
246.2514569094815
 51
261.4159701951791
  0
ARC
  5
78F
330
6DC
100
AcDbEntity
  8
0
  6
Continuous
 62
     3
100
AcDbCircle
 10
63.86367462002089
 20
294.2114269645427
 30
0.0
 40
20.4795
100
AcDbArc
 50
246.2514569094815
 51
261.4159701951791
  0
ARC
  5
790
330
6DC
100
AcDbEntity
  8
0
  6
Continuous
 62
     3
100
AcDbCircle
 10
69.23165187745485
 20
223.9028517379889
 30
0.0
 40
56.44349999999903
100
AcDbArc
 50
81.41597019517911
 51
98.5840298048209
  0
ARC
  5
791
330
6DC
100
AcDbEntity
  8
0
  6
Continuous
 62
     3
100
AcDbCircle
 10
69.23165187745485
 20
223.9028517379897
 30
0.0
 40
55.94399999999822
100
AcDbArc
 50
81.41597019517911
 51
98.5840298048209
  0
ARC
  5
792
330
6DC
100
AcDbEntity
  8
0
  6
Continuous
 62
     3
100
AcDbCircle
 10
69.23165187745485
 20
329.7725590635579
 30
0.0
 40
56.44349999999903
100
AcDbArc
 50
261.4159701951791
 51
278.5840298048209
  0
ARC
  5
793
330
6DC
100
AcDbEntity
  8
0
  6
Continuous
 62
     3
100
AcDbCircle
 10
69.23165187745485
 20
329.7725590635571
 30
0.0
 40
55.94399999999822
100
AcDbArc
 50
261.4159701951791
 51
278.5840298048209
  0
TEXT
  5
794
330
6DC
100
AcDbEntity
  8
0
 62
     3
100
AcDbText
 10
187.4999996431435
 20
267.4999995915839
 30
0.0
 40
3.2
  1
担　当
  7
高3.2
100
AcDbText
  0
TEXT
  5
795
330
6DC
100
AcDbEntity
  8
0
 62
     3
100
AcDbText
 10
143.4999996431435
 20
267.4999995915839
 30
0.0
 40
3.2
  1
変更・追記内容
  7
高3.2
100
AcDbText
  0
TEXT
  5
796
330
6DC
100
AcDbEntity
  8
0
 62
     3
100
AcDbText
 10
118.6135146434827
 20
262.8294610816756
 30
0.0
 40
2.0
  1
1
  7
高2
100
AcDbText
  0
TEXT
  5
797
330
6DC
100
AcDbEntity
  8
0
 62
     3
100
AcDbText
 10
118.3050031667254
 20
257.6596443694027
 30
0.0
 40
2.0
  1
2
  7
高2
100
AcDbText
  0
TEXT
  5
798
330
6DC
100
AcDbEntity
  8
0
 62
     3
100
AcDbText
 10
125.4999996431435
 20
267.4999995915839
 30
0.0
 40
3.2
  1
日　付
  7
高3.2
100
AcDbText
  0
TEXT
  5
799
330
6DC
100
AcDbEntity
  8
0
 62
     3
100
AcDbText
 10
125.4999996431435
 20
272.4999995915839
 30
0.0
 40
3.2
  1
図　　　　面　　　　略　　　　歴
  7
高3.2
100
AcDbText
  0
TEXT
  5
79A
330
6DC
100
AcDbEntity
  8
0
 62
     3
100
AcDbText
 10
115.4999996431435
 20
267.4999995915839
 30
0.0
 40
3.2
  1
記号
  7
高3.2
100
AcDbText
  0
LINE
  5
79B
330
6DC
100
AcDbEntity
  8
0
100
AcDbLine
 10
118.9999996431435
 20
260.790895591584
 30
0.0
 11
117.0999996431435
 21
257.4999995915839
 31
0.0
  0
LINE
  5
79C
330
6DC
100
AcDbEntity
  8
0
100
AcDbLine
 10
118.9999996431435
 20
260.790895591584
 30
0.0
 11
120.8999996431435
 21
257.4999995915839
 31
0.0
  0
LINE
  5
79D
330
6DC
100
AcDbEntity
  8
0
100
AcDbLine
 10
117.0999996431435
 20
257.4999995915839
 30
0.0
 11
120.8999996431435
 21
257.4999995915839
 31
0.0
  0
LINE
  5
79E
330
6DC
100
AcDbEntity
  8
0
100
AcDbLine
 10
118.9999996431435
 20
265.790896591584
 30
0.0
 11
117.0999996431435
 21
262.4999995915839
 31
0.0
  0
LINE
  5
79F
330
6DC
100
AcDbEntity
  8
0
100
AcDbLine
 10
118.9999996431435
 20
265.790896591584
 30
0.0
 11
120.8999996431435
 21
262.4999995915839
 31
0.0
  0
LINE
  5
7A0
330
6DC
100
AcDbEntity
  8
0
100
AcDbLine
 10
117.0999996431435
 20
262.4999995915839
 30
0.0
 11
120.8999996431435
 21
262.4999995915839
 31
0.0
  0
LINE
  5
7A1
330
6DC
100
AcDbEntity
  8
0
 62
     3
100
AcDbLine
 10
113.9999996431435
 20
271.9999995915839
 30
0.0
 11
199.9999996431435
 21
271.9999995915839
 31
0.0
  0
LINE
  5
7A2
330
6DC
100
AcDbEntity
  8
0
 62
     3
100
AcDbLine
 10
113.9999996431435
 20
266.9999995915839
 30
0.0
 11
199.9999996431435
 21
266.9999995915839
 31
0.0
  0
LINE
  5
7A3
330
6DC
100
AcDbEntity
  8
0
 62
     7
100
AcDbLine
 10
113.9999996431435
 20
261.9999995915839
 30
0.0
 11
199.9999996431435
 21
261.9999995915839
 31
0.0
  0
LINE
  5
7A4
330
6DC
100
AcDbEntity
  8
0
 62
     3
100
AcDbLine
 10
113.9999996431435
 20
256.9999995915839
 30
0.0
 11
199.9999996431435
 21
256.9999995915839
 31
0.0
  0
LINE
  5
7A5
330
6DC
100
AcDbEntity
  8
0
 62
     7
100
AcDbLine
 10
185.9999996431435
 20
256.9999995915839
 30
0.0
 11
185.9999996431435
 21
271.9999995915839
 31
0.0
  0
LINE
  5
7A6
330
6DC
100
AcDbEntity
  8
0
 62
     7
100
AcDbLine
 10
141.9999996431435
 20
256.9999995915839
 30
0.0
 11
141.9999996431435
 21
271.9999995915839
 31
0.0
  0
LINE
  5
7A7
330
6DC
100
AcDbEntity
  8
0
 62
     7
100
AcDbLine
 10
123.9999996431435
 20
256.9999995915839
 30
0.0
 11
123.9999996431435
 21
271.9999995915839
 31
0.0
  0
LINE
  5
7A8
330
6DC
100
AcDbEntity
  8
0
 62
     3
100
AcDbLine
 10
113.9999996431435
 20
256.9999995915839
 30
0.0
 11
113.9999996431435
 21
276.9999995915839
 31
0.0
  0
ENDBLK
  5
7A9
330
6DC
100
AcDbEntity
  8
0
100
AcDbBlockEnd
  0
ENDSEC
  0
SECTION
  2
ENTITIES
  0
LINE
  5
AE
330
6B
100
AcDbEntity
  8
0
 62
     3
100
AcDbLine
 10
232.9687117162416
 20
106.5740814182384
 30
0.0
 11
155.4687117162414
 21
106.5740814182384
 31
0.0
  0
LINE
  5
AF
330
6B
100
AcDbEntity
  8
0
 62
     3
100
AcDbLine
 10
232.9687117162416
 20
126.5740814182384
 30
0.0
 11
155.4687117162414
 21
126.5740814182384
 31
0.0
  0
LINE
  5
B0
330
6B
100
AcDbEntity
  8
0
 62
     3
100
AcDbLine
 10
155.4687117162414
 20
126.5740814182384
 30
0.0
 11
155.4687117162414
 21
106.5740814182384
 31
0.0
  0
LINE
  5
B1
330
6B
100
AcDbEntity
  8
0
 62
     3
100
AcDbLine
 10
245.4687117162416
 20
107.0740814182385
 30
0.0
 11
245.4687117162416
 21
126.0740814182384
 31
0.0
  0
LINE
  5
B2
330
6B
100
AcDbEntity
  8
0
 62
     3
100
AcDbLine
 10
158.9687117162414
 20
126.5740814182384
 30
0.0
 11
158.9687117162414
 21
106.5740814182384
 31
0.0
  0
LINE
  5
B3
330
6B
100
AcDbEntity
  8
0
 62
     3
100
AcDbLine
 10
221.9687117162414
 20
126.5740814182384
 30
0.0
 11
221.9687117162414
 21
106.5740814182384
 31
0.0
  0
LINE
  5
B4
330
6B
100
AcDbEntity
  8
0
 62
     3
100
AcDbLine
 10
241.4687117162416
 20
106.8740814182384
 30
0.0
 11
232.9687117162416
 21
106.8740814182384
 31
0.0
  0
LINE
  5
B5
330
6B
100
AcDbEntity
  8
0
 62
     3
100
AcDbLine
 10
241.4687117162416
 20
126.2740814182385
 30
0.0
 11
232.9687117162416
 21
126.2740814182385
 31
0.0
  0
LINE
  5
B6
330
6B
100
AcDbEntity
  8
0
 62
     3
100
AcDbLine
 10
241.4687117162416
 20
106.5740814182384
 30
0.0
 11
244.9687117162416
 21
106.5740814182384
 31
0.0
  0
LINE
  5
B7
330
6B
100
AcDbEntity
  8
0
 62
     3
100
AcDbLine
 10
241.4687117162416
 20
126.5740814182384
 30
0.0
 11
244.9687117162416
 21
126.5740814182384
 31
0.0
  0
ARC
  5
B8
330
6B
100
AcDbEntity
  8
0
 62
     3
100
AcDbCircle
 10
244.9687117162416
 20
107.0740814182385
 30
0.0
 40
0.5
100
AcDbArc
 50
270.0
 51
0.0
  0
ARC
  5
B9
330
6B
100
AcDbEntity
  8
0
 62
     3
100
AcDbCircle
 10
244.9687117162416
 20
126.0740814182384
 30
0.0
 40
0.5
100
AcDbArc
 50
0.0
 51
90.0
  0
CIRCLE
  5
BA
330
6B
100
AcDbEntity
  8
0
 62
     3
100
AcDbCircle
 10
126.3879374745468
 20
116.5740814182385
 30
0.0
 40
10.0
  0
CIRCLE
  5
BB
330
6B
100
AcDbEntity
  8
0
 62
     3
100
AcDbCircle
 10
126.3879374745468
 20
122.0740814182384
 30
0.0
 40
2.5
  0
CIRCLE
  5
BC
330
6B
100
AcDbEntity
  8
0
 62
     3
100
AcDbCircle
 10
121.1571266345468
 20
118.2736748882384
 30
0.0
 40
2.5
  0
CIRCLE
  5
BD
330
6B
100
AcDbEntity
  8
0
 62
     3
100
AcDbCircle
 10
123.1551185845467
 20
112.1244879482385
 30
0.0
 40
2.5
  0
CIRCLE
  5
BE
330
6B
100
AcDbEntity
  8
0
 62
     3
100
AcDbCircle
 10
129.6207563645467
 20
112.1244879482385
 30
0.0
 40
2.5
  0
CIRCLE
  5
BF
330
6B
100
AcDbEntity
  8
0
 62
     3
100
AcDbCircle
 10
131.6187483145468
 20
118.2736748882384
 30
0.0
 40
2.5
  0
CIRCLE
  5
C0
330
6B
100
AcDbEntity
  8
0
 62
     3
100
AcDbCircle
 10
264.1985633378906
 20
116.5740814182385
 30
0.0
 40
10.0
  0
LINE
  5
C1
330
6B
100
AcDbEntity
  8
0
 62
     3
100
AcDbLine
 10
232.9687117162416
 20
126.5740814182384
 30
0.0
 11
232.9687117162416
 21
106.5740814182384
 31
0.0
  0
LINE
  5
C2
330
6B
100
AcDbEntity
  8
0
 62
     7
100
AcDbLine
 10
241.4687117162416
 20
106.5740814182384
 30
0.0
 11
241.4687117162416
 21
126.5740814182384
 31
0.0
  0
LINE
  5
C3
330
6B
100
AcDbEntity
  8
0
 62
     7
100
AcDbLine
 10
158.9687117162414
 20
106.8657886982385
 30
0.0
 11
221.9687117162414
 21
106.8657886982385
 31
0.0
  0
LINE
  5
C4
330
6B
100
AcDbEntity
  8
0
 62
     7
100
AcDbLine
 10
158.9687117162414
 20
108.0138389982384
 30
0.0
 11
221.9687117162414
 21
108.0138389982384
 31
0.0
  0
LINE
  5
C5
330
6B
100
AcDbEntity
  8
0
 62
     7
100
AcDbLine
 10
158.9687117162414
 20
111.4047246082384
 30
0.0
 11
221.9687117162414
 21
111.4047246082384
 31
0.0
  0
LINE
  5
C6
330
6B
100
AcDbEntity
  8
0
 62
     7
100
AcDbLine
 10
158.9687117162414
 20
114.1763632082384
 30
0.0
 11
221.9687117162414
 21
114.1763632082384
 31
0.0
  0
LINE
  5
C7
330
6B
100
AcDbEntity
  8
0
 62
     7
100
AcDbLine
 10
158.9687117162414
 20
118.9717996182384
 30
0.0
 11
221.9687117162414
 21
118.9717996182384
 31
0.0
  0
LINE
  5
C8
330
6B
100
AcDbEntity
  8
0
 62
     7
100
AcDbLine
 10
158.9687117162414
 20
121.7434382182384
 30
0.0
 11
221.9687117162414
 21
121.7434382182384
 31
0.0
  0
LINE
  5
C9
330
6B
100
AcDbEntity
  8
0
 62
     7
100
AcDbLine
 10
158.9687117162414
 20
125.1343238282384
 30
0.0
 11
221.9687117162414
 21
125.1343238282384
 31
0.0
  0
LINE
  5
CA
330
6B
100
AcDbEntity
  8
0
 62
     7
100
AcDbLine
 10
158.9687117162414
 20
126.2823741282385
 30
0.0
 11
221.9687117162414
 21
126.2823741282385
 31
0.0
  0
CIRCLE
  5
CB
330
6B
100
AcDbEntity
  8
0
 62
     3
100
AcDbCircle
 10
264.1985633378906
 20
116.5740814182385
 30
0.0
 40
8.0
  0
CIRCLE
  5
CC
330
6B
100
AcDbEntity
  8
0
 62
     3
100
AcDbCircle
 10
264.1985633378906
 20
116.5740814182385
 30
0.0
 40
2.25
  0
LINE
  5
CD
330
6B
100
AcDbEntity
  8
0
  6
CENTER
 62
     7
100
AcDbLine
 10
111.3879374745468
 20
116.5740814182385
 30
0.0
 11
141.3879374745468
 21
116.5740814182385
 31
0.0
  0
LINE
  5
CE
330
6B
100
AcDbEntity
  8
0
  6
CENTER
 62
     7
100
AcDbLine
 10
126.3879374745468
 20
131.5740814182384
 30
0.0
 11
126.3879374745468
 21
101.5740814182384
 31
0.0
  0
LINE
  5
CF
330
6B
100
AcDbEntity
  8
0
  6
CENTER
 62
     7
100
AcDbLine
 10
249.1985633378906
 20
116.5740814182385
 30
0.0
 11
279.1985633378907
 21
116.5740814182385
 31
0.0
  0
LINE
  5
D0
330
6B
100
AcDbEntity
  8
0
  6
CENTER
 62
     7
100
AcDbLine
 10
264.1985633378906
 20
131.5740814182384
 30
0.0
 11
264.1985633378906
 21
101.5740814182384
 31
0.0
  0
CIRCLE
  5
D1
330
6B
100
AcDbEntity
  8
0
 62
     3
100
AcDbCircle
 10
237.2187117162416
 20
124.4740814182385
 30
0.0
 40
1.0
  0
ARC
  5
D2
330
6B
100
AcDbEntity
  8
0
 62
     3
100
AcDbCircle
 10
237.2187117162416
 20
124.4740814182385
 30
0.0
 40
2.1
100
AcDbArc
 50
180.0
 51
0.0
  0
LINE
  5
D3
330
6B
100
AcDbEntity
  8
0
 62
     3
100
AcDbLine
 10
239.3187117162414
 20
124.4740814182385
 30
0.0
 11
239.3187117162414
 21
126.2740814182385
 31
0.0
  0
LINE
  5
D4
330
6B
100
AcDbEntity
  8
0
 62
     3
100
AcDbLine
 10
235.1187117162414
 20
124.4740814182385
 30
0.0
 11
235.1187117162414
 21
126.2740814182385
 31
0.0
  0
LINE
  5
D5
330
6B
100
AcDbEntity
  8
0
 62
     7
100
AcDbLine
 10
241.3807034562416
 20
106.8740814182384
 30
0.0
 11
241.4687117162416
 21
106.9620896782385
 31
0.0
  0
LINE
  5
D6
330
6B
100
AcDbEntity
  8
0
 62
     7
100
AcDbLine
 10
239.2593831162415
 20
106.8740814182384
 30
0.0
 11
241.4687117162416
 21
109.0834100182384
 31
0.0
  0
LINE
  5
D7
330
6B
100
AcDbEntity
  8
0
 62
     7
100
AcDbLine
 10
237.1380627662416
 20
106.8740814182384
 30
0.0
 11
241.4687117162416
 21
111.2047303682385
 31
0.0
  0
LINE
  5
D8
330
6B
100
AcDbEntity
  8
0
 62
     7
100
AcDbLine
 10
235.0167424262414
 20
106.8740814182384
 30
0.0
 11
241.4687117162416
 21
113.3260507082385
 31
0.0
  0
LINE
  5
D9
330
6B
100
AcDbEntity
  8
0
 62
     7
100
AcDbLine
 10
232.9687117162416
 20
106.9473710482384
 30
0.0
 11
241.4687117162416
 21
115.4473710482385
 31
0.0
  0
LINE
  5
DA
330
6B
100
AcDbEntity
  8
0
 62
     7
100
AcDbLine
 10
232.9687117162416
 20
109.0686913982384
 30
0.0
 11
241.4687117162416
 21
117.5686913982384
 31
0.0
  0
LINE
  5
DB
330
6B
100
AcDbEntity
  8
0
 62
     7
100
AcDbLine
 10
232.9687117162416
 20
111.1900117382384
 30
0.0
 11
241.4687117162416
 21
119.6900117382384
 31
0.0
  0
LINE
  5
DC
330
6B
100
AcDbEntity
  8
0
 62
     7
100
AcDbLine
 10
232.9687117162416
 20
113.3113320882385
 30
0.0
 11
241.4687117162416
 21
121.8113320882385
 31
0.0
  0
LINE
  5
DD
330
6B
100
AcDbEntity
  8
0
 62
     7
100
AcDbLine
 10
232.9687117162416
 20
115.4326524282385
 30
0.0
 11
241.4687117162416
 21
123.9326524282384
 31
0.0
  0
LINE
  5
DE
330
6B
100
AcDbEntity
  8
0
 62
     7
100
AcDbLine
 10
232.9687117162416
 20
117.5539727682385
 30
0.0
 11
237.9036660862416
 21
122.4889271282384
 31
0.0
  0
LINE
  5
DF
330
6B
100
AcDbEntity
  8
0
 62
     7
100
AcDbLine
 10
239.2038660062415
 20
123.7891270482385
 30
0.0
 11
241.4687117162416
 21
126.0539727682384
 31
0.0
  0
LINE
  5
E0
330
6B
100
AcDbEntity
  8
0
 62
     7
100
AcDbLine
 10
232.9687117162416
 20
119.6752931182385
 30
0.0
 11
236.0337540062416
 21
122.7403354082384
 31
0.0
  0
LINE
  5
E1
330
6B
100
AcDbEntity
  8
0
 62
     7
100
AcDbLine
 10
239.3187117162414
 20
126.0252931182385
 30
0.0
 11
239.6078440662416
 21
126.3144254582384
 31
0.0
  0
LINE
  5
E2
330
6B
100
AcDbEntity
  8
0
 62
     7
100
AcDbLine
 10
232.9687117162416
 20
121.7966134582385
 30
0.0
 11
235.1727688562414
 21
124.0006705982384
 31
0.0
  0
LINE
  5
E3
330
6B
100
AcDbEntity
  8
0
 62
     7
100
AcDbLine
 10
232.9687117162416
 20
123.9179337982385
 30
0.0
 11
235.1187117162414
 21
126.0679337982384
 31
0.0
  0
LINE
  5
E4
330
6B
100
AcDbEntity
  8
0
 62
     7
100
AcDbLine
 10
232.9687117162416
 20
126.0392541482384
 30
0.0
 11
233.2035389862415
 21
126.2740814182385
 31
0.0
  0
LINE
  5
E5
330
6B
100
AcDbEntity
  8
0
 62
     7
100
AcDbLine
 10
234.7954509462415
 20
106.8740814182384
 30
0.0
 11
232.9687117162416
 21
108.7008206382384
 31
0.0
  0
LINE
  5
E6
330
6B
100
AcDbEntity
  8
0
 62
     7
100
AcDbLine
 10
236.9167712862414
 20
106.8740814182384
 30
0.0
 11
232.9687117162416
 21
110.8221409782385
 31
0.0
  0
LINE
  5
E7
330
6B
100
AcDbEntity
  8
0
 62
     7
100
AcDbLine
 10
239.0380916262416
 20
106.8740814182384
 30
0.0
 11
232.9687117162416
 21
112.9434613282384
 31
0.0
  0
LINE
  5
E8
330
6B
100
AcDbEntity
  8
0
 62
     7
100
AcDbLine
 10
241.1594119762414
 20
106.8740814182384
 30
0.0
 11
232.9687117162416
 21
115.0647816682385
 31
0.0
  0
LINE
  5
E9
330
6B
100
AcDbEntity
  8
0
 62
     7
100
AcDbLine
 10
241.4687117162416
 20
108.6861020082384
 30
0.0
 11
232.9687117162416
 21
117.1861020082384
 31
0.0
  0
LINE
  5
EA
330
6B
100
AcDbEntity
  8
0
 62
     7
100
AcDbLine
 10
241.4687117162416
 20
110.8074223582384
 30
0.0
 11
232.9687117162416
 21
119.3074223582384
 31
0.0
  0
LINE
  5
EB
330
6B
100
AcDbEntity
  8
0
 62
     7
100
AcDbLine
 10
241.4687117162416
 20
112.9287426982384
 30
0.0
 11
232.9687117162416
 21
121.4287426982384
 31
0.0
  0
LINE
  5
EC
330
6B
100
AcDbEntity
  8
0
 62
     7
100
AcDbLine
 10
241.4687117162416
 20
115.0500630382385
 30
0.0
 11
232.9687117162416
 21
123.5500630382385
 31
0.0
  0
LINE
  5
ED
330
6B
100
AcDbEntity
  8
0
 62
     7
100
AcDbLine
 10
241.4687117162416
 20
117.1713833882384
 30
0.0
 11
232.9687117162416
 21
125.6713833882385
 31
0.0
  0
LINE
  5
EE
330
6B
100
AcDbEntity
  8
0
 62
     7
100
AcDbLine
 10
241.4687117162416
 20
119.2927037282384
 30
0.0
 11
238.1630348962414
 21
122.5983805482385
 31
0.0
  0
LINE
  5
EF
330
6B
100
AcDbEntity
  8
0
 62
     7
100
AcDbLine
 10
235.1187117162414
 20
125.6427037282384
 30
0.0
 11
234.4873340362416
 21
126.2740814182385
 31
0.0
  0
LINE
  5
F0
330
6B
100
AcDbEntity
  8
0
 62
     7
100
AcDbLine
 10
241.4687117162416
 20
121.4140240782384
 30
0.0
 11
239.1742010062416
 21
123.7085347882384
 31
0.0
  0
LINE
  5
F1
330
6B
100
AcDbEntity
  8
0
 62
     7
100
AcDbLine
 10
241.4687117162416
 20
123.5353444182385
 30
0.0
 11
239.3187117162414
 21
125.6853444182384
 31
0.0
  0
LINE
  5
F2
330
6B
100
AcDbEntity
  8
0
 62
     7
100
AcDbLine
 10
241.4687117162416
 20
125.6566647582385
 30
0.0
 11
240.6636317962414
 21
126.4617446782384
 31
0.0
  0
LINE
  5
14F
330
6B
100
AcDbEntity
  8
0
 62
     3
100
AcDbLine
 10
283.22630247218
 20
-30.81999272803977
 30
0.0
 11
231.22630247218
 21
-30.81999272803977
 31
0.0
  0
LINE
  5
150
330
6B
100
AcDbEntity
  8
0
 62
     3
100
AcDbLine
 10
257.22630247218
 20
-36.81999272803977
 30
0.0
 11
257.22630247218
 21
-30.81999272803977
 31
0.0
  0
LINE
  5
151
330
6B
100
AcDbEntity
  8
0
 62
     3
100
AcDbLine
 10
231.22630247218
 20
-36.81999272803977
 30
0.0
 11
231.22630247218
 21
-30.81999272803977
 31
0.0
  0
TEXT
  5
152
330
6B
100
AcDbEntity
  8
0
 62
     3
100
AcDbText
 10
232.1471856921799
 20
-36.26390752803978
 30
0.0
 40
4.5
  1
コード
  7
高4.5
100
AcDbText
  0
TEXT
  5
154
330
6B
100
AcDbEntity
  8
0
 62
     3
100
AcDbText
 10
151.0292985752306
 20
-76.31999272803978
 30
0.0
 40
2.5
  1
個数
 41
0.8
  7
高2.5
100
AcDbText
  0
TEXT
  5
155
330
6B
100
AcDbEntity
  8
0
 62
     3
100
AcDbText
 10
104.72630247218
 20
-76.31999272803978
 30
0.0
 40
2.5
  1
No
 41
0.8
  7
高2.5
100
AcDbText
  0
TEXT
  5
156
330
6B
100
AcDbEntity
  8
0
 62
     3
100
AcDbText
 10
104.72630247218
 20
-64.31999272803976
 30
0.0
 40
2.5
  1
3
 41
0.8
  7
高2.5
100
AcDbText
  0
TEXT
  5
157
330
6B
100
AcDbEntity
  8
0
 62
     3
100
AcDbText
 10
104.72630247218
 20
-60.31999272803978
 30
0.0
 40
2.5
  1
4
 41
0.8
  7
高2.5
100
AcDbText
  0
TEXT
  5
159
330
6B
100
AcDbEntity
  8
0
 62
     3
100
AcDbText
 10
151.0292985752306
 20
-64.31999272803976
 30
0.0
 40
2.5
  1
1
 41
0.8
  7
高2.5
100
AcDbText
  0
TEXT
  5
15A
330
6B
100
AcDbEntity
  8
0
 62
     3
100
AcDbText
 10
104.72630247218
 20
-72.31999272803978
 30
0.0
 40
2.5
  1
1
 41
0.8
  7
高2.5
100
AcDbText
  0
TEXT
  5
15B
330
6B
100
AcDbEntity
  8
0
 62
     3
100
AcDbText
 10
104.72630247218
 20
-68.31999272803978
 30
0.0
 40
2.5
  1
2
 41
0.8
  7
高2.5
100
AcDbText
  0
TEXT
  5
15C
330
6B
100
AcDbEntity
  8
0
 62
     3
100
AcDbText
 10
110.3952834179947
 20
-72.31999272803978
 30
0.0
 40
2.5
  1
ケース本体
 41
0.8
  7
高2.5
100
AcDbText
  0
TEXT
  5
15D
330
6B
100
AcDbEntity
  8
0
 62
     3
100
AcDbText
 10
151.0292985752306
 20
-72.31999272803978
 30
0.0
 40
2.5
  1
1
 41
0.8
  7
高2.5
100
AcDbText
  0
TEXT
  5
15F
330
6B
100
AcDbEntity
  8
0
 62
     3
100
AcDbText
 10
151.0292985752306
 20
-68.31999272803978
 30
0.0
 40
2.5
  1
1
 41
0.8
  7
高2.5
100
AcDbText
  0
TEXT
  5
160
330
6B
100
AcDbEntity
  8
0
 62
     3
100
AcDbText
 10
125.0740592626796
 20
-64.31999272803976
 30
0.0
 40
2.5
  1
単3形アルカリ乾電池
 41
0.8
  7
高2.5
100
AcDbText
  0
CIRCLE
  5
161
330
6B
100
AcDbEntity
  8
0
 62
     7
100
AcDbCircle
 10
229.6476545562415
 20
87.4085374682385
 30
0.0
 40
5.0
  0
TEXT
  5
162
330
6B
100
AcDbEntity
  8
0
 62
     4
100
AcDbText
 10
227.4610989133992
 20
84.02602317277915
 30
0.0
 40
6.299999999999998
  1
3
  7
高6.3
100
AcDbText
  0
TEXT
  5
163
330
6B
100
AcDbEntity
  8
0
 62
     3
100
AcDbText
 10
110.3952834179947
 20
-68.31999272803978
 30
0.0
 40
2.5
  1
電池蓋
 41
0.8
  7
高2.5
100
AcDbText
  0
TEXT
  5
164
330
6B
100
AcDbEntity
  8
0
 62
     3
100
AcDbText
 10
110.3952834179947
 20
-64.31999272803976
 30
0.0
 40
2.5
  1
電池
 41
0.8
  7
高2.5
100
AcDbText
  0
TEXT
  5
165
330
6B
100
AcDbEntity
  8
0
 62
     3
100
AcDbText
 10
110.3952834179947
 20
-60.31999272803978
 30
0.0
 40
2.5
  1
LED
 41
0.8
  7
高2.5
100
AcDbText
  0
TEXT
  5
167
330
6B
100
AcDbEntity
  8
0
 62
     3
100
AcDbText
 10
125.0740592626796
 20
-72.31999272803978
 30
0.0
 40
2.5
  1
アルミ
 41
0.8
  7
高2.5
100
AcDbText
  0
TEXT
  5
168
330
6B
100
AcDbEntity
  8
0
 62
     3
100
AcDbText
 10
125.0740592626796
 20
-68.31999272803978
 30
0.0
 40
2.5
  1
アルミ
 41
0.8
  7
高2.5
100
AcDbText
  0
TEXT
  5
169
330
6B
100
AcDbEntity
  8
0
 62
     3
100
AcDbText
 10
110.3952834179947
 20
-76.31999272803978
 30
0.0
 40
2.5
  1
部　品　名
 41
0.8
  7
高2.5
100
AcDbText
  0
TEXT
  5
16A
330
6B
100
AcDbEntity
  8
0
 62
     3
100
AcDbText
 10
125.0740592626796
 20
-76.31999272803978
 30
0.0
 40
2.5
  1
材質/備考　
 41
0.8
  7
高2.5
100
AcDbText
  0
LINE
  5
16E
330
6B
100
AcDbEntity
  8
0
100
AcDbLine
 10
103.22630247218
 20
-68.81999272803978
 30
0.0
 11
166.5465975401396
 21
-68.81999272803975
 31
0.0
  0
LINE
  5
16F
330
6B
100
AcDbEntity
  8
0
100
AcDbLine
 10
103.22630247218
 20
-64.81999272803978
 30
0.0
 11
166.5465975401396
 21
-64.81999272803976
 31
0.0
  0
LINE
  5
170
330
6B
100
AcDbEntity
  8
0
 62
     3
100
AcDbLine
 10
103.22630247218
 20
-56.81999272803977
 30
0.0
 11
166.5465975401396
 21
-56.81999272803977
 31
0.0
  0
LINE
  5
172
330
6B
100
AcDbEntity
  8
0
 62
     7
100
AcDbLine
 10
103.22630247218
 20
-72.81999272803978
 30
0.0
 11
166.5465975401396
 21
-72.81999272803978
 31
0.0
  0
LINE
  5
185
330
6B
100
AcDbEntity
  8
0
 62
     7
100
AcDbLine
 10
237.1380627662416
 20
106.8740814182384
 30
0.0
 11
240.5191894462415
 21
92.27952981823849
 31
0.0
  0
CIRCLE
  5
186
330
6B
100
AcDbEntity
  8
0
 62
     7
100
AcDbCircle
 10
241.6476545562415
 20
87.4085374682385
 30
0.0
 40
5.0
  0
TEXT
  5
187
330
6B
100
AcDbEntity
  8
0
 62
     4
100
AcDbText
 10
239.4610989133992
 20
84.02602318277917
 30
0.0
 40
6.299999999999998
  1
2
  7
高6.3
100
AcDbText
  0
LINE
  5
18D
330
6B
100
AcDbEntity
  8
0
 62
     7
100
AcDbLine
 10
169.6314638562414
 20
106.5740814182384
 30
0.0
 11
163.5711001562415
 21
94.80388250823848
 31
0.0
  0
CIRCLE
  5
18E
330
6B
100
AcDbEntity
  8
0
 62
     7
100
AcDbCircle
 10
161.2822341762414
 20
90.35853746823843
 30
0.0
 40
5.0
  0
TEXT
  5
18F
330
6B
100
AcDbEntity
  8
0
 62
     4
100
AcDbText
 10
160.3305970484212
 20
86.93034505857339
 30
0.0
 40
6.299999999999998
  1
1
  7
高6.3
100
AcDbText
  0
LINE
  5
195
330
6B
100
AcDbEntity
  8
0
 62
     7
100
AcDbLine
 10
121.9728430045467
 20
109.9217114082384
 30
0.0
 11
114.5281110345468
 21
95.31030908823842
 31
0.0
  0
CIRCLE
  5
196
330
6B
100
AcDbEntity
  8
0
 62
     7
100
AcDbCircle
 10
112.2581946945468
 20
90.85525804823848
 30
0.0
 40
5.0
  0
TEXT
  5
197
330
6B
100
AcDbEntity
  8
0
 62
     4
100
AcDbText
 10
110.0716390517046
 20
87.47274375277916
 30
0.0
 40
6.299999999999998
  1
4
  7
高6.3
100
AcDbText
  0
LINE
  5
198
330
6B
100
AcDbEntity
  8
0
100
AcDbLine
 10
108.8952834179947
 20
-76.81999272803976
 30
0.0
 11
108.8952834179947
 21
-56.81999272803977
 31
0.0
  0
LINE
  5
199
330
6B
100
AcDbEntity
  8
0
100
AcDbLine
 10
156.1918084289811
 20
-76.81999272803976
 30
0.0
 11
156.1918084289811
 21
-56.81999272803977
 31
0.0
  0
LINE
  5
19A
330
6B
100
AcDbEntity
  8
0
100
AcDbLine
 10
123.5740592626796
 20
-76.81999272803976
 30
0.0
 11
123.5740592626796
 21
-56.81999272803977
 31
0.0
  0
LINE
  5
19B
330
6B
100
AcDbEntity
  8
0
100
AcDbLine
 10
149.5292985752305
 20
-76.81999272803976
 30
0.0
 11
149.5292985752305
 21
-56.81999272803977
 31
0.0
  0
TEXT
  5
19F
330
6B
100
AcDbEntity
  8
0
 62
     3
100
AcDbText
 10
166.5033036789048
 20
48.35248737283666
 30
0.0
 40
3.2
  1
型　式
  7
高3.2
100
AcDbText
  0
TEXT
  5
1A0
330
6B
100
AcDbEntity
  8
0
 62
     3
100
AcDbText
 10
166.5033036789048
 20
42.35248737283664
 30
0.0
 40
3.2
  1
電　源
  7
高3.2
100
AcDbText
  0
TEXT
  5
1A1
330
6B
100
AcDbEntity
  8
0
 62
     3
100
AcDbText
 10
166.5033036789048
 20
36.35248737283666
 30
0.0
 40
3.2
  1
連続点灯
  7
高3.2
100
AcDbText
  0
TEXT
  5
1A2
330
6B
100
AcDbEntity
  8
0
 62
     3
100
AcDbText
 10
166.5033036789048
 20
18.35248737283666
 30
0.0
 40
3.2
  1
照射角
  7
高3.2
100
AcDbText
  0
LINE
  5
1A3
330
6B
100
AcDbEntity
  8
0
 62
     3
100
AcDbLine
 10
165.1107129389048
 20
59.54691416683021
 30
0.0
 11
225.5213508989808
 21
59.54691416683021
 31
0.0
  0
LINE
  5
1A4
330
6B
100
AcDbEntity
  8
0
 62
     3
100
AcDbLine
 10
165.1107129389048
 20
53.54691416683021
 30
0.0
 11
225.5213508989808
 21
53.54691416683021
 31
0.0
  0
LINE
  5
1A5
330
6B
100
AcDbEntity
  8
0
 62
     3
100
AcDbLine
 10
165.1107129389048
 20
11.54691416683022
 30
0.0
 11
225.5213508989808
 21
11.54691416683022
 31
0.0
  0
LINE
  5
1A6
330
6B
100
AcDbEntity
  8
0
100
AcDbLine
 10
165.1107129389048
 20
41.54691416683021
 30
0.0
 11
225.5213508989808
 21
41.54691416683021
 31
0.0
  0
LINE
  5
1A7
330
6B
100
AcDbEntity
  8
0
100
AcDbLine
 10
165.1107129389048
 20
35.54691416683022
 30
0.0
 11
225.5213508989808
 21
35.54691416683022
 31
0.0
  0
LINE
  5
1A8
330
6B
100
AcDbEntity
  8
0
100
AcDbLine
 10
165.1107129389048
 20
47.54691416683021
 30
0.0
 11
225.5213508989808
 21
47.54691416683021
 31
0.0
  0
TEXT
  5
1A9
330
6B
100
AcDbEntity
  8
0
 62
     3
100
AcDbText
 10
166.7718609189047
 20
12.35248737283666
 30
0.0
 40
3.2
  1
質　量
  7
高3.2
100
AcDbText
  0
TEXT
  5
1AA
330
6B
100
AcDbEntity
  8
0
 62
     3
100
AcDbText
 10
166.5033036789048
 20
30.35248737283666
 30
0.0
 40
3.2
  1
出　力
  7
高3.2
100
AcDbText
  0
TEXT
  5
1AB
330
6B
100
AcDbEntity
  8
0
 62
     3
100
AcDbText
 10
183.1912293546782
 20
54.25049530683022
 30
0.0
 40
4.5
  1
主　仕　様
  7
高4.5
100
AcDbText
  0
LINE
  5
1AC
330
6B
100
AcDbEntity
  8
0
100
AcDbLine
 10
165.1107129389048
 20
29.54691416683023
 30
0.0
 11
225.5213508989808
 21
29.54691416683023
 31
0.0
  0
LINE
  5
1AD
330
6B
100
AcDbEntity
  8
0
100
AcDbLine
 10
165.1107129389048
 20
17.54691416683022
 30
0.0
 11
225.5213508989808
 21
17.54691416683022
 31
0.0
  0
LINE
  5
1AE
330
6B
100
AcDbEntity
  8
0
100
AcDbLine
 10
165.1107129389048
 20
23.54691416683023
 30
0.0
 11
225.5213508989808
 21
23.54691416683022
 31
0.0
  0
TEXT
  5
1AF
330
6B
100
AcDbEntity
  8
0
 62
     3
100
AcDbText
 10
166.5033036789048
 20
24.35248737283667
 30
0.0
 40
3.2
  1
光　度
  7
高3.2
100
AcDbText
  0
TEXT
  5
1B0
330
6B
100
AcDbEntity
  8
0
 62
     3
100
AcDbText
 10
184.0036719608989
 20
48.35248737283666
 30
0.0
 40
3.2
  1
LED-5P-BK
  7
高3.2
100
AcDbText
  0
TEXT
  5
1B1
330
6B
100
AcDbEntity
  8
0
 62
     3
100
AcDbText
 10
184.0036719608989
 20
42.35248737283664
 30
0.0
 40
3.2
  1
単3アルカリ乾電池
  7
高3.2
100
AcDbText
  0
TEXT
  5
1B2
330
6B
100
AcDbEntity
  8
0
 62
     3
100
AcDbText
 10
184.0036719608989
 20
36.35248737283666
 30
0.0
 40
3.2
  1
10時間以上
  7
高3.2
100
AcDbText
  0
TEXT
  5
1B3
330
6B
100
AcDbEntity
  8
0
 62
     3
100
AcDbText
 10
184.0036719608989
 20
30.35248737283666
 30
0.0
 40
3.2
  1
0.5W
  7
高3.2
100
AcDbText
  0
TEXT
  5
1B4
330
6B
100
AcDbEntity
  8
0
 62
     3
100
AcDbText
 10
184.0036719608989
 20
24.35248737283667
 30
0.0
 40
3.2
  1
50000mcd
  7
高3.2
100
AcDbText
  0
TEXT
  5
1B5
330
6B
100
AcDbEntity
  8
0
 62
     3
100
AcDbText
 10
184.0036719608989
 20
18.35248737283666
 30
0.0
 40
3.2
  1
超拡散型
  7
高3.2
100
AcDbText
  0
TEXT
  5
1B6
330
6B
100
AcDbEntity
  8
0
 62
     3
100
AcDbText
 10
184.0036719608989
 20
12.35248737283666
 30
0.0
 40
3.2
  1
39g（電池含57g）
  7
高3.2
100
AcDbText
  0
LINE
  5
1B7
330
6B
100
AcDbEntity
  8
0
 62
     3
100
AcDbLine
 10
165.1107129389048
 20
59.54691416683021
 30
0.0
 11
165.1107129389048
 21
11.54691416683022
 31
0.0
  0
LINE
  5
1B8
330
6B
100
AcDbEntity
  8
0
 62
     3
100
AcDbLine
 10
225.5213508989808
 20
11.54691416683022
 30
0.0
 11
225.5213508989808
 21
59.54691416683021
 31
0.0
  0
LINE
  5
1B9
330
6B
100
AcDbEntity
  8
0
100
AcDbLine
 10
182.0036719608989
 20
53.54691416683021
 30
0.0
 11
182.0036719608989
 21
11.54691416683022
 31
0.0
  0
TEXT
  5
1BD
330
6B
100
AcDbEntity
  8
0
 62
     3
100
AcDbText
 10
258.39046263218
 20
-36.32163646803978
 30
0.0
 40
4.5
  1
12576
  7
高4.5
100
AcDbText
  0
TEXT
  5
1BE
330
6B
100
AcDbEntity
  8
0
 62
     3
100
AcDbText
 10
151.0292985752306
 20
-60.31999272803978
 30
0.0
 40
2.5
  1
5
 41
0.8
  7
高2.5
100
AcDbText
  0
TEXT
  5
1C0
330
6B
100
AcDbEntity
  8
0
 62
     3
100
AcDbText
 10
157.6918084289813
 20
-76.31999272803978
 30
0.0
 40
2.5
  1
コード
 41
0.8
  7
高2.5
100
AcDbText
  0
TEXT
  5
1C8
330
6B
100
AcDbEntity
  8
0
 62
     3
100
AcDbText
 10
157.6918084289812
 20
-60.31999272803978
 30
0.0
 40
2.5
  1
-
 41
0.8
  7
高2.5
100
AcDbText
  0
TEXT
  5
1C9
330
6B
100
AcDbEntity
  8
0
 62
     3
100
AcDbText
 10
157.6918084289812
 20
-68.31999272803978
 30
0.0
 40
2.5
  1
-
 41
0.8
  7
高2.5
100
AcDbText
  0
TEXT
  5
1CA
330
6B
100
AcDbEntity
  8
0
 62
     3
100
AcDbText
 10
157.6918084289812
 20
-72.31999272803978
 30
0.0
 40
2.5
  1
-
 41
0.8
  7
高2.5
100
AcDbText
  0
TEXT
  5
3CF
330
6B
100
AcDbEntity
  8
0
 62
     3
100
AcDbText
 10
157.6918084289812
 20
-64.31999272803976
 30
0.0
 40
2.5
  1
-
 41
0.8
  7
高2.5
100
AcDbText
  0
LINE
  5
3D0
330
6B
100
AcDbEntity
  8
0
100
AcDbLine
 10
103.22630247218
 20
-60.81999272803978
 30
0.0
 11
166.5465975401396
 21
-60.81999272803979
 31
0.0
  0
LINE
  5
3D7
330
6B
100
AcDbEntity
  8
0
 62
     3
100
AcDbLine
 10
166.5465975401396
 20
-76.81999272803976
 30
0.0
 11
166.5465975401396
 21
-56.81999272803977
 31
0.0
  0
TEXT
  5
80E
330
6B
100
AcDbEntity
  8
0
 62
     3
100
AcDbText
 10
125.0740592626795
 20
-60.31999272803978
 30
0.0
 40
2.5
  1
0.1W
 41
0.8
  7
高2.5
100
AcDbText
  0
LINE
  5
80F
330
6B
100
AcDbEntity
  8
0
 62
     3
100
AcDbLine
 10
91.71422930218
 20
61.68000727196022
 30
0.0
 11
91.22630247218001
 21
61.68000727196022
 31
0.0
  0
LINE
  5
810
330
6B
100
AcDbEntity
  8
0
 62
     3
100
AcDbLine
 10
103.22630247218
 20
200.1800072719602
 30
0.0
 11
103.22630247218
 21
-76.81999272803976
 31
0.0
  0
LINE
  5
812
330
6B
100
AcDbEntity
  8
0
 62
     3
100
AcDbLine
 10
283.22630247218
 20
-76.81999272803976
 30
0.0
 11
283.22630247218
 21
200.1800072719602
 31
0.0
  0
LINE
  5
813
330
6B
100
AcDbEntity
  8
0
 62
     3
100
AcDbLine
 10
103.22630247218
 20
-76.81999272803976
 30
0.0
 11
283.22630247218
 21
-76.81999272803976
 31
0.0
  0
LINE
  5
814
330
6B
100
AcDbEntity
  8
0
 62
     3
100
AcDbLine
 10
168.5539651021799
 20
200.1800072719602
 30
0.0
 11
283.22630247218
 21
200.1800072719602
 31
0.0
  0
LINE
  5
816
330
6B
100
AcDbEntity
  8
0
 62
     3
100
AcDbLine
 10
135.14121858218
 20
200.1800072719602
 30
0.0
 11
103.22630247218
 21
200.1800072719602
 31
0.0
  0
LINE
  5
817
330
6B
100
AcDbEntity
  8
0
 62
     3
100
AcDbLine
 10
231.22630247218
 20
-76.81999272803976
 30
0.0
 11
231.22630247218
 21
-36.81999272803977
 31
0.0
  0
LINE
  5
818
330
6B
100
AcDbEntity
  8
0
 62
     3
100
AcDbLine
 10
244.22630247218
 20
-66.81999272803976
 30
0.0
 11
244.22630247218
 21
-38.81999272803979
 31
0.0
  0
LINE
  5
819
330
6B
100
AcDbEntity
  8
0
 62
     3
100
AcDbLine
 10
204.22630247218
 20
-66.81999272803976
 30
0.0
 11
204.22630247218
 21
-52.81999272803979
 31
0.0
  0
LINE
  5
81A
330
6B
100
AcDbEntity
  8
0
 62
     3
100
AcDbLine
 10
214.22630247218
 20
-52.81999272803979
 30
0.0
 11
214.22630247218
 21
-76.81999272803976
 31
0.0
  0
LINE
  5
81B
330
6B
100
AcDbEntity
  8
0
 62
     3
100
AcDbLine
 10
185.22630247218
 20
-36.81999272803979
 30
0.0
 11
185.22630247218
 21
-59.81999272803977
 31
0.0
  0
LINE
  5
81C
330
6B
100
AcDbEntity
  8
0
 62
     3
100
AcDbLine
 10
244.22630247218
 20
-38.81999272803979
 30
0.0
 11
244.22630247218
 21
-36.81999272803977
 31
0.0
  0
LINE
  5
81D
330
6B
100
AcDbEntity
  8
0
 62
     3
100
AcDbLine
 10
257.22630247218
 20
-59.81999272803977
 30
0.0
 11
257.22630247218
 21
-36.81999272803977
 31
0.0
  0
LINE
  5
81E
330
6B
100
AcDbEntity
  8
0
 62
     3
100
AcDbLine
 10
283.22630247218
 20
-36.81999272803977
 30
0.0
 11
171.9808678321801
 21
-36.81999272803976
 31
0.0
  0
LINE
  5
81F
330
6B
100
AcDbEntity
  8
0
 62
     3
100
AcDbLine
 10
283.22630247218
 20
-45.81999272803978
 30
0.0
 11
171.98086783218
 21
-45.81999272803977
 31
0.0
  0
LINE
  5
820
330
6B
100
AcDbEntity
  8
0
 62
     3
100
AcDbLine
 10
283.22630247218
 20
-59.81999272803977
 30
0.0
 11
171.98086783218
 21
-59.81999272803977
 31
0.0
  0
LINE
  5
821
330
6B
100
AcDbEntity
  8
0
 62
     3
100
AcDbLine
 10
283.22630247218
 20
-66.81999272803976
 30
0.0
 11
171.9228599721799
 21
-66.81999272803976
 31
0.0
  0
LINE
  5
822
330
6B
100
AcDbEntity
  8
0
 62
     3
100
AcDbLine
 10
270.22630247218
 20
-59.81999272803977
 30
0.0
 11
270.22630247218
 21
-36.81999272803977
 31
0.0
  0
LINE
  5
823
330
6B
100
AcDbEntity
  8
0
 62
     3
100
AcDbLine
 10
171.98086783218
 20
-36.81999272803976
 30
0.0
 11
171.98086783218
 21
-76.81999272803976
 31
0.0
  0
LINE
  5
824
330
6B
100
AcDbEntity
  8
0
 62
     3
100
AcDbLine
 10
231.22630247218
 20
-52.81999272803979
 30
0.0
 11
171.98086783218
 21
-52.81999272803979
 31
0.0
  0
LINE
  5
825
330
6B
100
AcDbEntity
  8
0
 62
     3
100
AcDbLine
 10
214.5046274021801
 20
-71.98713146803981
 30
0.0
 11
231.22630247218
 21
-71.98713146803981
 31
0.0
  0
TEXT
  5
826
330
6B
100
AcDbEntity
  8
0
 62
     3
100
AcDbText
 10
215.3906278854957
 20
-57.74689587467442
 30
0.0
 40
2.5
  1
本体色：黒
  7
高2.5
100
AcDbText
  0
TEXT
  5
827
330
6B
100
AcDbEntity
  8
0
 62
     3
100
AcDbText
 10
186.4226711674321
 20
-57.52217832305587
 30
0.0
 40
2.5
  1
別記
  7
高2.5
100
AcDbText
  0
TEXT
  5
828
330
6B
100
AcDbEntity
  8
0
 62
     3
100
AcDbText
 10
186.6875789221296
 20
-44.50774320428187
 30
0.0
 40
4.5
  1
スーパーLEDライト
 41
0.8
  7
高4.5
100
AcDbText
1001
ACAD
1000
ACAD_MTEXT_DEFINED_HEIGHT_BEGIN
1070
    46
1040
0.0
1000
ACAD_MTEXT_DEFINED_HEIGHT_END
  0
TEXT
  5
829
330
6B
100
AcDbEntity
  8
0
 62
     3
100
AcDbText
 10
273.291891565654
 20
-40.30630062933616
 30
0.0
 40
2.0
  1
DEF
  7
高2
100
AcDbText
  0
TEXT
  5
82A
330
6B
100
AcDbEntity
  8
0
 62
     3
100
AcDbText
 10
259.3527932119458
 20
-40.30630062933627
 30
0.0
 40
2.0
  1
DESN
  7
高2
100
AcDbText
  0
TEXT
  5
82B
330
6B
100
AcDbEntity
  8
0
 62
     3
100
AcDbText
 10
233.0984262719456
 20
-40.30630062933616
 30
0.0
 40
2.0
  1
APPD
  7
高2
100
AcDbText
  0
TEXT
  5
82C
330
6B
100
AcDbEntity
  8
0
 62
     3
100
AcDbText
 10
246.21116237218
 20
-40.30630062933616
 30
0.0
 40
2.0
  1
CHCK
  7
高2
100
AcDbText
  0
TEXT
  5
82D
330
6B
100
AcDbEntity
  8
0
 62
     3
100
AcDbText
 10
205.1534681113327
 20
-62.65159390480906
 30
0.0
 40
2.0
  1
SCALE
 41
0.8
  7
高2
100
AcDbText
  0
TEXT
  5
82E
330
6B
100
AcDbEntity
  8
0
 62
     3
100
AcDbText
 10
173.6654465352261
 20
-62.65159390480905
 30
0.0
 40
2.0
  1
3AD　ANGLE
 41
1.5
  7
高2
100
AcDbText
  0
TEXT
  5
82F
330
6B
100
AcDbEntity
  8
0
 62
     3
100
AcDbText
 10
204.4228738021815
 20
-55.90005583585195
 30
0.0
 40
2.0
  1
REMARKS
 41
0.7
  7
高2
100
AcDbText
  0
TEXT
  5
830
330
6B
100
AcDbEntity
  8
0
 62
     3
100
AcDbText
 10
173.4485381821799
 20
-55.81999272803977
 30
0.0
 40
2.0
  1
MATERIAL
 41
0.7
  7
高2
100
AcDbText
  0
TEXT
  5
831
330
6B
100
AcDbEntity
  8
0
 62
     3
100
AcDbText
 10
174.0250253849341
 20
-48.81999272803978
 30
0.0
 40
2.0
  1
MODEL
  7
高2
100
AcDbText
  0
TEXT
  5
832
330
6B
100
AcDbEntity
  8
0
 62
     3
100
AcDbText
 10
173.6619462662653
 20
-40.11297137744075
 30
0.0
 40
2.0
  1
CONPONENTS
 41
0.5
  7
高2
100
AcDbText
  0
TEXT
  5
833
330
6B
100
AcDbEntity
  8
0
 62
     3
100
AcDbText
 10
186.3690617374322
 20
-51.73251160022783
 30
0.0
 40
4.5
  1
LED-5P-BK
  7
高4.5
100
AcDbText
  0
TEXT
  5
834
330
6B
100
AcDbEntity
  8
0
 62
     3
100
AcDbText
 10
234.2913482027985
 20
-75.58813087261547
 30
0.0
 40
6.299999999999998
  1
LED-5P-BK
 41
0.6
  7
高6.3
100
AcDbText
1001
ACAD
1000
ACAD_MTEXT_DEFINED_HEIGHT_BEGIN
1070
    46
1040
0.0
1000
ACAD_MTEXT_DEFINED_HEIGHT_END
  0
TEXT
  5
835
330
6B
100
AcDbEntity
  8
0
 62
     3
100
AcDbText
 10
247.7898122225095
 20
-65.71910356980677
 30
0.0
 40
3.2
  1
2020.11.06
  7
高3.2
100
AcDbText
1001
ACAD
1000
ACAD_MTEXT_DEFINED_HEIGHT_BEGIN
1070
    46
1040
0.0
1000
ACAD_MTEXT_DEFINED_HEIGHT_END
  0
TEXT
  5
836
330
6B
100
AcDbEntity
  8
0
 62
     3
100
AcDbText
 10
218.0139003668263
 20
-65.71907572547191
 30
0.0
 40
3.2
  1
1/1
  7
高3.2
100
AcDbText
  0
TEXT
  5
837
330
6B
100
AcDbEntity
  8
0
 62
     3
100
AcDbText
 10
215.09122934218
 20
-76.00311455490381
 30
0.0
 40
3.2
  1
ZK-A4Y
 41
0.8
  7
高3.2
100
AcDbText
  0
TEXT
  5
838
330
6B
100
AcDbEntity
  8
0
 62
     3
100
AcDbText
 10
172.8115688721799
 20
-70.29537230585195
 30
0.0
 40
2.0
  1
NICHIDO IND.CO.LTD
 41
1.3
  7
高2
100
AcDbText
  0
TEXT
  5
839
330
6B
100
AcDbEntity
  8
0
 62
     3
100
AcDbText
 10
173.9930921371372
 20
-44.67946452015485
 30
0.0
 40
3.2
  1
品 名
  7
高3.2
100
AcDbText
1001
ACAD
1000
ACAD_MTEXT_DEFINED_HEIGHT_BEGIN
1070
    46
1040
0.0
1000
ACAD_MTEXT_DEFINED_HEIGHT_END
  0
TEXT
  5
83A
330
6B
100
AcDbEntity
  8
0
 62
     3
100
AcDbText
 10
173.9930921371372
 20
-52.31999272803978
 30
0.0
 40
3.2
  1
型 式
  7
高3.2
100
AcDbText
1001
ACAD
1000
ACAD_MTEXT_DEFINED_HEIGHT_BEGIN
1070
    46
1040
3.064735913775953
1000
ACAD_MTEXT_DEFINED_HEIGHT_END
  0
TEXT
  5
83B
330
6B
100
AcDbEntity
  8
0
 62
     3
100
AcDbText
 10
173.9930921371372
 20
-59.31999272803977
 30
0.0
 40
3.2
  1
材 質
  7
高3.2
100
AcDbText
1001
ACAD
1000
ACAD_MTEXT_DEFINED_HEIGHT_BEGIN
1070
    46
1040
0.0
1000
ACAD_MTEXT_DEFINED_HEIGHT_END
  0
TEXT
  5
83C
330
6B
100
AcDbEntity
  8
0
 62
     3
100
AcDbText
 10
173.6880571871371
 20
-66.35255273579353
 30
0.0
 40
3.2
  1
第 三 角 法
  7
高3.2
100
AcDbText
1001
ACAD
1000
ACAD_MTEXT_DEFINED_HEIGHT_BEGIN
1070
    46
1040
0.0
1000
ACAD_MTEXT_DEFINED_HEIGHT_END
  0
TEXT
  5
83D
330
6B
100
AcDbEntity
  8
0
 62
     3
100
AcDbText
 10
172.094589794666
 20
-75.67946452015485
 30
0.0
 40
3.2
  1
日動工業株式会社
 41
1.199999999999999
  7
高3.2
100
AcDbText
1001
ACAD
1000
ACAD_MTEXT_DEFINED_HEIGHT_BEGIN
1070
    46
1040
0.0
1000
ACAD_MTEXT_DEFINED_HEIGHT_END
  0
TEXT
  5
83E
330
6B
100
AcDbEntity
  8
0
 62
     3
100
AcDbText
 10
205.7302139941445
 20
-59.43541419487221
 30
0.0
 40
3.2
  1
備考
  7
高3.2
100
AcDbText
1001
ACAD
1000
ACAD_MTEXT_DEFINED_HEIGHT_BEGIN
1070
    46
1040
0.0
1000
ACAD_MTEXT_DEFINED_HEIGHT_END
  0
TEXT
  5
83F
330
6B
100
AcDbEntity
  8
0
 62
     3
100
AcDbText
 10
215.37927144118
 20
-70.67376270246949
 30
0.0
 40
2.5
  1
出図コード
  7
高2.5
100
AcDbText
1001
ACAD
1000
ACAD_MTEXT_DEFINED_HEIGHT_BEGIN
1070
    46
1040
0.0
1000
ACAD_MTEXT_DEFINED_HEIGHT_END
  0
TEXT
  5
840
330
6B
100
AcDbEntity
  8
0
 62
     3
100
AcDbText
 10
205.571447876057
 20
-66.36675781762686
 30
0.0
 40
3.2
  1
尺度
  7
高3.2
100
AcDbText
1001
ACAD
1000
ACAD_MTEXT_DEFINED_HEIGHT_BEGIN
1070
    46
1040
0.0
1000
ACAD_MTEXT_DEFINED_HEIGHT_END
  0
TEXT
  5
841
330
6B
100
AcDbEntity
  8
0
 62
     3
100
AcDbText
 10
232.7177093578358
 20
-65.23527936950936
 30
0.0
 40
3.2
  1
作成日
  7
高3.2
100
AcDbText
1001
ACAD
1000
ACAD_MTEXT_DEFINED_HEIGHT_BEGIN
1070
    46
1040
0.0
1000
ACAD_MTEXT_DEFINED_HEIGHT_END
  0
TEXT
  5
842
330
6B
100
AcDbEntity
  8
0
 62
     3
100
AcDbText
 10
232.6121833646998
 20
-44.67946452015485
 30
0.0
 40
3.2
  1
承 認
  7
高3.2
100
AcDbText
1001
ACAD
1000
ACAD_MTEXT_DEFINED_HEIGHT_BEGIN
1070
    46
1040
0.0
1000
ACAD_MTEXT_DEFINED_HEIGHT_END
  0
TEXT
  5
843
330
6B
100
AcDbEntity
  8
0
 62
     3
100
AcDbText
 10
245.6121833646997
 20
-44.67946452015485
 30
0.0
 40
3.2
  1
検 図
  7
高3.2
100
AcDbText
1001
ACAD
1000
ACAD_MTEXT_DEFINED_HEIGHT_BEGIN
1070
    46
1040
0.0
1000
ACAD_MTEXT_DEFINED_HEIGHT_END
  0
TEXT
  5
844
330
6B
100
AcDbEntity
  8
0
 62
     3
100
AcDbText
 10
258.6121833646997
 20
-44.67946452015485
 30
0.0
 40
3.2
  1
設 計
  7
高3.2
100
AcDbText
1001
ACAD
1000
ACAD_MTEXT_DEFINED_HEIGHT_BEGIN
1070
    46
1040
0.0
1000
ACAD_MTEXT_DEFINED_HEIGHT_END
  0
TEXT
  5
845
330
6B
100
AcDbEntity
  8
0
 62
     3
100
AcDbText
 10
271.9128198846997
 20
-44.67946452015485
 30
0.0
 40
3.2
  1
製 図
  7
高3.2
100
AcDbText
1001
ACAD
1000
ACAD_MTEXT_DEFINED_HEIGHT_BEGIN
1070
    46
1040
0.0
1000
ACAD_MTEXT_DEFINED_HEIGHT_END
  0
LINE
  5
846
330
6B
100
AcDbEntity
  8
0
 62
     3
100
AcDbLine
 10
142.4792364319136
 20
201.6281878656262
 30
0.0
 11
142.4792364319136
 21
198.4748390719604
 31
0.0
  0
LINE
  5
847
330
6B
100
AcDbEntity
  8
0
 62
     3
100
AcDbLine
 10
143.1220655070131
 20
200.3971160458989
 30
0.0
 11
143.1220655070131
 21
198.4748390719604
 31
0.0
  0
LINE
  5
848
330
6B
100
AcDbEntity
  8
0
 62
     3
100
AcDbLine
 10
144.9261623948871
 20
201.6281878656262
 30
0.0
 11
144.9261623948871
 21
200.2397209448752
 31
0.0
  0
LINE
  5
849
330
6B
100
AcDbEntity
  8
0
 62
     3
100
AcDbLine
 10
145.5689907961309
 20
201.6281878656262
 30
0.0
 11
145.5689907961309
 21
198.0522070733838
 31
0.0
  0
LINE
  5
84A
330
6B
100
AcDbEntity
  8
0
 62
     3
100
AcDbLine
 10
146.5929369537111
 20
201.6065287612816
 30
0.0
 11
146.5929369537111
 21
198.4532183773737
 31
0.0
  0
LINE
  5
84B
330
6B
100
AcDbEntity
  8
0
 62
     3
100
AcDbLine
 10
147.6114586079861
 20
201.6065146103182
 30
0.0
 11
147.6114586079861
 21
198.4532042264102
 31
0.0
  0
LINE
  5
84C
330
6B
100
AcDbEntity
  8
0
 62
     3
100
AcDbLine
 10
151.3822816784131
 20
201.6064674404402
 30
0.0
 11
151.3822264222703
 21
198.4531577303877
 31
0.0
  0
LINE
  5
84D
330
6B
100
AcDbEntity
  8
0
 62
     3
100
AcDbLine
 10
154.498145917785
 20
201.6064674404402
 30
0.0
 11
154.4982011739275
 21
198.4531577303877
 31
0.0
  0
LINE
  5
84E
330
6B
100
AcDbEntity
  8
0
 62
     3
100
AcDbLine
 10
153.4577212676127
 20
200.2326373328163
 30
0.0
 11
152.4227063285855
 21
200.2326373328163
 31
0.0
  0
LINE
  5
84F
330
6B
100
AcDbEntity
  8
0
 62
     3
100
AcDbLine
 10
153.4577145290586
 20
199.827081503912
 30
0.0
 11
152.4227137409948
 21
199.827081503912
 31
0.0
  0
LINE
  5
850
330
6B
100
AcDbEntity
  8
0
 62
     3
100
AcDbLine
 10
153.457745526407
 20
201.6064674404402
 30
0.0
 11
153.4577212676127
 21
200.2326373328163
 31
0.0
  0
LINE
  5
851
330
6B
100
AcDbEntity
  8
0
 62
     3
100
AcDbLine
 10
153.4577145290586
 20
199.827081503912
 30
0.0
 11
153.457690270264
 21
198.4531577303877
 31
0.0
  0
LINE
  5
852
330
6B
100
AcDbEntity
  8
0
 62
     3
100
AcDbLine
 10
152.4226820697911
 20
201.6064674404402
 30
0.0
 11
152.4227063285855
 21
200.2326373328163
 31
0.0
  0
LINE
  5
853
330
6B
100
AcDbEntity
  8
0
 62
     3
100
AcDbLine
 10
152.4227137409948
 20
199.827081503912
 30
0.0
 11
152.4227373259336
 21
198.4531577303877
 31
0.0
  0
LINE
  5
854
330
6B
100
AcDbEntity
  8
0
 62
     3
100
AcDbLine
 10
155.5245670555237
 20
201.6064674404402
 30
0.0
 11
155.5245117993811
 21
198.4531577303877
 31
0.0
  0
LINE
  5
855
330
6B
100
AcDbEntity
  8
0
 62
     3
100
AcDbLine
 10
156.5430671464262
 20
201.6064674404402
 30
0.0
 11
156.5431217287134
 21
198.4531577303877
 31
0.0
  0
LINE
  5
856
330
6B
100
AcDbEntity
  8
0
 62
     3
100
AcDbLine
 10
157.5813127437502
 20
201.6064674404402
 30
0.0
 11
157.581258161463
 21
198.4531577303877
 31
0.0
  0
ARC
  5
857
330
6B
100
AcDbEntity
  8
0
 62
     3
100
AcDbCircle
 10
149.8532405622882
 20
200.0388985146897
 30
0.0
 40
2.008364022758428
100
AcDbArc
 50
97.70152399999965
 51
266.0248408089554
  0
ARC
  5
858
330
6B
100
AcDbEntity
  8
0
 62
     3
100
AcDbCircle
 10
161.9730412676977
 20
200.0187246317471
 30
0.0
 40
2.030175374321248
100
AcDbArc
 50
0.3142499999975761
 51
69.00558199999756
  0
ARC
  5
859
330
6B
100
AcDbEntity
  8
0
 62
     3
100
AcDbCircle
 10
162.4165102229299
 20
200.0187246317471
 30
0.0
 40
2.030175374321248
100
AcDbArc
 50
110.9944180000024
 51
148.1166110000011
  0
ARC
  5
85A
330
6B
100
AcDbEntity
  8
0
 62
     3
100
AcDbCircle
 10
161.9730412676977
 20
200.0409942049814
 30
0.0
 40
2.030175374321248
100
AcDbArc
 50
290.9944180000024
 51
359.6857499999992
  0
ARC
  5
85B
330
6B
100
AcDbEntity
  8
0
 62
     3
100
AcDbCircle
 10
162.4165102229299
 20
200.0409942049814
 30
0.0
 40
2.030175374321248
100
AcDbArc
 50
211.8833889999977
 51
249.0055819999976
  0
ARC
  5
85C
330
6B
100
AcDbEntity
  8
0
 62
     3
100
AcDbCircle
 10
162.1947760822415
 20
200.8604394325125
 30
0.0
 40
1.168726044333501
100
AcDbArc
 50
64.3651719999999
 51
115.6348280000001
  0
ARC
  5
85D
330
6B
100
AcDbEntity
  8
0
 62
     3
100
AcDbCircle
 10
162.1947760822415
 20
199.199279404216
 30
0.0
 40
1.168726044333501
100
AcDbArc
 50
244.3651719999999
 51
295.6348280000002
  0
ARC
  5
85E
330
6B
100
AcDbEntity
  8
0
 62
     3
100
AcDbCircle
 10
162.1947760822415
 20
200.8826402724961
 30
0.0
 40
0.5736005406576802
100
AcDbArc
 50
19.48660599999886
 51
160.5133940000011
  0
ARC
  5
85F
330
6B
100
AcDbEntity
  8
0
 62
     3
100
AcDbCircle
 10
162.1947760822415
 20
199.1770792380878
 30
0.0
 40
0.5736005406576802
100
AcDbArc
 50
199.4866059999988
 51
340.5133940000011
  0
LINE
  5
860
330
6B
100
AcDbEntity
  8
0
 62
     3
100
AcDbLine
 10
156.8802702630909
 20
198.0305533598825
 30
0.0
 11
155.1873639388588
 21
198.0305533598825
 31
0.0
  0
LINE
  5
861
330
6B
100
AcDbEntity
  8
0
 62
     3
100
AcDbLine
 10
156.8802702630909
 20
198.2342126771968
 30
0.0
 11
156.8802702630909
 21
198.0305533598825
 31
0.0
  0
LINE
  5
862
330
6B
100
AcDbEntity
  8
0
 62
     3
100
AcDbLine
 10
154.8353497083053
 20
202.0290704632347
 30
0.0
 11
153.120542409742
 21
202.0290704632347
 31
0.0
  0
LINE
  5
863
330
6B
100
AcDbEntity
  8
0
 62
     3
100
AcDbLine
 10
154.8353497083053
 20
202.0290704632347
 30
0.0
 11
154.8353497083053
 21
201.8255061595316
 31
0.0
  0
LINE
  5
864
330
6B
100
AcDbEntity
  8
0
 62
     3
100
AcDbLine
 10
154.8353497083053
 20
198.2342126771968
 30
0.0
 11
154.8353497083053
 21
198.0304583462711
 31
0.0
  0
LINE
  5
865
330
6B
100
AcDbEntity
  8
0
 62
     3
100
AcDbLine
 10
154.8353497083053
 20
198.0304583462711
 30
0.0
 11
153.120542409742
 21
198.0304583462711
 31
0.0
  0
LINE
  5
866
330
6B
100
AcDbEntity
  8
0
 62
     3
100
AcDbLine
 10
156.8802702630909
 20
202.0291654768459
 30
0.0
 11
156.8802702630909
 21
201.8255061595316
 31
0.0
  0
LINE
  5
867
330
6B
100
AcDbEntity
  8
0
 62
     3
100
AcDbLine
 10
156.8802702630909
 20
202.0291654768459
 30
0.0
 11
155.1873639388588
 21
202.0291654768459
 31
0.0
  0
LINE
  5
868
330
6B
100
AcDbEntity
  8
0
 62
     3
100
AcDbLine
 10
155.1873639388588
 20
202.0291654768459
 30
0.0
 11
155.1873639388588
 21
201.8255061595316
 31
0.0
  0
LINE
  5
869
330
6B
100
AcDbEntity
  8
0
 62
     3
100
AcDbLine
 10
157.2441096270854
 20
198.2342126771968
 30
0.0
 11
157.2441096270854
 21
198.0305533598825
 31
0.0
  0
LINE
  5
86A
330
6B
100
AcDbEntity
  8
0
 62
     3
100
AcDbLine
 10
159.0720277873613
 20
198.0305533598825
 30
0.0
 11
157.2441096270854
 21
198.0305533598825
 31
0.0
  0
LINE
  5
86B
330
6B
100
AcDbEntity
  8
0
 62
     3
100
AcDbLine
 10
158.5998128346527
 20
201.3863370756021
 30
0.0
 11
158.5998128346527
 21
198.6733817611264
 31
0.0
  0
LINE
  5
86C
330
6B
100
AcDbEntity
  8
0
 62
     3
100
AcDbLine
 10
158.5998128346527
 20
198.6733817611264
 30
0.0
 11
158.7827632278374
 21
198.6733817611264
 31
0.0
  0
ARC
  5
86D
330
6B
100
AcDbEntity
  8
0
 62
     3
100
AcDbCircle
 10
157.8472733620021
 20
200.0298594183643
 30
0.0
 40
1.647777933922859
100
AcDbArc
 50
304.591955000001
 51
55.40804499999897
  0
LINE
  5
86E
330
6B
100
AcDbEntity
  8
0
 62
     3
100
AcDbLine
 10
159.0720277873613
 20
202.0291654768459
 30
0.0
 11
157.2441096270854
 21
202.0291654768459
 31
0.0
  0
LINE
  5
86F
330
6B
100
AcDbEntity
  8
0
 62
     3
100
AcDbLine
 10
157.2441096270854
 20
202.0291654768459
 30
0.0
 11
157.2441096270854
 21
201.8255061595316
 31
0.0
  0
LINE
  5
870
330
6B
100
AcDbEntity
  8
0
 62
     3
100
AcDbLine
 10
155.1873639388588
 20
198.2342126771968
 30
0.0
 11
155.1873639388588
 21
198.0305533598825
 31
0.0
  0
LINE
  5
871
330
6B
100
AcDbEntity
  8
0
 62
     3
100
AcDbLine
 10
158.5998128346527
 20
201.3863370756021
 30
0.0
 11
158.7827632278374
 21
201.3863370756021
 31
0.0
  0
LINE
  5
872
330
6B
100
AcDbEntity
  8
0
 62
     3
100
AcDbLine
 10
147.9486030990886
 20
198.2342063027807
 30
0.0
 11
147.9485990559562
 21
198.0305281175152
 31
0.0
  0
LINE
  5
873
330
6B
100
AcDbEntity
  8
0
 62
     3
100
AcDbLine
 10
142.1420333152487
 20
198.0522070733838
 30
0.0
 11
143.4592686236779
 21
198.0522070733838
 31
0.0
  0
ARC
  5
874
330
6B
100
AcDbEntity
  8
0
 62
     3
100
AcDbCircle
 10
136.8514445694752
 20
200.0769396735434
 30
0.0
 40
14.16402202796531
100
AcDbArc
 50
353.8660059999992
 51
357.6940340000013
  0
LINE
  5
875
330
6B
100
AcDbEntity
  8
0
 62
     3
100
AcDbLine
 10
150.0557186110877
 20
199.5105473640914
 30
0.0
 11
151.0039975785453
 21
199.5070385990276
 31
0.0
  0
LINE
  5
877
330
6B
100
AcDbEntity
  8
0
 62
     3
100
AcDbLine
 10
150.0595481313216
 20
200.545603408298
 30
0.0
 11
151.0078270987792
 21
200.542094643234
 31
0.0
  0
ARC
  5
878
330
6B
100
AcDbEntity
  8
0
 62
     3
100
AcDbCircle
 10
136.8514445694752
 20
200.0769396735434
 30
0.0
 40
14.16402202796531
100
AcDbArc
 50
1.881965999998854
 51
5.709993999998888
  0
LINE
  5
879
330
6B
100
AcDbEntity
  8
0
 62
     3
100
AcDbLine
 10
147.9486691370718
 20
202.0291479700679
 30
0.0
 11
147.9486657677948
 21
201.8255075207047
 31
0.0
  0
LINE
  5
87A
330
6B
100
AcDbEntity
  8
0
 62
     3
100
AcDbLine
 10
146.2556967749879
 20
198.2342113160236
 30
0.0
 11
146.2556934057109
 21
198.0305708666605
 31
0.0
  0
LINE
  5
87B
330
6B
100
AcDbEntity
  8
0
 62
     3
100
AcDbLine
 10
146.255762812817
 20
202.0291836577361
 30
0.0
 11
146.2557594435399
 21
201.8255047986151
 31
0.0
  0
LINE
  5
87C
330
6B
100
AcDbEntity
  8
0
 62
     3
100
AcDbLine
 10
143.4592686236779
 20
198.2558663906982
 30
0.0
 11
143.4592686236779
 21
198.0522070733838
 31
0.0
  0
LINE
  5
87D
330
6B
100
AcDbEntity
  8
0
 62
     3
100
AcDbLine
 10
143.1220655070131
 20
200.3971160458989
 30
0.0
 11
144.5876336148351
 21
198.0522070733838
 31
0.0
  0
LINE
  5
87E
330
6B
100
AcDbEntity
  8
0
 62
     3
100
AcDbLine
 10
144.5876336148351
 20
198.0522070733838
 30
0.0
 11
145.5689907961309
 21
198.0522070733838
 31
0.0
  0
LINE
  5
87F
330
6B
100
AcDbEntity
  8
0
 62
     3
100
AcDbLine
 10
145.9061939127957
 20
202.0508191903473
 30
0.0
 11
145.9061939127957
 21
201.847159873033
 31
0.0
  0
LINE
  5
880
330
6B
100
AcDbEntity
  8
0
 62
     3
100
AcDbLine
 10
144.5889592782221
 20
202.0508191903473
 30
0.0
 11
145.9061939127957
 21
202.0508191903473
 31
0.0
  0
LINE
  5
881
330
6B
100
AcDbEntity
  8
0
 62
     3
100
AcDbLine
 10
144.5889592782221
 20
202.0508191903473
 30
0.0
 11
144.5889592782221
 21
201.847159873033
 31
0.0
  0
LINE
  5
882
330
6B
100
AcDbEntity
  8
0
 62
     3
100
AcDbLine
 10
144.9261623948871
 20
200.2397209448752
 30
0.0
 11
143.7376290449481
 21
202.0508191903473
 31
0.0
  0
LINE
  5
883
330
6B
100
AcDbEntity
  8
0
 62
     3
100
AcDbLine
 10
142.1420333152487
 20
202.0508191903473
 30
0.0
 11
143.7376290449481
 21
202.0508191903473
 31
0.0
  0
LINE
  5
884
330
6B
100
AcDbEntity
  8
0
 62
     3
100
AcDbLine
 10
151.0450785617481
 20
202.0290704632347
 30
0.0
 11
152.7598851864559
 21
202.0290704632346
 31
0.0
  0
LINE
  5
885
330
6B
100
AcDbEntity
  8
0
 62
     3
100
AcDbLine
 10
151.0450785617481
 20
201.8255061595316
 30
0.0
 11
151.0450785617481
 21
202.0290704632347
 31
0.0
  0
LINE
  5
886
330
6B
100
AcDbEntity
  8
0
 62
     3
100
AcDbLine
 10
151.0450785617481
 20
198.0304583462711
 30
0.0
 11
151.0450785617481
 21
198.2342126771968
 31
0.0
  0
LINE
  5
887
330
6B
100
AcDbEntity
  8
0
 62
     3
100
AcDbLine
 10
151.0450785617481
 20
198.0304583462711
 30
0.0
 11
152.7598851864559
 21
198.0304583462711
 31
0.0
  0
LINE
  5
888
330
6B
100
AcDbEntity
  8
0
 62
     3
100
AcDbLine
 10
153.120542409742
 20
198.2342126771968
 30
0.0
 11
153.120542409742
 21
198.0304583462711
 31
0.0
  0
LINE
  5
889
330
6B
100
AcDbEntity
  8
0
 62
     3
100
AcDbLine
 10
152.7598851864559
 20
198.2342126771968
 30
0.0
 11
152.7598851864559
 21
198.0304583462711
 31
0.0
  0
LINE
  5
88A
330
6B
100
AcDbEntity
  8
0
 62
     3
100
AcDbLine
 10
152.7598851864559
 20
201.8255061595316
 30
0.0
 11
152.7598851864559
 21
202.0290704632347
 31
0.0
  0
LINE
  5
88B
330
6B
100
AcDbEntity
  8
0
 62
     3
100
AcDbLine
 10
153.120542409742
 20
201.8255061595316
 30
0.0
 11
153.120542409742
 21
202.0290704632347
 31
0.0
  0
LINE
  5
88C
330
6B
100
AcDbEntity
  8
0
 62
     3
100
AcDbLine
 10
142.1420333152487
 20
198.2558663906982
 30
0.0
 11
142.1420333152487
 21
198.0522070733838
 31
0.0
  0
LINE
  5
88D
330
6B
100
AcDbEntity
  8
0
 62
     3
100
AcDbLine
 10
142.1420333152487
 20
202.0508191903473
 30
0.0
 11
142.1420333152487
 21
201.847159873033
 31
0.0
  0
ARC
  5
88E
330
6B
100
AcDbEntity
  8
0
 62
     3
100
AcDbCircle
 10
159.2436270350954
 20
200.4493323828292
 30
0.0
 40
1.579833094016801
100
AcDbArc
 50
17.30874900000288
 51
23.7650709999983
  0
ARC
  5
88F
330
6B
100
AcDbEntity
  8
0
 62
     3
100
AcDbCircle
 10
157.8975786378717
 20
200.0298594183643
 30
0.0
 40
2.989728616463745
100
AcDbArc
 50
342.6912509999971
 51
17.30856599999716
  0
ARC
  5
890
330
6B
100
AcDbEntity
  8
0
 62
     3
100
AcDbCircle
 10
159.2436270350954
 20
199.6103864538993
 30
0.0
 40
1.579833094016801
100
AcDbArc
 50
336.2349290000017
 51
342.6912509999971
  0
ARC
  5
891
330
6B
100
AcDbEntity
  8
0
 62
     3
100
AcDbCircle
 10
159.0720277873613
 20
200.4493323828292
 30
0.0
 40
1.579833094016801
100
AcDbArc
 50
17.30874900000288
 51
90.0
  0
ARC
  5
892
330
6B
100
AcDbEntity
  8
0
 62
     3
100
AcDbCircle
 10
157.7259760074705
 20
200.0298684509862
 30
0.0
 40
2.989728616463745
100
AcDbArc
 50
342.6912509999971
 51
17.30856599999716
  0
ARC
  5
893
330
6B
100
AcDbEntity
  8
0
 62
     3
100
AcDbCircle
 10
159.0720277873613
 20
199.6103864538993
 30
0.0
 40
1.579833094016801
100
AcDbArc
 50
270.0
 51
342.6912509999971
  0
ARC
  5
894
330
6B
100
AcDbEntity
  8
0
 62
     3
100
AcDbCircle
 10
149.5753708975655
 20
200.0298594183643
 30
0.0
 40
1.99930605848175
100
AcDbArc
 50
46.75288000000244
 51
89.74999799999961
  0
ARC
  5
895
330
6B
100
AcDbEntity
  8
0
 62
     3
100
AcDbCircle
 10
149.5753708975655
 20
200.0298594183643
 30
0.0
 40
1.99930605848175
100
AcDbArc
 50
273.9763330000016
 51
312.8231199999933
  0
ARC
  5
896
330
6B
100
AcDbEntity
  8
0
 62
     3
100
AcDbCircle
 10
160.3101164121104
 20
199.9989954933679
 30
0.0
 40
2.652957925148358
100
AcDbArc
 50
0.6665839999989746
 51
23.90392800000339
  0
ARC
  5
897
330
6B
100
AcDbEntity
  8
0
 62
     3
100
AcDbCircle
 10
164.079435078517
 20
199.9989954933679
 30
0.0
 40
2.652957925148358
100
AcDbArc
 50
156.0960719999965
 51
179.333416000001
  0
ARC
  5
898
330
6B
100
AcDbEntity
  8
0
 62
     3
100
AcDbCircle
 10
160.3101164121104
 20
200.0607233433605
 30
0.0
 40
2.652957925148358
100
AcDbArc
 50
336.0960719999966
 51
359.3334159999978
  0
ARC
  5
899
330
6B
100
AcDbEntity
  8
0
 62
     3
100
AcDbCircle
 10
164.079435078517
 20
200.0607233433605
 30
0.0
 40
2.652957925148358
100
AcDbArc
 50
180.666583999999
 51
203.9039280000034
  0
LINE
  5
89A
330
6B
100
AcDbEntity
  8
0
  6
Continuous
 62
     3
100
AcDbLine
 10
142.1420333152487
 20
201.847159873033
 30
0.0
 11
142.4792364319136
 21
201.6281878656262
 31
0.0
  0
LINE
  5
89B
330
6B
100
AcDbEntity
  8
0
  6
Continuous
 62
     3
100
AcDbLine
 10
144.5889592782221
 20
201.847159873033
 30
0.0
 11
144.9261623948871
 21
201.6281878656262
 31
0.0
  0
LINE
  5
89C
330
6B
100
AcDbEntity
  8
0
  6
Continuous
 62
     3
100
AcDbLine
 10
145.9061939127957
 20
201.847159873033
 30
0.0
 11
145.5689907961309
 21
201.6281878656262
 31
0.0
  0
LINE
  5
89D
330
6B
100
AcDbEntity
  8
0
  6
Continuous
 62
     3
100
AcDbLine
 10
146.2557594435399
 20
201.8255047986151
 30
0.0
 11
146.5929369537111
 21
201.6065287612816
 31
0.0
  0
LINE
  5
89E
330
6B
100
AcDbEntity
  8
0
  6
Continuous
 62
     3
100
AcDbLine
 10
147.9486657677948
 20
201.8255075207047
 30
0.0
 11
147.6114586079861
 21
201.6065146103182
 31
0.0
  0
LINE
  5
89F
330
6B
100
AcDbEntity
  8
0
  6
Continuous
 62
     3
100
AcDbLine
 10
151.0450785617481
 20
201.8255061595316
 30
0.0
 11
151.3822816784131
 21
201.6064674404402
 31
0.0
  0
LINE
  5
8A0
330
6B
100
AcDbEntity
  8
0
  6
Continuous
 62
     3
100
AcDbLine
 10
152.7598851864559
 20
201.8255061595316
 30
0.0
 11
152.4226820697911
 21
201.6064674404402
 31
0.0
  0
LINE
  5
8A1
330
6B
100
AcDbEntity
  8
0
  6
Continuous
 62
     3
100
AcDbLine
 10
153.120542409742
 20
201.8255061595316
 30
0.0
 11
153.457745526407
 21
201.6064674404402
 31
0.0
  0
LINE
  5
8A2
330
6B
100
AcDbEntity
  8
0
  6
Continuous
 62
     3
100
AcDbLine
 10
154.8353497083053
 20
201.8255061595316
 30
0.0
 11
154.498145917785
 21
201.6064674404402
 31
0.0
  0
LINE
  5
8A3
330
6B
100
AcDbEntity
  8
0
  6
Continuous
 62
     3
100
AcDbLine
 10
155.1873639388588
 20
201.8255061595316
 30
0.0
 11
155.5245670555237
 21
201.6064674404402
 31
0.0
  0
LINE
  5
8A4
330
6B
100
AcDbEntity
  8
0
  6
Continuous
 62
     3
100
AcDbLine
 10
156.8802702630909
 20
201.8255061595316
 30
0.0
 11
156.5430671464262
 21
201.6064674404402
 31
0.0
  0
LINE
  5
8A5
330
6B
100
AcDbEntity
  8
0
  6
Continuous
 62
     3
100
AcDbLine
 10
157.2441096270854
 20
201.8255061595316
 30
0.0
 11
157.5813127437502
 21
201.6064674404402
 31
0.0
  0
LINE
  5
8A6
330
6B
100
AcDbEntity
  8
0
  6
Continuous
 62
     3
100
AcDbLine
 10
157.581258161463
 20
198.4531577303877
 30
0.0
 11
157.2441096270854
 21
198.2342126771968
 31
0.0
  0
LINE
  5
8A7
330
6B
100
AcDbEntity
  8
0
  6
Continuous
 62
     3
100
AcDbLine
 10
156.5431217287134
 20
198.4531577303877
 30
0.0
 11
156.8802702630909
 21
198.2342126771968
 31
0.0
  0
LINE
  5
8A8
330
6B
100
AcDbEntity
  8
0
  6
Continuous
 62
     3
100
AcDbLine
 10
155.5245117993811
 20
198.4531577303877
 30
0.0
 11
155.1873639388588
 21
198.2342126771968
 31
0.0
  0
LINE
  5
8A9
330
6B
100
AcDbEntity
  8
0
  6
Continuous
 62
     3
100
AcDbLine
 10
154.8353497083053
 20
198.2342126771968
 30
0.0
 11
154.4982011739275
 21
198.4531577303877
 31
0.0
  0
LINE
  5
8AA
330
6B
100
AcDbEntity
  8
0
  6
Continuous
 62
     3
100
AcDbLine
 10
153.120542409742
 20
198.2342126771968
 30
0.0
 11
153.457690270264
 21
198.4531577303877
 31
0.0
  0
LINE
  5
8AB
330
6B
100
AcDbEntity
  8
0
  6
Continuous
 62
     3
100
AcDbLine
 10
152.7598851864559
 20
198.2342126771968
 30
0.0
 11
152.4227373259336
 21
198.4531577303877
 31
0.0
  0
LINE
  5
8AC
330
6B
100
AcDbEntity
  8
0
  6
Continuous
 62
     3
100
AcDbLine
 10
151.3822264222703
 20
198.4531577303877
 30
0.0
 11
151.0450785617481
 21
198.2342126771968
 31
0.0
  0
LINE
  5
8AD
330
6B
100
AcDbEntity
  8
0
  6
Continuous
 62
     3
100
AcDbLine
 10
147.9486030992475
 20
198.2342143103019
 30
0.0
 11
147.6114586079861
 21
198.4532042264102
 31
0.0
  0
LINE
  5
8AE
330
6B
100
AcDbEntity
  8
0
  6
Continuous
 62
     3
100
AcDbLine
 10
146.2556967749879
 20
198.2342113160236
 30
0.0
 11
146.5928709158818
 21
198.4532183773737
 31
0.0
  0
LINE
  5
8AF
330
6B
100
AcDbEntity
  8
0
  6
Continuous
 62
     3
100
AcDbLine
 10
143.4592686236779
 20
198.2558663906982
 30
0.0
 11
143.1220655070131
 21
198.4748390719604
 31
0.0
  0
LINE
  5
8B0
330
6B
100
AcDbEntity
  8
0
  6
Continuous
 62
     3
100
AcDbLine
 10
142.1420333152487
 20
198.2558663906982
 30
0.0
 11
142.4792364319136
 21
198.4748390719604
 31
0.0
  0
LINE
  5
8B1
330
6B
100
AcDbEntity
  8
0
  6
Continuous
 62
     3
100
AcDbLine
 10
147.9485990561152
 20
198.0305361250364
 30
0.0
 11
146.2556934057109
 21
198.0305708666605
 31
0.0
  0
LINE
  5
8B2
330
6B
100
AcDbEntity
  8
0
  6
Continuous
 62
     3
100
AcDbLine
 10
146.255762812817
 20
202.0291836577361
 30
0.0
 11
147.9486691370718
 21
202.0291479700679
 31
0.0
  0
ARC
  5
8B3
330
6B
100
AcDbEntity
  8
0
  6
Continuous
 62
     3
100
AcDbCircle
 10
165.4700251099179
 20
200.0177130811497
 30
0.0
 40
0.9989999999999998
100
AcDbArc
 50
293.748543090518
 51
66.2514569094819
  0
ARC
  5
8B4
330
6B
100
AcDbEntity
  8
0
  6
Continuous
 62
     3
100
AcDbCircle
 10
165.4700251099179
 20
200.0177130811497
 30
0.0
 40
1.498499999999999
100
AcDbArc
 50
293.748543090518
 51
66.2514569094819
  0
ARC
  5
8B5
330
6B
100
AcDbEntity
  8
0
  6
Continuous
 62
     3
100
AcDbCircle
 10
157.8259319639251
 20
182.6439915173803
 30
0.0
 40
19.98
100
AcDbArc
 50
66.2514569094819
 51
81.41597019517911
  0
ARC
  5
8B6
330
6B
100
AcDbEntity
  8
0
  6
Continuous
 62
     3
100
AcDbCircle
 10
157.8259319639251
 20
182.6439915173803
 30
0.0
 40
20.4795
100
AcDbArc
 50
66.2514569094819
 51
81.41597019517911
  0
ARC
  5
8B7
330
6B
100
AcDbEntity
  8
0
  6
Continuous
 62
     3
100
AcDbCircle
 10
139.4458843030647
 20
200.0177130811497
 30
0.0
 40
0.9989999999999998
100
AcDbArc
 50
113.7485430905181
 51
246.2514569094818
  0
ARC
  5
8B8
330
6B
100
AcDbEntity
  8
0
  6
Continuous
 62
     3
100
AcDbCircle
 10
139.4458843030647
 20
200.0177130811497
 30
0.0
 40
1.498499999999999
100
AcDbArc
 50
113.7485430905181
 51
246.2514569094818
  0
ARC
  5
8B9
330
6B
100
AcDbEntity
  8
0
  6
Continuous
 62
     3
100
AcDbCircle
 10
147.0899774490574
 20
182.6439915173803
 30
0.0
 40
19.98
100
AcDbArc
 50
98.5840298048209
 51
113.7485430905181
  0
ARC
  5
8BA
330
6B
100
AcDbEntity
  8
0
  6
Continuous
 62
     3
100
AcDbCircle
 10
147.0899774490574
 20
182.6439915173803
 30
0.0
 40
20.4795
100
AcDbArc
 50
98.5840298048209
 51
113.7485430905181
  0
ARC
  5
8BB
330
6B
100
AcDbEntity
  8
0
  6
Continuous
 62
     3
100
AcDbCircle
 10
157.8259319639251
 20
217.3914346449191
 30
0.0
 40
19.98
100
AcDbArc
 50
278.5840298048209
 51
293.748543090518
  0
ARC
  5
8BC
330
6B
100
AcDbEntity
  8
0
  6
Continuous
 62
     3
100
AcDbCircle
 10
157.8259319639251
 20
217.3914346449191
 30
0.0
 40
20.4795
100
AcDbArc
 50
278.5840298048209
 51
293.748543090518
  0
ARC
  5
8BD
330
6B
100
AcDbEntity
  8
0
  6
Continuous
 62
     3
100
AcDbCircle
 10
147.0899774490574
 20
217.3914346449191
 30
0.0
 40
19.98
100
AcDbArc
 50
246.2514569094818
 51
261.4159701951791
  0
ARC
  5
8BE
330
6B
100
AcDbEntity
  8
0
  6
Continuous
 62
     3
100
AcDbCircle
 10
147.0899774490574
 20
217.3914346449191
 30
0.0
 40
20.4795
100
AcDbArc
 50
246.2514569094818
 51
261.4159701951791
  0
ARC
  5
8BF
330
6B
100
AcDbEntity
  8
0
  6
Continuous
 62
     3
100
AcDbCircle
 10
152.4579547064913
 20
147.0828594183652
 30
0.0
 40
56.44349999999903
100
AcDbArc
 50
81.41597019517911
 51
98.5840298048209
  0
ARC
  5
8C0
330
6B
100
AcDbEntity
  8
0
  6
Continuous
 62
     3
100
AcDbCircle
 10
152.4579547064913
 20
147.082859418366
 30
0.0
 40
55.94399999999822
100
AcDbArc
 50
81.41597019517911
 51
98.5840298048209
  0
ARC
  5
8C1
330
6B
100
AcDbEntity
  8
0
  6
Continuous
 62
     3
100
AcDbCircle
 10
152.4579547064913
 20
252.9525667439342
 30
0.0
 40
56.44349999999903
100
AcDbArc
 50
261.4159701951791
 51
278.5840298048209
  0
ARC
  5
8C2
330
6B
100
AcDbEntity
  8
0
  6
Continuous
 62
     3
100
AcDbCircle
 10
152.4579547064913
 20
252.9525667439334
 30
0.0
 40
55.94399999999822
100
AcDbArc
 50
261.4159701951791
 51
278.5840298048209
  0
TEXT
  5
8C3
330
6B
100
AcDbEntity
  8
0
 62
     3
100
AcDbText
 10
270.72630247218
 20
190.6800072719602
 30
0.0
 40
3.2
  1
担　当
  7
高3.2
100
AcDbText
  0
TEXT
  5
8C4
330
6B
100
AcDbEntity
  8
0
 62
     3
100
AcDbText
 10
226.72630247218
 20
190.6800072719602
 30
0.0
 40
3.2
  1
変更・追記内容
  7
高3.2
100
AcDbText
  0
TEXT
  5
8C5
330
6B
100
AcDbEntity
  8
0
 62
     3
100
AcDbText
 10
201.8398174725192
 20
186.0094687620519
 30
0.0
 40
2.0
  1
1
  7
高2
100
AcDbText
  0
TEXT
  5
8C6
330
6B
100
AcDbEntity
  8
0
 62
     3
100
AcDbText
 10
201.531305995762
 20
180.839652049779
 30
0.0
 40
2.0
  1
2
  7
高2
100
AcDbText
  0
TEXT
  5
8C7
330
6B
100
AcDbEntity
  8
0
 62
     3
100
AcDbText
 10
208.72630247218
 20
190.6800072719602
 30
0.0
 40
3.2
  1
日　付
  7
高3.2
100
AcDbText
  0
TEXT
  5
8C8
330
6B
100
AcDbEntity
  8
0
 62
     3
100
AcDbText
 10
208.72630247218
 20
195.6800072719602
 30
0.0
 40
3.2
  1
図　　　　面　　　　略　　　　歴
  7
高3.2
100
AcDbText
  0
TEXT
  5
8C9
330
6B
100
AcDbEntity
  8
0
 62
     3
100
AcDbText
 10
198.72630247218
 20
190.6800072719602
 30
0.0
 40
3.2
  1
記号
  7
高3.2
100
AcDbText
  0
LINE
  5
8CA
330
6B
100
AcDbEntity
  8
0
100
AcDbLine
 10
202.22630247218
 20
183.9709032719603
 30
0.0
 11
200.32630247218
 21
180.6800072719602
 31
0.0
  0
LINE
  5
8CB
330
6B
100
AcDbEntity
  8
0
100
AcDbLine
 10
202.22630247218
 20
183.9709032719603
 30
0.0
 11
204.12630247218
 21
180.6800072719602
 31
0.0
  0
LINE
  5
8CC
330
6B
100
AcDbEntity
  8
0
100
AcDbLine
 10
200.32630247218
 20
180.6800072719602
 30
0.0
 11
204.12630247218
 21
180.6800072719602
 31
0.0
  0
LINE
  5
8CD
330
6B
100
AcDbEntity
  8
0
100
AcDbLine
 10
202.22630247218
 20
188.9709042719603
 30
0.0
 11
200.32630247218
 21
185.6800072719602
 31
0.0
  0
LINE
  5
8CE
330
6B
100
AcDbEntity
  8
0
100
AcDbLine
 10
202.22630247218
 20
188.9709042719603
 30
0.0
 11
204.12630247218
 21
185.6800072719602
 31
0.0
  0
LINE
  5
8CF
330
6B
100
AcDbEntity
  8
0
100
AcDbLine
 10
200.32630247218
 20
185.6800072719602
 30
0.0
 11
204.12630247218
 21
185.6800072719602
 31
0.0
  0
LINE
  5
8D0
330
6B
100
AcDbEntity
  8
0
 62
     3
100
AcDbLine
 10
197.22630247218
 20
195.1800072719602
 30
0.0
 11
283.22630247218
 21
195.1800072719602
 31
0.0
  0
LINE
  5
8D1
330
6B
100
AcDbEntity
  8
0
 62
     3
100
AcDbLine
 10
197.22630247218
 20
190.1800072719602
 30
0.0
 11
283.22630247218
 21
190.1800072719602
 31
0.0
  0
LINE
  5
8D2
330
6B
100
AcDbEntity
  8
0
 62
     7
100
AcDbLine
 10
197.22630247218
 20
185.1800072719602
 30
0.0
 11
283.22630247218
 21
185.1800072719602
 31
0.0
  0
LINE
  5
8D3
330
6B
100
AcDbEntity
  8
0
 62
     3
100
AcDbLine
 10
197.22630247218
 20
180.1800072719602
 30
0.0
 11
283.22630247218
 21
180.1800072719602
 31
0.0
  0
LINE
  5
8D4
330
6B
100
AcDbEntity
  8
0
 62
     7
100
AcDbLine
 10
269.22630247218
 20
180.1800072719602
 30
0.0
 11
269.22630247218
 21
195.1800072719602
 31
0.0
  0
LINE
  5
8D5
330
6B
100
AcDbEntity
  8
0
 62
     7
100
AcDbLine
 10
225.22630247218
 20
180.1800072719602
 30
0.0
 11
225.22630247218
 21
195.1800072719602
 31
0.0
  0
LINE
  5
8D6
330
6B
100
AcDbEntity
  8
0
 62
     7
100
AcDbLine
 10
207.22630247218
 20
180.1800072719602
 30
0.0
 11
207.22630247218
 21
195.1800072719602
 31
0.0
  0
LINE
  5
8D7
330
6B
100
AcDbEntity
  8
0
 62
     3
100
AcDbLine
 10
197.22630247218
 20
180.1800072719602
 30
0.0
 11
197.22630247218
 21
200.1800072719602
 31
0.0
  0
TEXT
  5
8DA
330
6B
100
AcDbEntity
  8
0
  6
Continuous
100
AcDbText
 10
276.286595384973
 20
-55.42928600035214
 30
0.0
 40
3.2
  1
I
  7
高3.2
100
AcDbText
  0
LINE
  5
9CC
330
6B
100
AcDbEntity
  8
0
 62
     3
100
AcDbLine
 10
150.0595481313216
 20
200.545603408298
 30
0.0
 11
150.0416161652922
 21
200.6604162389324
 31
0.0
  0
LINE
  5
9CF
330
6B
100
AcDbEntity
  8
0
 62
     3
100
AcDbLine
 10
150.0416161652922
 20
200.6604162389324
 30
0.0
 11
150.0200804205876
 21
200.7703557473196
 31
0.0
  0
LINE
  5
9D0
330
6B
100
AcDbEntity
  8
0
 62
     3
100
AcDbLine
 10
150.0200804205876
 20
200.7703557473196
 30
0.0
 11
149.995108013347
 21
200.8745715279455
 31
0.0
  0
LINE
  5
9D1
330
6B
100
AcDbEntity
  8
0
 62
     3
100
AcDbLine
 10
149.995108013347
 20
200.8745715279455
 30
0.0
 11
149.9668903185036
 21
200.9722576497527
 31
0.0
  0
LINE
  5
9D2
330
6B
100
AcDbEntity
  8
0
 62
     3
100
AcDbLine
 10
149.9668903185036
 20
200.9722576497527
 30
0.0
 11
149.9356470129175
 21
201.0626600685494
 31
0.0
  0
LINE
  5
9D3
330
6B
100
AcDbEntity
  8
0
 62
     3
100
AcDbLine
 10
149.9356470129175
 20
201.0626600685494
 30
0.0
 11
149.9016186629665
 21
201.1450793224313
 31
0.0
  0
LINE
  5
9D4
330
6B
100
AcDbEntity
  8
0
 62
     3
100
AcDbLine
 10
149.9016186629665
 20
201.1450793224313
 30
0.0
 11
149.8650680722558
 21
201.2188779441906
 31
0.0
  0
LINE
  5
9D5
330
6B
100
AcDbEntity
  8
0
 62
     3
100
AcDbLine
 10
149.8650680722558
 20
201.2188779441906
 30
0.0
 11
149.8262789339089
 21
201.283486526015
 31
0.0
  0
LINE
  5
9D6
330
6B
100
AcDbEntity
  8
0
 62
     3
100
AcDbLine
 10
149.8262789339089
 20
201.283486526015
 30
0.0
 11
149.785550439723
 21
201.3384057410537
 31
0.0
  0
LINE
  5
9D7
330
6B
100
AcDbEntity
  8
0
 62
     3
100
AcDbLine
 10
149.785550439723
 20
201.3384057410537
 30
0.0
 11
149.7431972801696
 21
201.3832097126942
 31
0.0
  0
LINE
  5
9D8
330
6B
100
AcDbEntity
  8
0
 62
     3
100
AcDbLine
 10
149.7431972801696
 20
201.3832097126942
 30
0.0
 11
149.6995469489727
 21
201.4175534269722
 31
0.0
  0
LINE
  5
9D9
330
6B
100
AcDbEntity
  8
0
 62
     3
100
AcDbLine
 10
149.6995469489727
 20
201.4175534269722
 30
0.0
 11
149.6549363738318
 21
201.441170711005
 31
0.0
  0
LINE
  5
9DA
330
6B
100
AcDbEntity
  8
0
 62
     3
100
AcDbLine
 10
149.6549363738318
 20
201.441170711005
 30
0.0
 11
149.6097112425666
 21
201.4538796238348
 31
0.0
  0
LINE
  5
9DB
330
6B
100
AcDbEntity
  8
0
 62
     3
100
AcDbLine
 10
149.6097112425666
 20
201.4538796238348
 30
0.0
 11
149.5642206122743
 21
201.4555817825733
 31
0.0
  0
LINE
  5
9DC
330
6B
100
AcDbEntity
  8
0
 62
     3
100
AcDbLine
 10
149.5642206122743
 20
201.4555817825733
 30
0.0
 11
149.5188162354729
 21
201.4462630362571
 31
0.0
  0
LINE
  5
9DD
330
6B
100
AcDbEntity
  8
0
 62
     3
100
AcDbLine
 10
149.5188162354729
 20
201.4462630362571
 30
0.0
 11
149.4738485169705
 21
201.4259968351248
 31
0.0
  0
LINE
  5
9DE
330
6B
100
AcDbEntity
  8
0
 62
     3
100
AcDbLine
 10
149.4738485169705
 20
201.4259968351248
 30
0.0
 11
149.429665840008
 21
201.3949395136289
 31
0.0
  0
LINE
  5
9DF
330
6B
100
AcDbEntity
  8
0
 62
     3
100
AcDbLine
 10
149.429665840008
 20
201.3949395136289
 30
0.0
 11
149.3866098492731
 21
201.3533302904361
 31
0.0
  0
LINE
  5
9E0
330
6B
100
AcDbEntity
  8
0
 62
     3
100
AcDbLine
 10
149.3866098492731
 20
201.3533302904361
 30
0.0
 11
149.3450120816221
 21
201.3014912684275
 31
0.0
  0
LINE
  5
9E1
330
6B
100
AcDbEntity
  8
0
 62
     3
100
AcDbLine
 10
149.3450120816221
 20
201.3014912684275
 30
0.0
 11
149.3051953137915
 21
201.2398233915654
 31
0.0
  0
LINE
  5
9E2
330
6B
100
AcDbEntity
  8
0
 62
     3
100
AcDbLine
 10
149.3051953137915
 20
201.2398233915654
 30
0.0
 11
149.2674668238433
 21
201.1688030756172
 31
0.0
  0
LINE
  5
9E3
330
6B
100
AcDbEntity
  8
0
 62
     3
100
AcDbLine
 10
149.2674668238433
 20
201.1688030756172
 30
0.0
 11
149.2321183911649
 21
201.0889788388778
 31
0.0
  0
LINE
  5
9E4
330
6B
100
AcDbEntity
  8
0
 62
     3
100
AcDbLine
 10
149.2321183911649
 20
201.0889788388778
 30
0.0
 11
149.1994229271934
 21
201.0009686067484
 31
0.0
  0
LINE
  5
9E5
330
6B
100
AcDbEntity
  8
0
 62
     3
100
AcDbLine
 10
149.1994229271934
 20
201.0009686067484
 30
0.0
 11
149.1696331277035
 21
200.9054522993267
 31
0.0
  0
LINE
  5
9E6
330
6B
100
AcDbEntity
  8
0
 62
     3
100
AcDbLine
 10
149.1696331277035
 20
200.9054522993267
 30
0.0
 11
149.142980125097
 21
200.8031684621305
 31
0.0
  0
LINE
  5
9E7
330
6B
100
AcDbEntity
  8
0
 62
     3
100
AcDbLine
 10
149.142980125097
 20
200.8031684621305
 30
0.0
 11
149.1196687714155
 21
200.6949068536875
 31
0.0
  0
LINE
  5
9E8
330
6B
100
AcDbEntity
  8
0
 62
     3
100
AcDbLine
 10
149.1196687714155
 20
200.6949068536875
 30
0.0
 11
149.0998796599058
 21
200.5815044024036
 31
0.0
  0
LINE
  5
9E9
330
6B
100
AcDbEntity
  8
0
 62
     3
100
AcDbLine
 10
149.0998796599058
 20
200.5815044024036
 30
0.0
 11
149.0837664295991
 21
200.4638384680088
 31
0.0
  0
LINE
  5
9EA
330
6B
100
AcDbEntity
  8
0
 62
     3
100
AcDbLine
 10
149.0837664295991
 20
200.4638384680088
 30
0.0
 11
149.0714523960332
 21
200.3428180814365
 31
0.0
  0
LINE
  5
9EB
330
6B
100
AcDbEntity
  8
0
 62
     3
100
AcDbLine
 10
149.0714523960332
 20
200.3428180814365
 30
0.0
 11
149.0630339205304
 21
200.2193785539808
 31
0.0
  0
LINE
  5
9EC
330
6B
100
AcDbEntity
  8
0
 62
     3
100
AcDbLine
 10
149.0630339205304
 20
200.2193785539808
 30
0.0
 11
149.0585756932089
 21
200.0944747387426
 31
0.0
  0
LINE
  5
9ED
330
6B
100
AcDbEntity
  8
0
 62
     3
100
AcDbLine
 10
149.0585756932089
 20
200.0944747387426
 30
0.0
 11
149.0581114068388
 21
199.969070922798
 31
0.0
  0
LINE
  5
9EE
330
6B
100
AcDbEntity
  8
0
 62
     3
100
AcDbLine
 10
149.0581114068388
 20
199.969070922798
 30
0.0
 11
149.0616457784081
 21
199.8441367840669
 31
0.0
  0
LINE
  5
9EF
330
6B
100
AcDbEntity
  8
0
 62
     3
100
AcDbLine
 10
149.0616457784081
 20
199.8441367840669
 30
0.0
 11
149.0691505059894
 21
199.7206386311916
 31
0.0
  0
LINE
  5
9F0
330
6B
100
AcDbEntity
  8
0
 62
     3
100
AcDbLine
 10
149.0691505059894
 20
199.7206386311916
 30
0.0
 11
149.0805683118741
 21
199.599529969562
 31
0.0
  0
LINE
  5
9F1
330
6B
100
AcDbEntity
  8
0
 62
     3
100
AcDbLine
 10
149.0805683118741
 20
199.599529969562
 30
0.0
 11
149.0958109210053
 21
199.4817481320384
 31
0.0
  0
LINE
  5
9F2
330
6B
100
AcDbEntity
  8
0
 62
     3
100
AcDbLine
 10
149.0958109210053
 20
199.4817481320384
 30
0.0
 11
149.1147597348319
 21
199.3682028234099
 31
0.0
  0
LINE
  5
9F3
330
6B
100
AcDbEntity
  8
0
 62
     3
100
AcDbLine
 10
149.1147597348319
 20
199.3682028234099
 30
0.0
 11
149.1372692005884
 21
199.2597720772618
 31
0.0
  0
LINE
  5
9F4
330
6B
100
AcDbEntity
  8
0
 62
     3
100
AcDbLine
 10
149.1372692005884
 20
199.2597720772618
 30
0.0
 11
149.1631647897261
 21
199.1572928219997
 31
0.0
  0
LINE
  5
9F5
330
6B
100
AcDbEntity
  8
0
 62
     3
100
AcDbLine
 10
149.1631647897261
 20
199.1572928219997
 30
0.0
 11
149.1922470410468
 21
199.0615588592841
 31
0.0
  0
LINE
  5
9F6
330
6B
100
AcDbEntity
  8
0
 62
     3
100
AcDbLine
 10
149.1922470410468
 20
199.0615588592841
 30
0.0
 11
149.2242902129917
 21
198.9733087346325
 31
0.0
  0
LINE
  5
9F7
330
6B
100
AcDbEntity
  8
0
 62
     3
100
AcDbLine
 10
149.2242902129917
 20
198.9733087346325
 30
0.0
 11
149.2590470006296
 21
198.8932257374198
 31
0.0
  0
LINE
  5
9F8
330
6B
100
AcDbEntity
  8
0
 62
     3
100
AcDbLine
 10
149.2590470006296
 20
198.8932257374198
 30
0.0
 11
149.2962492095112
 21
198.8219284669026
 31
0.0
  0
LINE
  5
9F9
330
6B
100
AcDbEntity
  8
0
 62
     3
100
AcDbLine
 10
149.2962492095112
 20
198.8219284669026
 30
0.0
 11
149.3356084295258
 21
198.7599674629418
 31
0.0
  0
LINE
  5
9FA
330
6B
100
AcDbEntity
  8
0
 62
     3
100
AcDbLine
 10
149.3356084295258
 20
198.7599674629418
 30
0.0
 11
149.3768207518883
 21
198.7078218367264
 31
0.0
  0
LINE
  5
9FB
330
6B
100
AcDbEntity
  8
0
 62
     3
100
AcDbLine
 10
149.3768207518883
 20
198.7078218367264
 30
0.0
 11
149.4195681168503
 21
198.6658952276407
 31
0.0
  0
LINE
  5
9FC
330
6B
100
AcDbEntity
  8
0
 62
     3
100
AcDbLine
 10
149.4195681168503
 20
198.6658952276407
 30
0.0
 11
149.4635196614108
 21
198.6345117601316
 31
0.0
  0
LINE
  5
9FD
330
6B
100
AcDbEntity
  8
0
 62
     3
100
AcDbLine
 10
149.4635196614108
 20
198.6345117601316
 30
0.0
 11
149.5083357624485
 21
198.6139133482874
 31
0.0
  0
LINE
  5
9FE
330
6B
100
AcDbEntity
  8
0
 62
     3
100
AcDbLine
 10
149.5083357624485
 20
198.6139133482874
 30
0.0
 11
149.5536700582881
 21
198.6042590219824
 31
0.0
  0
LINE
  5
9FF
330
6B
100
AcDbEntity
  8
0
 62
     3
100
AcDbLine
 10
149.5536700582881
 20
198.6042590219824
 30
0.0
 11
149.5991721441223
 21
198.6056242530213
 31
0.0
  0
LINE
  5
A00
330
6B
100
AcDbEntity
  8
0
 62
     3
100
AcDbLine
 10
149.5991721441223
 20
198.6056242530213
 30
0.0
 11
149.6444902674325
 21
198.6179975858622
 31
0.0
  0
LINE
  5
A01
330
6B
100
AcDbEntity
  8
0
 62
     3
100
AcDbLine
 10
149.6444902674325
 20
198.6179975858622
 30
0.0
 11
149.6892740234111
 21
198.6412846807494
 31
0.0
  0
LINE
  5
A02
330
6B
100
AcDbEntity
  8
0
 62
     3
100
AcDbLine
 10
149.6892740234111
 20
198.6412846807494
 30
0.0
 11
149.7331777242381
 21
198.6753042705804
 31
0.0
  0
LINE
  5
A03
330
6B
100
AcDbEntity
  8
0
 62
     3
100
AcDbLine
 10
149.7331777242381
 20
198.6753042705804
 30
0.0
 11
149.7758610729372
 21
198.7197942256049
 31
0.0
  0
LINE
  5
A04
330
6B
100
AcDbEntity
  8
0
 62
     3
100
AcDbLine
 10
149.7758610729372
 20
198.7197942256049
 30
0.0
 11
149.8169952280734
 21
198.7744095318584
 31
0.0
  0
LINE
  5
A05
330
6B
100
AcDbEntity
  8
0
 62
     3
100
AcDbLine
 10
149.8169952280734
 20
198.7744095318584
 30
0.0
 11
149.856261456043
 21
198.8387297035719
 31
0.0
  0
LINE
  5
A06
330
6B
100
AcDbEntity
  8
0
 62
     3
100
AcDbLine
 10
149.856261456043
 20
198.8387297035719
 30
0.0
 11
149.8933565219161
 21
198.91225608775
 31
0.0
  0
LINE
  5
A07
330
6B
100
AcDbEntity
  8
0
 62
     3
100
AcDbLine
 10
149.8933565219161
 20
198.91225608775
 30
0.0
 11
149.9279940371482
 21
198.9944212981463
 31
0.0
  0
LINE
  5
A08
330
6B
100
AcDbEntity
  8
0
 62
     3
100
AcDbLine
 10
149.9279940371482
 20
198.9944212981463
 30
0.0
 11
149.9599058072904
 21
199.0845898891194
 31
0.0
  0
LINE
  5
A09
330
6B
100
AcDbEntity
  8
0
 62
     3
100
AcDbLine
 10
149.9599058072904
 20
199.0845898891194
 30
0.0
 11
149.9888452012665
 21
199.1820650941868
 31
0.0
  0
LINE
  5
A0A
330
6B
100
AcDbEntity
  8
0
 62
     3
100
AcDbLine
 10
149.9888452012665
 20
199.1820650941868
 30
0.0
 11
150.0145884990838
 21
199.2860928691564
 31
0.0
  0
LINE
  5
A0B
330
6B
100
AcDbEntity
  8
0
 62
     3
100
AcDbLine
 10
150.0145884990838
 20
199.2860928691564
 30
0.0
 11
150.0369375872553
 21
199.3958699783922
 31
0.0
  0
LINE
  5
A0C
330
6B
100
AcDbEntity
  8
0
 62
     3
100
AcDbLine
 10
150.0369375872553
 20
199.3958699783922
 30
0.0
 11
150.0557186110877
 21
199.5105473640914
 31
0.0
  0
LINE
  5
A0D
330
6B
100
AcDbEntity
  8
0
 62
     7
100
AcDbLine
 10
121.5423673845467
 20
107.8964020982384
 30
0.0
 11
121.9728430045467
 21
109.9217114082384
 31
0.0
  0
LINE
  5
A0E
330
6B
100
AcDbEntity
  8
0
 62
     7
100
AcDbLine
 10
121.9728430045467
 20
109.9217114082384
 30
0.0
 11
120.5873855545467
 21
108.3829798882385
 31
0.0
  0
LINE
  5
A0F
330
6B
100
AcDbEntity
  8
0
 62
     7
100
AcDbLine
 10
169.1923681162414
 20
104.5506234782384
 30
0.0
 11
169.6314638562414
 21
106.5740814182384
 31
0.0
  0
LINE
  5
A10
330
6B
100
AcDbEntity
  8
0
 62
     7
100
AcDbLine
 10
169.6314638562414
 20
106.5740814182384
 30
0.0
 11
168.2394668262415
 21
105.0412633082384
 31
0.0
  0
LINE
  5
A11
330
6B
100
AcDbEntity
  8
0
 62
     7
100
AcDbLine
 10
238.1115201862414
 20
105.0466329982384
 30
0.0
 11
237.1380627662416
 21
106.8740814182384
 31
0.0
  0
LINE
  5
A12
330
6B
100
AcDbEntity
  8
0
 62
     7
100
AcDbLine
 10
237.1380627662416
 20
106.8740814182384
 30
0.0
 11
237.0673774362414
 21
104.8047359482385
 31
0.0
  0
LINE
  5
A13
330
6B
100
AcDbEntity
  8
0
 62
     7
100
AcDbLine
 10
155.2187117162414
 20
106.5740814182384
 30
0.0
 11
145.4720631462414
 21
106.5740814182384
 31
0.0
  0
LINE
  5
A14
330
6B
100
AcDbEntity
  8
0
 62
     7
100
AcDbLine
 10
155.2187117162414
 20
126.5740814182384
 30
0.0
 11
145.4720631462414
 21
126.5740814182384
 31
0.0
  0
LINE
  5
A15
330
6B
100
AcDbEntity
  8
0
 62
     7
100
AcDbLine
 10
146.7220631462414
 20
109.0740814182384
 30
0.0
 11
146.7220631462414
 21
124.0740814182384
 31
0.0
  0
LINE
  5
A19
330
6B
100
AcDbEntity
  8
0
 62
     7
100
AcDbLine
 10
155.4687117162414
 20
126.8240814182384
 30
0.0
 11
155.4687117162414
 21
147.3920041882385
 31
0.0
  0
LINE
  5
A1A
330
6B
100
AcDbEntity
  8
0
 62
     7
100
AcDbLine
 10
245.4687117162416
 20
126.3240814182384
 30
0.0
 11
245.4687117162416
 21
147.3920041882385
 31
0.0
  0
LINE
  5
A1B
330
6B
100
AcDbEntity
  8
0
 62
     7
100
AcDbLine
 10
157.9687117162414
 20
146.1420041882385
 30
0.0
 11
242.9687117162416
 21
146.1420041882385
 31
0.0
  0
TEXT
  5
A1F
330
6B
100
AcDbEntity
  8
0
 62
     4
100
AcDbText
 10
146.0970631462414
 20
112.8240814182384
 30
0.0
 40
3.0
  1
\U+220520
 50
90.0
100
AcDbText
  0
LINE
  5
A20
330
6B
100
AcDbEntity
  8
0
  6
ByBlock
 62
     0
370
    -2
100
AcDbLine
 10
146.0521906462414
 20
124.0740814182384
 30
0.0
 11
146.7220631462414
 21
126.5740814182384
 31
0.0
  0
LINE
  5
A21
330
6B
100
AcDbEntity
  8
0
  6
ByBlock
 62
     0
370
    -2
100
AcDbLine
 10
146.7220631462414
 20
126.5740814182384
 30
0.0
 11
147.3919356462414
 21
124.0740814182384
 31
0.0
  0
LINE
  5
A22
330
6B
100
AcDbEntity
  8
0
  6
ByBlock
 62
     0
370
    -2
100
AcDbLine
 10
146.7220631462414
 20
126.5740814182384
 30
0.0
 11
146.7220631462414
 21
124.0740814182384
 31
0.0
  0
LINE
  5
A23
330
6B
100
AcDbEntity
  8
0
  6
ByBlock
 62
     0
370
    -2
100
AcDbLine
 10
147.3919356462414
 20
109.0740814182384
 30
0.0
 11
146.7220631462414
 21
106.5740814182384
 31
0.0
  0
LINE
  5
A24
330
6B
100
AcDbEntity
  8
0
  6
ByBlock
 62
     0
370
    -2
100
AcDbLine
 10
146.7220631462414
 20
106.5740814182384
 30
0.0
 11
146.0521906462414
 21
109.0740814182384
 31
0.0
  0
LINE
  5
A25
330
6B
100
AcDbEntity
  8
0
  6
ByBlock
 62
     0
370
    -2
100
AcDbLine
 10
146.7220631462414
 20
106.5740814182384
 30
0.0
 11
146.7220631462414
 21
109.0740814182384
 31
0.0
  0
TEXT
  5
A26
330
6B
100
AcDbEntity
  8
0
 62
     4
100
AcDbText
 10
198.2187117162415
 20
146.7670041882385
 30
0.0
 40
3.0
  1
90
100
AcDbText
  0
LINE
  5
A27
330
6B
100
AcDbEntity
  8
0
  6
ByBlock
 62
     0
370
    -2
100
AcDbLine
 10
242.9687117162416
 20
146.8118766882385
 30
0.0
 11
245.4687117162416
 21
146.1420041882385
 31
0.0
  0
LINE
  5
A28
330
6B
100
AcDbEntity
  8
0
  6
ByBlock
 62
     0
370
    -2
100
AcDbLine
 10
245.4687117162416
 20
146.1420041882385
 30
0.0
 11
242.9687117162416
 21
145.4721316882385
 31
0.0
  0
LINE
  5
A29
330
6B
100
AcDbEntity
  8
0
  6
ByBlock
 62
     0
370
    -2
100
AcDbLine
 10
245.4687117162416
 20
146.1420041882385
 30
0.0
 11
242.9687117162416
 21
146.1420041882385
 31
0.0
  0
LINE
  5
A2A
330
6B
100
AcDbEntity
  8
0
  6
ByBlock
 62
     0
370
    -2
100
AcDbLine
 10
157.9687117162414
 20
145.4721316882385
 30
0.0
 11
155.4687117162414
 21
146.1420041882385
 31
0.0
  0
LINE
  5
A2B
330
6B
100
AcDbEntity
  8
0
  6
ByBlock
 62
     0
370
    -2
100
AcDbLine
 10
155.4687117162414
 20
146.1420041882385
 30
0.0
 11
157.9687117162414
 21
146.8118766882385
 31
0.0
  0
LINE
  5
A2C
330
6B
100
AcDbEntity
  8
0
  6
ByBlock
 62
     0
370
    -2
100
AcDbLine
 10
155.4687117162414
 20
146.1420041882385
 30
0.0
 11
157.9687117162414
 21
146.1420041882385
 31
0.0
  0
ENDSEC
  0
SECTION
  2
OBJECTS
  0
DICTIONARY
  5
C
330
0
100
AcDbDictionary
281
     1
  3
ACAD_2007HEADERVARS_RT
350
A30
  3
ACAD_COLOR
350
62
  3
ACAD_GROUP
350
D
  3
ACAD_LAYOUT
350
61
  3
ACAD_MATERIAL
350
10
  3
ACAD_MLEADERSTYLE
350
65
  3
ACAD_MLINESTYLE
350
5E
  3
ACAD_PLOTSETTINGS
350
60
  3
ACAD_PLOTSTYLENAME
350
E
  3
ACAD_SCALELIST
350
42
  3
ACAD_TABLESTYLE
350
63
  3
ACAD_VISUALSTYLE
350
29
  3
ACDB_RECOMPOSE_DATA
350
A2E
  3
AcDbVariableDictionary
350
3EB
  3
DWGPROPS
350
A2F
  0
DICTIONARY
  5
273
330
2
100
AcDbDictionary
280
     1
281
     1
  3
ACAD_LAYERSTATES
360
274
  0
DICTIONARY
  5
3E7
330
54
100
AcDbDictionary
280
     1
281
     1
  3
ADSK_XREC_LAYER_RECONCILED
360
3E8
  0
DICTIONARY
  5
8D8
330
6B
100
AcDbDictionary
280
     1
281
     1
  3
ACAD_SORTENTS
360
8D9
  0
DICTIONARY
  5
6DD
330
6DC
100
AcDbDictionary
280
     1
281
     1
  3
ACAD_SORTENTS
360
6DE
  0
DICTIONARY
  5
A30
102
{ACAD_REACTORS
330
C
102
}
330
C
100
AcDbDictionary
281
     1
  3
DIMARCSYM
350
A32
  3
DIMFXL
350
A31
  3
DIMJOGANG
350
A33
  0
DICTIONARY
  5
62
102
{ACAD_REACTORS
330
C
102
}
330
C
100
AcDbDictionary
281
     1
  0
DICTIONARY
  5
D
102
{ACAD_REACTORS
330
C
102
}
330
C
100
AcDbDictionary
281
     1
  0
DICTIONARY
  5
61
102
{ACAD_REACTORS
330
C
102
}
330
C
100
AcDbDictionary
281
     1
  3
Model
350
6E
  3
レイアウト1
350
6A
  0
DICTIONARY
  5
10
102
{ACAD_REACTORS
330
C
102
}
330
C
100
AcDbDictionary
281
     1
  3
ByBlock
350
19
  3
ByLayer
350
11
  3
Global
350
21
  0
DICTIONARY
  5
65
102
{ACAD_REACTORS
330
C
102
}
330
C
100
AcDbDictionary
281
     1
  3
Standard
350
66
  0
DICTIONARY
  5
5E
102
{ACAD_REACTORS
330
C
102
}
330
C
100
AcDbDictionary
281
     1
  3
Standard
350
5F
  0
DICTIONARY
  5
60
102
{ACAD_REACTORS
330
C
102
}
330
C
100
AcDbDictionary
281
     1
  0
ACDBDICTIONARYWDFLT
  5
E
102
{ACAD_REACTORS
330
C
102
}
330
C
100
AcDbDictionary
281
     1
  3
Normal
350
F
100
AcDbDictionaryWithDefault
340
F
  0
DICTIONARY
  5
42
102
{ACAD_REACTORS
330
C
102
}
330
C
100
AcDbDictionary
281
     1
  3
A0
350
43
  3
A1
350
44
  3
A2
350
45
  3
A3
350
46
  3
A4
350
47
  3
A5
350
48
  3
A6
350
49
  3
A7
350
4A
  3
A8
350
4B
  3
A9
350
4C
  3
B0
350
4D
  3
B1
350
4E
  3
B2
350
4F
  3
B3
350
50
  3
B4
350
51
  3
B5
350
52
  3
B6
350
53
  0
DICTIONARY
  5
63
102
{ACAD_REACTORS
330
C
102
}
330
C
100
AcDbDictionary
281
     1
  3
Standard
350
64
  0
DICTIONARY
  5
29
102
{ACAD_REACTORS
330
C
102
}
330
C
100
AcDbDictionary
281
     1
  3
2dWireframe
350
2F
  3
3dWireframe
350
272
  3
Basic
350
2E
  3
Brighten
350
35
  3
ColorChange
350
39
  3
Conceptual
350
32
  3
Dim
350
34
  3
EdgeColorOff
350
41
  3
Facepattern
350
38
  3
Flat
350
2A
  3
FlatWithEdges
350
2B
  3
Gouraud
350
2C
  3
GouraudWithEdges
350
2D
  3
Hidden
350
31
  3
JitterOff
350
3F
  3
Linepattern
350
37
  3
OverhangOff
350
40
  3
Realistic
350
33
  3
Shaded
350
3E
  3
Shaded with edges
350
3D
  3
Shades of Gray
350
3A
  3
Sketchy
350
3B
  3
Thicken
350
36
  3
Wireframe
350
30
  3
X-Ray
350
3C
  0
XRECORD
  5
A2E
102
{ACAD_REACTORS
330
C
102
}
330
C
100
AcDbXrecord
280
     1
 90
        1
330
64
  0
DICTIONARY
  5
3EB
102
{ACAD_REACTORS
330
C
102
}
330
C
100
AcDbDictionary
281
     1
  3
CANNOSCALE
350
3EE
  3
CMLEADERSTYLE
350
3ED
  3
CTABLESTYLE
350
3EC
  3
DIMASSOC
350
3F1
  3
INDEXCTL
350
3F0
  3
SORTENTS
350
3EF
  3
XCLIPFRAME
350
98D
  0
XRECORD
  5
A2F
102
{ACAD_REACTORS
330
C
102
}
330
C
100
AcDbXrecord
280
     1
  1
DWGPROPS COOKIE
  2

  3

  4

  6

  7

  8
imamura
  9

300
=
301
=
302
=
303
=
304
=
305
=
306
=
307
=
308
=
309
=
 40
0.0693486574074074
 41
2455680.461799479
 42
2459163.577644317
  1

 90
        0
  0
DICTIONARY
  5
274
102
{ACAD_REACTORS
330
273
102
}
330
273
100
AcDbDictionary
281
     1
  0
XRECORD
  5
3E8
102
{ACAD_REACTORS
330
3E7
102
}
330
3E7
100
AcDbXrecord
280
     1
290
     1
  0
SORTENTSTABLE
  5
8D9
102
{ACAD_REACTORS
330
8D8
102
}
330
8D8
100
AcDbSortentsTable
330
6B
331
821
  5
840
331
1B2
  5
81F
331
82E
  5
84D
331
E4
  5
15C
331
82A
  5
849
331
E0
  5
157
331
8A7
  5
9FA
331
865
  5
885
331
8A3
  5
9F6
331
861
  5
881
331
89F
  5
9F2
331
89B
  5
9EE
331
9E7
  5
8AF
331
9E3
  5
8AB
331
9DF
  5
8A7
331
A12
  5
1AD
331
9DB
  5
8A3
331
A0E
  5
1B7
331
A0A
  5
8D2
331
81D
  5
83C
331
1AE
  5
81B
331
16F
  5
1A9
331
819
  5
838
331
1AA
  5
817
331
DC
  5
152
331
1A6
  5
812
331
167
  5
1A4
331
D8
  5
F2
331
1A2
  5
3D7
331
163
  5
1A1
331
85D
  5
87D
331
D4
  5
EE
331
859
  5
879
331
D0
  5
EA
331
8D6
  5
A29
331
855
  5
874
331
897
  5
9EA
331
8D2
  5
A25
331
851
  5
870
331
893
  5
9E6
331
8CE
  5
A21
331
88F
  5
9E2
331
8CA
  5
A1D
331
88B
  5
9DE
331
9D7
  5
89F
331
A06
  5
8CE
331
9D3
  5
89B
331
A02
  5
8CA
331
9CF
  5
897
331
9FE
  5
8C6
331
9FA
  5
8C2
331
15F
  5
19A
331
19A
  5
1C8
331
15B
  5
197
331
CC
  5
E6
331
196
  5
1B9
331
157
  5
18F
331
C8
  5
E2
331
84D
  5
86C
331
C4
  5
DE
331
849
  5
868
331
C0
  5
DA
331
8C6
  5
A19
331
845
  5
864
331
887
  5
9DA
331
8C2
  5
A15
331
841
  5
860
331
883
  5
9D6
331
8BE
  5
A11
331
87F
  5
9D2
331
8BA
  5
A0D
331
87B
  5
9CC
331
9F6
  5
8BE
331
9F2
  5
8BA
331
A29
  5
BC
331
18E
  5
1B4
331
14F
  5
170
331
BC
  5
D6
331
186
  5
1AF
331
B8
  5
D2
331
83D
  5
85C
331
B4
  5
CE
331
839
  5
858
331
B0
  5
CA
331
8B6
  5
A09
331
835
  5
854
331
877
  5
8D5
331
8B2
  5
A05
331
831
  5
850
331
873
  5
893
331
8AE
  5
A01
331
86F
  5
88F
331
8AA
  5
9FD
331
86B
  5
88B
331
A25
  5
C3
331
9EE
  5
8B6
331
A21
  5
C5
331
9EA
  5
8B2
331
A19
  5
AE
331
1BD
  5
827
331
EF
  5
169
331
1B9
  5
826
331
EB
  5
164
331
824
  5
843
331
1B5
  5
822
331
E7
  5
160
331
820
  5
83F
331
1B1
  5
81E
331
172
  5
1AB
331
82D
  5
84C
331
E3
  5
15B
331
829
  5
848
331
8A6
  5
9F9
331
864
  5
884
331
8A2
  5
9F5
331
860
  5
880
331
89E
  5
9F1
331
89A
  5
9ED
331
9E6
  5
8AE
331
9E2
  5
8AA
331
A15
  5
C0
331
9DE
  5
8A6
331
A11
  5
1AC
331
9DA
  5
8A2
331
A0D
  5
1B6
331
A09
  5
8D1
331
AF
  5
C9
331
81C
  5
83B
331
1AD
  5
81A
331
16E
  5
1A8
331
DF
  5
156
331
818
  5
837
331
1A9
  5
816
331
16A
  5
1A7
331
DB
  5
151
331
814
  5
834
331
1A5
  5
811
331
D7
  5
F1
331
810
  5
831
331
1A1
  5
3D0
331
162
  5
1A0
331
85C
  5
87C
331
D3
  5
ED
331
858
  5
878
331
8D5
  5
A28
331
854
  5
873
331
896
  5
9E9
331
8D1
  5
A24
331
850
  5
86F
331
892
  5
9E5
331
8CD
  5
A20
331
88E
  5
9E1
331
8C9
  5
A1C
331
88A
  5
9DD
331
9D6
  5
89E
331
A05
  5
8CD
331
9D2
  5
89A
331
A01
  5
8C9
331
9FD
  5
8C5
331
9F9
  5
8C1
331
CF
  5
E9
331
199
  5
1C0
331
15A
  5
196
331
CB
  5
E5
331
8DA
  5
A2C
331
195
  5
1B8
331
156
  5
18E
331
C7
  5
E1
331
3D0
  5
82E
331
152
  5
186
331
84C
  5
86B
331
C3
  5
DD
331
848
  5
867
331
8C5
  5
A18
331
844
  5
863
331
886
  5
9D9
331
8C1
  5
A14
331
840
  5
85F
331
882
  5
9D5
331
8BD
  5
A10
331
87E
  5
9D1
331
8B9
  5
A0C
331
87A
  5
8DA
331
9F5
  5
8BD
331
9F1
  5
8B9
331
A2C
  5
B6
331
A28
  5
BB
331
18D
  5
1B3
331
BF
  5
D9
331
BB
  5
D5
331
185
  5
1AE
331
B7
  5
D1
331
1C0
  5
829
331
F2
  5
16F
331
83C
  5
85B
331
B3
  5
CD
331
838
  5
857
331
8B5
  5
A08
331
834
  5
853
331
8B1
  5
A04
331
830
  5
84F
331
872
  5
892
331
8AD
  5
A00
331
86E
  5
88E
331
8A9
  5
9FC
331
86A
  5
88A
331
A24
  5
C2
331
9ED
  5
8B5
331
A20
  5
C4
331
9E9
  5
8B1
331
EE
  5
168
331
827
  5
846
331
1CA
  5
82C
331
1B8
  5
825
331
EA
  5
163
331
823
  5
842
331
1B4
  5
821
331
E6
  5
15F
331
1B0
  5
81D
331
82C
  5
84B
331
E2
  5
15A
331
867
  5
887
331
828
  5
847
331
8A5
  5
9F8
331
863
  5
883
331
8A1
  5
9F4
331
89D
  5
9F0
331
899
  5
9EC
331
9E5
  5
8AD
331
9E1
  5
8A9
331
A14
  5
BF
331
9DD
  5
8A5
331
A10
  5
1B2
331
A0C
  5
8D4
331
9D9
  5
8A1
331
A08
  5
8D0
331
AE
  5
C8
331
81F
  5
83E
331
81B
  5
83A
331
1AC
  5
819
331
DE
  5
155
331
817
  5
836
331
1A8
  5
815
331
169
  5
1A6
331
DA
  5
150
331
813
  5
833
331
1A4
  5
80F
331
165
  5
1A3
331
85F
  5
87F
331
D6
  5
F0
331
1A0
  5
3CF
331
161
  5
19F
331
85B
  5
87B
331
D2
  5
EC
331
857
  5
877
331
8D4
  5
A27
331
853
  5
872
331
895
  5
9E8
331
8D0
  5
A23
331
891
  5
9E4
331
8CC
  5
A1F
331
88D
  5
9E0
331
8C8
  5
A1B
331
889
  5
9DC
331
9D5
  5
89D
331
A04
  5
8CC
331
9D1
  5
899
331
A00
  5
8C8
331
9FC
  5
8C4
331
9F8
  5
8C0
331
80F
  5
830
331
15D
  5
199
331
CE
  5
E8
331
3D7
  5
82F
331
198
  5
1BE
331
159
  5
195
331
CA
  5
E4
331
155
  5
18D
331
84F
  5
86E
331
C6
  5
E0
331
151
  5
185
331
84B
  5
86A
331
C2
  5
DC
331
847
  5
866
331
8C4
  5
A17
331
843
  5
862
331
885
  5
9D8
331
8C0
  5
A13
331
881
  5
9D4
331
8BC
  5
A0F
331
87D
  5
9D0
331
8B8
  5
A0B
331
879
  5
8D7
331
9F4
  5
8BC
331
9F0
  5
8B8
331
A2B
  5
B5
331
3CF
  5
82D
331
BE
  5
D8
331
BA
  5
D4
331
83F
  5
85E
331
B6
  5
D0
331
F1
  5
16E
331
83B
  5
85A
331
B2
  5
CC
331
837
  5
856
331
8B4
  5
A07
331
833
  5
852
331
875
  5
895
331
8B0
  5
A03
331
871
  5
891
331
8AC
  5
9FF
331
86D
  5
88D
331
8A8
  5
9FB
331
869
  5
889
331
A27
  5
BA
331
A23
  5
C1
331
9EC
  5
8B4
331
A1F
  5
C7
331
9E8
  5
8B0
331
A1B
  5
B0
331
ED
  5
167
331
826
  5
845
331
1C9
  5
82B
331
1B7
  5
824
331
E9
  5
162
331
822
  5
841
331
1B3
  5
820
331
82F
  5
84E
331
E5
  5
15D
331
170
  5
1AA
331
82B
  5
84A
331
E1
  5
159
331
866
  5
886
331
8A4
  5
9F7
331
862
  5
882
331
8A0
  5
9F3
331
89C
  5
9EF
331
898
  5
9EB
331
9E4
  5
8AC
331
9E0
  5
8A8
331
A13
  5
BE
331
9DC
  5
8A4
331
A0F
  5
1B1
331
A0B
  5
8D3
331
9D8
  5
8A0
331
81E
  5
83D
331
1AF
  5
81C
331
81A
  5
839
331
1AB
  5
818
331
DD
  5
154
331
816
  5
835
331
1A7
  5
813
331
168
  5
1A5
331
D9
  5
14F
331
812
  5
832
331
1A3
  5
80E
331
164
  5
1A2
331
85E
  5
87E
331
D5
  5
EF
331
160
  5
19B
331
85A
  5
87A
331
D1
  5
EB
331
8D7
  5
A2A
331
856
  5
876
331
8D3
  5
A26
331
852
  5
871
331
894
  5
9E7
331
8CF
  5
A22
331
890
  5
9E3
331
8CB
  5
A1E
331
88C
  5
9DF
331
888
  5
9DB
331
A07
  5
8CF
331
9D4
  5
89C
331
A03
  5
8CB
331
9D0
  5
898
331
9FF
  5
8C7
331
9CC
  5
896
331
9FB
  5
8C3
331
80E
  5
A2B
331
19F
  5
1CA
331
19B
  5
1C9
331
15C
  5
198
331
CD
  5
E7
331
197
  5
1BD
331
C9
  5
E3
331
154
  5
187
331
84E
  5
86D
331
C5
  5
DF
331
150
  5
172
331
84A
  5
869
331
C1
  5
DB
331
8C7
  5
A1A
331
846
  5
865
331
8C3
  5
A16
331
842
  5
861
331
884
  5
9D7
331
8BF
  5
A12
331
880
  5
9D3
331
8BB
  5
A0E
331
87C
  5
9CF
331
878
  5
8D6
331
9F7
  5
8BF
331
9F3
  5
8BB
331
A2A
  5
B4
331
18F
  5
1B5
331
BD
  5
D7
331
187
  5
1B0
331
B9
  5
D3
331
83E
  5
85D
331
B5
  5
CF
331
F0
  5
16A
331
83A
  5
859
331
B1
  5
CB
331
8B7
  5
A0A
331
836
  5
855
331
8B3
  5
A06
331
832
  5
851
331
874
  5
894
331
8AF
  5
A02
331
870
  5
890
331
8AB
  5
9FE
331
86C
  5
88C
331
868
  5
888
331
A26
  5
BD
331
9EF
  5
8B7
331
A22
  5
C6
331
9EB
  5
8B3
331
A1A
  5
AF
331
1BE
  5
828
331
EC
  5
165
331
825
  5
844
331
1C8
  5
82A
331
1B6
  5
823
331
E8
  5
161
  0
SORTENTSTABLE
  5
6DE
102
{ACAD_REACTORS
330
6DD
102
}
330
6DD
100
AcDbSortentsTable
330
6DC
  0
XRECORD
  5
A32
102
{ACAD_REACTORS
330
A30
102
}
330
A30
100
AcDbXrecord
280
     1
 70
     2
  0
XRECORD
  5
A31
102
{ACAD_REACTORS
330
A30
102
}
330
A30
100
AcDbXrecord
280
     1
 40
1.25
  0
XRECORD
  5
A33
102
{ACAD_REACTORS
330
A30
102
}
330
A30
100
AcDbXrecord
280
     1
 40
1.570796326794896
  0
LAYOUT
  5
6E
102
{ACAD_XDICTIONARY
360
A67
102
}
102
{ACAD_REACTORS
330
61
102
}
330
61
100
AcDbPlotSettings
  1

  2
FX DP 205
  4

  6

 40
0.0
 41
0.0
 42
0.0
 43
0.0
 44
0.0
 45
0.0
 46
0.0
 47
0.0
 48
0.0
 49
0.0
140
0.0
141
0.0
142
1.0
143
1.0
 70
  1712
 72
     0
 73
     0
 74
     0
  7

 75
     0
147
1.0
148
0.0
149
0.0
100
AcDbLayout
  1
Model
 70
     1
 71
     0
 10
0.0
 20
0.0
 11
12.0
 21
9.0
 12
0.0
 22
0.0
 32
0.0
 14
0.0
 24
0.0
 34
0.0
 15
0.0
 25
0.0
 35
0.0
146
0.0
 13
0.0
 23
0.0
 33
0.0
 16
1.0
 26
0.0
 36
0.0
 17
0.0
 27
1.0
 37
0.0
 76
     0
330
6B
331
8B
  0
LAYOUT
  5
6A
102
{ACAD_XDICTIONARY
360
A65
102
}
102
{ACAD_REACTORS
330
61
102
}
330
61
100
AcDbPlotSettings
  1

  2
FX DP 205
  4

  6

 40
0.0
 41
0.0
 42
0.0
 43
0.0
 44
0.0
 45
0.0
 46
0.0
 47
0.0
 48
0.0
 49
0.0
140
0.0
141
0.0
142
1.0
143
1.0
 70
   688
 72
     0
 73
     0
 74
     5
  7

 75
    16
147
1.0
148
0.0
149
0.0
100
AcDbLayout
  1
レイアウト1
 70
     1
 71
     1
 10
0.0
 20
0.0
 11
12.0
 21
9.0
 12
0.0
 22
0.0
 32
0.0
 14
1.000000000000000E+20
 24
1.000000000000000E+20
 34
1.000000000000000E+20
 15
-1.000000000000000E+20
 25
-1.000000000000000E+20
 35
-1.000000000000000E+20
146
0.0
 13
0.0
 23
0.0
 33
0.0
 16
1.0
 26
0.0
 36
0.0
 17
0.0
 27
1.0
 37
0.0
 76
     0
330
67
  0
MATERIAL
  5
19
102
{ACAD_XDICTIONARY
360
1A
102
}
102
{ACAD_REACTORS
330
10
102
}
330
10
100
AcDbMaterial
  1
ByBlock
 72
     0
 43
0.0208333333333333
 43
0.0
 43
0.0
 43
0.0
 43
0.0
 43
0.0208333333333333
 43
0.0
 43
0.0
 43
0.0
 43
0.0
 43
1.0
 43
0.0
 43
0.0
 43
0.0
 43
0.0
 43
1.0
 77
     0
 47
0.0208333333333333
 47
0.0
 47
0.0
 47
0.0
 47
0.0
 47
0.0208333333333333
 47
0.0
 47
0.0
 47
0.0
 47
0.0
 47
1.0
 47
0.0
 47
0.0
 47
0.0
 47
0.0
 47
1.0
171
     0
 49
0.0208333333333333
 49
0.0
 49
0.0
 49
0.0
 49
0.0
 49
0.0208333333333333
 49
0.0
 49
0.0
 49
0.0
 49
0.0
 49
1.0
 49
0.0
 49
0.0
 49
0.0
 49
0.0
 49
1.0
175
     0
142
0.0208333333333333
142
0.0
142
0.0
142
0.0
142
0.0
142
0.0208333333333333
142
0.0
142
0.0
142
0.0
142
0.0
142
1.0
142
0.0
142
0.0
142
0.0
142
0.0
142
1.0
179
     0
144
0.0208333333333333
144
0.0
144
0.0
144
0.0
144
0.0
144
0.0208333333333333
144
0.0
144
0.0
144
0.0
144
0.0
144
1.0
144
0.0
144
0.0
144
0.0
144
0.0
144
1.0
147
0.0208333333333333
147
0.0
147
0.0
147
0.0
147
0.0
147
0.0208333333333333
147
0.0
147
0.0
147
0.0
147
0.0
147
1.0
147
0.0
147
0.0
147
0.0
147
0.0
147
1.0
  0
MATERIAL
  5
11
102
{ACAD_XDICTIONARY
360
12
102
}
102
{ACAD_REACTORS
330
10
102
}
330
10
100
AcDbMaterial
  1
ByLayer
 72
     0
 43
0.0208333333333333
 43
0.0
 43
0.0
 43
0.0
 43
0.0
 43
0.0208333333333333
 43
0.0
 43
0.0
 43
0.0
 43
0.0
 43
1.0
 43
0.0
 43
0.0
 43
0.0
 43
0.0
 43
1.0
 77
     0
 47
0.0208333333333333
 47
0.0
 47
0.0
 47
0.0
 47
0.0
 47
0.0208333333333333
 47
0.0
 47
0.0
 47
0.0
 47
0.0
 47
1.0
 47
0.0
 47
0.0
 47
0.0
 47
0.0
 47
1.0
171
     0
 49
0.0208333333333333
 49
0.0
 49
0.0
 49
0.0
 49
0.0
 49
0.0208333333333333
 49
0.0
 49
0.0
 49
0.0
 49
0.0
 49
1.0
 49
0.0
 49
0.0
 49
0.0
 49
0.0
 49
1.0
175
     0
142
0.0208333333333333
142
0.0
142
0.0
142
0.0
142
0.0
142
0.0208333333333333
142
0.0
142
0.0
142
0.0
142
0.0
142
1.0
142
0.0
142
0.0
142
0.0
142
0.0
142
1.0
179
     0
144
0.0208333333333333
144
0.0
144
0.0
144
0.0
144
0.0
144
0.0208333333333333
144
0.0
144
0.0
144
0.0
144
0.0
144
1.0
144
0.0
144
0.0
144
0.0
144
0.0
144
1.0
147
0.0208333333333333
147
0.0
147
0.0
147
0.0
147
0.0
147
0.0208333333333333
147
0.0
147
0.0
147
0.0
147
0.0
147
1.0
147
0.0
147
0.0
147
0.0
147
0.0
147
1.0
  0
MATERIAL
  5
21
102
{ACAD_XDICTIONARY
360
22
102
}
102
{ACAD_REACTORS
330
10
102
}
330
10
100
AcDbMaterial
  1
Global
 72
     0
 43
0.0208333333333333
 43
0.0
 43
0.0
 43
0.0
 43
0.0
 43
0.0208333333333333
 43
0.0
 43
0.0
 43
0.0
 43
0.0
 43
1.0
 43
0.0
 43
0.0
 43
0.0
 43
0.0
 43
1.0
 77
     0
 47
0.0208333333333333
 47
0.0
 47
0.0
 47
0.0
 47
0.0
 47
0.0208333333333333
 47
0.0
 47
0.0
 47
0.0
 47
0.0
 47
1.0
 47
0.0
 47
0.0
 47
0.0
 47
0.0
 47
1.0
171
     0
 49
0.0208333333333333
 49
0.0
 49
0.0
 49
0.0
 49
0.0
 49
0.0208333333333333
 49
0.0
 49
0.0
 49
0.0
 49
0.0
 49
1.0
 49
0.0
 49
0.0
 49
0.0
 49
0.0
 49
1.0
175
     0
142
0.0208333333333333
142
0.0
142
0.0
142
0.0
142
0.0
142
0.0208333333333333
142
0.0
142
0.0
142
0.0
142
0.0
142
1.0
142
0.0
142
0.0
142
0.0
142
0.0
142
1.0
179
     0
144
0.0208333333333333
144
0.0
144
0.0
144
0.0
144
0.0
144
0.0208333333333333
144
0.0
144
0.0
144
0.0
144
0.0
144
1.0
144
0.0
144
0.0
144
0.0
144
0.0
144
1.0
147
0.0208333333333333
147
0.0
147
0.0
147
0.0
147
0.0
147
0.0208333333333333
147
0.0
147
0.0
147
0.0
147
0.0
147
1.0
147
0.0
147
0.0
147
0.0
147
0.0
147
1.0
  0
MLEADERSTYLE
  5
66
102
{ACAD_REACTORS
330
65
102
}
330
65
100
AcDbMLeaderStyle
170
     2
171
     1
172
     0
 90
        2
 40
0.0
 41
0.0
173
     1
 91
-1056964608
340
5A
 92
       -2
290
     1
 42
0.09
291
     1
 43
0.36
  3
Standard
 44
0.18
300

342
55
174
     1
178
     6
175
     1
176
     0
 93
-1056964608
 45
0.18
292
     0
297
     0
 46
0.18
 94
-1056964608
 47
1.0
 49
1.0
140
1.0
293
     1
141
0.0
294
     1
177
     0
142
1.0
295
     0
296
     0
143
0.125
1001
ACAD_MLEADERVER
1070
     2
  0
MLINESTYLE
  5
5F
102
{ACAD_REACTORS
330
5E
102
}
330
5E
100
AcDbMlineStyle
  2
STANDARD
 70
     0
  3

 62
   256
 51
90.0
 52
90.0
 71
     2
 49
0.5
 62
   256
  6
BYLAYER
 49
-0.5
 62
   256
  6
BYLAYER
  0
ACDBPLACEHOLDER
  5
F
102
{ACAD_REACTORS
330
E
102
}
330
E
  0
SCALE
  5
43
102
{ACAD_REACTORS
330
42
102
}
330
42
100
AcDbScale
 70
     0
300
1:1
140
1.0
141
1.0
290
     1
  0
SCALE
  5
44
102
{ACAD_REACTORS
330
42
102
}
330
42
100
AcDbScale
 70
     0
300
1/128" = 1'-0"
140
0.0078125
141
12.0
290
     0
  0
SCALE
  5
45
102
{ACAD_REACTORS
330
42
102
}
330
42
100
AcDbScale
 70
     0
300
1/64" = 1'-0"
140
0.015625
141
12.0
290
     0
  0
SCALE
  5
46
102
{ACAD_REACTORS
330
42
102
}
330
42
100
AcDbScale
 70
     0
300
1/32" = 1'-0"
140
0.03125
141
12.0
290
     0
  0
SCALE
  5
47
102
{ACAD_REACTORS
330
42
102
}
330
42
100
AcDbScale
 70
     0
300
1/16" = 1'-0"
140
0.0625
141
12.0
290
     0
  0
SCALE
  5
48
102
{ACAD_REACTORS
330
42
102
}
330
42
100
AcDbScale
 70
     0
300
3/32" = 1'-0"
140
0.09375
141
12.0
290
     0
  0
SCALE
  5
49
102
{ACAD_REACTORS
330
42
102
}
330
42
100
AcDbScale
 70
     0
300
1/8" = 1'-0"
140
0.125
141
12.0
290
     0
  0
SCALE
  5
4A
102
{ACAD_REACTORS
330
42
102
}
330
42
100
AcDbScale
 70
     0
300
3/16" = 1'-0"
140
0.1875
141
12.0
290
     0
  0
SCALE
  5
4B
102
{ACAD_REACTORS
330
42
102
}
330
42
100
AcDbScale
 70
     0
300
1/4" = 1'-0"
140
0.25
141
12.0
290
     0
  0
SCALE
  5
4C
102
{ACAD_REACTORS
330
42
102
}
330
42
100
AcDbScale
 70
     0
300
3/8" = 1'-0"
140
0.375
141
12.0
290
     0
  0
SCALE
  5
4D
102
{ACAD_REACTORS
330
42
102
}
330
42
100
AcDbScale
 70
     0
300
1/2" = 1'-0"
140
0.5
141
12.0
290
     0
  0
SCALE
  5
4E
102
{ACAD_REACTORS
330
42
102
}
330
42
100
AcDbScale
 70
     0
300
3/4" = 1'-0"
140
0.75
141
12.0
290
     0
  0
SCALE
  5
4F
102
{ACAD_REACTORS
330
42
102
}
330
42
100
AcDbScale
 70
     0
300
1" = 1'-0"
140
1.0
141
12.0
290
     0
  0
SCALE
  5
50
102
{ACAD_REACTORS
330
42
102
}
330
42
100
AcDbScale
 70
     0
300
1-1/2" = 1'-0"
140
1.5
141
12.0
290
     0
  0
SCALE
  5
51
102
{ACAD_REACTORS
330
42
102
}
330
42
100
AcDbScale
 70
     0
300
3" = 1'-0"
140
3.0
141
12.0
290
     0
  0
SCALE
  5
52
102
{ACAD_REACTORS
330
42
102
}
330
42
100
AcDbScale
 70
     0
300
6" = 1'-0"
140
6.0
141
12.0
290
     0
  0
SCALE
  5
53
102
{ACAD_REACTORS
330
42
102
}
330
42
100
AcDbScale
 70
     0
300
1'-0" = 1'-0"
140
12.0
141
12.0
290
     0
  0
TABLESTYLE
  5
64
102
{ACAD_XDICTIONARY
360
3F3
102
}
102
{ACAD_REACTORS
330
63
102
}
330
63
100
AcDbTableStyle
  3
Standard
 70
     0
 71
     0
 40
0.06
 41
0.06
280
     0
281
     0
  7
STANDARD
140
0.18
170
     2
 62
     0
 63
     7
283
     0
274
    -2
284
     1
 64
     0
275
    -2
285
     1
 65
     0
276
    -2
286
     1
 66
     0
277
    -2
287
     1
 67
     0
278
    -2
288
     1
 68
     0
279
    -2
289
     1
 69
     0
  7
STANDARD
140
0.25
170
     5
 62
     0
 63
     7
283
     0
274
    -2
284
     1
 64
     0
275
    -2
285
     1
 65
     0
276
    -2
286
     1
 66
     0
277
    -2
287
     1
 67
     0
278
    -2
288
     1
 68
     0
279
    -2
289
     1
 69
     0
  7
STANDARD
140
0.18
170
     5
 62
     0
 63
     7
283
     0
274
    -2
284
     1
 64
     0
275
    -2
285
     1
 65
     0
276
    -2
286
     1
 66
     0
277
    -2
287
     1
 67
     0
278
    -2
288
     1
 68
     0
279
    -2
289
     1
 69
     0
  0
VISUALSTYLE
  5
2F
102
{ACAD_XDICTIONARY
360
A3E
102
}
102
{ACAD_REACTORS
330
29
102
}
330
29
100
AcDbVisualStyle
  2

 70
     4
 71
     0
 72
     2
 73
     0
 90
        0
 40
-0.6
 41
-30.0
 62
     5
 63
     7
 74
     1
 91
        4
 64
     7
 65
   257
 75
     1
175
     1
 42
1.0
 92
        0
 66
   257
 43
1.0
 76
     1
 77
     6
 78
     2
 67
     7
 79
     5
170
     0
171
     0
290
     0
174
     0
 93
        1
 44
0.0
173
     0
291
     0
 45
0.0
1001
ACAD
1000
AcDbSavedByObjectVersion
1070
     0
  0
VISUALSTYLE
  5
272
102
{ACAD_XDICTIONARY
360
A69
102
}
102
{ACAD_REACTORS
330
29
102
}
330
29
100
AcDbVisualStyle
  2

 70
     5
 71
     0
 72
     2
 73
     1
 90
        0
 40
-0.6
 41
-30.0
 62
     5
 63
     7
 74
     1
 91
        4
 64
     7
 65
   257
 75
     1
175
     1
 42
1.0
 92
        0
 66
   257
 43
1.0
 76
     1
 77
     6
 78
     2
 67
     7
 79
     5
170
     0
171
     0
290
     0
174
     0
 93
        1
 44
0.0
173
     0
291
     0
 45
0.0
1001
ACAD
1000
AcDbSavedByObjectVersion
1070
     0
  0
VISUALSTYLE
  5
2E
102
{ACAD_XDICTIONARY
360
A3C
102
}
102
{ACAD_REACTORS
330
29
102
}
330
29
100
AcDbVisualStyle
  2

 70
     7
 71
     1
 72
     0
 73
     1
 90
        0
 40
-0.6
 41
-30.0
 62
     5
 63
     7
 74
     0
 91
        4
 64
     7
 65
   257
 75
     1
175
     1
 42
1.0
 92
        8
 66
     7
 43
1.0
 76
     1
 77
     6
 78
     2
 67
     7
 79
     5
170
     0
171
     0
290
     0
174
     0
 93
        1
 44
0.0
173
     0
291
     1
 45
0.0
1001
ACAD
1000
AcDbSavedByObjectVersion
1070
     0
  0
VISUALSTYLE
  5
35
102
{ACAD_XDICTIONARY
360
A4A
102
}
102
{ACAD_REACTORS
330
29
102
}
330
29
100
AcDbVisualStyle
  2

 70
    12
 71
     2
 72
     2
 73
     0
 90
        0
 40
-0.6
 41
-30.0
 62
     5
 63
     7
 74
     1
 91
        4
 64
     7
 65
   257
 75
     1
175
     1
 42
1.0
 92
        8
 66
     7
 43
1.0
 76
     1
 77
     6
 78
     2
 67
     7
 79
     5
170
     0
171
     0
290
     0
174
     0
 93
        1
 44
50.0
173
     0
291
     1
 45
0.0
1001
ACAD
1000
AcDbSavedByObjectVersion
1070
     0
  0
VISUALSTYLE
  5
39
102
{ACAD_XDICTIONARY
360
A52
102
}
102
{ACAD_REACTORS
330
29
102
}
330
29
100
AcDbVisualStyle
  2

 70
    16
 71
     2
 72
     2
 73
     3
 90
        0
 40
-0.6
 41
-30.0
 62
     5
 63
     8
 74
     1
 91
        4
 64
     7
 65
   257
 75
     1
175
     1
 42
1.0
 92
        8
 66
     8
 43
1.0
 76
     1
 77
     6
 78
     2
 67
     7
 79
     5
170
     0
171
     0
290
     0
174
     0
 93
        1
 44
0.0
173
     0
291
     1
 45
0.0
1001
ACAD
1000
AcDbSavedByObjectVersion
1070
     0
  0
VISUALSTYLE
  5
32
102
{ACAD_XDICTIONARY
360
A44
102
}
102
{ACAD_REACTORS
330
29
102
}
330
29
100
AcDbVisualStyle
  2

 70
     9
 71
     3
 72
     2
 73
     0
 90
        0
 40
-0.6
 41
-30.0
 62
     5
 63
     7
 74
     2
 91
        2
 64
     7
 65
   257
 75
     1
175
     1
 42
179.0
 92
        8
 66
     7
 43
1.0
 76
     1
 77
     6
 78
     2
 67
     7
 79
     3
170
     0
171
     0
290
     0
174
     0
 93
        1
 44
0.0
173
     0
291
     0
 45
0.0
1001
ACAD
1000
AcDbSavedByObjectVersion
1070
     0
  0
VISUALSTYLE
  5
34
102
{ACAD_XDICTIONARY
360
A48
102
}
102
{ACAD_REACTORS
330
29
102
}
330
29
100
AcDbVisualStyle
  2

 70
    11
 71
     2
 72
     2
 73
     0
 90
        0
 40
-0.6
 41
-30.0
 62
     5
 63
     7
 74
     1
 91
        4
 64
     7
 65
   257
 75
     1
175
     1
 42
1.0
 92
        8
 66
     7
 43
1.0
 76
     1
 77
     6
 78
     2
 67
     7
 79
     5
170
     0
171
     0
290
     0
174
     0
 93
        1
 44
-50.0
173
     0
291
     1
 45
0.0
1001
ACAD
1000
AcDbSavedByObjectVersion
1070
     0
  0
VISUALSTYLE
  5
41
102
{ACAD_XDICTIONARY
360
A62
102
}
102
{ACAD_REACTORS
330
29
102
}
330
29
100
AcDbVisualStyle
  2

 70
    22
 71
     2
 72
     2
 73
     0
 90
        0
 40
-0.6
 41
-30.0
 62
     5
 63
     7
 74
     1
 91
        4
 64
     7
 65
   257
 75
     1
175
     1
 42
1.0
 92
        8
 66
     7
 43
1.0
 76
     1
 77
     6
 78
     2
 67
     7
 79
     5
170
     0
171
     0
290
     0
174
     0
 93
        1
 44
0.0
173
     0
291
     1
 45
0.0
1001
ACAD
1000
AcDbSavedByObjectVersion
1070
     0
  0
VISUALSTYLE
  5
38
102
{ACAD_XDICTIONARY
360
A50
102
}
102
{ACAD_REACTORS
330
29
102
}
330
29
100
AcDbVisualStyle
  2

 70
    15
 71
     2
 72
     2
 73
     0
 90
        0
 40
-0.6
 41
-30.0
 62
     5
 63
     7
 74
     1
 91
        4
 64
     7
 65
   257
 75
     1
175
     1
 42
1.0
 92
        8
 66
     7
 43
1.0
 76
     1
 77
     6
 78
     2
 67
     7
 79
     5
170
     0
171
     0
290
     0
174
     0
 93
        1
 44
0.0
173
     0
291
     1
 45
0.0
1001
ACAD
1000
AcDbSavedByObjectVersion
1070
     0
  0
VISUALSTYLE
  5
2A
102
{ACAD_XDICTIONARY
360
A34
102
}
102
{ACAD_REACTORS
330
29
102
}
330
29
100
AcDbVisualStyle
  2

 70
     0
 71
     2
 72
     1
 73
     1
 90
        2
 40
-0.6
 41
30.0
 62
     5
 63
     7
 74
     0
 91
        0
 64
     7
 65
   257
 75
     1
175
     1
 42
1.0
 92
        8
 66
     7
 43
1.0
 76
     1
 77
     6
 78
     2
 67
     7
 79
     5
170
     0
171
     0
290
     0
174
     0
 93
       13
 44
0.0
173
     0
291
     1
 45
0.0
1001
ACAD
1000
AcDbSavedByObjectVersion
1070
     0
  0
VISUALSTYLE
  5
2B
102
{ACAD_XDICTIONARY
360
A36
102
}
102
{ACAD_REACTORS
330
29
102
}
330
29
100
AcDbVisualStyle
  2

 70
     1
 71
     2
 72
     1
 73
     1
 90
        2
 40
-0.6
 41
30.0
 62
     5
 63
     7
 74
     1
 91
        0
 64
     7
 65
   257
 75
     1
175
     1
 42
1.0
 92
        0
 66
   257
 43
1.0
 76
     1
 77
     6
 78
     2
 67
     7
 79
     5
170
     0
171
     0
290
     0
174
     0
 93
       13
 44
0.0
173
     0
291
     1
 45
0.0
1001
ACAD
1000
AcDbSavedByObjectVersion
1070
     0
  0
VISUALSTYLE
  5
2C
102
{ACAD_XDICTIONARY
360
A38
102
}
102
{ACAD_REACTORS
330
29
102
}
330
29
100
AcDbVisualStyle
  2

 70
     2
 71
     2
 72
     2
 73
     1
 90
        2
 40
-0.6
 41
30.0
 62
     5
 63
     7
 74
     0
 91
        0
 64
     7
 65
   257
 75
     1
175
     1
 42
1.0
 92
        0
 66
     7
 43
1.0
 76
     1
 77
     6
 78
     2
 67
     7
 79
     5
170
     0
171
     0
290
     0
174
     0
 93
       13
 44
0.0
173
     0
291
     1
 45
0.0
1001
ACAD
1000
AcDbSavedByObjectVersion
1070
     0
  0
VISUALSTYLE
  5
2D
102
{ACAD_XDICTIONARY
360
A3A
102
}
102
{ACAD_REACTORS
330
29
102
}
330
29
100
AcDbVisualStyle
  2

 70
     3
 71
     2
 72
     2
 73
     1
 90
        2
 40
-0.6
 41
30.0
 62
     5
 63
     7
 74
     1
 91
        0
 64
     7
 65
   257
 75
     1
175
     1
 42
1.0
 92
        0
 66
   257
 43
1.0
 76
     1
 77
     6
 78
     2
 67
     7
 79
     5
170
     0
171
     0
290
     0
174
     0
 93
       13
 44
0.0
173
     0
291
     1
 45
0.0
1001
ACAD
1000
AcDbSavedByObjectVersion
1070
     0
  0
VISUALSTYLE
  5
31
102
{ACAD_XDICTIONARY
360
A42
102
}
102
{ACAD_REACTORS
330
29
102
}
330
29
100
AcDbVisualStyle
  2

 70
     6
 71
     1
 72
     2
 73
     2
 90
        0
 40
-0.6
 41
-30.0
 62
     5
 63
     7
 74
     2
 91
        2
 64
     7
 65
   257
 75
     2
175
     1
 42
40.0
 92
        0
 66
   257
 43
1.0
 76
     1
 77
     6
 78
     2
 67
     7
 79
     3
170
     0
171
     0
290
     0
174
     0
 93
        1
 44
0.0
173
     0
291
     0
 45
0.0
1001
ACAD
1000
AcDbSavedByObjectVersion
1070
     0
  0
VISUALSTYLE
  5
3F
102
{ACAD_XDICTIONARY
360
A5E
102
}
102
{ACAD_REACTORS
330
29
102
}
330
29
100
AcDbVisualStyle
  2

 70
    20
 71
     2
 72
     2
 73
     0
 90
        0
 40
-0.6
 41
-30.0
 62
     5
 63
     7
 74
     1
 91
        4
 64
     7
 65
   257
 75
     1
175
     1
 42
1.0
 92
       10
 66
     7
 43
1.0
 76
     1
 77
     6
 78
     2
 67
     7
 79
     5
170
     0
171
     0
290
     0
174
     0
 93
        1
 44
0.0
173
     0
291
     1
 45
0.0
1001
ACAD
1000
AcDbSavedByObjectVersion
1070
     0
  0
VISUALSTYLE
  5
37
102
{ACAD_XDICTIONARY
360
A4E
102
}
102
{ACAD_REACTORS
330
29
102
}
330
29
100
AcDbVisualStyle
  2

 70
    14
 71
     2
 72
     2
 73
     0
 90
        0
 40
-0.6
 41
-30.0
 62
     5
 63
     7
 74
     1
 91
        4
 64
     7
 65
   257
 75
     7
175
     7
 42
1.0
 92
        8
 66
     7
 43
1.0
 76
     1
 77
     6
 78
     2
 67
     7
 79
     5
170
     0
171
     0
290
     0
174
     0
 93
        1
 44
0.0
173
     0
291
     1
 45
0.0
1001
ACAD
1000
AcDbSavedByObjectVersion
1070
     0
  0
VISUALSTYLE
  5
40
102
{ACAD_XDICTIONARY
360
A60
102
}
102
{ACAD_REACTORS
330
29
102
}
330
29
100
AcDbVisualStyle
  2

 70
    21
 71
     2
 72
     2
 73
     0
 90
        0
 40
-0.6
 41
-30.0
 62
     5
 63
     7
 74
     1
 91
        4
 64
     7
 65
   257
 75
     1
175
     1
 42
1.0
 92
        9
 66
     7
 43
1.0
 76
     1
 77
     6
 78
     2
 67
     7
 79
     5
170
     0
171
     0
290
     0
174
     0
 93
        1
 44
0.0
173
     0
291
     1
 45
0.0
1001
ACAD
1000
AcDbSavedByObjectVersion
1070
     0
  0
VISUALSTYLE
  5
33
102
{ACAD_XDICTIONARY
360
A46
102
}
102
{ACAD_REACTORS
330
29
102
}
330
29
100
AcDbVisualStyle
  2

 70
     8
 71
     2
 72
     3
 73
     0
 90
        2
 40
-0.6
 41
30.0
 62
     5
 63
     7
 74
     0
 91
        0
 64
     7
 65
   257
 75
     1
175
     1
 42
1.0
 92
        8
 66
   257
 43
1.0
 76
     1
 77
     6
 78
     2
 67
     7
 79
     3
170
     0
171
     0
290
     0
174
     0
 93
       13
 44
0.0
173
     0
291
     0
 45
0.0
1001
ACAD
1000
AcDbSavedByObjectVersion
1070
     0
  0
VISUALSTYLE
  5
3E
102
{ACAD_XDICTIONARY
360
A5C
102
}
102
{ACAD_REACTORS
330
29
102
}
330
29
100
AcDbVisualStyle
  2

 70
    27
 71
     2
 72
     2
 73
     1
 90
        2
 40
-0.6
 41
30.0
 62
     5
 63
     7
 74
     0
 91
        4
 64
     7
 65
   257
 75
     1
175
     1
 42
1.0
 92
        8
 66
   257
 43
1.0
 76
     1
 77
     6
 78
     2
 67
     8
 79
     3
170
     0
171
     0
290
     0
174
     0
 93
        5
 44
0.0
173
     0
291
     0
 45
0.0
1001
ACAD
1000
AcDbSavedByObjectVersion
1070
     0
  0
VISUALSTYLE
  5
3D
102
{ACAD_XDICTIONARY
360
A5A
102
}
102
{ACAD_REACTORS
330
29
102
}
330
29
100
AcDbVisualStyle
  2

 70
    26
 71
     2
 72
     2
 73
     1
 90
        2
 40
-0.6
 41
30.0
 62
     5
 63
     7
 74
     1
 91
       10
 64
     7
 65
   257
 75
     2
175
     1
 42
1.0
 92
        8
 66
   257
 43
1.0
 76
     1
 77
     6
 78
     2
 67
     7
 79
     3
170
     0
171
     0
290
     0
174
     0
 93
        5
 44
0.0
173
     0
291
     0
 45
0.0
1001
ACAD
1000
AcDbSavedByObjectVersion
1070
     0
  0
VISUALSTYLE
  5
3A
102
{ACAD_XDICTIONARY
360
A54
102
}
102
{ACAD_REACTORS
330
29
102
}
330
29
100
AcDbVisualStyle
  2

 70
    23
 71
     2
 72
     2
 73
     3
 90
        0
 40
-0.6
 41
-30.0
 62
     5
 63
     7
 74
     2
 91
        2
 64
     7
 65
     7
 75
     1
175
     1
 42
40.0
 92
        8
 66
     7
 43
1.0
 76
     1
 77
     6
 78
     2
 67
     7
 79
     3
170
     0
171
     0
290
     0
174
     0
 93
        1
 44
0.0
173
     0
291
     0
 45
0.0
1001
ACAD
1000
AcDbSavedByObjectVersion
1070
     0
  0
VISUALSTYLE
  5
3B
102
{ACAD_XDICTIONARY
360
A56
102
}
102
{ACAD_REACTORS
330
29
102
}
330
29
100
AcDbVisualStyle
  2

 70
    24
 71
     1
 72
     2
 73
     2
 90
        0
 40
-0.6
 41
-30.0
 62
     5
 63
     7
 74
     2
 91
        2
 64
     7
 65
     7
 75
     1
175
     1
 42
40.0
 92
       11
 66
     7
 43
1.0
 76
     1
 77
     6
 78
     2
 67
     7
 79
     6
170
     0
171
     0
290
     0
174
     0
 93
        1
 44
0.0
173
     0
291
     0
 45
0.0
1001
ACAD
1000
AcDbSavedByObjectVersion
1070
     0
  0
VISUALSTYLE
  5
36
102
{ACAD_XDICTIONARY
360
A4C
102
}
102
{ACAD_REACTORS
330
29
102
}
330
29
100
AcDbVisualStyle
  2

 70
    13
 71
     2
 72
     2
 73
     0
 90
        0
 40
-0.6
 41
-30.0
 62
     5
 63
     7
 74
     1
 91
        4
 64
     7
 65
   257
 75
     1
175
     1
 42
1.0
 92
       12
 66
     7
 43
1.0
 76
     1
 77
     6
 78
     2
 67
     7
 79
     5
170
     0
171
     0
290
     0
174
     0
 93
        1
 44
0.0
173
     0
291
     1
 45
0.0
1001
ACAD
1000
AcDbSavedByObjectVersion
1070
     0
  0
VISUALSTYLE
  5
30
102
{ACAD_XDICTIONARY
360
A40
102
}
102
{ACAD_REACTORS
330
29
102
}
330
29
100
AcDbVisualStyle
  2

 70
     5
 71
     0
 72
     2
 73
     0
 90
        0
 40
-0.6
 41
-30.0
 62
     5
 63
     7
 74
     1
 91
        4
 64
     7
 65
   257
 75
     1
175
     1
 42
1.0
 92
        0
 66
   257
 43
1.0
 76
     1
 77
     6
 78
     2
 67
     7
 79
     3
170
     0
171
     0
290
     0
174
     0
 93
        1
 44
0.0
173
     0
291
     0
 45
0.0
1001
ACAD
1000
AcDbSavedByObjectVersion
1070
     0
  0
VISUALSTYLE
  5
3C
102
{ACAD_XDICTIONARY
360
A58
102
}
102
{ACAD_REACTORS
330
29
102
}
330
29
100
AcDbVisualStyle
  2

 70
    25
 71
     2
 72
     2
 73
     1
 90
        1
 40
0.5
 41
-30.0
 62
     5
 63
     7
 74
     1
 91
        0
 64
     7
 65
   257
 75
     1
175
     1
 42
1.0
 92
        8
 66
     7
 43
1.0
 76
     1
 77
     6
 78
     2
 67
     7
 79
     3
170
     0
171
     0
290
     0
174
     0
 93
       13
 44
0.0
173
     0
291
     0
 45
0.0
1001
ACAD
1000
AcDbSavedByObjectVersion
1070
     0
  0
DICTIONARYVAR
  5
3EE
102
{ACAD_REACTORS
330
3EB
102
}
330
3EB
100
DictionaryVariables
280
     0
  1
1:1
  0
DICTIONARYVAR
  5
3ED
102
{ACAD_REACTORS
330
3EB
102
}
330
3EB
100
DictionaryVariables
280
     0
  1
STANDARD
  0
DICTIONARYVAR
  5
3EC
102
{ACAD_REACTORS
330
3EB
102
}
330
3EB
100
DictionaryVariables
280
     0
  1
STANDARD
  0
DICTIONARYVAR
  5
3F1
102
{ACAD_REACTORS
330
3EB
102
}
330
3EB
100
DictionaryVariables
280
     0
  1
1
  0
DICTIONARYVAR
  5
3F0
102
{ACAD_REACTORS
330
3EB
102
}
330
3EB
100
DictionaryVariables
280
     0
  1
0
  0
DICTIONARYVAR
  5
3EF
102
{ACAD_REACTORS
330
3EB
102
}
330
3EB
100
DictionaryVariables
280
     0
  1
127
  0
DICTIONARYVAR
  5
98D
102
{ACAD_REACTORS
330
3EB
102
}
330
3EB
100
DictionaryVariables
280
     0
  1
2
  0
DICTIONARY
  5
A67
330
6E
100
AcDbDictionary
280
     1
281
     1
  3
ACAD_XREC_ROUNDTRIP
360
A68
  0
DICTIONARY
  5
A65
330
6A
100
AcDbDictionary
280
     1
281
     1
  3
ACAD_XREC_ROUNDTRIP
360
A66
  0
DICTIONARY
  5
1A
330
19
100
AcDbDictionary
280
     1
281
     1
  3
ACAD_XREC_ROUNDTRIP
360
3FC
  3
BUMPTILE
360
1C
  3
DIFFUSETILE
360
1B
  3
OPACITYTILE
360
1F
  3
REFLECTIONTILE
360
1E
  3
REFRACTIONTILE
360
20
  3
SPECULARTILE
360
1D
  0
DICTIONARY
  5
12
330
11
100
AcDbDictionary
280
     1
281
     1
  3
ACAD_XREC_ROUNDTRIP
360
3FB
  3
BUMPTILE
360
14
  3
DIFFUSETILE
360
13
  3
OPACITYTILE
360
17
  3
REFLECTIONTILE
360
16
  3
REFRACTIONTILE
360
18
  3
SPECULARTILE
360
15
  0
DICTIONARY
  5
22
330
21
100
AcDbDictionary
280
     1
281
     1
  3
ACAD_XREC_ROUNDTRIP
360
3FD
  3
BUMPTILE
360
24
  3
DIFFUSETILE
360
23
  3
OPACITYTILE
360
27
  3
REFLECTIONTILE
360
26
  3
REFRACTIONTILE
360
28
  3
SPECULARTILE
360
25
  0
DICTIONARY
  5
3F3
330
64
100
AcDbDictionary
280
     1
281
     1
  3
ACAD_ROUNDTRIP_2008_TABLESTYLE_CELLSTYLEMAP
360
A2D
  3
ACAD_XREC_ROUNDTRIP
360
A64
  0
DICTIONARY
  5
A3E
330
2F
100
AcDbDictionary
280
     1
281
     1
  3
ACAD_XREC_ROUNDTRIP
360
A3F
  0
DICTIONARY
  5
A69
330
272
100
AcDbDictionary
280
     1
281
     1
  3
ACAD_XREC_ROUNDTRIP
360
A6A
  0
DICTIONARY
  5
A3C
330
2E
100
AcDbDictionary
280
     1
281
     1
  3
ACAD_XREC_ROUNDTRIP
360
A3D
  0
DICTIONARY
  5
A4A
330
35
100
AcDbDictionary
280
     1
281
     1
  3
ACAD_XREC_ROUNDTRIP
360
A4B
  0
DICTIONARY
  5
A52
330
39
100
AcDbDictionary
280
     1
281
     1
  3
ACAD_XREC_ROUNDTRIP
360
A53
  0
DICTIONARY
  5
A44
330
32
100
AcDbDictionary
280
     1
281
     1
  3
ACAD_XREC_ROUNDTRIP
360
A45
  0
DICTIONARY
  5
A48
330
34
100
AcDbDictionary
280
     1
281
     1
  3
ACAD_XREC_ROUNDTRIP
360
A49
  0
DICTIONARY
  5
A62
330
41
100
AcDbDictionary
280
     1
281
     1
  3
ACAD_XREC_ROUNDTRIP
360
A63
  0
DICTIONARY
  5
A50
330
38
100
AcDbDictionary
280
     1
281
     1
  3
ACAD_XREC_ROUNDTRIP
360
A51
  0
DICTIONARY
  5
A34
330
2A
100
AcDbDictionary
280
     1
281
     1
  3
ACAD_XREC_ROUNDTRIP
360
A35
  0
DICTIONARY
  5
A36
330
2B
100
AcDbDictionary
280
     1
281
     1
  3
ACAD_XREC_ROUNDTRIP
360
A37
  0
DICTIONARY
  5
A38
330
2C
100
AcDbDictionary
280
     1
281
     1
  3
ACAD_XREC_ROUNDTRIP
360
A39
  0
DICTIONARY
  5
A3A
330
2D
100
AcDbDictionary
280
     1
281
     1
  3
ACAD_XREC_ROUNDTRIP
360
A3B
  0
DICTIONARY
  5
A42
330
31
100
AcDbDictionary
280
     1
281
     1
  3
ACAD_XREC_ROUNDTRIP
360
A43
  0
DICTIONARY
  5
A5E
330
3F
100
AcDbDictionary
280
     1
281
     1
  3
ACAD_XREC_ROUNDTRIP
360
A5F
  0
DICTIONARY
  5
A4E
330
37
100
AcDbDictionary
280
     1
281
     1
  3
ACAD_XREC_ROUNDTRIP
360
A4F
  0
DICTIONARY
  5
A60
330
40
100
AcDbDictionary
280
     1
281
     1
  3
ACAD_XREC_ROUNDTRIP
360
A61
  0
DICTIONARY
  5
A46
330
33
100
AcDbDictionary
280
     1
281
     1
  3
ACAD_XREC_ROUNDTRIP
360
A47
  0
DICTIONARY
  5
A5C
330
3E
100
AcDbDictionary
280
     1
281
     1
  3
ACAD_XREC_ROUNDTRIP
360
A5D
  0
DICTIONARY
  5
A5A
330
3D
100
AcDbDictionary
280
     1
281
     1
  3
ACAD_XREC_ROUNDTRIP
360
A5B
  0
DICTIONARY
  5
A54
330
3A
100
AcDbDictionary
280
     1
281
     1
  3
ACAD_XREC_ROUNDTRIP
360
A55
  0
DICTIONARY
  5
A56
330
3B
100
AcDbDictionary
280
     1
281
     1
  3
ACAD_XREC_ROUNDTRIP
360
A57
  0
DICTIONARY
  5
A4C
330
36
100
AcDbDictionary
280
     1
281
     1
  3
ACAD_XREC_ROUNDTRIP
360
A4D
  0
DICTIONARY
  5
A40
330
30
100
AcDbDictionary
280
     1
281
     1
  3
ACAD_XREC_ROUNDTRIP
360
A41
  0
DICTIONARY
  5
A58
330
3C
100
AcDbDictionary
280
     1
281
     1
  3
ACAD_XREC_ROUNDTRIP
360
A59
  0
XRECORD
  5
A68
102
{ACAD_REACTORS
330
A67
102
}
330
A67
100
AcDbXrecord
280
     1
102
SHADEPLOT
 70
     0
102
SHADEPLOTRESLEVEL
 70
     2
102
SHADEPLOTCUSTOMDPI
 70
   300
  0
XRECORD
  5
A66
102
{ACAD_REACTORS
330
A65
102
}
330
A65
100
AcDbXrecord
280
     1
102
SHADEPLOT
 70
     0
102
SHADEPLOTRESLEVEL
 70
     2
102
SHADEPLOTCUSTOMDPI
 70
   300
  0
XRECORD
  5
3FC
102
{ACAD_REACTORS
330
1A
102
}
330
1A
100
AcDbXrecord
280
     1
102
MATERIAL
148
0.0
149
0.0
149
0.0
 93
        0
 94
      127
282
     0
 72
     0
 77
     0
171
     0
175
     0
179
     0
273
     0
  0
XRECORD
  5
1C
102
{ACAD_REACTORS
330
1A
102
}
330
1A
100
AcDbXrecord
280
     1
270
     1
271
     1
  0
XRECORD
  5
1B
102
{ACAD_REACTORS
330
1A
102
}
330
1A
100
AcDbXrecord
280
     1
270
     1
271
     1
  0
XRECORD
  5
1F
102
{ACAD_REACTORS
330
1A
102
}
330
1A
100
AcDbXrecord
280
     1
270
     1
271
     1
  0
XRECORD
  5
1E
102
{ACAD_REACTORS
330
1A
102
}
330
1A
100
AcDbXrecord
280
     1
270
     1
271
     1
  0
XRECORD
  5
20
102
{ACAD_REACTORS
330
1A
102
}
330
1A
100
AcDbXrecord
280
     1
270
     1
271
     1
  0
XRECORD
  5
1D
102
{ACAD_REACTORS
330
1A
102
}
330
1A
100
AcDbXrecord
280
     1
270
     1
271
     1
  0
XRECORD
  5
3FB
102
{ACAD_REACTORS
330
12
102
}
330
12
100
AcDbXrecord
280
     1
102
MATERIAL
148
0.0
149
0.0
149
0.0
 93
        0
 94
      127
282
     0
 72
     0
 77
     0
171
     0
175
     0
179
     0
273
     0
  0
XRECORD
  5
14
102
{ACAD_REACTORS
330
12
102
}
330
12
100
AcDbXrecord
280
     1
270
     1
271
     1
  0
XRECORD
  5
13
102
{ACAD_REACTORS
330
12
102
}
330
12
100
AcDbXrecord
280
     1
270
     1
271
     1
  0
XRECORD
  5
17
102
{ACAD_REACTORS
330
12
102
}
330
12
100
AcDbXrecord
280
     1
270
     1
271
     1
  0
XRECORD
  5
16
102
{ACAD_REACTORS
330
12
102
}
330
12
100
AcDbXrecord
280
     1
270
     1
271
     1
  0
XRECORD
  5
18
102
{ACAD_REACTORS
330
12
102
}
330
12
100
AcDbXrecord
280
     1
270
     1
271
     1
  0
XRECORD
  5
15
102
{ACAD_REACTORS
330
12
102
}
330
12
100
AcDbXrecord
280
     1
270
     1
271
     1
  0
XRECORD
  5
3FD
102
{ACAD_REACTORS
330
22
102
}
330
22
100
AcDbXrecord
280
     1
102
MATERIAL
148
0.0
149
0.0
149
0.0
 93
        0
 94
      127
282
     0
 72
     0
 77
     0
171
     0
175
     0
179
     0
273
     0
  0
XRECORD
  5
24
102
{ACAD_REACTORS
330
22
102
}
330
22
100
AcDbXrecord
280
     1
270
     1
271
     1
  0
XRECORD
  5
23
102
{ACAD_REACTORS
330
22
102
}
330
22
100
AcDbXrecord
280
     1
270
     1
271
     1
  0
XRECORD
  5
27
102
{ACAD_REACTORS
330
22
102
}
330
22
100
AcDbXrecord
280
     1
270
     1
271
     1
  0
XRECORD
  5
26
102
{ACAD_REACTORS
330
22
102
}
330
22
100
AcDbXrecord
280
     1
270
     1
271
     1
  0
XRECORD
  5
28
102
{ACAD_REACTORS
330
22
102
}
330
22
100
AcDbXrecord
280
     1
270
     1
271
     1
  0
XRECORD
  5
25
102
{ACAD_REACTORS
330
22
102
}
330
22
100
AcDbXrecord
280
     1
270
     1
271
     1
  0
CELLSTYLEMAP
  5
A2D
102
{ACAD_REACTORS
330
3F3
102
}
330
3F3
100
AcDbCellStyleMap
 90
        3
300
CELLSTYLE
  1
TABLEFORMAT_BEGIN
 90
        5
170
     1
 91
        0
 92
    32768
 62
   257
 93
        1
300
CONTENTFORMAT
  1
CONTENTFORMAT_BEGIN
 90
        0
 91
        0
 92
      512
 93
        0
300

 40
0.0
140
1.0
 94
        5
 62
     0
340
55
144
0.25
309
CONTENTFORMAT_END
171
     1
301
MARGIN
  1
CELLMARGIN_BEGIN
 40
0.06
 40
0.06
 40
0.06
 40
0.06
 40
0.18
 40
0.18
309
CELLMARGIN_END
 94
        6
 95
        1
302
GRIDFORMAT
  1
GRIDFORMAT_BEGIN
 90
        0
 91
        1
 62
     0
 92
       -2
340
0
 93
        0
 40
0.045
309
GRIDFORMAT_END
 95
        2
302
GRIDFORMAT
  1
GRIDFORMAT_BEGIN
 90
        0
 91
        1
 62
     0
 92
       -2
340
0
 93
        0
 40
0.045
309
GRIDFORMAT_END
 95
        4
302
GRIDFORMAT
  1
GRIDFORMAT_BEGIN
 90
        0
 91
        1
 62
     0
 92
       -2
340
0
 93
        0
 40
0.045
309
GRIDFORMAT_END
 95
        8
302
GRIDFORMAT
  1
GRIDFORMAT_BEGIN
 90
        0
 91
        1
 62
     0
 92
       -2
340
0
 93
        0
 40
0.045
309
GRIDFORMAT_END
 95
       16
302
GRIDFORMAT
  1
GRIDFORMAT_BEGIN
 90
        0
 91
        1
 62
     0
 92
       -2
340
0
 93
        0
 40
0.045
309
GRIDFORMAT_END
 95
       32
302
GRIDFORMAT
  1
GRIDFORMAT_BEGIN
 90
        0
 91
        1
 62
     0
 92
       -2
340
0
 93
        0
 40
0.045
309
GRIDFORMAT_END
309
TABLEFORMAT_END
  1
CELLSTYLE_BEGIN
 90
        1
 91
        1
300
_TITLE
309
CELLSTYLE_END
300
CELLSTYLE
  1
TABLEFORMAT_BEGIN
 90
        5
170
     1
 91
        0
 92
        0
 62
   257
 93
        1
300
CONTENTFORMAT
  1
CONTENTFORMAT_BEGIN
 90
        0
 91
        0
 92
      512
 93
        0
300

 40
0.0
140
1.0
 94
        5
 62
     0
340
55
144
0.18
309
CONTENTFORMAT_END
171
     1
301
MARGIN
  1
CELLMARGIN_BEGIN
 40
0.06
 40
0.06
 40
0.06
 40
0.06
 40
0.18
 40
0.18
309
CELLMARGIN_END
 94
        6
 95
        1
302
GRIDFORMAT
  1
GRIDFORMAT_BEGIN
 90
        0
 91
        1
 62
     0
 92
       -2
340
0
 93
        0
 40
0.045
309
GRIDFORMAT_END
 95
        2
302
GRIDFORMAT
  1
GRIDFORMAT_BEGIN
 90
        0
 91
        1
 62
     0
 92
       -2
340
0
 93
        0
 40
0.045
309
GRIDFORMAT_END
 95
        4
302
GRIDFORMAT
  1
GRIDFORMAT_BEGIN
 90
        0
 91
        1
 62
     0
 92
       -2
340
0
 93
        0
 40
0.045
309
GRIDFORMAT_END
 95
        8
302
GRIDFORMAT
  1
GRIDFORMAT_BEGIN
 90
        0
 91
        1
 62
     0
 92
       -2
340
0
 93
        0
 40
0.045
309
GRIDFORMAT_END
 95
       16
302
GRIDFORMAT
  1
GRIDFORMAT_BEGIN
 90
        0
 91
        1
 62
     0
 92
       -2
340
0
 93
        0
 40
0.045
309
GRIDFORMAT_END
 95
       32
302
GRIDFORMAT
  1
GRIDFORMAT_BEGIN
 90
        0
 91
        1
 62
     0
 92
       -2
340
0
 93
        0
 40
0.045
309
GRIDFORMAT_END
309
TABLEFORMAT_END
  1
CELLSTYLE_BEGIN
 90
        2
 91
        1
300
_HEADER
309
CELLSTYLE_END
300
CELLSTYLE
  1
TABLEFORMAT_BEGIN
 90
        5
170
     1
 91
        0
 92
        0
 62
   257
 93
        1
300
CONTENTFORMAT
  1
CONTENTFORMAT_BEGIN
 90
        0
 91
        0
 92
      512
 93
        0
300

 40
0.0
140
1.0
 94
        2
 62
     0
340
55
144
0.18
309
CONTENTFORMAT_END
171
     1
301
MARGIN
  1
CELLMARGIN_BEGIN
 40
0.06
 40
0.06
 40
0.06
 40
0.06
 40
0.18
 40
0.18
309
CELLMARGIN_END
 94
        6
 95
        1
302
GRIDFORMAT
  1
GRIDFORMAT_BEGIN
 90
        0
 91
        1
 62
     0
 92
       -2
340
0
 93
        0
 40
0.045
309
GRIDFORMAT_END
 95
        2
302
GRIDFORMAT
  1
GRIDFORMAT_BEGIN
 90
        0
 91
        1
 62
     0
 92
       -2
340
0
 93
        0
 40
0.045
309
GRIDFORMAT_END
 95
        4
302
GRIDFORMAT
  1
GRIDFORMAT_BEGIN
 90
        0
 91
        1
 62
     0
 92
       -2
340
0
 93
        0
 40
0.045
309
GRIDFORMAT_END
 95
        8
302
GRIDFORMAT
  1
GRIDFORMAT_BEGIN
 90
        0
 91
        1
 62
     0
 92
       -2
340
0
 93
        0
 40
0.045
309
GRIDFORMAT_END
 95
       16
302
GRIDFORMAT
  1
GRIDFORMAT_BEGIN
 90
        0
 91
        1
 62
     0
 92
       -2
340
0
 93
        0
 40
0.045
309
GRIDFORMAT_END
 95
       32
302
GRIDFORMAT
  1
GRIDFORMAT_BEGIN
 90
        0
 91
        1
 62
     0
 92
       -2
340
0
 93
        0
 40
0.045
309
GRIDFORMAT_END
309
TABLEFORMAT_END
  1
CELLSTYLE_BEGIN
 90
        3
 91
        2
300
_DATA
309
CELLSTYLE_END
  0
XRECORD
  5
A64
102
{ACAD_REACTORS
330
3F3
102
}
330
3F3
100
AcDbXrecord
280
     1
102
ACAD_ROUNDTRIP_PRE2007_TABLESTYLE
 90
      512
 91
        0
  1

 92
      512
 93
        0
  2

 94
      512
 95
        0
  3

  0
XRECORD
  5
A3F
102
{ACAD_REACTORS
330
A3E
102
}
330
A3E
100
AcDbXrecord
280
     1
102
RTVSPropertyOp0
 70
     1
102
RTVSPropertyOp1
 70
     1
102
RTVSPropertyOp2
 70
     1
102
RTVSPropertyOp3
 70
     1
102
RTVSPropertyOp4
 70
     1
102
RTVSPropertyOp5
 70
     1
102
RTVSPropertyOp6
 70
     1
102
RTVSPropertyOp7
 70
     1
102
RTVSPropertyOp8
 70
     1
102
RTVSPropertyOp9
 70
     1
102
RTVSPropertyOp10
 70
     1
102
RTVSPropertyOp11
 70
     1
102
RTVSPropertyOp12
 70
     1
102
RTVSPropertyOp13
 70
     1
102
RTVSPropertyOp14
 70
     1
102
RTVSPropertyOp15
 70
     1
102
RTVSPropertyOp16
 70
     1
102
RTVSPropertyOp17
 70
     1
102
RTVSPropertyOp18
 70
     1
102
RTVSPropertyOp19
 70
     1
102
RTVSPropertyOp20
 70
     1
102
RTVSPropertyOp21
 70
     1
102
RTVSPropertyOp22
 70
     1
102
RTVSPropertyOp23
 70
     1
102
RTVSPropertyOp24
 70
     1
102
RTVSPropertyOp25
 70
     1
102
RTVSPropertyOp26
 70
     1
102
RTVSPropertyOp27
 70
     1
102
RTVSPropertyOp28
 70
     1
102
RTVSPropertyOp29
 70
     1
102
RTVSPropertyOp30
 70
     1
102
RTVSPropertyOp31
 70
     1
102
RTVSPropertyOp32
 70
     1
  0
XRECORD
  5
A6A
102
{ACAD_REACTORS
330
A69
102
}
330
A69
100
AcDbXrecord
280
     1
102
RTVSPropertyOp0
 70
     1
102
RTVSPropertyOp1
 70
     1
102
RTVSPropertyOp2
 70
     1
102
RTVSPropertyOp3
 70
     1
102
RTVSPropertyOp4
 70
     1
102
RTVSPropertyOp5
 70
     1
102
RTVSPropertyOp6
 70
     1
102
RTVSPropertyOp7
 70
     1
102
RTVSPropertyOp8
 70
     1
102
RTVSPropertyOp9
 70
     1
102
RTVSPropertyOp10
 70
     1
102
RTVSPropertyOp11
 70
     1
102
RTVSPropertyOp12
 70
     1
102
RTVSPropertyOp13
 70
     1
102
RTVSPropertyOp14
 70
     1
102
RTVSPropertyOp15
 70
     1
102
RTVSPropertyOp16
 70
     1
102
RTVSPropertyOp17
 70
     1
102
RTVSPropertyOp18
 70
     1
102
RTVSPropertyOp19
 70
     1
102
RTVSPropertyOp20
 70
     1
102
RTVSPropertyOp21
 70
     1
102
RTVSPropertyOp22
 70
     1
102
RTVSPropertyOp23
 70
     1
102
RTVSPropertyOp24
 70
     1
102
RTVSPropertyOp25
 70
     1
102
RTVSPropertyOp26
 70
     1
102
RTVSPropertyOp27
 70
     1
102
RTVSPropertyOp28
 70
     1
102
RTVSPropertyOp29
 70
     1
102
RTVSPropertyOp30
 70
     1
102
RTVSPropertyOp31
 70
     1
102
RTVSPropertyOp32
 70
     1
  0
XRECORD
  5
A3D
102
{ACAD_REACTORS
330
A3C
102
}
330
A3C
100
AcDbXrecord
280
     1
102
RTVSPropertyOp0
 70
     1
102
RTVSPropertyOp1
 70
     1
102
RTVSPropertyOp2
 70
     1
102
RTVSPropertyOp3
 70
     1
102
RTVSPropertyOp4
 70
     1
102
RTVSPropertyOp5
 70
     1
102
RTVSPropertyOp6
 70
     1
102
RTVSPropertyOp7
 70
     1
102
RTVSPropertyOp8
 70
     1
102
RTVSPropertyOp9
 70
     1
102
RTVSPropertyOp10
 70
     1
102
RTVSPropertyOp11
 70
     1
102
RTVSPropertyOp12
 70
     1
102
RTVSPropertyOp13
 70
     1
102
RTVSPropertyOp14
 70
     1
102
RTVSPropertyOp15
 70
     1
102
RTVSPropertyOp16
 70
     1
102
RTVSPropertyOp17
 70
     1
102
RTVSPropertyOp18
 70
     1
102
RTVSPropertyOp19
 70
     1
102
RTVSPropertyOp20
 70
     1
102
RTVSPropertyOp21
 70
     1
102
RTVSPropertyOp22
 70
     1
102
RTVSPropertyOp23
 70
     1
102
RTVSPropertyOp24
 70
     1
102
RTVSPropertyOp25
 70
     1
102
RTVSPropertyOp26
 70
     1
102
RTVSPropertyOp27
 70
     1
102
RTVSPropertyOp28
 70
     1
102
RTVSPropertyOp29
 70
     1
102
RTVSPropertyOp30
 70
     1
102
RTVSPropertyOp31
 70
     1
102
RTVSPropertyOp32
 70
     1
  0
XRECORD
  5
A4B
102
{ACAD_REACTORS
330
A4A
102
}
330
A4A
100
AcDbXrecord
280
     1
102
RTVSPropertyOp0
 70
     1
102
RTVSPropertyOp1
 70
     1
102
RTVSPropertyOp2
 70
     1
102
RTVSPropertyOp3
 70
     1
102
RTVSPropertyOp4
 70
     1
102
RTVSPropertyOp5
 70
     1
102
RTVSPropertyOp6
 70
     1
102
RTVSPropertyOp7
 70
     1
102
RTVSPropertyOp8
 70
     1
102
RTVSPropertyOp9
 70
     1
102
RTVSPropertyOp10
 70
     1
102
RTVSPropertyOp11
 70
     1
102
RTVSPropertyOp12
 70
     1
102
RTVSPropertyOp13
 70
     1
102
RTVSPropertyOp14
 70
     1
102
RTVSPropertyOp15
 70
     1
102
RTVSPropertyOp16
 70
     1
102
RTVSPropertyOp17
 70
     1
102
RTVSPropertyOp18
 70
     1
102
RTVSPropertyOp19
 70
     1
102
RTVSPropertyOp20
 70
     1
102
RTVSPropertyOp21
 70
     1
102
RTVSPropertyOp22
 70
     1
102
RTVSPropertyOp23
 70
     1
102
RTVSPropertyOp24
 70
     1
102
RTVSPropertyOp25
 70
     1
102
RTVSPropertyOp26
 70
     1
102
RTVSPropertyOp27
 70
     1
102
RTVSPropertyOp28
 70
     1
102
RTVSPropertyOp29
 70
     1
102
RTVSPropertyOp30
 70
     1
102
RTVSPropertyOp31
 70
     1
102
RTVSPropertyOp32
 70
     1
  0
XRECORD
  5
A53
102
{ACAD_REACTORS
330
A52
102
}
330
A52
100
AcDbXrecord
280
     1
102
RTVSPropertyOp0
 70
     1
102
RTVSPropertyOp1
 70
     1
102
RTVSPropertyOp2
 70
     1
102
RTVSPropertyOp3
 70
     1
102
RTVSPropertyOp4
 70
     1
102
RTVSPropertyOp5
 70
     1
102
RTVSPropertyOp6
 70
     1
102
RTVSPropertyOp7
 70
     1
102
RTVSPropertyOp8
 70
     1
102
RTVSPropertyOp9
 70
     1
102
RTVSPropertyOp10
 70
     1
102
RTVSPropertyOp11
 70
     1
102
RTVSPropertyOp12
 70
     1
102
RTVSPropertyOp13
 70
     1
102
RTVSPropertyOp14
 70
     1
102
RTVSPropertyOp15
 70
     1
102
RTVSPropertyOp16
 70
     1
102
RTVSPropertyOp17
 70
     1
102
RTVSPropertyOp18
 70
     1
102
RTVSPropertyOp19
 70
     1
102
RTVSPropertyOp20
 70
     1
102
RTVSPropertyOp21
 70
     1
102
RTVSPropertyOp22
 70
     1
102
RTVSPropertyOp23
 70
     1
102
RTVSPropertyOp24
 70
     1
102
RTVSPropertyOp25
 70
     1
102
RTVSPropertyOp26
 70
     1
102
RTVSPropertyOp27
 70
     1
102
RTVSPropertyOp28
 70
     1
102
RTVSPropertyOp29
 70
     1
102
RTVSPropertyOp30
 70
     1
102
RTVSPropertyOp31
 70
     1
102
RTVSPropertyOp32
 70
     1
  0
XRECORD
  5
A45
102
{ACAD_REACTORS
330
A44
102
}
330
A44
100
AcDbXrecord
280
     1
102
RTVSPropertyOp0
 70
     1
102
RTVSPropertyOp1
 70
     1
102
RTVSPropertyOp2
 70
     1
102
RTVSPropertyOp3
 70
     1
102
RTVSPropertyOp4
 70
     1
102
RTVSPropertyOp5
 70
     1
102
RTVSPropertyOp6
 70
     1
102
RTVSPropertyOp7
 70
     1
102
RTVSPropertyOp8
 70
     1
102
RTVSPropertyOp9
 70
     1
102
RTVSPropertyOp10
 70
     1
102
RTVSPropertyOp11
 70
     1
102
RTVSPropertyOp12
 70
     1
102
RTVSPropertyOp13
 70
     1
102
RTVSPropertyOp14
 70
     1
102
RTVSPropertyOp15
 70
     1
102
RTVSPropertyOp16
 70
     1
102
RTVSPropertyOp17
 70
     1
102
RTVSPropertyOp18
 70
     1
102
RTVSPropertyOp19
 70
     1
102
RTVSPropertyOp20
 70
     1
102
RTVSPropertyOp21
 70
     1
102
RTVSPropertyOp22
 70
     1
102
RTVSPropertyOp23
 70
     1
102
RTVSPropertyOp24
 70
     1
102
RTVSPropertyOp25
 70
     1
102
RTVSPropertyOp26
 70
     1
102
RTVSPropertyOp27
 70
     1
102
RTVSPropertyOp28
 70
     1
102
RTVSPropertyOp29
 70
     1
102
RTVSPropertyOp30
 70
     1
102
RTVSPropertyOp31
 70
     1
102
RTVSPropertyOp32
 70
     1
  0
XRECORD
  5
A49
102
{ACAD_REACTORS
330
A48
102
}
330
A48
100
AcDbXrecord
280
     1
102
RTVSPropertyOp0
 70
     1
102
RTVSPropertyOp1
 70
     1
102
RTVSPropertyOp2
 70
     1
102
RTVSPropertyOp3
 70
     1
102
RTVSPropertyOp4
 70
     1
102
RTVSPropertyOp5
 70
     1
102
RTVSPropertyOp6
 70
     1
102
RTVSPropertyOp7
 70
     1
102
RTVSPropertyOp8
 70
     1
102
RTVSPropertyOp9
 70
     1
102
RTVSPropertyOp10
 70
     1
102
RTVSPropertyOp11
 70
     1
102
RTVSPropertyOp12
 70
     1
102
RTVSPropertyOp13
 70
     1
102
RTVSPropertyOp14
 70
     1
102
RTVSPropertyOp15
 70
     1
102
RTVSPropertyOp16
 70
     1
102
RTVSPropertyOp17
 70
     1
102
RTVSPropertyOp18
 70
     1
102
RTVSPropertyOp19
 70
     1
102
RTVSPropertyOp20
 70
     1
102
RTVSPropertyOp21
 70
     1
102
RTVSPropertyOp22
 70
     1
102
RTVSPropertyOp23
 70
     1
102
RTVSPropertyOp24
 70
     1
102
RTVSPropertyOp25
 70
     1
102
RTVSPropertyOp26
 70
     1
102
RTVSPropertyOp27
 70
     1
102
RTVSPropertyOp28
 70
     1
102
RTVSPropertyOp29
 70
     1
102
RTVSPropertyOp30
 70
     1
102
RTVSPropertyOp31
 70
     1
102
RTVSPropertyOp32
 70
     1
  0
XRECORD
  5
A63
102
{ACAD_REACTORS
330
A62
102
}
330
A62
100
AcDbXrecord
280
     1
102
RTVSPropertyOp0
 70
     0
102
RTVSPropertyOp1
 70
     0
102
RTVSPropertyOp2
 70
     0
102
RTVSPropertyOp3
 70
     0
102
RTVSPropertyOp4
 70
     0
102
RTVSPropertyOp5
 70
     0
102
RTVSPropertyOp6
 70
     0
102
RTVSPropertyOp7
 70
     0
102
RTVSPropertyOp8
 70
     0
102
RTVSPropertyOp9
 70
     0
102
RTVSPropertyOp10
 70
     0
102
RTVSPropertyOp11
 70
     0
102
RTVSPropertyOp12
 70
     0
102
RTVSPropertyOp13
 70
     0
102
RTVSPropertyOp14
 70
     2
102
RTVSPropertyOp15
 70
     0
102
RTVSPropertyOp16
 70
     0
102
RTVSPropertyOp17
 70
     0
102
RTVSPropertyOp18
 70
     0
102
RTVSPropertyOp19
 70
     0
102
RTVSPropertyOp20
 70
     0
102
RTVSPropertyOp21
 70
     0
102
RTVSPropertyOp22
 70
     0
102
RTVSPropertyOp23
 70
     0
102
RTVSPropertyOp24
 70
     0
102
RTVSPropertyOp25
 70
     0
102
RTVSPropertyOp26
 70
     0
102
RTVSPropertyOp27
 70
     0
102
RTVSPropertyOp28
 70
     0
102
RTVSPropertyOp29
 70
     0
102
RTVSPropertyOp30
 70
     0
102
RTVSPropertyOp31
 70
     0
102
RTVSPropertyOp32
 70
     0
  0
XRECORD
  5
A51
102
{ACAD_REACTORS
330
A50
102
}
330
A50
100
AcDbXrecord
280
     1
102
RTVSPropertyOp0
 70
     1
102
RTVSPropertyOp1
 70
     1
102
RTVSPropertyOp2
 70
     1
102
RTVSPropertyOp3
 70
     1
102
RTVSPropertyOp4
 70
     1
102
RTVSPropertyOp5
 70
     1
102
RTVSPropertyOp6
 70
     1
102
RTVSPropertyOp7
 70
     1
102
RTVSPropertyOp8
 70
     1
102
RTVSPropertyOp9
 70
     1
102
RTVSPropertyOp10
 70
     1
102
RTVSPropertyOp11
 70
     1
102
RTVSPropertyOp12
 70
     1
102
RTVSPropertyOp13
 70
     1
102
RTVSPropertyOp14
 70
     1
102
RTVSPropertyOp15
 70
     1
102
RTVSPropertyOp16
 70
     1
102
RTVSPropertyOp17
 70
     1
102
RTVSPropertyOp18
 70
     1
102
RTVSPropertyOp19
 70
     1
102
RTVSPropertyOp20
 70
     1
102
RTVSPropertyOp21
 70
     1
102
RTVSPropertyOp22
 70
     1
102
RTVSPropertyOp23
 70
     1
102
RTVSPropertyOp24
 70
     1
102
RTVSPropertyOp25
 70
     1
102
RTVSPropertyOp26
 70
     1
102
RTVSPropertyOp27
 70
     1
102
RTVSPropertyOp28
 70
     1
102
RTVSPropertyOp29
 70
     1
102
RTVSPropertyOp30
 70
     1
102
RTVSPropertyOp31
 70
     1
102
RTVSPropertyOp32
 70
     1
  0
XRECORD
  5
A35
102
{ACAD_REACTORS
330
A34
102
}
330
A34
100
AcDbXrecord
280
     1
102
RTVSPropertyOp0
 70
     1
102
RTVSPropertyOp1
 70
     1
102
RTVSPropertyOp2
 70
     1
102
RTVSPropertyOp3
 70
     1
102
RTVSPropertyOp4
 70
     1
102
RTVSPropertyOp5
 70
     1
102
RTVSPropertyOp6
 70
     1
102
RTVSPropertyOp7
 70
     1
102
RTVSPropertyOp8
 70
     1
102
RTVSPropertyOp9
 70
     1
102
RTVSPropertyOp10
 70
     1
102
RTVSPropertyOp11
 70
     1
102
RTVSPropertyOp12
 70
     1
102
RTVSPropertyOp13
 70
     1
102
RTVSPropertyOp14
 70
     1
102
RTVSPropertyOp15
 70
     1
102
RTVSPropertyOp16
 70
     1
102
RTVSPropertyOp17
 70
     1
102
RTVSPropertyOp18
 70
     1
102
RTVSPropertyOp19
 70
     1
102
RTVSPropertyOp20
 70
     1
102
RTVSPropertyOp21
 70
     1
102
RTVSPropertyOp22
 70
     1
102
RTVSPropertyOp23
 70
     1
102
RTVSPropertyOp24
 70
     1
102
RTVSPropertyOp25
 70
     1
102
RTVSPropertyOp26
 70
     1
102
RTVSPropertyOp27
 70
     1
102
RTVSPropertyOp28
 70
     1
102
RTVSPropertyOp29
 70
     1
102
RTVSPropertyOp30
 70
     1
102
RTVSPropertyOp31
 70
     1
102
RTVSPropertyOp32
 70
     1
  0
XRECORD
  5
A37
102
{ACAD_REACTORS
330
A36
102
}
330
A36
100
AcDbXrecord
280
     1
102
RTVSPropertyOp0
 70
     1
102
RTVSPropertyOp1
 70
     1
102
RTVSPropertyOp2
 70
     1
102
RTVSPropertyOp3
 70
     1
102
RTVSPropertyOp4
 70
     1
102
RTVSPropertyOp5
 70
     1
102
RTVSPropertyOp6
 70
     1
102
RTVSPropertyOp7
 70
     1
102
RTVSPropertyOp8
 70
     1
102
RTVSPropertyOp9
 70
     1
102
RTVSPropertyOp10
 70
     1
102
RTVSPropertyOp11
 70
     1
102
RTVSPropertyOp12
 70
     1
102
RTVSPropertyOp13
 70
     1
102
RTVSPropertyOp14
 70
     1
102
RTVSPropertyOp15
 70
     1
102
RTVSPropertyOp16
 70
     1
102
RTVSPropertyOp17
 70
     1
102
RTVSPropertyOp18
 70
     1
102
RTVSPropertyOp19
 70
     1
102
RTVSPropertyOp20
 70
     1
102
RTVSPropertyOp21
 70
     1
102
RTVSPropertyOp22
 70
     1
102
RTVSPropertyOp23
 70
     1
102
RTVSPropertyOp24
 70
     1
102
RTVSPropertyOp25
 70
     1
102
RTVSPropertyOp26
 70
     1
102
RTVSPropertyOp27
 70
     1
102
RTVSPropertyOp28
 70
     1
102
RTVSPropertyOp29
 70
     1
102
RTVSPropertyOp30
 70
     1
102
RTVSPropertyOp31
 70
     1
102
RTVSPropertyOp32
 70
     1
  0
XRECORD
  5
A39
102
{ACAD_REACTORS
330
A38
102
}
330
A38
100
AcDbXrecord
280
     1
102
RTVSPropertyOp0
 70
     1
102
RTVSPropertyOp1
 70
     1
102
RTVSPropertyOp2
 70
     1
102
RTVSPropertyOp3
 70
     1
102
RTVSPropertyOp4
 70
     1
102
RTVSPropertyOp5
 70
     1
102
RTVSPropertyOp6
 70
     1
102
RTVSPropertyOp7
 70
     1
102
RTVSPropertyOp8
 70
     1
102
RTVSPropertyOp9
 70
     1
102
RTVSPropertyOp10
 70
     1
102
RTVSPropertyOp11
 70
     1
102
RTVSPropertyOp12
 70
     1
102
RTVSPropertyOp13
 70
     1
102
RTVSPropertyOp14
 70
     1
102
RTVSPropertyOp15
 70
     1
102
RTVSPropertyOp16
 70
     1
102
RTVSPropertyOp17
 70
     1
102
RTVSPropertyOp18
 70
     1
102
RTVSPropertyOp19
 70
     1
102
RTVSPropertyOp20
 70
     1
102
RTVSPropertyOp21
 70
     1
102
RTVSPropertyOp22
 70
     1
102
RTVSPropertyOp23
 70
     1
102
RTVSPropertyOp24
 70
     1
102
RTVSPropertyOp25
 70
     1
102
RTVSPropertyOp26
 70
     1
102
RTVSPropertyOp27
 70
     1
102
RTVSPropertyOp28
 70
     1
102
RTVSPropertyOp29
 70
     1
102
RTVSPropertyOp30
 70
     1
102
RTVSPropertyOp31
 70
     1
102
RTVSPropertyOp32
 70
     1
  0
XRECORD
  5
A3B
102
{ACAD_REACTORS
330
A3A
102
}
330
A3A
100
AcDbXrecord
280
     1
102
RTVSPropertyOp0
 70
     1
102
RTVSPropertyOp1
 70
     1
102
RTVSPropertyOp2
 70
     1
102
RTVSPropertyOp3
 70
     1
102
RTVSPropertyOp4
 70
     1
102
RTVSPropertyOp5
 70
     1
102
RTVSPropertyOp6
 70
     1
102
RTVSPropertyOp7
 70
     1
102
RTVSPropertyOp8
 70
     1
102
RTVSPropertyOp9
 70
     1
102
RTVSPropertyOp10
 70
     1
102
RTVSPropertyOp11
 70
     1
102
RTVSPropertyOp12
 70
     1
102
RTVSPropertyOp13
 70
     1
102
RTVSPropertyOp14
 70
     1
102
RTVSPropertyOp15
 70
     1
102
RTVSPropertyOp16
 70
     1
102
RTVSPropertyOp17
 70
     1
102
RTVSPropertyOp18
 70
     1
102
RTVSPropertyOp19
 70
     1
102
RTVSPropertyOp20
 70
     1
102
RTVSPropertyOp21
 70
     1
102
RTVSPropertyOp22
 70
     1
102
RTVSPropertyOp23
 70
     1
102
RTVSPropertyOp24
 70
     1
102
RTVSPropertyOp25
 70
     1
102
RTVSPropertyOp26
 70
     1
102
RTVSPropertyOp27
 70
     1
102
RTVSPropertyOp28
 70
     1
102
RTVSPropertyOp29
 70
     1
102
RTVSPropertyOp30
 70
     1
102
RTVSPropertyOp31
 70
     1
102
RTVSPropertyOp32
 70
     1
  0
XRECORD
  5
A43
102
{ACAD_REACTORS
330
A42
102
}
330
A42
100
AcDbXrecord
280
     1
102
RTVSPropertyOp0
 70
     1
102
RTVSPropertyOp1
 70
     1
102
RTVSPropertyOp2
 70
     1
102
RTVSPropertyOp3
 70
     1
102
RTVSPropertyOp4
 70
     1
102
RTVSPropertyOp5
 70
     1
102
RTVSPropertyOp6
 70
     1
102
RTVSPropertyOp7
 70
     1
102
RTVSPropertyOp8
 70
     1
102
RTVSPropertyOp9
 70
     1
102
RTVSPropertyOp10
 70
     1
102
RTVSPropertyOp11
 70
     1
102
RTVSPropertyOp12
 70
     1
102
RTVSPropertyOp13
 70
     1
102
RTVSPropertyOp14
 70
     1
102
RTVSPropertyOp15
 70
     1
102
RTVSPropertyOp16
 70
     1
102
RTVSPropertyOp17
 70
     1
102
RTVSPropertyOp18
 70
     1
102
RTVSPropertyOp19
 70
     1
102
RTVSPropertyOp20
 70
     1
102
RTVSPropertyOp21
 70
     1
102
RTVSPropertyOp22
 70
     1
102
RTVSPropertyOp23
 70
     1
102
RTVSPropertyOp24
 70
     1
102
RTVSPropertyOp25
 70
     1
102
RTVSPropertyOp26
 70
     1
102
RTVSPropertyOp27
 70
     1
102
RTVSPropertyOp28
 70
     1
102
RTVSPropertyOp29
 70
     1
102
RTVSPropertyOp30
 70
     1
102
RTVSPropertyOp31
 70
     1
102
RTVSPropertyOp32
 70
     1
  0
XRECORD
  5
A5F
102
{ACAD_REACTORS
330
A5E
102
}
330
A5E
100
AcDbXrecord
280
     1
102
RTVSPropertyOp0
 70
     0
102
RTVSPropertyOp1
 70
     0
102
RTVSPropertyOp2
 70
     0
102
RTVSPropertyOp3
 70
     0
102
RTVSPropertyOp4
 70
     0
102
RTVSPropertyOp5
 70
     0
102
RTVSPropertyOp6
 70
     0
102
RTVSPropertyOp7
 70
     0
102
RTVSPropertyOp8
 70
     0
102
RTVSPropertyOp9
 70
     0
102
RTVSPropertyOp10
 70
     0
102
RTVSPropertyOp11
 70
     0
102
RTVSPropertyOp12
 70
     0
102
RTVSPropertyOp13
 70
     0
102
RTVSPropertyOp14
 70
     2
102
RTVSPropertyOp15
 70
     0
102
RTVSPropertyOp16
 70
     0
102
RTVSPropertyOp17
 70
     0
102
RTVSPropertyOp18
 70
     0
102
RTVSPropertyOp19
 70
     0
102
RTVSPropertyOp20
 70
     0
102
RTVSPropertyOp21
 70
     0
102
RTVSPropertyOp22
 70
     0
102
RTVSPropertyOp23
 70
     0
102
RTVSPropertyOp24
 70
     0
102
RTVSPropertyOp25
 70
     0
102
RTVSPropertyOp26
 70
     0
102
RTVSPropertyOp27
 70
     0
102
RTVSPropertyOp28
 70
     0
102
RTVSPropertyOp29
 70
     0
102
RTVSPropertyOp30
 70
     0
102
RTVSPropertyOp31
 70
     0
102
RTVSPropertyOp32
 70
     0
  0
XRECORD
  5
A4F
102
{ACAD_REACTORS
330
A4E
102
}
330
A4E
100
AcDbXrecord
280
     1
102
RTVSPropertyOp0
 70
     1
102
RTVSPropertyOp1
 70
     1
102
RTVSPropertyOp2
 70
     1
102
RTVSPropertyOp3
 70
     1
102
RTVSPropertyOp4
 70
     1
102
RTVSPropertyOp5
 70
     1
102
RTVSPropertyOp6
 70
     1
102
RTVSPropertyOp7
 70
     1
102
RTVSPropertyOp8
 70
     1
102
RTVSPropertyOp9
 70
     1
102
RTVSPropertyOp10
 70
     1
102
RTVSPropertyOp11
 70
     1
102
RTVSPropertyOp12
 70
     1
102
RTVSPropertyOp13
 70
     1
102
RTVSPropertyOp14
 70
     1
102
RTVSPropertyOp15
 70
     1
102
RTVSPropertyOp16
 70
     1
102
RTVSPropertyOp17
 70
     1
102
RTVSPropertyOp18
 70
     1
102
RTVSPropertyOp19
 70
     1
102
RTVSPropertyOp20
 70
     1
102
RTVSPropertyOp21
 70
     1
102
RTVSPropertyOp22
 70
     1
102
RTVSPropertyOp23
 70
     1
102
RTVSPropertyOp24
 70
     1
102
RTVSPropertyOp25
 70
     1
102
RTVSPropertyOp26
 70
     1
102
RTVSPropertyOp27
 70
     1
102
RTVSPropertyOp28
 70
     1
102
RTVSPropertyOp29
 70
     1
102
RTVSPropertyOp30
 70
     1
102
RTVSPropertyOp31
 70
     1
102
RTVSPropertyOp32
 70
     1
  0
XRECORD
  5
A61
102
{ACAD_REACTORS
330
A60
102
}
330
A60
100
AcDbXrecord
280
     1
102
RTVSPropertyOp0
 70
     0
102
RTVSPropertyOp1
 70
     0
102
RTVSPropertyOp2
 70
     0
102
RTVSPropertyOp3
 70
     0
102
RTVSPropertyOp4
 70
     0
102
RTVSPropertyOp5
 70
     0
102
RTVSPropertyOp6
 70
     0
102
RTVSPropertyOp7
 70
     0
102
RTVSPropertyOp8
 70
     0
102
RTVSPropertyOp9
 70
     0
102
RTVSPropertyOp10
 70
     0
102
RTVSPropertyOp11
 70
     0
102
RTVSPropertyOp12
 70
     0
102
RTVSPropertyOp13
 70
     0
102
RTVSPropertyOp14
 70
     2
102
RTVSPropertyOp15
 70
     0
102
RTVSPropertyOp16
 70
     0
102
RTVSPropertyOp17
 70
     0
102
RTVSPropertyOp18
 70
     0
102
RTVSPropertyOp19
 70
     0
102
RTVSPropertyOp20
 70
     0
102
RTVSPropertyOp21
 70
     0
102
RTVSPropertyOp22
 70
     0
102
RTVSPropertyOp23
 70
     0
102
RTVSPropertyOp24
 70
     0
102
RTVSPropertyOp25
 70
     0
102
RTVSPropertyOp26
 70
     0
102
RTVSPropertyOp27
 70
     0
102
RTVSPropertyOp28
 70
     0
102
RTVSPropertyOp29
 70
     0
102
RTVSPropertyOp30
 70
     0
102
RTVSPropertyOp31
 70
     0
102
RTVSPropertyOp32
 70
     0
  0
XRECORD
  5
A47
102
{ACAD_REACTORS
330
A46
102
}
330
A46
100
AcDbXrecord
280
     1
102
RTVSPropertyOp0
 70
     1
102
RTVSPropertyOp1
 70
     1
102
RTVSPropertyOp2
 70
     1
102
RTVSPropertyOp3
 70
     1
102
RTVSPropertyOp4
 70
     1
102
RTVSPropertyOp5
 70
     1
102
RTVSPropertyOp6
 70
     1
102
RTVSPropertyOp7
 70
     1
102
RTVSPropertyOp8
 70
     1
102
RTVSPropertyOp9
 70
     1
102
RTVSPropertyOp10
 70
     1
102
RTVSPropertyOp11
 70
     1
102
RTVSPropertyOp12
 70
     1
102
RTVSPropertyOp13
 70
     1
102
RTVSPropertyOp14
 70
     1
102
RTVSPropertyOp15
 70
     1
102
RTVSPropertyOp16
 70
     1
102
RTVSPropertyOp17
 70
     1
102
RTVSPropertyOp18
 70
     1
102
RTVSPropertyOp19
 70
     1
102
RTVSPropertyOp20
 70
     1
102
RTVSPropertyOp21
 70
     1
102
RTVSPropertyOp22
 70
     1
102
RTVSPropertyOp23
 70
     1
102
RTVSPropertyOp24
 70
     1
102
RTVSPropertyOp25
 70
     1
102
RTVSPropertyOp26
 70
     1
102
RTVSPropertyOp27
 70
     1
102
RTVSPropertyOp28
 70
     1
102
RTVSPropertyOp29
 70
     1
102
RTVSPropertyOp30
 70
     1
102
RTVSPropertyOp31
 70
     1
102
RTVSPropertyOp32
 70
     1
  0
XRECORD
  5
A5D
102
{ACAD_REACTORS
330
A5C
102
}
330
A5C
100
AcDbXrecord
280
     1
102
RTVSPropertyOp0
 70
     1
102
RTVSPropertyOp1
 70
     1
102
RTVSPropertyOp2
 70
     1
102
RTVSPropertyOp3
 70
     1
102
RTVSPropertyOp4
 70
     1
102
RTVSPropertyOp5
 70
     1
102
RTVSPropertyOp6
 70
     1
102
RTVSPropertyOp7
 70
     1
102
RTVSPropertyOp8
 70
     1
102
RTVSPropertyOp9
 70
     1
102
RTVSPropertyOp10
 70
     1
102
RTVSPropertyOp11
 70
     1
102
RTVSPropertyOp12
 70
     1
102
RTVSPropertyOp13
 70
     1
102
RTVSPropertyOp14
 70
     1
102
RTVSPropertyOp15
 70
     1
102
RTVSPropertyOp16
 70
     1
102
RTVSPropertyOp17
 70
     1
102
RTVSPropertyOp18
 70
     1
102
RTVSPropertyOp19
 70
     1
102
RTVSPropertyOp20
 70
     1
102
RTVSPropertyOp21
 70
     1
102
RTVSPropertyOp22
 70
     1
102
RTVSPropertyOp23
 70
     1
102
RTVSPropertyOp24
 70
     1
102
RTVSPropertyOp25
 70
     1
102
RTVSPropertyOp26
 70
     1
102
RTVSPropertyOp27
 70
     1
102
RTVSPropertyOp28
 70
     1
102
RTVSPropertyOp29
 70
     1
102
RTVSPropertyOp30
 70
     1
102
RTVSPropertyOp31
 70
     1
102
RTVSPropertyOp32
 70
     1
  0
XRECORD
  5
A5B
102
{ACAD_REACTORS
330
A5A
102
}
330
A5A
100
AcDbXrecord
280
     1
102
RTVSPropertyOp0
 70
     1
102
RTVSPropertyOp1
 70
     1
102
RTVSPropertyOp2
 70
     1
102
RTVSPropertyOp3
 70
     1
102
RTVSPropertyOp4
 70
     1
102
RTVSPropertyOp5
 70
     1
102
RTVSPropertyOp6
 70
     1
102
RTVSPropertyOp7
 70
     1
102
RTVSPropertyOp8
 70
     1
102
RTVSPropertyOp9
 70
     1
102
RTVSPropertyOp10
 70
     1
102
RTVSPropertyOp11
 70
     1
102
RTVSPropertyOp12
 70
     1
102
RTVSPropertyOp13
 70
     1
102
RTVSPropertyOp14
 70
     1
102
RTVSPropertyOp15
 70
     1
102
RTVSPropertyOp16
 70
     1
102
RTVSPropertyOp17
 70
     1
102
RTVSPropertyOp18
 70
     1
102
RTVSPropertyOp19
 70
     1
102
RTVSPropertyOp20
 70
     1
102
RTVSPropertyOp21
 70
     1
102
RTVSPropertyOp22
 70
     1
102
RTVSPropertyOp23
 70
     1
102
RTVSPropertyOp24
 70
     1
102
RTVSPropertyOp25
 70
     1
102
RTVSPropertyOp26
 70
     1
102
RTVSPropertyOp27
 70
     1
102
RTVSPropertyOp28
 70
     1
102
RTVSPropertyOp29
 70
     1
102
RTVSPropertyOp30
 70
     1
102
RTVSPropertyOp31
 70
     1
102
RTVSPropertyOp32
 70
     1
  0
XRECORD
  5
A55
102
{ACAD_REACTORS
330
A54
102
}
330
A54
100
AcDbXrecord
280
     1
102
RTVSPropertyOp0
 70
     1
102
RTVSPropertyOp1
 70
     1
102
RTVSPropertyOp2
 70
     1
102
RTVSPropertyOp3
 70
     1
102
RTVSPropertyOp4
 70
     1
102
RTVSPropertyOp5
 70
     1
102
RTVSPropertyOp6
 70
     1
102
RTVSPropertyOp7
 70
     1
102
RTVSPropertyOp8
 70
     1
102
RTVSPropertyOp9
 70
     1
102
RTVSPropertyOp10
 70
     1
102
RTVSPropertyOp11
 70
     1
102
RTVSPropertyOp12
 70
     1
102
RTVSPropertyOp13
 70
     1
102
RTVSPropertyOp14
 70
     1
102
RTVSPropertyOp15
 70
     1
102
RTVSPropertyOp16
 70
     1
102
RTVSPropertyOp17
 70
     1
102
RTVSPropertyOp18
 70
     1
102
RTVSPropertyOp19
 70
     1
102
RTVSPropertyOp20
 70
     1
102
RTVSPropertyOp21
 70
     1
102
RTVSPropertyOp22
 70
     1
102
RTVSPropertyOp23
 70
     1
102
RTVSPropertyOp24
 70
     1
102
RTVSPropertyOp25
 70
     1
102
RTVSPropertyOp26
 70
     1
102
RTVSPropertyOp27
 70
     1
102
RTVSPropertyOp28
 70
     1
102
RTVSPropertyOp29
 70
     1
102
RTVSPropertyOp30
 70
     1
102
RTVSPropertyOp31
 70
     1
102
RTVSPropertyOp32
 70
     1
  0
XRECORD
  5
A57
102
{ACAD_REACTORS
330
A56
102
}
330
A56
100
AcDbXrecord
280
     1
102
RTVSPropertyOp0
 70
     1
102
RTVSPropertyOp1
 70
     1
102
RTVSPropertyOp2
 70
     1
102
RTVSPropertyOp3
 70
     1
102
RTVSPropertyOp4
 70
     1
102
RTVSPropertyOp5
 70
     1
102
RTVSPropertyOp6
 70
     1
102
RTVSPropertyOp7
 70
     1
102
RTVSPropertyOp8
 70
     1
102
RTVSPropertyOp9
 70
     1
102
RTVSPropertyOp10
 70
     1
102
RTVSPropertyOp11
 70
     1
102
RTVSPropertyOp12
 70
     1
102
RTVSPropertyOp13
 70
     1
102
RTVSPropertyOp14
 70
     1
102
RTVSPropertyOp15
 70
     1
102
RTVSPropertyOp16
 70
     1
102
RTVSPropertyOp17
 70
     1
102
RTVSPropertyOp18
 70
     1
102
RTVSPropertyOp19
 70
     1
102
RTVSPropertyOp20
 70
     1
102
RTVSPropertyOp21
 70
     1
102
RTVSPropertyOp22
 70
     1
102
RTVSPropertyOp23
 70
     1
102
RTVSPropertyOp24
 70
     1
102
RTVSPropertyOp25
 70
     1
102
RTVSPropertyOp26
 70
     1
102
RTVSPropertyOp27
 70
     1
102
RTVSPropertyOp28
 70
     1
102
RTVSPropertyOp29
 70
     1
102
RTVSPropertyOp30
 70
     1
102
RTVSPropertyOp31
 70
     1
102
RTVSPropertyOp32
 70
     1
  0
XRECORD
  5
A4D
102
{ACAD_REACTORS
330
A4C
102
}
330
A4C
100
AcDbXrecord
280
     1
102
RTVSPropertyOp0
 70
     1
102
RTVSPropertyOp1
 70
     1
102
RTVSPropertyOp2
 70
     1
102
RTVSPropertyOp3
 70
     1
102
RTVSPropertyOp4
 70
     1
102
RTVSPropertyOp5
 70
     1
102
RTVSPropertyOp6
 70
     1
102
RTVSPropertyOp7
 70
     1
102
RTVSPropertyOp8
 70
     1
102
RTVSPropertyOp9
 70
     1
102
RTVSPropertyOp10
 70
     1
102
RTVSPropertyOp11
 70
     1
102
RTVSPropertyOp12
 70
     1
102
RTVSPropertyOp13
 70
     1
102
RTVSPropertyOp14
 70
     1
102
RTVSPropertyOp15
 70
     1
102
RTVSPropertyOp16
 70
     1
102
RTVSPropertyOp17
 70
     1
102
RTVSPropertyOp18
 70
     1
102
RTVSPropertyOp19
 70
     1
102
RTVSPropertyOp20
 70
     1
102
RTVSPropertyOp21
 70
     1
102
RTVSPropertyOp22
 70
     1
102
RTVSPropertyOp23
 70
     1
102
RTVSPropertyOp24
 70
     1
102
RTVSPropertyOp25
 70
     1
102
RTVSPropertyOp26
 70
     1
102
RTVSPropertyOp27
 70
     1
102
RTVSPropertyOp28
 70
     1
102
RTVSPropertyOp29
 70
     1
102
RTVSPropertyOp30
 70
     1
102
RTVSPropertyOp31
 70
     1
102
RTVSPropertyOp32
 70
     1
  0
XRECORD
  5
A41
102
{ACAD_REACTORS
330
A40
102
}
330
A40
100
AcDbXrecord
280
     1
102
RTVSPropertyOp0
 70
     1
102
RTVSPropertyOp1
 70
     1
102
RTVSPropertyOp2
 70
     1
102
RTVSPropertyOp3
 70
     1
102
RTVSPropertyOp4
 70
     1
102
RTVSPropertyOp5
 70
     1
102
RTVSPropertyOp6
 70
     1
102
RTVSPropertyOp7
 70
     1
102
RTVSPropertyOp8
 70
     1
102
RTVSPropertyOp9
 70
     1
102
RTVSPropertyOp10
 70
     1
102
RTVSPropertyOp11
 70
     1
102
RTVSPropertyOp12
 70
     1
102
RTVSPropertyOp13
 70
     1
102
RTVSPropertyOp14
 70
     1
102
RTVSPropertyOp15
 70
     1
102
RTVSPropertyOp16
 70
     1
102
RTVSPropertyOp17
 70
     1
102
RTVSPropertyOp18
 70
     1
102
RTVSPropertyOp19
 70
     1
102
RTVSPropertyOp20
 70
     1
102
RTVSPropertyOp21
 70
     1
102
RTVSPropertyOp22
 70
     1
102
RTVSPropertyOp23
 70
     1
102
RTVSPropertyOp24
 70
     1
102
RTVSPropertyOp25
 70
     1
102
RTVSPropertyOp26
 70
     1
102
RTVSPropertyOp27
 70
     1
102
RTVSPropertyOp28
 70
     1
102
RTVSPropertyOp29
 70
     1
102
RTVSPropertyOp30
 70
     1
102
RTVSPropertyOp31
 70
     1
102
RTVSPropertyOp32
 70
     1
  0
XRECORD
  5
A59
102
{ACAD_REACTORS
330
A58
102
}
330
A58
100
AcDbXrecord
280
     1
102
RTVSPropertyOp0
 70
     1
102
RTVSPropertyOp1
 70
     1
102
RTVSPropertyOp2
 70
     1
102
RTVSPropertyOp3
 70
     1
102
RTVSPropertyOp4
 70
     1
102
RTVSPropertyOp5
 70
     1
102
RTVSPropertyOp6
 70
     1
102
RTVSPropertyOp7
 70
     1
102
RTVSPropertyOp8
 70
     1
102
RTVSPropertyOp9
 70
     1
102
RTVSPropertyOp10
 70
     1
102
RTVSPropertyOp11
 70
     1
102
RTVSPropertyOp12
 70
     1
102
RTVSPropertyOp13
 70
     1
102
RTVSPropertyOp14
 70
     1
102
RTVSPropertyOp15
 70
     1
102
RTVSPropertyOp16
 70
     1
102
RTVSPropertyOp17
 70
     1
102
RTVSPropertyOp18
 70
     1
102
RTVSPropertyOp19
 70
     1
102
RTVSPropertyOp20
 70
     1
102
RTVSPropertyOp21
 70
     1
102
RTVSPropertyOp22
 70
     1
102
RTVSPropertyOp23
 70
     1
102
RTVSPropertyOp24
 70
     1
102
RTVSPropertyOp25
 70
     1
102
RTVSPropertyOp26
 70
     1
102
RTVSPropertyOp27
 70
     1
102
RTVSPropertyOp28
 70
     1
102
RTVSPropertyOp29
 70
     1
102
RTVSPropertyOp30
 70
     1
102
RTVSPropertyOp31
 70
     1
102
RTVSPropertyOp32
 70
     1
  0
ENDSEC
  0
EOF
