  0
SECTION
  2
HEADER
  9
$ACADVER
  1
AC1015
  9
$ACADMAINTVER
 70
    20
  9
$DWGCODEPAGE
  3
ANSI_932
  9
$INSBASE
 10
0.0
 20
0.0
 30
0.0
  9
$EXTMIN
 10
213.92954279
 20
-73.45785013000003
 30
0.0
  9
$EXTMAX
 10
491.05813715
 20
119.01476718
 30
0.0
  9
$LIMMIN
 10
213.92855017
 20
-73.45884759999998
  9
$LIMMAX
 10
491.05913599
 20
119.01577051
  9
$ORTHOMODE
 70
     1
  9
$REGENMODE
 70
     1
  9
$FILLMODE
 70
     1
  9
$QTEXTMODE
 70
     0
  9
$MIRRTEXT
 70
     0
  9
$LTSCALE
 40
4.61880976
  9
$ATTMODE
 70
     1
  9
$TEXTSIZE
 40
3.2
  9
$TRACEWID
 40
0.05
  9
$TEXTSTYLE
  7
高3.2
  9
$CLAYER
  8
0
  9
$CELTYPE
  6
CONTINUOUS
  9
$CECOLOR
 62
   256
  9
$CELTSCALE
 40
1.0
  9
$DISPSILH
 70
     0
  9
$DIMSCALE
 40
1.0
  9
$DIMASZ
 40
2.5
  9
$DIMEXO
 40
0.25
  9
$DIMDLI
 40
0.2
  9
$DIMRND
 40
0.0
  9
$DIMDLE
 40
0.0
  9
$DIMEXE
 40
1.25
  9
$DIMTP
 40
0.0
  9
$DIMTM
 40
0.0
  9
$DIMTXT
 40
3.0
  9
$DIMCEN
 40
0.0
  9
$DIMTSZ
 40
0.0
  9
$DIMTOL
 70
     0
  9
$DIMLIM
 70
     0
  9
$DIMTIH
 70
     0
  9
$DIMTOH
 70
     0
  9
$DIMSE1
 70
     0
  9
$DIMSE2
 70
     0
  9
$DIMTAD
 70
     3
  9
$DIMZIN
 70
     8
  9
$DIMBLK
  1
Open30
  9
$DIMASO
 70
     1
  9
$DIMSHO
 70
     1
  9
$DIMPOST
  1

  9
$DIMAPOST
  1

  9
$DIMALT
 70
     0
  9
$DIMALTD
 70
     3
  9
$DIMALTF
 40
0.03937007874016
  9
$DIMLFAC
 40
1.0
  9
$DIMTOFL
 70
     1
  9
$DIMTVP
 40
0.0
  9
$DIMTIX
 70
     0
  9
$DIMSOXD
 70
     0
  9
$DIMSAH
 70
     0
  9
$DIMBLK1
  1

  9
$DIMBLK2
  1

  9
$DIMSTYLE
  2
1：1
  9
$DIMCLRD
 70
     0
  9
$DIMCLRE
 70
     0
  9
$DIMCLRT
 70
     4
  9
$DIMTFAC
 40
1.0
  9
$DIMGAP
 40
0.625
  9
$DIMJUST
 70
     0
  9
$DIMSD1
 70
     0
  9
$DIMSD2
 70
     0
  9
$DIMTOLJ
 70
     0
  9
$DIMTZIN
 70
     8
  9
$DIMALTZ
 70
     0
  9
$DIMALTTZ
 70
     0
  9
$DIMUPT
 70
     1
  9
$DIMDEC
 70
     2
  9
$DIMTDEC
 70
     2
  9
$DIMALTU
 70
     2
  9
$DIMALTTD
 70
     3
  9
$DIMTXSTY
  7
STANDARD
  9
$DIMAUNIT
 70
     0
  9
$DIMADEC
 70
     1
  9
$DIMALTRND
 40
0.0
  9
$DIMAZIN
 70
     2
  9
$DIMDSEP
 70
    46
  9
$DIMATFIT
 70
     0
  9
$DIMFRAC
 70
     0
  9
$DIMLDRBLK
  1
Open30
  9
$DIMLUNIT
 70
     2
  9
$DIMLWD
 70
    -2
  9
$DIMLWE
 70
    -2
  9
$DIMTMOVE
 70
     0
  9
$LUNITS
 70
     2
  9
$LUPREC
 70
     4
  9
$SKETCHINC
 40
0.1
  9
$FILLETRAD
 40
0.0
  9
$AUNITS
 70
     0
  9
$AUPREC
 70
     0
  9
$MENU
  1
.
  9
$ELEVATION
 40
0.0
  9
$PELEVATION
 40
0.0
  9
$THICKNESS
 40
0.0
  9
$LIMCHECK
 70
     0
  9
$CHAMFERA
 40
0.0
  9
$CHAMFERB
 40
0.0
  9
$CHAMFERC
 40
0.0
  9
$CHAMFERD
 40
0.0
  9
$SKPOLY
 70
     0
  9
$TDCREATE
 40
2455680.479350486
  9
$TDUCREATE
 40
2455680.104350487
  9
$TDUPDATE
 40
2456855.822328738
  9
$TDUUPDATE
 40
2456855.447328738
  9
$TDINDWG
 40
0.1128434259
  9
$TDUSRTIMER
 40
0.1128434259
  9
$USRTIMER
 70
     1
  9
$ANGBASE
 50
0.0
  9
$ANGDIR
 70
     0
  9
$PDMODE
 70
     0
  9
$PDSIZE
 40
0.0
  9
$PLINEWID
 40
0.0
  9
$SPLFRAME
 70
     0
  9
$SPLINETYPE
 70
     6
  9
$SPLINESEGS
 70
     8
  9
$HANDSEED
  5
796
  9
$SURFTAB1
 70
     6
  9
$SURFTAB2
 70
     6
  9
$SURFTYPE
 70
     6
  9
$SURFU
 70
     6
  9
$SURFV
 70
     6
  9
$UCSBASE
  2

  9
$UCSNAME
  2

  9
$UCSORG
 10
0.0
 20
0.0
 30
0.0
  9
$UCSXDIR
 10
1.0
 20
0.0
 30
0.0
  9
$UCSYDIR
 10
0.0
 20
1.0
 30
0.0
  9
$UCSORTHOREF
  2

  9
$UCSORTHOVIEW
 70
     0
  9
$UCSORGTOP
 10
0.0
 20
0.0
 30
0.0
  9
$UCSORGBOTTOM
 10
0.0
 20
0.0
 30
0.0
  9
$UCSORGLEFT
 10
0.0
 20
0.0
 30
0.0
  9
$UCSORGRIGHT
 10
0.0
 20
0.0
 30
0.0
  9
$UCSORGFRONT
 10
0.0
 20
0.0
 30
0.0
  9
$UCSORGBACK
 10
0.0
 20
0.0
 30
0.0
  9
$PUCSBASE
  2

  9
$PUCSNAME
  2

  9
$PUCSORG
 10
0.0
 20
0.0
 30
0.0
  9
$PUCSXDIR
 10
1.0
 20
0.0
 30
0.0
  9
$PUCSYDIR
 10
0.0
 20
1.0
 30
0.0
  9
$PUCSORTHOREF
  2

  9
$PUCSORTHOVIEW
 70
     0
  9
$PUCSORGTOP
 10
0.0
 20
0.0
 30
0.0
  9
$PUCSORGBOTTOM
 10
0.0
 20
0.0
 30
0.0
  9
$PUCSORGLEFT
 10
0.0
 20
0.0
 30
0.0
  9
$PUCSORGRIGHT
 10
0.0
 20
0.0
 30
0.0
  9
$PUCSORGFRONT
 10
0.0
 20
0.0
 30
0.0
  9
$PUCSORGBACK
 10
0.0
 20
0.0
 30
0.0
  9
$USERI1
 70
     0
  9
$USERI2
 70
     0
  9
$USERI3
 70
     0
  9
$USERI4
 70
     0
  9
$USERI5
 70
     0
  9
$USERR1
 40
0.0
  9
$USERR2
 40
0.0
  9
$USERR3
 40
0.0
  9
$USERR4
 40
0.0
  9
$USERR5
 40
0.0
  9
$WORLDVIEW
 70
     1
  9
$SHADEDGE
 70
     3
  9
$SHADEDIF
 70
    70
  9
$TILEMODE
 70
     1
  9
$MAXACTVP
 70
    64
  9
$PINSBASE
 10
0.0
 20
0.0
 30
0.0
  9
$PLIMCHECK
 70
     0
  9
$PEXTMIN
 10
1.000000000000000E+20
 20
1.000000000000000E+20
 30
1.000000000000000E+20
  9
$PEXTMAX
 10
-1.000000000000000E+20
 20
-1.000000000000000E+20
 30
-1.000000000000000E+20
  9
$PLIMMIN
 10
0.0
 20
0.0
  9
$PLIMMAX
 10
12.0
 20
9.0
  9
$UNITMODE
 70
     0
  9
$VISRETAIN
 70
     1
  9
$PLINEGEN
 70
     0
  9
$PSLTSCALE
 70
     1
  9
$TREEDEPTH
 70
  3020
  9
$CMLSTYLE
  2
Standard
  9
$CMLJUST
 70
     0
  9
$CMLSCALE
 40
1.0
  9
$PROXYGRAPHICS
 70
     1
  9
$MEASUREMENT
 70
     0
  9
$CELWEIGHT
370
    -1
  9
$ENDCAPS
280
     0
  9
$JOINSTYLE
280
     0
  9
$LWDISPLAY
290
     0
  9
$INSUNITS
 70
     0
  9
$HYPERLINKBASE
  1

  9
$STYLESHEET
  1

  9
$XEDIT
290
     1
  9
$CEPSNTYPE
380
     0
  9
$PSTYLEMODE
290
     1
  9
$FINGERPRINTGUID
  2
{42604ACA-4070-4287-AF5C-3FD0F1220E51}
  9
$VERSIONGUID
  2
{67988A37-2F18-46D2-8DB4-EE409150409F}
  9
$EXTNAMES
290
     1
  9
$PSVPSCALE
 40
0.0
  9
$OLESTARTUP
290
     0
  0
ENDSEC
  0
SECTION
  2
CLASSES
  0
CLASS
  1
ACDBDICTIONARYWDFLT
  2
AcDbDictionaryWithDefault
  3
ObjectDBX Classes
 90
        0
280
     0
281
     0
  0
CLASS
  1
MATERIAL
  2
AcDbMaterial
  3
ObjectDBX Classes
 90
     1153
280
     0
281
     0
  0
CLASS
  1
VISUALSTYLE
  2
AcDbVisualStyle
  3
ObjectDBX Classes
 90
     4095
280
     0
281
     0
  0
CLASS
  1
SCALE
  2
AcDbScale
  3
ObjectDBX Classes
 90
     1153
280
     0
281
     0
  0
CLASS
  1
TABLESTYLE
  2
AcDbTableStyle
  3
ObjectDBX Classes
 90
     4095
280
     0
281
     0
  0
CLASS
  1
MLEADERSTYLE
  2
AcDbMLeaderStyle
  3
ACDB_MLEADERSTYLE_CLASS
 90
     4095
280
     0
281
     0
  0
CLASS
  1
DICTIONARYVAR
  2
AcDbDictionaryVar
  3
ObjectDBX Classes
 90
        0
280
     0
281
     0
  0
CLASS
  1
CELLSTYLEMAP
  2
AcDbCellStyleMap
  3
ObjectDBX Classes
 90
     1152
280
     0
281
     0
  0
CLASS
  1
ACDBPLACEHOLDER
  2
AcDbPlaceHolder
  3
ObjectDBX Classes
 90
        0
280
     0
281
     0
  0
CLASS
  1
LAYOUT
  2
AcDbLayout
  3
ObjectDBX Classes
 90
        0
280
     0
281
     0
  0
CLASS
  1
SORTENTSTABLE
  2
AcDbSortentsTable
  3
ObjectDBX Classes
 90
        0
280
     0
281
     0
  0
ENDSEC
  0
SECTION
  2
TABLES
  0
TABLE
  2
VPORT
  5
8
330
0
100
AcDbSymbolTable
 70
     1
  0
VPORT
  5
8C
330
8
100
AcDbSymbolTableRecord
100
AcDbViewportTableRecord
  2
*Active
 70
     0
 10
0.0
 20
0.0
 11
1.0
 21
1.0
 12
386.4348344559981
 22
63.29348837787836
 13
0.0
 23
0.0
 14
1.0
 24
1.0
 15
0.0
 25
0.0
 16
0.0
 26
0.0
 36
1.0
 17
0.0
 27
0.0
 37
0.0
 40
797.2373094051723
 41
1.896032831737345
 42
50.0
 43
0.0
 44
0.0
 50
0.0
 51
0.0
 71
     0
 72
   100
 73
     1
 74
     1
 75
     0
 76
     0
 77
     0
 78
     0
281
     0
 65
     1
110
0.0
120
0.0
130
0.0
111
1.0
121
0.0
131
0.0
112
0.0
122
1.0
132
0.0
 79
     0
146
0.0
  0
ENDTAB
  0
TABLE
  2
LTYPE
  5
5
330
0
100
AcDbSymbolTable
 70
     2
  0
LTYPE
  5
5A
330
5
100
AcDbSymbolTableRecord
100
AcDbLinetypeTableRecord
  2
ByBlock
 70
     0
  3

 72
    65
 73
     0
 40
0.0
  0
LTYPE
  5
5B
330
5
100
AcDbSymbolTableRecord
100
AcDbLinetypeTableRecord
  2
ByLayer
 70
     0
  3

 72
    65
 73
     0
 40
0.0
  0
LTYPE
  5
5C
330
5
100
AcDbSymbolTableRecord
100
AcDbLinetypeTableRecord
  2
CONTINUOUS
 70
     0
  3
Solid-line
 72
    65
 73
     0
 40
0.0
  0
LTYPE
  5
72
330
5
100
AcDbSymbolTableRecord
100
AcDbLinetypeTableRecord
  2
CENTER
 70
     0
  3
CENTER
 72
    65
 73
     4
 40
2.0
 49
1.25
 74
     0
 49
-0.25
 74
     0
 49
0.25
 74
     0
 49
-0.25
 74
     0
  0
ENDTAB
  0
TABLE
  2
LAYER
  5
2
102
{ACAD_XDICTIONARY
360
2D5
102
}
330
0
100
AcDbSymbolTable
 70
     2
  0
LAYER
  5
54
102
{ACAD_XDICTIONARY
360
444
102
}
330
2
100
AcDbSymbolTableRecord
100
AcDbLayerTableRecord
  2
0
 70
     0
 62
     7
  6
CONTINUOUS
370
    -3
390
F
  0
LAYER
  5
2C0
330
2
100
AcDbSymbolTableRecord
100
AcDbLayerTableRecord
  2
Defpoints
 70
     0
 62
     7
  6
CONTINUOUS
290
     0
370
    -3
390
F
  0
ENDTAB
  0
TABLE
  2
STYLE
  5
3
330
0
100
AcDbSymbolTable
 70
     6
  0
STYLE
  5
55
330
3
100
AcDbSymbolTableRecord
100
AcDbTextStyleTableRecord
  2
STANDARD
 70
     0
 40
0.0
 41
1.0
 50
0.0
 71
     0
 42
0.2
  3
TXT
  4
BIGFONT
  0
STYLE
  5
2C1
330
3
100
AcDbSymbolTableRecord
100
AcDbTextStyleTableRecord
  2
高3.2
 70
     0
 40
3.2
 41
1.0
 50
0.0
 71
     0
 42
3.2
  3
txt.shx
  4
bigfont.shx
  0
STYLE
  5
2C2
330
3
100
AcDbSymbolTableRecord
100
AcDbTextStyleTableRecord
  2
高6.3
 70
     0
 40
6.299999999999998
 41
1.0
 50
0.0
 71
     0
 42
6.299999999999998
  3
txt.shx
  4
bigfont.shx
  0
STYLE
  5
2C3
330
3
100
AcDbSymbolTableRecord
100
AcDbTextStyleTableRecord
  2
高2.5
 70
     0
 40
2.5
 41
1.0
 50
0.0
 71
     0
 42
0.2
  3
txt.shx
  4
bigfont.shx
  0
STYLE
  5
2C4
330
3
100
AcDbSymbolTableRecord
100
AcDbTextStyleTableRecord
  2
高4.5
 70
     0
 40
4.5
 41
1.0
 50
0.0
 71
     0
 42
6.299999999999998
  3
txt.shx
  4
bigfont.shx
  0
STYLE
  5
2C5
330
3
100
AcDbSymbolTableRecord
100
AcDbTextStyleTableRecord
  2
高2
 70
     0
 40
2.0
 41
1.0
 50
0.0
 71
     0
 42
6.299999999999998
  3
txt.shx
  4
bigfont.shx
  0
ENDTAB
  0
TABLE
  2
VIEW
  5
6
330
0
100
AcDbSymbolTable
 70
     0
  0
ENDTAB
  0
TABLE
  2
UCS
  5
7
330
0
100
AcDbSymbolTable
 70
     0
  0
ENDTAB
  0
TABLE
  2
APPID
  5
9
330
0
100
AcDbSymbolTable
 70
    10
  0
APPID
  5
56
330
9
100
AcDbSymbolTableRecord
100
AcDbRegAppTableRecord
  2
ACAD
 70
     0
  0
APPID
  5
5D
330
9
100
AcDbSymbolTableRecord
100
AcDbRegAppTableRecord
  2
AcadAnnotative
 70
     0
  0
APPID
  5
2D0
330
9
100
AcDbSymbolTableRecord
100
AcDbRegAppTableRecord
  2
ACAD_DSTYLE_DIMJOGGED_JOGANGLE_SYMBOL
 70
     0
  0
APPID
  5
2D1
330
9
100
AcDbSymbolTableRecord
100
AcDbRegAppTableRecord
  2
ACAD_DSTYLE_DIMJAG
 70
     0
  0
APPID
  5
2D2
330
9
100
AcDbSymbolTableRecord
100
AcDbRegAppTableRecord
  2
ACAD_DSTYLE_DIMBREAK
 70
     0
  0
APPID
  5
2D3
330
9
100
AcDbSymbolTableRecord
100
AcDbRegAppTableRecord
  2
ACAD_DSTYLE_DIMTALN
 70
     0
  0
APPID
  5
41B
330
9
100
AcDbSymbolTableRecord
100
AcDbRegAppTableRecord
  2
ACAD_EXEMPT_FROM_CAD_STANDARDS
 70
     0
  0
APPID
  5
48E
330
9
100
AcDbSymbolTableRecord
100
AcDbRegAppTableRecord
  2
ACAD_MLEADERVER
 70
     0
  0
APPID
  5
493
330
9
100
AcDbSymbolTableRecord
100
AcDbRegAppTableRecord
  2
ACAD_DSTYLE_DIMARC_LENGTH_SYMBOL
 70
     0
  0
APPID
  5
494
330
9
100
AcDbSymbolTableRecord
100
AcDbRegAppTableRecord
  2
ACAD_DSTYLE_DIMEXT_LENGTH
 70
     0
  0
ENDTAB
  0
TABLE
  2
DIMSTYLE
  5
A
330
0
100
AcDbSymbolTable
 70
     2
100
AcDbDimStyleTable
 71
     1
340
2C6
  0
DIMSTYLE
105
57
330
A
100
AcDbSymbolTableRecord
100
AcDbDimStyleTableRecord
  2
Standard
 70
     0
340
55
  0
DIMSTYLE
105
2C6
330
A
100
AcDbSymbolTableRecord
100
AcDbDimStyleTableRecord
  2
1：1
 70
     0
 41
2.5
 42
0.25
 43
0.2
 44
1.25
 73
     0
 74
     0
 77
     3
 78
     8
 79
     2
140
3.0
141
0.0
143
0.03937007874016
147
0.625
171
     3
172
     1
178
     4
179
     1
271
     2
272
     2
274
     3
283
     0
284
     8
288
     1
289
     0
340
55
341
230
342
230
1001
ACAD_DSTYLE_DIMARC_LENGTH_SYMBOL
1070
   379
1070
     2
1001
ACAD_DSTYLE_DIMEXT_LENGTH
1070
   378
1040
1.25
1001
ACAD_DSTYLE_DIMJOGGED_JOGANGLE_SYMBOL
1070
   384
1040
1.570796326794896
  0
ENDTAB
  0
TABLE
  2
BLOCK_RECORD
  5
1
330
0
100
AcDbSymbolTable
 70
     3
  0
BLOCK_RECORD
  5
6B
102
{ACAD_XDICTIONARY
360
734
102
}
330
1
100
AcDbSymbolTableRecord
100
AcDbBlockTableRecord
  2
*Model_Space
340
6E
  0
BLOCK_RECORD
  5
67
330
1
100
AcDbSymbolTableRecord
100
AcDbBlockTableRecord
  2
*Paper_Space
340
6A
  0
BLOCK_RECORD
  5
230
330
1
100
AcDbSymbolTableRecord
100
AcDbBlockTableRecord
  2
_Open30
340
0
102
{BLKREFS
331
6DB
331
6DC
331
6E4
331
6E5
102
}
  0
BLOCK_RECORD
  5
3E5
330
1
100
AcDbSymbolTableRecord
100
AcDbBlockTableRecord
  2
*D1
340
0
  0
BLOCK_RECORD
  5
3F2
330
1
100
AcDbSymbolTableRecord
100
AcDbBlockTableRecord
  2
*D2
340
0
  0
ENDTAB
  0
ENDSEC
  0
SECTION
  2
BLOCKS
  0
BLOCK
  5
6C
330
6B
100
AcDbEntity
  8
0
100
AcDbBlockBegin
  2
*Model_Space
 70
     0
 10
0.0
 20
0.0
 30
0.0
  3
*Model_Space
  1

  0
ENDBLK
  5
6D
330
6B
100
AcDbEntity
  8
0
100
AcDbBlockEnd
  0
BLOCK
  5
68
330
67
100
AcDbEntity
 67
     1
  8
0
100
AcDbBlockBegin
  2
*Paper_Space
 70
     0
 10
0.0
 20
0.0
 30
0.0
  3
*Paper_Space
  1

  0
ENDBLK
  5
69
330
67
100
AcDbEntity
 67
     1
  8
0
100
AcDbBlockEnd
  0
BLOCK
  5
231
330
230
100
AcDbEntity
  8
0
100
AcDbBlockBegin
  2
_Open30
 70
     0
 10
0.0
 20
0.0
 30
0.0
  3
_Open30
  1

  0
LINE
  5
232
330
230
100
AcDbEntity
  8
0
  6
ByBlock
 62
     0
370
    -2
100
AcDbLine
 10
-1.0
 20
0.267949
 30
0.0
 11
0.0
 21
0.0
 31
0.0
  0
LINE
  5
233
330
230
100
AcDbEntity
  8
0
  6
ByBlock
 62
     0
370
    -2
100
AcDbLine
 10
0.0
 20
0.0
 30
0.0
 11
-1.0
 21
-0.267949
 31
0.0
  0
LINE
  5
234
330
230
100
AcDbEntity
  8
0
  6
ByBlock
 62
     0
370
    -2
100
AcDbLine
 10
0.0
 20
0.0
 30
0.0
 11
-1.0
 21
0.0
 31
0.0
  0
ENDBLK
  5
235
330
230
100
AcDbEntity
  8
0
100
AcDbBlockEnd
  0
BLOCK
  5
3E6
330
3E5
100
AcDbEntity
  8
0
100
AcDbBlockBegin
  2
*D1
 70
     1
 10
0.0
 20
0.0
 30
0.0
  3
*D1
  1

  0
LINE
  5
6D8
330
3E5
100
AcDbEntity
  8
0
 62
     0
370
    -2
100
AcDbLine
 10
279.15283278
 20
49.20735659
 30
0.0
 11
279.15283278
 21
80.7809297
 31
0.0
  0
LINE
  5
6D9
330
3E5
100
AcDbEntity
  8
0
 62
     0
370
    -2
100
AcDbLine
 10
384.15283278
 20
42.70735659
 30
0.0
 11
384.15283278
 21
80.7809297
 31
0.0
  0
LINE
  5
6DA
330
3E5
100
AcDbEntity
  8
0
 62
     0
370
    -2
100
AcDbLine
 10
281.65283278
 20
79.5309297
 30
0.0
 11
381.65283278
 21
79.5309297
 31
0.0
  0
INSERT
  5
6DB
330
3E5
100
AcDbEntity
  8
0
 62
     0
370
    -2
100
AcDbBlockReference
  2
_Open30
 10
279.15283278
 20
79.5309297
 30
0.0
 41
2.5
 42
2.5
 43
2.5
 50
180.0
  0
INSERT
  5
6DC
330
3E5
100
AcDbEntity
  8
0
 62
     0
370
    -2
100
AcDbBlockReference
  2
_Open30
 10
384.15283278
 20
79.5309297
 30
0.0
 41
2.5
 42
2.5
 43
2.5
  0
MTEXT
  5
6DD
330
3E5
100
AcDbEntity
  8
0
 62
     4
100
AcDbMText
 10
331.65283278
 20
81.6559297
 30
0.0
 40
3.0
 41
0.0
 71
     5
 72
     1
  1
105
 73
     1
 44
1.0
1001
ACAD
1000
MTEXTBEGIN
1070
    73
1070
     1
1070
    44
1040
1.0
1070
    74
1070
     0
1000
MTEXTEND
  0
POINT
  5
6DE
330
3E5
100
AcDbEntity
  8
Defpoints
 62
     0
100
AcDbPoint
 10
279.15283278
 20
48.95735659
 30
0.0
  0
POINT
  5
6DF
330
3E5
100
AcDbEntity
  8
Defpoints
 62
     0
100
AcDbPoint
 10
384.15283278
 20
42.45735659
 30
0.0
  0
POINT
  5
6E0
330
3E5
100
AcDbEntity
  8
Defpoints
 62
     0
100
AcDbPoint
 10
384.15283278
 20
79.5309297
 30
0.0
  0
ENDBLK
  5
3E7
330
3E5
100
AcDbEntity
  8
0
100
AcDbBlockEnd
  0
BLOCK
  5
3F3
330
3F2
100
AcDbEntity
  8
0
100
AcDbBlockBegin
  2
*D2
 70
     1
 10
0.0
 20
0.0
 30
0.0
  3
*D2
  1

  0
LINE
  5
6E1
330
3F2
100
AcDbEntity
  8
0
 62
     0
370
    -2
100
AcDbLine
 10
279.90283278
 20
34.95735659000001
 30
0.0
 11
269.31012383
 21
34.95735659000002
 31
0.0
  0
LINE
  5
6E2
330
3F2
100
AcDbEntity
  8
0
 62
     0
370
    -2
100
AcDbLine
 10
280.10283278
 20
49.95735659000001
 30
0.0
 11
269.31012383
 21
49.95735659000001
 31
0.0
  0
LINE
  5
6E3
330
3F2
100
AcDbEntity
  8
0
 62
     0
370
    -2
100
AcDbLine
 10
270.56012383
 20
37.45735659000002
 30
0.0
 11
270.56012383
 21
47.45735659000001
 31
0.0
  0
INSERT
  5
6E4
330
3F2
100
AcDbEntity
  8
0
 62
     0
370
    -2
100
AcDbBlockReference
  2
_Open30
 10
270.56012383
 20
34.95735659000002
 30
0.0
 41
2.5
 42
2.5
 43
2.5
 50
270.0
  0
INSERT
  5
6E5
330
3F2
100
AcDbEntity
  8
0
 62
     0
370
    -2
100
AcDbBlockReference
  2
_Open30
 10
270.56012383
 20
49.95735659000001
 30
0.0
 41
2.5
 42
2.5
 43
2.5
 50
90.0
  0
MTEXT
  5
6E6
330
3F2
100
AcDbEntity
  8
0
 62
     4
100
AcDbMText
 10
268.43512383
 20
42.45735659000006
 30
0.0
 40
3.0
 41
0.0
 71
     5
 72
     1
  1
\U+03C615
 11
0.0000000000000001
 21
1.0
 31
0.0
 73
     1
 44
1.0
1001
ACAD
1000
MTEXTBEGIN
1070
    73
1070
     1
1070
    44
1040
1.0
1070
    74
1070
     0
1000
MTEXTEND
  0
POINT
  5
6E7
330
3F2
100
AcDbEntity
  8
Defpoints
 62
     0
100
AcDbPoint
 10
280.15283278
 20
34.95735659000001
 30
0.0
  0
POINT
  5
6E8
330
3F2
100
AcDbEntity
  8
Defpoints
 62
     0
100
AcDbPoint
 10
280.35283278
 20
49.95735659000001
 30
0.0
  0
POINT
  5
6E9
330
3F2
100
AcDbEntity
  8
Defpoints
 62
     0
100
AcDbPoint
 10
270.56012383
 20
49.95735659000001
 30
0.0
  0
ENDBLK
  5
3F4
330
3F2
100
AcDbEntity
  8
0
100
AcDbBlockEnd
  0
ENDSEC
  0
SECTION
  2
ENTITIES
  0
LINE
  5
AF
330
6B
100
AcDbEntity
  8
0
 62
     3
100
AcDbLine
 10
316.75283278
 20
49.10735659
 30
0.0
 11
311.05283278
 21
49.10735659
 31
0.0
  0
LINE
  5
B0
330
6B
100
AcDbEntity
  8
0
 62
     3
100
AcDbLine
 10
316.75283278
 20
35.80735659
 30
0.0
 11
311.05283278
 21
35.80735659
 31
0.0
  0
LINE
  5
B1
330
6B
100
AcDbEntity
  8
0
 62
     3
100
AcDbLine
 10
310.75283278
 20
48.75735659
 30
0.0
 11
300.45283278
 21
48.75735659
 31
0.0
  0
LINE
  5
B2
330
6B
100
AcDbEntity
  8
0
 62
     3
100
AcDbLine
 10
317.05283278
 20
48.75735659
 30
0.0
 11
349.95283278
 21
48.75735659
 31
0.0
  0
LINE
  5
B3
330
6B
100
AcDbEntity
  8
0
 62
     3
100
AcDbLine
 10
359.95283278
 20
48.75735659
 30
0.0
 11
367.55283278
 21
48.75735659
 31
0.0
  0
LINE
  5
B4
330
6B
100
AcDbEntity
  8
0
 62
     3
100
AcDbLine
 10
310.75283278
 20
36.15735659
 30
0.0
 11
300.45283278
 21
36.15735659
 31
0.0
  0
LINE
  5
B5
330
6B
100
AcDbEntity
  8
0
 62
     3
100
AcDbLine
 10
317.05283278
 20
36.15735659
 30
0.0
 11
367.55283278
 21
36.15735659
 31
0.0
  0
LINE
  5
B6
330
6B
100
AcDbEntity
  8
0
 62
     3
100
AcDbLine
 10
280.15283278
 20
49.95735659000001
 30
0.0
 11
298.95283278
 21
49.95735659000001
 31
0.0
  0
ARC
  5
B7
330
6B
100
AcDbEntity
  8
0
 62
     3
100
AcDbCircle
 10
280.15283278
 20
48.95735659
 30
0.0
 40
1.0
100
AcDbArc
 50
90.0
 51
180.0
  0
LINE
  5
B8
330
6B
100
AcDbEntity
  8
0
 62
     3
100
AcDbLine
 10
299.45283278
 20
49.95735659000001
 30
0.0
 11
299.95283278
 21
49.95735659000001
 31
0.0
  0
ARC
  5
B9
330
6B
100
AcDbEntity
  8
0
 62
     3
100
AcDbCircle
 10
299.95283278
 20
49.45735659
 30
0.0
 40
0.5
100
AcDbArc
 50
0.0
 51
90.0
  0
LINE
  5
BA
330
6B
100
AcDbEntity
  8
0
 62
     3
100
AcDbLine
 10
280.15283278
 20
34.95735659000001
 30
0.0
 11
298.95283278
 21
34.95735659000001
 31
0.0
  0
LINE
  5
BB
330
6B
100
AcDbEntity
  8
0
 62
     3
100
AcDbLine
 10
299.45283278
 20
34.95735659000001
 30
0.0
 11
299.95283278
 21
34.95735659000001
 31
0.0
  0
LINE
  5
BC
330
6B
100
AcDbEntity
  8
0
 62
     3
100
AcDbLine
 10
279.15283278
 20
35.95735659000001
 30
0.0
 11
279.15283278
 21
48.95735659
 31
0.0
  0
LINE
  5
BD
330
6B
100
AcDbEntity
  8
0
 62
     3
100
AcDbLine
 10
298.95283278
 20
34.95735659000001
 30
0.0
 11
298.95283278
 21
49.95735659000001
 31
0.0
  0
ARC
  5
BE
330
6B
100
AcDbEntity
  8
0
 62
     3
100
AcDbCircle
 10
299.45283278
 20
49.45735659
 30
0.0
 40
0.5
100
AcDbArc
 50
90.0
 51
180.0
  0
ARC
  5
BF
330
6B
100
AcDbEntity
  8
0
 62
     3
100
AcDbCircle
 10
299.45283278
 20
35.45735659
 30
0.0
 40
0.5
100
AcDbArc
 50
180.0
 51
270.0
  0
LINE
  5
C0
330
6B
100
AcDbEntity
  8
0
 62
     3
100
AcDbLine
 10
300.45283278
 20
35.45735659
 30
0.0
 11
300.45283278
 21
36.15735659
 31
0.0
  0
LINE
  5
C1
330
6B
100
AcDbEntity
  8
0
 62
     3
100
AcDbLine
 10
300.45283278
 20
48.75735659
 30
0.0
 11
300.45283278
 21
49.45735659
 31
0.0
  0
ARC
  5
C2
330
6B
100
AcDbEntity
  8
0
 62
     3
100
AcDbCircle
 10
299.95283278
 20
35.45735659
 30
0.0
 40
0.5
100
AcDbArc
 50
270.0
 51
0.0
  0
LINE
  5
C3
330
6B
100
AcDbEntity
  8
0
 62
     3
100
AcDbLine
 10
380.35283278
 20
36.30735659
 30
0.0
 11
380.35283278
 21
48.60735659
 31
0.0
  0
LINE
  5
C4
330
6B
100
AcDbEntity
  8
0
 62
     3
100
AcDbLine
 10
367.55283278
 20
36.15735659
 30
0.0
 11
367.55283278
 21
48.75735659
 31
0.0
  0
LINE
  5
C5
330
6B
100
AcDbEntity
  8
0
 62
     3
100
AcDbLine
 10
316.75283278
 20
35.80735659
 30
0.0
 11
317.05283278
 21
36.15735659
 31
0.0
  0
LINE
  5
C6
330
6B
100
AcDbEntity
  8
0
 62
     3
100
AcDbLine
 10
311.05283278
 20
35.80735659
 30
0.0
 11
310.75283278
 21
36.15735659
 31
0.0
  0
LINE
  5
C7
330
6B
100
AcDbEntity
  8
0
 62
     3
100
AcDbLine
 10
316.75283278
 20
49.10735659
 30
0.0
 11
317.05283278
 21
48.75735659
 31
0.0
  0
LINE
  5
C8
330
6B
100
AcDbEntity
  8
0
 62
     3
100
AcDbLine
 10
311.05283278
 20
49.10735659
 30
0.0
 11
310.75283278
 21
48.75735659
 31
0.0
  0
LINE
  5
C9
330
6B
100
AcDbEntity
  8
0
 62
     3
100
AcDbLine
 10
367.85283278
 20
35.80735659
 30
0.0
 11
379.85283278
 21
35.80735659
 31
0.0
  0
ARC
  5
CA
330
6B
100
AcDbEntity
  8
0
 62
     3
100
AcDbCircle
 10
379.85283278
 20
36.30735659
 30
0.0
 40
0.5
100
AcDbArc
 50
270.0
 51
0.0
  0
LINE
  5
CB
330
6B
100
AcDbEntity
  8
0
 62
     3
100
AcDbLine
 10
367.85283278
 20
49.10735659
 30
0.0
 11
379.85283278
 21
49.10735659
 31
0.0
  0
ARC
  5
CC
330
6B
100
AcDbEntity
  8
0
 62
     3
100
AcDbCircle
 10
379.85283278
 20
48.60735659
 30
0.0
 40
0.5
100
AcDbArc
 50
0.0
 51
90.0
  0
LINE
  5
CD
330
6B
100
AcDbEntity
  8
0
 62
     3
100
AcDbLine
 10
367.85283278
 20
35.80735659
 30
0.0
 11
367.55283278
 21
36.15735659
 31
0.0
  0
LINE
  5
CE
330
6B
100
AcDbEntity
  8
0
 62
     3
100
AcDbLine
 10
367.55283278
 20
48.75735659
 30
0.0
 11
367.85283278
 21
49.10735659
 31
0.0
  0
CIRCLE
  5
CF
330
6B
100
AcDbEntity
  8
0
 62
     3
100
AcDbCircle
 10
409.6592038199998
 20
42.45735659
 30
0.0
 40
6.65
  0
CIRCLE
  5
D0
330
6B
100
AcDbEntity
  8
0
 62
     3
100
AcDbCircle
 10
409.6592038199998
 20
42.45735659
 30
0.0
 40
4.25
  0
CIRCLE
  5
D1
330
6B
100
AcDbEntity
  8
0
 62
     3
100
AcDbCircle
 10
409.6592038199998
 20
42.45735659
 30
0.0
 40
5.349999999999997
  0
CIRCLE
  5
D2
330
6B
100
AcDbEntity
  8
0
 62
     3
100
AcDbCircle
 10
243.98558133
 20
42.45735659
 30
0.0
 40
7.5
  0
CIRCLE
  5
D3
330
6B
100
AcDbEntity
  8
0
 62
     3
100
AcDbCircle
 10
243.98558133
 20
42.45735659
 30
0.0
 40
2.5
  0
LINE
  5
D4
330
6B
100
AcDbEntity
  8
0
 62
     3
100
AcDbLine
 10
382.35283278
 20
38.20735659
 30
0.0
 11
380.35283278
 21
38.20735659
 31
0.0
  0
LINE
  5
D5
330
6B
100
AcDbEntity
  8
0
 62
     3
100
AcDbLine
 10
382.35283278
 20
46.70735659
 30
0.0
 11
380.35283278
 21
46.70735659
 31
0.0
  0
ARC
  5
D6
330
6B
100
AcDbEntity
  8
0
 62
     3
100
AcDbCircle
 10
378.23547167
 20
42.45735659
 30
0.0
 40
5.917361109999997
100
AcDbArc
 50
314.09182692
 51
45.90817307999999
  0
CIRCLE
  5
D7
330
6B
100
AcDbEntity
  8
0
 62
     3
100
AcDbCircle
 10
243.98558133
 20
42.45735659
 30
0.0
 40
5.5
  0
LINE
  5
D8
330
6B
100
AcDbEntity
  8
0
 62
     3
100
AcDbLine
 10
330.34554412
 20
50.95735659
 30
0.0
 11
327.27863293
 21
50.95735659
 31
0.0
  0
LINE
  5
D9
330
6B
100
AcDbEntity
  8
0
 62
     3
100
AcDbLine
 10
330.35283278
 20
51.75735659
 30
0.0
 11
322.9801541
 21
51.75735659
 31
0.0
  0
LINE
  5
DA
330
6B
100
AcDbEntity
  8
0
 62
     3
100
AcDbLine
 10
357.95283278
 20
38.25735659
 30
0.0
 11
351.95283278
 21
38.25735659
 31
0.0
  0
LINE
  5
DB
330
6B
100
AcDbEntity
  8
0
 62
     3
100
AcDbLine
 10
352.45283278
 20
49.25735659
 30
0.0
 11
359.95283278
 21
49.25735659
 31
0.0
  0
ARC
  5
DC
330
6B
100
AcDbEntity
  8
0
 62
     3
100
AcDbCircle
 10
280.15283278
 20
35.95735659000001
 30
0.0
 40
1.0
100
AcDbArc
 50
180.0
 51
270.0
  0
LINE
  5
DD
330
6B
100
AcDbEntity
  8
0
 62
     7
100
AcDbLine
 10
280.35283278
 20
34.95735659000001
 30
0.0
 11
280.35283278
 21
49.95735659000001
 31
0.0
  0
LINE
  5
DE
330
6B
100
AcDbEntity
  8
0
 62
     7
100
AcDbLine
 10
296.45283278
 20
34.95735659000001
 30
0.0
 11
296.45283278
 21
49.95735659000001
 31
0.0
  0
LINE
  5
DF
330
6B
100
AcDbEntity
  8
0
 62
     3
100
AcDbLine
 10
300.45283278
 20
36.15735659
 30
0.0
 11
300.45283278
 21
48.75735659
 31
0.0
  0
LINE
  5
E0
330
6B
100
AcDbEntity
  8
0
 62
     3
100
AcDbLine
 10
310.75283278
 20
36.15735659
 30
0.0
 11
310.75283278
 21
48.75735659
 31
0.0
  0
LINE
  5
E1
330
6B
100
AcDbEntity
  8
0
 62
     7
100
AcDbLine
 10
311.05283278
 20
49.10735659
 30
0.0
 11
311.05283278
 21
35.80735659
 31
0.0
  0
LINE
  5
E2
330
6B
100
AcDbEntity
  8
0
 62
     3
100
AcDbLine
 10
317.05283278
 20
36.15735659
 30
0.0
 11
317.05283278
 21
48.75735659
 31
0.0
  0
LINE
  5
E3
330
6B
100
AcDbEntity
  8
0
 62
     3
100
AcDbLine
 10
349.95283278
 20
40.25735659
 30
0.0
 11
349.95283278
 21
48.97843425
 31
0.0
  0
LINE
  5
E4
330
6B
100
AcDbEntity
  8
0
 62
     3
100
AcDbLine
 10
359.95283278
 20
40.25735659
 30
0.0
 11
359.95283278
 21
49.25735659
 31
0.0
  0
LINE
  5
E5
330
6B
100
AcDbEntity
  8
0
 62
     7
100
AcDbLine
 10
316.75283278
 20
35.80735659
 30
0.0
 11
316.75283278
 21
49.10735659
 31
0.0
  0
LINE
  5
E6
330
6B
100
AcDbEntity
  8
0
 62
     7
100
AcDbLine
 10
367.85283278
 20
35.80735659
 30
0.0
 11
367.85283278
 21
49.10735659
 31
0.0
  0
ARC
  5
E7
330
6B
100
AcDbEntity
  8
0
 62
     3
100
AcDbCircle
 10
310.14146614
 20
-1057.54647701
 30
0.0
 40
1109.48794252
100
AcDbArc
 50
87.99127097000001
 51
88.9561941
  0
ARC
  5
E8
330
6B
100
AcDbEntity
  8
0
 62
     3
100
AcDbCircle
 10
310.14146614
 20
-1057.54647701
 30
0.0
 40
1108.68794252
100
AcDbArc
 50
88.01703233000003
 51
88.95581756
  0
ARC
  5
E9
330
6B
100
AcDbEntity
  8
0
 62
     3
100
AcDbCircle
 10
348.45283278
 20
48.97843425
 30
0.0
 40
1.5
100
AcDbArc
 50
0.0
 51
88.01703233000003
  0
LINE
  5
EA
330
6B
100
AcDbEntity
  8
0
 62
     3
100
AcDbLine
 10
350.10801374
 20
50.89921656
 30
0.0
 11
352.45283278
 21
49.25735659
 31
0.0
  0
ARC
  5
EB
330
6B
100
AcDbEntity
  8
0
 62
     3
100
AcDbCircle
 10
348.96086087
 20
49.26091247
 30
0.0
 40
2.0
100
AcDbArc
 50
55.0
 51
87.99127097000001
  0
ARC
  5
EC
330
6B
100
AcDbEntity
  8
0
 62
     3
100
AcDbCircle
 10
357.95283278
 20
40.25735659
 30
0.0
 40
2.0
100
AcDbArc
 50
270.0
 51
0.0
  0
ARC
  5
ED
330
6B
100
AcDbEntity
  8
0
 62
     3
100
AcDbCircle
 10
351.95283278
 20
40.25735659
 30
0.0
 40
2.0
100
AcDbArc
 50
180.0
 51
270.0
  0
ARC
  5
EE
330
6B
100
AcDbEntity
  8
0
 62
     3
100
AcDbCircle
 10
324.19839013
 20
52.31136173
 30
0.0
 40
3.33556387
100
AcDbArc
 50
235.21827033
 51
317.19122497
  0
ARC
  5
EF
330
6B
100
AcDbEntity
  8
0
 62
     3
100
AcDbCircle
 10
322.9801541
 20
50.55735658999999
 30
0.0
 40
1.199999999999999
100
AcDbArc
 50
90.0
 51
235.21827033
  0
LINE
  5
F0
330
6B
100
AcDbEntity
  8
0
 62
     3
100
AcDbLine
 10
326.77863293
 20
50.45735659
 30
0.0
 11
326.77863293
 21
50.3844439
 31
0.0
  0
ARC
  5
F1
330
6B
100
AcDbEntity
  8
0
 62
     3
100
AcDbCircle
 10
327.27863293
 20
50.45735659
 30
0.0
 40
0.5
100
AcDbArc
 50
90.0
 51
180.0
  0
ARC
  5
F2
330
6B
100
AcDbEntity
  8
0
 62
     3
100
AcDbCircle
 10
326.27863293
 20
50.3844439
 30
0.0
 40
0.5
100
AcDbArc
 50
317.19122497
 51
0.0
  0
ARC
  5
F3
330
6B
100
AcDbEntity
  8
0
 62
     7
100
AcDbCircle
 10
365.05283278
 20
47.25735659
 30
0.0
 40
1.5
100
AcDbArc
 50
180.0
 51
0.0
  0
CIRCLE
  5
F4
330
6B
100
AcDbEntity
  8
0
 62
     3
100
AcDbCircle
 10
365.05283278
 20
47.25735659
 30
0.0
 40
1.0
  0
LINE
  5
F5
330
6B
100
AcDbEntity
  8
0
 62
     7
100
AcDbLine
 10
366.55283278
 20
47.25735659
 30
0.0
 11
366.55283278
 21
48.75735659
 31
0.0
  0
LINE
  5
F6
330
6B
100
AcDbEntity
  8
0
 62
     3
100
AcDbLine
 10
363.55283278
 20
47.25735659
 30
0.0
 11
363.55283278
 21
48.75735659
 31
0.0
  0
LINE
  5
F7
330
6B
100
AcDbEntity
  8
0
 62
     3
100
AcDbLine
 10
382.35283278
 20
38.20735659
 30
0.0
 11
382.35283278
 21
46.70735659
 31
0.0
  0
LINE
  5
F8
330
6B
100
AcDbEntity
  8
0
 62
     3
100
AcDbLine
 10
362.55283278
 20
36.15735659
 30
0.0
 11
362.55283278
 21
48.75735659
 31
0.0
  0
LINE
  5
F9
330
6B
100
AcDbEntity
  8
0
 62
     3
100
AcDbLine
 10
367.86341803
 20
35.80735659
 30
0.0
 11
367.85283278
 21
35.81794185
 31
0.0
  0
LINE
  5
FA
330
6B
100
AcDbEntity
  8
0
 62
     7
100
AcDbLine
 10
370.69184515
 20
35.80735659
 30
0.0
 11
367.85283278
 21
38.64636897
 31
0.0
  0
LINE
  5
FB
330
6B
100
AcDbEntity
  8
0
 62
     7
100
AcDbLine
 10
373.52027228
 20
35.80735659
 30
0.0
 11
367.85283278
 21
41.47479609
 31
0.0
  0
LINE
  5
FC
330
6B
100
AcDbEntity
  8
0
 62
     7
100
AcDbLine
 10
376.3486994
 20
35.80735659
 30
0.0
 11
367.85283278
 21
44.30322322
 31
0.0
  0
LINE
  5
FD
330
6B
100
AcDbEntity
  8
0
 62
     7
100
AcDbLine
 10
379.17712653
 20
35.80735659
 30
0.0
 11
367.85283278
 21
47.13165034
 31
0.0
  0
LINE
  5
FE
330
6B
100
AcDbEntity
  8
0
 62
     7
100
AcDbLine
 10
380.35283278
 20
37.46007747
 30
0.0
 11
368.70555365
 21
49.10735659
 31
0.0
  0
LINE
  5
FF
330
6B
100
AcDbEntity
  8
0
 62
     7
100
AcDbLine
 10
380.35283278
 20
40.28850459
 30
0.0
 11
371.53398078
 21
49.10735659
 31
0.0
  0
LINE
  5
100
330
6B
100
AcDbEntity
  8
0
 62
     7
100
AcDbLine
 10
380.35283278
 20
43.11693172
 30
0.0
 11
374.3624079
 21
49.10735659
 31
0.0
  0
LINE
  5
101
330
6B
100
AcDbEntity
  8
0
 62
     7
100
AcDbLine
 10
380.35283278
 20
45.94535883999999
 30
0.0
 11
377.19083503
 21
49.10735659
 31
0.0
  0
LINE
  5
102
330
6B
100
AcDbEntity
  8
0
 62
     3
100
AcDbLine
 10
380.30423364
 20
48.8223851
 30
0.0
 11
380.06786129
 21
49.05875746
 31
0.0
  0
LINE
  5
103
330
6B
100
AcDbEntity
  8
0
 62
     7
100
AcDbLine
 10
379.08366755
 20
35.80735659
 30
0.0
 11
380.35283278
 21
37.07652182
 31
0.0
  0
LINE
  5
104
330
6B
100
AcDbEntity
  8
0
 62
     7
100
AcDbLine
 10
376.25524043
 20
35.80735659
 30
0.0
 11
380.35283278
 21
39.90494894
 31
0.0
  0
LINE
  5
105
330
6B
100
AcDbEntity
  8
0
 62
     7
100
AcDbLine
 10
373.4268133
 20
35.80735659
 30
0.0
 11
380.35283278
 21
42.73337607
 31
0.0
  0
LINE
  5
106
330
6B
100
AcDbEntity
  8
0
 62
     7
100
AcDbLine
 10
370.59838618
 20
35.80735659
 30
0.0
 11
380.35283278
 21
45.56180319
 31
0.0
  0
LINE
  5
107
330
6B
100
AcDbEntity
  8
0
 62
     7
100
AcDbLine
 10
367.85283278
 20
35.89023032
 30
0.0
 11
380.35283278
 21
48.39023032
 31
0.0
  0
LINE
  5
108
330
6B
100
AcDbEntity
  8
0
 62
     7
100
AcDbLine
 10
367.85283278
 20
38.71865744
 30
0.0
 11
378.24153193
 21
49.10735659
 31
0.0
  0
LINE
  5
109
330
6B
100
AcDbEntity
  8
0
 62
     7
100
AcDbLine
 10
367.85283278
 20
41.54708457
 30
0.0
 11
375.4131048
 21
49.10735659
 31
0.0
  0
LINE
  5
10A
330
6B
100
AcDbEntity
  8
0
 62
     7
100
AcDbLine
 10
367.85283278
 20
44.37551169
 30
0.0
 11
372.58467768
 21
49.10735659
 31
0.0
  0
LINE
  5
10B
330
6B
100
AcDbEntity
  8
0
 62
     7
100
AcDbLine
 10
367.85283278
 20
47.20393881999998
 30
0.0
 11
369.75625055
 21
49.10735659
 31
0.0
  0
LINE
  5
10C
330
6B
100
AcDbEntity
  8
0
 62
     7
100
AcDbLine
 10
365.29153193
 20
36.15735659
 30
0.0
 11
367.55283278
 21
38.41865744
 31
0.0
  0
LINE
  5
10D
330
6B
100
AcDbEntity
  8
0
 62
     7
100
AcDbLine
 10
362.55283278
 20
36.24708457
 30
0.0
 11
367.55283278
 21
41.24708456999999
 31
0.0
  0
LINE
  5
10E
330
6B
100
AcDbEntity
  8
0
 62
     7
100
AcDbLine
 10
362.55283278
 20
39.07551169
 30
0.0
 11
367.55283278
 21
44.07551169
 31
0.0
  0
LINE
  5
10F
330
6B
100
AcDbEntity
  8
0
 62
     7
100
AcDbLine
 10
362.55283278
 20
41.90393882
 30
0.0
 11
367.55283278
 21
46.90393882
 31
0.0
  0
LINE
  5
110
330
6B
100
AcDbEntity
  8
0
 62
     7
100
AcDbLine
 10
362.55283278
 20
44.73236594
 30
0.0
 11
364.00474154
 21
46.1842747
 31
0.0
  0
LINE
  5
111
330
6B
100
AcDbEntity
  8
0
 62
     3
100
AcDbLine
 10
366.55283278
 20
48.73236594
 30
0.0
 11
366.57782343
 21
48.75735659
 31
0.0
  0
LINE
  5
112
330
6B
100
AcDbEntity
  8
0
 62
     7
100
AcDbLine
 10
362.55283278
 20
47.56079307
 30
0.0
 11
363.55283278
 21
48.56079307
 31
0.0
  0
LINE
  5
113
330
6B
100
AcDbEntity
  8
0
 62
     7
100
AcDbLine
 10
364.68499091
 20
36.15735659
 30
0.0
 11
362.55283278
 21
38.28951472
 31
0.0
  0
LINE
  5
114
330
6B
100
AcDbEntity
  8
0
 62
     7
100
AcDbLine
 10
367.51341803
 20
36.15735659
 30
0.0
 11
362.55283278
 21
41.11794184999999
 31
0.0
  0
LINE
  5
115
330
6B
100
AcDbEntity
  8
0
 62
     7
100
AcDbLine
 10
367.55283278
 20
38.94636897
 30
0.0
 11
362.55283278
 21
43.94636897
 31
0.0
  0
LINE
  5
116
330
6B
100
AcDbEntity
  8
0
 62
     7
100
AcDbLine
 10
367.55283278
 20
41.77479609
 30
0.0
 11
362.55283278
 21
46.77479609
 31
0.0
  0
LINE
  5
117
330
6B
100
AcDbEntity
  8
0
 62
     7
100
AcDbLine
 10
367.55283278
 20
44.60322321999998
 30
0.0
 11
366.03362276
 21
46.12243324
 31
0.0
  0
LINE
  5
118
330
6B
100
AcDbEntity
  8
0
 62
     7
100
AcDbLine
 10
363.55283278
 20
48.60322322
 30
0.0
 11
363.3986994
 21
48.75735659
 31
0.0
  0
LINE
  5
119
330
6B
100
AcDbEntity
  8
0
 62
     7
100
AcDbLine
 10
367.55283278
 20
47.43165033999999
 30
0.0
 11
366.55283278
 21
48.43165034
 31
0.0
  0
LINE
  5
11A
330
6B
100
AcDbEntity
  8
0
 62
     7
100
AcDbLine
 10
311.29487553
 20
35.80735659
 30
0.0
 11
311.05283278
 21
36.04939935
 31
0.0
  0
LINE
  5
11B
330
6B
100
AcDbEntity
  8
0
 62
     7
100
AcDbLine
 10
314.12330266
 20
35.80735659
 30
0.0
 11
311.05283278
 21
38.87782648
 31
0.0
  0
LINE
  5
11C
330
6B
100
AcDbEntity
  8
0
 62
     7
100
AcDbLine
 10
316.75283278
 20
36.0062536
 30
0.0
 11
311.05283278
 21
41.70625359999998
 31
0.0
  0
LINE
  5
11D
330
6B
100
AcDbEntity
  8
0
 62
     7
100
AcDbLine
 10
316.75283278
 20
38.83468072
 30
0.0
 11
311.05283278
 21
44.53468071999998
 31
0.0
  0
LINE
  5
11E
330
6B
100
AcDbEntity
  8
0
 62
     7
100
AcDbLine
 10
316.75283278
 20
41.66310785
 30
0.0
 11
311.05283278
 21
47.36310784999999
 31
0.0
  0
LINE
  5
11F
330
6B
100
AcDbEntity
  8
0
 62
     7
100
AcDbLine
 10
316.75283278
 20
44.49153497
 30
0.0
 11
312.13701116
 21
49.10735659
 31
0.0
  0
LINE
  5
120
330
6B
100
AcDbEntity
  8
0
 62
     7
100
AcDbLine
 10
316.75283278
 20
47.31996210000001
 30
0.0
 11
314.96543828
 21
49.10735659
 31
0.0
  0
LINE
  5
121
330
6B
100
AcDbEntity
  8
0
 62
     7
100
AcDbLine
 10
314.02984368
 20
35.80735659
 30
0.0
 11
316.75283278
 21
38.53034569
 31
0.0
  0
LINE
  5
122
330
6B
100
AcDbEntity
  8
0
 62
     7
100
AcDbLine
 10
311.20141656
 20
35.80735659
 30
0.0
 11
316.75283278
 21
41.35877280999999
 31
0.0
  0
LINE
  5
123
330
6B
100
AcDbEntity
  8
0
 62
     7
100
AcDbLine
 10
311.05283278
 20
38.48719994000001
 30
0.0
 11
316.75283278
 21
44.18719993999999
 31
0.0
  0
LINE
  5
124
330
6B
100
AcDbEntity
  8
0
 62
     7
100
AcDbLine
 10
311.05283278
 20
41.31562705999999
 30
0.0
 11
316.75283278
 21
47.01562705999999
 31
0.0
  0
LINE
  5
125
330
6B
100
AcDbEntity
  8
0
 62
     7
100
AcDbLine
 10
311.05283278
 20
44.14405419
 30
0.0
 11
316.01613518
 21
49.10735659
 31
0.0
  0
LINE
  5
126
330
6B
100
AcDbEntity
  8
0
 62
     7
100
AcDbLine
 10
311.05283278
 20
46.97248131
 30
0.0
 11
313.18770806
 21
49.10735659
 31
0.0
  0
LINE
  5
127
330
6B
100
AcDbEntity
  8
0
 62
     7
100
AcDbLine
 10
281.03217716
 20
34.95735659000001
 30
0.0
 11
280.35283278
 21
35.63670098
 31
0.0
  0
LINE
  5
128
330
6B
100
AcDbEntity
  8
0
 62
     7
100
AcDbLine
 10
283.86060429
 20
34.95735659000001
 30
0.0
 11
280.35283278
 21
38.4651281
 31
0.0
  0
LINE
  5
129
330
6B
100
AcDbEntity
  8
0
 62
     7
100
AcDbLine
 10
286.68903141
 20
34.95735659000001
 30
0.0
 11
280.35283278
 21
41.29355523
 31
0.0
  0
LINE
  5
12A
330
6B
100
AcDbEntity
  8
0
 62
     7
100
AcDbLine
 10
289.51745854
 20
34.95735659000001
 30
0.0
 11
280.35283278
 21
44.12198235
 31
0.0
  0
LINE
  5
12B
330
6B
100
AcDbEntity
  8
0
 62
     7
100
AcDbLine
 10
292.34588566
 20
34.95735659000001
 30
0.0
 11
280.35283278
 21
46.95040947999999
 31
0.0
  0
LINE
  5
12C
330
6B
100
AcDbEntity
  8
0
 62
     7
100
AcDbLine
 10
295.17431279
 20
34.95735659000001
 30
0.0
 11
280.35283278
 21
49.77883659999999
 31
0.0
  0
LINE
  5
12D
330
6B
100
AcDbEntity
  8
0
 62
     7
100
AcDbLine
 10
296.45283278
 20
36.50726373
 30
0.0
 11
283.00273991
 21
49.95735659000001
 31
0.0
  0
LINE
  5
12E
330
6B
100
AcDbEntity
  8
0
 62
     7
100
AcDbLine
 10
296.45283278
 20
39.33569085
 30
0.0
 11
285.83116704
 21
49.95735659000001
 31
0.0
  0
LINE
  5
12F
330
6B
100
AcDbEntity
  8
0
 62
     7
100
AcDbLine
 10
296.45283278
 20
42.16411798
 30
0.0
 11
288.65959416
 21
49.95735659000001
 31
0.0
  0
LINE
  5
130
330
6B
100
AcDbEntity
  8
0
 62
     7
100
AcDbLine
 10
296.45283278
 20
44.9925451
 30
0.0
 11
291.48802129
 21
49.95735659000001
 31
0.0
  0
LINE
  5
131
330
6B
100
AcDbEntity
  8
0
 62
     7
100
AcDbLine
 10
296.45283278
 20
47.82097223
 30
0.0
 11
294.31644841
 21
49.95735659000001
 31
0.0
  0
LINE
  5
132
330
6B
100
AcDbEntity
  8
0
 62
     3
100
AcDbLine
 10
296.20928094
 20
34.95735659000001
 30
0.0
 11
296.45283278
 21
35.20090844
 31
0.0
  0
LINE
  5
133
330
6B
100
AcDbEntity
  8
0
 62
     7
100
AcDbLine
 10
293.38085381
 20
34.95735659000001
 30
0.0
 11
296.45283278
 21
38.02933556
 31
0.0
  0
LINE
  5
134
330
6B
100
AcDbEntity
  8
0
 62
     7
100
AcDbLine
 10
290.55242669
 20
34.95735659000001
 30
0.0
 11
296.45283278
 21
40.85776269
 31
0.0
  0
LINE
  5
135
330
6B
100
AcDbEntity
  8
0
 62
     7
100
AcDbLine
 10
287.72399956
 20
34.95735659000001
 30
0.0
 11
296.45283278
 21
43.68618981
 31
0.0
  0
LINE
  5
136
330
6B
100
AcDbEntity
  8
0
 62
     7
100
AcDbLine
 10
284.89557244
 20
34.95735659000001
 30
0.0
 11
296.45283278
 21
46.51461694
 31
0.0
  0
LINE
  5
137
330
6B
100
AcDbEntity
  8
0
 62
     7
100
AcDbLine
 10
282.06714531
 20
34.95735659000001
 30
0.0
 11
296.45283278
 21
49.34304405999998
 31
0.0
  0
LINE
  5
138
330
6B
100
AcDbEntity
  8
0
 62
     7
100
AcDbLine
 10
280.35283278
 20
36.07147118
 30
0.0
 11
294.23871819
 21
49.95735659000001
 31
0.0
  0
LINE
  5
139
330
6B
100
AcDbEntity
  8
0
 62
     7
100
AcDbLine
 10
280.35283278
 20
38.89989831
 30
0.0
 11
291.41029106
 21
49.95735659000001
 31
0.0
  0
LINE
  5
13A
330
6B
100
AcDbEntity
  8
0
 62
     7
100
AcDbLine
 10
280.35283278
 20
41.72832543
 30
0.0
 11
288.58186394
 21
49.95735659000001
 31
0.0
  0
LINE
  5
13B
330
6B
100
AcDbEntity
  8
0
 62
     7
100
AcDbLine
 10
280.35283278
 20
44.55675256
 30
0.0
 11
285.75343681
 21
49.95735659000001
 31
0.0
  0
LINE
  5
13C
330
6B
100
AcDbEntity
  8
0
 62
     7
100
AcDbLine
 10
280.35283278
 20
47.38517968
 30
0.0
 11
282.92500969
 21
49.95735659000001
 31
0.0
  0
LINE
  5
13D
330
6B
100
AcDbEntity
  8
0
  6
CENTER
 62
     7
100
AcDbLine
 10
409.6592038199998
 20
26.70735659
 30
0.0
 11
409.6592038199998
 21
58.20735659
 31
0.0
  0
LINE
  5
13E
330
6B
100
AcDbEntity
  8
0
  6
CENTER
 62
     7
100
AcDbLine
 10
393.90920382
 20
42.45735659
 30
0.0
 11
425.40920382
 21
42.45735659
 31
0.0
  0
LINE
  5
13F
330
6B
100
AcDbEntity
  8
0
  6
CENTER
 62
     7
100
AcDbLine
 10
243.98558133
 20
22.58235659
 30
0.0
 11
243.98558133
 21
62.33235659
 31
0.0
  0
LINE
  5
140
330
6B
100
AcDbEntity
  8
0
  6
CENTER
 62
     7
100
AcDbLine
 10
224.11058133
 20
42.45735659
 30
0.0
 11
263.86058133
 21
42.45735659
 31
0.0
  0
LINE
  5
143
330
6B
100
AcDbEntity
  8
0
 62
     3
100
AcDbLine
 10
465.35877367
 20
-56.78550193
 30
0.0
 11
465.35877367
 21
-33.78550193000002
 31
0.0
  0
LINE
  5
145
330
6B
100
AcDbEntity
  8
0
 62
     3
100
AcDbLine
 10
412.30516424
 20
-63.78550193
 30
0.0
 11
412.30516424
 21
-49.78550193
 31
0.0
  0
TEXT
  5
147
330
6B
100
AcDbEntity
  8
0
 62
     3
100
AcDbText
 10
441.36909177
 20
-37.58038586
 30
0.0
 40
2.0
  1
A
 41
0.6999999900000003
100
AcDbText
  0
TEXT
  5
148
330
6B
100
AcDbEntity
  8
0
 62
     3
100
AcDbText
 10
443.90437795
 20
-37.58038586
 30
0.0
 40
2.0
  1
P
 41
0.6999999900000003
100
AcDbText
  0
TEXT
  5
149
330
6B
100
AcDbEntity
  8
0
 62
     3
100
AcDbText
 10
446.4396641399998
 20
-37.58038586
 30
0.0
 40
2.0
  1
P
 41
0.6999999900000003
100
AcDbText
  0
TEXT
  5
14A
330
6B
100
AcDbEntity
  8
0
 62
     3
100
AcDbText
 10
448.97495033
 20
-37.58038586
 30
0.0
 40
2.0
  1
D
 41
0.6999999900000003
100
AcDbText
  0
TEXT
  5
14B
330
6B
100
AcDbEntity
  8
0
 62
     3
100
AcDbText
 10
454.34363357
 20
-37.58038586
 30
0.0
 40
2.0
  1
C
 41
0.6999999900000003
100
AcDbText
  0
TEXT
  5
14C
330
6B
100
AcDbEntity
  8
0
 62
     3
100
AcDbText
 10
456.87891975
 20
-37.58038586
 30
0.0
 40
2.0
  1
H
 41
0.6999999900000003
100
AcDbText
  0
TEXT
  5
14D
330
6B
100
AcDbEntity
  8
0
 62
     3
100
AcDbText
 10
459.41420594
 20
-37.58038586
 30
0.0
 40
2.0
  1
C
 41
0.6999999900000003
100
AcDbText
  0
TEXT
  5
14E
330
6B
100
AcDbEntity
  8
0
 62
     3
100
AcDbText
 10
461.94949213
 20
-37.58038586
 30
0.0
 40
2.0
  1
K
 41
0.6999999900000003
100
AcDbText
  0
TEXT
  5
14F
330
6B
100
AcDbEntity
  8
0
 62
     3
100
AcDbText
 10
467.6234587
 20
-37.58038586
 30
0.0
 40
2.0
  1
DESN
 41
1.216762539999999
100
AcDbText
  0
TEXT
  5
150
330
6B
100
AcDbEntity
  8
0
 62
     3
100
AcDbText
 10
382.61709997
 20
-66.92688372
 30
0.0
 40
2.0
  1
NICHIDO IND.CO.LTD
 41
1.27487637
100
AcDbText
  0
LINE
  5
151
330
6B
100
AcDbEntity
  8
0
 62
     3
100
AcDbLine
 10
393.00012929
 20
-33.78550193000001
 30
0.0
 11
393.00012929
 21
-56.78550193
 31
0.0
  0
LINE
  5
152
330
6B
100
AcDbEntity
  8
0
 62
     3
100
AcDbLine
 10
439.3587736699999
 20
-33.78550193000001
 30
0.0
 11
439.3587736699998
 21
-73.45122446000002
 31
0.0
  0
LINE
  5
157
330
6B
100
AcDbEntity
  8
0
 62
     3
100
AcDbLine
 10
452.35877367
 20
-33.78550193000001
 30
0.0
 11
452.35877367
 21
-63.78550193
 31
0.0
  0
TEXT
  5
158
330
6B
100
AcDbEntity
  8
0
 62
     3
100
AcDbText
 10
440.63725691
 20
-62.08024517
 30
0.0
 40
3.200000049999998
  1
作成日
 41
1.01722639
100
AcDbText
  0
LINE
  5
159
330
6B
100
AcDbEntity
  8
0
 62
     3
100
AcDbLine
 10
491.05813715
 20
-33.78550193000001
 30
0.0
 11
379.75469465
 21
-33.78550193000001
 31
0.0
  0
LINE
  5
15A
330
6B
100
AcDbEntity
  8
0
 62
     3
100
AcDbLine
 10
491.05813715
 20
-42.78550193
 30
0.0
 11
379.75469465
 21
-42.78550193
 31
0.0
  0
LINE
  5
15B
330
6B
100
AcDbEntity
  8
0
 62
     3
100
AcDbLine
 10
491.05813715
 20
-56.78550193
 30
0.0
 11
379.75469465
 21
-56.78550193
 31
0.0
  0
LINE
  5
15C
330
6B
100
AcDbEntity
  8
0
 62
     3
100
AcDbLine
 10
491.05813715
 20
-63.78550193
 30
0.0
 11
379.75469465
 21
-63.78550193
 31
0.0
  0
LINE
  5
15D
330
6B
100
AcDbEntity
  8
0
 62
     3
100
AcDbLine
 10
478.35877367
 20
-56.78550193
 30
0.0
 11
478.35877367
 21
-33.78550193000001
 31
0.0
  0
TEXT
  5
15E
330
6B
100
AcDbEntity
  8
0
 62
     3
100
AcDbText
 10
481.68257697
 20
-37.49456736
 30
0.0
 40
1.799999949999999
  1
D
 41
0.66666671
100
AcDbText
  0
TEXT
  5
15F
330
6B
100
AcDbEntity
  8
0
 62
     3
100
AcDbText
 10
484.49920519
 20
-37.49456736
 30
0.0
 40
1.799999949999999
  1
E
 41
0.66666671
100
AcDbText
  0
TEXT
  5
160
330
6B
100
AcDbEntity
  8
0
 62
     3
100
AcDbText
 10
487.31583341
 20
-37.49456736
 30
0.0
 40
1.799999949999999
  1
F
 41
0.66666671
100
AcDbText
  0
TEXT
  5
161
330
6B
100
AcDbEntity
  8
0
 62
     3
100
AcDbText
 10
481.68257697
 20
-41.48712067
 30
0.0
 40
3.200000049999998
  1
製図
 41
1.076368849999999
100
AcDbText
  0
LINE
  5
162
330
6B
100
AcDbEntity
  8
0
 62
     3
100
AcDbLine
 10
379.75469465
 20
-33.78550193000001
 30
0.0
 11
379.75469465
 21
-73.45122446000002
 31
0.0
  0
LINE
  5
163
330
6B
100
AcDbEntity
  8
0
 62
     3
100
AcDbLine
 10
439.3587736699998
 20
-49.78550193
 30
0.0
 11
379.75469465
 21
-49.78550193
 31
0.0
  0
TEXT
  5
164
330
6B
100
AcDbEntity
  8
0
 62
     3
100
AcDbText
 10
381.13134751
 20
-73.11875898
 30
0.0
 40
5.0
  1
日動工業株式会社
 41
0.8333333299999999
100
AcDbText
  0
LINE
  5
165
330
6B
100
AcDbEntity
  8
0
 62
     3
100
AcDbLine
 10
422.6370986
 20
-49.78550193
 30
0.0
 11
422.6370986
 21
-73.45122446000002
 31
0.0
  0
LINE
  5
166
330
6B
100
AcDbEntity
  8
0
 62
     3
100
AcDbLine
 10
422.6370986
 20
-68.6183632
 30
0.0
 11
439.3587736699998
 21
-68.6183632
 31
0.0
  0
TEXT
  5
167
330
6B
100
AcDbEntity
  8
0
 62
     3
100
AcDbText
 10
423.22370054
 20
-67.80193259
 30
0.0
 40
3.200000049999998
  1
出図コード
 41
0.8356862900000001
100
AcDbText
  0
TEXT
  5
168
330
6B
100
AcDbEntity
  8
0
 62
     3
100
AcDbText
 10
423.22370054
 20
-72.63479385
 30
0.0
 40
3.200000049999998
  1
HM-A4
 41
0.9994264499999999
100
AcDbText
  0
LINE
  5
17A
330
6B
100
AcDbEntity
  8
0
 62
     3
100
AcDbLine
 10
352.42954279
 20
119.01476718
 30
0.0
 11
352.42954279
 21
117.76620807
 31
0.0
  0
LINE
  5
180
330
6B
100
AcDbEntity
  8
0
 62
     3
100
AcDbLine
 10
213.92954279
 20
106.54214987
 30
0.0
 11
213.92954279
 21
-73.45785013
 31
0.0
  0
LINE
  5
181
330
6B
100
AcDbEntity
  8
0
 62
     3
100
AcDbLine
 10
490.92954279
 20
-73.45785013
 30
0.0
 11
490.92954279
 21
106.54214987
 31
0.0
  0
LINE
  5
182
330
6B
100
AcDbEntity
  8
0
 62
     3
100
AcDbLine
 10
213.92954279
 20
-73.45785013
 30
0.0
 11
490.92954279
 21
-73.45785013
 31
0.0
  0
LINE
  5
183
330
6B
100
AcDbEntity
  8
0
 62
     3
100
AcDbLine
 10
213.92954279
 20
106.54214987
 30
0.0
 11
490.92954279
 21
106.54214987
 31
0.0
  0
TEXT
  5
184
330
6B
100
AcDbEntity
  8
0
 62
     3
100
AcDbText
 10
381.57209161
 20
-37.61597613
 30
0.0
 40
2.0
  1
CONPONENTS
 41
0.53316033
100
AcDbText
  0
TEXT
  5
185
330
6B
100
AcDbEntity
  8
0
 62
     3
100
AcDbText
 10
381.22236499
 20
-56.54815292
 30
0.0
 40
3.0
  1
材
 41
0.8333333299999999
100
AcDbText
  0
TEXT
  5
186
330
6B
100
AcDbEntity
  8
0
 62
     3
100
AcDbText
 10
388.75800762
 20
-56.54815292
 30
0.0
 40
3.0
  1
質
 41
0.8333333299999999
100
AcDbText
  0
TEXT
  5
187
330
6B
100
AcDbEntity
  8
0
 62
     3
100
AcDbText
 10
381.31043561
 20
-45.92362829999999
 30
0.0
 40
2.0
  1
MODEL
 41
1.031073209999997
100
AcDbText
  0
TEXT
  5
188
330
6B
100
AcDbEntity
  8
0
 62
     3
100
AcDbText
 10
381.22236499
 20
-52.86584472
 30
0.0
 40
2.0
  1
MATERIAL
 41
0.65927843
100
AcDbText
  0
TEXT
  5
189
330
6B
100
AcDbEntity
  8
0
 62
     3
100
AcDbText
 10
412.5296453499998
 20
-56.54815292
 30
0.0
 40
3.0
  1
備
 41
0.8333333299999999
100
AcDbText
  0
TEXT
  5
18A
330
6B
100
AcDbEntity
  8
0
 62
     3
100
AcDbText
 10
419.26264706
 20
-56.54815292
 30
0.0
 40
3.0
  1
考
 41
0.8333333299999999
100
AcDbText
  0
TEXT
  5
18B
330
6B
100
AcDbEntity
  8
0
 62
     3
100
AcDbText
 10
412.8657646059648
 20
-52.86584472
 30
0.0
 40
2.0
  1
REMARKS
 41
0.6757942400000001
100
AcDbText
  0
TEXT
  5
18C
330
6B
100
AcDbEntity
  8
0
 62
     3
100
AcDbText
 10
382.81209396
 20
-59.78596533000001
 30
0.0
 40
2.0
  1
3AD
 41
1.42613983
100
AcDbText
  0
TEXT
  5
18D
330
6B
100
AcDbEntity
  8
0
 62
     3
100
AcDbText
 10
392.12307366
 20
-59.62023176999998
 30
0.0
 40
2.0
  1
ANGLE
 41
1.66988373
100
AcDbText
  0
TEXT
  5
18E
330
6B
100
AcDbEntity
  8
0
 62
     3
100
AcDbText
 10
413.05696076
 20
-59.99707266
 30
0.0
 40
2.0
  1
SCALE
 41
0.7719631200000002
100
AcDbText
  0
TEXT
  5
18F
330
6B
100
AcDbEntity
  8
0
 62
     3
100
AcDbText
 10
382.49822374
 20
-63.78550193
 30
0.0
 40
3.0
  1
第
 41
0.8333333299999999
100
AcDbText
  0
TEXT
  5
190
330
6B
100
AcDbEntity
  8
0
 62
     3
100
AcDbText
 10
390.28507372
 20
-63.78550193
 30
0.0
 40
3.0
  1
三
 41
0.8333333299999999
100
AcDbText
  0
TEXT
  5
191
330
6B
100
AcDbEntity
  8
0
 62
     3
100
AcDbText
 10
398.07192369
 20
-63.78550193
 30
0.0
 40
3.0
  1
角
 41
0.8333333299999999
100
AcDbText
  0
TEXT
  5
192
330
6B
100
AcDbEntity
  8
0
 62
     3
100
AcDbText
 10
405.8587736699998
 20
-63.78550193
 30
0.0
 40
3.0
  1
法
 41
0.8333333299999999
100
AcDbText
  0
TEXT
  5
193
330
6B
100
AcDbEntity
  8
0
 62
     3
100
AcDbText
 10
412.92016571
 20
-63.49707266
 30
0.0
 40
3.0
  1
尺
 41
0.8333333299999999
100
AcDbText
  0
TEXT
  5
194
330
6B
100
AcDbEntity
  8
0
 62
     3
100
AcDbText
 10
419.65316742
 20
-63.49707266
 30
0.0
 40
3.0
  1
度
 41
0.8333333299999999
100
AcDbText
  0
TEXT
  5
195
330
6B
100
AcDbEntity
  8
0
 62
     3
100
AcDbText
 10
442.23643789
 20
-41.32777298999999
 30
0.0
 40
3.0
  1
承認
 41
1.0894733
100
AcDbText
  0
TEXT
  5
196
330
6B
100
AcDbEntity
  8
0
 62
     3
100
AcDbText
 10
455.4793180999998
 20
-41.38550192999999
 30
0.0
 40
3.0
  1
検図
 41
0.931761
100
AcDbText
  0
TEXT
  5
197
330
6B
100
AcDbEntity
  8
0
 62
     3
100
AcDbText
 10
468.4797148299998
 20
-41.38550192999999
 30
0.0
 40
3.0
  1
設
 41
0.8333333299999999
100
AcDbText
  0
TEXT
  5
198
330
6B
100
AcDbEntity
  8
0
 62
     3
100
AcDbText
 10
472.9695829999998
 20
-41.38550192999999
 30
0.0
 40
3.0
  1
計
 41
0.8333333299999999
100
AcDbText
  0
TEXT
  5
199
330
6B
100
AcDbEntity
  8
0
 62
     3
100
AcDbText
 10
381.64219811
 20
-41.21294954999997
 30
0.0
 40
3.0
  1
品
 41
0.8333333299999999
100
AcDbText
  0
TEXT
  5
19A
330
6B
100
AcDbEntity
  8
0
 62
     3
100
AcDbText
 10
389.17784026
 20
-41.21294954999997
 30
0.0
 40
3.0
  1
名
 41
0.8333333299999999
100
AcDbText
  0
TEXT
  5
19B
330
6B
100
AcDbEntity
  8
0
 62
     3
100
AcDbText
 10
381.31043561
 20
-49.39120426018426
 30
0.0
 40
3.0
  1
型
 41
0.8333333299999999
100
AcDbText
  0
TEXT
  5
19C
330
6B
100
AcDbEntity
  8
0
 62
     3
100
AcDbText
 10
388.85852607
 20
-49.39120426018426
 30
0.0
 40
3.0
  1
式
 41
0.8333333299999999
100
AcDbText
  0
LINE
  5
19D
330
6B
100
AcDbEntity
  8
0
 62
     3
100
AcDbLine
 10
490.82950665
 20
-27.78550193
 30
0.0
 11
439.3587736699998
 21
-27.78550193
 31
0.0
  0
LINE
  5
19E
330
6B
100
AcDbEntity
  8
0
 62
     3
100
AcDbLine
 10
465.35877367
 20
-33.78550193000001
 30
0.0
 11
465.35877367
 21
-27.78550193
 31
0.0
  0
LINE
  5
19F
330
6B
100
AcDbEntity
  8
0
 62
     3
100
AcDbLine
 10
439.3587736699998
 20
-33.78550193000001
 30
0.0
 11
439.3587736699998
 21
-27.78550193
 31
0.0
  0
TEXT
  5
1A0
330
6B
100
AcDbEntity
  8
0
 62
     3
100
AcDbText
 10
444.7710384216654
 20
-33.22941673
 30
0.0
 40
4.5
  1
コード
  7
高4.5
100
AcDbText
  0
TEXT
  5
1A1
330
6B
100
AcDbEntity
  8
0
 62
     3
100
AcDbText
 10
250.9940470564556
 20
-72.95785012999999
 30
0.0
 40
2.5
  1
　備　　　　　考　
 41
0.8
  7
高2.5
100
AcDbText
  0
TEXT
  5
1A2
330
6B
100
AcDbEntity
  8
0
 62
     3
100
AcDbText
 10
235.1875602907285
 20
-72.95785012999999
 30
0.0
 40
2.5
  1
個数
 41
0.8
  7
高2.5
100
AcDbText
  0
TEXT
  5
1A3
330
6B
100
AcDbEntity
  8
0
 62
     3
100
AcDbText
 10
215.42954279
 20
-72.95785012999999
 30
0.0
 40
2.5
  1
No
 41
0.8
  7
高2.5
100
AcDbText
  0
TEXT
  5
1A4
330
6B
100
AcDbEntity
  8
0
 62
     3
100
AcDbText
 10
215.42954279
 20
-60.8507129925
 30
0.0
 40
2.5
  1
3
 41
0.8
  7
高2.5
100
AcDbText
  0
TEXT
  5
1A5
330
6B
100
AcDbEntity
  8
0
 62
     3
100
AcDbText
 10
215.42954279
 20
-52.8507129925
 30
0.0
 40
2.5
  1
4
 41
0.8
  7
高2.5
100
AcDbText
  0
TEXT
  5
1A6
330
6B
100
AcDbEntity
  8
0
 62
     3
100
AcDbText
 10
215.42954279
 20
-48.85071299249998
 30
0.0
 40
2.5
  1
5
 41
0.8
  7
高2.5
100
AcDbText
  0
TEXT
  5
1A7
330
6B
100
AcDbEntity
  8
0
 62
     3
100
AcDbText
 10
235.1875602907285
 20
-60.8507129925
 30
0.0
 40
2.5
  1
1
 41
0.8
  7
高2.5
100
AcDbText
  0
TEXT
  5
1A8
330
6B
100
AcDbEntity
  8
0
 62
     3
100
AcDbText
 10
215.42954279
 20
-68.85071299249999
 30
0.0
 40
2.5
  1
1
 41
0.8
  7
高2.5
100
AcDbText
  0
TEXT
  5
1A9
330
6B
100
AcDbEntity
  8
0
 62
     3
100
AcDbText
 10
215.42954279
 20
-64.85071299250001
 30
0.0
 40
2.5
  1
2
 41
0.8
  7
高2.5
100
AcDbText
  0
TEXT
  5
1AA
330
6B
100
AcDbEntity
  8
0
 62
     3
100
AcDbText
 10
220.9264842294167
 20
-68.85071299249999
 30
0.0
 40
2.5
  1
ケース本体
 41
0.8
  7
高2.5
100
AcDbText
  0
TEXT
  5
1AB
330
6B
100
AcDbEntity
  8
0
 62
     3
100
AcDbText
 10
235.1875602907285
 20
-52.8507129925
 30
0.0
 40
2.5
  1
1
 41
0.8
  7
高2.5
100
AcDbText
  0
TEXT
  5
1AC
330
6B
100
AcDbEntity
  8
0
 62
     3
100
AcDbText
 10
235.1875602907285
 20
-68.85071299249999
 30
0.0
 40
2.5
  1
1式
 41
0.8
  7
高2.5
100
AcDbText
  0
TEXT
  5
1AD
330
6B
100
AcDbEntity
  8
0
 62
     3
100
AcDbText
 10
241.8902408024959
 20
-52.8507129925
 30
0.0
 40
2.5
  1
-
 41
0.8
  7
高2.5
100
AcDbText
  0
TEXT
  5
1AE
330
6B
100
AcDbEntity
  8
0
 62
     3
100
AcDbText
 10
235.1875602907285
 20
-64.85071299250001
 30
0.0
 40
2.5
  1
1
 41
0.8
  7
高2.5
100
AcDbText
  0
TEXT
  5
1AF
330
6B
100
AcDbEntity
  8
0
 62
     3
100
AcDbText
 10
241.8902408024959
 20
-60.8507129925
 30
0.0
 40
2.5
  1
-
 41
0.8
  7
高2.5
100
AcDbText
  0
CIRCLE
  5
1B0
330
6B
100
AcDbEntity
  8
0
 62
     7
100
AcDbCircle
 10
363.20143694
 20
16.34181264
 30
0.0
 40
5.0
  0
TEXT
  5
1B1
330
6B
100
AcDbEntity
  8
0
 62
     4
100
AcDbText
 10
360.9664839021828
 20
12.85090354
 30
0.0
 40
6.299999999999998
  1
3
  7
高6.3
100
AcDbText
  0
TEXT
  5
1B2
330
6B
100
AcDbEntity
  8
0
 62
     3
100
AcDbText
 10
220.9264842294167
 20
-64.85071299250001
 30
0.0
 40
2.5
  1
電池蓋
 41
0.8
  7
高2.5
100
AcDbText
  0
TEXT
  5
1B3
330
6B
100
AcDbEntity
  8
0
 62
     3
100
AcDbText
 10
220.9264842294166
 20
-60.8507129925
 30
0.0
 40
2.5
  1
電池
 41
0.8
  7
高2.5
100
AcDbText
  0
TEXT
  5
1B4
330
6B
100
AcDbEntity
  8
0
 62
     3
100
AcDbText
 10
220.9264842294166
 20
-52.8507129925
 30
0.0
 40
2.5
  1
LED
 41
0.8
  7
高2.5
100
AcDbText
  0
TEXT
  5
1B5
330
6B
100
AcDbEntity
  8
0
 62
     3
100
AcDbText
 10
220.9264842294166
 20
-48.85071299249998
 30
0.0
 40
2.5
  1
スイッチ
 41
0.8
  7
高2.5
100
AcDbText
  0
TEXT
  5
1B6
330
6B
100
AcDbEntity
  8
0
 62
     3
100
AcDbText
 10
241.8902408024959
 20
-68.85071299249999
 30
0.0
 40
2.5
  1
アルミ
 41
0.8
  7
高2.5
100
AcDbText
  0
TEXT
  5
1B7
330
6B
100
AcDbEntity
  8
0
 62
     3
100
AcDbText
 10
241.8902408024959
 20
-64.85071299250001
 30
0.0
 40
2.5
  1
アルミ
 41
0.8
  7
高2.5
100
AcDbText
  0
TEXT
  5
1B8
330
6B
100
AcDbEntity
  8
0
 62
     3
100
AcDbText
 10
220.9264842294167
 20
-72.95785012999999
 30
0.0
 40
2.5
  1
部　品　名
 41
0.8
  7
高2.5
100
AcDbText
  0
TEXT
  5
1B9
330
6B
100
AcDbEntity
  8
0
 62
     3
100
AcDbText
 10
241.8902408024959
 20
-72.95785012999999
 30
0.0
 40
2.5
  1
材　質
 41
0.8
  7
高2.5
100
AcDbText
  0
TEXT
  5
1BA
330
6B
100
AcDbEntity
  8
0
 62
     3
100
AcDbText
 10
411.2362289616091
 20
11.57107547942094
 30
0.0
 40
3.2
  1
型　式
  7
高3.2
100
AcDbText
  0
TEXT
  5
1BB
330
6B
100
AcDbEntity
  8
0
 62
     3
100
AcDbText
 10
411.2362289616091
 20
5.571075479420946
 30
0.0
 40
3.2
  1
電　源
  7
高3.2
100
AcDbText
  0
TEXT
  5
1BC
330
6B
100
AcDbEntity
  8
0
 62
     3
100
AcDbText
 10
411.2362289616091
 20
-0.4289245205790543
 30
0.0
 40
3.2
  1
連続点灯
  7
高3.2
100
AcDbText
  0
TEXT
  5
1BD
330
6B
100
AcDbEntity
  8
0
 62
     3
100
AcDbText
 10
411.2362289616091
 20
-12.42892452057905
 30
0.0
 40
3.2
  1
照射角
  7
高3.2
100
AcDbText
  0
LINE
  5
1BE
330
6B
100
AcDbEntity
  8
0
 62
     3
100
AcDbLine
 10
409.8436382216091
 20
22.92143594
 30
0.0
 11
471.1372224796114
 21
22.92143594
 31
0.0
  0
LINE
  5
1BF
330
6B
100
AcDbEntity
  8
0
 62
     3
100
AcDbLine
 10
409.8436382216091
 20
16.92143594
 30
0.0
 11
471.1372224796114
 21
16.92143593999999
 31
0.0
  0
LINE
  5
1C0
330
6B
100
AcDbEntity
  8
0
 62
     3
100
AcDbLine
 10
409.8436382216091
 20
-19.07856406
 30
0.0
 11
471.1372224796114
 21
-19.07856406
 31
0.0
  0
LINE
  5
1C1
330
6B
100
AcDbEntity
  8
0
100
AcDbLine
 10
409.8436382216091
 20
4.92143594
 30
0.0
 11
471.1372224796114
 21
4.92143594
 31
0.0
  0
LINE
  5
1C2
330
6B
100
AcDbEntity
  8
0
100
AcDbLine
 10
409.8436382216091
 20
-1.078564059999999
 30
0.0
 11
471.1372224796114
 21
-1.078564059999999
 31
0.0
  0
LINE
  5
1C3
330
6B
100
AcDbEntity
  8
0
100
AcDbLine
 10
409.8436382216091
 20
10.92143594
 30
0.0
 11
471.1372224796114
 21
10.92143594
 31
0.0
  0
TEXT
  5
1C4
330
6B
100
AcDbEntity
  8
0
 62
     3
100
AcDbText
 10
411.5047862016091
 20
-18.42892452057905
 30
0.0
 40
3.2
  1
質　量
  7
高3.2
100
AcDbText
  0
TEXT
  5
1C5
330
6B
100
AcDbEntity
  8
0
 62
     3
100
AcDbText
 10
411.2362289616091
 20
-6.428924520579053
 30
0.0
 40
3.2
  1
出　力
  7
高3.2
100
AcDbText
  0
LINE
  5
1C6
330
6B
100
AcDbEntity
  8
0
 62
     3
100
AcDbLine
 10
409.8436382216091
 20
22.92143594
 30
0.0
 11
409.8436382216091
 21
-19.07856406
 31
0.0
  0
LINE
  5
1C7
330
6B
100
AcDbEntity
  8
0
 62
     3
100
AcDbLine
 10
471.1372224796114
 20
-19.07856406
 30
0.0
 11
471.1372224796114
 21
22.92143594
 31
0.0
  0
LINE
  5
1C8
330
6B
100
AcDbEntity
  8
0
100
AcDbLine
 10
427.20183261
 20
16.92143594
 30
0.0
 11
427.20183261
 21
-19.07856406
 31
0.0
  0
TEXT
  5
1C9
330
6B
100
AcDbEntity
  8
0
 62
     3
100
AcDbText
 10
434.1814480788072
 20
17.62501708
 30
0.0
 40
4.5
  1
主仕様
 41
0.8333333299999999
100
AcDbText
  0
TEXT
  5
1CA
330
6B
100
AcDbEntity
  8
0
 62
     3
100
AcDbText
 10
396.306155456762
 20
-41.09109862025002
 30
0.0
 40
4.5
  1
スーパーLEDライト
 41
0.8
  7
高4.5
100
AcDbText
  0
TEXT
  5
1CB
330
6B
100
AcDbEntity
  8
0
 62
     3
100
AcDbText
 10
426.21119397
 20
-62.59263584
 30
0.0
 40
3.2
  1
1/1
  7
高3.2
100
AcDbText
  0
LINE
  5
1CC
330
6B
100
AcDbEntity
  8
0
100
AcDbLine
 10
409.8436382216091
 20
-7.078564059999997
 30
0.0
 11
471.1372224796114
 21
-7.078564059999997
 31
0.0
  0
LINE
  5
1CD
330
6B
100
AcDbEntity
  8
0
100
AcDbLine
 10
409.8436382216091
 20
-13.07856406
 30
0.0
 11
471.1372224796114
 21
-13.07856406
 31
0.0
  0
TEXT
  5
1CE
330
6B
100
AcDbEntity
  8
0
 62
     3
100
AcDbText
 10
235.1875602907285
 20
-48.85071299249998
 30
0.0
 40
2.5
  1
1
 41
0.8
  7
高2.5
100
AcDbText
  0
LINE
  5
1CF
330
6B
100
AcDbEntity
  8
0
100
AcDbLine
 10
213.92954279
 20
-65.35071299250001
 30
0.0
 11
346.8187470946617
 21
-65.35071299250002
 31
0.0
  0
LINE
  5
1D0
330
6B
100
AcDbEntity
  8
0
100
AcDbLine
 10
213.92954279
 20
-61.3507129925
 30
0.0
 11
346.8187470946617
 21
-61.35071299249999
 31
0.0
  0
LINE
  5
1D1
330
6B
100
AcDbEntity
  8
0
100
AcDbLine
 10
213.92954279
 20
-53.3507129925
 30
0.0
 11
346.8187470946617
 21
-53.3507129925
 31
0.0
  0
LINE
  5
1D2
330
6B
100
AcDbEntity
  8
0
100
AcDbLine
 10
213.92954279
 20
-49.35071299249997
 30
0.0
 11
346.8187470946617
 21
-49.35071299249997
 31
0.0
  0
LINE
  5
1D3
330
6B
100
AcDbEntity
  8
0
 62
     3
100
AcDbLine
 10
213.92954279
 20
-69.35071299249999
 30
0.0
 11
346.8187470946617
 21
-69.35071299249999
 31
0.0
  0
TEXT
  5
1D4
330
6B
100
AcDbEntity
  8
0
 62
     3
100
AcDbText
 10
241.8902408024959
 20
-48.85071299249998
 30
0.0
 40
2.5
  1
-
 41
0.8
  7
高2.5
100
AcDbText
  0
TEXT
  5
1D5
330
6B
100
AcDbEntity
  8
0
 62
     3
100
AcDbText
 10
250.9940470564556
 20
-52.8507129925
 30
0.0
 40
2.5
  1
0.1W
 41
0.8
  7
高2.5
100
AcDbText
  0
TEXT
  5
1D6
330
6B
100
AcDbEntity
  8
0
 62
     3
100
AcDbText
 10
250.9940470564556
 20
-60.8507129925
 30
0.0
 40
2.5
  1
単４形アルカリ乾電池
 41
0.8
  7
高2.5
100
AcDbText
  0
TEXT
  5
1D7
330
6B
100
AcDbEntity
  8
0
 62
     3
100
AcDbText
 10
250.9940470564556
 20
-64.85071299250001
 30
0.0
 40
2.5
  1
アルマイト
 41
0.8
  7
高2.5
100
AcDbText
  0
TEXT
  5
1D8
330
6B
100
AcDbEntity
  8
0
 62
     3
100
AcDbText
 10
250.9940470564556
 20
-68.85071299249999
 30
0.0
 40
2.5
  1
アルマイト
 41
0.8
  7
高2.5
100
AcDbText
  0
TEXT
  5
1D9
330
6B
100
AcDbEntity
  8
0
 62
     3
100
AcDbText
 10
428.70183261
 20
5.421435940000002
 30
0.0
 40
3.2
  1
単4アルカリ乾電池
  7
高3.2
100
AcDbText
  0
TEXT
  5
1DA
330
6B
100
AcDbEntity
  8
0
 62
     3
100
AcDbText
 10
428.70183261
 20
-0.578564059999998
 30
0.0
 40
3.2
  1
20時間以上
  7
高3.2
100
AcDbText
  0
TEXT
  5
1DB
330
6B
100
AcDbEntity
  8
0
 62
     3
100
AcDbText
 10
428.70183261
 20
-6.578564059999997
 30
0.0
 40
3.2
  1
0.1W
  7
高3.2
100
AcDbText
  0
TEXT
  5
1DC
330
6B
100
AcDbEntity
  8
0
 62
     3
100
AcDbText
 10
428.70183261
 20
-12.57856406
 30
0.0
 40
3.2
  1
スポット型
  7
高3.2
100
AcDbText
  0
TEXT
  5
1DD
330
6B
100
AcDbEntity
  8
0
 62
     3
100
AcDbText
 10
241.8902408024959
 20
-44.8507129925
 30
0.0
 40
2.5
  1
-
 41
0.8
  7
高2.5
100
AcDbText
  0
TEXT
  5
1DE
330
6B
100
AcDbEntity
  8
0
 62
     3
100
AcDbText
 10
235.1875602907285
 20
-44.8507129925
 30
0.0
 40
2.5
  1
1
 41
0.8
  7
高2.5
100
AcDbText
  0
LINE
  5
1DF
330
6B
100
AcDbEntity
  8
0
 62
     3
100
AcDbLine
 10
213.92954279
 20
-41.35071299249999
 30
0.0
 11
346.8187470946617
 21
-41.35071299250002
 31
0.0
  0
TEXT
  5
1E0
330
6B
100
AcDbEntity
  8
0
 62
     3
100
AcDbText
 10
215.42954279
 20
-44.8507129925
 30
0.0
 40
2.5
  1
6
 41
0.8
  7
高2.5
100
AcDbText
  0
TEXT
  5
1E1
330
6B
100
AcDbEntity
  8
0
 62
     3
100
AcDbText
 10
220.9264842294166
 20
-44.8507129925
 30
0.0
 40
2.5
  1
クリップ
 41
0.8
  7
高2.5
100
AcDbText
  0
TEXT
  5
1E2
330
6B
100
AcDbEntity
  8
0
 62
     3
100
AcDbText
 10
250.9940470564556
 20
-44.8507129925
 30
0.0
 40
2.5
  1
-
 41
0.8
  7
高2.5
100
AcDbText
  0
LINE
  5
1E3
330
6B
100
AcDbEntity
  8
0
100
AcDbLine
 10
219.4264842294167
 20
-73.45785013
 30
0.0
 11
219.4264842294166
 21
-41.35071299249999
 31
0.0
  0
LINE
  5
1E4
330
6B
100
AcDbEntity
  8
0
100
AcDbLine
 10
275.5005969771801
 20
-73.45785013
 30
0.0
 11
275.5005969771801
 21
-41.35071299249999
 31
0.0
  0
LINE
  5
1E5
330
6B
100
AcDbEntity
  8
0
100
AcDbLine
 10
240.3902408024959
 20
-73.45785013
 30
0.0
 11
240.3902408024959
 21
-41.35071299249999
 31
0.0
  0
LINE
  5
1E6
330
6B
100
AcDbEntity
  8
0
100
AcDbLine
 10
233.6875602907285
 20
-73.45785013
 30
0.0
 11
233.6875602907285
 21
-41.35071299249999
 31
0.0
  0
LINE
  5
1E7
330
6B
100
AcDbEntity
  8
0
100
AcDbLine
 10
249.4940470564556
 20
-73.45785013
 30
0.0
 11
249.4940470564556
 21
-41.35071299249999
 31
0.0
  0
TEXT
  5
1E8
330
6B
100
AcDbEntity
  8
0
 62
     3
100
AcDbText
 10
221.34763600875
 20
-38.66875092212035
 30
0.0
 40
3.2
  1
ハードケース付き
  7
高3.2
100
AcDbText
  0
LINE
  5
1E9
330
6B
100
AcDbEntity
  8
0
100
AcDbLine
 10
213.92954279
 20
-45.3507129925
 30
0.0
 11
346.8187470946617
 21
-45.35071299250001
 31
0.0
  0
TEXT
  5
1EA
330
6B
100
AcDbEntity
  8
0
 62
     3
100
AcDbText
 10
453.05082283
 20
-62.97690867
 30
0.0
 40
3.2
  1
2008.10.10
  7
高3.2
100
AcDbText
  0
LINE
  5
1F6
330
6B
100
AcDbEntity
  8
0
 62
     7
100
AcDbLine
 10
370.69184515
 20
35.80735659
 30
0.0
 11
374.07297183
 21
21.212805
 31
0.0
  0
CIRCLE
  5
1F7
330
6B
100
AcDbEntity
  8
0
 62
     7
100
AcDbCircle
 10
375.20143694
 20
16.34181264
 30
0.0
 40
5.0
  0
TEXT
  5
1F8
330
6B
100
AcDbEntity
  8
0
 62
     4
100
AcDbText
 10
372.9664839021828
 20
12.85090355
 30
0.0
 40
6.299999999999998
  1
2
  7
高6.3
100
AcDbText
  0
LINE
  5
1FE
330
6B
100
AcDbEntity
  8
0
 62
     7
100
AcDbLine
 10
287.72399956
 20
34.95735659000001
 30
0.0
 11
281.66363585
 21
23.18715769
 31
0.0
  0
CIRCLE
  5
1FF
330
6B
100
AcDbEntity
  8
0
 62
     7
100
AcDbCircle
 10
279.37476988
 20
18.74181264
 30
0.0
 40
5.0
  0
TEXT
  5
200
330
6B
100
AcDbEntity
  8
0
 62
     4
100
AcDbText
 10
278.4050929015974
 20
15.50764854050783
 30
0.0
 40
6.299999999999998
  1
1
  7
高6.3
100
AcDbText
  0
LINE
  5
206
330
6B
100
AcDbEntity
  8
0
 62
     7
100
AcDbLine
 10
243.00114907
 20
40.1593372
 30
0.0
 11
233.38702872
 21
17.71651819
 31
0.0
  0
CIRCLE
  5
207
330
6B
100
AcDbEntity
  8
0
 62
     7
100
AcDbCircle
 10
231.4181642
 20
13.12047941
 30
0.0
 40
5.0
  0
TEXT
  5
208
330
6B
100
AcDbEntity
  8
0
 62
     4
100
AcDbText
 10
229.1832111621828
 20
9.62957031
 30
0.0
 40
6.299999999999998
  1
4
  7
高6.3
100
AcDbText
  0
LINE
  5
20E
330
6B
100
AcDbEntity
  8
0
 62
     7
100
AcDbLine
 10
349.03096437
 20
51.25968347
 30
0.0
 11
352.41751308
 21
57.86050720000001
 31
0.0
  0
CIRCLE
  5
20F
330
6B
100
AcDbEntity
  8
0
 62
     7
100
AcDbCircle
 10
354.69990253
 20
62.30918098
 30
0.0
 40
5.0
  0
TEXT
  5
210
330
6B
100
AcDbEntity
  8
0
 62
     4
100
AcDbText
 10
352.4649494921828
 20
58.81827187999999
 30
0.0
 40
6.299999999999998
  1
6
  7
高6.3
100
AcDbText
  0
LINE
  5
216
330
6B
100
AcDbEntity
  8
0
 62
     7
100
AcDbLine
 10
383.32731767
 20
39.32444688
 30
0.0
 11
391.82232207
 21
20.72953553
 31
0.0
  0
CIRCLE
  5
217
330
6B
100
AcDbEntity
  8
0
 62
     7
100
AcDbCircle
 10
393.9000028
 20
16.1816522
 30
0.0
 40
5.0
  0
TEXT
  5
218
330
6B
100
AcDbEntity
  8
0
 62
     4
100
AcDbText
 10
391.6650497621828
 20
12.6907431
 30
0.0
 40
6.299999999999998
  1
5
  7
高6.3
100
AcDbText
  0
TEXT
  5
219
330
6B
100
AcDbEntity
  8
0
 62
     3
100
AcDbText
 10
250.9940470564556
 20
-48.85071299249998
 30
0.0
 40
2.5
  1
プッシュ式
 41
0.8
  7
高2.5
100
AcDbText
  0
TEXT
  5
21A
330
6B
100
AcDbEntity
  8
0
 62
     3
100
AcDbText
 10
428.70183261
 20
-18.57856406
 30
0.0
 40
3.2
  1
約25g（電池含35g）
  7
高3.2
100
AcDbText
  0
TEXT
  5
21B
330
6B
100
AcDbEntity
  8
0
 62
     3
100
AcDbText
 10
469.8483265368756
 20
-33.28714567
 30
0.0
 40
4.5
  1
8897
  7
高4.5
100
AcDbText
  0
TEXT
  5
21C
330
6B
100
AcDbEntity
  8
0
 62
     3
100
AcDbText
 10
441.4731338313123
 20
-72.43979660831422
 30
0.0
 40
6.299999999999998
  1
LED-1P-LC
 41
0.8
  7
高6.3
100
AcDbText
  0
TEXT
  5
21D
330
6B
100
AcDbEntity
  8
0
 62
     3
100
AcDbText
 10
396.758063865709
 20
-48.84457334465945
 30
0.0
 40
4.5
  1
LED-1P-LC
  7
高4.5
100
AcDbText
  0
TEXT
  5
21E
330
6B
100
AcDbEntity
  8
0
 62
     3
100
AcDbText
 10
428.70183261
 20
11.42143594
 30
0.0
 40
3.2
  1
LED-1P-LC
  7
高3.2
100
AcDbText
  0
LINE
  5
21F
330
6B
100
AcDbEntity
  8
0
 62
     3
100
AcDbLine
 10
346.8187470946617
 20
-73.45785013
 30
0.0
 11
346.8187470946617
 21
-41.35071299249998
 31
0.0
  0
TEXT
  5
220
330
6B
100
AcDbEntity
  8
0
 62
     3
100
AcDbText
 10
277.0005969771801
 20
-72.95785012999999
 30
0.0
 40
2.5
  1
コード
 41
0.8
  7
高2.5
100
AcDbText
  0
TEXT
  5
228
330
6B
100
AcDbEntity
  8
0
 62
     3
100
AcDbText
 10
277.0005969771801
 20
-44.8507129925
 30
0.0
 40
2.5
  1
-
 41
0.8
  7
高2.5
100
AcDbText
  0
TEXT
  5
229
330
6B
100
AcDbEntity
  8
0
 62
     3
100
AcDbText
 10
277.0005969771801
 20
-48.85071299249998
 30
0.0
 40
2.5
  1
-
 41
0.8
  7
高2.5
100
AcDbText
  0
TEXT
  5
22A
330
6B
100
AcDbEntity
  8
0
 62
     3
100
AcDbText
 10
277.0005969771801
 20
-52.8507129925
 30
0.0
 40
2.5
  1
-
 41
0.8
  7
高2.5
100
AcDbText
  0
TEXT
  5
22B
330
6B
100
AcDbEntity
  8
0
 62
     3
100
AcDbText
 10
277.0005969771801
 20
-64.85071299250001
 30
0.0
 40
2.5
  1
-
 41
0.8
  7
高2.5
100
AcDbText
  0
TEXT
  5
22C
330
6B
100
AcDbEntity
  8
0
 62
     3
100
AcDbText
 10
277.0005969771801
 20
-68.85071299249999
 30
0.0
 40
2.5
  1
-
 41
0.8
  7
高2.5
100
AcDbText
  0
LINE
  5
438
330
6B
100
AcDbEntity
  8
0
100
AcDbLine
 10
275.5005969771801
 20
-57.35071299249989
 30
0.0
 11
346.8187470946618
 21
-57.35071299250001
 31
0.0
  0
TEXT
  5
439
330
6B
100
AcDbEntity
  8
0
 62
     3
100
AcDbText
 10
277.0005969771801
 20
-60.8507129925
 30
0.0
 40
2.5
  1
12153
 41
0.8
  7
高2.5
100
AcDbText
  0
TEXT
  5
43A
330
6B
100
AcDbEntity
  8
0
 62
     3
100
AcDbText
 10
277.0005969771801
 20
-56.85071299249989
 30
0.0
 40
2.5
  1
12151
 41
0.8
  7
高2.5
100
AcDbText
  0
LINE
  5
43B
330
6B
100
AcDbEntity
  8
0
100
AcDbLine
 10
285.7537783151263
 20
-73.45785013
 30
0.0
 11
285.7537783151263
 21
-41.35071299249999
 31
0.0
  0
TEXT
  5
43C
330
6B
100
AcDbEntity
  8
0
 62
     3
100
AcDbText
 10
287.2537783151263
 20
-72.95785012999999
 30
0.0
 40
2.5
  1
コード番号名称
 41
0.6
  7
高2.5
100
AcDbText
  0
TEXT
  5
43D
330
6B
100
AcDbEntity
  8
0
 62
     3
100
AcDbText
 10
287.2537783151263
 20
-44.85071299250001
 30
0.0
 40
2.5
  1
-
 41
0.6
  7
高2.5
100
AcDbText
  0
TEXT
  5
43E
330
6B
100
AcDbEntity
  8
0
 62
     3
100
AcDbText
 10
287.2537783151263
 20
-48.85071299249998
 30
0.0
 40
2.5
  1
-
 41
0.6
  7
高2.5
100
AcDbText
  0
TEXT
  5
43F
330
6B
100
AcDbEntity
  8
0
 62
     3
100
AcDbText
 10
287.2537783151263
 20
-52.8507129925
 30
0.0
 40
2.5
  1
-
 41
0.6
  7
高2.5
100
AcDbText
  0
TEXT
  5
440
330
6B
100
AcDbEntity
  8
0
 62
     3
100
AcDbText
 10
287.2537783151263
 20
-64.85071299250001
 30
0.0
 40
2.5
  1
-
 41
0.6
  7
高2.5
100
AcDbText
  0
TEXT
  5
441
330
6B
100
AcDbEntity
  8
0
 62
     3
100
AcDbText
 10
287.2537783151263
 20
-68.85071299249999
 30
0.0
 40
2.5
  1
-
 41
0.6
  7
高2.5
100
AcDbText
  0
TEXT
  5
442
330
6B
100
AcDbEntity
  8
0
 62
     3
100
AcDbText
 10
287.2537783151263
 20
-60.8507129925
 30
0.0
 40
2.5
  1
スーパーパーワーアルカリ乾電池単4形2本パック　LR03(2S)AM4
 41
0.6
  7
高2.5
100
AcDbText
  0
TEXT
  5
443
330
6B
100
AcDbEntity
  8
0
 62
     3
100
AcDbText
 10
287.2537783151263
 20
-56.8507129924999
 30
0.0
 40
2.5
  1
スーパーパーワーアルカリ乾電池単4形10本パック　LR03(10S)AM4
 41
0.6
  7
高2.5
100
AcDbText
  0
TEXT
  5
56D
330
6B
100
AcDbEntity
  8
0
 62
     3
100
AcDbText
 10
478.42954279
 20
97.04214987
 30
0.0
 40
3.2
  1
担　当
  7
高3.2
100
AcDbText
  0
TEXT
  5
56E
330
6B
100
AcDbEntity
  8
0
 62
     3
100
AcDbText
 10
434.42954279
 20
97.04214987
 30
0.0
 40
3.2
  1
変更・追記内容
  7
高3.2
100
AcDbText
  0
TEXT
  5
56F
330
6B
100
AcDbEntity
  8
0
 62
     3
100
AcDbText
 10
409.5430577903393
 20
92.37161136009172
 30
0.0
 40
2.0
  1
1
  7
高2
100
AcDbText
  0
TEXT
  5
570
330
6B
100
AcDbEntity
  8
0
 62
     3
100
AcDbText
 10
409.2345463135818
 20
87.20179464781882
 30
0.0
 40
2.0
  1
2
  7
高2
100
AcDbText
  0
TEXT
  5
571
330
6B
100
AcDbEntity
  8
0
 62
     3
100
AcDbText
 10
416.4295427899999
 20
97.04214987
 30
0.0
 40
3.2
  1
日　付
  7
高3.2
100
AcDbText
  0
TEXT
  5
572
330
6B
100
AcDbEntity
  8
0
 62
     3
100
AcDbText
 10
416.4295427899999
 20
102.04214987
 30
0.0
 40
3.2
  1
図　　　　面　　　　略　　　　歴
  7
高3.2
100
AcDbText
  0
TEXT
  5
573
330
6B
100
AcDbEntity
  8
0
 62
     3
100
AcDbText
 10
406.42954279
 20
97.04214987
 30
0.0
 40
3.2
  1
記号
  7
高3.2
100
AcDbText
  0
LINE
  5
574
330
6B
100
AcDbEntity
  8
0
100
AcDbLine
 10
409.92954279
 20
90.33304587000008
 30
0.0
 11
408.02954279
 21
87.04214987
 31
0.0
  0
LINE
  5
575
330
6B
100
AcDbEntity
  8
0
100
AcDbLine
 10
409.92954279
 20
90.33304587000008
 30
0.0
 11
411.8295427899998
 21
87.04214987
 31
0.0
  0
LINE
  5
576
330
6B
100
AcDbEntity
  8
0
100
AcDbLine
 10
408.02954279
 20
87.04214987
 30
0.0
 11
411.8295427899998
 21
87.04214987
 31
0.0
  0
LINE
  5
577
330
6B
100
AcDbEntity
  8
0
100
AcDbLine
 10
409.92954279
 20
95.33304687000008
 30
0.0
 11
408.02954279
 21
92.04214987
 31
0.0
  0
LINE
  5
578
330
6B
100
AcDbEntity
  8
0
100
AcDbLine
 10
409.92954279
 20
95.33304687000008
 30
0.0
 11
411.8295427899998
 21
92.04214987
 31
0.0
  0
LINE
  5
579
330
6B
100
AcDbEntity
  8
0
100
AcDbLine
 10
408.02954279
 20
92.04214987
 30
0.0
 11
411.8295427899998
 21
92.04214987
 31
0.0
  0
LINE
  5
57A
330
6B
100
AcDbEntity
  8
0
 62
     3
100
AcDbLine
 10
404.92954279
 20
101.54214987
 30
0.0
 11
490.92954279
 21
101.54214987
 31
0.0
  0
LINE
  5
57B
330
6B
100
AcDbEntity
  8
0
 62
     3
100
AcDbLine
 10
404.92954279
 20
96.54214987000001
 30
0.0
 11
490.92954279
 21
96.54214987000001
 31
0.0
  0
LINE
  5
57C
330
6B
100
AcDbEntity
  8
0
 62
     7
100
AcDbLine
 10
404.92954279
 20
91.54214987000001
 30
0.0
 11
490.92954279
 21
91.54214987000001
 31
0.0
  0
LINE
  5
57D
330
6B
100
AcDbEntity
  8
0
 62
     3
100
AcDbLine
 10
404.92954279
 20
86.54214987000001
 30
0.0
 11
490.92954279
 21
86.54214987000001
 31
0.0
  0
LINE
  5
57E
330
6B
100
AcDbEntity
  8
0
 62
     7
100
AcDbLine
 10
476.9295427899998
 20
86.54214987000001
 30
0.0
 11
476.92954279
 21
101.54214987
 31
0.0
  0
LINE
  5
57F
330
6B
100
AcDbEntity
  8
0
 62
     7
100
AcDbLine
 10
432.9295427899999
 20
86.54214987000001
 30
0.0
 11
432.9295427899999
 21
101.54214987
 31
0.0
  0
LINE
  5
580
330
6B
100
AcDbEntity
  8
0
 62
     7
100
AcDbLine
 10
414.92954279
 20
86.54214987000001
 30
0.0
 11
414.92954279
 21
101.54214987
 31
0.0
  0
LINE
  5
581
330
6B
100
AcDbEntity
  8
0
 62
     3
100
AcDbLine
 10
404.92954279
 20
86.54214987000001
 30
0.0
 11
404.92954279
 21
106.54214987
 31
0.0
  0
LINE
  5
732
330
6B
100
AcDbEntity
  8
0
 62
     7
100
AcDbLine
 10
384.64583061
 20
37.72797869
 30
0.0
 11
383.32731767
 21
39.32444688
 31
0.0
  0
LINE
  5
733
330
6B
100
AcDbEntity
  8
0
 62
     7
100
AcDbLine
 10
383.32731767
 20
39.32444688
 30
0.0
 11
383.67094931
 21
37.28260841
 31
0.0
  0
LINE
  5
736
330
6B
100
AcDbEntity
  8
0
 62
     7
100
AcDbLine
 10
349.46711273
 20
53.28377874
 30
0.0
 11
349.03096437
 21
51.25968347
 31
0.0
  0
LINE
  5
737
330
6B
100
AcDbEntity
  8
0
 62
     7
100
AcDbLine
 10
349.03096437
 20
51.25968347
 30
0.0
 11
350.42072757
 21
52.79452722
 31
0.0
  0
LINE
  5
738
330
6B
100
AcDbEntity
  8
0
 62
     7
100
AcDbLine
 10
242.7062052
 20
38.10989943
 30
0.0
 11
243.00114907
 21
40.1593372
 31
0.0
  0
LINE
  5
739
330
6B
100
AcDbEntity
  8
0
 62
     7
100
AcDbLine
 10
243.00114907
 20
40.1593372
 30
0.0
 11
241.72100133
 21
38.53194394
 31
0.0
  0
LINE
  5
73A
330
6B
100
AcDbEntity
  8
0
 62
     7
100
AcDbLine
 10
287.28490382
 20
32.93389866
 30
0.0
 11
287.72399956
 21
34.95735659000001
 31
0.0
  0
LINE
  5
73B
330
6B
100
AcDbEntity
  8
0
 62
     7
100
AcDbLine
 10
287.72399956
 20
34.95735659000001
 30
0.0
 11
286.33200253
 21
33.42453849
 31
0.0
  0
LINE
  5
73C
330
6B
100
AcDbEntity
  8
0
 62
     7
100
AcDbLine
 10
371.66530257
 20
33.97990817
 30
0.0
 11
370.69184515
 21
35.80735659
 31
0.0
  0
LINE
  5
73D
330
6B
100
AcDbEntity
  8
0
 62
     7
100
AcDbLine
 10
370.69184515
 20
35.80735659
 30
0.0
 11
370.62115983
 21
33.73801113
 31
0.0
  0
LINE
  5
73E
330
6B
100
AcDbEntity
  8
0
 62
     7
100
AcDbLine
 10
279.15283278
 20
49.20735659
 30
0.0
 11
279.15283278
 21
80.7809297
 31
0.0
  0
LINE
  5
73F
330
6B
100
AcDbEntity
  8
0
 62
     7
100
AcDbLine
 10
384.15283278
 20
42.70735659
 30
0.0
 11
384.15283278
 21
80.7809297
 31
0.0
  0
LINE
  5
740
330
6B
100
AcDbEntity
  8
0
 62
     7
100
AcDbLine
 10
281.65283278
 20
79.5309297
 30
0.0
 11
381.65283278
 21
79.5309297
 31
0.0
  0
LINE
  5
744
330
6B
100
AcDbEntity
  8
0
 62
     7
100
AcDbLine
 10
279.90283278
 20
34.95735659000001
 30
0.0
 11
269.31012383
 21
34.95735659000002
 31
0.0
  0
LINE
  5
745
330
6B
100
AcDbEntity
  8
0
 62
     7
100
AcDbLine
 10
280.10283278
 20
49.95735659000001
 30
0.0
 11
269.31012383
 21
49.95735659000001
 31
0.0
  0
LINE
  5
746
330
6B
100
AcDbEntity
  8
0
 62
     7
100
AcDbLine
 10
270.56012383
 20
37.45735659000002
 30
0.0
 11
270.56012383
 21
47.45735659000001
 31
0.0
  0
TEXT
  5
74A
330
6B
100
AcDbEntity
  8
0
  6
Continuous
 62
     4
100
AcDbText
 10
328.40283278
 20
80.1559297
 30
0.0
 40
3.0
  1
105
100
AcDbText
  0
LINE
  5
74B
330
6B
100
AcDbEntity
  8
0
  6
ByBlock
 62
     0
370
    -2
100
AcDbLine
 10
381.65283278
 20
80.2008022
 30
0.0
 11
384.15283278
 21
79.5309297
 31
0.0
  0
LINE
  5
74C
330
6B
100
AcDbEntity
  8
0
  6
ByBlock
 62
     0
370
    -2
100
AcDbLine
 10
384.15283278
 20
79.5309297
 30
0.0
 11
381.65283278
 21
78.8610572
 31
0.0
  0
LINE
  5
74D
330
6B
100
AcDbEntity
  8
0
  6
ByBlock
 62
     0
370
    -2
100
AcDbLine
 10
384.15283278
 20
79.5309297
 30
0.0
 11
381.65283278
 21
79.5309297
 31
0.0
  0
LINE
  5
74E
330
6B
100
AcDbEntity
  8
0
  6
ByBlock
 62
     0
370
    -2
100
AcDbLine
 10
281.65283278
 20
78.8610572
 30
0.0
 11
279.15283278
 21
79.5309297
 31
0.0
  0
LINE
  5
74F
330
6B
100
AcDbEntity
  8
0
  6
ByBlock
 62
     0
370
    -2
100
AcDbLine
 10
279.15283278
 20
79.5309297
 30
0.0
 11
281.65283278
 21
80.2008022
 31
0.0
  0
LINE
  5
750
330
6B
100
AcDbEntity
  8
0
  6
ByBlock
 62
     0
370
    -2
100
AcDbLine
 10
279.15283278
 20
79.5309297
 30
0.0
 11
281.65283278
 21
79.5309297
 31
0.0
  0
TEXT
  5
751
330
6B
100
AcDbEntity
  8
0
  6
Continuous
 62
     4
100
AcDbText
 10
269.93512383
 20
38.35735659000006
 30
0.0
 40
3.0
  1
\U+03C615
 50
90.0
100
AcDbText
  0
LINE
  5
752
330
6B
100
AcDbEntity
  8
0
  6
ByBlock
 62
     0
370
    -2
100
AcDbLine
 10
269.89025133
 20
47.45735659000001
 30
0.0
 11
270.56012383
 21
49.95735659000001
 31
0.0
  0
LINE
  5
753
330
6B
100
AcDbEntity
  8
0
  6
ByBlock
 62
     0
370
    -2
100
AcDbLine
 10
270.56012383
 20
49.95735659000001
 30
0.0
 11
271.22999633
 21
47.45735659000001
 31
0.0
  0
LINE
  5
754
330
6B
100
AcDbEntity
  8
0
  6
ByBlock
 62
     0
370
    -2
100
AcDbLine
 10
270.56012383
 20
49.95735659000001
 30
0.0
 11
270.56012383
 21
47.45735659000001
 31
0.0
  0
LINE
  5
755
330
6B
100
AcDbEntity
  8
0
  6
ByBlock
 62
     0
370
    -2
100
AcDbLine
 10
271.22999633
 20
37.45735659000002
 30
0.0
 11
270.56012383
 21
34.95735659000002
 31
0.0
  0
LINE
  5
756
330
6B
100
AcDbEntity
  8
0
  6
ByBlock
 62
     0
370
    -2
100
AcDbLine
 10
270.56012383
 20
34.95735659000002
 30
0.0
 11
269.89025133
 21
37.45735659000002
 31
0.0
  0
LINE
  5
757
330
6B
100
AcDbEntity
  8
0
  6
ByBlock
 62
     0
370
    -2
100
AcDbLine
 10
270.56012383
 20
34.95735659000002
 30
0.0
 11
270.56012383
 21
37.45735659000002
 31
0.0
  0
ENDSEC
  0
SECTION
  2
OBJECTS
  0
DICTIONARY
  5
C
330
0
100
AcDbDictionary
281
     1
  3
ACAD_2007HEADERVARS_RT
350
75B
  3
ACAD_COLOR
350
62
  3
ACAD_GROUP
350
D
  3
ACAD_LAYOUT
350
61
  3
ACAD_MATERIAL
350
10
  3
ACAD_MLEADERSTYLE
350
65
  3
ACAD_MLINESTYLE
350
5E
  3
ACAD_PLOTSETTINGS
350
60
  3
ACAD_PLOTSTYLENAME
350
E
  3
ACAD_SCALELIST
350
42
  3
ACAD_TABLESTYLE
350
63
  3
ACAD_VISUALSTYLE
350
29
  3
ACDB_RECOMPOSE_DATA
350
759
  3
AcDbVariableDictionary
350
44A
  3
DWGPROPS
350
75A
  0
DICTIONARY
  5
2D5
330
2
100
AcDbDictionary
280
     1
281
     1
  3
ACAD_LAYERSTATES
360
2D6
  0
DICTIONARY
  5
444
330
54
100
AcDbDictionary
280
     1
281
     1
  3
ADSK_XREC_LAYER_RECONCILED
360
445
  0
DICTIONARY
  5
734
330
6B
100
AcDbDictionary
280
     1
281
     1
  3
ACAD_SORTENTS
360
735
  0
DICTIONARY
  5
75B
102
{ACAD_REACTORS
330
C
102
}
330
C
100
AcDbDictionary
281
     1
  3
DIMARCSYM
350
75D
  3
DIMFXL
350
75C
  3
DIMJOGANG
350
75E
  0
DICTIONARY
  5
62
102
{ACAD_REACTORS
330
C
102
}
330
C
100
AcDbDictionary
281
     1
  0
DICTIONARY
  5
D
102
{ACAD_REACTORS
330
C
102
}
330
C
100
AcDbDictionary
281
     1
  0
DICTIONARY
  5
61
102
{ACAD_REACTORS
330
C
102
}
330
C
100
AcDbDictionary
281
     1
  3
Model
350
6E
  3
レイアウト1
350
6A
  0
DICTIONARY
  5
10
102
{ACAD_REACTORS
330
C
102
}
330
C
100
AcDbDictionary
281
     1
  3
ByBlock
350
19
  3
ByLayer
350
11
  3
Global
350
21
  0
DICTIONARY
  5
65
102
{ACAD_REACTORS
330
C
102
}
330
C
100
AcDbDictionary
281
     1
  3
Standard
350
66
  0
DICTIONARY
  5
5E
102
{ACAD_REACTORS
330
C
102
}
330
C
100
AcDbDictionary
281
     1
  3
Standard
350
5F
  0
DICTIONARY
  5
60
102
{ACAD_REACTORS
330
C
102
}
330
C
100
AcDbDictionary
281
     1
  0
ACDBDICTIONARYWDFLT
  5
E
102
{ACAD_REACTORS
330
C
102
}
330
C
100
AcDbDictionary
281
     1
  3
Normal
350
F
100
AcDbDictionaryWithDefault
340
F
  0
DICTIONARY
  5
42
102
{ACAD_REACTORS
330
C
102
}
330
C
100
AcDbDictionary
281
     1
  3
A0
350
43
  3
A1
350
44
  3
A2
350
45
  3
A3
350
46
  3
A4
350
47
  3
A5
350
48
  3
A6
350
49
  3
A7
350
4A
  3
A8
350
4B
  3
A9
350
4C
  3
B0
350
4D
  3
B1
350
4E
  3
B2
350
4F
  3
B3
350
50
  3
B4
350
51
  3
B5
350
52
  3
B6
350
53
  0
DICTIONARY
  5
63
102
{ACAD_REACTORS
330
C
102
}
330
C
100
AcDbDictionary
281
     1
  3
Standard
350
64
  0
DICTIONARY
  5
29
102
{ACAD_REACTORS
330
C
102
}
330
C
100
AcDbDictionary
281
     1
  3
2dWireframe
350
2F
  3
3dWireframe
350
2D4
  3
Basic
350
2E
  3
Brighten
350
35
  3
ColorChange
350
39
  3
Conceptual
350
32
  3
Dim
350
34
  3
EdgeColorOff
350
41
  3
Facepattern
350
38
  3
Flat
350
2A
  3
FlatWithEdges
350
2B
  3
Gouraud
350
2C
  3
GouraudWithEdges
350
2D
  3
Hidden
350
31
  3
JitterOff
350
3F
  3
Linepattern
350
37
  3
OverhangOff
350
40
  3
Realistic
350
33
  3
Shaded
350
3E
  3
Shaded with edges
350
3D
  3
Shades of Gray
350
3A
  3
Sketchy
350
3B
  3
Thicken
350
36
  3
Wireframe
350
30
  3
X-Ray
350
3C
  0
XRECORD
  5
759
102
{ACAD_REACTORS
330
C
102
}
330
C
100
AcDbXrecord
280
     1
 90
        1
330
64
  0
DICTIONARY
  5
44A
102
{ACAD_REACTORS
330
C
102
}
330
C
100
AcDbDictionary
281
     1
  3
CANNOSCALE
350
44D
  3
CMLEADERSTYLE
350
44C
  3
CTABLESTYLE
350
44B
  3
DIMASSOC
350
450
  3
INDEXCTL
350
44F
  3
SORTENTS
350
44E
  3
XCLIPFRAME
350
6F3
  0
XRECORD
  5
75A
102
{ACAD_REACTORS
330
C
102
}
330
C
100
AcDbXrecord
280
     1
  1
DWGPROPS COOKIE
  2

  3

  4

  6

  7

  8
imamura
  9

300
=
301
=
302
=
303
=
304
=
305
=
306
=
307
=
308
=
309
=
 40
0.1128433217592593
 41
2455680.479350486
 42
2456855.822328738
  1

 90
        0
  0
DICTIONARY
  5
2D6
102
{ACAD_REACTORS
330
2D5
102
}
330
2D5
100
AcDbDictionary
281
     1
  0
XRECORD
  5
445
102
{ACAD_REACTORS
330
444
102
}
330
444
100
AcDbXrecord
280
     1
290
     1
  0
SORTENTSTABLE
  5
735
102
{ACAD_REACTORS
330
734
102
}
330
734
100
AcDbSortentsTable
330
6B
331
441
  5
740
331
740
  5
C1
331
43C
  5
73B
331
1AB
  5
1C5
331
19A
  5
1B4
331
189
  5
1A3
331
575
  5
74B
331
1BC
  5
1D6
331
1DE
  5
217
331
1CD
  5
1E7
331
111
  5
12B
331
100
  5
11A
331
122
  5
13C
331
74A
  5
C8
331
133
  5
151
331
BB
  5
D5
331
166
  5
196
331
EE
  5
108
331
DD
  5
F7
331
CC
  5
E6
331
442
  5
741
331
43D
  5
73C
331
1AC
  5
1C6
331
19B
  5
1B5
331
18A
  5
1A4
331
576
  5
74C
331
1BD
  5
1D7
331
1DF
  5
218
331
1CE
  5
1E8
331
112
  5
12C
331
101
  5
11B
331
123
  5
13D
331
74B
  5
C5
331
134
  5
152
331
BC
  5
D6
331
145
  5
164
331
CD
  5
E7
331
167
  5
197
331
EF
  5
109
331
DE
  5
F8
331
443
  5
742
331
17A
  5
199
331
168
  5
198
331
F0
  5
10A
331
43E
  5
73D
331
1AD
  5
1C7
331
19C
  5
1B6
331
18B
  5
1A5
331
577
  5
74D
331
1BE
  5
1D8
331
1E0
  5
219
331
1CF
  5
1E9
331
113
  5
12D
331
124
  5
13E
331
74C
  5
C6
331
135
  5
157
331
BD
  5
D7
331
102
  5
11C
331
157
  5
187
331
DF
  5
F9
331
CE
  5
E8
331
158
  5
188
331
E0
  5
FA
331
732
  5
573
331
F1
  5
10B
331
43F
  5
73E
331
1AE
  5
1C8
331
19D
  5
1B7
331
18C
  5
1A6
331
578
  5
74E
331
1BF
  5
1D9
331
1E1
  5
21A
331
1D0
  5
1EA
331
114
  5
12E
331
103
  5
11D
331
125
  5
13F
331
74D
  5
C7
331
136
  5
158
331
147
  5
165
331
CF
  5
E9
331
BE
  5
D8
331
148
  5
166
331
D0
  5
EA
331
159
  5
189
331
E1
  5
FB
331
733
  5
574
331
F2
  5
10C
331
216
  5
575
331
18D
  5
1A7
331
579
  5
74F
331
1C0
  5
1DA
331
1AF
  5
1C9
331
19E
  5
1B8
331
1E2
  5
21B
331
1D1
  5
1F6
331
115
  5
12F
331
104
  5
11E
331
126
  5
140
331
74E
  5
C2
331
137
  5
159
331
BF
  5
D9
331
744
  5
AF
331
138
  5
15A
331
C0
  5
DA
331
149
  5
167
331
D1
  5
EB
331
15A
  5
18A
331
E2
  5
FC
331
F3
  5
10D
331
206
  5
442
331
217
  5
576
331
18E
  5
1A8
331
228
  5
580
331
19F
  5
1B9
331
57A
  5
750
331
1C1
  5
1DB
331
1B0
  5
1CA
331
1E3
  5
21C
331
1D2
  5
1F7
331
116
  5
130
331
105
  5
11F
331
127
  5
143
331
74F
  5
C3
331
745
  5
B0
331
B0
  5
CA
331
128
  5
145
331
750
  5
C4
331
139
  5
15B
331
C1
  5
DB
331
14A
  5
168
331
D2
  5
EC
331
15B
  5
18B
331
E3
  5
FD
331
1F6
  5
438
331
F4
  5
10E
331
207
  5
443
331
218
  5
577
331
18F
  5
1A9
331
229
  5
581
331
1A0
  5
1BA
331
57B
  5
751
331
1C2
  5
1DC
331
1B1
  5
1CB
331
1E4
  5
21D
331
1D3
  5
1F8
331
117
  5
131
331
106
  5
120
331
746
  5
B1
331
118
  5
132
331
B1
  5
CB
331
129
  5
147
331
751
  5
BE
331
13A
  5
15C
331
C2
  5
DC
331
14B
  5
17A
331
15C
  5
18C
331
E4
  5
FE
331
D3
  5
ED
331
736
  5
56E
331
F5
  5
10F
331
1F7
  5
439
331
208
  5
56D
331
219
  5
578
331
190
  5
1AA
331
22A
  5
732
331
1A1
  5
1BB
331
57C
  5
752
331
1C3
  5
1DD
331
1B2
  5
1CC
331
1E5
  5
21E
331
1D4
  5
1FE
331
107
  5
121
331
119
  5
133
331
108
  5
122
331
B2
  5
CC
331
12A
  5
148
331
752
  5
BB
331
13B
  5
15D
331
14C
  5
180
331
D4
  5
EE
331
C3
  5
DD
331
15D
  5
18D
331
E5
  5
FF
331
737
  5
56F
331
F6
  5
110
331
1F8
  5
43A
331
21A
  5
579
331
191
  5
1AB
331
180
  5
19A
331
22B
  5
733
331
1A2
  5
1BC
331
57D
  5
753
331
1C4
  5
1DE
331
1E6
  5
21F
331
1D5
  5
1FF
331
1B3
  5
1CD
331
11A
  5
134
331
109
  5
123
331
F8
  5
112
331
B3
  5
CD
331
12B
  5
149
331
753
  5
BC
331
13C
  5
15E
331
14D
  5
181
331
D5
  5
EF
331
C4
  5
DE
331
15E
  5
18E
331
E6
  5
100
331
738
  5
440
331
F7
  5
111
331
21B
  5
57A
331
192
  5
1AC
331
181
  5
19B
331
22C
  5
736
331
1A3
  5
1BD
331
56D
  5
743
331
1B4
  5
1CE
331
57E
  5
754
331
1E7
  5
220
331
1D6
  5
200
331
1C5
  5
1DF
331
1E8
  5
228
331
11B
  5
135
331
10A
  5
124
331
F9
  5
113
331
B4
  5
CE
331
12C
  5
14A
331
754
  5
BD
331
13D
  5
15F
331
14E
  5
182
331
D6
  5
F0
331
C5
  5
DF
331
739
  5
441
331
15F
  5
18F
331
E7
  5
101
331
21C
  5
57B
331
193
  5
1AD
331
182
  5
19C
331
56E
  5
744
331
1B5
  5
1CF
331
1A4
  5
1BE
331
57F
  5
755
331
1C6
  5
1E0
331
1D7
  5
206
331
AF
  5
C9
331
580
  5
756
331
1E9
  5
229
331
1D8
  5
207
331
11C
  5
136
331
10B
  5
125
331
FA
  5
114
331
B5
  5
CF
331
12D
  5
14B
331
13E
  5
160
331
C6
  5
E0
331
755
  5
B5
331
14F
  5
183
331
D7
  5
F1
331
73A
  5
43B
331
160
  5
190
331
E8
  5
102
331
21D
  5
57C
331
194
  5
1AE
331
183
  5
19D
331
56F
  5
745
331
1B6
  5
1D0
331
1A5
  5
1BF
331
1C7
  5
1E1
331
570
  5
746
331
581
  5
757
331
1C8
  5
1E2
331
1EA
  5
22A
331
1D9
  5
208
331
11D
  5
137
331
10C
  5
126
331
FB
  5
115
331
B6
  5
D0
331
12E
  5
14C
331
13F
  5
161
331
C7
  5
E1
331
756
  5
B6
331
150
  5
184
331
D8
  5
F2
331
73B
  5
43C
331
161
  5
191
331
E9
  5
103
331
21E
  5
57D
331
195
  5
1AF
331
184
  5
19E
331
1B7
  5
1D1
331
1A6
  5
1C0
331
438
  5
737
331
571
  5
747
331
1B8
  5
1D2
331
1DA
  5
20E
331
1C9
  5
1E3
331
11E
  5
138
331
10D
  5
127
331
FC
  5
116
331
B7
  5
D1
331
12F
  5
14D
331
140
  5
162
331
C8
  5
E2
331
757
  5
B7
331
151
  5
185
331
D9
  5
F3
331
73C
  5
22B
331
162
  5
192
331
EA
  5
104
331
20E
  5
570
331
185
  5
19F
331
21F
  5
57E
331
1A7
  5
1C1
331
196
  5
1B0
331
220
  5
57F
331
439
  5
738
331
1A8
  5
1C2
331
572
  5
748
331
1B9
  5
1D3
331
1DB
  5
20F
331
1CA
  5
1E4
331
11F
  5
139
331
10E
  5
128
331
FD
  5
117
331
130
  5
14E
331
B8
  5
D2
331
152
  5
186
331
DA
  5
F4
331
C9
  5
E3
331
1FE
  5
43D
331
73D
  5
22C
331
163
  5
193
331
EB
  5
105
331
20F
  5
571
331
186
  5
1A0
331
197
  5
1B1
331
210
  5
572
331
43A
  5
739
331
1A9
  5
1C3
331
198
  5
1B2
331
573
  5
749
331
1BA
  5
1D4
331
1DC
  5
210
331
1CB
  5
1E5
331
120
  5
13A
331
10F
  5
129
331
FE
  5
118
331
131
  5
14F
331
164
  5
194
331
EC
  5
106
331
DB
  5
F5
331
CA
  5
E4
331
1FF
  5
43E
331
73E
  5
BF
331
187
  5
1A1
331
B9
  5
D3
331
440
  5
73F
331
200
  5
43F
331
43B
  5
73A
331
1AA
  5
1C4
331
199
  5
1B3
331
188
  5
1A2
331
574
  5
74A
331
1BB
  5
1D5
331
1DD
  5
216
331
1CC
  5
1E6
331
121
  5
13B
331
110
  5
12A
331
FF
  5
119
331
132
  5
150
331
BA
  5
D4
331
143
  5
163
331
165
  5
195
331
ED
  5
107
331
DC
  5
F6
331
73F
  5
C0
331
CB
  5
E5
  0
XRECORD
  5
75D
102
{ACAD_REACTORS
330
75B
102
}
330
75B
100
AcDbXrecord
280
     1
 70
     2
  0
XRECORD
  5
75C
102
{ACAD_REACTORS
330
75B
102
}
330
75B
100
AcDbXrecord
280
     1
 40
1.25
  0
XRECORD
  5
75E
102
{ACAD_REACTORS
330
75B
102
}
330
75B
100
AcDbXrecord
280
     1
 40
1.570796326794896
  0
LAYOUT
  5
6E
102
{ACAD_XDICTIONARY
360
792
102
}
102
{ACAD_REACTORS
330
61
102
}
330
61
100
AcDbPlotSettings
  1

  2
FX DP 205
  4

  6

 40
0.0
 41
0.0
 42
0.0
 43
0.0
 44
0.0
 45
0.0
 46
0.0
 47
0.0
 48
0.0
 49
0.0
140
0.0
141
0.0
142
1.0
143
1.0
 70
  1712
 72
     0
 73
     0
 74
     0
  7

 75
     0
147
1.0
148
0.0
149
0.0
100
AcDbLayout
  1
Model
 70
     1
 71
     0
 10
0.0
 20
0.0
 11
12.0
 21
9.0
 12
0.0
 22
0.0
 32
0.0
 14
0.0
 24
0.0
 34
0.0
 15
0.0
 25
0.0
 35
0.0
146
0.0
 13
0.0
 23
0.0
 33
0.0
 16
1.0
 26
0.0
 36
0.0
 17
0.0
 27
1.0
 37
0.0
 76
     0
330
6B
331
8C
  0
LAYOUT
  5
6A
102
{ACAD_XDICTIONARY
360
790
102
}
102
{ACAD_REACTORS
330
61
102
}
330
61
100
AcDbPlotSettings
  1

  2
FX DP 205
  4

  6

 40
0.0
 41
0.0
 42
0.0
 43
0.0
 44
0.0
 45
0.0
 46
0.0
 47
0.0
 48
0.0
 49
0.0
140
0.0
141
0.0
142
1.0
143
1.0
 70
   688
 72
     0
 73
     0
 74
     5
  7

 75
    16
147
1.0
148
0.0
149
0.0
100
AcDbLayout
  1
レイアウト1
 70
     1
 71
     1
 10
0.0
 20
0.0
 11
12.0
 21
9.0
 12
0.0
 22
0.0
 32
0.0
 14
1.000000000000000E+20
 24
1.000000000000000E+20
 34
1.000000000000000E+20
 15
-1.000000000000000E+20
 25
-1.000000000000000E+20
 35
-1.000000000000000E+20
146
0.0
 13
0.0
 23
0.0
 33
0.0
 16
1.0
 26
0.0
 36
0.0
 17
0.0
 27
1.0
 37
0.0
 76
     0
330
67
  0
MATERIAL
  5
19
102
{ACAD_XDICTIONARY
360
1A
102
}
102
{ACAD_REACTORS
330
10
102
}
330
10
100
AcDbMaterial
  1
ByBlock
 72
     0
 43
0.0208333333333333
 43
0.0
 43
0.0
 43
0.0
 43
0.0
 43
0.0208333333333333
 43
0.0
 43
0.0
 43
0.0
 43
0.0
 43
1.0
 43
0.0
 43
0.0
 43
0.0
 43
0.0
 43
1.0
 77
     0
 47
0.0208333333333333
 47
0.0
 47
0.0
 47
0.0
 47
0.0
 47
0.0208333333333333
 47
0.0
 47
0.0
 47
0.0
 47
0.0
 47
1.0
 47
0.0
 47
0.0
 47
0.0
 47
0.0
 47
1.0
171
     0
 49
0.0208333333333333
 49
0.0
 49
0.0
 49
0.0
 49
0.0
 49
0.0208333333333333
 49
0.0
 49
0.0
 49
0.0
 49
0.0
 49
1.0
 49
0.0
 49
0.0
 49
0.0
 49
0.0
 49
1.0
175
     0
142
0.0208333333333333
142
0.0
142
0.0
142
0.0
142
0.0
142
0.0208333333333333
142
0.0
142
0.0
142
0.0
142
0.0
142
1.0
142
0.0
142
0.0
142
0.0
142
0.0
142
1.0
179
     0
144
0.0208333333333333
144
0.0
144
0.0
144
0.0
144
0.0
144
0.0208333333333333
144
0.0
144
0.0
144
0.0
144
0.0
144
1.0
144
0.0
144
0.0
144
0.0
144
0.0
144
1.0
147
0.0208333333333333
147
0.0
147
0.0
147
0.0
147
0.0
147
0.0208333333333333
147
0.0
147
0.0
147
0.0
147
0.0
147
1.0
147
0.0
147
0.0
147
0.0
147
0.0
147
1.0
  0
MATERIAL
  5
11
102
{ACAD_XDICTIONARY
360
12
102
}
102
{ACAD_REACTORS
330
10
102
}
330
10
100
AcDbMaterial
  1
ByLayer
 72
     0
 43
0.0208333333333333
 43
0.0
 43
0.0
 43
0.0
 43
0.0
 43
0.0208333333333333
 43
0.0
 43
0.0
 43
0.0
 43
0.0
 43
1.0
 43
0.0
 43
0.0
 43
0.0
 43
0.0
 43
1.0
 77
     0
 47
0.0208333333333333
 47
0.0
 47
0.0
 47
0.0
 47
0.0
 47
0.0208333333333333
 47
0.0
 47
0.0
 47
0.0
 47
0.0
 47
1.0
 47
0.0
 47
0.0
 47
0.0
 47
0.0
 47
1.0
171
     0
 49
0.0208333333333333
 49
0.0
 49
0.0
 49
0.0
 49
0.0
 49
0.0208333333333333
 49
0.0
 49
0.0
 49
0.0
 49
0.0
 49
1.0
 49
0.0
 49
0.0
 49
0.0
 49
0.0
 49
1.0
175
     0
142
0.0208333333333333
142
0.0
142
0.0
142
0.0
142
0.0
142
0.0208333333333333
142
0.0
142
0.0
142
0.0
142
0.0
142
1.0
142
0.0
142
0.0
142
0.0
142
0.0
142
1.0
179
     0
144
0.0208333333333333
144
0.0
144
0.0
144
0.0
144
0.0
144
0.0208333333333333
144
0.0
144
0.0
144
0.0
144
0.0
144
1.0
144
0.0
144
0.0
144
0.0
144
0.0
144
1.0
147
0.0208333333333333
147
0.0
147
0.0
147
0.0
147
0.0
147
0.0208333333333333
147
0.0
147
0.0
147
0.0
147
0.0
147
1.0
147
0.0
147
0.0
147
0.0
147
0.0
147
1.0
  0
MATERIAL
  5
21
102
{ACAD_XDICTIONARY
360
22
102
}
102
{ACAD_REACTORS
330
10
102
}
330
10
100
AcDbMaterial
  1
Global
 72
     0
 43
0.0208333333333333
 43
0.0
 43
0.0
 43
0.0
 43
0.0
 43
0.0208333333333333
 43
0.0
 43
0.0
 43
0.0
 43
0.0
 43
1.0
 43
0.0
 43
0.0
 43
0.0
 43
0.0
 43
1.0
 77
     0
 47
0.0208333333333333
 47
0.0
 47
0.0
 47
0.0
 47
0.0
 47
0.0208333333333333
 47
0.0
 47
0.0
 47
0.0
 47
0.0
 47
1.0
 47
0.0
 47
0.0
 47
0.0
 47
0.0
 47
1.0
171
     0
 49
0.0208333333333333
 49
0.0
 49
0.0
 49
0.0
 49
0.0
 49
0.0208333333333333
 49
0.0
 49
0.0
 49
0.0
 49
0.0
 49
1.0
 49
0.0
 49
0.0
 49
0.0
 49
0.0
 49
1.0
175
     0
142
0.0208333333333333
142
0.0
142
0.0
142
0.0
142
0.0
142
0.0208333333333333
142
0.0
142
0.0
142
0.0
142
0.0
142
1.0
142
0.0
142
0.0
142
0.0
142
0.0
142
1.0
179
     0
144
0.0208333333333333
144
0.0
144
0.0
144
0.0
144
0.0
144
0.0208333333333333
144
0.0
144
0.0
144
0.0
144
0.0
144
1.0
144
0.0
144
0.0
144
0.0
144
0.0
144
1.0
147
0.0208333333333333
147
0.0
147
0.0
147
0.0
147
0.0
147
0.0208333333333333
147
0.0
147
0.0
147
0.0
147
0.0
147
1.0
147
0.0
147
0.0
147
0.0
147
0.0
147
1.0
  0
MLEADERSTYLE
  5
66
102
{ACAD_REACTORS
330
65
102
}
330
65
100
AcDbMLeaderStyle
170
     2
171
     1
172
     0
 90
        2
 40
0.0
 41
0.0
173
     1
 91
-1056964608
340
5A
 92
       -2
290
     1
 42
0.09
291
     1
 43
0.36
  3
Standard
 44
0.18
300

342
55
174
     1
178
     6
175
     1
176
     0
 93
-1056964608
 45
0.18
292
     0
297
     0
 46
0.18
 94
-1056964608
 47
1.0
 49
1.0
140
1.0
293
     1
141
0.0
294
     1
177
     0
142
1.0
295
     0
296
     0
143
0.125
1001
ACAD_MLEADERVER
1070
     2
  0
MLINESTYLE
  5
5F
102
{ACAD_REACTORS
330
5E
102
}
330
5E
100
AcDbMlineStyle
  2
STANDARD
 70
     0
  3

 62
   256
 51
90.0
 52
90.0
 71
     2
 49
0.5
 62
   256
  6
BYLAYER
 49
-0.5
 62
   256
  6
BYLAYER
  0
ACDBPLACEHOLDER
  5
F
102
{ACAD_REACTORS
330
E
102
}
330
E
  0
SCALE
  5
43
102
{ACAD_REACTORS
330
42
102
}
330
42
100
AcDbScale
 70
     0
300
1:1
140
1.0
141
1.0
290
     1
  0
SCALE
  5
44
102
{ACAD_REACTORS
330
42
102
}
330
42
100
AcDbScale
 70
     0
300
1/128" = 1'-0"
140
0.0078125
141
12.0
290
     0
  0
SCALE
  5
45
102
{ACAD_REACTORS
330
42
102
}
330
42
100
AcDbScale
 70
     0
300
1/64" = 1'-0"
140
0.015625
141
12.0
290
     0
  0
SCALE
  5
46
102
{ACAD_REACTORS
330
42
102
}
330
42
100
AcDbScale
 70
     0
300
1/32" = 1'-0"
140
0.03125
141
12.0
290
     0
  0
SCALE
  5
47
102
{ACAD_REACTORS
330
42
102
}
330
42
100
AcDbScale
 70
     0
300
1/16" = 1'-0"
140
0.0625
141
12.0
290
     0
  0
SCALE
  5
48
102
{ACAD_REACTORS
330
42
102
}
330
42
100
AcDbScale
 70
     0
300
3/32" = 1'-0"
140
0.09375
141
12.0
290
     0
  0
SCALE
  5
49
102
{ACAD_REACTORS
330
42
102
}
330
42
100
AcDbScale
 70
     0
300
1/8" = 1'-0"
140
0.125
141
12.0
290
     0
  0
SCALE
  5
4A
102
{ACAD_REACTORS
330
42
102
}
330
42
100
AcDbScale
 70
     0
300
3/16" = 1'-0"
140
0.1875
141
12.0
290
     0
  0
SCALE
  5
4B
102
{ACAD_REACTORS
330
42
102
}
330
42
100
AcDbScale
 70
     0
300
1/4" = 1'-0"
140
0.25
141
12.0
290
     0
  0
SCALE
  5
4C
102
{ACAD_REACTORS
330
42
102
}
330
42
100
AcDbScale
 70
     0
300
3/8" = 1'-0"
140
0.375
141
12.0
290
     0
  0
SCALE
  5
4D
102
{ACAD_REACTORS
330
42
102
}
330
42
100
AcDbScale
 70
     0
300
1/2" = 1'-0"
140
0.5
141
12.0
290
     0
  0
SCALE
  5
4E
102
{ACAD_REACTORS
330
42
102
}
330
42
100
AcDbScale
 70
     0
300
3/4" = 1'-0"
140
0.75
141
12.0
290
     0
  0
SCALE
  5
4F
102
{ACAD_REACTORS
330
42
102
}
330
42
100
AcDbScale
 70
     0
300
1" = 1'-0"
140
1.0
141
12.0
290
     0
  0
SCALE
  5
50
102
{ACAD_REACTORS
330
42
102
}
330
42
100
AcDbScale
 70
     0
300
1-1/2" = 1'-0"
140
1.5
141
12.0
290
     0
  0
SCALE
  5
51
102
{ACAD_REACTORS
330
42
102
}
330
42
100
AcDbScale
 70
     0
300
3" = 1'-0"
140
3.0
141
12.0
290
     0
  0
SCALE
  5
52
102
{ACAD_REACTORS
330
42
102
}
330
42
100
AcDbScale
 70
     0
300
6" = 1'-0"
140
6.0
141
12.0
290
     0
  0
SCALE
  5
53
102
{ACAD_REACTORS
330
42
102
}
330
42
100
AcDbScale
 70
     0
300
1'-0" = 1'-0"
140
12.0
141
12.0
290
     0
  0
TABLESTYLE
  5
64
102
{ACAD_XDICTIONARY
360
452
102
}
102
{ACAD_REACTORS
330
63
102
}
330
63
100
AcDbTableStyle
  3
Standard
 70
     0
 71
     0
 40
0.06
 41
0.06
280
     0
281
     0
  7
STANDARD
140
0.18
170
     2
 62
     0
 63
     7
283
     0
274
    -2
284
     1
 64
     0
275
    -2
285
     1
 65
     0
276
    -2
286
     1
 66
     0
277
    -2
287
     1
 67
     0
278
    -2
288
     1
 68
     0
279
    -2
289
     1
 69
     0
  7
STANDARD
140
0.25
170
     5
 62
     0
 63
     7
283
     0
274
    -2
284
     1
 64
     0
275
    -2
285
     1
 65
     0
276
    -2
286
     1
 66
     0
277
    -2
287
     1
 67
     0
278
    -2
288
     1
 68
     0
279
    -2
289
     1
 69
     0
  7
STANDARD
140
0.18
170
     5
 62
     0
 63
     7
283
     0
274
    -2
284
     1
 64
     0
275
    -2
285
     1
 65
     0
276
    -2
286
     1
 66
     0
277
    -2
287
     1
 67
     0
278
    -2
288
     1
 68
     0
279
    -2
289
     1
 69
     0
  0
VISUALSTYLE
  5
2F
102
{ACAD_XDICTIONARY
360
769
102
}
102
{ACAD_REACTORS
330
29
102
}
330
29
100
AcDbVisualStyle
  2

 70
     4
 71
     0
 72
     2
 73
     0
 90
        0
 40
-0.6
 41
-30.0
 62
     5
 63
     7
 74
     1
 91
        4
 64
     7
 65
   257
 75
     1
175
     1
 42
1.0
 92
        0
 66
   257
 43
1.0
 76
     1
 77
     6
 78
     2
 67
     7
 79
     5
170
     0
171
     0
290
     0
174
     0
 93
        1
 44
0.0
173
     0
291
     0
 45
0.0
1001
ACAD
1000
AcDbSavedByObjectVersion
1070
     0
  0
VISUALSTYLE
  5
2D4
102
{ACAD_XDICTIONARY
360
794
102
}
102
{ACAD_REACTORS
330
29
102
}
330
29
100
AcDbVisualStyle
  2

 70
     5
 71
     0
 72
     2
 73
     1
 90
        0
 40
-0.6
 41
-30.0
 62
     5
 63
     7
 74
     1
 91
        4
 64
     7
 65
   257
 75
     1
175
     1
 42
1.0
 92
        0
 66
   257
 43
1.0
 76
     1
 77
     6
 78
     2
 67
     7
 79
     5
170
     0
171
     0
290
     0
174
     0
 93
        1
 44
0.0
173
     0
291
     0
 45
0.0
1001
ACAD
1000
AcDbSavedByObjectVersion
1070
     0
  0
VISUALSTYLE
  5
2E
102
{ACAD_XDICTIONARY
360
767
102
}
102
{ACAD_REACTORS
330
29
102
}
330
29
100
AcDbVisualStyle
  2

 70
     7
 71
     1
 72
     0
 73
     1
 90
        0
 40
-0.6
 41
-30.0
 62
     5
 63
     7
 74
     0
 91
        4
 64
     7
 65
   257
 75
     1
175
     1
 42
1.0
 92
        8
 66
     7
 43
1.0
 76
     1
 77
     6
 78
     2
 67
     7
 79
     5
170
     0
171
     0
290
     0
174
     0
 93
        1
 44
0.0
173
     0
291
     1
 45
0.0
1001
ACAD
1000
AcDbSavedByObjectVersion
1070
     0
  0
VISUALSTYLE
  5
35
102
{ACAD_XDICTIONARY
360
775
102
}
102
{ACAD_REACTORS
330
29
102
}
330
29
100
AcDbVisualStyle
  2

 70
    12
 71
     2
 72
     2
 73
     0
 90
        0
 40
-0.6
 41
-30.0
 62
     5
 63
     7
 74
     1
 91
        4
 64
     7
 65
   257
 75
     1
175
     1
 42
1.0
 92
        8
 66
     7
 43
1.0
 76
     1
 77
     6
 78
     2
 67
     7
 79
     5
170
     0
171
     0
290
     0
174
     0
 93
        1
 44
50.0
173
     0
291
     1
 45
0.0
1001
ACAD
1000
AcDbSavedByObjectVersion
1070
     0
  0
VISUALSTYLE
  5
39
102
{ACAD_XDICTIONARY
360
77D
102
}
102
{ACAD_REACTORS
330
29
102
}
330
29
100
AcDbVisualStyle
  2

 70
    16
 71
     2
 72
     2
 73
     3
 90
        0
 40
-0.6
 41
-30.0
 62
     5
 63
     8
 74
     1
 91
        4
 64
     7
 65
   257
 75
     1
175
     1
 42
1.0
 92
        8
 66
     8
 43
1.0
 76
     1
 77
     6
 78
     2
 67
     7
 79
     5
170
     0
171
     0
290
     0
174
     0
 93
        1
 44
0.0
173
     0
291
     1
 45
0.0
1001
ACAD
1000
AcDbSavedByObjectVersion
1070
     0
  0
VISUALSTYLE
  5
32
102
{ACAD_XDICTIONARY
360
76F
102
}
102
{ACAD_REACTORS
330
29
102
}
330
29
100
AcDbVisualStyle
  2

 70
     9
 71
     3
 72
     2
 73
     0
 90
        0
 40
-0.6
 41
-30.0
 62
     5
 63
     7
 74
     2
 91
        2
 64
     7
 65
   257
 75
     1
175
     1
 42
179.0
 92
        8
 66
     7
 43
1.0
 76
     1
 77
     6
 78
     2
 67
     7
 79
     3
170
     0
171
     0
290
     0
174
     0
 93
        1
 44
0.0
173
     0
291
     0
 45
0.0
1001
ACAD
1000
AcDbSavedByObjectVersion
1070
     0
  0
VISUALSTYLE
  5
34
102
{ACAD_XDICTIONARY
360
773
102
}
102
{ACAD_REACTORS
330
29
102
}
330
29
100
AcDbVisualStyle
  2

 70
    11
 71
     2
 72
     2
 73
     0
 90
        0
 40
-0.6
 41
-30.0
 62
     5
 63
     7
 74
     1
 91
        4
 64
     7
 65
   257
 75
     1
175
     1
 42
1.0
 92
        8
 66
     7
 43
1.0
 76
     1
 77
     6
 78
     2
 67
     7
 79
     5
170
     0
171
     0
290
     0
174
     0
 93
        1
 44
-50.0
173
     0
291
     1
 45
0.0
1001
ACAD
1000
AcDbSavedByObjectVersion
1070
     0
  0
VISUALSTYLE
  5
41
102
{ACAD_XDICTIONARY
360
78D
102
}
102
{ACAD_REACTORS
330
29
102
}
330
29
100
AcDbVisualStyle
  2

 70
    22
 71
     2
 72
     2
 73
     0
 90
        0
 40
-0.6
 41
-30.0
 62
     5
 63
     7
 74
     1
 91
        4
 64
     7
 65
   257
 75
     1
175
     1
 42
1.0
 92
        8
 66
     7
 43
1.0
 76
     1
 77
     6
 78
     2
 67
     7
 79
     5
170
     0
171
     0
290
     0
174
     0
 93
        1
 44
0.0
173
     0
291
     1
 45
0.0
1001
ACAD
1000
AcDbSavedByObjectVersion
1070
     0
  0
VISUALSTYLE
  5
38
102
{ACAD_XDICTIONARY
360
77B
102
}
102
{ACAD_REACTORS
330
29
102
}
330
29
100
AcDbVisualStyle
  2

 70
    15
 71
     2
 72
     2
 73
     0
 90
        0
 40
-0.6
 41
-30.0
 62
     5
 63
     7
 74
     1
 91
        4
 64
     7
 65
   257
 75
     1
175
     1
 42
1.0
 92
        8
 66
     7
 43
1.0
 76
     1
 77
     6
 78
     2
 67
     7
 79
     5
170
     0
171
     0
290
     0
174
     0
 93
        1
 44
0.0
173
     0
291
     1
 45
0.0
1001
ACAD
1000
AcDbSavedByObjectVersion
1070
     0
  0
VISUALSTYLE
  5
2A
102
{ACAD_XDICTIONARY
360
75F
102
}
102
{ACAD_REACTORS
330
29
102
}
330
29
100
AcDbVisualStyle
  2

 70
     0
 71
     2
 72
     1
 73
     1
 90
        2
 40
-0.6
 41
30.0
 62
     5
 63
     7
 74
     0
 91
        0
 64
     7
 65
   257
 75
     1
175
     1
 42
1.0
 92
        8
 66
     7
 43
1.0
 76
     1
 77
     6
 78
     2
 67
     7
 79
     5
170
     0
171
     0
290
     0
174
     0
 93
       13
 44
0.0
173
     0
291
     1
 45
0.0
1001
ACAD
1000
AcDbSavedByObjectVersion
1070
     0
  0
VISUALSTYLE
  5
2B
102
{ACAD_XDICTIONARY
360
761
102
}
102
{ACAD_REACTORS
330
29
102
}
330
29
100
AcDbVisualStyle
  2

 70
     1
 71
     2
 72
     1
 73
     1
 90
        2
 40
-0.6
 41
30.0
 62
     5
 63
     7
 74
     1
 91
        0
 64
     7
 65
   257
 75
     1
175
     1
 42
1.0
 92
        0
 66
   257
 43
1.0
 76
     1
 77
     6
 78
     2
 67
     7
 79
     5
170
     0
171
     0
290
     0
174
     0
 93
       13
 44
0.0
173
     0
291
     1
 45
0.0
1001
ACAD
1000
AcDbSavedByObjectVersion
1070
     0
  0
VISUALSTYLE
  5
2C
102
{ACAD_XDICTIONARY
360
763
102
}
102
{ACAD_REACTORS
330
29
102
}
330
29
100
AcDbVisualStyle
  2

 70
     2
 71
     2
 72
     2
 73
     1
 90
        2
 40
-0.6
 41
30.0
 62
     5
 63
     7
 74
     0
 91
        0
 64
     7
 65
   257
 75
     1
175
     1
 42
1.0
 92
        0
 66
     7
 43
1.0
 76
     1
 77
     6
 78
     2
 67
     7
 79
     5
170
     0
171
     0
290
     0
174
     0
 93
       13
 44
0.0
173
     0
291
     1
 45
0.0
1001
ACAD
1000
AcDbSavedByObjectVersion
1070
     0
  0
VISUALSTYLE
  5
2D
102
{ACAD_XDICTIONARY
360
765
102
}
102
{ACAD_REACTORS
330
29
102
}
330
29
100
AcDbVisualStyle
  2

 70
     3
 71
     2
 72
     2
 73
     1
 90
        2
 40
-0.6
 41
30.0
 62
     5
 63
     7
 74
     1
 91
        0
 64
     7
 65
   257
 75
     1
175
     1
 42
1.0
 92
        0
 66
   257
 43
1.0
 76
     1
 77
     6
 78
     2
 67
     7
 79
     5
170
     0
171
     0
290
     0
174
     0
 93
       13
 44
0.0
173
     0
291
     1
 45
0.0
1001
ACAD
1000
AcDbSavedByObjectVersion
1070
     0
  0
VISUALSTYLE
  5
31
102
{ACAD_XDICTIONARY
360
76D
102
}
102
{ACAD_REACTORS
330
29
102
}
330
29
100
AcDbVisualStyle
  2

 70
     6
 71
     1
 72
     2
 73
     2
 90
        0
 40
-0.6
 41
-30.0
 62
     5
 63
     7
 74
     2
 91
        2
 64
     7
 65
   257
 75
     2
175
     1
 42
40.0
 92
        0
 66
   257
 43
1.0
 76
     1
 77
     6
 78
     2
 67
     7
 79
     3
170
     0
171
     0
290
     0
174
     0
 93
        1
 44
0.0
173
     0
291
     0
 45
0.0
1001
ACAD
1000
AcDbSavedByObjectVersion
1070
     0
  0
VISUALSTYLE
  5
3F
102
{ACAD_XDICTIONARY
360
789
102
}
102
{ACAD_REACTORS
330
29
102
}
330
29
100
AcDbVisualStyle
  2

 70
    20
 71
     2
 72
     2
 73
     0
 90
        0
 40
-0.6
 41
-30.0
 62
     5
 63
     7
 74
     1
 91
        4
 64
     7
 65
   257
 75
     1
175
     1
 42
1.0
 92
       10
 66
     7
 43
1.0
 76
     1
 77
     6
 78
     2
 67
     7
 79
     5
170
     0
171
     0
290
     0
174
     0
 93
        1
 44
0.0
173
     0
291
     1
 45
0.0
1001
ACAD
1000
AcDbSavedByObjectVersion
1070
     0
  0
VISUALSTYLE
  5
37
102
{ACAD_XDICTIONARY
360
779
102
}
102
{ACAD_REACTORS
330
29
102
}
330
29
100
AcDbVisualStyle
  2

 70
    14
 71
     2
 72
     2
 73
     0
 90
        0
 40
-0.6
 41
-30.0
 62
     5
 63
     7
 74
     1
 91
        4
 64
     7
 65
   257
 75
     7
175
     7
 42
1.0
 92
        8
 66
     7
 43
1.0
 76
     1
 77
     6
 78
     2
 67
     7
 79
     5
170
     0
171
     0
290
     0
174
     0
 93
        1
 44
0.0
173
     0
291
     1
 45
0.0
1001
ACAD
1000
AcDbSavedByObjectVersion
1070
     0
  0
VISUALSTYLE
  5
40
102
{ACAD_XDICTIONARY
360
78B
102
}
102
{ACAD_REACTORS
330
29
102
}
330
29
100
AcDbVisualStyle
  2

 70
    21
 71
     2
 72
     2
 73
     0
 90
        0
 40
-0.6
 41
-30.0
 62
     5
 63
     7
 74
     1
 91
        4
 64
     7
 65
   257
 75
     1
175
     1
 42
1.0
 92
        9
 66
     7
 43
1.0
 76
     1
 77
     6
 78
     2
 67
     7
 79
     5
170
     0
171
     0
290
     0
174
     0
 93
        1
 44
0.0
173
     0
291
     1
 45
0.0
1001
ACAD
1000
AcDbSavedByObjectVersion
1070
     0
  0
VISUALSTYLE
  5
33
102
{ACAD_XDICTIONARY
360
771
102
}
102
{ACAD_REACTORS
330
29
102
}
330
29
100
AcDbVisualStyle
  2

 70
     8
 71
     2
 72
     3
 73
     0
 90
        2
 40
-0.6
 41
30.0
 62
     5
 63
     7
 74
     0
 91
        0
 64
     7
 65
   257
 75
     1
175
     1
 42
1.0
 92
        8
 66
   257
 43
1.0
 76
     1
 77
     6
 78
     2
 67
     7
 79
     3
170
     0
171
     0
290
     0
174
     0
 93
       13
 44
0.0
173
     0
291
     0
 45
0.0
1001
ACAD
1000
AcDbSavedByObjectVersion
1070
     0
  0
VISUALSTYLE
  5
3E
102
{ACAD_XDICTIONARY
360
787
102
}
102
{ACAD_REACTORS
330
29
102
}
330
29
100
AcDbVisualStyle
  2

 70
    27
 71
     2
 72
     2
 73
     1
 90
        2
 40
-0.6
 41
30.0
 62
     5
 63
     7
 74
     0
 91
        4
 64
     7
 65
   257
 75
     1
175
     1
 42
1.0
 92
        8
 66
   257
 43
1.0
 76
     1
 77
     6
 78
     2
 67
     8
 79
     3
170
     0
171
     0
290
     0
174
     0
 93
        5
 44
0.0
173
     0
291
     0
 45
0.0
1001
ACAD
1000
AcDbSavedByObjectVersion
1070
     0
  0
VISUALSTYLE
  5
3D
102
{ACAD_XDICTIONARY
360
785
102
}
102
{ACAD_REACTORS
330
29
102
}
330
29
100
AcDbVisualStyle
  2

 70
    26
 71
     2
 72
     2
 73
     1
 90
        2
 40
-0.6
 41
30.0
 62
     5
 63
     7
 74
     1
 91
       10
 64
     7
 65
   257
 75
     2
175
     1
 42
1.0
 92
        8
 66
   257
 43
1.0
 76
     1
 77
     6
 78
     2
 67
     7
 79
     3
170
     0
171
     0
290
     0
174
     0
 93
        5
 44
0.0
173
     0
291
     0
 45
0.0
1001
ACAD
1000
AcDbSavedByObjectVersion
1070
     0
  0
VISUALSTYLE
  5
3A
102
{ACAD_XDICTIONARY
360
77F
102
}
102
{ACAD_REACTORS
330
29
102
}
330
29
100
AcDbVisualStyle
  2

 70
    23
 71
     2
 72
     2
 73
     3
 90
        0
 40
-0.6
 41
-30.0
 62
     5
 63
     7
 74
     2
 91
        2
 64
     7
 65
     7
 75
     1
175
     1
 42
40.0
 92
        8
 66
     7
 43
1.0
 76
     1
 77
     6
 78
     2
 67
     7
 79
     3
170
     0
171
     0
290
     0
174
     0
 93
        1
 44
0.0
173
     0
291
     0
 45
0.0
1001
ACAD
1000
AcDbSavedByObjectVersion
1070
     0
  0
VISUALSTYLE
  5
3B
102
{ACAD_XDICTIONARY
360
781
102
}
102
{ACAD_REACTORS
330
29
102
}
330
29
100
AcDbVisualStyle
  2

 70
    24
 71
     1
 72
     2
 73
     2
 90
        0
 40
-0.6
 41
-30.0
 62
     5
 63
     7
 74
     2
 91
        2
 64
     7
 65
     7
 75
     1
175
     1
 42
40.0
 92
       11
 66
     7
 43
1.0
 76
     1
 77
     6
 78
     2
 67
     7
 79
     6
170
     0
171
     0
290
     0
174
     0
 93
        1
 44
0.0
173
     0
291
     0
 45
0.0
1001
ACAD
1000
AcDbSavedByObjectVersion
1070
     0
  0
VISUALSTYLE
  5
36
102
{ACAD_XDICTIONARY
360
777
102
}
102
{ACAD_REACTORS
330
29
102
}
330
29
100
AcDbVisualStyle
  2

 70
    13
 71
     2
 72
     2
 73
     0
 90
        0
 40
-0.6
 41
-30.0
 62
     5
 63
     7
 74
     1
 91
        4
 64
     7
 65
   257
 75
     1
175
     1
 42
1.0
 92
       12
 66
     7
 43
1.0
 76
     1
 77
     6
 78
     2
 67
     7
 79
     5
170
     0
171
     0
290
     0
174
     0
 93
        1
 44
0.0
173
     0
291
     1
 45
0.0
1001
ACAD
1000
AcDbSavedByObjectVersion
1070
     0
  0
VISUALSTYLE
  5
30
102
{ACAD_XDICTIONARY
360
76B
102
}
102
{ACAD_REACTORS
330
29
102
}
330
29
100
AcDbVisualStyle
  2

 70
     5
 71
     0
 72
     2
 73
     0
 90
        0
 40
-0.6
 41
-30.0
 62
     5
 63
     7
 74
     1
 91
        4
 64
     7
 65
   257
 75
     1
175
     1
 42
1.0
 92
        0
 66
   257
 43
1.0
 76
     1
 77
     6
 78
     2
 67
     7
 79
     3
170
     0
171
     0
290
     0
174
     0
 93
        1
 44
0.0
173
     0
291
     0
 45
0.0
1001
ACAD
1000
AcDbSavedByObjectVersion
1070
     0
  0
VISUALSTYLE
  5
3C
102
{ACAD_XDICTIONARY
360
783
102
}
102
{ACAD_REACTORS
330
29
102
}
330
29
100
AcDbVisualStyle
  2

 70
    25
 71
     2
 72
     2
 73
     1
 90
        1
 40
0.5
 41
-30.0
 62
     5
 63
     7
 74
     1
 91
        0
 64
     7
 65
   257
 75
     1
175
     1
 42
1.0
 92
        8
 66
     7
 43
1.0
 76
     1
 77
     6
 78
     2
 67
     7
 79
     3
170
     0
171
     0
290
     0
174
     0
 93
       13
 44
0.0
173
     0
291
     0
 45
0.0
1001
ACAD
1000
AcDbSavedByObjectVersion
1070
     0
  0
DICTIONARYVAR
  5
44D
102
{ACAD_REACTORS
330
44A
102
}
330
44A
100
DictionaryVariables
280
     0
  1
1:1
  0
DICTIONARYVAR
  5
44C
102
{ACAD_REACTORS
330
44A
102
}
330
44A
100
DictionaryVariables
280
     0
  1
STANDARD
  0
DICTIONARYVAR
  5
44B
102
{ACAD_REACTORS
330
44A
102
}
330
44A
100
DictionaryVariables
280
     0
  1
STANDARD
  0
DICTIONARYVAR
  5
450
102
{ACAD_REACTORS
330
44A
102
}
330
44A
100
DictionaryVariables
280
     0
  1
1
  0
DICTIONARYVAR
  5
44F
102
{ACAD_REACTORS
330
44A
102
}
330
44A
100
DictionaryVariables
280
     0
  1
0
  0
DICTIONARYVAR
  5
44E
102
{ACAD_REACTORS
330
44A
102
}
330
44A
100
DictionaryVariables
280
     0
  1
127
  0
DICTIONARYVAR
  5
6F3
102
{ACAD_REACTORS
330
44A
102
}
330
44A
100
DictionaryVariables
280
     0
  1
2
  0
DICTIONARY
  5
792
330
6E
100
AcDbDictionary
280
     1
281
     1
  3
ACAD_XREC_ROUNDTRIP
360
793
  0
DICTIONARY
  5
790
330
6A
100
AcDbDictionary
280
     1
281
     1
  3
ACAD_XREC_ROUNDTRIP
360
791
  0
DICTIONARY
  5
1A
330
19
100
AcDbDictionary
280
     1
281
     1
  3
ACAD_XREC_ROUNDTRIP
360
45B
  3
BUMPTILE
360
1C
  3
DIFFUSETILE
360
1B
  3
OPACITYTILE
360
1F
  3
REFLECTIONTILE
360
1E
  3
REFRACTIONTILE
360
20
  3
SPECULARTILE
360
1D
  0
DICTIONARY
  5
12
330
11
100
AcDbDictionary
280
     1
281
     1
  3
ACAD_XREC_ROUNDTRIP
360
45A
  3
BUMPTILE
360
14
  3
DIFFUSETILE
360
13
  3
OPACITYTILE
360
17
  3
REFLECTIONTILE
360
16
  3
REFRACTIONTILE
360
18
  3
SPECULARTILE
360
15
  0
DICTIONARY
  5
22
330
21
100
AcDbDictionary
280
     1
281
     1
  3
ACAD_XREC_ROUNDTRIP
360
45C
  3
BUMPTILE
360
24
  3
DIFFUSETILE
360
23
  3
OPACITYTILE
360
27
  3
REFLECTIONTILE
360
26
  3
REFRACTIONTILE
360
28
  3
SPECULARTILE
360
25
  0
DICTIONARY
  5
452
330
64
100
AcDbDictionary
280
     1
281
     1
  3
ACAD_ROUNDTRIP_2008_TABLESTYLE_CELLSTYLEMAP
360
758
  3
ACAD_XREC_ROUNDTRIP
360
78F
  0
DICTIONARY
  5
769
330
2F
100
AcDbDictionary
280
     1
281
     1
  3
ACAD_XREC_ROUNDTRIP
360
76A
  0
DICTIONARY
  5
794
330
2D4
100
AcDbDictionary
280
     1
281
     1
  3
ACAD_XREC_ROUNDTRIP
360
795
  0
DICTIONARY
  5
767
330
2E
100
AcDbDictionary
280
     1
281
     1
  3
ACAD_XREC_ROUNDTRIP
360
768
  0
DICTIONARY
  5
775
330
35
100
AcDbDictionary
280
     1
281
     1
  3
ACAD_XREC_ROUNDTRIP
360
776
  0
DICTIONARY
  5
77D
330
39
100
AcDbDictionary
280
     1
281
     1
  3
ACAD_XREC_ROUNDTRIP
360
77E
  0
DICTIONARY
  5
76F
330
32
100
AcDbDictionary
280
     1
281
     1
  3
ACAD_XREC_ROUNDTRIP
360
770
  0
DICTIONARY
  5
773
330
34
100
AcDbDictionary
280
     1
281
     1
  3
ACAD_XREC_ROUNDTRIP
360
774
  0
DICTIONARY
  5
78D
330
41
100
AcDbDictionary
280
     1
281
     1
  3
ACAD_XREC_ROUNDTRIP
360
78E
  0
DICTIONARY
  5
77B
330
38
100
AcDbDictionary
280
     1
281
     1
  3
ACAD_XREC_ROUNDTRIP
360
77C
  0
DICTIONARY
  5
75F
330
2A
100
AcDbDictionary
280
     1
281
     1
  3
ACAD_XREC_ROUNDTRIP
360
760
  0
DICTIONARY
  5
761
330
2B
100
AcDbDictionary
280
     1
281
     1
  3
ACAD_XREC_ROUNDTRIP
360
762
  0
DICTIONARY
  5
763
330
2C
100
AcDbDictionary
280
     1
281
     1
  3
ACAD_XREC_ROUNDTRIP
360
764
  0
DICTIONARY
  5
765
330
2D
100
AcDbDictionary
280
     1
281
     1
  3
ACAD_XREC_ROUNDTRIP
360
766
  0
DICTIONARY
  5
76D
330
31
100
AcDbDictionary
280
     1
281
     1
  3
ACAD_XREC_ROUNDTRIP
360
76E
  0
DICTIONARY
  5
789
330
3F
100
AcDbDictionary
280
     1
281
     1
  3
ACAD_XREC_ROUNDTRIP
360
78A
  0
DICTIONARY
  5
779
330
37
100
AcDbDictionary
280
     1
281
     1
  3
ACAD_XREC_ROUNDTRIP
360
77A
  0
DICTIONARY
  5
78B
330
40
100
AcDbDictionary
280
     1
281
     1
  3
ACAD_XREC_ROUNDTRIP
360
78C
  0
DICTIONARY
  5
771
330
33
100
AcDbDictionary
280
     1
281
     1
  3
ACAD_XREC_ROUNDTRIP
360
772
  0
DICTIONARY
  5
787
330
3E
100
AcDbDictionary
280
     1
281
     1
  3
ACAD_XREC_ROUNDTRIP
360
788
  0
DICTIONARY
  5
785
330
3D
100
AcDbDictionary
280
     1
281
     1
  3
ACAD_XREC_ROUNDTRIP
360
786
  0
DICTIONARY
  5
77F
330
3A
100
AcDbDictionary
280
     1
281
     1
  3
ACAD_XREC_ROUNDTRIP
360
780
  0
DICTIONARY
  5
781
330
3B
100
AcDbDictionary
280
     1
281
     1
  3
ACAD_XREC_ROUNDTRIP
360
782
  0
DICTIONARY
  5
777
330
36
100
AcDbDictionary
280
     1
281
     1
  3
ACAD_XREC_ROUNDTRIP
360
778
  0
DICTIONARY
  5
76B
330
30
100
AcDbDictionary
280
     1
281
     1
  3
ACAD_XREC_ROUNDTRIP
360
76C
  0
DICTIONARY
  5
783
330
3C
100
AcDbDictionary
280
     1
281
     1
  3
ACAD_XREC_ROUNDTRIP
360
784
  0
XRECORD
  5
793
102
{ACAD_REACTORS
330
792
102
}
330
792
100
AcDbXrecord
280
     1
102
SHADEPLOT
 70
     0
102
SHADEPLOTRESLEVEL
 70
     2
102
SHADEPLOTCUSTOMDPI
 70
   300
  0
XRECORD
  5
791
102
{ACAD_REACTORS
330
790
102
}
330
790
100
AcDbXrecord
280
     1
102
SHADEPLOT
 70
     0
102
SHADEPLOTRESLEVEL
 70
     2
102
SHADEPLOTCUSTOMDPI
 70
   300
  0
XRECORD
  5
45B
102
{ACAD_REACTORS
330
1A
102
}
330
1A
100
AcDbXrecord
280
     1
102
MATERIAL
148
0.0
149
0.0
149
0.0
 93
        0
 94
      127
282
     0
 72
     0
 77
     0
171
     0
175
     0
179
     0
273
     0
  0
XRECORD
  5
1C
102
{ACAD_REACTORS
330
1A
102
}
330
1A
100
AcDbXrecord
280
     1
270
     1
271
     1
  0
XRECORD
  5
1B
102
{ACAD_REACTORS
330
1A
102
}
330
1A
100
AcDbXrecord
280
     1
270
     1
271
     1
  0
XRECORD
  5
1F
102
{ACAD_REACTORS
330
1A
102
}
330
1A
100
AcDbXrecord
280
     1
270
     1
271
     1
  0
XRECORD
  5
1E
102
{ACAD_REACTORS
330
1A
102
}
330
1A
100
AcDbXrecord
280
     1
270
     1
271
     1
  0
XRECORD
  5
20
102
{ACAD_REACTORS
330
1A
102
}
330
1A
100
AcDbXrecord
280
     1
270
     1
271
     1
  0
XRECORD
  5
1D
102
{ACAD_REACTORS
330
1A
102
}
330
1A
100
AcDbXrecord
280
     1
270
     1
271
     1
  0
XRECORD
  5
45A
102
{ACAD_REACTORS
330
12
102
}
330
12
100
AcDbXrecord
280
     1
102
MATERIAL
148
0.0
149
0.0
149
0.0
 93
        0
 94
      127
282
     0
 72
     0
 77
     0
171
     0
175
     0
179
     0
273
     0
  0
XRECORD
  5
14
102
{ACAD_REACTORS
330
12
102
}
330
12
100
AcDbXrecord
280
     1
270
     1
271
     1
  0
XRECORD
  5
13
102
{ACAD_REACTORS
330
12
102
}
330
12
100
AcDbXrecord
280
     1
270
     1
271
     1
  0
XRECORD
  5
17
102
{ACAD_REACTORS
330
12
102
}
330
12
100
AcDbXrecord
280
     1
270
     1
271
     1
  0
XRECORD
  5
16
102
{ACAD_REACTORS
330
12
102
}
330
12
100
AcDbXrecord
280
     1
270
     1
271
     1
  0
XRECORD
  5
18
102
{ACAD_REACTORS
330
12
102
}
330
12
100
AcDbXrecord
280
     1
270
     1
271
     1
  0
XRECORD
  5
15
102
{ACAD_REACTORS
330
12
102
}
330
12
100
AcDbXrecord
280
     1
270
     1
271
     1
  0
XRECORD
  5
45C
102
{ACAD_REACTORS
330
22
102
}
330
22
100
AcDbXrecord
280
     1
102
MATERIAL
148
0.0
149
0.0
149
0.0
 93
        0
 94
      127
282
     0
 72
     0
 77
     0
171
     0
175
     0
179
     0
273
     0
  0
XRECORD
  5
24
102
{ACAD_REACTORS
330
22
102
}
330
22
100
AcDbXrecord
280
     1
270
     1
271
     1
  0
XRECORD
  5
23
102
{ACAD_REACTORS
330
22
102
}
330
22
100
AcDbXrecord
280
     1
270
     1
271
     1
  0
XRECORD
  5
27
102
{ACAD_REACTORS
330
22
102
}
330
22
100
AcDbXrecord
280
     1
270
     1
271
     1
  0
XRECORD
  5
26
102
{ACAD_REACTORS
330
22
102
}
330
22
100
AcDbXrecord
280
     1
270
     1
271
     1
  0
XRECORD
  5
28
102
{ACAD_REACTORS
330
22
102
}
330
22
100
AcDbXrecord
280
     1
270
     1
271
     1
  0
XRECORD
  5
25
102
{ACAD_REACTORS
330
22
102
}
330
22
100
AcDbXrecord
280
     1
270
     1
271
     1
  0
CELLSTYLEMAP
  5
758
102
{ACAD_REACTORS
330
452
102
}
330
452
100
AcDbCellStyleMap
 90
        3
300
CELLSTYLE
  1
TABLEFORMAT_BEGIN
 90
        5
170
     1
 91
        0
 92
    32768
 62
   257
 93
        1
300
CONTENTFORMAT
  1
CONTENTFORMAT_BEGIN
 90
        0
 91
        0
 92
      512
 93
        0
300

 40
0.0
140
1.0
 94
        5
 62
     0
340
55
144
0.25
309
CONTENTFORMAT_END
171
     1
301
MARGIN
  1
CELLMARGIN_BEGIN
 40
0.06
 40
0.06
 40
0.06
 40
0.06
 40
0.18
 40
0.18
309
CELLMARGIN_END
 94
        6
 95
        1
302
GRIDFORMAT
  1
GRIDFORMAT_BEGIN
 90
        0
 91
        1
 62
     0
 92
       -2
340
0
 93
        0
 40
0.045
309
GRIDFORMAT_END
 95
        2
302
GRIDFORMAT
  1
GRIDFORMAT_BEGIN
 90
        0
 91
        1
 62
     0
 92
       -2
340
0
 93
        0
 40
0.045
309
GRIDFORMAT_END
 95
        4
302
GRIDFORMAT
  1
GRIDFORMAT_BEGIN
 90
        0
 91
        1
 62
     0
 92
       -2
340
0
 93
        0
 40
0.045
309
GRIDFORMAT_END
 95
        8
302
GRIDFORMAT
  1
GRIDFORMAT_BEGIN
 90
        0
 91
        1
 62
     0
 92
       -2
340
0
 93
        0
 40
0.045
309
GRIDFORMAT_END
 95
       16
302
GRIDFORMAT
  1
GRIDFORMAT_BEGIN
 90
        0
 91
        1
 62
     0
 92
       -2
340
0
 93
        0
 40
0.045
309
GRIDFORMAT_END
 95
       32
302
GRIDFORMAT
  1
GRIDFORMAT_BEGIN
 90
        0
 91
        1
 62
     0
 92
       -2
340
0
 93
        0
 40
0.045
309
GRIDFORMAT_END
309
TABLEFORMAT_END
  1
CELLSTYLE_BEGIN
 90
        1
 91
        1
300
_TITLE
309
CELLSTYLE_END
300
CELLSTYLE
  1
TABLEFORMAT_BEGIN
 90
        5
170
     1
 91
        0
 92
        0
 62
   257
 93
        1
300
CONTENTFORMAT
  1
CONTENTFORMAT_BEGIN
 90
        0
 91
        0
 92
      512
 93
        0
300

 40
0.0
140
1.0
 94
        5
 62
     0
340
55
144
0.18
309
CONTENTFORMAT_END
171
     1
301
MARGIN
  1
CELLMARGIN_BEGIN
 40
0.06
 40
0.06
 40
0.06
 40
0.06
 40
0.18
 40
0.18
309
CELLMARGIN_END
 94
        6
 95
        1
302
GRIDFORMAT
  1
GRIDFORMAT_BEGIN
 90
        0
 91
        1
 62
     0
 92
       -2
340
0
 93
        0
 40
0.045
309
GRIDFORMAT_END
 95
        2
302
GRIDFORMAT
  1
GRIDFORMAT_BEGIN
 90
        0
 91
        1
 62
     0
 92
       -2
340
0
 93
        0
 40
0.045
309
GRIDFORMAT_END
 95
        4
302
GRIDFORMAT
  1
GRIDFORMAT_BEGIN
 90
        0
 91
        1
 62
     0
 92
       -2
340
0
 93
        0
 40
0.045
309
GRIDFORMAT_END
 95
        8
302
GRIDFORMAT
  1
GRIDFORMAT_BEGIN
 90
        0
 91
        1
 62
     0
 92
       -2
340
0
 93
        0
 40
0.045
309
GRIDFORMAT_END
 95
       16
302
GRIDFORMAT
  1
GRIDFORMAT_BEGIN
 90
        0
 91
        1
 62
     0
 92
       -2
340
0
 93
        0
 40
0.045
309
GRIDFORMAT_END
 95
       32
302
GRIDFORMAT
  1
GRIDFORMAT_BEGIN
 90
        0
 91
        1
 62
     0
 92
       -2
340
0
 93
        0
 40
0.045
309
GRIDFORMAT_END
309
TABLEFORMAT_END
  1
CELLSTYLE_BEGIN
 90
        2
 91
        1
300
_HEADER
309
CELLSTYLE_END
300
CELLSTYLE
  1
TABLEFORMAT_BEGIN
 90
        5
170
     1
 91
        0
 92
        0
 62
   257
 93
        1
300
CONTENTFORMAT
  1
CONTENTFORMAT_BEGIN
 90
        0
 91
        0
 92
      512
 93
        0
300

 40
0.0
140
1.0
 94
        2
 62
     0
340
55
144
0.18
309
CONTENTFORMAT_END
171
     1
301
MARGIN
  1
CELLMARGIN_BEGIN
 40
0.06
 40
0.06
 40
0.06
 40
0.06
 40
0.18
 40
0.18
309
CELLMARGIN_END
 94
        6
 95
        1
302
GRIDFORMAT
  1
GRIDFORMAT_BEGIN
 90
        0
 91
        1
 62
     0
 92
       -2
340
0
 93
        0
 40
0.045
309
GRIDFORMAT_END
 95
        2
302
GRIDFORMAT
  1
GRIDFORMAT_BEGIN
 90
        0
 91
        1
 62
     0
 92
       -2
340
0
 93
        0
 40
0.045
309
GRIDFORMAT_END
 95
        4
302
GRIDFORMAT
  1
GRIDFORMAT_BEGIN
 90
        0
 91
        1
 62
     0
 92
       -2
340
0
 93
        0
 40
0.045
309
GRIDFORMAT_END
 95
        8
302
GRIDFORMAT
  1
GRIDFORMAT_BEGIN
 90
        0
 91
        1
 62
     0
 92
       -2
340
0
 93
        0
 40
0.045
309
GRIDFORMAT_END
 95
       16
302
GRIDFORMAT
  1
GRIDFORMAT_BEGIN
 90
        0
 91
        1
 62
     0
 92
       -2
340
0
 93
        0
 40
0.045
309
GRIDFORMAT_END
 95
       32
302
GRIDFORMAT
  1
GRIDFORMAT_BEGIN
 90
        0
 91
        1
 62
     0
 92
       -2
340
0
 93
        0
 40
0.045
309
GRIDFORMAT_END
309
TABLEFORMAT_END
  1
CELLSTYLE_BEGIN
 90
        3
 91
        2
300
_DATA
309
CELLSTYLE_END
  0
XRECORD
  5
78F
102
{ACAD_REACTORS
330
452
102
}
330
452
100
AcDbXrecord
280
     1
102
ACAD_ROUNDTRIP_PRE2007_TABLESTYLE
 90
      512
 91
        0
  1

 92
      512
 93
        0
  2

 94
      512
 95
        0
  3

  0
XRECORD
  5
76A
102
{ACAD_REACTORS
330
769
102
}
330
769
100
AcDbXrecord
280
     1
102
RTVSPropertyOp0
 70
     1
102
RTVSPropertyOp1
 70
     1
102
RTVSPropertyOp2
 70
     1
102
RTVSPropertyOp3
 70
     1
102
RTVSPropertyOp4
 70
     1
102
RTVSPropertyOp5
 70
     1
102
RTVSPropertyOp6
 70
     1
102
RTVSPropertyOp7
 70
     1
102
RTVSPropertyOp8
 70
     1
102
RTVSPropertyOp9
 70
     1
102
RTVSPropertyOp10
 70
     1
102
RTVSPropertyOp11
 70
     1
102
RTVSPropertyOp12
 70
     1
102
RTVSPropertyOp13
 70
     1
102
RTVSPropertyOp14
 70
     1
102
RTVSPropertyOp15
 70
     1
102
RTVSPropertyOp16
 70
     1
102
RTVSPropertyOp17
 70
     1
102
RTVSPropertyOp18
 70
     1
102
RTVSPropertyOp19
 70
     1
102
RTVSPropertyOp20
 70
     1
102
RTVSPropertyOp21
 70
     1
102
RTVSPropertyOp22
 70
     1
102
RTVSPropertyOp23
 70
     1
102
RTVSPropertyOp24
 70
     1
102
RTVSPropertyOp25
 70
     1
102
RTVSPropertyOp26
 70
     1
102
RTVSPropertyOp27
 70
     1
102
RTVSPropertyOp28
 70
     1
102
RTVSPropertyOp29
 70
     1
102
RTVSPropertyOp30
 70
     1
102
RTVSPropertyOp31
 70
     1
102
RTVSPropertyOp32
 70
     1
  0
XRECORD
  5
795
102
{ACAD_REACTORS
330
794
102
}
330
794
100
AcDbXrecord
280
     1
102
RTVSPropertyOp0
 70
     1
102
RTVSPropertyOp1
 70
     1
102
RTVSPropertyOp2
 70
     1
102
RTVSPropertyOp3
 70
     1
102
RTVSPropertyOp4
 70
     1
102
RTVSPropertyOp5
 70
     1
102
RTVSPropertyOp6
 70
     1
102
RTVSPropertyOp7
 70
     1
102
RTVSPropertyOp8
 70
     1
102
RTVSPropertyOp9
 70
     1
102
RTVSPropertyOp10
 70
     1
102
RTVSPropertyOp11
 70
     1
102
RTVSPropertyOp12
 70
     1
102
RTVSPropertyOp13
 70
     1
102
RTVSPropertyOp14
 70
     1
102
RTVSPropertyOp15
 70
     1
102
RTVSPropertyOp16
 70
     1
102
RTVSPropertyOp17
 70
     1
102
RTVSPropertyOp18
 70
     1
102
RTVSPropertyOp19
 70
     1
102
RTVSPropertyOp20
 70
     1
102
RTVSPropertyOp21
 70
     1
102
RTVSPropertyOp22
 70
     1
102
RTVSPropertyOp23
 70
     1
102
RTVSPropertyOp24
 70
     1
102
RTVSPropertyOp25
 70
     1
102
RTVSPropertyOp26
 70
     1
102
RTVSPropertyOp27
 70
     1
102
RTVSPropertyOp28
 70
     1
102
RTVSPropertyOp29
 70
     1
102
RTVSPropertyOp30
 70
     1
102
RTVSPropertyOp31
 70
     1
102
RTVSPropertyOp32
 70
     1
  0
XRECORD
  5
768
102
{ACAD_REACTORS
330
767
102
}
330
767
100
AcDbXrecord
280
     1
102
RTVSPropertyOp0
 70
     1
102
RTVSPropertyOp1
 70
     1
102
RTVSPropertyOp2
 70
     1
102
RTVSPropertyOp3
 70
     1
102
RTVSPropertyOp4
 70
     1
102
RTVSPropertyOp5
 70
     1
102
RTVSPropertyOp6
 70
     1
102
RTVSPropertyOp7
 70
     1
102
RTVSPropertyOp8
 70
     1
102
RTVSPropertyOp9
 70
     1
102
RTVSPropertyOp10
 70
     1
102
RTVSPropertyOp11
 70
     1
102
RTVSPropertyOp12
 70
     1
102
RTVSPropertyOp13
 70
     1
102
RTVSPropertyOp14
 70
     1
102
RTVSPropertyOp15
 70
     1
102
RTVSPropertyOp16
 70
     1
102
RTVSPropertyOp17
 70
     1
102
RTVSPropertyOp18
 70
     1
102
RTVSPropertyOp19
 70
     1
102
RTVSPropertyOp20
 70
     1
102
RTVSPropertyOp21
 70
     1
102
RTVSPropertyOp22
 70
     1
102
RTVSPropertyOp23
 70
     1
102
RTVSPropertyOp24
 70
     1
102
RTVSPropertyOp25
 70
     1
102
RTVSPropertyOp26
 70
     1
102
RTVSPropertyOp27
 70
     1
102
RTVSPropertyOp28
 70
     1
102
RTVSPropertyOp29
 70
     1
102
RTVSPropertyOp30
 70
     1
102
RTVSPropertyOp31
 70
     1
102
RTVSPropertyOp32
 70
     1
  0
XRECORD
  5
776
102
{ACAD_REACTORS
330
775
102
}
330
775
100
AcDbXrecord
280
     1
102
RTVSPropertyOp0
 70
     1
102
RTVSPropertyOp1
 70
     1
102
RTVSPropertyOp2
 70
     1
102
RTVSPropertyOp3
 70
     1
102
RTVSPropertyOp4
 70
     1
102
RTVSPropertyOp5
 70
     1
102
RTVSPropertyOp6
 70
     1
102
RTVSPropertyOp7
 70
     1
102
RTVSPropertyOp8
 70
     1
102
RTVSPropertyOp9
 70
     1
102
RTVSPropertyOp10
 70
     1
102
RTVSPropertyOp11
 70
     1
102
RTVSPropertyOp12
 70
     1
102
RTVSPropertyOp13
 70
     1
102
RTVSPropertyOp14
 70
     1
102
RTVSPropertyOp15
 70
     1
102
RTVSPropertyOp16
 70
     1
102
RTVSPropertyOp17
 70
     1
102
RTVSPropertyOp18
 70
     1
102
RTVSPropertyOp19
 70
     1
102
RTVSPropertyOp20
 70
     1
102
RTVSPropertyOp21
 70
     1
102
RTVSPropertyOp22
 70
     1
102
RTVSPropertyOp23
 70
     1
102
RTVSPropertyOp24
 70
     1
102
RTVSPropertyOp25
 70
     1
102
RTVSPropertyOp26
 70
     1
102
RTVSPropertyOp27
 70
     1
102
RTVSPropertyOp28
 70
     1
102
RTVSPropertyOp29
 70
     1
102
RTVSPropertyOp30
 70
     1
102
RTVSPropertyOp31
 70
     1
102
RTVSPropertyOp32
 70
     1
  0
XRECORD
  5
77E
102
{ACAD_REACTORS
330
77D
102
}
330
77D
100
AcDbXrecord
280
     1
102
RTVSPropertyOp0
 70
     1
102
RTVSPropertyOp1
 70
     1
102
RTVSPropertyOp2
 70
     1
102
RTVSPropertyOp3
 70
     1
102
RTVSPropertyOp4
 70
     1
102
RTVSPropertyOp5
 70
     1
102
RTVSPropertyOp6
 70
     1
102
RTVSPropertyOp7
 70
     1
102
RTVSPropertyOp8
 70
     1
102
RTVSPropertyOp9
 70
     1
102
RTVSPropertyOp10
 70
     1
102
RTVSPropertyOp11
 70
     1
102
RTVSPropertyOp12
 70
     1
102
RTVSPropertyOp13
 70
     1
102
RTVSPropertyOp14
 70
     1
102
RTVSPropertyOp15
 70
     1
102
RTVSPropertyOp16
 70
     1
102
RTVSPropertyOp17
 70
     1
102
RTVSPropertyOp18
 70
     1
102
RTVSPropertyOp19
 70
     1
102
RTVSPropertyOp20
 70
     1
102
RTVSPropertyOp21
 70
     1
102
RTVSPropertyOp22
 70
     1
102
RTVSPropertyOp23
 70
     1
102
RTVSPropertyOp24
 70
     1
102
RTVSPropertyOp25
 70
     1
102
RTVSPropertyOp26
 70
     1
102
RTVSPropertyOp27
 70
     1
102
RTVSPropertyOp28
 70
     1
102
RTVSPropertyOp29
 70
     1
102
RTVSPropertyOp30
 70
     1
102
RTVSPropertyOp31
 70
     1
102
RTVSPropertyOp32
 70
     1
  0
XRECORD
  5
770
102
{ACAD_REACTORS
330
76F
102
}
330
76F
100
AcDbXrecord
280
     1
102
RTVSPropertyOp0
 70
     1
102
RTVSPropertyOp1
 70
     1
102
RTVSPropertyOp2
 70
     1
102
RTVSPropertyOp3
 70
     1
102
RTVSPropertyOp4
 70
     1
102
RTVSPropertyOp5
 70
     1
102
RTVSPropertyOp6
 70
     1
102
RTVSPropertyOp7
 70
     1
102
RTVSPropertyOp8
 70
     1
102
RTVSPropertyOp9
 70
     1
102
RTVSPropertyOp10
 70
     1
102
RTVSPropertyOp11
 70
     1
102
RTVSPropertyOp12
 70
     1
102
RTVSPropertyOp13
 70
     1
102
RTVSPropertyOp14
 70
     1
102
RTVSPropertyOp15
 70
     1
102
RTVSPropertyOp16
 70
     1
102
RTVSPropertyOp17
 70
     1
102
RTVSPropertyOp18
 70
     1
102
RTVSPropertyOp19
 70
     1
102
RTVSPropertyOp20
 70
     1
102
RTVSPropertyOp21
 70
     1
102
RTVSPropertyOp22
 70
     1
102
RTVSPropertyOp23
 70
     1
102
RTVSPropertyOp24
 70
     1
102
RTVSPropertyOp25
 70
     1
102
RTVSPropertyOp26
 70
     1
102
RTVSPropertyOp27
 70
     1
102
RTVSPropertyOp28
 70
     1
102
RTVSPropertyOp29
 70
     1
102
RTVSPropertyOp30
 70
     1
102
RTVSPropertyOp31
 70
     1
102
RTVSPropertyOp32
 70
     1
  0
XRECORD
  5
774
102
{ACAD_REACTORS
330
773
102
}
330
773
100
AcDbXrecord
280
     1
102
RTVSPropertyOp0
 70
     1
102
RTVSPropertyOp1
 70
     1
102
RTVSPropertyOp2
 70
     1
102
RTVSPropertyOp3
 70
     1
102
RTVSPropertyOp4
 70
     1
102
RTVSPropertyOp5
 70
     1
102
RTVSPropertyOp6
 70
     1
102
RTVSPropertyOp7
 70
     1
102
RTVSPropertyOp8
 70
     1
102
RTVSPropertyOp9
 70
     1
102
RTVSPropertyOp10
 70
     1
102
RTVSPropertyOp11
 70
     1
102
RTVSPropertyOp12
 70
     1
102
RTVSPropertyOp13
 70
     1
102
RTVSPropertyOp14
 70
     1
102
RTVSPropertyOp15
 70
     1
102
RTVSPropertyOp16
 70
     1
102
RTVSPropertyOp17
 70
     1
102
RTVSPropertyOp18
 70
     1
102
RTVSPropertyOp19
 70
     1
102
RTVSPropertyOp20
 70
     1
102
RTVSPropertyOp21
 70
     1
102
RTVSPropertyOp22
 70
     1
102
RTVSPropertyOp23
 70
     1
102
RTVSPropertyOp24
 70
     1
102
RTVSPropertyOp25
 70
     1
102
RTVSPropertyOp26
 70
     1
102
RTVSPropertyOp27
 70
     1
102
RTVSPropertyOp28
 70
     1
102
RTVSPropertyOp29
 70
     1
102
RTVSPropertyOp30
 70
     1
102
RTVSPropertyOp31
 70
     1
102
RTVSPropertyOp32
 70
     1
  0
XRECORD
  5
78E
102
{ACAD_REACTORS
330
78D
102
}
330
78D
100
AcDbXrecord
280
     1
102
RTVSPropertyOp0
 70
     0
102
RTVSPropertyOp1
 70
     0
102
RTVSPropertyOp2
 70
     0
102
RTVSPropertyOp3
 70
     0
102
RTVSPropertyOp4
 70
     0
102
RTVSPropertyOp5
 70
     0
102
RTVSPropertyOp6
 70
     0
102
RTVSPropertyOp7
 70
     0
102
RTVSPropertyOp8
 70
     0
102
RTVSPropertyOp9
 70
     0
102
RTVSPropertyOp10
 70
     0
102
RTVSPropertyOp11
 70
     0
102
RTVSPropertyOp12
 70
     0
102
RTVSPropertyOp13
 70
     0
102
RTVSPropertyOp14
 70
     2
102
RTVSPropertyOp15
 70
     0
102
RTVSPropertyOp16
 70
     0
102
RTVSPropertyOp17
 70
     0
102
RTVSPropertyOp18
 70
     0
102
RTVSPropertyOp19
 70
     0
102
RTVSPropertyOp20
 70
     0
102
RTVSPropertyOp21
 70
     0
102
RTVSPropertyOp22
 70
     0
102
RTVSPropertyOp23
 70
     0
102
RTVSPropertyOp24
 70
     0
102
RTVSPropertyOp25
 70
     0
102
RTVSPropertyOp26
 70
     0
102
RTVSPropertyOp27
 70
     0
102
RTVSPropertyOp28
 70
     0
102
RTVSPropertyOp29
 70
     0
102
RTVSPropertyOp30
 70
     0
102
RTVSPropertyOp31
 70
     0
102
RTVSPropertyOp32
 70
     0
  0
XRECORD
  5
77C
102
{ACAD_REACTORS
330
77B
102
}
330
77B
100
AcDbXrecord
280
     1
102
RTVSPropertyOp0
 70
     1
102
RTVSPropertyOp1
 70
     1
102
RTVSPropertyOp2
 70
     1
102
RTVSPropertyOp3
 70
     1
102
RTVSPropertyOp4
 70
     1
102
RTVSPropertyOp5
 70
     1
102
RTVSPropertyOp6
 70
     1
102
RTVSPropertyOp7
 70
     1
102
RTVSPropertyOp8
 70
     1
102
RTVSPropertyOp9
 70
     1
102
RTVSPropertyOp10
 70
     1
102
RTVSPropertyOp11
 70
     1
102
RTVSPropertyOp12
 70
     1
102
RTVSPropertyOp13
 70
     1
102
RTVSPropertyOp14
 70
     1
102
RTVSPropertyOp15
 70
     1
102
RTVSPropertyOp16
 70
     1
102
RTVSPropertyOp17
 70
     1
102
RTVSPropertyOp18
 70
     1
102
RTVSPropertyOp19
 70
     1
102
RTVSPropertyOp20
 70
     1
102
RTVSPropertyOp21
 70
     1
102
RTVSPropertyOp22
 70
     1
102
RTVSPropertyOp23
 70
     1
102
RTVSPropertyOp24
 70
     1
102
RTVSPropertyOp25
 70
     1
102
RTVSPropertyOp26
 70
     1
102
RTVSPropertyOp27
 70
     1
102
RTVSPropertyOp28
 70
     1
102
RTVSPropertyOp29
 70
     1
102
RTVSPropertyOp30
 70
     1
102
RTVSPropertyOp31
 70
     1
102
RTVSPropertyOp32
 70
     1
  0
XRECORD
  5
760
102
{ACAD_REACTORS
330
75F
102
}
330
75F
100
AcDbXrecord
280
     1
102
RTVSPropertyOp0
 70
     1
102
RTVSPropertyOp1
 70
     1
102
RTVSPropertyOp2
 70
     1
102
RTVSPropertyOp3
 70
     1
102
RTVSPropertyOp4
 70
     1
102
RTVSPropertyOp5
 70
     1
102
RTVSPropertyOp6
 70
     1
102
RTVSPropertyOp7
 70
     1
102
RTVSPropertyOp8
 70
     1
102
RTVSPropertyOp9
 70
     1
102
RTVSPropertyOp10
 70
     1
102
RTVSPropertyOp11
 70
     1
102
RTVSPropertyOp12
 70
     1
102
RTVSPropertyOp13
 70
     1
102
RTVSPropertyOp14
 70
     1
102
RTVSPropertyOp15
 70
     1
102
RTVSPropertyOp16
 70
     1
102
RTVSPropertyOp17
 70
     1
102
RTVSPropertyOp18
 70
     1
102
RTVSPropertyOp19
 70
     1
102
RTVSPropertyOp20
 70
     1
102
RTVSPropertyOp21
 70
     1
102
RTVSPropertyOp22
 70
     1
102
RTVSPropertyOp23
 70
     1
102
RTVSPropertyOp24
 70
     1
102
RTVSPropertyOp25
 70
     1
102
RTVSPropertyOp26
 70
     1
102
RTVSPropertyOp27
 70
     1
102
RTVSPropertyOp28
 70
     1
102
RTVSPropertyOp29
 70
     1
102
RTVSPropertyOp30
 70
     1
102
RTVSPropertyOp31
 70
     1
102
RTVSPropertyOp32
 70
     1
  0
XRECORD
  5
762
102
{ACAD_REACTORS
330
761
102
}
330
761
100
AcDbXrecord
280
     1
102
RTVSPropertyOp0
 70
     1
102
RTVSPropertyOp1
 70
     1
102
RTVSPropertyOp2
 70
     1
102
RTVSPropertyOp3
 70
     1
102
RTVSPropertyOp4
 70
     1
102
RTVSPropertyOp5
 70
     1
102
RTVSPropertyOp6
 70
     1
102
RTVSPropertyOp7
 70
     1
102
RTVSPropertyOp8
 70
     1
102
RTVSPropertyOp9
 70
     1
102
RTVSPropertyOp10
 70
     1
102
RTVSPropertyOp11
 70
     1
102
RTVSPropertyOp12
 70
     1
102
RTVSPropertyOp13
 70
     1
102
RTVSPropertyOp14
 70
     1
102
RTVSPropertyOp15
 70
     1
102
RTVSPropertyOp16
 70
     1
102
RTVSPropertyOp17
 70
     1
102
RTVSPropertyOp18
 70
     1
102
RTVSPropertyOp19
 70
     1
102
RTVSPropertyOp20
 70
     1
102
RTVSPropertyOp21
 70
     1
102
RTVSPropertyOp22
 70
     1
102
RTVSPropertyOp23
 70
     1
102
RTVSPropertyOp24
 70
     1
102
RTVSPropertyOp25
 70
     1
102
RTVSPropertyOp26
 70
     1
102
RTVSPropertyOp27
 70
     1
102
RTVSPropertyOp28
 70
     1
102
RTVSPropertyOp29
 70
     1
102
RTVSPropertyOp30
 70
     1
102
RTVSPropertyOp31
 70
     1
102
RTVSPropertyOp32
 70
     1
  0
XRECORD
  5
764
102
{ACAD_REACTORS
330
763
102
}
330
763
100
AcDbXrecord
280
     1
102
RTVSPropertyOp0
 70
     1
102
RTVSPropertyOp1
 70
     1
102
RTVSPropertyOp2
 70
     1
102
RTVSPropertyOp3
 70
     1
102
RTVSPropertyOp4
 70
     1
102
RTVSPropertyOp5
 70
     1
102
RTVSPropertyOp6
 70
     1
102
RTVSPropertyOp7
 70
     1
102
RTVSPropertyOp8
 70
     1
102
RTVSPropertyOp9
 70
     1
102
RTVSPropertyOp10
 70
     1
102
RTVSPropertyOp11
 70
     1
102
RTVSPropertyOp12
 70
     1
102
RTVSPropertyOp13
 70
     1
102
RTVSPropertyOp14
 70
     1
102
RTVSPropertyOp15
 70
     1
102
RTVSPropertyOp16
 70
     1
102
RTVSPropertyOp17
 70
     1
102
RTVSPropertyOp18
 70
     1
102
RTVSPropertyOp19
 70
     1
102
RTVSPropertyOp20
 70
     1
102
RTVSPropertyOp21
 70
     1
102
RTVSPropertyOp22
 70
     1
102
RTVSPropertyOp23
 70
     1
102
RTVSPropertyOp24
 70
     1
102
RTVSPropertyOp25
 70
     1
102
RTVSPropertyOp26
 70
     1
102
RTVSPropertyOp27
 70
     1
102
RTVSPropertyOp28
 70
     1
102
RTVSPropertyOp29
 70
     1
102
RTVSPropertyOp30
 70
     1
102
RTVSPropertyOp31
 70
     1
102
RTVSPropertyOp32
 70
     1
  0
XRECORD
  5
766
102
{ACAD_REACTORS
330
765
102
}
330
765
100
AcDbXrecord
280
     1
102
RTVSPropertyOp0
 70
     1
102
RTVSPropertyOp1
 70
     1
102
RTVSPropertyOp2
 70
     1
102
RTVSPropertyOp3
 70
     1
102
RTVSPropertyOp4
 70
     1
102
RTVSPropertyOp5
 70
     1
102
RTVSPropertyOp6
 70
     1
102
RTVSPropertyOp7
 70
     1
102
RTVSPropertyOp8
 70
     1
102
RTVSPropertyOp9
 70
     1
102
RTVSPropertyOp10
 70
     1
102
RTVSPropertyOp11
 70
     1
102
RTVSPropertyOp12
 70
     1
102
RTVSPropertyOp13
 70
     1
102
RTVSPropertyOp14
 70
     1
102
RTVSPropertyOp15
 70
     1
102
RTVSPropertyOp16
 70
     1
102
RTVSPropertyOp17
 70
     1
102
RTVSPropertyOp18
 70
     1
102
RTVSPropertyOp19
 70
     1
102
RTVSPropertyOp20
 70
     1
102
RTVSPropertyOp21
 70
     1
102
RTVSPropertyOp22
 70
     1
102
RTVSPropertyOp23
 70
     1
102
RTVSPropertyOp24
 70
     1
102
RTVSPropertyOp25
 70
     1
102
RTVSPropertyOp26
 70
     1
102
RTVSPropertyOp27
 70
     1
102
RTVSPropertyOp28
 70
     1
102
RTVSPropertyOp29
 70
     1
102
RTVSPropertyOp30
 70
     1
102
RTVSPropertyOp31
 70
     1
102
RTVSPropertyOp32
 70
     1
  0
XRECORD
  5
76E
102
{ACAD_REACTORS
330
76D
102
}
330
76D
100
AcDbXrecord
280
     1
102
RTVSPropertyOp0
 70
     1
102
RTVSPropertyOp1
 70
     1
102
RTVSPropertyOp2
 70
     1
102
RTVSPropertyOp3
 70
     1
102
RTVSPropertyOp4
 70
     1
102
RTVSPropertyOp5
 70
     1
102
RTVSPropertyOp6
 70
     1
102
RTVSPropertyOp7
 70
     1
102
RTVSPropertyOp8
 70
     1
102
RTVSPropertyOp9
 70
     1
102
RTVSPropertyOp10
 70
     1
102
RTVSPropertyOp11
 70
     1
102
RTVSPropertyOp12
 70
     1
102
RTVSPropertyOp13
 70
     1
102
RTVSPropertyOp14
 70
     1
102
RTVSPropertyOp15
 70
     1
102
RTVSPropertyOp16
 70
     1
102
RTVSPropertyOp17
 70
     1
102
RTVSPropertyOp18
 70
     1
102
RTVSPropertyOp19
 70
     1
102
RTVSPropertyOp20
 70
     1
102
RTVSPropertyOp21
 70
     1
102
RTVSPropertyOp22
 70
     1
102
RTVSPropertyOp23
 70
     1
102
RTVSPropertyOp24
 70
     1
102
RTVSPropertyOp25
 70
     1
102
RTVSPropertyOp26
 70
     1
102
RTVSPropertyOp27
 70
     1
102
RTVSPropertyOp28
 70
     1
102
RTVSPropertyOp29
 70
     1
102
RTVSPropertyOp30
 70
     1
102
RTVSPropertyOp31
 70
     1
102
RTVSPropertyOp32
 70
     1
  0
XRECORD
  5
78A
102
{ACAD_REACTORS
330
789
102
}
330
789
100
AcDbXrecord
280
     1
102
RTVSPropertyOp0
 70
     0
102
RTVSPropertyOp1
 70
     0
102
RTVSPropertyOp2
 70
     0
102
RTVSPropertyOp3
 70
     0
102
RTVSPropertyOp4
 70
     0
102
RTVSPropertyOp5
 70
     0
102
RTVSPropertyOp6
 70
     0
102
RTVSPropertyOp7
 70
     0
102
RTVSPropertyOp8
 70
     0
102
RTVSPropertyOp9
 70
     0
102
RTVSPropertyOp10
 70
     0
102
RTVSPropertyOp11
 70
     0
102
RTVSPropertyOp12
 70
     0
102
RTVSPropertyOp13
 70
     0
102
RTVSPropertyOp14
 70
     2
102
RTVSPropertyOp15
 70
     0
102
RTVSPropertyOp16
 70
     0
102
RTVSPropertyOp17
 70
     0
102
RTVSPropertyOp18
 70
     0
102
RTVSPropertyOp19
 70
     0
102
RTVSPropertyOp20
 70
     0
102
RTVSPropertyOp21
 70
     0
102
RTVSPropertyOp22
 70
     0
102
RTVSPropertyOp23
 70
     0
102
RTVSPropertyOp24
 70
     0
102
RTVSPropertyOp25
 70
     0
102
RTVSPropertyOp26
 70
     0
102
RTVSPropertyOp27
 70
     0
102
RTVSPropertyOp28
 70
     0
102
RTVSPropertyOp29
 70
     0
102
RTVSPropertyOp30
 70
     0
102
RTVSPropertyOp31
 70
     0
102
RTVSPropertyOp32
 70
     0
  0
XRECORD
  5
77A
102
{ACAD_REACTORS
330
779
102
}
330
779
100
AcDbXrecord
280
     1
102
RTVSPropertyOp0
 70
     1
102
RTVSPropertyOp1
 70
     1
102
RTVSPropertyOp2
 70
     1
102
RTVSPropertyOp3
 70
     1
102
RTVSPropertyOp4
 70
     1
102
RTVSPropertyOp5
 70
     1
102
RTVSPropertyOp6
 70
     1
102
RTVSPropertyOp7
 70
     1
102
RTVSPropertyOp8
 70
     1
102
RTVSPropertyOp9
 70
     1
102
RTVSPropertyOp10
 70
     1
102
RTVSPropertyOp11
 70
     1
102
RTVSPropertyOp12
 70
     1
102
RTVSPropertyOp13
 70
     1
102
RTVSPropertyOp14
 70
     1
102
RTVSPropertyOp15
 70
     1
102
RTVSPropertyOp16
 70
     1
102
RTVSPropertyOp17
 70
     1
102
RTVSPropertyOp18
 70
     1
102
RTVSPropertyOp19
 70
     1
102
RTVSPropertyOp20
 70
     1
102
RTVSPropertyOp21
 70
     1
102
RTVSPropertyOp22
 70
     1
102
RTVSPropertyOp23
 70
     1
102
RTVSPropertyOp24
 70
     1
102
RTVSPropertyOp25
 70
     1
102
RTVSPropertyOp26
 70
     1
102
RTVSPropertyOp27
 70
     1
102
RTVSPropertyOp28
 70
     1
102
RTVSPropertyOp29
 70
     1
102
RTVSPropertyOp30
 70
     1
102
RTVSPropertyOp31
 70
     1
102
RTVSPropertyOp32
 70
     1
  0
XRECORD
  5
78C
102
{ACAD_REACTORS
330
78B
102
}
330
78B
100
AcDbXrecord
280
     1
102
RTVSPropertyOp0
 70
     0
102
RTVSPropertyOp1
 70
     0
102
RTVSPropertyOp2
 70
     0
102
RTVSPropertyOp3
 70
     0
102
RTVSPropertyOp4
 70
     0
102
RTVSPropertyOp5
 70
     0
102
RTVSPropertyOp6
 70
     0
102
RTVSPropertyOp7
 70
     0
102
RTVSPropertyOp8
 70
     0
102
RTVSPropertyOp9
 70
     0
102
RTVSPropertyOp10
 70
     0
102
RTVSPropertyOp11
 70
     0
102
RTVSPropertyOp12
 70
     0
102
RTVSPropertyOp13
 70
     0
102
RTVSPropertyOp14
 70
     2
102
RTVSPropertyOp15
 70
     0
102
RTVSPropertyOp16
 70
     0
102
RTVSPropertyOp17
 70
     0
102
RTVSPropertyOp18
 70
     0
102
RTVSPropertyOp19
 70
     0
102
RTVSPropertyOp20
 70
     0
102
RTVSPropertyOp21
 70
     0
102
RTVSPropertyOp22
 70
     0
102
RTVSPropertyOp23
 70
     0
102
RTVSPropertyOp24
 70
     0
102
RTVSPropertyOp25
 70
     0
102
RTVSPropertyOp26
 70
     0
102
RTVSPropertyOp27
 70
     0
102
RTVSPropertyOp28
 70
     0
102
RTVSPropertyOp29
 70
     0
102
RTVSPropertyOp30
 70
     0
102
RTVSPropertyOp31
 70
     0
102
RTVSPropertyOp32
 70
     0
  0
XRECORD
  5
772
102
{ACAD_REACTORS
330
771
102
}
330
771
100
AcDbXrecord
280
     1
102
RTVSPropertyOp0
 70
     1
102
RTVSPropertyOp1
 70
     1
102
RTVSPropertyOp2
 70
     1
102
RTVSPropertyOp3
 70
     1
102
RTVSPropertyOp4
 70
     1
102
RTVSPropertyOp5
 70
     1
102
RTVSPropertyOp6
 70
     1
102
RTVSPropertyOp7
 70
     1
102
RTVSPropertyOp8
 70
     1
102
RTVSPropertyOp9
 70
     1
102
RTVSPropertyOp10
 70
     1
102
RTVSPropertyOp11
 70
     1
102
RTVSPropertyOp12
 70
     1
102
RTVSPropertyOp13
 70
     1
102
RTVSPropertyOp14
 70
     1
102
RTVSPropertyOp15
 70
     1
102
RTVSPropertyOp16
 70
     1
102
RTVSPropertyOp17
 70
     1
102
RTVSPropertyOp18
 70
     1
102
RTVSPropertyOp19
 70
     1
102
RTVSPropertyOp20
 70
     1
102
RTVSPropertyOp21
 70
     1
102
RTVSPropertyOp22
 70
     1
102
RTVSPropertyOp23
 70
     1
102
RTVSPropertyOp24
 70
     1
102
RTVSPropertyOp25
 70
     1
102
RTVSPropertyOp26
 70
     1
102
RTVSPropertyOp27
 70
     1
102
RTVSPropertyOp28
 70
     1
102
RTVSPropertyOp29
 70
     1
102
RTVSPropertyOp30
 70
     1
102
RTVSPropertyOp31
 70
     1
102
RTVSPropertyOp32
 70
     1
  0
XRECORD
  5
788
102
{ACAD_REACTORS
330
787
102
}
330
787
100
AcDbXrecord
280
     1
102
RTVSPropertyOp0
 70
     1
102
RTVSPropertyOp1
 70
     1
102
RTVSPropertyOp2
 70
     1
102
RTVSPropertyOp3
 70
     1
102
RTVSPropertyOp4
 70
     1
102
RTVSPropertyOp5
 70
     1
102
RTVSPropertyOp6
 70
     1
102
RTVSPropertyOp7
 70
     1
102
RTVSPropertyOp8
 70
     1
102
RTVSPropertyOp9
 70
     1
102
RTVSPropertyOp10
 70
     1
102
RTVSPropertyOp11
 70
     1
102
RTVSPropertyOp12
 70
     1
102
RTVSPropertyOp13
 70
     1
102
RTVSPropertyOp14
 70
     1
102
RTVSPropertyOp15
 70
     1
102
RTVSPropertyOp16
 70
     1
102
RTVSPropertyOp17
 70
     1
102
RTVSPropertyOp18
 70
     1
102
RTVSPropertyOp19
 70
     1
102
RTVSPropertyOp20
 70
     1
102
RTVSPropertyOp21
 70
     1
102
RTVSPropertyOp22
 70
     1
102
RTVSPropertyOp23
 70
     1
102
RTVSPropertyOp24
 70
     1
102
RTVSPropertyOp25
 70
     1
102
RTVSPropertyOp26
 70
     1
102
RTVSPropertyOp27
 70
     1
102
RTVSPropertyOp28
 70
     1
102
RTVSPropertyOp29
 70
     1
102
RTVSPropertyOp30
 70
     1
102
RTVSPropertyOp31
 70
     1
102
RTVSPropertyOp32
 70
     1
  0
XRECORD
  5
786
102
{ACAD_REACTORS
330
785
102
}
330
785
100
AcDbXrecord
280
     1
102
RTVSPropertyOp0
 70
     1
102
RTVSPropertyOp1
 70
     1
102
RTVSPropertyOp2
 70
     1
102
RTVSPropertyOp3
 70
     1
102
RTVSPropertyOp4
 70
     1
102
RTVSPropertyOp5
 70
     1
102
RTVSPropertyOp6
 70
     1
102
RTVSPropertyOp7
 70
     1
102
RTVSPropertyOp8
 70
     1
102
RTVSPropertyOp9
 70
     1
102
RTVSPropertyOp10
 70
     1
102
RTVSPropertyOp11
 70
     1
102
RTVSPropertyOp12
 70
     1
102
RTVSPropertyOp13
 70
     1
102
RTVSPropertyOp14
 70
     1
102
RTVSPropertyOp15
 70
     1
102
RTVSPropertyOp16
 70
     1
102
RTVSPropertyOp17
 70
     1
102
RTVSPropertyOp18
 70
     1
102
RTVSPropertyOp19
 70
     1
102
RTVSPropertyOp20
 70
     1
102
RTVSPropertyOp21
 70
     1
102
RTVSPropertyOp22
 70
     1
102
RTVSPropertyOp23
 70
     1
102
RTVSPropertyOp24
 70
     1
102
RTVSPropertyOp25
 70
     1
102
RTVSPropertyOp26
 70
     1
102
RTVSPropertyOp27
 70
     1
102
RTVSPropertyOp28
 70
     1
102
RTVSPropertyOp29
 70
     1
102
RTVSPropertyOp30
 70
     1
102
RTVSPropertyOp31
 70
     1
102
RTVSPropertyOp32
 70
     1
  0
XRECORD
  5
780
102
{ACAD_REACTORS
330
77F
102
}
330
77F
100
AcDbXrecord
280
     1
102
RTVSPropertyOp0
 70
     1
102
RTVSPropertyOp1
 70
     1
102
RTVSPropertyOp2
 70
     1
102
RTVSPropertyOp3
 70
     1
102
RTVSPropertyOp4
 70
     1
102
RTVSPropertyOp5
 70
     1
102
RTVSPropertyOp6
 70
     1
102
RTVSPropertyOp7
 70
     1
102
RTVSPropertyOp8
 70
     1
102
RTVSPropertyOp9
 70
     1
102
RTVSPropertyOp10
 70
     1
102
RTVSPropertyOp11
 70
     1
102
RTVSPropertyOp12
 70
     1
102
RTVSPropertyOp13
 70
     1
102
RTVSPropertyOp14
 70
     1
102
RTVSPropertyOp15
 70
     1
102
RTVSPropertyOp16
 70
     1
102
RTVSPropertyOp17
 70
     1
102
RTVSPropertyOp18
 70
     1
102
RTVSPropertyOp19
 70
     1
102
RTVSPropertyOp20
 70
     1
102
RTVSPropertyOp21
 70
     1
102
RTVSPropertyOp22
 70
     1
102
RTVSPropertyOp23
 70
     1
102
RTVSPropertyOp24
 70
     1
102
RTVSPropertyOp25
 70
     1
102
RTVSPropertyOp26
 70
     1
102
RTVSPropertyOp27
 70
     1
102
RTVSPropertyOp28
 70
     1
102
RTVSPropertyOp29
 70
     1
102
RTVSPropertyOp30
 70
     1
102
RTVSPropertyOp31
 70
     1
102
RTVSPropertyOp32
 70
     1
  0
XRECORD
  5
782
102
{ACAD_REACTORS
330
781
102
}
330
781
100
AcDbXrecord
280
     1
102
RTVSPropertyOp0
 70
     1
102
RTVSPropertyOp1
 70
     1
102
RTVSPropertyOp2
 70
     1
102
RTVSPropertyOp3
 70
     1
102
RTVSPropertyOp4
 70
     1
102
RTVSPropertyOp5
 70
     1
102
RTVSPropertyOp6
 70
     1
102
RTVSPropertyOp7
 70
     1
102
RTVSPropertyOp8
 70
     1
102
RTVSPropertyOp9
 70
     1
102
RTVSPropertyOp10
 70
     1
102
RTVSPropertyOp11
 70
     1
102
RTVSPropertyOp12
 70
     1
102
RTVSPropertyOp13
 70
     1
102
RTVSPropertyOp14
 70
     1
102
RTVSPropertyOp15
 70
     1
102
RTVSPropertyOp16
 70
     1
102
RTVSPropertyOp17
 70
     1
102
RTVSPropertyOp18
 70
     1
102
RTVSPropertyOp19
 70
     1
102
RTVSPropertyOp20
 70
     1
102
RTVSPropertyOp21
 70
     1
102
RTVSPropertyOp22
 70
     1
102
RTVSPropertyOp23
 70
     1
102
RTVSPropertyOp24
 70
     1
102
RTVSPropertyOp25
 70
     1
102
RTVSPropertyOp26
 70
     1
102
RTVSPropertyOp27
 70
     1
102
RTVSPropertyOp28
 70
     1
102
RTVSPropertyOp29
 70
     1
102
RTVSPropertyOp30
 70
     1
102
RTVSPropertyOp31
 70
     1
102
RTVSPropertyOp32
 70
     1
  0
XRECORD
  5
778
102
{ACAD_REACTORS
330
777
102
}
330
777
100
AcDbXrecord
280
     1
102
RTVSPropertyOp0
 70
     1
102
RTVSPropertyOp1
 70
     1
102
RTVSPropertyOp2
 70
     1
102
RTVSPropertyOp3
 70
     1
102
RTVSPropertyOp4
 70
     1
102
RTVSPropertyOp5
 70
     1
102
RTVSPropertyOp6
 70
     1
102
RTVSPropertyOp7
 70
     1
102
RTVSPropertyOp8
 70
     1
102
RTVSPropertyOp9
 70
     1
102
RTVSPropertyOp10
 70
     1
102
RTVSPropertyOp11
 70
     1
102
RTVSPropertyOp12
 70
     1
102
RTVSPropertyOp13
 70
     1
102
RTVSPropertyOp14
 70
     1
102
RTVSPropertyOp15
 70
     1
102
RTVSPropertyOp16
 70
     1
102
RTVSPropertyOp17
 70
     1
102
RTVSPropertyOp18
 70
     1
102
RTVSPropertyOp19
 70
     1
102
RTVSPropertyOp20
 70
     1
102
RTVSPropertyOp21
 70
     1
102
RTVSPropertyOp22
 70
     1
102
RTVSPropertyOp23
 70
     1
102
RTVSPropertyOp24
 70
     1
102
RTVSPropertyOp25
 70
     1
102
RTVSPropertyOp26
 70
     1
102
RTVSPropertyOp27
 70
     1
102
RTVSPropertyOp28
 70
     1
102
RTVSPropertyOp29
 70
     1
102
RTVSPropertyOp30
 70
     1
102
RTVSPropertyOp31
 70
     1
102
RTVSPropertyOp32
 70
     1
  0
XRECORD
  5
76C
102
{ACAD_REACTORS
330
76B
102
}
330
76B
100
AcDbXrecord
280
     1
102
RTVSPropertyOp0
 70
     1
102
RTVSPropertyOp1
 70
     1
102
RTVSPropertyOp2
 70
     1
102
RTVSPropertyOp3
 70
     1
102
RTVSPropertyOp4
 70
     1
102
RTVSPropertyOp5
 70
     1
102
RTVSPropertyOp6
 70
     1
102
RTVSPropertyOp7
 70
     1
102
RTVSPropertyOp8
 70
     1
102
RTVSPropertyOp9
 70
     1
102
RTVSPropertyOp10
 70
     1
102
RTVSPropertyOp11
 70
     1
102
RTVSPropertyOp12
 70
     1
102
RTVSPropertyOp13
 70
     1
102
RTVSPropertyOp14
 70
     1
102
RTVSPropertyOp15
 70
     1
102
RTVSPropertyOp16
 70
     1
102
RTVSPropertyOp17
 70
     1
102
RTVSPropertyOp18
 70
     1
102
RTVSPropertyOp19
 70
     1
102
RTVSPropertyOp20
 70
     1
102
RTVSPropertyOp21
 70
     1
102
RTVSPropertyOp22
 70
     1
102
RTVSPropertyOp23
 70
     1
102
RTVSPropertyOp24
 70
     1
102
RTVSPropertyOp25
 70
     1
102
RTVSPropertyOp26
 70
     1
102
RTVSPropertyOp27
 70
     1
102
RTVSPropertyOp28
 70
     1
102
RTVSPropertyOp29
 70
     1
102
RTVSPropertyOp30
 70
     1
102
RTVSPropertyOp31
 70
     1
102
RTVSPropertyOp32
 70
     1
  0
XRECORD
  5
784
102
{ACAD_REACTORS
330
783
102
}
330
783
100
AcDbXrecord
280
     1
102
RTVSPropertyOp0
 70
     1
102
RTVSPropertyOp1
 70
     1
102
RTVSPropertyOp2
 70
     1
102
RTVSPropertyOp3
 70
     1
102
RTVSPropertyOp4
 70
     1
102
RTVSPropertyOp5
 70
     1
102
RTVSPropertyOp6
 70
     1
102
RTVSPropertyOp7
 70
     1
102
RTVSPropertyOp8
 70
     1
102
RTVSPropertyOp9
 70
     1
102
RTVSPropertyOp10
 70
     1
102
RTVSPropertyOp11
 70
     1
102
RTVSPropertyOp12
 70
     1
102
RTVSPropertyOp13
 70
     1
102
RTVSPropertyOp14
 70
     1
102
RTVSPropertyOp15
 70
     1
102
RTVSPropertyOp16
 70
     1
102
RTVSPropertyOp17
 70
     1
102
RTVSPropertyOp18
 70
     1
102
RTVSPropertyOp19
 70
     1
102
RTVSPropertyOp20
 70
     1
102
RTVSPropertyOp21
 70
     1
102
RTVSPropertyOp22
 70
     1
102
RTVSPropertyOp23
 70
     1
102
RTVSPropertyOp24
 70
     1
102
RTVSPropertyOp25
 70
     1
102
RTVSPropertyOp26
 70
     1
102
RTVSPropertyOp27
 70
     1
102
RTVSPropertyOp28
 70
     1
102
RTVSPropertyOp29
 70
     1
102
RTVSPropertyOp30
 70
     1
102
RTVSPropertyOp31
 70
     1
102
RTVSPropertyOp32
 70
     1
  0
ENDSEC
  0
EOF
