  0
SECTION
  2
HEADER
  9
$ACADVER
  1
AC1015
  9
$ACADMAINTVER
 70
    20
  9
$DWGCODEPAGE
  3
ANSI_932
  9
$INSBASE
 10
0.0
 20
0.0
 30
0.0
  9
$EXTMIN
 10
265.08496511
 20
80.49207217999997
 30
0.0
  9
$EXTMAX
 10
542.21355946
 20
272.96468948
 30
0.0
  9
$LIMMIN
 10
265.08396094
 20
80.49107306000001
  9
$LIMMAX
 10
542.21456201
 20
272.96569116
  9
$ORTHOMODE
 70
     1
  9
$REGENMODE
 70
     1
  9
$FILLMODE
 70
     1
  9
$QTEXTMODE
 70
     0
  9
$MIRRTEXT
 70
     0
  9
$LTSCALE
 40
4.618810019999997
  9
$ATTMODE
 70
     1
  9
$TEXTSIZE
 40
3.2
  9
$TRACEWID
 40
0.05
  9
$TEXTSTYLE
  7
高3.2
  9
$CLAYER
  8
0
  9
$CELTYPE
  6
CONTINUOUS
  9
$CECOLOR
 62
   256
  9
$CELTSCALE
 40
1.0
  9
$DISPSILH
 70
     0
  9
$DIMSCALE
 40
1.0
  9
$DIMASZ
 40
2.5
  9
$DIMEXO
 40
0.25
  9
$DIMDLI
 40
0.2
  9
$DIMRND
 40
0.0
  9
$DIMDLE
 40
0.0
  9
$DIMEXE
 40
1.25
  9
$DIMTP
 40
0.0
  9
$DIMTM
 40
0.0
  9
$DIMTXT
 40
3.0
  9
$DIMCEN
 40
0.0
  9
$DIMTSZ
 40
0.0
  9
$DIMTOL
 70
     0
  9
$DIMLIM
 70
     0
  9
$DIMTIH
 70
     0
  9
$DIMTOH
 70
     0
  9
$DIMSE1
 70
     0
  9
$DIMSE2
 70
     0
  9
$DIMTAD
 70
     3
  9
$DIMZIN
 70
     8
  9
$DIMBLK
  1
Open30
  9
$DIMASO
 70
     1
  9
$DIMSHO
 70
     1
  9
$DIMPOST
  1

  9
$DIMAPOST
  1

  9
$DIMALT
 70
     0
  9
$DIMALTD
 70
     3
  9
$DIMALTF
 40
0.03937007874016
  9
$DIMLFAC
 40
1.0
  9
$DIMTOFL
 70
     1
  9
$DIMTVP
 40
0.0
  9
$DIMTIX
 70
     0
  9
$DIMSOXD
 70
     0
  9
$DIMSAH
 70
     0
  9
$DIMBLK1
  1

  9
$DIMBLK2
  1

  9
$DIMSTYLE
  2
1：1
  9
$DIMCLRD
 70
     0
  9
$DIMCLRE
 70
     0
  9
$DIMCLRT
 70
     4
  9
$DIMTFAC
 40
1.0
  9
$DIMGAP
 40
0.625
  9
$DIMJUST
 70
     0
  9
$DIMSD1
 70
     0
  9
$DIMSD2
 70
     0
  9
$DIMTOLJ
 70
     0
  9
$DIMTZIN
 70
     8
  9
$DIMALTZ
 70
     0
  9
$DIMALTTZ
 70
     0
  9
$DIMUPT
 70
     1
  9
$DIMDEC
 70
     2
  9
$DIMTDEC
 70
     2
  9
$DIMALTU
 70
     2
  9
$DIMALTTD
 70
     3
  9
$DIMTXSTY
  7
STANDARD
  9
$DIMAUNIT
 70
     0
  9
$DIMADEC
 70
     1
  9
$DIMALTRND
 40
0.0
  9
$DIMAZIN
 70
     2
  9
$DIMDSEP
 70
    46
  9
$DIMATFIT
 70
     0
  9
$DIMFRAC
 70
     0
  9
$DIMLDRBLK
  1
Open30
  9
$DIMLUNIT
 70
     2
  9
$DIMLWD
 70
    -2
  9
$DIMLWE
 70
    -2
  9
$DIMTMOVE
 70
     0
  9
$LUNITS
 70
     2
  9
$LUPREC
 70
     4
  9
$SKETCHINC
 40
0.1
  9
$FILLETRAD
 40
0.0
  9
$AUNITS
 70
     0
  9
$AUPREC
 70
     0
  9
$MENU
  1
.
  9
$ELEVATION
 40
0.0
  9
$PELEVATION
 40
0.0
  9
$THICKNESS
 40
0.0
  9
$LIMCHECK
 70
     0
  9
$CHAMFERA
 40
0.0
  9
$CHAMFERB
 40
0.0
  9
$CHAMFERC
 40
0.0
  9
$CHAMFERD
 40
0.0
  9
$SKPOLY
 70
     0
  9
$TDCREATE
 40
2455678.591057488
  9
$TDUCREATE
 40
2455678.216057489
  9
$TDUPDATE
 40
2456855.821244803
  9
$TDUUPDATE
 40
2456855.446244803
  9
$TDINDWG
 40
0.0283897222
  9
$TDUSRTIMER
 40
0.0283893634
  9
$USRTIMER
 70
     1
  9
$ANGBASE
 50
0.0
  9
$ANGDIR
 70
     0
  9
$PDMODE
 70
     0
  9
$PDSIZE
 40
0.0
  9
$PLINEWID
 40
0.0
  9
$SPLFRAME
 70
     0
  9
$SPLINETYPE
 70
     6
  9
$SPLINESEGS
 70
     8
  9
$HANDSEED
  5
C23
  9
$SURFTAB1
 70
     6
  9
$SURFTAB2
 70
     6
  9
$SURFTYPE
 70
     6
  9
$SURFU
 70
     6
  9
$SURFV
 70
     6
  9
$UCSBASE
  2

  9
$UCSNAME
  2

  9
$UCSORG
 10
0.0
 20
0.0
 30
0.0
  9
$UCSXDIR
 10
1.0
 20
0.0
 30
0.0
  9
$UCSYDIR
 10
0.0
 20
1.0
 30
0.0
  9
$UCSORTHOREF
  2

  9
$UCSORTHOVIEW
 70
     0
  9
$UCSORGTOP
 10
0.0
 20
0.0
 30
0.0
  9
$UCSORGBOTTOM
 10
0.0
 20
0.0
 30
0.0
  9
$UCSORGLEFT
 10
0.0
 20
0.0
 30
0.0
  9
$UCSORGRIGHT
 10
0.0
 20
0.0
 30
0.0
  9
$UCSORGFRONT
 10
0.0
 20
0.0
 30
0.0
  9
$UCSORGBACK
 10
0.0
 20
0.0
 30
0.0
  9
$PUCSBASE
  2

  9
$PUCSNAME
  2

  9
$PUCSORG
 10
0.0
 20
0.0
 30
0.0
  9
$PUCSXDIR
 10
1.0
 20
0.0
 30
0.0
  9
$PUCSYDIR
 10
0.0
 20
1.0
 30
0.0
  9
$PUCSORTHOREF
  2

  9
$PUCSORTHOVIEW
 70
     0
  9
$PUCSORGTOP
 10
0.0
 20
0.0
 30
0.0
  9
$PUCSORGBOTTOM
 10
0.0
 20
0.0
 30
0.0
  9
$PUCSORGLEFT
 10
0.0
 20
0.0
 30
0.0
  9
$PUCSORGRIGHT
 10
0.0
 20
0.0
 30
0.0
  9
$PUCSORGFRONT
 10
0.0
 20
0.0
 30
0.0
  9
$PUCSORGBACK
 10
0.0
 20
0.0
 30
0.0
  9
$USERI1
 70
     0
  9
$USERI2
 70
     0
  9
$USERI3
 70
     0
  9
$USERI4
 70
     0
  9
$USERI5
 70
     0
  9
$USERR1
 40
0.0
  9
$USERR2
 40
0.0
  9
$USERR3
 40
0.0
  9
$USERR4
 40
0.0
  9
$USERR5
 40
0.0
  9
$WORLDVIEW
 70
     1
  9
$SHADEDGE
 70
     3
  9
$SHADEDIF
 70
    70
  9
$TILEMODE
 70
     1
  9
$MAXACTVP
 70
    64
  9
$PINSBASE
 10
0.0
 20
0.0
 30
0.0
  9
$PLIMCHECK
 70
     0
  9
$PEXTMIN
 10
1.000000000000000E+20
 20
1.000000000000000E+20
 30
1.000000000000000E+20
  9
$PEXTMAX
 10
-1.000000000000000E+20
 20
-1.000000000000000E+20
 30
-1.000000000000000E+20
  9
$PLIMMIN
 10
0.0
 20
0.0
  9
$PLIMMAX
 10
12.0
 20
9.0
  9
$UNITMODE
 70
     0
  9
$VISRETAIN
 70
     1
  9
$PLINEGEN
 70
     0
  9
$PSLTSCALE
 70
     1
  9
$TREEDEPTH
 70
  3020
  9
$CMLSTYLE
  2
Standard
  9
$CMLJUST
 70
     0
  9
$CMLSCALE
 40
1.0
  9
$PROXYGRAPHICS
 70
     1
  9
$MEASUREMENT
 70
     0
  9
$CELWEIGHT
370
    -1
  9
$ENDCAPS
280
     0
  9
$JOINSTYLE
280
     0
  9
$LWDISPLAY
290
     0
  9
$INSUNITS
 70
     0
  9
$HYPERLINKBASE
  1

  9
$STYLESHEET
  1

  9
$XEDIT
290
     1
  9
$CEPSNTYPE
380
     0
  9
$PSTYLEMODE
290
     1
  9
$FINGERPRINTGUID
  2
{E473E552-6EE4-44B2-A166-370D5C8E2206}
  9
$VERSIONGUID
  2
{2BDD1C48-70BC-4F29-B6C9-FB4D4304EA3D}
  9
$EXTNAMES
290
     1
  9
$PSVPSCALE
 40
0.0
  9
$OLESTARTUP
290
     0
  0
ENDSEC
  0
SECTION
  2
CLASSES
  0
CLASS
  1
ACDBDICTIONARYWDFLT
  2
AcDbDictionaryWithDefault
  3
ObjectDBX Classes
 90
        0
280
     0
281
     0
  0
CLASS
  1
MATERIAL
  2
AcDbMaterial
  3
ObjectDBX Classes
 90
     1153
280
     0
281
     0
  0
CLASS
  1
VISUALSTYLE
  2
AcDbVisualStyle
  3
ObjectDBX Classes
 90
     4095
280
     0
281
     0
  0
CLASS
  1
SCALE
  2
AcDbScale
  3
ObjectDBX Classes
 90
     1153
280
     0
281
     0
  0
CLASS
  1
TABLESTYLE
  2
AcDbTableStyle
  3
ObjectDBX Classes
 90
     4095
280
     0
281
     0
  0
CLASS
  1
MLEADERSTYLE
  2
AcDbMLeaderStyle
  3
ACDB_MLEADERSTYLE_CLASS
 90
     4095
280
     0
281
     0
  0
CLASS
  1
DICTIONARYVAR
  2
AcDbDictionaryVar
  3
ObjectDBX Classes
 90
        0
280
     0
281
     0
  0
CLASS
  1
CELLSTYLEMAP
  2
AcDbCellStyleMap
  3
ObjectDBX Classes
 90
     1152
280
     0
281
     0
  0
CLASS
  1
ACDBPLACEHOLDER
  2
AcDbPlaceHolder
  3
ObjectDBX Classes
 90
        0
280
     0
281
     0
  0
CLASS
  1
LAYOUT
  2
AcDbLayout
  3
ObjectDBX Classes
 90
        0
280
     0
281
     0
  0
CLASS
  1
SORTENTSTABLE
  2
AcDbSortentsTable
  3
ObjectDBX Classes
 90
        0
280
     0
281
     0
  0
ENDSEC
  0
SECTION
  2
TABLES
  0
TABLE
  2
VPORT
  5
8
330
0
100
AcDbSymbolTable
 70
     1
  0
VPORT
  5
8B
330
8
100
AcDbSymbolTableRecord
100
AcDbViewportTableRecord
  2
*Active
 70
     0
 10
0.0
 20
0.0
 11
1.0
 21
1.0
 12
523.7490187394323
 22
160.1966395827779
 13
0.0
 23
0.0
 14
1.0
 24
1.0
 15
0.0
 25
0.0
 16
0.0
 26
0.0
 36
1.0
 17
0.0
 27
0.0
 37
0.0
 40
535.4418555355062
 41
1.95900439238653
 42
50.0
 43
0.0
 44
0.0
 50
0.0
 51
0.0
 71
     0
 72
   100
 73
     1
 74
     1
 75
     0
 76
     0
 77
     0
 78
     0
281
     0
 65
     1
110
0.0
120
0.0
130
0.0
111
1.0
121
0.0
131
0.0
112
0.0
122
1.0
132
0.0
 79
     0
146
0.0
  0
ENDTAB
  0
TABLE
  2
LTYPE
  5
5
330
0
100
AcDbSymbolTable
 70
     3
  0
LTYPE
  5
5A
330
5
100
AcDbSymbolTableRecord
100
AcDbLinetypeTableRecord
  2
ByBlock
 70
     0
  3

 72
    65
 73
     0
 40
0.0
  0
LTYPE
  5
5B
330
5
100
AcDbSymbolTableRecord
100
AcDbLinetypeTableRecord
  2
ByLayer
 70
     0
  3

 72
    65
 73
     0
 40
0.0
  0
LTYPE
  5
5C
330
5
100
AcDbSymbolTableRecord
100
AcDbLinetypeTableRecord
  2
CONTINUOUS
 70
     0
  3
Solid-line
 72
    65
 73
     0
 40
0.0
  0
LTYPE
  5
72
330
5
100
AcDbSymbolTableRecord
100
AcDbLinetypeTableRecord
  2
CENTER
 70
     0
  3
CENTER
 72
    65
 73
     4
 40
2.0
 49
1.25
 74
     0
 49
-0.25
 74
     0
 49
0.25
 74
     0
 49
-0.25
 74
     0
  0
ENDTAB
  0
TABLE
  2
LAYER
  5
2
102
{ACAD_XDICTIONARY
360
432
102
}
330
0
100
AcDbSymbolTable
 70
     2
  0
LAYER
  5
54
102
{ACAD_XDICTIONARY
360
5A6
102
}
330
2
100
AcDbSymbolTableRecord
100
AcDbLayerTableRecord
  2
0
 70
     0
 62
     7
  6
CONTINUOUS
370
    -3
390
F
  0
LAYER
  5
41D
330
2
100
AcDbSymbolTableRecord
100
AcDbLayerTableRecord
  2
Defpoints
 70
     0
 62
     7
  6
CONTINUOUS
290
     0
370
    -3
390
F
  0
ENDTAB
  0
TABLE
  2
STYLE
  5
3
330
0
100
AcDbSymbolTable
 70
     6
  0
STYLE
  5
55
330
3
100
AcDbSymbolTableRecord
100
AcDbTextStyleTableRecord
  2
STANDARD
 70
     0
 40
0.0
 41
1.0
 50
0.0
 71
     0
 42
0.2
  3
TXT
  4
BIGFONT
  0
STYLE
  5
41E
330
3
100
AcDbSymbolTableRecord
100
AcDbTextStyleTableRecord
  2
高3.2
 70
     0
 40
3.2
 41
1.0
 50
0.0
 71
     0
 42
3.2
  3
txt.shx
  4
bigfont.shx
  0
STYLE
  5
41F
330
3
100
AcDbSymbolTableRecord
100
AcDbTextStyleTableRecord
  2
高6.3
 70
     0
 40
6.299999999999998
 41
1.0
 50
0.0
 71
     0
 42
6.299999999999998
  3
txt.shx
  4
bigfont.shx
  0
STYLE
  5
420
330
3
100
AcDbSymbolTableRecord
100
AcDbTextStyleTableRecord
  2
高2.5
 70
     0
 40
2.5
 41
1.0
 50
0.0
 71
     0
 42
0.2
  3
txt.shx
  4
bigfont.shx
  0
STYLE
  5
421
330
3
100
AcDbSymbolTableRecord
100
AcDbTextStyleTableRecord
  2
高4.5
 70
     0
 40
4.5
 41
1.0
 50
0.0
 71
     0
 42
6.299999999999998
  3
txt.shx
  4
bigfont.shx
  0
STYLE
  5
422
330
3
100
AcDbSymbolTableRecord
100
AcDbTextStyleTableRecord
  2
高2
 70
     0
 40
2.0
 41
1.0
 50
0.0
 71
     0
 42
6.299999999999998
  3
txt.shx
  4
bigfont.shx
  0
ENDTAB
  0
TABLE
  2
VIEW
  5
6
330
0
100
AcDbSymbolTable
 70
     0
  0
ENDTAB
  0
TABLE
  2
UCS
  5
7
330
0
100
AcDbSymbolTable
 70
     0
  0
ENDTAB
  0
TABLE
  2
APPID
  5
9
330
0
100
AcDbSymbolTable
 70
    10
  0
APPID
  5
56
330
9
100
AcDbSymbolTableRecord
100
AcDbRegAppTableRecord
  2
ACAD
 70
     0
  0
APPID
  5
5D
330
9
100
AcDbSymbolTableRecord
100
AcDbRegAppTableRecord
  2
AcadAnnotative
 70
     0
  0
APPID
  5
42D
330
9
100
AcDbSymbolTableRecord
100
AcDbRegAppTableRecord
  2
ACAD_DSTYLE_DIMJOGGED_JOGANGLE_SYMBOL
 70
     0
  0
APPID
  5
42E
330
9
100
AcDbSymbolTableRecord
100
AcDbRegAppTableRecord
  2
ACAD_DSTYLE_DIMJAG
 70
     0
  0
APPID
  5
42F
330
9
100
AcDbSymbolTableRecord
100
AcDbRegAppTableRecord
  2
ACAD_DSTYLE_DIMBREAK
 70
     0
  0
APPID
  5
430
330
9
100
AcDbSymbolTableRecord
100
AcDbRegAppTableRecord
  2
ACAD_DSTYLE_DIMTALN
 70
     0
  0
APPID
  5
570
330
9
100
AcDbSymbolTableRecord
100
AcDbRegAppTableRecord
  2
ACAD_EXEMPT_FROM_CAD_STANDARDS
 70
     0
  0
APPID
  5
5EA
330
9
100
AcDbSymbolTableRecord
100
AcDbRegAppTableRecord
  2
ACAD_MLEADERVER
 70
     0
  0
APPID
  5
5EF
330
9
100
AcDbSymbolTableRecord
100
AcDbRegAppTableRecord
  2
ACAD_DSTYLE_DIMARC_LENGTH_SYMBOL
 70
     0
  0
APPID
  5
5F0
330
9
100
AcDbSymbolTableRecord
100
AcDbRegAppTableRecord
  2
ACAD_DSTYLE_DIMEXT_LENGTH
 70
     0
  0
ENDTAB
  0
TABLE
  2
DIMSTYLE
  5
A
330
0
100
AcDbSymbolTable
 70
     2
100
AcDbDimStyleTable
 71
     2
340
423
340
57
  0
DIMSTYLE
105
57
330
A
100
AcDbSymbolTableRecord
100
AcDbDimStyleTableRecord
  2
Standard
 70
     0
340
55
  0
DIMSTYLE
105
423
330
A
100
AcDbSymbolTableRecord
100
AcDbDimStyleTableRecord
  2
1：1
 70
     0
 41
2.5
 42
0.25
 43
0.2
 44
1.25
 73
     0
 74
     0
 77
     3
 78
     8
 79
     2
140
3.0
141
0.0
143
0.03937007874016
147
0.625
171
     3
172
     1
178
     4
179
     1
271
     2
272
     2
274
     3
283
     0
284
     8
288
     1
289
     0
340
55
341
38D
342
38D
1001
ACAD_DSTYLE_DIMARC_LENGTH_SYMBOL
1070
   379
1070
     2
1001
ACAD_DSTYLE_DIMEXT_LENGTH
1070
   378
1040
1.25
1001
ACAD_DSTYLE_DIMJOGGED_JOGANGLE_SYMBOL
1070
   384
1040
1.570796326794896
  0
ENDTAB
  0
TABLE
  2
BLOCK_RECORD
  5
1
330
0
100
AcDbSymbolTable
 70
     3
  0
BLOCK_RECORD
  5
6B
102
{ACAD_XDICTIONARY
360
9CB
102
}
330
1
100
AcDbSymbolTableRecord
100
AcDbBlockTableRecord
  2
*Model_Space
340
6E
  0
BLOCK_RECORD
  5
67
330
1
100
AcDbSymbolTableRecord
100
AcDbBlockTableRecord
  2
*Paper_Space
340
6A
  0
BLOCK_RECORD
  5
38D
330
1
100
AcDbSymbolTableRecord
100
AcDbBlockTableRecord
  2
_Open30
340
0
102
{BLKREFS
331
A2B
331
A2C
331
A34
331
A35
102
}
  0
BLOCK_RECORD
  5
542
330
1
100
AcDbSymbolTableRecord
100
AcDbBlockTableRecord
  2
*D1
340
0
  0
BLOCK_RECORD
  5
54F
330
1
100
AcDbSymbolTableRecord
100
AcDbBlockTableRecord
  2
*D2
340
0
  0
ENDTAB
  0
ENDSEC
  0
SECTION
  2
BLOCKS
  0
BLOCK
  5
6C
330
6B
100
AcDbEntity
  8
0
100
AcDbBlockBegin
  2
*Model_Space
 70
     0
 10
0.0
 20
0.0
 30
0.0
  3
*Model_Space
  1

  0
ENDBLK
  5
6D
330
6B
100
AcDbEntity
  8
0
100
AcDbBlockEnd
  0
BLOCK
  5
68
330
67
100
AcDbEntity
 67
     1
  8
0
100
AcDbBlockBegin
  2
*Paper_Space
 70
     0
 10
0.0
 20
0.0
 30
0.0
  3
*Paper_Space
  1

  0
ENDBLK
  5
69
330
67
100
AcDbEntity
 67
     1
  8
0
100
AcDbBlockEnd
  0
BLOCK
  5
38E
330
38D
100
AcDbEntity
  8
0
100
AcDbBlockBegin
  2
_Open30
 70
     0
 10
0.0
 20
0.0
 30
0.0
  3
_Open30
  1

  0
LINE
  5
38F
330
38D
100
AcDbEntity
  8
0
  6
ByBlock
 62
     0
370
    -2
100
AcDbLine
 10
-1.0
 20
0.267949
 30
0.0
 11
0.0
 21
0.0
 31
0.0
  0
LINE
  5
390
330
38D
100
AcDbEntity
  8
0
  6
ByBlock
 62
     0
370
    -2
100
AcDbLine
 10
0.0
 20
0.0
 30
0.0
 11
-1.0
 21
-0.267949
 31
0.0
  0
LINE
  5
391
330
38D
100
AcDbEntity
  8
0
  6
ByBlock
 62
     0
370
    -2
100
AcDbLine
 10
0.0
 20
0.0
 30
0.0
 11
-1.0
 21
0.0
 31
0.0
  0
ENDBLK
  5
392
330
38D
100
AcDbEntity
  8
0
100
AcDbBlockEnd
  0
BLOCK
  5
543
330
542
100
AcDbEntity
  8
0
100
AcDbBlockBegin
  2
*D1
 70
     1
 10
0.0
 20
0.0
 30
0.0
  3
*D1
  1

  0
LINE
  5
A31
330
542
100
AcDbEntity
  8
0
 62
     0
370
    -2
100
AcDbLine
 10
346.46279441
 20
187.84501813
 30
0.0
 11
335.73784041
 21
187.84501813
 31
0.0
  0
LINE
  5
A32
330
542
100
AcDbEntity
  8
0
 62
     0
370
    -2
100
AcDbLine
 10
346.46279441
 20
219.84501813
 30
0.0
 11
335.73784041
 21
219.84501813
 31
0.0
  0
LINE
  5
A33
330
542
100
AcDbEntity
  8
0
 62
     0
370
    -2
100
AcDbLine
 10
336.98784041
 20
190.34501813
 30
0.0
 11
336.98784041
 21
217.34501813
 31
0.0
  0
INSERT
  5
A34
330
542
100
AcDbEntity
  8
0
 62
     0
370
    -2
100
AcDbBlockReference
  2
_Open30
 10
336.98784041
 20
187.84501813
 30
0.0
 41
2.5
 42
2.5
 43
2.5
 50
270.0
  0
INSERT
  5
A35
330
542
100
AcDbEntity
  8
0
 62
     0
370
    -2
100
AcDbBlockReference
  2
_Open30
 10
336.98784041
 20
219.84501813
 30
0.0
 41
2.5
 42
2.5
 43
2.5
 50
90.0
  0
MTEXT
  5
A36
330
542
100
AcDbEntity
  8
0
 62
     4
100
AcDbMText
 10
334.8628404099999
 20
203.84501813
 30
0.0
 40
3.0
 41
0.0
 71
     5
 72
     1
  1
\U+03C632
 11
0.0000000000000001
 21
1.0
 31
0.0
 73
     1
 44
1.0
1001
ACAD
1000
MTEXTBEGIN
1070
    73
1070
     1
1070
    44
1040
1.0
1070
    74
1070
     0
1000
MTEXTEND
  0
POINT
  5
A37
330
542
100
AcDbEntity
  8
Defpoints
 62
     0
100
AcDbPoint
 10
346.71279441
 20
187.84501813
 30
0.0
  0
POINT
  5
A38
330
542
100
AcDbEntity
  8
Defpoints
 62
     0
100
AcDbPoint
 10
346.71279441
 20
219.84501813
 30
0.0
  0
POINT
  5
A39
330
542
100
AcDbEntity
  8
Defpoints
 62
     0
100
AcDbPoint
 10
336.98784041
 20
219.84501813
 30
0.0
  0
ENDBLK
  5
544
330
542
100
AcDbEntity
  8
0
100
AcDbBlockEnd
  0
BLOCK
  5
550
330
54F
100
AcDbEntity
  8
0
100
AcDbBlockBegin
  2
*D2
 70
     1
 10
0.0
 20
0.0
 30
0.0
  3
*D2
  1

  0
LINE
  5
A28
330
54F
100
AcDbEntity
  8
0
 62
     0
370
    -2
100
AcDbLine
 10
346.71279441
 20
220.09501813
 30
0.0
 11
346.71279441
 21
238.48838297
 31
0.0
  0
LINE
  5
A29
330
54F
100
AcDbEntity
  8
0
 62
     0
370
    -2
100
AcDbLine
 10
446.71279441
 20
215.09501813
 30
0.0
 11
446.71279441
 21
238.48838297
 31
0.0
  0
LINE
  5
A2A
330
54F
100
AcDbEntity
  8
0
 62
     0
370
    -2
100
AcDbLine
 10
349.21279441
 20
237.23838297
 30
0.0
 11
444.21279441
 21
237.23838297
 31
0.0
  0
INSERT
  5
A2B
330
54F
100
AcDbEntity
  8
0
 62
     0
370
    -2
100
AcDbBlockReference
  2
_Open30
 10
346.71279441
 20
237.23838297
 30
0.0
 41
2.5
 42
2.5
 43
2.5
 50
180.0
  0
INSERT
  5
A2C
330
54F
100
AcDbEntity
  8
0
 62
     0
370
    -2
100
AcDbBlockReference
  2
_Open30
 10
446.71279441
 20
237.23838297
 30
0.0
 41
2.5
 42
2.5
 43
2.5
  0
MTEXT
  5
A2D
330
54F
100
AcDbEntity
  8
0
 62
     4
100
AcDbMText
 10
396.71279441
 20
239.36338297
 30
0.0
 40
3.0
 41
0.0
 71
     5
 72
     1
  1
100
 73
     1
 44
1.0
1001
ACAD
1000
MTEXTBEGIN
1070
    73
1070
     1
1070
    44
1040
1.0
1070
    74
1070
     0
1000
MTEXTEND
  0
POINT
  5
A2E
330
54F
100
AcDbEntity
  8
Defpoints
 62
     0
100
AcDbPoint
 10
346.71279441
 20
219.84501813
 30
0.0
  0
POINT
  5
A2F
330
54F
100
AcDbEntity
  8
Defpoints
 62
     0
100
AcDbPoint
 10
446.71279441
 20
214.84501813
 30
0.0
  0
POINT
  5
A30
330
54F
100
AcDbEntity
  8
Defpoints
 62
     0
100
AcDbPoint
 10
446.71279441
 20
237.23838297
 30
0.0
  0
ENDBLK
  5
551
330
54F
100
AcDbEntity
  8
0
100
AcDbBlockEnd
  0
ENDSEC
  0
SECTION
  2
ENTITIES
  0
LINE
  5
AE
330
6B
100
AcDbEntity
  8
0
 62
     3
100
AcDbLine
 10
346.71279441
 20
187.84501813
 30
0.0
 11
363.21279441
 21
187.84501813
 31
0.0
  0
LINE
  5
AF
330
6B
100
AcDbEntity
  8
0
 62
     3
100
AcDbLine
 10
346.71279441
 20
219.84501813
 30
0.0
 11
363.21279441
 21
219.84501813
 31
0.0
  0
LINE
  5
B0
330
6B
100
AcDbEntity
  8
0
 62
     3
100
AcDbLine
 10
346.71279441
 20
219.84501813
 30
0.0
 11
346.71279441
 21
187.84501813
 31
0.0
  0
LINE
  5
B1
330
6B
100
AcDbEntity
  8
0
 62
     3
100
AcDbLine
 10
446.71279441
 20
192.84501813
 30
0.0
 11
446.71279441
 21
214.84501813
 31
0.0
  0
LINE
  5
B2
330
6B
100
AcDbEntity
  8
0
 62
     3
100
AcDbLine
 10
349.71279441
 20
219.84501813
 30
0.0
 11
349.71279441
 21
187.84501813
 31
0.0
  0
LINE
  5
B3
330
6B
100
AcDbEntity
  8
0
 62
     3
100
AcDbLine
 10
376.71279441
 20
189.94501813
 30
0.0
 11
376.71279441
 21
217.74501813
 31
0.0
  0
LINE
  5
B4
330
6B
100
AcDbEntity
  8
0
 62
     3
100
AcDbLine
 10
424.7127944099998
 20
189.39501813
 30
0.0
 11
424.7127944099998
 21
218.29501813
 31
0.0
  0
LINE
  5
B5
330
6B
100
AcDbEntity
  8
0
 62
     3
100
AcDbLine
 10
428.2127944099998
 20
218.84501813
 30
0.0
 11
428.2127944099998
 21
218.29501813
 31
0.0
  0
LINE
  5
B6
330
6B
100
AcDbEntity
  8
0
 62
     3
100
AcDbLine
 10
376.71279441
 20
190.44501813
 30
0.0
 11
386.41279441
 21
190.44501813
 31
0.0
  0
LINE
  5
B7
330
6B
100
AcDbEntity
  8
0
 62
     3
100
AcDbLine
 10
376.71279441
 20
217.24501813
 30
0.0
 11
386.41279441
 21
217.24501813
 31
0.0
  0
LINE
  5
B8
330
6B
100
AcDbEntity
  8
0
 62
     3
100
AcDbLine
 10
376.71279441
 20
189.94501813
 30
0.0
 11
363.21279441
 21
187.84501813
 31
0.0
  0
LINE
  5
B9
330
6B
100
AcDbEntity
  8
0
 62
     3
100
AcDbLine
 10
376.71279441
 20
217.74501813
 30
0.0
 11
363.21279441
 21
219.84501813
 31
0.0
  0
LINE
  5
BA
330
6B
100
AcDbEntity
  8
0
 62
     3
100
AcDbLine
 10
418.21279441
 20
189.94501813
 30
0.0
 11
386.71279441
 21
189.94501813
 31
0.0
  0
LINE
  5
BB
330
6B
100
AcDbEntity
  8
0
 62
     3
100
AcDbLine
 10
418.21279441
 20
217.74501813
 30
0.0
 11
386.71279441
 21
217.74501813
 31
0.0
  0
LINE
  5
BC
330
6B
100
AcDbEntity
  8
0
 62
     3
100
AcDbLine
 10
386.71279441
 20
189.94501813
 30
0.0
 11
386.41279441
 21
190.44501813
 31
0.0
  0
LINE
  5
BD
330
6B
100
AcDbEntity
  8
0
 62
     3
100
AcDbLine
 10
386.41279441
 20
217.24501813
 30
0.0
 11
386.71279441
 21
217.74501813
 31
0.0
  0
LINE
  5
BE
330
6B
100
AcDbEntity
  8
0
 62
     3
100
AcDbLine
 10
418.21279441
 20
189.94501813
 30
0.0
 11
418.51279441
 21
190.44501813
 31
0.0
  0
LINE
  5
BF
330
6B
100
AcDbEntity
  8
0
 62
     3
100
AcDbLine
 10
418.21279441
 20
217.74501813
 30
0.0
 11
418.51279441
 21
217.24501813
 31
0.0
  0
LINE
  5
C0
330
6B
100
AcDbEntity
  8
0
 62
     3
100
AcDbLine
 10
418.51279441
 20
190.44501813
 30
0.0
 11
424.7127944099998
 21
190.44501813
 31
0.0
  0
LINE
  5
C1
330
6B
100
AcDbEntity
  8
0
 62
     3
100
AcDbLine
 10
418.51279441
 20
217.24501813
 30
0.0
 11
424.7127944099998
 21
217.24501813
 31
0.0
  0
LINE
  5
C2
330
6B
100
AcDbEntity
  8
0
 62
     3
100
AcDbLine
 10
424.7127944099998
 20
189.39501813
 30
0.0
 11
428.2127944099998
 21
189.39501813
 31
0.0
  0
LINE
  5
C3
330
6B
100
AcDbEntity
  8
0
 62
     3
100
AcDbLine
 10
424.7127944099998
 20
218.29501813
 30
0.0
 11
428.2127944099998
 21
218.29501813
 31
0.0
  0
LINE
  5
C4
330
6B
100
AcDbEntity
  8
0
 62
     3
100
AcDbLine
 10
428.2127944099998
 20
188.84501813
 30
0.0
 11
442.71279441
 21
188.84501813
 31
0.0
  0
LINE
  5
C5
330
6B
100
AcDbEntity
  8
0
 62
     3
100
AcDbLine
 10
428.2127944099998
 20
218.84501813
 30
0.0
 11
442.71279441
 21
218.84501813
 31
0.0
  0
ARC
  5
C6
330
6B
100
AcDbEntity
  8
0
 62
     3
100
AcDbCircle
 10
442.71279441
 20
192.84501813
 30
0.0
 40
4.0
100
AcDbArc
 50
270.0
 51
0.0
  0
ARC
  5
C7
330
6B
100
AcDbEntity
  8
0
 62
     3
100
AcDbCircle
 10
442.71279441
 20
214.84501813
 30
0.0
 40
4.0
100
AcDbArc
 50
0.0
 51
90.0
  0
CIRCLE
  5
C8
330
6B
100
AcDbEntity
  8
0
 62
     3
100
AcDbCircle
 10
305.12323208
 20
203.84501813
 30
0.0
 40
16.0
  0
ARC
  5
C9
330
6B
100
AcDbEntity
  8
0
 62
     3
100
AcDbCircle
 10
483.0266781
 20
203.84501813
 30
0.0
 40
15.0
100
AcDbArc
 50
225.59406823
 51
242.40593177
  0
ARC
  5
CA
330
6B
100
AcDbEntity
  8
0
 62
     3
100
AcDbCircle
 10
464.6768806499999
 20
203.84501813
 30
0.0
 40
4.349797459999996
100
AcDbArc
 50
324.91861542
 51
35.08138458
  0
ARC
  5
CB
330
6B
100
AcDbEntity
  8
0
 62
     3
100
AcDbCircle
 10
468.1813801199998
 20
193.0592778
 30
0.0
 40
4.349797459999996
100
AcDbArc
 50
0.9186154199999998
 51
71.08138458
  0
ARC
  5
CC
330
6B
100
AcDbEntity
  8
0
 62
     3
100
AcDbCircle
 10
477.35627885
 20
186.39332369
 30
0.0
 40
4.349797459999996
100
AcDbArc
 50
36.91861542
 51
107.08138458
  0
ARC
  5
CD
330
6B
100
AcDbEntity
  8
0
 62
     3
100
AcDbCircle
 10
488.6970773599998
 20
186.39332369
 30
0.0
 40
4.349797459999996
100
AcDbArc
 50
72.91861541999998
 51
143.08138458
  0
ARC
  5
CE
330
6B
100
AcDbEntity
  8
0
 62
     3
100
AcDbCircle
 10
497.8719760899998
 20
193.0592778
 30
0.0
 40
4.349797459999996
100
AcDbArc
 50
108.91861542
 51
179.08138458
  0
ARC
  5
CF
330
6B
100
AcDbEntity
  8
0
 62
     3
100
AcDbCircle
 10
501.37647556
 20
203.84501813
 30
0.0
 40
4.349797459999996
100
AcDbArc
 50
144.91861542
 51
215.08138458
  0
ARC
  5
D0
330
6B
100
AcDbEntity
  8
0
 62
     3
100
AcDbCircle
 10
497.8719760899998
 20
214.63075846
 30
0.0
 40
4.349797459999996
100
AcDbArc
 50
180.91861542
 51
251.08138458
  0
ARC
  5
D1
330
6B
100
AcDbEntity
  8
0
 62
     3
100
AcDbCircle
 10
488.6970773599998
 20
221.29671257
 30
0.0
 40
4.349797459999996
100
AcDbArc
 50
216.91861542
 51
287.08138458
  0
ARC
  5
D2
330
6B
100
AcDbEntity
  8
0
 62
     3
100
AcDbCircle
 10
477.35627885
 20
221.29671257
 30
0.0
 40
4.349797459999996
100
AcDbArc
 50
252.91861542
 51
323.08138458
  0
ARC
  5
D3
330
6B
100
AcDbEntity
  8
0
 62
     3
100
AcDbCircle
 10
468.1813801199998
 20
214.63075846
 30
0.0
 40
4.349797459999996
100
AcDbArc
 50
288.91861542
 51
359.08138458
  0
ARC
  5
D4
330
6B
100
AcDbEntity
  8
0
 62
     3
100
AcDbCircle
 10
483.0266781
 20
203.84501813
 30
0.0
 40
15.0
100
AcDbArc
 50
189.59406823
 51
206.40593177
  0
ARC
  5
D5
330
6B
100
AcDbEntity
  8
0
 62
     3
100
AcDbCircle
 10
483.0266781
 20
203.84501813
 30
0.0
 40
15.0
100
AcDbArc
 50
153.59406823
 51
170.40593177
  0
ARC
  5
D6
330
6B
100
AcDbEntity
  8
0
 62
     3
100
AcDbCircle
 10
483.0266781
 20
203.84501813
 30
0.0
 40
15.0
100
AcDbArc
 50
117.59406823
 51
134.40593177
  0
ARC
  5
D7
330
6B
100
AcDbEntity
  8
0
 62
     3
100
AcDbCircle
 10
483.0266781
 20
203.84501813
 30
0.0
 40
15.0
100
AcDbArc
 50
81.59406823000002
 51
98.40593177
  0
ARC
  5
D8
330
6B
100
AcDbEntity
  8
0
 62
     3
100
AcDbCircle
 10
483.0266781
 20
203.84501813
 30
0.0
 40
15.0
100
AcDbArc
 50
45.59406822999998
 51
62.40593177
  0
ARC
  5
D9
330
6B
100
AcDbEntity
  8
0
 62
     3
100
AcDbCircle
 10
483.0266781
 20
203.84501813
 30
0.0
 40
15.0
100
AcDbArc
 50
9.594068229999999
 51
26.40593177
  0
ARC
  5
DA
330
6B
100
AcDbEntity
  8
0
 62
     3
100
AcDbCircle
 10
483.0266781
 20
203.84501813
 30
0.0
 40
15.0
100
AcDbArc
 50
333.59406823
 51
350.40593177
  0
ARC
  5
DB
330
6B
100
AcDbEntity
  8
0
 62
     3
100
AcDbCircle
 10
483.0266781
 20
203.84501813
 30
0.0
 40
15.0
100
AcDbArc
 50
297.59406823
 51
314.40593177
  0
ARC
  5
DC
330
6B
100
AcDbEntity
  8
0
 62
     3
100
AcDbCircle
 10
483.0266781
 20
203.84501813
 30
0.0
 40
15.0
100
AcDbArc
 50
261.59406823
 51
278.40593177
  0
LINE
  5
DD
330
6B
100
AcDbEntity
  8
0
 62
     3
100
AcDbLine
 10
428.2127944099998
 20
189.39501813
 30
0.0
 11
428.2127944099998
 21
188.84501813
 31
0.0
  0
LINE
  5
DE
330
6B
100
AcDbEntity
  8
0
100
AcDbLine
 10
363.21279441
 20
219.84501813
 30
0.0
 11
363.21279441
 21
219.60599922
 31
0.0
  0
LINE
  5
DF
330
6B
100
AcDbEntity
  8
0
 62
     3
100
AcDbLine
 10
386.41279441
 20
190.44501813
 30
0.0
 11
386.41279441
 21
217.24501813
 31
0.0
  0
LINE
  5
E0
330
6B
100
AcDbEntity
  8
0
100
AcDbLine
 10
386.71279441
 20
189.94501813
 30
0.0
 11
386.71279441
 21
217.74501813
 31
0.0
  0
LINE
  5
E1
330
6B
100
AcDbEntity
  8
0
100
AcDbLine
 10
418.21279441
 20
217.74501813
 30
0.0
 11
418.21279441
 21
189.94501813
 31
0.0
  0
LINE
  5
E2
330
6B
100
AcDbEntity
  8
0
 62
     3
100
AcDbLine
 10
418.51279441
 20
217.24501813
 30
0.0
 11
418.51279441
 21
190.44501813
 31
0.0
  0
LINE
  5
E3
330
6B
100
AcDbEntity
  8
0
100
AcDbLine
 10
363.21279441
 20
201.59501813
 30
0.0
 11
349.71279441
 21
201.59501813
 31
0.0
  0
LINE
  5
E4
330
6B
100
AcDbEntity
  8
0
100
AcDbLine
 10
363.21279441
 20
206.09501813
 30
0.0
 11
349.71279441
 21
206.09501813
 31
0.0
  0
LINE
  5
E5
330
6B
100
AcDbEntity
  8
0
100
AcDbLine
 10
363.21279441
 20
192.71361965
 30
0.0
 11
349.71279441
 21
192.71361965
 31
0.0
  0
LINE
  5
E6
330
6B
100
AcDbEntity
  8
0
100
AcDbLine
 10
363.21279441
 20
196.35419612
 30
0.0
 11
349.71279441
 21
196.35419612
 31
0.0
  0
LINE
  5
E7
330
6B
100
AcDbEntity
  8
0
100
AcDbLine
 10
363.21279441
 20
188.08403704
 30
0.0
 11
349.71279441
 21
188.08403704
 31
0.0
  0
LINE
  5
E8
330
6B
100
AcDbEntity
  8
0
100
AcDbLine
 10
363.21279441
 20
189.47461352
 30
0.0
 11
349.71279441
 21
189.47461352
 31
0.0
  0
LINE
  5
152
330
6B
100
AcDbEntity
  8
0
100
AcDbLine
 10
363.21279441
 20
214.97641661
 30
0.0
 11
349.71279441
 21
214.97641661
 31
0.0
  0
LINE
  5
153
330
6B
100
AcDbEntity
  8
0
100
AcDbLine
 10
363.21279441
 20
211.33584014
 30
0.0
 11
349.71279441
 21
211.33584014
 31
0.0
  0
LINE
  5
154
330
6B
100
AcDbEntity
  8
0
100
AcDbLine
 10
363.21279441
 20
219.60599922
 30
0.0
 11
349.71279441
 21
219.60599922
 31
0.0
  0
LINE
  5
155
330
6B
100
AcDbEntity
  8
0
100
AcDbLine
 10
363.21279441
 20
218.21542274
 30
0.0
 11
349.71279441
 21
218.21542274
 31
0.0
  0
LINE
  5
17D
330
6B
100
AcDbEntity
  8
0
100
AcDbLine
 10
363.21279441
 20
218.21542274
 30
0.0
 11
363.21279441
 21
214.97641661
 31
0.0
  0
LINE
  5
17E
330
6B
100
AcDbEntity
  8
0
100
AcDbLine
 10
363.21279441
 20
211.33584014
 30
0.0
 11
363.21279441
 21
206.09501813
 31
0.0
  0
LINE
  5
17F
330
6B
100
AcDbEntity
  8
0
100
AcDbLine
 10
363.21279441
 20
201.59501813
 30
0.0
 11
363.21279441
 21
196.35419612
 31
0.0
  0
LINE
  5
180
330
6B
100
AcDbEntity
  8
0
100
AcDbLine
 10
363.21279441
 20
192.71361965
 30
0.0
 11
363.21279441
 21
189.47461352
 31
0.0
  0
CIRCLE
  5
181
330
6B
100
AcDbEntity
  8
0
 62
     3
100
AcDbCircle
 10
305.12323208
 20
203.84501813
 30
0.0
 40
2.5
  0
CIRCLE
  5
182
330
6B
100
AcDbEntity
  8
0
 62
     3
100
AcDbCircle
 10
305.12323208
 20
197.84501813
 30
0.0
 40
2.5
  0
CIRCLE
  5
183
330
6B
100
AcDbEntity
  8
0
 62
     3
100
AcDbCircle
 10
305.12323208
 20
191.84501813
 30
0.0
 40
2.5
  0
CIRCLE
  5
184
330
6B
100
AcDbEntity
  8
0
 62
     3
100
AcDbCircle
 10
310.31938451
 20
206.84501813
 30
0.0
 40
2.5
  0
CIRCLE
  5
185
330
6B
100
AcDbEntity
  8
0
 62
     3
100
AcDbCircle
 10
299.92707966
 20
206.84501813
 30
0.0
 40
2.5
  0
CIRCLE
  5
186
330
6B
100
AcDbEntity
  8
0
 62
     3
100
AcDbCircle
 10
312.8366834
 20
194.65248481
 30
0.0
 40
2.5
  0
CIRCLE
  5
187
330
6B
100
AcDbEntity
  8
0
 62
     3
100
AcDbCircle
 10
316.94092512
 20
201.76124
 30
0.0
 40
2.5
  0
CIRCLE
  5
188
330
6B
100
AcDbEntity
  8
0
 62
     3
100
AcDbCircle
 10
315.51553693
 20
209.84501813
 30
0.0
 40
2.5
  0
CIRCLE
  5
189
330
6B
100
AcDbEntity
  8
0
 62
     3
100
AcDbCircle
 10
309.2274738
 20
215.12132958
 30
0.0
 40
2.5
  0
CIRCLE
  5
18A
330
6B
100
AcDbEntity
  8
0
 62
     3
100
AcDbCircle
 10
301.01899036
 20
215.12132958
 30
0.0
 40
2.5
  0
CIRCLE
  5
18B
330
6B
100
AcDbEntity
  8
0
 62
     3
100
AcDbCircle
 10
294.73092724
 20
209.84501813
 30
0.0
 40
2.5
  0
CIRCLE
  5
18C
330
6B
100
AcDbEntity
  8
0
 62
     3
100
AcDbCircle
 10
293.30553905
 20
201.76124
 30
0.0
 40
2.5
  0
CIRCLE
  5
18D
330
6B
100
AcDbEntity
  8
0
 62
     3
100
AcDbCircle
 10
297.40978077
 20
194.65248481
 30
0.0
 40
2.5
  0
LINE
  5
18E
330
6B
100
AcDbEntity
  8
0
100
AcDbLine
 10
363.21279441
 20
188.08403704
 30
0.0
 11
363.21279441
 21
187.84501813
 31
0.0
  0
LINE
  5
18F
330
6B
100
AcDbEntity
  8
0
100
AcDbLine
 10
442.71279441
 20
201.34501813
 30
0.0
 11
428.2127944099998
 21
201.34501813
 31
0.0
  0
LINE
  5
190
330
6B
100
AcDbEntity
  8
0
100
AcDbLine
 10
442.71279441
 20
206.34501813
 30
0.0
 11
428.2127944099998
 21
206.34501813
 31
0.0
  0
LINE
  5
191
330
6B
100
AcDbEntity
  8
0
100
AcDbLine
 10
442.71279441
 20
197.1740995
 30
0.0
 11
428.2127944099998
 21
197.1740995
 31
0.0
  0
LINE
  5
192
330
6B
100
AcDbEntity
  8
0
100
AcDbLine
 10
442.71279441
 20
193.12901452
 30
0.0
 11
428.2127944099998
 21
193.12901452
 31
0.0
  0
LINE
  5
193
330
6B
100
AcDbEntity
  8
0
100
AcDbLine
 10
442.71279441
 20
190.55124504
 30
0.0
 11
428.2127944099998
 21
190.55124504
 31
0.0
  0
LINE
  5
194
330
6B
100
AcDbEntity
  8
0
100
AcDbLine
 10
442.71279441
 20
189.00616007
 30
0.0
 11
428.2127944099998
 21
189.00616007
 31
0.0
  0
LINE
  5
20A
330
6B
100
AcDbEntity
  8
0
100
AcDbLine
 10
442.71279441
 20
206.34501813
 30
0.0
 11
428.2127944099998
 21
206.34501813
 31
0.0
  0
LINE
  5
20B
330
6B
100
AcDbEntity
  8
0
100
AcDbLine
 10
442.71279441
 20
201.34501813
 30
0.0
 11
428.2127944099998
 21
201.34501813
 31
0.0
  0
LINE
  5
20C
330
6B
100
AcDbEntity
  8
0
100
AcDbLine
 10
442.71279441
 20
210.51593676
 30
0.0
 11
428.2127944099998
 21
210.51593676
 31
0.0
  0
LINE
  5
20D
330
6B
100
AcDbEntity
  8
0
100
AcDbLine
 10
442.71279441
 20
214.56102174
 30
0.0
 11
428.2127944099998
 21
214.56102174
 31
0.0
  0
LINE
  5
20E
330
6B
100
AcDbEntity
  8
0
100
AcDbLine
 10
442.71279441
 20
217.13879122
 30
0.0
 11
428.2127944099998
 21
217.13879122
 31
0.0
  0
LINE
  5
20F
330
6B
100
AcDbEntity
  8
0
100
AcDbLine
 10
442.71279441
 20
218.68387619
 30
0.0
 11
428.2127944099998
 21
218.68387619
 31
0.0
  0
CIRCLE
  5
25E
330
6B
100
AcDbEntity
  8
0
 62
     3
100
AcDbCircle
 10
483.0266781
 20
203.84501813
 30
0.0
 40
9.25
  0
CIRCLE
  5
25F
330
6B
100
AcDbEntity
  8
0
 62
     3
100
AcDbCircle
 10
483.0266781
 20
203.84501813
 30
0.0
 40
3.75
  0
LINE
  5
260
330
6B
100
AcDbEntity
  8
0
  6
CENTER
100
AcDbLine
 10
460.5266781
 20
203.84501813
 30
0.0
 11
505.5266781
 21
203.84501813
 31
0.0
  0
LINE
  5
261
330
6B
100
AcDbEntity
  8
0
  6
CENTER
100
AcDbLine
 10
483.0266781
 20
226.34501813
 30
0.0
 11
483.0266781
 21
181.34501813
 31
0.0
  0
LINE
  5
262
330
6B
100
AcDbEntity
  8
0
  6
CENTER
100
AcDbLine
 10
281.12323208
 20
203.84501813
 30
0.0
 11
329.12323208
 21
203.84501813
 31
0.0
  0
LINE
  5
263
330
6B
100
AcDbEntity
  8
0
  6
CENTER
100
AcDbLine
 10
305.12323208
 20
227.84501813
 30
0.0
 11
305.12323208
 21
179.84501813
 31
0.0
  0
LINE
  5
264
330
6B
100
AcDbEntity
  8
0
 62
     3
100
AcDbLine
 10
428.2127944099998
 20
218.29501813
 30
0.0
 11
428.2127944099998
 21
189.39501813
 31
0.0
  0
LINE
  5
280
330
6B
100
AcDbEntity
  8
0
 62
     3
100
AcDbLine
 10
387.10996193
 20
189.94501813
 30
0.0
 11
386.71279441
 21
190.34218564
 31
0.0
  0
LINE
  5
281
330
6B
100
AcDbEntity
  8
0
 62
     3
100
AcDbLine
 10
389.23128227
 20
189.94501813
 30
0.0
 11
386.71279441
 21
192.46350599
 31
0.0
  0
LINE
  5
282
330
6B
100
AcDbEntity
  8
0
 62
     3
100
AcDbLine
 10
391.35260261
 20
189.94501813
 30
0.0
 11
386.71279441
 21
194.58482633
 31
0.0
  0
LINE
  5
283
330
6B
100
AcDbEntity
  8
0
 62
     3
100
AcDbLine
 10
393.47392296
 20
189.94501813
 30
0.0
 11
386.71279441
 21
196.70614668
 31
0.0
  0
LINE
  5
284
330
6B
100
AcDbEntity
  8
0
 62
     3
100
AcDbLine
 10
395.5952433
 20
189.94501813
 30
0.0
 11
386.71279441
 21
198.82746702
 31
0.0
  0
LINE
  5
285
330
6B
100
AcDbEntity
  8
0
100
AcDbLine
 10
397.71656365
 20
189.94501813
 30
0.0
 11
386.71279441
 21
200.94878736
 31
0.0
  0
LINE
  5
286
330
6B
100
AcDbEntity
  8
0
100
AcDbLine
 10
399.83788399
 20
189.94501813
 30
0.0
 11
386.71279441
 21
203.07010771
 31
0.0
  0
LINE
  5
287
330
6B
100
AcDbEntity
  8
0
100
AcDbLine
 10
401.9592043299998
 20
189.94501813
 30
0.0
 11
386.71279441
 21
205.19142805
 31
0.0
  0
LINE
  5
288
330
6B
100
AcDbEntity
  8
0
100
AcDbLine
 10
404.0805246799997
 20
189.94501813
 30
0.0
 11
386.71279441
 21
207.31274839
 31
0.0
  0
LINE
  5
289
330
6B
100
AcDbEntity
  8
0
100
AcDbLine
 10
406.20184502
 20
189.94501813
 30
0.0
 11
386.71279441
 21
209.43406874
 31
0.0
  0
LINE
  5
28A
330
6B
100
AcDbEntity
  8
0
100
AcDbLine
 10
408.32316536
 20
189.94501813
 30
0.0
 11
386.71279441
 21
211.55538908
 31
0.0
  0
LINE
  5
28B
330
6B
100
AcDbEntity
  8
0
100
AcDbLine
 10
410.4444857099998
 20
189.94501813
 30
0.0
 11
386.71279441
 21
213.67670942
 31
0.0
  0
LINE
  5
28C
330
6B
100
AcDbEntity
  8
0
100
AcDbLine
 10
412.56580605
 20
189.94501813
 30
0.0
 11
386.71279441
 21
215.79802977
 31
0.0
  0
LINE
  5
28D
330
6B
100
AcDbEntity
  8
0
100
AcDbLine
 10
414.68712639
 20
189.94501813
 30
0.0
 11
386.88712639
 21
217.74501813
 31
0.0
  0
LINE
  5
28E
330
6B
100
AcDbEntity
  8
0
100
AcDbLine
 10
416.8084467399998
 20
189.94501813
 30
0.0
 11
389.00844674
 21
217.74501813
 31
0.0
  0
LINE
  5
28F
330
6B
100
AcDbEntity
  8
0
100
AcDbLine
 10
418.21279441
 20
190.6619908
 30
0.0
 11
391.12976708
 21
217.74501813
 31
0.0
  0
LINE
  5
290
330
6B
100
AcDbEntity
  8
0
100
AcDbLine
 10
418.21279441
 20
192.78331114
 30
0.0
 11
393.25108742
 21
217.74501813
 31
0.0
  0
LINE
  5
291
330
6B
100
AcDbEntity
  8
0
100
AcDbLine
 10
418.21279441
 20
194.90463148
 30
0.0
 11
395.37240777
 21
217.74501813
 31
0.0
  0
LINE
  5
292
330
6B
100
AcDbEntity
  8
0
100
AcDbLine
 10
418.21279441
 20
197.02595183
 30
0.0
 11
397.49372811
 21
217.74501813
 31
0.0
  0
LINE
  5
293
330
6B
100
AcDbEntity
  8
0
100
AcDbLine
 10
418.21279441
 20
199.14727217
 30
0.0
 11
399.61504846
 21
217.74501813
 31
0.0
  0
LINE
  5
294
330
6B
100
AcDbEntity
  8
0
100
AcDbLine
 10
418.21279441
 20
201.26859252
 30
0.0
 11
401.7363687999998
 21
217.74501813
 31
0.0
  0
LINE
  5
295
330
6B
100
AcDbEntity
  8
0
100
AcDbLine
 10
418.21279441
 20
203.38991286
 30
0.0
 11
403.8576891399998
 21
217.74501813
 31
0.0
  0
LINE
  5
296
330
6B
100
AcDbEntity
  8
0
100
AcDbLine
 10
418.21279441
 20
205.5112332
 30
0.0
 11
405.97900949
 21
217.74501813
 31
0.0
  0
LINE
  5
297
330
6B
100
AcDbEntity
  8
0
100
AcDbLine
 10
418.21279441
 20
207.63255355
 30
0.0
 11
408.10032983
 21
217.74501813
 31
0.0
  0
LINE
  5
298
330
6B
100
AcDbEntity
  8
0
100
AcDbLine
 10
418.21279441
 20
209.75387389
 30
0.0
 11
410.22165017
 21
217.74501813
 31
0.0
  0
LINE
  5
299
330
6B
100
AcDbEntity
  8
0
100
AcDbLine
 10
418.21279441
 20
211.87519423
 30
0.0
 11
412.34297052
 21
217.74501813
 31
0.0
  0
LINE
  5
29A
330
6B
100
AcDbEntity
  8
0
100
AcDbLine
 10
418.21279441
 20
213.99651458
 30
0.0
 11
414.4642908599998
 21
217.74501813
 31
0.0
  0
LINE
  5
29B
330
6B
100
AcDbEntity
  8
0
100
AcDbLine
 10
418.21279441
 20
216.11783492
 30
0.0
 11
416.5856111999998
 21
217.74501813
 31
0.0
  0
LINE
  5
29C
330
6B
100
AcDbEntity
  8
0
100
AcDbLine
 10
417.3941252199998
 20
189.94501813
 30
0.0
 11
418.21279441
 21
190.76368733
 31
0.0
  0
LINE
  5
29D
330
6B
100
AcDbEntity
  8
0
100
AcDbLine
 10
415.27280487
 20
189.94501813
 30
0.0
 11
418.21279441
 21
192.88500767
 31
0.0
  0
LINE
  5
29E
330
6B
100
AcDbEntity
  8
0
100
AcDbLine
 10
413.1514845299998
 20
189.94501813
 30
0.0
 11
418.21279441
 21
195.00632801
 31
0.0
  0
LINE
  5
29F
330
6B
100
AcDbEntity
  8
0
100
AcDbLine
 10
411.0301641899998
 20
189.94501813
 30
0.0
 11
418.21279441
 21
197.12764836
 31
0.0
  0
LINE
  5
2A0
330
6B
100
AcDbEntity
  8
0
100
AcDbLine
 10
408.90884384
 20
189.94501813
 30
0.0
 11
418.21279441
 21
199.2489686999999
 31
0.0
  0
LINE
  5
2A1
330
6B
100
AcDbEntity
  8
0
100
AcDbLine
 10
406.7875234999998
 20
189.94501813
 30
0.0
 11
418.21279441
 21
201.37028904
 31
0.0
  0
LINE
  5
2A2
330
6B
100
AcDbEntity
  8
0
100
AcDbLine
 10
404.66620316
 20
189.94501813
 30
0.0
 11
418.21279441
 21
203.49160939
 31
0.0
  0
LINE
  5
2A3
330
6B
100
AcDbEntity
  8
0
100
AcDbLine
 10
402.54488281
 20
189.94501813
 30
0.0
 11
418.21279441
 21
205.61292973
 31
0.0
  0
LINE
  5
2A4
330
6B
100
AcDbEntity
  8
0
100
AcDbLine
 10
400.4235624699998
 20
189.94501813
 30
0.0
 11
418.21279441
 21
207.73425007
 31
0.0
  0
LINE
  5
2A5
330
6B
100
AcDbEntity
  8
0
100
AcDbLine
 10
398.30224213
 20
189.94501813
 30
0.0
 11
418.21279441
 21
209.85557042
 31
0.0
  0
LINE
  5
2A6
330
6B
100
AcDbEntity
  8
0
100
AcDbLine
 10
396.18092178
 20
189.94501813
 30
0.0
 11
418.21279441
 21
211.97689076
 31
0.0
  0
LINE
  5
2A7
330
6B
100
AcDbEntity
  8
0
100
AcDbLine
 10
394.05960144
 20
189.94501813
 30
0.0
 11
418.21279441
 21
214.09821111
 31
0.0
  0
LINE
  5
2A8
330
6B
100
AcDbEntity
  8
0
100
AcDbLine
 10
391.93828109
 20
189.94501813
 30
0.0
 11
418.21279441
 21
216.21953145
 31
0.0
  0
LINE
  5
2A9
330
6B
100
AcDbEntity
  8
0
100
AcDbLine
 10
389.81696075
 20
189.94501813
 30
0.0
 11
417.6169607499998
 21
217.74501813
 31
0.0
  0
LINE
  5
2AA
330
6B
100
AcDbEntity
  8
0
100
AcDbLine
 10
387.69564041
 20
189.94501813
 30
0.0
 11
415.49564041
 21
217.74501813
 31
0.0
  0
LINE
  5
2AB
330
6B
100
AcDbEntity
  8
0
100
AcDbLine
 10
386.71279441
 20
191.0834924799999
 30
0.0
 11
413.3743200599998
 21
217.74501813
 31
0.0
  0
LINE
  5
2AC
330
6B
100
AcDbEntity
  8
0
100
AcDbLine
 10
386.71279441
 20
193.20481282
 30
0.0
 11
411.25299972
 21
217.74501813
 31
0.0
  0
LINE
  5
2AD
330
6B
100
AcDbEntity
  8
0
100
AcDbLine
 10
386.71279441
 20
195.32613317
 30
0.0
 11
409.1316793799999
 21
217.74501813
 31
0.0
  0
LINE
  5
2AE
330
6B
100
AcDbEntity
  8
0
100
AcDbLine
 10
386.71279441
 20
197.44745351
 30
0.0
 11
407.01035903
 21
217.74501813
 31
0.0
  0
LINE
  5
2AF
330
6B
100
AcDbEntity
  8
0
100
AcDbLine
 10
386.71279441
 20
199.56877385
 30
0.0
 11
404.88903869
 21
217.74501813
 31
0.0
  0
LINE
  5
2B0
330
6B
100
AcDbEntity
  8
0
100
AcDbLine
 10
386.71279441
 20
201.6900942
 30
0.0
 11
402.7677183499998
 21
217.74501813
 31
0.0
  0
LINE
  5
2B1
330
6B
100
AcDbEntity
  8
0
100
AcDbLine
 10
386.71279441
 20
203.81141454
 30
0.0
 11
400.6463979999998
 21
217.74501813
 31
0.0
  0
LINE
  5
2B2
330
6B
100
AcDbEntity
  8
0
100
AcDbLine
 10
386.71279441
 20
205.93273488
 30
0.0
 11
398.52507766
 21
217.74501813
 31
0.0
  0
LINE
  5
2B3
330
6B
100
AcDbEntity
  8
0
100
AcDbLine
 10
386.71279441
 20
208.05405523
 30
0.0
 11
396.40375732
 21
217.74501813
 31
0.0
  0
LINE
  5
2B4
330
6B
100
AcDbEntity
  8
0
100
AcDbLine
 10
386.71279441
 20
210.17537557
 30
0.0
 11
394.28243697
 21
217.74501813
 31
0.0
  0
LINE
  5
2B5
330
6B
100
AcDbEntity
  8
0
100
AcDbLine
 10
386.71279441
 20
212.29669592
 30
0.0
 11
392.16111663
 21
217.74501813
 31
0.0
  0
LINE
  5
2B6
330
6B
100
AcDbEntity
  8
0
100
AcDbLine
 10
386.71279441
 20
214.41801626
 30
0.0
 11
390.03979628
 21
217.74501813
 31
0.0
  0
LINE
  5
2B7
330
6B
100
AcDbEntity
  8
0
100
AcDbLine
 10
386.71279441
 20
216.5393366
 30
0.0
 11
387.91847594
 21
217.74501813
 31
0.0
  0
LINE
  5
2BA
330
6B
100
AcDbEntity
  8
0
 62
     3
100
AcDbLine
 10
516.5141959899998
 20
97.16442037
 30
0.0
 11
516.5141959899998
 21
120.16442037
 31
0.0
  0
LINE
  5
2BC
330
6B
100
AcDbEntity
  8
0
 62
     3
100
AcDbLine
 10
463.46058656
 20
90.16442037
 30
0.0
 11
463.46058656
 21
104.16442037
 31
0.0
  0
TEXT
  5
2BE
330
6B
100
AcDbEntity
  8
0
 62
     3
100
AcDbText
 10
492.52451408
 20
116.36953644
 30
0.0
 40
2.0
  1
A
 41
0.6999999900000004
100
AcDbText
  0
TEXT
  5
2BF
330
6B
100
AcDbEntity
  8
0
 62
     3
100
AcDbText
 10
495.0598002699998
 20
116.36953644
 30
0.0
 40
2.0
  1
P
 41
0.6999999900000004
100
AcDbText
  0
TEXT
  5
2C0
330
6B
100
AcDbEntity
  8
0
 62
     3
100
AcDbText
 10
497.59508646
 20
116.36953644
 30
0.0
 40
2.0
  1
P
 41
0.6999999900000004
100
AcDbText
  0
TEXT
  5
2C1
330
6B
100
AcDbEntity
  8
0
 62
     3
100
AcDbText
 10
500.13037265
 20
116.36953644
 30
0.0
 40
2.0
  1
D
 41
0.6999999900000004
100
AcDbText
  0
TEXT
  5
2C2
330
6B
100
AcDbEntity
  8
0
 62
     3
100
AcDbText
 10
505.49905589
 20
116.36953644
 30
0.0
 40
2.0
  1
C
 41
0.6999999900000004
100
AcDbText
  0
TEXT
  5
2C3
330
6B
100
AcDbEntity
  8
0
 62
     3
100
AcDbText
 10
508.03434207
 20
116.36953644
 30
0.0
 40
2.0
  1
H
 41
0.6999999900000004
100
AcDbText
  0
TEXT
  5
2C4
330
6B
100
AcDbEntity
  8
0
 62
     3
100
AcDbText
 10
510.56962826
 20
116.36953644
 30
0.0
 40
2.0
  1
C
 41
0.6999999900000004
100
AcDbText
  0
TEXT
  5
2C5
330
6B
100
AcDbEntity
  8
0
 62
     3
100
AcDbText
 10
513.10491445
 20
116.36953644
 30
0.0
 40
2.0
  1
K
 41
0.6999999900000004
100
AcDbText
  0
TEXT
  5
2C6
330
6B
100
AcDbEntity
  8
0
 62
     3
100
AcDbText
 10
518.7788810199998
 20
116.36953644
 30
0.0
 40
2.0
  1
DESN
 41
1.216762539999999
100
AcDbText
  0
TEXT
  5
2C7
330
6B
100
AcDbEntity
  8
0
 62
     3
100
AcDbText
 10
433.7725222799998
 20
87.02303858
 30
0.0
 40
2.0
  1
NICHIDO IND.CO.LTD
 41
1.27487637
100
AcDbText
  0
LINE
  5
2C8
330
6B
100
AcDbEntity
  8
0
 62
     3
100
AcDbLine
 10
444.15555161
 20
120.16442037
 30
0.0
 11
444.15555161
 21
97.16442037
 31
0.0
  0
LINE
  5
2C9
330
6B
100
AcDbEntity
  8
0
 62
     3
100
AcDbLine
 10
490.5141959899999
 20
120.16442037
 30
0.0
 11
490.5141959899999
 21
80.49869785
 31
0.0
  0
LINE
  5
2CE
330
6B
100
AcDbEntity
  8
0
 62
     3
100
AcDbLine
 10
503.5141959899999
 20
120.16442037
 30
0.0
 11
503.51419599
 21
90.16442037
 31
0.0
  0
TEXT
  5
2CF
330
6B
100
AcDbEntity
  8
0
 62
     3
100
AcDbText
 10
491.79267923
 20
91.86967712999999
 30
0.0
 40
3.200000049999998
  1
作成日
 41
1.01722639
100
AcDbText
  0
LINE
  5
2D0
330
6B
100
AcDbEntity
  8
0
 62
     3
100
AcDbLine
 10
542.21355946
 20
120.16442037
 30
0.0
 11
430.9101169699998
 21
120.16442037
 31
0.0
  0
LINE
  5
2D1
330
6B
100
AcDbEntity
  8
0
 62
     3
100
AcDbLine
 10
542.21355946
 20
111.16442037
 30
0.0
 11
430.9101169699998
 21
111.16442037
 31
0.0
  0
LINE
  5
2D2
330
6B
100
AcDbEntity
  8
0
 62
     3
100
AcDbLine
 10
542.21355946
 20
97.16442037
 30
0.0
 11
430.9101169699998
 21
97.16442037
 31
0.0
  0
LINE
  5
2D3
330
6B
100
AcDbEntity
  8
0
 62
     3
100
AcDbLine
 10
542.21355946
 20
90.16442037
 30
0.0
 11
430.9101169699998
 21
90.16442037
 31
0.0
  0
LINE
  5
2D4
330
6B
100
AcDbEntity
  8
0
 62
     3
100
AcDbLine
 10
529.5141959899998
 20
97.16442037
 30
0.0
 11
529.5141959899998
 21
120.16442037
 31
0.0
  0
TEXT
  5
2D5
330
6B
100
AcDbEntity
  8
0
 62
     3
100
AcDbText
 10
532.8379992899998
 20
116.45535494
 30
0.0
 40
1.799999949999999
  1
D
 41
0.66666671
100
AcDbText
  0
TEXT
  5
2D6
330
6B
100
AcDbEntity
  8
0
 62
     3
100
AcDbText
 10
535.6546275099998
 20
116.45535494
 30
0.0
 40
1.799999949999999
  1
E
 41
0.66666671
100
AcDbText
  0
TEXT
  5
2D7
330
6B
100
AcDbEntity
  8
0
 62
     3
100
AcDbText
 10
538.47125572
 20
116.45535494
 30
0.0
 40
1.799999949999999
  1
F
 41
0.66666671
100
AcDbText
  0
TEXT
  5
2D8
330
6B
100
AcDbEntity
  8
0
 62
     3
100
AcDbText
 10
532.8379992899998
 20
112.46280163
 30
0.0
 40
3.200000049999998
  1
製図
 41
1.076368849999999
100
AcDbText
  0
LINE
  5
2D9
330
6B
100
AcDbEntity
  8
0
 62
     3
100
AcDbLine
 10
430.9101169699998
 20
120.16442037
 30
0.0
 11
430.9101169699998
 21
80.49869785
 31
0.0
  0
LINE
  5
2DA
330
6B
100
AcDbEntity
  8
0
 62
     3
100
AcDbLine
 10
490.5141959899999
 20
104.16442037
 30
0.0
 11
430.9101169699998
 21
104.16442037
 31
0.0
  0
TEXT
  5
2DB
330
6B
100
AcDbEntity
  8
0
 62
     3
100
AcDbText
 10
432.28676983
 20
80.83116332000001
 30
0.0
 40
5.0
  1
日動工業株式会社
 41
0.8333333299999999
100
AcDbText
  0
LINE
  5
2DC
330
6B
100
AcDbEntity
  8
0
 62
     3
100
AcDbLine
 10
473.7925209199999
 20
104.16442037
 30
0.0
 11
473.79252092
 21
80.49869785
 31
0.0
  0
LINE
  5
2DD
330
6B
100
AcDbEntity
  8
0
 62
     3
100
AcDbLine
 10
473.79252092
 20
85.33155910999999
 30
0.0
 11
490.5141959899999
 21
85.33155910999999
 31
0.0
  0
TEXT
  5
2DE
330
6B
100
AcDbEntity
  8
0
 62
     3
100
AcDbText
 10
474.37912286
 20
86.14798972
 30
0.0
 40
3.200000049999998
  1
出図コード
 41
0.8356862900000001
100
AcDbText
  0
TEXT
  5
2DF
330
6B
100
AcDbEntity
  8
0
 62
     3
100
AcDbText
 10
474.37912286
 20
81.31512845000001
 30
0.0
 40
3.200000049999998
  1
HM-A4
 41
0.9994264499999999
100
AcDbText
  0
LINE
  5
2F1
330
6B
100
AcDbEntity
  8
0
 62
     3
100
AcDbLine
 10
403.5849651099998
 20
272.96468948
 30
0.0
 11
403.5849651099998
 21
271.71613038
 31
0.0
  0
LINE
  5
2F7
330
6B
100
AcDbEntity
  8
0
 62
     3
100
AcDbLine
 10
265.08496511
 20
260.49207218
 30
0.0
 11
265.08496511
 21
80.49207217999997
 31
0.0
  0
LINE
  5
2F8
330
6B
100
AcDbEntity
  8
0
 62
     3
100
AcDbLine
 10
542.08496511
 20
80.49207217999997
 30
0.0
 11
542.08496511
 21
260.49207218
 31
0.0
  0
LINE
  5
2F9
330
6B
100
AcDbEntity
  8
0
 62
     3
100
AcDbLine
 10
265.08496511
 20
80.49207217999997
 30
0.0
 11
542.08496511
 21
80.49207217999997
 31
0.0
  0
LINE
  5
2FA
330
6B
100
AcDbEntity
  8
0
 62
     3
100
AcDbLine
 10
265.08496511
 20
260.49207218
 30
0.0
 11
542.08496511
 21
260.49207218
 31
0.0
  0
TEXT
  5
2FB
330
6B
100
AcDbEntity
  8
0
 62
     3
100
AcDbText
 10
432.72751393
 20
116.33394618
 30
0.0
 40
2.0
  1
CONPONENTS
 41
0.53316033
100
AcDbText
  0
TEXT
  5
2FC
330
6B
100
AcDbEntity
  8
0
 62
     3
100
AcDbText
 10
432.37778731
 20
97.40176939000001
 30
0.0
 40
3.0
  1
材
 41
0.8333333299999999
100
AcDbText
  0
TEXT
  5
2FD
330
6B
100
AcDbEntity
  8
0
 62
     3
100
AcDbText
 10
439.9134299299998
 20
97.40176939000001
 30
0.0
 40
3.0
  1
質
 41
0.8333333299999999
100
AcDbText
  0
TEXT
  5
2FE
330
6B
100
AcDbEntity
  8
0
 62
     3
100
AcDbText
 10
432.46585793
 20
108.026294
 30
0.0
 40
2.0
  1
MODEL
 41
1.031073209999997
100
AcDbText
  0
TEXT
  5
2FF
330
6B
100
AcDbEntity
  8
0
 62
     3
100
AcDbText
 10
432.37778731
 20
101.08407759
 30
0.0
 40
2.0
  1
MATERIAL
 41
0.65927843
100
AcDbText
  0
TEXT
  5
300
330
6B
100
AcDbEntity
  8
0
 62
     3
100
AcDbText
 10
463.6850676699999
 20
97.40176939000001
 30
0.0
 40
3.0
  1
備
 41
0.8333333299999999
100
AcDbText
  0
TEXT
  5
301
330
6B
100
AcDbEntity
  8
0
 62
     3
100
AcDbText
 10
470.41806938
 20
97.40176939000001
 30
0.0
 40
3.0
  1
考
 41
0.8333333299999999
100
AcDbText
  0
TEXT
  5
302
330
6B
100
AcDbEntity
  8
0
 62
     3
100
AcDbText
 10
464.0964151158475
 20
101.08407759
 30
0.0
 40
2.0
  1
REMARKS
 41
0.6757942400000001
100
AcDbText
  0
TEXT
  5
303
330
6B
100
AcDbEntity
  8
0
 62
     3
100
AcDbText
 10
433.9675162799998
 20
94.16395698
 30
0.0
 40
2.0
  1
3AD
 41
1.42613983
100
AcDbText
  0
TEXT
  5
304
330
6B
100
AcDbEntity
  8
0
 62
     3
100
AcDbText
 10
443.27849598
 20
94.32969054
 30
0.0
 40
2.0
  1
ANGLE
 41
1.66988373
100
AcDbText
  0
TEXT
  5
305
330
6B
100
AcDbEntity
  8
0
 62
     3
100
AcDbText
 10
464.21238308
 20
93.95284965
 30
0.0
 40
2.0
  1
SCALE
 41
0.7719631200000002
100
AcDbText
  0
TEXT
  5
306
330
6B
100
AcDbEntity
  8
0
 62
     3
100
AcDbText
 10
433.65364606
 20
90.16442037
 30
0.0
 40
3.0
  1
第
 41
0.8333333299999999
100
AcDbText
  0
TEXT
  5
307
330
6B
100
AcDbEntity
  8
0
 62
     3
100
AcDbText
 10
441.44049604
 20
90.16442037
 30
0.0
 40
3.0
  1
三
 41
0.8333333299999999
100
AcDbText
  0
TEXT
  5
308
330
6B
100
AcDbEntity
  8
0
 62
     3
100
AcDbText
 10
449.22734601
 20
90.16442037
 30
0.0
 40
3.0
  1
角
 41
0.8333333299999999
100
AcDbText
  0
TEXT
  5
309
330
6B
100
AcDbEntity
  8
0
 62
     3
100
AcDbText
 10
457.0141959899998
 20
90.16442037
 30
0.0
 40
3.0
  1
法
 41
0.8333333299999999
100
AcDbText
  0
TEXT
  5
30A
330
6B
100
AcDbEntity
  8
0
 62
     3
100
AcDbText
 10
464.07558803
 20
90.45284965
 30
0.0
 40
3.0
  1
尺
 41
0.8333333299999999
100
AcDbText
  0
TEXT
  5
30B
330
6B
100
AcDbEntity
  8
0
 62
     3
100
AcDbText
 10
470.80858974
 20
90.45284965
 30
0.0
 40
3.0
  1
度
 41
0.8333333299999999
100
AcDbText
  0
TEXT
  5
30C
330
6B
100
AcDbEntity
  8
0
 62
     3
100
AcDbText
 10
493.39186021
 20
112.62214932
 30
0.0
 40
3.0
  1
承認
 41
1.0894733
100
AcDbText
  0
TEXT
  5
30D
330
6B
100
AcDbEntity
  8
0
 62
     3
100
AcDbText
 10
506.63474042
 20
112.56442037
 30
0.0
 40
3.0
  1
検図
 41
0.931761
100
AcDbText
  0
TEXT
  5
30E
330
6B
100
AcDbEntity
  8
0
 62
     3
100
AcDbText
 10
519.6351371499998
 20
112.56442037
 30
0.0
 40
3.0
  1
設
 41
0.8333333299999999
100
AcDbText
  0
TEXT
  5
30F
330
6B
100
AcDbEntity
  8
0
 62
     3
100
AcDbText
 10
524.1250053099999
 20
112.56442037
 30
0.0
 40
3.0
  1
計
 41
0.8333333299999999
100
AcDbText
  0
TEXT
  5
310
330
6B
100
AcDbEntity
  8
0
 62
     3
100
AcDbText
 10
432.7976204299998
 20
112.73697276
 30
0.0
 40
3.0
  1
品
 41
0.8333333299999999
100
AcDbText
  0
TEXT
  5
311
330
6B
100
AcDbEntity
  8
0
 62
     3
100
AcDbText
 10
440.33326258
 20
112.73697276
 30
0.0
 40
3.0
  1
名
 41
0.8333333299999999
100
AcDbText
  0
TEXT
  5
312
330
6B
100
AcDbEntity
  8
0
 62
     3
100
AcDbText
 10
432.46585793
 20
104.5658474631907
 30
0.0
 40
3.0
  1
型
 41
0.8333333299999999
100
AcDbText
  0
TEXT
  5
313
330
6B
100
AcDbEntity
  8
0
 62
     3
100
AcDbText
 10
440.01394839
 20
104.5658474631907
 30
0.0
 40
3.0
  1
式
 41
0.8333333299999999
100
AcDbText
  0
LINE
  5
314
330
6B
100
AcDbEntity
  8
0
 62
     3
100
AcDbLine
 10
541.9849289700001
 20
126.16442037
 30
0.0
 11
490.5141959899999
 21
126.16442037
 31
0.0
  0
LINE
  5
315
330
6B
100
AcDbEntity
  8
0
 62
     3
100
AcDbLine
 10
516.5141959899998
 20
120.16442037
 30
0.0
 11
516.5141959899998
 21
126.16442037
 31
0.0
  0
LINE
  5
316
330
6B
100
AcDbEntity
  8
0
 62
     3
100
AcDbLine
 10
490.5141959899999
 20
120.16442037
 30
0.0
 11
490.5141959899999
 21
126.16442037
 31
0.0
  0
TEXT
  5
317
330
6B
100
AcDbEntity
  8
0
 62
     3
100
AcDbText
 10
495.6572574398433
 20
120.72050558
 30
0.0
 40
4.5
  1
コード
  7
高4.5
100
AcDbText
  0
TEXT
  5
318
330
6B
100
AcDbEntity
  8
0
 62
     3
100
AcDbText
 10
303.2192426405723
 20
80.99207217999994
 30
0.0
 40
2.5
  1
備　　　　　考　
 41
0.8
  7
高2.5
100
AcDbText
  0
TEXT
  5
319
330
6B
100
AcDbEntity
  8
0
 62
     3
100
AcDbText
 10
286.8801030510601
 20
80.99207217999994
 30
0.0
 40
2.5
  1
個数
 41
0.8
  7
高2.5
100
AcDbText
  0
TEXT
  5
31A
330
6B
100
AcDbEntity
  8
0
 62
     3
100
AcDbText
 10
266.58496511
 20
80.99207217999994
 30
0.0
 40
2.5
  1
No
 41
0.8
  7
高2.5
100
AcDbText
  0
TEXT
  5
31B
330
6B
100
AcDbEntity
  8
0
 62
     3
100
AcDbText
 10
266.58496511
 20
92.99207217999997
 30
0.0
 40
2.5
  1
3
 41
0.8
  7
高2.5
100
AcDbText
  0
TEXT
  5
31C
330
6B
100
AcDbEntity
  8
0
 62
     3
100
AcDbText
 10
266.58496511
 20
100.9920721799999
 30
0.0
 40
2.5
  1
4
 41
0.8
  7
高2.5
100
AcDbText
  0
TEXT
  5
31D
330
6B
100
AcDbEntity
  8
0
 62
     3
100
AcDbText
 10
266.58496511
 20
104.9920721799999
 30
0.0
 40
2.5
  1
5
 41
0.8
  7
高2.5
100
AcDbText
  0
TEXT
  5
31E
330
6B
100
AcDbEntity
  8
0
 62
     3
100
AcDbText
 10
266.58496511
 20
84.99207217999995
 30
0.0
 40
2.5
  1
1
 41
0.8
  7
高2.5
100
AcDbText
  0
TEXT
  5
31F
330
6B
100
AcDbEntity
  8
0
 62
     3
100
AcDbText
 10
266.58496511
 20
88.99207217999997
 30
0.0
 40
2.5
  1
2
 41
0.8
  7
高2.5
100
AcDbText
  0
TEXT
  5
320
330
6B
100
AcDbEntity
  8
0
 62
     3
100
AcDbText
 10
272.402282792016
 20
84.99207217999995
 30
0.0
 40
2.5
  1
ケース本体
 41
0.8
  7
高2.5
100
AcDbText
  0
TEXT
  5
321
330
6B
100
AcDbEntity
  8
0
 62
     3
100
AcDbText
 10
286.8801030510601
 20
84.99207217999995
 30
0.0
 40
2.5
  1
1式
 41
0.8
  7
高2.5
100
AcDbText
  0
TEXT
  5
322
330
6B
100
AcDbEntity
  8
0
 62
     3
100
AcDbText
 10
293.8308533371341
 20
100.9920721799999
 30
0.0
 40
2.5
  1
-
 41
0.8
  7
高2.5
100
AcDbText
  0
TEXT
  5
323
330
6B
100
AcDbEntity
  8
0
 62
     3
100
AcDbText
 10
286.8801030510601
 20
88.99207217999997
 30
0.0
 40
2.5
  1
1
 41
0.8
  7
高2.5
100
AcDbText
  0
TEXT
  5
324
330
6B
100
AcDbEntity
  8
0
 62
     3
100
AcDbText
 10
293.8308533371341
 20
92.99207217999997
 30
0.0
 40
2.5
  1
-
 41
0.8
  7
高2.5
100
AcDbText
  0
CIRCLE
  5
325
330
6B
100
AcDbEntity
  8
0
100
AcDbCircle
 10
427.9723861999998
 20
169.37947418
 30
0.0
 40
5.0
  0
TEXT
  5
326
330
6B
100
AcDbEntity
  8
0
 62
     4
100
AcDbText
 10
425.7143944272391
 20
166.100418435171
 30
0.0
 40
6.299999999999998
  1
3
  7
高6.3
100
AcDbText
  0
TEXT
  5
327
330
6B
100
AcDbEntity
  8
0
 62
     3
100
AcDbText
 10
272.402282792016
 20
88.99207217999997
 30
0.0
 40
2.5
  1
電池蓋
 41
0.8
  7
高2.5
100
AcDbText
  0
TEXT
  5
328
330
6B
100
AcDbEntity
  8
0
 62
     3
100
AcDbText
 10
272.402282792016
 20
92.99207217999997
 30
0.0
 40
2.5
  1
電池
 41
0.8
  7
高2.5
100
AcDbText
  0
TEXT
  5
329
330
6B
100
AcDbEntity
  8
0
 62
     3
100
AcDbText
 10
272.402282792016
 20
100.9920721799999
 30
0.0
 40
2.5
  1
LED
 41
0.8
  7
高2.5
100
AcDbText
  0
TEXT
  5
32A
330
6B
100
AcDbEntity
  8
0
 62
     3
100
AcDbText
 10
272.402282792016
 20
104.9920721799999
 30
0.0
 40
2.5
  1
スイッチ
 41
0.8
  7
高2.5
100
AcDbText
  0
TEXT
  5
32B
330
6B
100
AcDbEntity
  8
0
 62
     3
100
AcDbText
 10
293.8308533371341
 20
84.99207217999995
 30
0.0
 40
2.5
  1
アルミ
 41
0.8
  7
高2.5
100
AcDbText
  0
TEXT
  5
32C
330
6B
100
AcDbEntity
  8
0
 62
     3
100
AcDbText
 10
293.8308533371341
 20
88.99207217999997
 30
0.0
 40
2.5
  1
アルミ
 41
0.8
  7
高2.5
100
AcDbText
  0
TEXT
  5
32D
330
6B
100
AcDbEntity
  8
0
 62
     3
100
AcDbText
 10
272.402282792016
 20
80.99207217999994
 30
0.0
 40
2.5
  1
部品名
 41
0.8
  7
高2.5
100
AcDbText
  0
TEXT
  5
32E
330
6B
100
AcDbEntity
  8
0
 62
     3
100
AcDbText
 10
293.8308533371341
 20
80.99207217999994
 30
0.0
 40
2.5
  1
材質
 41
0.8
  7
高2.5
100
AcDbText
  0
TEXT
  5
32F
330
6B
100
AcDbEntity
  8
0
 62
     3
100
AcDbText
 10
446.3257705796511
 20
112.331671625279
 30
0.0
 40
4.5
  1
スーパーLEDライト
 41
0.8
  7
高4.5
100
AcDbText
  0
TEXT
  5
330
330
6B
100
AcDbEntity
  8
0
 62
     3
100
AcDbText
 10
477.36661629
 20
91.35728647
 30
0.0
 40
3.2
  1
1/1
  7
高3.2
100
AcDbText
  0
TEXT
  5
331
330
6B
100
AcDbEntity
  8
0
 62
     3
100
AcDbText
 10
286.8801030510601
 20
104.9920721799999
 30
0.0
 40
2.5
  1
1
 41
0.8
  7
高2.5
100
AcDbText
  0
CIRCLE
  5
332
330
6B
100
AcDbEntity
  8
0
100
AcDbCircle
 10
417.26829398
 20
169.10831367
 30
0.0
 40
5.0
  0
TEXT
  5
333
330
6B
100
AcDbEntity
  8
0
 62
     4
100
AcDbText
 10
415.0103022072395
 20
165.829257925171
 30
0.0
 40
6.299999999999998
  1
5
  7
高6.3
100
AcDbText
  0
TEXT
  5
334
330
6B
100
AcDbEntity
  8
0
 62
     3
100
AcDbText
 10
303.2192426405722
 20
104.9920721799999
 30
0.0
 40
2.5
  1
スクリュー式
 41
0.8
  7
高2.5
100
AcDbText
  0
TEXT
  5
335
330
6B
100
AcDbEntity
  8
0
 62
     3
100
AcDbText
 10
293.8308533371341
 20
104.9920721799999
 30
0.0
 40
2.5
  1
-
 41
0.8
  7
高2.5
100
AcDbText
  0
TEXT
  5
336
330
6B
100
AcDbEntity
  8
0
 62
     3
100
AcDbText
 10
303.2192426405722
 20
100.9920721799999
 30
0.0
 40
2.5
  1
0.1W
 41
0.8
  7
高2.5
100
AcDbText
  0
TEXT
  5
337
330
6B
100
AcDbEntity
  8
0
 62
     3
100
AcDbText
 10
303.2192426405723
 20
88.99207217999997
 30
0.0
 40
2.5
  1
アルマイト
 41
0.8
  7
高2.5
100
AcDbText
  0
TEXT
  5
338
330
6B
100
AcDbEntity
  8
0
 62
     3
100
AcDbText
 10
303.2192426405723
 20
84.99207217999995
 30
0.0
 40
2.5
  1
アルマイト
 41
0.8
  7
高2.5
100
AcDbText
  0
LINE
  5
339
330
6B
100
AcDbEntity
  8
0
100
AcDbLine
 10
270.902282792016
 20
80.49207217999997
 30
0.0
 11
270.902282792016
 21
108.4920721799999
 31
0.0
  0
LINE
  5
33A
330
6B
100
AcDbEntity
  8
0
100
AcDbLine
 10
327.8815383246265
 20
80.49207217999997
 30
0.0
 11
327.8815383246265
 21
108.4920721799999
 31
0.0
  0
LINE
  5
33B
330
6B
100
AcDbEntity
  8
0
100
AcDbLine
 10
292.3308533371342
 20
80.49207217999997
 30
0.0
 11
292.3308533371342
 21
108.4920721799999
 31
0.0
  0
LINE
  5
33C
330
6B
100
AcDbEntity
  8
0
100
AcDbLine
 10
285.3801030510601
 20
80.49207217999997
 30
0.0
 11
285.3801030510601
 21
108.4920721799999
 31
0.0
  0
LINE
  5
33D
330
6B
100
AcDbEntity
  8
0
100
AcDbLine
 10
301.7192426405723
 20
80.49207217999997
 30
0.0
 11
301.7192426405722
 21
108.4920721799999
 31
0.0
  0
TEXT
  5
33E
330
6B
100
AcDbEntity
  8
0
 62
     3
100
AcDbText
 10
455.07333758
 20
168.5434611130076
 30
0.0
 40
3.2
  1
型　式
  7
高3.2
100
AcDbText
  0
TEXT
  5
33F
330
6B
100
AcDbEntity
  8
0
 62
     3
100
AcDbText
 10
455.07333758
 20
162.5434611130076
 30
0.0
 40
3.2
  1
電　源
  7
高3.2
100
AcDbText
  0
TEXT
  5
340
330
6B
100
AcDbEntity
  8
0
 62
     3
100
AcDbText
 10
455.07333758
 20
156.5434611130076
 30
0.0
 40
3.2
  1
連続点灯
  7
高3.2
100
AcDbText
  0
TEXT
  5
341
330
6B
100
AcDbEntity
  8
0
 62
     3
100
AcDbText
 10
455.07333758
 20
138.5434611130076
 30
0.0
 40
3.2
  1
照射角
  7
高3.2
100
AcDbText
  0
TEXT
  5
342
330
6B
100
AcDbEntity
  8
0
 62
     3
100
AcDbText
 10
455.34189483
 20
132.5434611130076
 30
0.0
 40
3.2
  1
質　量
  7
高3.2
100
AcDbText
  0
TEXT
  5
343
330
6B
100
AcDbEntity
  8
0
 62
     3
100
AcDbText
 10
455.07333758
 20
150.5434611130076
 30
0.0
 40
3.2
  1
出　力
  7
高3.2
100
AcDbText
  0
TEXT
  5
344
330
6B
100
AcDbEntity
  8
0
 62
     3
100
AcDbText
 10
475.3073517298496
 20
174.20254746
 30
0.0
 40
4.5
  1
主　仕　様
  7
高4.5
100
AcDbText
  0
TEXT
  5
345
330
6B
100
AcDbEntity
  8
0
 62
     3
100
AcDbText
 10
455.07333758
 20
144.5434611130076
 30
0.0
 40
3.2
  1
光　度
  7
高3.2
100
AcDbText
  0
TEXT
  5
346
330
6B
100
AcDbEntity
  8
0
 62
     3
100
AcDbText
 10
473.1454939559496
 20
138.5434611130076
 30
0.0
 40
3.2
  1
超拡散型
  7
高3.2
100
AcDbText
  0
LINE
  5
347
330
6B
100
AcDbEntity
  8
0
 62
     3
100
AcDbLine
 10
453.68074684
 20
179.49896632
 30
0.0
 11
453.68074684
 21
131.49896632
 31
0.0
  0
LINE
  5
348
330
6B
100
AcDbEntity
  8
0
 62
     3
100
AcDbLine
 10
516.4447071936193
 20
131.49896632
 30
0.0
 11
516.4447071936193
 21
179.49896632
 31
0.0
  0
LINE
  5
349
330
6B
100
AcDbEntity
  8
0
100
AcDbLine
 10
471.1454939559498
 20
173.49896632
 30
0.0
 11
471.1454939559498
 21
131.49896632
 31
0.0
  0
TEXT
  5
34A
330
6B
100
AcDbEntity
  8
0
 62
     3
100
AcDbText
 10
504.2062451499998
 20
90.97301364000001
 30
0.0
 40
3.2
  1
2008.10.14
  7
高3.2
100
AcDbText
  0
LINE
  5
356
330
6B
100
AcDbEntity
  8
0
100
AcDbLine
 10
435.46279441
 20
188.84501813
 30
0.0
 11
438.8439210899998
 21
174.25046653
 31
0.0
  0
CIRCLE
  5
357
330
6B
100
AcDbEntity
  8
0
100
AcDbCircle
 10
439.9723862
 20
169.37947418
 30
0.0
 40
5.0
  0
TEXT
  5
358
330
6B
100
AcDbEntity
  8
0
 62
     4
100
AcDbText
 10
437.7143944272391
 20
166.100418445171
 30
0.0
 40
6.299999999999998
  1
2
  7
高6.3
100
AcDbText
  0
LINE
  5
35E
330
6B
100
AcDbEntity
  8
0
100
AcDbLine
 10
354.96279441
 20
187.84501813
 30
0.0
 11
348.90243071
 21
176.07481922
 31
0.0
  0
CIRCLE
  5
35F
330
6B
100
AcDbEntity
  8
0
100
AcDbCircle
 10
346.61356473
 20
171.62947418
 30
0.0
 40
5.0
  0
TEXT
  5
360
330
6B
100
AcDbEntity
  8
0
 62
     4
100
AcDbText
 10
345.4785362102409
 20
168.2514331063245
 30
0.0
 40
6.299999999999998
  1
1
  7
高6.3
100
AcDbText
  0
LINE
  5
366
330
6B
100
AcDbEntity
  8
0
100
AcDbLine
 10
297.85354935
 20
194.24033506
 30
0.0
 11
290.40881737
 21
179.62893273
 31
0.0
  0
CIRCLE
  5
367
330
6B
100
AcDbEntity
  8
0
100
AcDbCircle
 10
288.13890103
 20
175.17388169
 30
0.0
 40
5.0
  0
TEXT
  5
368
330
6B
100
AcDbEntity
  8
0
 62
     4
100
AcDbText
 10
285.8809092572395
 20
171.894825945171
 30
0.0
 40
6.299999999999998
  1
4
  7
高6.3
100
AcDbText
  0
TEXT
  5
369
330
6B
100
AcDbEntity
  8
0
 62
     3
100
AcDbText
 10
303.2192426405722
 20
92.99207217999997
 30
0.0
 40
2.5
  1
単４形アルカリ乾電池
 41
0.8
  7
高2.5
100
AcDbText
  0
TEXT
  5
36A
330
6B
100
AcDbEntity
  8
0
 62
     3
100
AcDbText
 10
286.8801030510601
 20
92.99207217999997
 30
0.0
 40
2.5
  1
3
 41
0.8
  7
高2.5
100
AcDbText
  0
TEXT
  5
36B
330
6B
100
AcDbEntity
  8
0
 62
     3
100
AcDbText
 10
286.8801030510601
 20
100.9920721799999
 30
0.0
 40
2.5
  1
12
 41
0.8
  7
高2.5
100
AcDbText
  0
TEXT
  5
36C
330
6B
100
AcDbEntity
  8
0
 62
     3
100
AcDbText
 10
451.7758319457064
 20
105.0871411786239
 30
0.0
 40
4.5
  1
LED-12P
  7
高4.5
100
AcDbText
  0
TEXT
  5
36D
330
6B
100
AcDbEntity
  8
0
 62
     3
100
AcDbText
 10
493.3069204758601
 20
81.77267947383905
 30
0.0
 40
6.299999999999998
  1
LED-12P
  7
高6.3
100
AcDbText
  0
TEXT
  5
36E
330
6B
100
AcDbEntity
  8
0
 62
     3
100
AcDbText
 10
473.1454939559496
 20
168.5434611130076
 30
0.0
 40
3.2
  1
LED-12P
  7
高3.2
100
AcDbText
  0
TEXT
  5
36F
330
6B
100
AcDbEntity
  8
0
 62
     3
100
AcDbText
 10
473.1454939559496
 20
162.5434611130076
 30
0.0
 40
3.2
  1
単4アルカリ乾電池x3
  7
高3.2
100
AcDbText
  0
TEXT
  5
370
330
6B
100
AcDbEntity
  8
0
 62
     3
100
AcDbText
 10
473.1454939559496
 20
156.5434611130076
 30
0.0
 40
3.2
  1
15時間以上
  7
高3.2
100
AcDbText
  0
TEXT
  5
371
330
6B
100
AcDbEntity
  8
0
 62
     3
100
AcDbText
 10
473.1454939559496
 20
150.5434611130076
 30
0.0
 40
3.2
  1
1.2W
  7
高3.2
100
AcDbText
  0
TEXT
  5
372
330
6B
100
AcDbEntity
  8
0
 62
     3
100
AcDbText
 10
473.1454939559496
 20
144.5434611130076
 30
0.0
 40
3.2
  1
120000mcd
  7
高3.2
100
AcDbText
  0
TEXT
  5
373
330
6B
100
AcDbEntity
  8
0
 62
     3
100
AcDbText
 10
473.1454939559496
 20
132.5434611130076
 30
0.0
 40
3.2
  1
約75g（電池含110g）
  7
高3.2
100
AcDbText
  0
LINE
  5
374
330
6B
100
AcDbEntity
  8
0
 62
     3
100
AcDbLine
 10
453.68074684
 20
179.49896632
 30
0.0
 11
516.4447071936193
 21
179.49896632
 31
0.0
  0
LINE
  5
375
330
6B
100
AcDbEntity
  8
0
100
AcDbLine
 10
453.68074684
 20
173.49896632
 30
0.0
 11
516.4447071936193
 21
173.49896632
 31
0.0
  0
LINE
  5
376
330
6B
100
AcDbEntity
  8
0
 62
     3
100
AcDbLine
 10
453.68074684
 20
131.49896632
 30
0.0
 11
516.4447071936193
 21
131.49896632
 31
0.0
  0
LINE
  5
377
330
6B
100
AcDbEntity
  8
0
100
AcDbLine
 10
453.68074684
 20
161.49896632
 30
0.0
 11
516.4447071936193
 21
161.49896632
 31
0.0
  0
LINE
  5
378
330
6B
100
AcDbEntity
  8
0
100
AcDbLine
 10
453.68074684
 20
155.49896632
 30
0.0
 11
516.4447071936193
 21
155.49896632
 31
0.0
  0
LINE
  5
379
330
6B
100
AcDbEntity
  8
0
100
AcDbLine
 10
453.68074684
 20
167.49896632
 30
0.0
 11
516.4447071936193
 21
167.49896632
 31
0.0
  0
LINE
  5
37A
330
6B
100
AcDbEntity
  8
0
100
AcDbLine
 10
453.68074684
 20
149.49896632
 30
0.0
 11
516.4447071936193
 21
149.49896632
 31
0.0
  0
LINE
  5
37B
330
6B
100
AcDbEntity
  8
0
100
AcDbLine
 10
453.68074684
 20
137.49896632
 30
0.0
 11
516.4447071936193
 21
137.4989663199999
 31
0.0
  0
LINE
  5
37C
330
6B
100
AcDbEntity
  8
0
100
AcDbLine
 10
453.68074684
 20
143.49896632
 30
0.0
 11
516.4447071936193
 21
143.49896632
 31
0.0
  0
TEXT
  5
37D
330
6B
100
AcDbEntity
  8
0
 62
     3
100
AcDbText
 10
520.7253666373856
 20
120.66277664
 30
0.0
 40
4.5
  1
8893
  7
高4.5
100
AcDbText
  0
LINE
  5
37E
330
6B
100
AcDbEntity
  8
0
 62
     3
100
AcDbLine
 10
398.5898868451234
 20
80.49207217999997
 30
0.0
 11
398.5898868451234
 21
108.4920721799999
 31
0.0
  0
TEXT
  5
37F
330
6B
100
AcDbEntity
  8
0
 62
     3
100
AcDbText
 10
329.3815383246265
 20
80.99207217999994
 30
0.0
 40
2.5
  1
コード
 41
0.8
  7
高2.5
100
AcDbText
  0
LINE
  5
380
330
6B
100
AcDbEntity
  8
0
100
AcDbLine
 10
265.08496511
 20
88.49207217999996
 30
0.0
 11
398.5898868451234
 21
88.49207217999996
 31
0.0
  0
LINE
  5
381
330
6B
100
AcDbEntity
  8
0
100
AcDbLine
 10
265.08496511
 20
92.49207217999996
 30
0.0
 11
398.5898868451234
 21
92.49207217999996
 31
0.0
  0
LINE
  5
382
330
6B
100
AcDbEntity
  8
0
100
AcDbLine
 10
265.08496511
 20
100.4920721799999
 30
0.0
 11
398.5898868451234
 21
100.4920721799999
 31
0.0
  0
LINE
  5
383
330
6B
100
AcDbEntity
  8
0
100
AcDbLine
 10
265.08496511
 20
104.4920721799999
 30
0.0
 11
398.5898868451234
 21
104.4920721799999
 31
0.0
  0
LINE
  5
384
330
6B
100
AcDbEntity
  8
0
 62
     3
100
AcDbLine
 10
265.08496511
 20
84.49207217999996
 30
0.0
 11
398.5898868451234
 21
84.49207217999996
 31
0.0
  0
LINE
  5
385
330
6B
100
AcDbEntity
  8
0
 62
     3
100
AcDbLine
 10
265.08496511
 20
108.4920721799999
 30
0.0
 11
398.5898868451234
 21
108.4920721799999
 31
0.0
  0
TEXT
  5
386
330
6B
100
AcDbEntity
  8
0
 62
     3
100
AcDbText
 10
329.3815383246265
 20
104.9920721799999
 30
0.0
 40
2.5
  1
-
 41
0.8
  7
高2.5
100
AcDbText
  0
TEXT
  5
387
330
6B
100
AcDbEntity
  8
0
 62
     3
100
AcDbText
 10
329.3815383246265
 20
100.9920721799999
 30
0.0
 40
2.5
  1
-
 41
0.8
  7
高2.5
100
AcDbText
  0
TEXT
  5
388
330
6B
100
AcDbEntity
  8
0
 62
     3
100
AcDbText
 10
329.3815383246265
 20
88.99207217999997
 30
0.0
 40
2.5
  1
-
 41
0.8
  7
高2.5
100
AcDbText
  0
TEXT
  5
389
330
6B
100
AcDbEntity
  8
0
 62
     3
100
AcDbText
 10
329.3815383246265
 20
84.99207217999995
 30
0.0
 40
2.5
  1
-
 41
0.8
  7
高2.5
100
AcDbText
  0
TEXT
  5
572
330
6B
100
AcDbEntity
  8
0
 62
     3
100
AcDbText
 10
329.3815383246265
 20
96.99207217999997
 30
0.0
 40
2.5
  1
12151
 41
0.8
  7
高2.5
100
AcDbText
  0
TEXT
  5
573
330
6B
100
AcDbEntity
  8
0
 62
     3
100
AcDbText
 10
329.3815383246265
 20
92.99207217999997
 30
0.0
 40
2.5
  1
12153
 41
0.8
  7
高2.5
100
AcDbText
  0
LINE
  5
574
330
6B
100
AcDbEntity
  8
0
100
AcDbLine
 10
327.8815383246265
 20
96.49207218
 30
0.0
 11
398.5898868451234
 21
96.49207218
 31
0.0
  0
LINE
  5
57B
330
6B
100
AcDbEntity
  8
0
100
AcDbLine
 10
338.846696030713
 20
80.49207217999997
 30
0.0
 11
338.846696030713
 21
108.4920721799999
 31
0.0
  0
TEXT
  5
57C
330
6B
100
AcDbEntity
  8
0
 62
     3
100
AcDbText
 10
340.346696030713
 20
80.99207217999994
 30
0.0
 40
2.5
  1
コード番号名称
 41
0.6
  7
高2.5
100
AcDbText
  0
TEXT
  5
57D
330
6B
100
AcDbEntity
  8
0
 62
     3
100
AcDbText
 10
340.346696030713
 20
104.9920721799999
 30
0.0
 40
2.5
  1
-
 41
0.6
  7
高2.5
100
AcDbText
  0
TEXT
  5
57E
330
6B
100
AcDbEntity
  8
0
 62
     3
100
AcDbText
 10
340.346696030713
 20
100.9920721799999
 30
0.0
 40
2.5
  1
-
 41
0.6
  7
高2.5
100
AcDbText
  0
TEXT
  5
57F
330
6B
100
AcDbEntity
  8
0
 62
     3
100
AcDbText
 10
340.346696030713
 20
88.99207217999997
 30
0.0
 40
2.5
  1
-
 41
0.6
  7
高2.5
100
AcDbText
  0
TEXT
  5
580
330
6B
100
AcDbEntity
  8
0
 62
     3
100
AcDbText
 10
340.346696030713
 20
84.99207217999995
 30
0.0
 40
2.5
  1
-
 41
0.6
  7
高2.5
100
AcDbText
  0
TEXT
  5
581
330
6B
100
AcDbEntity
  8
0
 62
     3
100
AcDbText
 10
340.346696030713
 20
96.99207217999997
 30
0.0
 40
2.5
  1
スーパーパーワーアルカリ乾電池単4形10本パックLR03(10S)AM4
 41
0.6
  7
高2.5
100
AcDbText
  0
TEXT
  5
582
330
6B
100
AcDbEntity
  8
0
 62
     3
100
AcDbText
 10
340.346696030713
 20
92.99207217999997
 30
0.0
 40
2.5
  1
スーパーパーワーアルカリ乾電池単4形2本パックLR03(2S)AM4
 41
0.6
  7
高2.5
100
AcDbText
  0
TEXT
  5
8B7
330
6B
100
AcDbEntity
  8
0
 62
     3
100
AcDbText
 10
529.58496511
 20
250.99207218
 30
0.0
 40
3.2
  1
担　当
  7
高3.2
100
AcDbText
  0
TEXT
  5
8B8
330
6B
100
AcDbEntity
  8
0
 62
     3
100
AcDbText
 10
485.5849651099998
 20
250.99207218
 30
0.0
 40
3.2
  1
変更・追記内容
  7
高3.2
100
AcDbText
  0
TEXT
  5
8B9
330
6B
100
AcDbEntity
  8
0
 62
     3
100
AcDbText
 10
460.6984801103392
 20
246.3215336700917
 30
0.0
 40
2.0
  1
1
  7
高2
100
AcDbText
  0
TEXT
  5
8BA
330
6B
100
AcDbEntity
  8
0
 62
     3
100
AcDbText
 10
460.3899686335818
 20
241.1517169578188
 30
0.0
 40
2.0
  1
2
  7
高2
100
AcDbText
  0
TEXT
  5
8BB
330
6B
100
AcDbEntity
  8
0
 62
     3
100
AcDbText
 10
467.58496511
 20
250.99207218
 30
0.0
 40
3.2
  1
日　付
  7
高3.2
100
AcDbText
  0
TEXT
  5
8BC
330
6B
100
AcDbEntity
  8
0
 62
     3
100
AcDbText
 10
467.58496511
 20
255.99207218
 30
0.0
 40
3.2
  1
図　　　　面　　　　略　　　　歴
  7
高3.2
100
AcDbText
  0
TEXT
  5
8BD
330
6B
100
AcDbEntity
  8
0
 62
     3
100
AcDbText
 10
457.5849651099998
 20
250.99207218
 30
0.0
 40
3.2
  1
記号
  7
高3.2
100
AcDbText
  0
LINE
  5
8BE
330
6B
100
AcDbEntity
  8
0
100
AcDbLine
 10
461.0849651099998
 20
244.2829681800001
 30
0.0
 11
459.18496511
 21
240.99207218
 31
0.0
  0
LINE
  5
8BF
330
6B
100
AcDbEntity
  8
0
100
AcDbLine
 10
461.0849651099998
 20
244.2829681800001
 30
0.0
 11
462.9849651099998
 21
240.99207218
 31
0.0
  0
LINE
  5
8C0
330
6B
100
AcDbEntity
  8
0
100
AcDbLine
 10
459.18496511
 20
240.99207218
 30
0.0
 11
462.9849651099998
 21
240.99207218
 31
0.0
  0
LINE
  5
8C1
330
6B
100
AcDbEntity
  8
0
100
AcDbLine
 10
461.0849651099998
 20
249.2829691800001
 30
0.0
 11
459.18496511
 21
245.99207218
 31
0.0
  0
LINE
  5
8C2
330
6B
100
AcDbEntity
  8
0
100
AcDbLine
 10
461.0849651099998
 20
249.2829691800001
 30
0.0
 11
462.9849651099998
 21
245.99207218
 31
0.0
  0
LINE
  5
8C3
330
6B
100
AcDbEntity
  8
0
100
AcDbLine
 10
459.18496511
 20
245.99207218
 30
0.0
 11
462.9849651099998
 21
245.99207218
 31
0.0
  0
LINE
  5
8C4
330
6B
100
AcDbEntity
  8
0
 62
     3
100
AcDbLine
 10
456.0849651099998
 20
255.49207218
 30
0.0
 11
542.08496511
 21
255.49207218
 31
0.0
  0
LINE
  5
8C5
330
6B
100
AcDbEntity
  8
0
 62
     3
100
AcDbLine
 10
456.0849651099998
 20
250.49207218
 30
0.0
 11
542.08496511
 21
250.49207218
 31
0.0
  0
LINE
  5
8C6
330
6B
100
AcDbEntity
  8
0
 62
     7
100
AcDbLine
 10
456.0849651099998
 20
245.49207218
 30
0.0
 11
542.08496511
 21
245.49207218
 31
0.0
  0
LINE
  5
8C7
330
6B
100
AcDbEntity
  8
0
 62
     3
100
AcDbLine
 10
456.0849651099998
 20
240.49207218
 30
0.0
 11
542.08496511
 21
240.49207218
 31
0.0
  0
LINE
  5
8C8
330
6B
100
AcDbEntity
  8
0
 62
     7
100
AcDbLine
 10
528.0849651099998
 20
240.49207218
 30
0.0
 11
528.0849651099998
 21
255.49207218
 31
0.0
  0
LINE
  5
8C9
330
6B
100
AcDbEntity
  8
0
 62
     7
100
AcDbLine
 10
484.08496511
 20
240.49207218
 30
0.0
 11
484.08496511
 21
255.49207218
 31
0.0
  0
LINE
  5
8CA
330
6B
100
AcDbEntity
  8
0
 62
     7
100
AcDbLine
 10
466.08496511
 20
240.49207218
 30
0.0
 11
466.08496511
 21
255.49207218
 31
0.0
  0
LINE
  5
8CB
330
6B
100
AcDbEntity
  8
0
 62
     3
100
AcDbLine
 10
456.0849651099998
 20
240.49207218
 30
0.0
 11
456.0849651099998
 21
260.49207218
 31
0.0
  0
LINE
  5
A7B
330
6B
100
AcDbEntity
  8
0
100
AcDbLine
 10
297.42307372
 20
192.21502575
 30
0.0
 11
297.85354935
 21
194.24033506
 31
0.0
  0
LINE
  5
A7C
330
6B
100
AcDbEntity
  8
0
100
AcDbLine
 10
297.85354935
 20
194.24033506
 30
0.0
 11
296.46809189
 21
192.70160353
 31
0.0
  0
LINE
  5
A7D
330
6B
100
AcDbEntity
  8
0
100
AcDbLine
 10
354.52369867
 20
185.8215602
 30
0.0
 11
354.96279441
 21
187.84501813
 31
0.0
  0
LINE
  5
A7E
330
6B
100
AcDbEntity
  8
0
100
AcDbLine
 10
354.96279441
 20
187.84501813
 30
0.0
 11
353.57079738
 21
186.31220003
 31
0.0
  0
LINE
  5
A7F
330
6B
100
AcDbEntity
  8
0
100
AcDbLine
 10
436.43625183
 20
187.01756971
 30
0.0
 11
435.46279441
 21
188.84501813
 31
0.0
  0
LINE
  5
A80
330
6B
100
AcDbEntity
  8
0
100
AcDbLine
 10
435.46279441
 20
188.84501813
 30
0.0
 11
435.39210908
 21
186.77567267
 31
0.0
  0
LINE
  5
A81
330
6B
100
AcDbEntity
  8
0
100
AcDbLine
 10
363.21279441
 20
188.08403704
 30
0.0
 11
363.80196941
 21
188.08763364
 31
0.0
  0
LINE
  5
A82
330
6B
100
AcDbEntity
  8
0
100
AcDbLine
 10
363.80196941
 20
188.08763364
 30
0.0
 11
364.3850490000001
 21
188.09838624
 31
0.0
  0
LINE
  5
A83
330
6B
100
AcDbEntity
  8
0
100
AcDbLine
 10
364.3850490000001
 20
188.09838624
 30
0.0
 11
364.95600088
 21
188.11618358
 31
0.0
  0
LINE
  5
A84
330
6B
100
AcDbEntity
  8
0
100
AcDbLine
 10
369.00621494
 20
188.74621688
 30
0.0
 11
369.00761197
 21
188.80871099
 31
0.0
  0
LINE
  5
A85
330
6B
100
AcDbEntity
  8
0
100
AcDbLine
 10
369.00761197
 20
188.80871099
 30
0.0
 11
368.96219331
 21
188.87096771
 31
0.0
  0
LINE
  5
A86
330
6B
100
AcDbEntity
  8
0
100
AcDbLine
 10
368.96219331
 20
188.87096771
 30
0.0
 11
368.8703258999999
 21
188.93248405
 31
0.0
  0
LINE
  5
A87
330
6B
100
AcDbEntity
  8
0
100
AcDbLine
 10
368.8703258999999
 20
188.93248405
 30
0.0
 11
368.73275192
 21
188.99276304
 31
0.0
  0
LINE
  5
A88
330
6B
100
AcDbEntity
  8
0
100
AcDbLine
 10
368.73275192
 20
188.99276304
 30
0.0
 11
368.55058282
 21
189.05131769
 31
0.0
  0
LINE
  5
A89
330
6B
100
AcDbEntity
  8
0
100
AcDbLine
 10
368.55058282
 20
189.05131769
 30
0.0
 11
368.32529033
 21
189.1076749499999
 31
0.0
  0
LINE
  5
A8A
330
6B
100
AcDbEntity
  8
0
100
AcDbLine
 10
368.32529033
 20
189.1076749499999
 30
0.0
 11
368.05869455
 21
189.1613794999999
 31
0.0
  0
LINE
  5
A8B
330
6B
100
AcDbEntity
  8
0
100
AcDbLine
 10
368.05869455
 20
189.1613794999999
 30
0.0
 11
367.75294928
 21
189.21199748
 31
0.0
  0
LINE
  5
A8C
330
6B
100
AcDbEntity
  8
0
100
AcDbLine
 10
367.75294928
 20
189.21199748
 30
0.0
 11
367.41052461
 21
189.25911995
 31
0.0
  0
LINE
  5
A8D
330
6B
100
AcDbEntity
  8
0
100
AcDbLine
 10
367.41052461
 20
189.25911995
 30
0.0
 11
367.03418694
 21
189.30236621
 31
0.0
  0
LINE
  5
A8E
330
6B
100
AcDbEntity
  8
0
100
AcDbLine
 10
367.03418694
 20
189.30236621
 30
0.0
 11
366.62697667
 21
189.34138689
 31
0.0
  0
LINE
  5
A8F
330
6B
100
AcDbEntity
  8
0
100
AcDbLine
 10
366.62697667
 20
189.34138689
 30
0.0
 11
366.19218361
 21
189.37586673
 31
0.0
  0
LINE
  5
A90
330
6B
100
AcDbEntity
  8
0
100
AcDbLine
 10
366.19218361
 20
189.37586673
 30
0.0
 11
365.73332039
 21
189.40552718
 31
0.0
  0
LINE
  5
A91
330
6B
100
AcDbEntity
  8
0
100
AcDbLine
 10
365.73332039
 20
189.40552718
 30
0.0
 11
365.25409412
 21
189.43012861
 31
0.0
  0
LINE
  5
A92
330
6B
100
AcDbEntity
  8
0
100
AcDbLine
 10
365.25409412
 20
189.43012861
 30
0.0
 11
364.75837642
 21
189.44947227
 31
0.0
  0
LINE
  5
A93
330
6B
100
AcDbEntity
  8
0
100
AcDbLine
 10
364.75837642
 20
189.44947227
 30
0.0
 11
364.25017213
 21
189.4634019
 31
0.0
  0
LINE
  5
A94
330
6B
100
AcDbEntity
  8
0
100
AcDbLine
 10
364.25017213
 20
189.4634019
 30
0.0
 11
363.73358698
 21
189.47180494
 31
0.0
  0
LINE
  5
A95
330
6B
100
AcDbEntity
  8
0
100
AcDbLine
 10
363.73358698
 20
189.47180494
 30
0.0
 11
363.21279441
 21
189.47461352
 31
0.0
  0
LINE
  5
A96
330
6B
100
AcDbEntity
  8
0
100
AcDbLine
 10
442.9255488599998
 20
210.52153565
 30
0.0
 11
443.01217917
 21
210.53380542
 31
0.0
  0
LINE
  5
A97
330
6B
100
AcDbEntity
  8
0
100
AcDbLine
 10
443.01217917
 20
210.53380542
 30
0.0
 11
443.0973405799998
 21
210.56135327
 31
0.0
  0
LINE
  5
A98
330
6B
100
AcDbEntity
  8
0
100
AcDbLine
 10
443.0973405799998
 20
210.56135327
 30
0.0
 11
443.18038494
 21
210.60396955
 31
0.0
  0
LINE
  5
A99
330
6B
100
AcDbEntity
  8
0
100
AcDbLine
 10
443.18038494
 20
210.60396955
 30
0.0
 11
443.26068026
 21
210.66132993
 31
0.0
  0
LINE
  5
A9A
330
6B
100
AcDbEntity
  8
0
100
AcDbLine
 10
443.26068026
 20
210.66132993
 30
0.0
 11
443.33761542
 21
210.73299785
 31
0.0
  0
LINE
  5
A9B
330
6B
100
AcDbEntity
  8
0
100
AcDbLine
 10
443.33761542
 20
210.73299785
 30
0.0
 11
443.41060492
 21
210.81842787
 31
0.0
  0
LINE
  5
A9C
330
6B
100
AcDbEntity
  8
0
100
AcDbLine
 10
443.41060492
 20
210.81842787
 30
0.0
 11
443.47909324
 21
210.91696984
 31
0.0
  0
LINE
  5
A9D
330
6B
100
AcDbEntity
  8
0
100
AcDbLine
 10
443.47909324
 20
210.91696984
 30
0.0
 11
443.54255916
 21
211.02787377
 31
0.0
  0
LINE
  5
A9E
330
6B
100
AcDbEntity
  8
0
100
AcDbLine
 10
443.54255916
 20
211.02787377
 30
0.0
 11
443.60051967
 21
211.15029563
 31
0.0
  0
LINE
  5
A9F
330
6B
100
AcDbEntity
  8
0
100
AcDbLine
 10
443.60051967
 20
211.15029563
 30
0.0
 11
443.6525336399998
 21
211.28330371
 31
0.0
  0
LINE
  5
AA0
330
6B
100
AcDbEntity
  8
0
100
AcDbLine
 10
443.6525336399998
 20
211.28330371
 30
0.0
 11
443.69820522
 21
211.42588574
 31
0.0
  0
LINE
  5
AA1
330
6B
100
AcDbEntity
  8
0
100
AcDbLine
 10
443.69820522
 20
211.42588574
 30
0.0
 11
443.7371868199998
 21
211.57695658
 31
0.0
  0
LINE
  5
AA2
330
6B
100
AcDbEntity
  8
0
100
AcDbLine
 10
443.7371868199998
 20
211.57695658
 30
0.0
 11
443.76918177
 21
211.7353665
 31
0.0
  0
LINE
  5
AA3
330
6B
100
AcDbEntity
  8
0
100
AcDbLine
 10
443.76918177
 20
211.7353665
 30
0.0
 11
443.79394657
 21
211.89990989
 31
0.0
  0
LINE
  5
AA4
330
6B
100
AcDbEntity
  8
0
100
AcDbLine
 10
443.79394657
 20
211.89990989
 30
0.0
 11
443.8112927399997
 21
212.06933449
 31
0.0
  0
LINE
  5
AA5
330
6B
100
AcDbEntity
  8
0
100
AcDbLine
 10
443.8112927399997
 20
212.06933449
 30
0.0
 11
443.8210882699998
 21
212.24235087
 31
0.0
  0
LINE
  5
AA6
330
6B
100
AcDbEntity
  8
0
100
AcDbLine
 10
443.8210882699998
 20
212.24235087
 30
0.0
 11
443.8232585999998
 21
212.41764227
 31
0.0
  0
LINE
  5
AA7
330
6B
100
AcDbEntity
  8
0
100
AcDbLine
 10
443.8232585999998
 20
212.41764227
 30
0.0
 11
443.8177872199998
 21
212.59387462
 31
0.0
  0
LINE
  5
AA8
330
6B
100
AcDbEntity
  8
0
100
AcDbLine
 10
443.8177872199998
 20
212.59387462
 30
0.0
 11
443.8047157799998
 21
212.76970668
 31
0.0
  0
LINE
  5
AA9
330
6B
100
AcDbEntity
  8
0
100
AcDbLine
 10
443.8047157799998
 20
212.76970668
 30
0.0
 11
443.78414374
 21
212.94380027
 31
0.0
  0
LINE
  5
AAA
330
6B
100
AcDbEntity
  8
0
100
AcDbLine
 10
443.78414374
 20
212.94380027
 30
0.0
 11
443.75622769
 21
213.11483042
 31
0.0
  0
LINE
  5
AAB
330
6B
100
AcDbEntity
  8
0
100
AcDbLine
 10
443.75622769
 20
213.11483042
 30
0.0
 11
443.72118006
 21
213.2814955
 31
0.0
  0
LINE
  5
AAC
330
6B
100
AcDbEntity
  8
0
100
AcDbLine
 10
443.72118006
 20
213.2814955
 30
0.0
 11
443.67926761
 21
213.44252708
 31
0.0
  0
LINE
  5
AAD
330
6B
100
AcDbEntity
  8
0
100
AcDbLine
 10
443.67926761
 20
213.44252708
 30
0.0
 11
443.63080931
 21
213.59669962
 31
0.0
  0
LINE
  5
AAE
330
6B
100
AcDbEntity
  8
0
100
AcDbLine
 10
443.63080931
 20
213.59669962
 30
0.0
 11
443.57617395
 21
213.74283977
 31
0.0
  0
LINE
  5
AAF
330
6B
100
AcDbEntity
  8
0
100
AcDbLine
 10
443.57617395
 20
213.74283977
 30
0.0
 11
443.51577734
 21
213.87983531
 31
0.0
  0
LINE
  5
AB0
330
6B
100
AcDbEntity
  8
0
100
AcDbLine
 10
443.51577734
 20
213.87983531
 30
0.0
 11
443.45007914
 21
214.00664362
 31
0.0
  0
LINE
  5
AB1
330
6B
100
AcDbEntity
  8
0
100
AcDbLine
 10
443.45007914
 20
214.00664362
 30
0.0
 11
443.3795793599998
 21
214.12229963
 31
0.0
  0
LINE
  5
AB2
330
6B
100
AcDbEntity
  8
0
100
AcDbLine
 10
443.3795793599998
 20
214.12229963
 30
0.0
 11
443.3048145199999
 21
214.22592311
 31
0.0
  0
LINE
  5
AB3
330
6B
100
AcDbEntity
  8
0
100
AcDbLine
 10
443.3048145199999
 20
214.22592311
 30
0.0
 11
443.2263536599998
 21
214.31672543
 31
0.0
  0
LINE
  5
AB4
330
6B
100
AcDbEntity
  8
0
100
AcDbLine
 10
443.2263536599998
 20
214.31672543
 30
0.0
 11
443.1447938799998
 21
214.39401553
 31
0.0
  0
LINE
  5
AB5
330
6B
100
AcDbEntity
  8
0
100
AcDbLine
 10
443.1447938799998
 20
214.39401553
 30
0.0
 11
443.06075593
 21
214.45720518
 31
0.0
  0
LINE
  5
AB6
330
6B
100
AcDbEntity
  8
0
100
AcDbLine
 10
443.06075593
 20
214.45720518
 30
0.0
 11
442.9748793699998
 21
214.50581348
 31
0.0
  0
LINE
  5
AB7
330
6B
100
AcDbEntity
  8
0
100
AcDbLine
 10
442.9748793699998
 20
214.50581348
 30
0.0
 11
442.88781777
 21
214.53947047
 31
0.0
  0
LINE
  5
AB8
330
6B
100
AcDbEntity
  8
0
100
AcDbLine
 10
442.88781777
 20
214.53947047
 30
0.0
 11
442.80023374
 21
214.55792003
 31
0.0
  0
LINE
  5
AB9
330
6B
100
AcDbEntity
  8
0
100
AcDbLine
 10
442.80023374
 20
214.55792003
 30
0.0
 11
442.7127938299998
 21
214.56102172
 31
0.0
  0
LINE
  5
ABA
330
6B
100
AcDbEntity
  8
0
100
AcDbLine
 10
442.71279441
 20
217.13879122
 30
0.0
 11
442.7999501599998
 21
217.14173097
 31
0.0
  0
LINE
  5
ABB
330
6B
100
AcDbEntity
  8
0
100
AcDbLine
 10
442.7999501599998
 20
217.14173097
 30
0.0
 11
442.88644259
 21
217.15052787
 31
0.0
  0
LINE
  5
ABC
330
6B
100
AcDbEntity
  8
0
100
AcDbLine
 10
442.88644259
 20
217.15052787
 30
0.0
 11
442.97161346
 21
217.16511496
 31
0.0
  0
LINE
  5
ABD
330
6B
100
AcDbEntity
  8
0
100
AcDbLine
 10
442.97161346
 20
217.16511496
 30
0.0
 11
443.05481456
 21
217.18538123
 31
0.0
  0
LINE
  5
ABE
330
6B
100
AcDbEntity
  8
0
100
AcDbLine
 10
443.05481456
 20
217.18538123
 30
0.0
 11
443.13541268
 21
217.21117243
 31
0.0
  0
LINE
  5
ABF
330
6B
100
AcDbEntity
  8
0
100
AcDbLine
 10
443.13541268
 20
217.21117243
 30
0.0
 11
443.21279441
 21
217.24229228
 31
0.0
  0
LINE
  5
AC0
330
6B
100
AcDbEntity
  8
0
100
AcDbLine
 10
443.21279441
 20
217.24229228
 30
0.0
 11
443.28637085
 21
217.27850394
 31
0.0
  0
LINE
  5
AC1
330
6B
100
AcDbEntity
  8
0
100
AcDbLine
 10
443.28637085
 20
217.27850394
 30
0.0
 11
443.3555820199998
 21
217.31953182
 31
0.0
  0
LINE
  5
AC2
330
6B
100
AcDbEntity
  8
0
100
AcDbLine
 10
443.3555820199998
 20
217.31953182
 30
0.0
 11
443.41990119
 21
217.36506367
 31
0.0
  0
LINE
  5
AC3
330
6B
100
AcDbEntity
  8
0
100
AcDbLine
 10
443.41990119
 20
217.36506367
 30
0.0
 11
443.47883886
 21
217.41475296
 31
0.0
  0
LINE
  5
AC4
330
6B
100
AcDbEntity
  8
0
100
AcDbLine
 10
443.47883886
 20
217.41475296
 30
0.0
 11
443.53194646
 21
217.46822154
 31
0.0
  0
LINE
  5
AC5
330
6B
100
AcDbEntity
  8
0
100
AcDbLine
 10
443.53194646
 20
217.46822154
 30
0.0
 11
443.57881982
 21
217.52506246
 31
0.0
  0
LINE
  5
AC6
330
6B
100
AcDbEntity
  8
0
100
AcDbLine
 10
443.57881982
 20
217.52506246
 30
0.0
 11
443.6191022
 21
217.58484314
 31
0.0
  0
LINE
  5
AC7
330
6B
100
AcDbEntity
  8
0
100
AcDbLine
 10
443.6191022
 20
217.58484314
 30
0.0
 11
443.6524870299998
 21
217.64710861
 31
0.0
  0
LINE
  5
AC8
330
6B
100
AcDbEntity
  8
0
100
AcDbLine
 10
443.6524870299998
 20
217.64710861
 30
0.0
 11
443.67872024
 21
217.71138499
 31
0.0
  0
LINE
  5
AC9
330
6B
100
AcDbEntity
  8
0
100
AcDbLine
 10
443.67872024
 20
217.71138499
 30
0.0
 11
443.6976021699998
 21
217.77718311
 31
0.0
  0
LINE
  5
ACA
330
6B
100
AcDbEntity
  8
0
100
AcDbLine
 10
443.6976021699998
 20
217.77718311
 30
0.0
 11
443.70898911
 21
217.84400219
 31
0.0
  0
LINE
  5
ACB
330
6B
100
AcDbEntity
  8
0
100
AcDbLine
 10
443.70898911
 20
217.84400219
 30
0.0
 11
443.71279441
 21
217.9113337
 31
0.0
  0
LINE
  5
ACC
330
6B
100
AcDbEntity
  8
0
100
AcDbLine
 10
443.71279441
 20
217.9113337
 30
0.0
 11
443.70898911
 21
217.97866522
 31
0.0
  0
LINE
  5
ACD
330
6B
100
AcDbEntity
  8
0
100
AcDbLine
 10
443.70898911
 20
217.97866522
 30
0.0
 11
443.6976021699998
 21
218.0454843
 31
0.0
  0
LINE
  5
ACE
330
6B
100
AcDbEntity
  8
0
100
AcDbLine
 10
443.6976021699998
 20
218.0454843
 30
0.0
 11
443.67872024
 21
218.11128241
 31
0.0
  0
LINE
  5
ACF
330
6B
100
AcDbEntity
  8
0
100
AcDbLine
 10
443.67872024
 20
218.11128241
 30
0.0
 11
443.6524870299998
 21
218.17555879
 31
0.0
  0
LINE
  5
AD0
330
6B
100
AcDbEntity
  8
0
100
AcDbLine
 10
443.6524870299998
 20
218.17555879
 30
0.0
 11
443.6191022
 21
218.23782426
 31
0.0
  0
LINE
  5
AD1
330
6B
100
AcDbEntity
  8
0
100
AcDbLine
 10
443.6191022
 20
218.23782426
 30
0.0
 11
443.57881982
 21
218.29760494
 31
0.0
  0
LINE
  5
AD2
330
6B
100
AcDbEntity
  8
0
100
AcDbLine
 10
443.57881982
 20
218.29760494
 30
0.0
 11
443.53194646
 21
218.35444587
 31
0.0
  0
LINE
  5
AD3
330
6B
100
AcDbEntity
  8
0
100
AcDbLine
 10
443.53194646
 20
218.35444587
 30
0.0
 11
443.47883886
 21
218.40791444
 31
0.0
  0
LINE
  5
AD4
330
6B
100
AcDbEntity
  8
0
100
AcDbLine
 10
443.47883886
 20
218.40791444
 30
0.0
 11
443.41990119
 21
218.45760373
 31
0.0
  0
LINE
  5
AD5
330
6B
100
AcDbEntity
  8
0
100
AcDbLine
 10
443.41990119
 20
218.45760373
 30
0.0
 11
443.3555820199998
 21
218.50313558
 31
0.0
  0
LINE
  5
AD6
330
6B
100
AcDbEntity
  8
0
100
AcDbLine
 10
443.3555820199998
 20
218.50313558
 30
0.0
 11
443.28637085
 21
218.54416346
 31
0.0
  0
LINE
  5
AD7
330
6B
100
AcDbEntity
  8
0
100
AcDbLine
 10
443.28637085
 20
218.54416346
 30
0.0
 11
443.21279441
 21
218.58037512
 31
0.0
  0
LINE
  5
AD8
330
6B
100
AcDbEntity
  8
0
100
AcDbLine
 10
443.21279441
 20
218.58037512
 30
0.0
 11
443.13541268
 21
218.61149497
 31
0.0
  0
LINE
  5
AD9
330
6B
100
AcDbEntity
  8
0
100
AcDbLine
 10
443.13541268
 20
218.61149497
 30
0.0
 11
443.05481456
 21
218.63728617
 31
0.0
  0
LINE
  5
ADA
330
6B
100
AcDbEntity
  8
0
100
AcDbLine
 10
443.05481456
 20
218.63728617
 30
0.0
 11
442.97161346
 21
218.65755244
 31
0.0
  0
LINE
  5
ADB
330
6B
100
AcDbEntity
  8
0
100
AcDbLine
 10
442.97161346
 20
218.65755244
 30
0.0
 11
442.88644259
 21
218.67213953
 31
0.0
  0
LINE
  5
ADC
330
6B
100
AcDbEntity
  8
0
100
AcDbLine
 10
442.88644259
 20
218.67213953
 30
0.0
 11
442.7999501599998
 21
218.68093643
 31
0.0
  0
LINE
  5
ADD
330
6B
100
AcDbEntity
  8
0
100
AcDbLine
 10
442.7999501599998
 20
218.68093643
 30
0.0
 11
442.71279441
 21
218.68387619
 31
0.0
  0
LINE
  5
ADE
330
6B
100
AcDbEntity
  8
0
100
AcDbLine
 10
442.71279441
 20
201.34501813
 30
0.0
 11
442.7999501599998
 21
201.35453138
 31
0.0
  0
LINE
  5
ADF
330
6B
100
AcDbEntity
  8
0
100
AcDbLine
 10
442.7999501599998
 20
201.35453138
 30
0.0
 11
442.88644259
 21
201.38299875
 31
0.0
  0
LINE
  5
AE0
330
6B
100
AcDbEntity
  8
0
100
AcDbLine
 10
442.88644259
 20
201.38299875
 30
0.0
 11
442.97161346
 21
201.43020356
 31
0.0
  0
LINE
  5
AE1
330
6B
100
AcDbEntity
  8
0
100
AcDbLine
 10
442.97161346
 20
201.43020356
 30
0.0
 11
443.05481456
 21
201.49578658
 31
0.0
  0
LINE
  5
AE2
330
6B
100
AcDbEntity
  8
0
100
AcDbLine
 10
443.05481456
 20
201.49578658
 30
0.0
 11
443.13541268
 21
201.57924866
 31
0.0
  0
LINE
  5
AE3
330
6B
100
AcDbEntity
  8
0
100
AcDbLine
 10
443.13541268
 20
201.57924866
 30
0.0
 11
443.21279441
 21
201.67995462
 31
0.0
  0
LINE
  5
AE4
330
6B
100
AcDbEntity
  8
0
100
AcDbLine
 10
443.21279441
 20
201.67995462
 30
0.0
 11
443.28637085
 21
201.79713802
 31
0.0
  0
LINE
  5
AE5
330
6B
100
AcDbEntity
  8
0
100
AcDbLine
 10
443.28637085
 20
201.79713802
 30
0.0
 11
443.3555820199998
 21
201.92990702
 31
0.0
  0
LINE
  5
AE6
330
6B
100
AcDbEntity
  8
0
100
AcDbLine
 10
443.3555820199998
 20
201.92990702
 30
0.0
 11
443.41990119
 21
202.07725118
 31
0.0
  0
LINE
  5
AE7
330
6B
100
AcDbEntity
  8
0
100
AcDbLine
 10
443.41990119
 20
202.07725118
 30
0.0
 11
443.47883886
 21
202.23804911
 31
0.0
  0
LINE
  5
AE8
330
6B
100
AcDbEntity
  8
0
100
AcDbLine
 10
443.47883886
 20
202.23804911
 30
0.0
 11
443.53194646
 21
202.41107704
 31
0.0
  0
LINE
  5
AE9
330
6B
100
AcDbEntity
  8
0
100
AcDbLine
 10
443.53194646
 20
202.41107704
 30
0.0
 11
443.57881982
 21
202.59501813
 31
0.0
  0
LINE
  5
AEA
330
6B
100
AcDbEntity
  8
0
100
AcDbLine
 10
443.57881982
 20
202.59501813
 30
0.0
 11
443.6191022
 21
202.78847248
 31
0.0
  0
LINE
  5
AEB
330
6B
100
AcDbEntity
  8
0
100
AcDbLine
 10
443.6191022
 20
202.78847248
 30
0.0
 11
443.6524870299998
 21
202.98996777
 31
0.0
  0
LINE
  5
AEC
330
6B
100
AcDbEntity
  8
0
100
AcDbLine
 10
443.6524870299998
 20
202.98996777
 30
0.0
 11
443.67872024
 21
203.19797052
 31
0.0
  0
LINE
  5
AED
330
6B
100
AcDbEntity
  8
0
100
AcDbLine
 10
443.67872024
 20
203.19797052
 30
0.0
 11
443.6976021699998
 21
203.41089769
 31
0.0
  0
LINE
  5
AEE
330
6B
100
AcDbEntity
  8
0
100
AcDbLine
 10
443.6976021699998
 20
203.41089769
 30
0.0
 11
443.70898911
 21
203.62712877
 31
0.0
  0
LINE
  5
AEF
330
6B
100
AcDbEntity
  8
0
100
AcDbLine
 10
443.70898911
 20
203.62712877
 30
0.0
 11
443.71279441
 21
203.84501813
 31
0.0
  0
LINE
  5
AF0
330
6B
100
AcDbEntity
  8
0
100
AcDbLine
 10
443.71279441
 20
203.84501813
 30
0.0
 11
443.70898911
 21
204.06290749
 31
0.0
  0
LINE
  5
AF1
330
6B
100
AcDbEntity
  8
0
100
AcDbLine
 10
443.70898911
 20
204.06290749
 30
0.0
 11
443.6976021699998
 21
204.27913857
 31
0.0
  0
LINE
  5
AF2
330
6B
100
AcDbEntity
  8
0
100
AcDbLine
 10
443.6976021699998
 20
204.27913857
 30
0.0
 11
443.67872024
 21
204.49206574
 31
0.0
  0
LINE
  5
AF3
330
6B
100
AcDbEntity
  8
0
100
AcDbLine
 10
443.67872024
 20
204.49206574
 30
0.0
 11
443.6524870299998
 21
204.70006849
 31
0.0
  0
LINE
  5
AF4
330
6B
100
AcDbEntity
  8
0
100
AcDbLine
 10
443.6524870299998
 20
204.70006849
 30
0.0
 11
443.6191022
 21
204.90156378
 31
0.0
  0
LINE
  5
AF5
330
6B
100
AcDbEntity
  8
0
100
AcDbLine
 10
443.6191022
 20
204.90156378
 30
0.0
 11
443.57881982
 21
205.09501813
 31
0.0
  0
LINE
  5
AF6
330
6B
100
AcDbEntity
  8
0
100
AcDbLine
 10
443.57881982
 20
205.09501813
 30
0.0
 11
443.53194646
 21
205.27895922
 31
0.0
  0
LINE
  5
AF7
330
6B
100
AcDbEntity
  8
0
100
AcDbLine
 10
443.53194646
 20
205.27895922
 30
0.0
 11
443.47883886
 21
205.45198715
 31
0.0
  0
LINE
  5
AF8
330
6B
100
AcDbEntity
  8
0
100
AcDbLine
 10
443.47883886
 20
205.45198715
 30
0.0
 11
443.41990119
 21
205.61278508
 31
0.0
  0
LINE
  5
AF9
330
6B
100
AcDbEntity
  8
0
100
AcDbLine
 10
443.41990119
 20
205.61278508
 30
0.0
 11
443.3555820199998
 21
205.76012924
 31
0.0
  0
LINE
  5
AFA
330
6B
100
AcDbEntity
  8
0
100
AcDbLine
 10
443.3555820199998
 20
205.76012924
 30
0.0
 11
443.28637085
 21
205.89289824
 31
0.0
  0
LINE
  5
AFB
330
6B
100
AcDbEntity
  8
0
100
AcDbLine
 10
443.28637085
 20
205.89289824
 30
0.0
 11
443.21279441
 21
206.01008164
 31
0.0
  0
LINE
  5
AFC
330
6B
100
AcDbEntity
  8
0
100
AcDbLine
 10
443.21279441
 20
206.01008164
 30
0.0
 11
443.13541268
 21
206.1107876
 31
0.0
  0
LINE
  5
AFD
330
6B
100
AcDbEntity
  8
0
100
AcDbLine
 10
443.13541268
 20
206.1107876
 30
0.0
 11
443.05481456
 21
206.19424968
 31
0.0
  0
LINE
  5
AFE
330
6B
100
AcDbEntity
  8
0
100
AcDbLine
 10
443.05481456
 20
206.19424968
 30
0.0
 11
442.97161346
 21
206.2598327
 31
0.0
  0
LINE
  5
AFF
330
6B
100
AcDbEntity
  8
0
100
AcDbLine
 10
442.97161346
 20
206.2598327
 30
0.0
 11
442.88644259
 21
206.30703751
 31
0.0
  0
LINE
  5
B00
330
6B
100
AcDbEntity
  8
0
100
AcDbLine
 10
442.88644259
 20
206.30703751
 30
0.0
 11
442.7999501599998
 21
206.33550488
 31
0.0
  0
LINE
  5
B01
330
6B
100
AcDbEntity
  8
0
100
AcDbLine
 10
442.7999501599998
 20
206.33550488
 30
0.0
 11
442.71279441
 21
206.34501813
 31
0.0
  0
LINE
  5
B02
330
6B
100
AcDbEntity
  8
0
100
AcDbLine
 10
442.71279441
 20
193.12901452
 30
0.0
 11
442.7999501599998
 21
193.13671091
 31
0.0
  0
LINE
  5
B03
330
6B
100
AcDbEntity
  8
0
100
AcDbLine
 10
442.7999501599998
 20
193.13671091
 30
0.0
 11
442.88644259
 21
193.15974149
 31
0.0
  0
LINE
  5
B04
330
6B
100
AcDbEntity
  8
0
100
AcDbLine
 10
442.88644259
 20
193.15974149
 30
0.0
 11
442.97161346
 21
193.19793099
 31
0.0
  0
LINE
  5
B05
330
6B
100
AcDbEntity
  8
0
100
AcDbLine
 10
442.97161346
 20
193.19793099
 30
0.0
 11
443.05481456
 21
193.25098876
 31
0.0
  0
LINE
  5
B06
330
6B
100
AcDbEntity
  8
0
100
AcDbLine
 10
443.05481456
 20
193.25098876
 30
0.0
 11
443.13541268
 21
193.31851101
 31
0.0
  0
LINE
  5
B07
330
6B
100
AcDbEntity
  8
0
100
AcDbLine
 10
443.13541268
 20
193.31851101
 30
0.0
 11
443.21279441
 21
193.39998384
 31
0.0
  0
LINE
  5
B08
330
6B
100
AcDbEntity
  8
0
100
AcDbLine
 10
443.21279441
 20
193.39998384
 30
0.0
 11
443.28637085
 21
193.4947872
 31
0.0
  0
LINE
  5
B09
330
6B
100
AcDbEntity
  8
0
100
AcDbLine
 10
443.28637085
 20
193.4947872
 30
0.0
 11
443.3555820199998
 21
193.60219958
 31
0.0
  0
LINE
  5
B0A
330
6B
100
AcDbEntity
  8
0
100
AcDbLine
 10
443.3555820199998
 20
193.60219958
 30
0.0
 11
443.41990119
 21
193.7214035
 31
0.0
  0
LINE
  5
B0B
330
6B
100
AcDbEntity
  8
0
100
AcDbLine
 10
443.41990119
 20
193.7214035
 30
0.0
 11
443.47883886
 21
193.85149176
 31
0.0
  0
LINE
  5
B0C
330
6B
100
AcDbEntity
  8
0
100
AcDbLine
 10
443.47883886
 20
193.85149176
 30
0.0
 11
443.53194646
 21
193.9914743
 31
0.0
  0
LINE
  5
B0D
330
6B
100
AcDbEntity
  8
0
100
AcDbLine
 10
443.53194646
 20
193.9914743
 30
0.0
 11
443.57881982
 21
194.14028577
 31
0.0
  0
LINE
  5
B0E
330
6B
100
AcDbEntity
  8
0
100
AcDbLine
 10
443.57881982
 20
194.14028577
 30
0.0
 11
443.6191022
 21
194.29679362
 31
0.0
  0
LINE
  5
B0F
330
6B
100
AcDbEntity
  8
0
100
AcDbLine
 10
443.6191022
 20
194.29679362
 30
0.0
 11
443.6524870299998
 21
194.45980674
 31
0.0
  0
LINE
  5
B10
330
6B
100
AcDbEntity
  8
0
100
AcDbLine
 10
443.6524870299998
 20
194.45980674
 30
0.0
 11
443.67872024
 21
194.6280845
 31
0.0
  0
LINE
  5
B11
330
6B
100
AcDbEntity
  8
0
100
AcDbLine
 10
443.67872024
 20
194.6280845
 30
0.0
 11
443.6976021699998
 21
194.80034619
 31
0.0
  0
LINE
  5
B12
330
6B
100
AcDbEntity
  8
0
100
AcDbLine
 10
443.6976021699998
 20
194.80034619
 30
0.0
 11
443.70898911
 21
194.97528082
 31
0.0
  0
LINE
  5
B13
330
6B
100
AcDbEntity
  8
0
100
AcDbLine
 10
443.70898911
 20
194.97528082
 30
0.0
 11
443.71279441
 21
195.15155701
 31
0.0
  0
LINE
  5
B14
330
6B
100
AcDbEntity
  8
0
100
AcDbLine
 10
443.71279441
 20
195.15155701
 30
0.0
 11
443.70898911
 21
195.3278332
 31
0.0
  0
LINE
  5
B15
330
6B
100
AcDbEntity
  8
0
100
AcDbLine
 10
443.70898911
 20
195.3278332
 30
0.0
 11
443.6976021699998
 21
195.50276783
 31
0.0
  0
LINE
  5
B16
330
6B
100
AcDbEntity
  8
0
100
AcDbLine
 10
443.6976021699998
 20
195.50276783
 30
0.0
 11
443.67872024
 21
195.67502953
 31
0.0
  0
LINE
  5
B17
330
6B
100
AcDbEntity
  8
0
100
AcDbLine
 10
443.67872024
 20
195.67502953
 30
0.0
 11
443.6524870299998
 21
195.84330728
 31
0.0
  0
LINE
  5
B18
330
6B
100
AcDbEntity
  8
0
100
AcDbLine
 10
443.6524870299998
 20
195.84330728
 30
0.0
 11
443.6191022
 21
196.0063204
 31
0.0
  0
LINE
  5
B19
330
6B
100
AcDbEntity
  8
0
100
AcDbLine
 10
443.6191022
 20
196.0063204
 30
0.0
 11
443.57881982
 21
196.16282825
 31
0.0
  0
LINE
  5
B1A
330
6B
100
AcDbEntity
  8
0
100
AcDbLine
 10
443.57881982
 20
196.16282825
 30
0.0
 11
443.53194646
 21
196.31163972
 31
0.0
  0
LINE
  5
B1B
330
6B
100
AcDbEntity
  8
0
100
AcDbLine
 10
443.53194646
 20
196.31163972
 30
0.0
 11
443.47883886
 21
196.45162226
 31
0.0
  0
LINE
  5
B1C
330
6B
100
AcDbEntity
  8
0
100
AcDbLine
 10
443.47883886
 20
196.45162226
 30
0.0
 11
443.41990119
 21
196.58171052
 31
0.0
  0
LINE
  5
B1D
330
6B
100
AcDbEntity
  8
0
100
AcDbLine
 10
443.41990119
 20
196.58171052
 30
0.0
 11
443.3555820199998
 21
196.70091444
 31
0.0
  0
LINE
  5
B1E
330
6B
100
AcDbEntity
  8
0
100
AcDbLine
 10
443.3555820199998
 20
196.70091444
 30
0.0
 11
443.28637085
 21
196.80832682
 31
0.0
  0
LINE
  5
B1F
330
6B
100
AcDbEntity
  8
0
100
AcDbLine
 10
443.28637085
 20
196.80832682
 30
0.0
 11
443.21279441
 21
196.90313018
 31
0.0
  0
LINE
  5
B20
330
6B
100
AcDbEntity
  8
0
100
AcDbLine
 10
443.21279441
 20
196.90313018
 30
0.0
 11
443.13541268
 21
196.98460301
 31
0.0
  0
LINE
  5
B21
330
6B
100
AcDbEntity
  8
0
100
AcDbLine
 10
443.13541268
 20
196.98460301
 30
0.0
 11
443.05481456
 21
197.05212526
 31
0.0
  0
LINE
  5
B22
330
6B
100
AcDbEntity
  8
0
100
AcDbLine
 10
443.05481456
 20
197.05212526
 30
0.0
 11
442.97161346
 21
197.10518303
 31
0.0
  0
LINE
  5
B23
330
6B
100
AcDbEntity
  8
0
100
AcDbLine
 10
442.97161346
 20
197.10518303
 30
0.0
 11
442.88644259
 21
197.14337253
 31
0.0
  0
LINE
  5
B24
330
6B
100
AcDbEntity
  8
0
100
AcDbLine
 10
442.88644259
 20
197.14337253
 30
0.0
 11
442.7999501599998
 21
197.16640311
 31
0.0
  0
LINE
  5
B25
330
6B
100
AcDbEntity
  8
0
100
AcDbLine
 10
442.7999501599998
 20
197.16640311
 30
0.0
 11
442.71279441
 21
197.1740995
 31
0.0
  0
LINE
  5
B26
330
6B
100
AcDbEntity
  8
0
100
AcDbLine
 10
442.71279441
 20
189.00616007
 30
0.0
 11
442.7999501599998
 21
189.00909983
 31
0.0
  0
LINE
  5
B27
330
6B
100
AcDbEntity
  8
0
100
AcDbLine
 10
442.7999501599998
 20
189.00909983
 30
0.0
 11
442.88644259
 21
189.01789673
 31
0.0
  0
LINE
  5
B28
330
6B
100
AcDbEntity
  8
0
100
AcDbLine
 10
442.88644259
 20
189.01789673
 30
0.0
 11
442.97161346
 21
189.03248382
 31
0.0
  0
LINE
  5
B29
330
6B
100
AcDbEntity
  8
0
100
AcDbLine
 10
442.97161346
 20
189.03248382
 30
0.0
 11
443.05481456
 21
189.05275009
 31
0.0
  0
LINE
  5
B2A
330
6B
100
AcDbEntity
  8
0
100
AcDbLine
 10
443.05481456
 20
189.05275009
 30
0.0
 11
443.13541268
 21
189.07854129
 31
0.0
  0
LINE
  5
B2B
330
6B
100
AcDbEntity
  8
0
100
AcDbLine
 10
443.13541268
 20
189.07854129
 30
0.0
 11
443.21279441
 21
189.10966114
 31
0.0
  0
LINE
  5
B2C
330
6B
100
AcDbEntity
  8
0
100
AcDbLine
 10
443.21279441
 20
189.10966114
 30
0.0
 11
443.28637085
 21
189.1458728
 31
0.0
  0
LINE
  5
B2D
330
6B
100
AcDbEntity
  8
0
100
AcDbLine
 10
443.28637085
 20
189.1458728
 30
0.0
 11
443.3555820199998
 21
189.18690068
 31
0.0
  0
LINE
  5
B2E
330
6B
100
AcDbEntity
  8
0
100
AcDbLine
 10
443.3555820199998
 20
189.18690068
 30
0.0
 11
443.41990119
 21
189.23243253
 31
0.0
  0
LINE
  5
B2F
330
6B
100
AcDbEntity
  8
0
100
AcDbLine
 10
443.41990119
 20
189.23243253
 30
0.0
 11
443.47883886
 21
189.28212182
 31
0.0
  0
LINE
  5
B30
330
6B
100
AcDbEntity
  8
0
100
AcDbLine
 10
443.47883886
 20
189.28212182
 30
0.0
 11
443.53194646
 21
189.33559039
 31
0.0
  0
LINE
  5
B31
330
6B
100
AcDbEntity
  8
0
100
AcDbLine
 10
443.53194646
 20
189.33559039
 30
0.0
 11
443.57881982
 21
189.39243132
 31
0.0
  0
LINE
  5
B32
330
6B
100
AcDbEntity
  8
0
100
AcDbLine
 10
443.57881982
 20
189.39243132
 30
0.0
 11
443.6191022
 21
189.452212
 31
0.0
  0
LINE
  5
B33
330
6B
100
AcDbEntity
  8
0
100
AcDbLine
 10
443.6191022
 20
189.452212
 30
0.0
 11
443.6524870299998
 21
189.51447747
 31
0.0
  0
LINE
  5
B34
330
6B
100
AcDbEntity
  8
0
100
AcDbLine
 10
443.6524870299998
 20
189.51447747
 30
0.0
 11
443.67872024
 21
189.57875385
 31
0.0
  0
LINE
  5
B35
330
6B
100
AcDbEntity
  8
0
100
AcDbLine
 10
443.67872024
 20
189.57875385
 30
0.0
 11
443.6976021699998
 21
189.64455196
 31
0.0
  0
LINE
  5
B36
330
6B
100
AcDbEntity
  8
0
100
AcDbLine
 10
443.6976021699998
 20
189.64455196
 30
0.0
 11
443.70898911
 21
189.71137104
 31
0.0
  0
LINE
  5
B37
330
6B
100
AcDbEntity
  8
0
100
AcDbLine
 10
443.70898911
 20
189.71137104
 30
0.0
 11
443.71279441
 21
189.77870256
 31
0.0
  0
LINE
  5
B38
330
6B
100
AcDbEntity
  8
0
100
AcDbLine
 10
443.71279441
 20
189.77870256
 30
0.0
 11
443.70898911
 21
189.84603407
 31
0.0
  0
LINE
  5
B39
330
6B
100
AcDbEntity
  8
0
100
AcDbLine
 10
443.70898911
 20
189.84603407
 30
0.0
 11
443.6976021699998
 21
189.91285315
 31
0.0
  0
LINE
  5
B3A
330
6B
100
AcDbEntity
  8
0
100
AcDbLine
 10
443.6976021699998
 20
189.91285315
 30
0.0
 11
443.67872024
 21
189.97865127
 31
0.0
  0
LINE
  5
B3B
330
6B
100
AcDbEntity
  8
0
100
AcDbLine
 10
443.67872024
 20
189.97865127
 30
0.0
 11
443.6524870299998
 21
190.04292765
 31
0.0
  0
LINE
  5
B3C
330
6B
100
AcDbEntity
  8
0
100
AcDbLine
 10
443.6524870299998
 20
190.04292765
 30
0.0
 11
443.6191022
 21
190.10519312
 31
0.0
  0
LINE
  5
B3D
330
6B
100
AcDbEntity
  8
0
100
AcDbLine
 10
443.6191022
 20
190.10519312
 30
0.0
 11
443.57881982
 21
190.1649738
 31
0.0
  0
LINE
  5
B3E
330
6B
100
AcDbEntity
  8
0
100
AcDbLine
 10
443.57881982
 20
190.1649738
 30
0.0
 11
443.53194646
 21
190.22181472
 31
0.0
  0
LINE
  5
B3F
330
6B
100
AcDbEntity
  8
0
100
AcDbLine
 10
443.53194646
 20
190.22181472
 30
0.0
 11
443.47883886
 21
190.2752833
 31
0.0
  0
LINE
  5
B40
330
6B
100
AcDbEntity
  8
0
100
AcDbLine
 10
443.47883886
 20
190.2752833
 30
0.0
 11
443.41990119
 21
190.32497259
 31
0.0
  0
LINE
  5
B41
330
6B
100
AcDbEntity
  8
0
100
AcDbLine
 10
443.41990119
 20
190.32497259
 30
0.0
 11
443.3555820199998
 21
190.37050444
 31
0.0
  0
LINE
  5
B42
330
6B
100
AcDbEntity
  8
0
100
AcDbLine
 10
443.3555820199998
 20
190.37050444
 30
0.0
 11
443.28637085
 21
190.41153232
 31
0.0
  0
LINE
  5
B43
330
6B
100
AcDbEntity
  8
0
100
AcDbLine
 10
443.28637085
 20
190.41153232
 30
0.0
 11
443.21279441
 21
190.44774398
 31
0.0
  0
LINE
  5
B44
330
6B
100
AcDbEntity
  8
0
100
AcDbLine
 10
443.21279441
 20
190.44774398
 30
0.0
 11
443.13541268
 21
190.47886383
 31
0.0
  0
LINE
  5
B45
330
6B
100
AcDbEntity
  8
0
100
AcDbLine
 10
443.13541268
 20
190.47886383
 30
0.0
 11
443.05481456
 21
190.50465503
 31
0.0
  0
LINE
  5
B46
330
6B
100
AcDbEntity
  8
0
100
AcDbLine
 10
443.05481456
 20
190.50465503
 30
0.0
 11
442.97161346
 21
190.5249213
 31
0.0
  0
LINE
  5
B47
330
6B
100
AcDbEntity
  8
0
100
AcDbLine
 10
442.97161346
 20
190.5249213
 30
0.0
 11
442.88644259
 21
190.53950839
 31
0.0
  0
LINE
  5
B48
330
6B
100
AcDbEntity
  8
0
100
AcDbLine
 10
442.88644259
 20
190.53950839
 30
0.0
 11
442.7999501599998
 21
190.54830529
 31
0.0
  0
LINE
  5
B49
330
6B
100
AcDbEntity
  8
0
100
AcDbLine
 10
442.7999501599998
 20
190.54830529
 30
0.0
 11
442.71279441
 21
190.55124504
 31
0.0
  0
LINE
  5
B4A
330
6B
100
AcDbEntity
  8
0
100
AcDbLine
 10
363.21279441
 20
211.33584014
 30
0.0
 11
363.71829772
 21
211.34276688
 31
0.0
  0
LINE
  5
B4B
330
6B
100
AcDbEntity
  8
0
100
AcDbLine
 10
363.71829772
 20
211.34276688
 30
0.0
 11
364.21995384
 21
211.36349441
 31
0.0
  0
LINE
  5
B4C
330
6B
100
AcDbEntity
  8
0
100
AcDbLine
 10
364.21995384
 20
211.36349441
 30
0.0
 11
364.71394488
 21
211.39786495
 31
0.0
  0
LINE
  5
B4D
330
6B
100
AcDbEntity
  8
0
100
AcDbLine
 10
364.71394488
 20
211.39786495
 30
0.0
 11
365.19651124
 21
211.44561695
 31
0.0
  0
LINE
  5
B4E
330
6B
100
AcDbEntity
  8
0
100
AcDbLine
 10
365.19651124
 20
211.44561695
 30
0.0
 11
365.66398033
 21
211.50638697
 31
0.0
  0
LINE
  5
B4F
330
6B
100
AcDbEntity
  8
0
100
AcDbLine
 10
365.66398033
 20
211.50638697
 30
0.0
 11
366.11279441
 21
211.57971252
 31
0.0
  0
LINE
  5
B50
330
6B
100
AcDbEntity
  8
0
100
AcDbLine
 10
366.11279441
 20
211.57971252
 30
0.0
 11
366.53953774
 21
211.66503554
 31
0.0
  0
LINE
  5
B51
330
6B
100
AcDbEntity
  8
0
100
AcDbLine
 10
366.53953774
 20
211.66503554
 30
0.0
 11
366.94096255
 21
211.76170669
 31
0.0
  0
LINE
  5
B52
330
6B
100
AcDbEntity
  8
0
100
AcDbLine
 10
366.94096255
 20
211.76170669
 30
0.0
 11
367.31401374
 21
211.86899022
 31
0.0
  0
LINE
  5
B53
330
6B
100
AcDbEntity
  8
0
100
AcDbLine
 10
367.31401374
 20
211.86899022
 30
0.0
 11
367.65585218
 21
211.98606965
 31
0.0
  0
LINE
  5
B54
330
6B
100
AcDbEntity
  8
0
100
AcDbLine
 10
367.65585218
 20
211.98606965
 30
0.0
 11
367.96387627
 21
212.11205393
 31
0.0
  0
LINE
  5
B55
330
6B
100
AcDbEntity
  8
0
100
AcDbLine
 10
367.96387627
 20
212.11205393
 30
0.0
 11
368.23574176
 21
212.24598426
 31
0.0
  0
LINE
  5
B56
330
6B
100
AcDbEntity
  8
0
100
AcDbLine
 10
368.23574176
 20
212.24598426
 30
0.0
 11
368.46937958
 21
212.38684132
 31
0.0
  0
LINE
  5
B57
330
6B
100
AcDbEntity
  8
0
100
AcDbLine
 10
368.46937958
 20
212.38684132
 30
0.0
 11
368.66301161
 21
212.53355313
 31
0.0
  0
LINE
  5
B58
330
6B
100
AcDbEntity
  8
0
100
AcDbLine
 10
368.66301161
 20
212.53355313
 30
0.0
 11
368.81516421
 21
212.68500311
 31
0.0
  0
LINE
  5
B59
330
6B
100
AcDbEntity
  8
0
100
AcDbLine
 10
368.81516421
 20
212.68500311
 30
0.0
 11
368.92467938
 21
212.84003864
 31
0.0
  0
LINE
  5
B5A
330
6B
100
AcDbEntity
  8
0
100
AcDbLine
 10
368.92467938
 20
212.84003864
 30
0.0
 11
368.99072366
 21
212.9974798
 31
0.0
  0
LINE
  5
B5B
330
6B
100
AcDbEntity
  8
0
100
AcDbLine
 10
368.99072366
 20
212.9974798
 30
0.0
 11
369.01279441
 21
213.15612837
 31
0.0
  0
LINE
  5
B5C
330
6B
100
AcDbEntity
  8
0
100
AcDbLine
 10
369.01279441
 20
213.15612837
 30
0.0
 11
368.99072366
 21
213.31477695
 31
0.0
  0
LINE
  5
B5D
330
6B
100
AcDbEntity
  8
0
100
AcDbLine
 10
368.99072366
 20
213.31477695
 30
0.0
 11
368.92467938
 21
213.47221811
 31
0.0
  0
LINE
  5
B5E
330
6B
100
AcDbEntity
  8
0
100
AcDbLine
 10
368.92467938
 20
213.47221811
 30
0.0
 11
368.81516421
 21
213.62725364
 31
0.0
  0
LINE
  5
B5F
330
6B
100
AcDbEntity
  8
0
100
AcDbLine
 10
368.81516421
 20
213.62725364
 30
0.0
 11
368.66301161
 21
213.77870362
 31
0.0
  0
LINE
  5
B60
330
6B
100
AcDbEntity
  8
0
100
AcDbLine
 10
368.66301161
 20
213.77870362
 30
0.0
 11
368.46937958
 21
213.92541543
 31
0.0
  0
LINE
  5
B61
330
6B
100
AcDbEntity
  8
0
100
AcDbLine
 10
368.46937958
 20
213.92541543
 30
0.0
 11
368.23574176
 21
214.06627249
 31
0.0
  0
LINE
  5
B62
330
6B
100
AcDbEntity
  8
0
100
AcDbLine
 10
368.23574176
 20
214.06627249
 30
0.0
 11
367.96387627
 21
214.20020281
 31
0.0
  0
LINE
  5
B63
330
6B
100
AcDbEntity
  8
0
100
AcDbLine
 10
367.96387627
 20
214.20020281
 30
0.0
 11
367.65585218
 21
214.3261870999999
 31
0.0
  0
LINE
  5
B64
330
6B
100
AcDbEntity
  8
0
100
AcDbLine
 10
367.65585218
 20
214.3261870999999
 30
0.0
 11
367.31401374
 21
214.44326653
 31
0.0
  0
LINE
  5
B65
330
6B
100
AcDbEntity
  8
0
100
AcDbLine
 10
367.31401374
 20
214.44326653
 30
0.0
 11
366.94096255
 21
214.55055006
 31
0.0
  0
LINE
  5
B66
330
6B
100
AcDbEntity
  8
0
100
AcDbLine
 10
366.94096255
 20
214.55055006
 30
0.0
 11
366.53953774
 21
214.64722121
 31
0.0
  0
LINE
  5
B67
330
6B
100
AcDbEntity
  8
0
100
AcDbLine
 10
366.53953774
 20
214.64722121
 30
0.0
 11
366.11279441
 21
214.73254423
 31
0.0
  0
LINE
  5
B68
330
6B
100
AcDbEntity
  8
0
100
AcDbLine
 10
366.11279441
 20
214.73254423
 30
0.0
 11
365.66398033
 21
214.80586978
 31
0.0
  0
LINE
  5
B69
330
6B
100
AcDbEntity
  8
0
100
AcDbLine
 10
365.66398033
 20
214.80586978
 30
0.0
 11
365.19651124
 21
214.8666398
 31
0.0
  0
LINE
  5
B6A
330
6B
100
AcDbEntity
  8
0
100
AcDbLine
 10
365.19651124
 20
214.8666398
 30
0.0
 11
364.71394488
 21
214.91439179
 31
0.0
  0
LINE
  5
B6B
330
6B
100
AcDbEntity
  8
0
100
AcDbLine
 10
364.71394488
 20
214.91439179
 30
0.0
 11
364.21995384
 21
214.94876234
 31
0.0
  0
LINE
  5
B6C
330
6B
100
AcDbEntity
  8
0
100
AcDbLine
 10
364.21995384
 20
214.94876234
 30
0.0
 11
363.71829772
 21
214.96948987
 31
0.0
  0
LINE
  5
B6D
330
6B
100
AcDbEntity
  8
0
100
AcDbLine
 10
363.71829772
 20
214.96948987
 30
0.0
 11
363.21279441
 21
214.97641661
 31
0.0
  0
LINE
  5
B6E
330
6B
100
AcDbEntity
  8
0
100
AcDbLine
 10
364.95600088
 20
219.57385268
 30
0.0
 11
364.3850490000001
 21
219.59165002
 31
0.0
  0
LINE
  5
B6F
330
6B
100
AcDbEntity
  8
0
100
AcDbLine
 10
364.3850490000001
 20
219.59165002
 30
0.0
 11
363.80196941
 21
219.60240262
 31
0.0
  0
LINE
  5
B70
330
6B
100
AcDbEntity
  8
0
100
AcDbLine
 10
363.80196941
 20
219.60240262
 30
0.0
 11
363.21279441
 21
219.60599922
 31
0.0
  0
LINE
  5
B71
330
6B
100
AcDbEntity
  8
0
100
AcDbLine
 10
363.21279441
 20
218.21542274
 30
0.0
 11
363.73358698
 21
218.21823132
 31
0.0
  0
LINE
  5
B72
330
6B
100
AcDbEntity
  8
0
100
AcDbLine
 10
363.73358698
 20
218.21823132
 30
0.0
 11
364.25017213
 21
218.22663436
 31
0.0
  0
LINE
  5
B73
330
6B
100
AcDbEntity
  8
0
100
AcDbLine
 10
364.25017213
 20
218.22663436
 30
0.0
 11
364.75837642
 21
218.24056399
 31
0.0
  0
LINE
  5
B74
330
6B
100
AcDbEntity
  8
0
100
AcDbLine
 10
364.75837642
 20
218.24056399
 30
0.0
 11
365.25409412
 21
218.25990765
 31
0.0
  0
LINE
  5
B75
330
6B
100
AcDbEntity
  8
0
100
AcDbLine
 10
365.25409412
 20
218.25990765
 30
0.0
 11
365.73332039
 21
218.28450908
 31
0.0
  0
LINE
  5
B76
330
6B
100
AcDbEntity
  8
0
100
AcDbLine
 10
365.73332039
 20
218.28450908
 30
0.0
 11
366.19218361
 21
218.31416953
 31
0.0
  0
LINE
  5
B77
330
6B
100
AcDbEntity
  8
0
100
AcDbLine
 10
366.19218361
 20
218.31416953
 30
0.0
 11
366.62697667
 21
218.34864937
 31
0.0
  0
LINE
  5
B78
330
6B
100
AcDbEntity
  8
0
100
AcDbLine
 10
366.62697667
 20
218.34864937
 30
0.0
 11
367.03418694
 21
218.38767005
 31
0.0
  0
LINE
  5
B79
330
6B
100
AcDbEntity
  8
0
100
AcDbLine
 10
367.03418694
 20
218.38767005
 30
0.0
 11
367.41052461
 21
218.43091631
 31
0.0
  0
LINE
  5
B7A
330
6B
100
AcDbEntity
  8
0
100
AcDbLine
 10
367.41052461
 20
218.43091631
 30
0.0
 11
367.75294928
 21
218.47803878
 31
0.0
  0
LINE
  5
B7B
330
6B
100
AcDbEntity
  8
0
100
AcDbLine
 10
367.75294928
 20
218.47803878
 30
0.0
 11
368.05869455
 21
218.52865676
 31
0.0
  0
LINE
  5
B7C
330
6B
100
AcDbEntity
  8
0
100
AcDbLine
 10
368.05869455
 20
218.52865676
 30
0.0
 11
368.32529033
 21
218.58236131
 31
0.0
  0
LINE
  5
B7D
330
6B
100
AcDbEntity
  8
0
100
AcDbLine
 10
368.32529033
 20
218.58236131
 30
0.0
 11
368.55058282
 21
218.63871857
 31
0.0
  0
LINE
  5
B7E
330
6B
100
AcDbEntity
  8
0
100
AcDbLine
 10
368.55058282
 20
218.63871857
 30
0.0
 11
368.73275192
 21
218.69727322
 31
0.0
  0
LINE
  5
B7F
330
6B
100
AcDbEntity
  8
0
100
AcDbLine
 10
368.73275192
 20
218.69727322
 30
0.0
 11
368.8703258999999
 21
218.75755221
 31
0.0
  0
LINE
  5
B80
330
6B
100
AcDbEntity
  8
0
100
AcDbLine
 10
368.8703258999999
 20
218.75755221
 30
0.0
 11
368.96219331
 21
218.81906855
 31
0.0
  0
LINE
  5
B81
330
6B
100
AcDbEntity
  8
0
100
AcDbLine
 10
368.96219331
 20
218.81906855
 30
0.0
 11
369.00761197
 21
218.88132527
 31
0.0
  0
LINE
  5
B82
330
6B
100
AcDbEntity
  8
0
100
AcDbLine
 10
369.00761197
 20
218.88132527
 30
0.0
 11
369.00621494
 21
218.94381938
 31
0.0
  0
LINE
  5
B83
330
6B
100
AcDbEntity
  8
0
100
AcDbLine
 10
363.21279441
 20
192.71361965
 30
0.0
 11
363.71829772
 21
192.72054639
 31
0.0
  0
LINE
  5
B84
330
6B
100
AcDbEntity
  8
0
100
AcDbLine
 10
363.71829772
 20
192.72054639
 30
0.0
 11
364.21995384
 21
192.74127392
 31
0.0
  0
LINE
  5
B85
330
6B
100
AcDbEntity
  8
0
100
AcDbLine
 10
364.21995384
 20
192.74127392
 30
0.0
 11
364.71394488
 21
192.77564447
 31
0.0
  0
LINE
  5
B86
330
6B
100
AcDbEntity
  8
0
100
AcDbLine
 10
364.71394488
 20
192.77564447
 30
0.0
 11
365.19651124
 21
192.82339646
 31
0.0
  0
LINE
  5
B87
330
6B
100
AcDbEntity
  8
0
100
AcDbLine
 10
365.19651124
 20
192.82339646
 30
0.0
 11
365.66398033
 21
192.88416648
 31
0.0
  0
LINE
  5
B88
330
6B
100
AcDbEntity
  8
0
100
AcDbLine
 10
365.66398033
 20
192.88416648
 30
0.0
 11
366.11279441
 21
192.95749203
 31
0.0
  0
LINE
  5
B89
330
6B
100
AcDbEntity
  8
0
100
AcDbLine
 10
366.11279441
 20
192.95749203
 30
0.0
 11
366.53953774
 21
193.04281505
 31
0.0
  0
LINE
  5
B8A
330
6B
100
AcDbEntity
  8
0
100
AcDbLine
 10
366.53953774
 20
193.04281505
 30
0.0
 11
366.94096255
 21
193.1394862
 31
0.0
  0
LINE
  5
B8B
330
6B
100
AcDbEntity
  8
0
100
AcDbLine
 10
366.94096255
 20
193.1394862
 30
0.0
 11
367.31401374
 21
193.24676973
 31
0.0
  0
LINE
  5
B8C
330
6B
100
AcDbEntity
  8
0
100
AcDbLine
 10
367.31401374
 20
193.24676973
 30
0.0
 11
367.65585218
 21
193.36384916
 31
0.0
  0
LINE
  5
B8D
330
6B
100
AcDbEntity
  8
0
100
AcDbLine
 10
367.65585218
 20
193.36384916
 30
0.0
 11
367.96387627
 21
193.48983345
 31
0.0
  0
LINE
  5
B8E
330
6B
100
AcDbEntity
  8
0
100
AcDbLine
 10
367.96387627
 20
193.48983345
 30
0.0
 11
368.23574176
 21
193.62376377
 31
0.0
  0
LINE
  5
B8F
330
6B
100
AcDbEntity
  8
0
100
AcDbLine
 10
368.23574176
 20
193.62376377
 30
0.0
 11
368.46937958
 21
193.76462083
 31
0.0
  0
LINE
  5
B90
330
6B
100
AcDbEntity
  8
0
100
AcDbLine
 10
368.46937958
 20
193.76462083
 30
0.0
 11
368.66301161
 21
193.91133264
 31
0.0
  0
LINE
  5
B91
330
6B
100
AcDbEntity
  8
0
100
AcDbLine
 10
368.66301161
 20
193.91133264
 30
0.0
 11
368.81516421
 21
194.06278262
 31
0.0
  0
LINE
  5
B92
330
6B
100
AcDbEntity
  8
0
100
AcDbLine
 10
368.81516421
 20
194.06278262
 30
0.0
 11
368.92467938
 21
194.21781815
 31
0.0
  0
LINE
  5
B93
330
6B
100
AcDbEntity
  8
0
100
AcDbLine
 10
368.92467938
 20
194.21781815
 30
0.0
 11
368.99072366
 21
194.37525931
 31
0.0
  0
LINE
  5
B94
330
6B
100
AcDbEntity
  8
0
100
AcDbLine
 10
368.99072366
 20
194.37525931
 30
0.0
 11
369.01279441
 21
194.53390789
 31
0.0
  0
LINE
  5
B95
330
6B
100
AcDbEntity
  8
0
100
AcDbLine
 10
369.01279441
 20
194.53390789
 30
0.0
 11
368.99072366
 21
194.69255646
 31
0.0
  0
LINE
  5
B96
330
6B
100
AcDbEntity
  8
0
100
AcDbLine
 10
368.99072366
 20
194.69255646
 30
0.0
 11
368.92467938
 21
194.84999762
 31
0.0
  0
LINE
  5
B97
330
6B
100
AcDbEntity
  8
0
100
AcDbLine
 10
368.92467938
 20
194.84999762
 30
0.0
 11
368.81516421
 21
195.00503315
 31
0.0
  0
LINE
  5
B98
330
6B
100
AcDbEntity
  8
0
100
AcDbLine
 10
368.81516421
 20
195.00503315
 30
0.0
 11
368.66301161
 21
195.15648313
 31
0.0
  0
LINE
  5
B99
330
6B
100
AcDbEntity
  8
0
100
AcDbLine
 10
368.66301161
 20
195.15648313
 30
0.0
 11
368.46937958
 21
195.30319494
 31
0.0
  0
LINE
  5
B9A
330
6B
100
AcDbEntity
  8
0
100
AcDbLine
 10
368.46937958
 20
195.30319494
 30
0.0
 11
368.23574176
 21
195.444052
 31
0.0
  0
LINE
  5
B9B
330
6B
100
AcDbEntity
  8
0
100
AcDbLine
 10
368.23574176
 20
195.444052
 30
0.0
 11
367.96387627
 21
195.57798233
 31
0.0
  0
LINE
  5
B9C
330
6B
100
AcDbEntity
  8
0
100
AcDbLine
 10
367.96387627
 20
195.57798233
 30
0.0
 11
367.65585218
 21
195.70396661
 31
0.0
  0
LINE
  5
B9D
330
6B
100
AcDbEntity
  8
0
100
AcDbLine
 10
367.65585218
 20
195.70396661
 30
0.0
 11
367.31401374
 21
195.82104604
 31
0.0
  0
LINE
  5
B9E
330
6B
100
AcDbEntity
  8
0
100
AcDbLine
 10
367.31401374
 20
195.82104604
 30
0.0
 11
366.94096255
 21
195.92832957
 31
0.0
  0
LINE
  5
B9F
330
6B
100
AcDbEntity
  8
0
100
AcDbLine
 10
366.94096255
 20
195.92832957
 30
0.0
 11
366.53953774
 21
196.02500072
 31
0.0
  0
LINE
  5
BA0
330
6B
100
AcDbEntity
  8
0
100
AcDbLine
 10
366.53953774
 20
196.02500072
 30
0.0
 11
366.11279441
 21
196.11032374
 31
0.0
  0
LINE
  5
BA1
330
6B
100
AcDbEntity
  8
0
100
AcDbLine
 10
366.11279441
 20
196.11032374
 30
0.0
 11
365.66398033
 21
196.18364929
 31
0.0
  0
LINE
  5
BA2
330
6B
100
AcDbEntity
  8
0
100
AcDbLine
 10
365.66398033
 20
196.18364929
 30
0.0
 11
365.19651124
 21
196.24441931
 31
0.0
  0
LINE
  5
BA3
330
6B
100
AcDbEntity
  8
0
100
AcDbLine
 10
365.19651124
 20
196.24441931
 30
0.0
 11
364.71394488
 21
196.29217131
 31
0.0
  0
LINE
  5
BA4
330
6B
100
AcDbEntity
  8
0
100
AcDbLine
 10
364.71394488
 20
196.29217131
 30
0.0
 11
364.21995384
 21
196.32654185
 31
0.0
  0
LINE
  5
BA5
330
6B
100
AcDbEntity
  8
0
100
AcDbLine
 10
364.21995384
 20
196.32654185
 30
0.0
 11
363.71829772
 21
196.34726938
 31
0.0
  0
LINE
  5
BA6
330
6B
100
AcDbEntity
  8
0
100
AcDbLine
 10
363.71829772
 20
196.34726938
 30
0.0
 11
363.21279441
 21
196.35419612
 31
0.0
  0
LINE
  5
BA7
330
6B
100
AcDbEntity
  8
0
100
AcDbLine
 10
363.21279441
 20
201.59501813
 30
0.0
 11
363.71829772
 21
201.60358006
 31
0.0
  0
LINE
  5
BA8
330
6B
100
AcDbEntity
  8
0
100
AcDbLine
 10
363.71829772
 20
201.60358006
 30
0.0
 11
364.21995384
 21
201.62920069
 31
0.0
  0
LINE
  5
BA9
330
6B
100
AcDbEntity
  8
0
100
AcDbLine
 10
364.21995384
 20
201.62920069
 30
0.0
 11
364.71394488
 21
201.67168502
 31
0.0
  0
LINE
  5
BAA
330
6B
100
AcDbEntity
  8
0
100
AcDbLine
 10
364.71394488
 20
201.67168502
 30
0.0
 11
365.19651124
 21
201.73070973
 31
0.0
  0
LINE
  5
BAB
330
6B
100
AcDbEntity
  8
0
100
AcDbLine
 10
365.19651124
 20
201.73070973
 30
0.0
 11
365.66398033
 21
201.80582561
 31
0.0
  0
LINE
  5
BAC
330
6B
100
AcDbEntity
  8
0
100
AcDbLine
 10
365.66398033
 20
201.80582561
 30
0.0
 11
366.11279441
 21
201.89646097
 31
0.0
  0
LINE
  5
BAD
330
6B
100
AcDbEntity
  8
0
100
AcDbLine
 10
366.11279441
 20
201.89646097
 30
0.0
 11
366.53953774
 21
202.00192603
 31
0.0
  0
LINE
  5
BAE
330
6B
100
AcDbEntity
  8
0
100
AcDbLine
 10
366.53953774
 20
202.00192603
 30
0.0
 11
366.94096255
 21
202.12141813
 31
0.0
  0
LINE
  5
BAF
330
6B
100
AcDbEntity
  8
0
100
AcDbLine
 10
366.94096255
 20
202.12141813
 30
0.0
 11
367.31401374
 21
202.25402787
 31
0.0
  0
LINE
  5
BB0
330
6B
100
AcDbEntity
  8
0
100
AcDbLine
 10
367.31401374
 20
202.25402787
 30
0.0
 11
367.65585218
 21
202.39874601
 31
0.0
  0
LINE
  5
BB1
330
6B
100
AcDbEntity
  8
0
100
AcDbLine
 10
367.65585218
 20
202.39874601
 30
0.0
 11
367.96387627
 21
202.55447115
 31
0.0
  0
LINE
  5
BB2
330
6B
100
AcDbEntity
  8
0
100
AcDbLine
 10
367.96387627
 20
202.55447115
 30
0.0
 11
368.23574176
 21
202.72001813
 31
0.0
  0
LINE
  5
BB3
330
6B
100
AcDbEntity
  8
0
100
AcDbLine
 10
368.23574176
 20
202.72001813
 30
0.0
 11
368.46937958
 21
202.89412704
 31
0.0
  0
LINE
  5
BB4
330
6B
100
AcDbEntity
  8
0
100
AcDbLine
 10
368.46937958
 20
202.89412704
 30
0.0
 11
368.66301161
 21
203.07547281
 31
0.0
  0
LINE
  5
BB5
330
6B
100
AcDbEntity
  8
0
100
AcDbLine
 10
368.66301161
 20
203.07547281
 30
0.0
 11
368.81516421
 21
203.26267528
 31
0.0
  0
LINE
  5
BB6
330
6B
100
AcDbEntity
  8
0
100
AcDbLine
 10
368.81516421
 20
203.26267528
 30
0.0
 11
368.92467938
 21
203.45430973
 31
0.0
  0
LINE
  5
BB7
330
6B
100
AcDbEntity
  8
0
100
AcDbLine
 10
368.92467938
 20
203.45430973
 30
0.0
 11
368.99072366
 21
203.64891771
 31
0.0
  0
LINE
  5
BB8
330
6B
100
AcDbEntity
  8
0
100
AcDbLine
 10
368.99072366
 20
203.64891771
 30
0.0
 11
369.01279441
 21
203.84501813
 31
0.0
  0
LINE
  5
BB9
330
6B
100
AcDbEntity
  8
0
100
AcDbLine
 10
369.01279441
 20
203.84501813
 30
0.0
 11
368.99072366
 21
204.04111855
 31
0.0
  0
LINE
  5
BBA
330
6B
100
AcDbEntity
  8
0
100
AcDbLine
 10
368.99072366
 20
204.04111855
 30
0.0
 11
368.92467938
 21
204.23572653
 31
0.0
  0
LINE
  5
BBB
330
6B
100
AcDbEntity
  8
0
100
AcDbLine
 10
368.92467938
 20
204.23572653
 30
0.0
 11
368.81516421
 21
204.42736098
 31
0.0
  0
LINE
  5
BBC
330
6B
100
AcDbEntity
  8
0
100
AcDbLine
 10
368.81516421
 20
204.42736098
 30
0.0
 11
368.66301161
 21
204.61456345
 31
0.0
  0
LINE
  5
BBD
330
6B
100
AcDbEntity
  8
0
100
AcDbLine
 10
368.66301161
 20
204.61456345
 30
0.0
 11
368.46937958
 21
204.79590922
 31
0.0
  0
LINE
  5
BBE
330
6B
100
AcDbEntity
  8
0
100
AcDbLine
 10
368.46937958
 20
204.79590922
 30
0.0
 11
368.23574176
 21
204.97001813
 31
0.0
  0
LINE
  5
BBF
330
6B
100
AcDbEntity
  8
0
100
AcDbLine
 10
368.23574176
 20
204.97001813
 30
0.0
 11
367.96387627
 21
205.13556511
 31
0.0
  0
LINE
  5
BC0
330
6B
100
AcDbEntity
  8
0
100
AcDbLine
 10
367.96387627
 20
205.13556511
 30
0.0
 11
367.65585218
 21
205.29129025
 31
0.0
  0
LINE
  5
BC1
330
6B
100
AcDbEntity
  8
0
100
AcDbLine
 10
367.65585218
 20
205.29129025
 30
0.0
 11
367.31401374
 21
205.43600839
 31
0.0
  0
LINE
  5
BC2
330
6B
100
AcDbEntity
  8
0
100
AcDbLine
 10
367.31401374
 20
205.43600839
 30
0.0
 11
366.94096255
 21
205.56861813
 31
0.0
  0
LINE
  5
BC3
330
6B
100
AcDbEntity
  8
0
100
AcDbLine
 10
366.94096255
 20
205.56861813
 30
0.0
 11
366.53953774
 21
205.68811023
 31
0.0
  0
LINE
  5
BC4
330
6B
100
AcDbEntity
  8
0
100
AcDbLine
 10
366.53953774
 20
205.68811023
 30
0.0
 11
366.11279441
 21
205.79357529
 31
0.0
  0
LINE
  5
BC5
330
6B
100
AcDbEntity
  8
0
100
AcDbLine
 10
366.11279441
 20
205.79357529
 30
0.0
 11
365.66398033
 21
205.88421065
 31
0.0
  0
LINE
  5
BC6
330
6B
100
AcDbEntity
  8
0
100
AcDbLine
 10
365.66398033
 20
205.88421065
 30
0.0
 11
365.19651124
 21
205.95932653
 31
0.0
  0
LINE
  5
BC7
330
6B
100
AcDbEntity
  8
0
100
AcDbLine
 10
365.19651124
 20
205.95932653
 30
0.0
 11
364.71394488
 21
206.01835124
 31
0.0
  0
LINE
  5
BC8
330
6B
100
AcDbEntity
  8
0
100
AcDbLine
 10
364.71394488
 20
206.01835124
 30
0.0
 11
364.21995384
 21
206.06083557
 31
0.0
  0
LINE
  5
BC9
330
6B
100
AcDbEntity
  8
0
100
AcDbLine
 10
364.21995384
 20
206.06083557
 30
0.0
 11
363.71829772
 21
206.0864562
 31
0.0
  0
LINE
  5
BCA
330
6B
100
AcDbEntity
  8
0
100
AcDbLine
 10
363.71829772
 20
206.0864562
 30
0.0
 11
363.21279441
 21
206.09501813
 31
0.0
  0
LINE
  5
BCB
330
6B
100
AcDbEntity
  8
0
100
AcDbLine
 10
346.46279441
 20
187.84501813
 30
0.0
 11
335.73784041
 21
187.84501813
 31
0.0
  0
LINE
  5
BCC
330
6B
100
AcDbEntity
  8
0
100
AcDbLine
 10
346.46279441
 20
219.84501813
 30
0.0
 11
335.73784041
 21
219.84501813
 31
0.0
  0
LINE
  5
BCD
330
6B
100
AcDbEntity
  8
0
100
AcDbLine
 10
336.98784041
 20
190.34501813
 30
0.0
 11
336.98784041
 21
217.34501813
 31
0.0
  0
LINE
  5
BD1
330
6B
100
AcDbEntity
  8
0
100
AcDbLine
 10
346.71279441
 20
220.09501813
 30
0.0
 11
346.71279441
 21
238.48838297
 31
0.0
  0
LINE
  5
BD2
330
6B
100
AcDbEntity
  8
0
100
AcDbLine
 10
446.71279441
 20
215.09501813
 30
0.0
 11
446.71279441
 21
238.48838297
 31
0.0
  0
LINE
  5
BD3
330
6B
100
AcDbEntity
  8
0
100
AcDbLine
 10
349.21279441
 20
237.23838297
 30
0.0
 11
444.21279441
 21
237.23838297
 31
0.0
  0
TEXT
  5
BD7
330
6B
100
AcDbEntity
  8
0
  6
Continuous
 62
     4
100
AcDbText
 10
336.3628404099999
 20
199.24501813
 30
0.0
 40
3.0
  1
\U+03C632
 50
90.0
100
AcDbText
  0
LINE
  5
BD8
330
6B
100
AcDbEntity
  8
0
  6
ByBlock
 62
     0
370
    -2
100
AcDbLine
 10
336.31796791
 20
217.34501813
 30
0.0
 11
336.98784041
 21
219.84501813
 31
0.0
  0
LINE
  5
BD9
330
6B
100
AcDbEntity
  8
0
  6
ByBlock
 62
     0
370
    -2
100
AcDbLine
 10
336.98784041
 20
219.84501813
 30
0.0
 11
337.65771291
 21
217.34501813
 31
0.0
  0
LINE
  5
BDA
330
6B
100
AcDbEntity
  8
0
  6
ByBlock
 62
     0
370
    -2
100
AcDbLine
 10
336.98784041
 20
219.84501813
 30
0.0
 11
336.98784041
 21
217.34501813
 31
0.0
  0
LINE
  5
BDB
330
6B
100
AcDbEntity
  8
0
  6
ByBlock
 62
     0
370
    -2
100
AcDbLine
 10
337.65771291
 20
190.34501813
 30
0.0
 11
336.98784041
 21
187.84501813
 31
0.0
  0
LINE
  5
BDC
330
6B
100
AcDbEntity
  8
0
  6
ByBlock
 62
     0
370
    -2
100
AcDbLine
 10
336.98784041
 20
187.84501813
 30
0.0
 11
336.31796791
 21
190.34501813
 31
0.0
  0
LINE
  5
BDD
330
6B
100
AcDbEntity
  8
0
  6
ByBlock
 62
     0
370
    -2
100
AcDbLine
 10
336.98784041
 20
187.84501813
 30
0.0
 11
336.98784041
 21
190.34501813
 31
0.0
  0
TEXT
  5
BDE
330
6B
100
AcDbEntity
  8
0
  6
Continuous
 62
     4
100
AcDbText
 10
393.71279441
 20
237.86338297
 30
0.0
 40
3.0
  1
100
100
AcDbText
  0
LINE
  5
BDF
330
6B
100
AcDbEntity
  8
0
  6
ByBlock
 62
     0
370
    -2
100
AcDbLine
 10
444.21279441
 20
237.90825547
 30
0.0
 11
446.71279441
 21
237.23838297
 31
0.0
  0
LINE
  5
BE0
330
6B
100
AcDbEntity
  8
0
  6
ByBlock
 62
     0
370
    -2
100
AcDbLine
 10
446.71279441
 20
237.23838297
 30
0.0
 11
444.21279441
 21
236.56851047
 31
0.0
  0
LINE
  5
BE1
330
6B
100
AcDbEntity
  8
0
  6
ByBlock
 62
     0
370
    -2
100
AcDbLine
 10
446.71279441
 20
237.23838297
 30
0.0
 11
444.21279441
 21
237.23838297
 31
0.0
  0
LINE
  5
BE2
330
6B
100
AcDbEntity
  8
0
  6
ByBlock
 62
     0
370
    -2
100
AcDbLine
 10
349.21279441
 20
236.56851047
 30
0.0
 11
346.71279441
 21
237.23838297
 31
0.0
  0
LINE
  5
BE3
330
6B
100
AcDbEntity
  8
0
  6
ByBlock
 62
     0
370
    -2
100
AcDbLine
 10
346.71279441
 20
237.23838297
 30
0.0
 11
349.21279441
 21
237.90825547
 31
0.0
  0
LINE
  5
BE4
330
6B
100
AcDbEntity
  8
0
  6
ByBlock
 62
     0
370
    -2
100
AcDbLine
 10
346.71279441
 20
237.23838297
 30
0.0
 11
349.21279441
 21
237.23838297
 31
0.0
  0
ENDSEC
  0
SECTION
  2
OBJECTS
  0
DICTIONARY
  5
C
330
0
100
AcDbDictionary
281
     1
  3
ACAD_2007HEADERVARS_RT
350
BE8
  3
ACAD_COLOR
350
62
  3
ACAD_GROUP
350
D
  3
ACAD_LAYOUT
350
61
  3
ACAD_MATERIAL
350
10
  3
ACAD_MLEADERSTYLE
350
65
  3
ACAD_MLINESTYLE
350
5E
  3
ACAD_PLOTSETTINGS
350
60
  3
ACAD_PLOTSTYLENAME
350
E
  3
ACAD_SCALELIST
350
42
  3
ACAD_TABLESTYLE
350
63
  3
ACAD_VISUALSTYLE
350
29
  3
ACDB_RECOMPOSE_DATA
350
BE6
  3
AcDbVariableDictionary
350
5AA
  3
DWGPROPS
350
BE7
  0
DICTIONARY
  5
432
330
2
100
AcDbDictionary
280
     1
281
     1
  3
ACAD_LAYERSTATES
360
433
  0
DICTIONARY
  5
5A6
330
54
100
AcDbDictionary
280
     1
281
     1
  3
ADSK_XREC_LAYER_RECONCILED
360
5A7
  0
DICTIONARY
  5
9CB
330
6B
100
AcDbDictionary
280
     1
281
     1
  3
ACAD_SORTENTS
360
9CC
  0
DICTIONARY
  5
BE8
102
{ACAD_REACTORS
330
C
102
}
330
C
100
AcDbDictionary
281
     1
  3
DIMARCSYM
350
BEA
  3
DIMFXL
350
BE9
  3
DIMJOGANG
350
BEB
  0
DICTIONARY
  5
62
102
{ACAD_REACTORS
330
C
102
}
330
C
100
AcDbDictionary
281
     1
  0
DICTIONARY
  5
D
102
{ACAD_REACTORS
330
C
102
}
330
C
100
AcDbDictionary
281
     1
  0
DICTIONARY
  5
61
102
{ACAD_REACTORS
330
C
102
}
330
C
100
AcDbDictionary
281
     1
  3
Model
350
6E
  3
レイアウト1
350
6A
  0
DICTIONARY
  5
10
102
{ACAD_REACTORS
330
C
102
}
330
C
100
AcDbDictionary
281
     1
  3
ByBlock
350
19
  3
ByLayer
350
11
  3
Global
350
21
  0
DICTIONARY
  5
65
102
{ACAD_REACTORS
330
C
102
}
330
C
100
AcDbDictionary
281
     1
  3
Standard
350
66
  0
DICTIONARY
  5
5E
102
{ACAD_REACTORS
330
C
102
}
330
C
100
AcDbDictionary
281
     1
  3
Standard
350
5F
  0
DICTIONARY
  5
60
102
{ACAD_REACTORS
330
C
102
}
330
C
100
AcDbDictionary
281
     1
  0
ACDBDICTIONARYWDFLT
  5
E
102
{ACAD_REACTORS
330
C
102
}
330
C
100
AcDbDictionary
281
     1
  3
Normal
350
F
100
AcDbDictionaryWithDefault
340
F
  0
DICTIONARY
  5
42
102
{ACAD_REACTORS
330
C
102
}
330
C
100
AcDbDictionary
281
     1
  3
A0
350
43
  3
A1
350
44
  3
A2
350
45
  3
A3
350
46
  3
A4
350
47
  3
A5
350
48
  3
A6
350
49
  3
A7
350
4A
  3
A8
350
4B
  3
A9
350
4C
  3
B0
350
4D
  3
B1
350
4E
  3
B2
350
4F
  3
B3
350
50
  3
B4
350
51
  3
B5
350
52
  3
B6
350
53
  0
DICTIONARY
  5
63
102
{ACAD_REACTORS
330
C
102
}
330
C
100
AcDbDictionary
281
     1
  3
Standard
350
64
  0
DICTIONARY
  5
29
102
{ACAD_REACTORS
330
C
102
}
330
C
100
AcDbDictionary
281
     1
  3
2dWireframe
350
2F
  3
3dWireframe
350
431
  3
Basic
350
2E
  3
Brighten
350
35
  3
ColorChange
350
39
  3
Conceptual
350
32
  3
Dim
350
34
  3
EdgeColorOff
350
41
  3
Facepattern
350
38
  3
Flat
350
2A
  3
FlatWithEdges
350
2B
  3
Gouraud
350
2C
  3
GouraudWithEdges
350
2D
  3
Hidden
350
31
  3
JitterOff
350
3F
  3
Linepattern
350
37
  3
OverhangOff
350
40
  3
Realistic
350
33
  3
Shaded
350
3E
  3
Shaded with edges
350
3D
  3
Shades of Gray
350
3A
  3
Sketchy
350
3B
  3
Thicken
350
36
  3
Wireframe
350
30
  3
X-Ray
350
3C
  0
XRECORD
  5
BE6
102
{ACAD_REACTORS
330
C
102
}
330
C
100
AcDbXrecord
280
     1
 90
        1
330
64
  0
DICTIONARY
  5
5AA
102
{ACAD_REACTORS
330
C
102
}
330
C
100
AcDbDictionary
281
     1
  3
CANNOSCALE
350
5AD
  3
CMLEADERSTYLE
350
5AC
  3
CTABLESTYLE
350
5AB
  3
DIMASSOC
350
5B0
  3
INDEXCTL
350
5AF
  3
SORTENTS
350
5AE
  3
XCLIPFRAME
350
A3C
  0
XRECORD
  5
BE7
102
{ACAD_REACTORS
330
C
102
}
330
C
100
AcDbXrecord
280
     1
  1
DWGPROPS COOKIE
  2

  3

  4

  6

  7

  8
imamura
  9

300
=
301
=
302
=
303
=
304
=
305
=
306
=
307
=
308
=
309
=
 40
0.0283897222222222
 41
2455678.591057488
 42
2456855.821244803
  1

 90
        0
  0
DICTIONARY
  5
433
102
{ACAD_REACTORS
330
432
102
}
330
432
100
AcDbDictionary
281
     1
  0
XRECORD
  5
5A7
102
{ACAD_REACTORS
330
5A6
102
}
330
5A6
100
AcDbXrecord
280
     1
290
     1
  0
SORTENTSTABLE
  5
9CC
102
{ACAD_REACTORS
330
9CB
102
}
330
9CB
100
AcDbSortentsTable
330
6B
331
B4D
  5
2DD
331
BC7
  5
291
331
B49
  5
35F
331
BC3
  5
28D
331
B45
  5
356
331
B84
  5
296
331
BBF
  5
289
331
B41
  5
347
331
B80
  5
2D0
331
BBB
  5
285
331
A96
  5
AA8
331
A92
  5
AE1
331
CC
  5
E6
331
573
  5
BC6
331
C8
  5
E2
331
297
  5
AFF
331
155
  5
2D9
331
31D
  5
B67
331
293
  5
AFB
331
2CE
  5
B2E
331
20C
  5
A80
331
319
  5
B63
331
28F
  5
AF7
331
57F
  5
BCC
331
315
  5
B5F
331
28B
  5
AF3
331
AD7
  5
AA1
331
57B
  5
BC8
331
311
  5
B5B
331
AD3
  5
A9D
331
ACF
  5
A99
331
B0E
  5
371
331
ACB
  5
A95
331
B0A
  5
36D
331
B3D
  5
343
331
B7C
  5
2C8
331
BB7
  5
281
331
B39
  5
33F
331
B78
  5
2C4
331
BB3
  5
262
331
B35
  5
33B
331
B74
  5
2C0
331
BAF
  5
25E
331
B31
  5
337
331
B70
  5
2D5
331
BAB
  5
20C
331
A8E
  5
ADD
331
A8A
  5
AD9
331
A86
  5
AD5
331
C4
  5
DE
331
AE
  5
C8
331
A82
  5
AE6
331
C0
  5
DA
331
BC
  5
D6
331
2C6
  5
B2A
331
B8
  5
D2
331
287
  5
AEF
331
2C2
  5
B26
331
387
  5
BC2
331
30D
  5
B57
331
283
  5
AEB
331
348
  5
B92
331
2BE
  5
B22
331
383
  5
BBE
331
309
  5
B53
331
344
  5
B8E
331
2BA
  5
B20
331
37F
  5
BBA
331
305
  5
B4F
331
AC7
  5
A91
331
B06
  5
369
331
340
  5
B8A
331
37B
  5
BB6
331
301
  5
B4B
331
AC3
  5
A8D
331
B02
  5
360
331
ABF
  5
A89
331
AFE
  5
8CB
331
ABB
  5
A85
331
AFA
  5
8C7
331
B2D
  5
333
331
B6C
  5
312
331
BA7
  5
193
331
B29
  5
32F
331
B68
  5
30E
331
BA3
  5
2B5
331
BE2
  5
B4
331
B25
  5
388
331
B64
  5
30A
331
B9F
  5
2B1
331
BDE
  5
BD
331
B21
  5
384
331
B60
  5
306
331
B9B
  5
2AD
331
BDA
  5
C6
331
A7E
  5
B9B
331
B4
  5
CE
331
B0
  5
CA
331
2B6
  5
B1E
331
194
  5
32B
331
2B2
  5
B1A
331
190
  5
327
331
33C
  5
B86
331
263
  5
AD1
331
377
  5
BB2
331
2FD
  5
B47
331
18C
  5
323
331
2AE
  5
B16
331
E5
  5
18F
331
338
  5
B82
331
25F
  5
ACD
331
8CA
  5
BE3
331
2F9
  5
B43
331
373
  5
BAE
331
188
  5
31F
331
8C6
  5
BDF
331
334
  5
B7E
331
2AA
  5
B12
331
E1
  5
18B
331
36F
  5
BAA
331
AB7
  5
AC9
331
AF6
  5
8C3
331
330
  5
B7A
331
8C2
  5
BDB
331
2F1
  5
B40
331
36B
  5
BA6
331
AB3
  5
AC5
331
AF2
  5
8BF
331
AAF
  5
AC1
331
AEE
  5
8BB
331
AAB
  5
ABD
331
AEA
  5
8B7
331
B1D
  5
380
331
B5C
  5
302
331
B97
  5
2A9
331
B19
  5
37C
331
B58
  5
2FE
331
B93
  5
2A5
331
BD2
  5
AF
331
B15
  5
378
331
B54
  5
2FA
331
B8F
  5
2A1
331
B11
  5
374
331
B50
  5
2F1
331
B8B
  5
29D
331
BCA
  5
294
331
184
  5
31B
331
2A6
  5
B0E
331
DD
  5
187
331
180
  5
317
331
32C
  5
B76
331
2A2
  5
B0A
331
D9
  5
183
331
8BE
  5
BD7
331
2DD
  5
B3D
331
367
  5
BA2
331
328
  5
B72
331
29E
  5
B06
331
D5
  5
17F
331
8BA
  5
BD3
331
2D9
  5
B39
331
324
  5
B6E
331
29A
  5
B02
331
D1
  5
154
331
35F
  5
B9D
331
2D5
  5
B35
331
AA7
  5
AB9
331
AE6
  5
57F
331
320
  5
B6A
331
2D1
  5
B31
331
AA3
  5
AB5
331
AE2
  5
57B
331
A9F
  5
AB1
331
ADE
  5
389
331
A9B
  5
AAD
331
ADA
  5
AA4
331
B4C
  5
2DC
331
BC6
  5
290
331
B48
  5
35E
331
B87
  5
299
331
BC2
  5
28C
331
B44
  5
34A
331
B83
  5
295
331
BBE
  5
288
331
B40
  5
346
331
BBA
  5
284
331
A95
  5
AE4
331
A91
  5
AE0
331
CF
  5
152
331
CB
  5
E5
331
572
  5
BC5
331
389
  5
BC4
331
296
  5
AFE
331
154
  5
2D8
331
31C
  5
B66
331
292
  5
AFA
331
20F
  5
A83
331
357
  5
B98
331
28E
  5
AF6
331
20B
  5
A7F
331
582
  5
BCF
331
318
  5
B62
331
2C9
  5
B2D
331
57E
  5
BCB
331
314
  5
B5E
331
28A
  5
AF2
331
AD6
  5
AA0
331
310
  5
B5A
331
AD2
  5
A9C
331
ACE
  5
A98
331
B0D
  5
370
331
ACA
  5
A94
331
B09
  5
36C
331
B7F
  5
2CF
331
B3C
  5
342
331
B7B
  5
2C7
331
BB6
  5
280
331
B38
  5
33E
331
B77
  5
2C3
331
BB2
  5
261
331
B34
  5
33A
331
B73
  5
2BF
331
BAE
  5
20F
331
B30
  5
336
331
BAA
  5
20B
331
A8D
  5
ADC
331
A89
  5
AD8
331
C7
  5
E1
331
A85
  5
AD4
331
C3
  5
DD
331
A81
  5
AE5
331
BF
  5
D9
331
BB
  5
D5
331
2C5
  5
B29
331
286
  5
AEE
331
2C1
  5
B25
331
386
  5
BC1
331
30C
  5
B56
331
282
  5
AEA
331
347
  5
B91
331
382
  5
BBD
331
308
  5
B52
331
343
  5
B8D
331
37E
  5
BB9
331
304
  5
B4E
331
AC6
  5
A90
331
B05
  5
368
331
37A
  5
BB5
331
300
  5
B4A
331
AC2
  5
A8C
331
B01
  5
A7D
331
ABE
  5
A88
331
AFD
  5
8CA
331
ABA
  5
A84
331
AF9
  5
8C6
331
B6F
  5
2D4
331
B2C
  5
332
331
B6B
  5
311
331
BA6
  5
2BA
331
B28
  5
32E
331
B67
  5
30D
331
BA2
  5
2B4
331
BE1
  5
BC
331
B24
  5
387
331
B63
  5
309
331
B9E
  5
2B0
331
BDD
  5
C3
331
B20
  5
383
331
B9A
  5
2AC
331
BD9
  5
C5
331
A7D
  5
B9A
331
B7
  5
D1
331
B3
  5
CD
331
33F
  5
B89
331
2B5
  5
B1D
331
193
  5
32A
331
18F
  5
326
331
2B1
  5
B19
331
E8
  5
192
331
33B
  5
B85
331
262
  5
AD0
331
376
  5
BB1
331
2FC
  5
B46
331
18B
  5
322
331
2AD
  5
B15
331
E4
  5
18E
331
337
  5
B81
331
25E
  5
ACC
331
8C9
  5
BE2
331
2F8
  5
B42
331
372
  5
BAD
331
8C5
  5
BDE
331
333
  5
B7D
331
2A9
  5
B11
331
E0
  5
18A
331
36E
  5
BA9
331
AB6
  5
AC8
331
AF5
  5
8C2
331
8C1
  5
BDA
331
36A
  5
BA5
331
AB2
  5
AC4
331
AF1
  5
8BE
331
AAE
  5
AC0
331
AED
  5
8BA
331
AAA
  5
ABC
331
AE9
  5
582
331
B5F
  5
305
331
B1C
  5
37F
331
B5B
  5
301
331
B96
  5
2A8
331
B18
  5
37B
331
B57
  5
2FD
331
B92
  5
2A4
331
BD1
  5
AE
331
B14
  5
377
331
B53
  5
2F9
331
B8E
  5
2A0
331
BCD
  5
C0
331
B10
  5
373
331
B8A
  5
29C
331
BC9
  5
293
331
187
  5
31E
331
183
  5
31A
331
32F
  5
B79
331
2A5
  5
B0D
331
DC
  5
186
331
17F
  5
316
331
32B
  5
B75
331
2A1
  5
B09
331
D8
  5
182
331
8BD
  5
BD6
331
2DC
  5
B3C
331
366
  5
BA1
331
327
  5
B71
331
29D
  5
B05
331
D4
  5
17E
331
8B9
  5
BD2
331
2D8
  5
B38
331
323
  5
B6D
331
299
  5
B01
331
D0
  5
153
331
35E
  5
B9C
331
2D4
  5
B34
331
AA6
  5
AB8
331
AE5
  5
57E
331
2D0
  5
B30
331
AA2
  5
AB4
331
AE1
  5
574
331
A9E
  5
AB0
331
ADD
  5
AA7
331
A9A
  5
AAC
331
AD9
  5
AA3
331
B4F
  5
2DF
331
B4B
  5
2DB
331
BC5
  5
28F
331
B47
  5
358
331
B86
  5
298
331
BC1
  5
28B
331
B43
  5
349
331
B82
  5
2D2
331
BBD
  5
287
331
BB9
  5
283
331
A94
  5
AE3
331
A90
  5
ADF
331
CE
  5
E8
331
CA
  5
E4
331
388
  5
BC3
331
31F
  5
B69
331
295
  5
AFD
331
153
  5
2D7
331
31B
  5
B65
331
291
  5
AF9
331
20E
  5
A82
331
356
  5
B97
331
28D
  5
AF5
331
20A
  5
A7E
331
581
  5
BCE
331
317
  5
B61
331
2C8
  5
B2C
331
57D
  5
BCA
331
313
  5
B5D
331
289
  5
AF1
331
AD5
  5
A9F
331
AD1
  5
A9B
331
ACD
  5
A97
331
B0C
  5
36F
331
AC9
  5
A93
331
B08
  5
36B
331
B3F
  5
345
331
B7E
  5
2CE
331
B3B
  5
341
331
B7A
  5
2C6
331
BB5
  5
264
331
B37
  5
33D
331
B76
  5
2C2
331
BB1
  5
260
331
B33
  5
339
331
B72
  5
2BE
331
BAD
  5
20E
331
BA9
  5
20A
331
A8C
  5
ADB
331
A88
  5
AD7
331
C6
  5
E0
331
A84
  5
AD3
331
C2
  5
DC
331
A80
  5
B96
331
BE
  5
D8
331
BA
  5
D4
331
2C4
  5
B28
331
30F
  5
B59
331
285
  5
AED
331
2C0
  5
B24
331
34A
  5
B94
331
281
  5
AE9
331
385
  5
BC0
331
30B
  5
B55
331
346
  5
B90
331
2BC
  5
B21
331
381
  5
BBC
331
307
  5
B51
331
342
  5
B8C
331
37D
  5
BB8
331
303
  5
B4D
331
AC5
  5
A8F
331
B04
  5
367
331
379
  5
BB4
331
AC1
  5
A8B
331
B00
  5
A7C
331
ABD
  5
A87
331
AFC
  5
8C9
331
AB9
  5
ACB
331
AF8
  5
8C5
331
B2F
  5
335
331
B6E
  5
2D3
331
B2B
  5
331
331
B6A
  5
310
331
BA5
  5
2B7
331
BE4
  5
B6
331
B27
  5
32D
331
B66
  5
30C
331
BA1
  5
2B3
331
BE0
  5
BB
331
B23
  5
386
331
B62
  5
308
331
B9D
  5
2AF
331
BDC
  5
C2
331
B99
  5
2AB
331
BD8
  5
C4
331
A7C
  5
BA0
331
B6
  5
D0
331
B2
  5
CC
331
33E
  5
B88
331
2B4
  5
B1C
331
192
  5
329
331
2FF
  5
B49
331
18E
  5
325
331
2B0
  5
B18
331
E7
  5
191
331
33A
  5
B84
331
261
  5
ACF
331
375
  5
BB0
331
2FB
  5
B45
331
18A
  5
321
331
336
  5
B80
331
2AC
  5
B14
331
E3
  5
18D
331
8C8
  5
BE1
331
2F7
  5
B41
331
371
  5
BAC
331
8C4
  5
BDD
331
332
  5
B7C
331
2A8
  5
B10
331
36D
  5
BA8
331
AB5
  5
AC7
331
AF4
  5
8C1
331
8C0
  5
BD9
331
369
  5
BA4
331
AB1
  5
AC3
331
AF0
  5
8BD
331
AAD
  5
ABF
331
AEC
  5
8B9
331
AA9
  5
ABB
331
AE8
  5
581
331
B1F
  5
382
331
B5E
  5
304
331
B1B
  5
37E
331
B5A
  5
300
331
B95
  5
2A7
331
B17
  5
37A
331
B56
  5
2FC
331
B91
  5
2A3
331
B13
  5
376
331
B52
  5
2F8
331
B8D
  5
29F
331
BCC
  5
BF
331
B89
  5
29B
331
BC8
  5
292
331
186
  5
31D
331
DF
  5
189
331
182
  5
319
331
32E
  5
B78
331
2A4
  5
B0C
331
DB
  5
185
331
2DF
  5
B3F
331
17E
  5
315
331
32A
  5
B74
331
2A0
  5
B08
331
D7
  5
181
331
8BC
  5
BD5
331
2DB
  5
B3B
331
326
  5
B70
331
29C
  5
B04
331
D3
  5
17D
331
8B8
  5
BD1
331
2D7
  5
B37
331
322
  5
B6C
331
298
  5
B00
331
2D3
  5
B33
331
AA5
  5
AB7
331
AE4
  5
57D
331
AA1
  5
AB3
331
AE0
  5
573
331
A9D
  5
AAF
331
ADC
  5
AA6
331
A99
  5
AAB
331
AD8
  5
AA2
331
B4E
  5
2DE
331
B4A
  5
2DA
331
BC4
  5
28E
331
B46
  5
357
331
B85
  5
297
331
BC0
  5
28A
331
B42
  5
348
331
B81
  5
2D1
331
BBC
  5
286
331
BB8
  5
282
331
A97
  5
AA9
331
A93
  5
AE2
331
CD
  5
E7
331
574
  5
BC7
331
C9
  5
E3
331
31E
  5
B68
331
294
  5
AFC
331
152
  5
2D6
331
2CF
  5
B2F
331
20D
  5
A81
331
31A
  5
B64
331
290
  5
AF8
331
580
  5
BCD
331
316
  5
B60
331
28C
  5
AF4
331
57C
  5
BC9
331
312
  5
B5C
331
288
  5
AF0
331
AD4
  5
A9E
331
AD0
  5
A9A
331
B0F
  5
372
331
ACC
  5
A96
331
B0B
  5
36E
331
AC8
  5
A92
331
B3E
  5
344
331
B7D
  5
2C9
331
B3A
  5
340
331
B79
  5
2C5
331
BB4
  5
263
331
B36
  5
33C
331
B75
  5
2C1
331
BB0
  5
25F
331
B32
  5
338
331
B71
  5
2BC
331
BAC
  5
20D
331
BA8
  5
194
331
A8F
  5
ADE
331
A8B
  5
ADA
331
A87
  5
AD6
331
C5
  5
DF
331
AF
  5
C9
331
A83
  5
AE7
331
C1
  5
DB
331
BD
  5
D7
331
2C7
  5
B2B
331
B9
  5
D3
331
2C3
  5
B27
331
30E
  5
B58
331
284
  5
AEC
331
2BF
  5
B23
331
349
  5
B93
331
280
  5
AE8
331
384
  5
BBF
331
30A
  5
B54
331
345
  5
B8F
331
380
  5
BBB
331
306
  5
B50
331
B07
  5
36A
331
341
  5
B8B
331
37C
  5
BB7
331
302
  5
B4C
331
AC4
  5
A8E
331
B03
  5
366
331
378
  5
BB3
331
AC0
  5
A8A
331
AFF
  5
A7B
331
ABC
  5
A86
331
AFB
  5
8C8
331
AB8
  5
ACA
331
B2E
  5
334
331
B6D
  5
313
331
B2A
  5
330
331
B69
  5
30F
331
BA4
  5
2B6
331
BE3
  5
B5
331
B26
  5
32C
331
B65
  5
30B
331
BA0
  5
2B2
331
BDF
  5
BA
331
B22
  5
385
331
B61
  5
307
331
B9C
  5
2AE
331
BDB
  5
C1
331
B98
  5
2AA
331
A7F
  5
B95
331
A7B
  5
B9F
331
B5
  5
CF
331
B1
  5
CB
331
2B7
  5
B1F
331
2B3
  5
B1B
331
191
  5
328
331
33D
  5
B87
331
264
  5
AD2
331
2FE
  5
B48
331
18D
  5
324
331
2AF
  5
B17
331
E6
  5
190
331
339
  5
B83
331
260
  5
ACE
331
8CB
  5
BE4
331
2FA
  5
B44
331
374
  5
BAF
331
189
  5
320
331
8C7
  5
BE0
331
335
  5
B7F
331
2AB
  5
B13
331
E2
  5
18C
331
370
  5
BAB
331
AF7
  5
8C4
331
8C3
  5
BDC
331
331
  5
B7B
331
36C
  5
BA7
331
AB4
  5
AC6
331
AF3
  5
8C0
331
368
  5
BA3
331
AB0
  5
AC2
331
AEF
  5
8BC
331
AAC
  5
ABE
331
AEB
  5
8B8
331
AA8
  5
ABA
331
B1E
  5
381
331
B5D
  5
303
331
BD7
  5
C7
331
B1A
  5
37D
331
B59
  5
2FF
331
B94
  5
2A6
331
BD3
  5
B0
331
B16
  5
379
331
B55
  5
2FB
331
B90
  5
2A2
331
B12
  5
375
331
B51
  5
2F7
331
B8C
  5
29E
331
BCB
  5
BE
331
B88
  5
29A
331
185
  5
31C
331
2A7
  5
B0F
331
DE
  5
188
331
181
  5
318
331
32D
  5
B77
331
2A3
  5
B0B
331
DA
  5
184
331
8BF
  5
BD8
331
2DE
  5
B3E
331
17D
  5
314
331
329
  5
B73
331
29F
  5
B07
331
D6
  5
180
331
8BB
  5
BD4
331
2DA
  5
B3A
331
325
  5
B6F
331
29B
  5
B03
331
D2
  5
155
331
8B7
  5
BD0
331
2D6
  5
B36
331
360
  5
B9E
331
AE7
  5
580
331
321
  5
B6B
331
2D2
  5
B32
331
AA4
  5
AB6
331
AE3
  5
57C
331
358
  5
B99
331
AA0
  5
AB2
331
ADF
  5
572
331
A9C
  5
AAE
331
ADB
  5
AA5
331
A98
  5
AAA
  0
XRECORD
  5
BEA
102
{ACAD_REACTORS
330
BE8
102
}
330
BE8
100
AcDbXrecord
280
     1
 70
     2
  0
XRECORD
  5
BE9
102
{ACAD_REACTORS
330
BE8
102
}
330
BE8
100
AcDbXrecord
280
     1
 40
1.25
  0
XRECORD
  5
BEB
102
{ACAD_REACTORS
330
BE8
102
}
330
BE8
100
AcDbXrecord
280
     1
 40
1.570796326794896
  0
LAYOUT
  5
6E
102
{ACAD_XDICTIONARY
360
C1F
102
}
102
{ACAD_REACTORS
330
61
102
}
330
61
100
AcDbPlotSettings
  1

  2
FX DP 205
  4

  6

 40
0.0
 41
0.0
 42
0.0
 43
0.0
 44
0.0
 45
0.0
 46
0.0
 47
0.0
 48
0.0
 49
0.0
140
0.0
141
0.0
142
1.0
143
1.0
 70
  1712
 72
     0
 73
     0
 74
     0
  7

 75
     0
147
1.0
148
0.0
149
0.0
100
AcDbLayout
  1
Model
 70
     1
 71
     0
 10
0.0
 20
0.0
 11
12.0
 21
9.0
 12
0.0
 22
0.0
 32
0.0
 14
0.0
 24
0.0
 34
0.0
 15
0.0
 25
0.0
 35
0.0
146
0.0
 13
0.0
 23
0.0
 33
0.0
 16
1.0
 26
0.0
 36
0.0
 17
0.0
 27
1.0
 37
0.0
 76
     0
330
6B
331
8B
  0
LAYOUT
  5
6A
102
{ACAD_XDICTIONARY
360
C1D
102
}
102
{ACAD_REACTORS
330
61
102
}
330
61
100
AcDbPlotSettings
  1

  2
FX DP 205
  4

  6

 40
0.0
 41
0.0
 42
0.0
 43
0.0
 44
0.0
 45
0.0
 46
0.0
 47
0.0
 48
0.0
 49
0.0
140
0.0
141
0.0
142
1.0
143
1.0
 70
   688
 72
     0
 73
     0
 74
     5
  7

 75
    16
147
1.0
148
0.0
149
0.0
100
AcDbLayout
  1
レイアウト1
 70
     1
 71
     1
 10
0.0
 20
0.0
 11
12.0
 21
9.0
 12
0.0
 22
0.0
 32
0.0
 14
1.000000000000000E+20
 24
1.000000000000000E+20
 34
1.000000000000000E+20
 15
-1.000000000000000E+20
 25
-1.000000000000000E+20
 35
-1.000000000000000E+20
146
0.0
 13
0.0
 23
0.0
 33
0.0
 16
1.0
 26
0.0
 36
0.0
 17
0.0
 27
1.0
 37
0.0
 76
     0
330
67
  0
MATERIAL
  5
19
102
{ACAD_XDICTIONARY
360
1A
102
}
102
{ACAD_REACTORS
330
10
102
}
330
10
100
AcDbMaterial
  1
ByBlock
 72
     0
 43
0.0208333333333333
 43
0.0
 43
0.0
 43
0.0
 43
0.0
 43
0.0208333333333333
 43
0.0
 43
0.0
 43
0.0
 43
0.0
 43
1.0
 43
0.0
 43
0.0
 43
0.0
 43
0.0
 43
1.0
 77
     0
 47
0.0208333333333333
 47
0.0
 47
0.0
 47
0.0
 47
0.0
 47
0.0208333333333333
 47
0.0
 47
0.0
 47
0.0
 47
0.0
 47
1.0
 47
0.0
 47
0.0
 47
0.0
 47
0.0
 47
1.0
171
     0
 49
0.0208333333333333
 49
0.0
 49
0.0
 49
0.0
 49
0.0
 49
0.0208333333333333
 49
0.0
 49
0.0
 49
0.0
 49
0.0
 49
1.0
 49
0.0
 49
0.0
 49
0.0
 49
0.0
 49
1.0
175
     0
142
0.0208333333333333
142
0.0
142
0.0
142
0.0
142
0.0
142
0.0208333333333333
142
0.0
142
0.0
142
0.0
142
0.0
142
1.0
142
0.0
142
0.0
142
0.0
142
0.0
142
1.0
179
     0
144
0.0208333333333333
144
0.0
144
0.0
144
0.0
144
0.0
144
0.0208333333333333
144
0.0
144
0.0
144
0.0
144
0.0
144
1.0
144
0.0
144
0.0
144
0.0
144
0.0
144
1.0
147
0.0208333333333333
147
0.0
147
0.0
147
0.0
147
0.0
147
0.0208333333333333
147
0.0
147
0.0
147
0.0
147
0.0
147
1.0
147
0.0
147
0.0
147
0.0
147
0.0
147
1.0
  0
MATERIAL
  5
11
102
{ACAD_XDICTIONARY
360
12
102
}
102
{ACAD_REACTORS
330
10
102
}
330
10
100
AcDbMaterial
  1
ByLayer
 72
     0
 43
0.0208333333333333
 43
0.0
 43
0.0
 43
0.0
 43
0.0
 43
0.0208333333333333
 43
0.0
 43
0.0
 43
0.0
 43
0.0
 43
1.0
 43
0.0
 43
0.0
 43
0.0
 43
0.0
 43
1.0
 77
     0
 47
0.0208333333333333
 47
0.0
 47
0.0
 47
0.0
 47
0.0
 47
0.0208333333333333
 47
0.0
 47
0.0
 47
0.0
 47
0.0
 47
1.0
 47
0.0
 47
0.0
 47
0.0
 47
0.0
 47
1.0
171
     0
 49
0.0208333333333333
 49
0.0
 49
0.0
 49
0.0
 49
0.0
 49
0.0208333333333333
 49
0.0
 49
0.0
 49
0.0
 49
0.0
 49
1.0
 49
0.0
 49
0.0
 49
0.0
 49
0.0
 49
1.0
175
     0
142
0.0208333333333333
142
0.0
142
0.0
142
0.0
142
0.0
142
0.0208333333333333
142
0.0
142
0.0
142
0.0
142
0.0
142
1.0
142
0.0
142
0.0
142
0.0
142
0.0
142
1.0
179
     0
144
0.0208333333333333
144
0.0
144
0.0
144
0.0
144
0.0
144
0.0208333333333333
144
0.0
144
0.0
144
0.0
144
0.0
144
1.0
144
0.0
144
0.0
144
0.0
144
0.0
144
1.0
147
0.0208333333333333
147
0.0
147
0.0
147
0.0
147
0.0
147
0.0208333333333333
147
0.0
147
0.0
147
0.0
147
0.0
147
1.0
147
0.0
147
0.0
147
0.0
147
0.0
147
1.0
  0
MATERIAL
  5
21
102
{ACAD_XDICTIONARY
360
22
102
}
102
{ACAD_REACTORS
330
10
102
}
330
10
100
AcDbMaterial
  1
Global
 72
     0
 43
0.0208333333333333
 43
0.0
 43
0.0
 43
0.0
 43
0.0
 43
0.0208333333333333
 43
0.0
 43
0.0
 43
0.0
 43
0.0
 43
1.0
 43
0.0
 43
0.0
 43
0.0
 43
0.0
 43
1.0
 77
     0
 47
0.0208333333333333
 47
0.0
 47
0.0
 47
0.0
 47
0.0
 47
0.0208333333333333
 47
0.0
 47
0.0
 47
0.0
 47
0.0
 47
1.0
 47
0.0
 47
0.0
 47
0.0
 47
0.0
 47
1.0
171
     0
 49
0.0208333333333333
 49
0.0
 49
0.0
 49
0.0
 49
0.0
 49
0.0208333333333333
 49
0.0
 49
0.0
 49
0.0
 49
0.0
 49
1.0
 49
0.0
 49
0.0
 49
0.0
 49
0.0
 49
1.0
175
     0
142
0.0208333333333333
142
0.0
142
0.0
142
0.0
142
0.0
142
0.0208333333333333
142
0.0
142
0.0
142
0.0
142
0.0
142
1.0
142
0.0
142
0.0
142
0.0
142
0.0
142
1.0
179
     0
144
0.0208333333333333
144
0.0
144
0.0
144
0.0
144
0.0
144
0.0208333333333333
144
0.0
144
0.0
144
0.0
144
0.0
144
1.0
144
0.0
144
0.0
144
0.0
144
0.0
144
1.0
147
0.0208333333333333
147
0.0
147
0.0
147
0.0
147
0.0
147
0.0208333333333333
147
0.0
147
0.0
147
0.0
147
0.0
147
1.0
147
0.0
147
0.0
147
0.0
147
0.0
147
1.0
  0
MLEADERSTYLE
  5
66
102
{ACAD_REACTORS
330
65
102
}
330
65
100
AcDbMLeaderStyle
170
     2
171
     1
172
     0
 90
        2
 40
0.0
 41
0.0
173
     1
 91
-1056964608
340
5A
 92
       -2
290
     1
 42
0.09
291
     1
 43
0.36
  3
Standard
 44
0.18
300

342
55
174
     1
178
     6
175
     1
176
     0
 93
-1056964608
 45
0.18
292
     0
297
     0
 46
0.18
 94
-1056964608
 47
1.0
 49
1.0
140
1.0
293
     1
141
0.0
294
     1
177
     0
142
1.0
295
     0
296
     0
143
0.125
1001
ACAD_MLEADERVER
1070
     2
  0
MLINESTYLE
  5
5F
102
{ACAD_REACTORS
330
5E
102
}
330
5E
100
AcDbMlineStyle
  2
STANDARD
 70
     0
  3

 62
   256
 51
90.0
 52
90.0
 71
     2
 49
0.5
 62
   256
  6
BYLAYER
 49
-0.5
 62
   256
  6
BYLAYER
  0
ACDBPLACEHOLDER
  5
F
102
{ACAD_REACTORS
330
E
102
}
330
E
  0
SCALE
  5
43
102
{ACAD_REACTORS
330
42
102
}
330
42
100
AcDbScale
 70
     0
300
1:1
140
1.0
141
1.0
290
     1
  0
SCALE
  5
44
102
{ACAD_REACTORS
330
42
102
}
330
42
100
AcDbScale
 70
     0
300
1/128" = 1'-0"
140
0.0078125
141
12.0
290
     0
  0
SCALE
  5
45
102
{ACAD_REACTORS
330
42
102
}
330
42
100
AcDbScale
 70
     0
300
1/64" = 1'-0"
140
0.015625
141
12.0
290
     0
  0
SCALE
  5
46
102
{ACAD_REACTORS
330
42
102
}
330
42
100
AcDbScale
 70
     0
300
1/32" = 1'-0"
140
0.03125
141
12.0
290
     0
  0
SCALE
  5
47
102
{ACAD_REACTORS
330
42
102
}
330
42
100
AcDbScale
 70
     0
300
1/16" = 1'-0"
140
0.0625
141
12.0
290
     0
  0
SCALE
  5
48
102
{ACAD_REACTORS
330
42
102
}
330
42
100
AcDbScale
 70
     0
300
3/32" = 1'-0"
140
0.09375
141
12.0
290
     0
  0
SCALE
  5
49
102
{ACAD_REACTORS
330
42
102
}
330
42
100
AcDbScale
 70
     0
300
1/8" = 1'-0"
140
0.125
141
12.0
290
     0
  0
SCALE
  5
4A
102
{ACAD_REACTORS
330
42
102
}
330
42
100
AcDbScale
 70
     0
300
3/16" = 1'-0"
140
0.1875
141
12.0
290
     0
  0
SCALE
  5
4B
102
{ACAD_REACTORS
330
42
102
}
330
42
100
AcDbScale
 70
     0
300
1/4" = 1'-0"
140
0.25
141
12.0
290
     0
  0
SCALE
  5
4C
102
{ACAD_REACTORS
330
42
102
}
330
42
100
AcDbScale
 70
     0
300
3/8" = 1'-0"
140
0.375
141
12.0
290
     0
  0
SCALE
  5
4D
102
{ACAD_REACTORS
330
42
102
}
330
42
100
AcDbScale
 70
     0
300
1/2" = 1'-0"
140
0.5
141
12.0
290
     0
  0
SCALE
  5
4E
102
{ACAD_REACTORS
330
42
102
}
330
42
100
AcDbScale
 70
     0
300
3/4" = 1'-0"
140
0.75
141
12.0
290
     0
  0
SCALE
  5
4F
102
{ACAD_REACTORS
330
42
102
}
330
42
100
AcDbScale
 70
     0
300
1" = 1'-0"
140
1.0
141
12.0
290
     0
  0
SCALE
  5
50
102
{ACAD_REACTORS
330
42
102
}
330
42
100
AcDbScale
 70
     0
300
1-1/2" = 1'-0"
140
1.5
141
12.0
290
     0
  0
SCALE
  5
51
102
{ACAD_REACTORS
330
42
102
}
330
42
100
AcDbScale
 70
     0
300
3" = 1'-0"
140
3.0
141
12.0
290
     0
  0
SCALE
  5
52
102
{ACAD_REACTORS
330
42
102
}
330
42
100
AcDbScale
 70
     0
300
6" = 1'-0"
140
6.0
141
12.0
290
     0
  0
SCALE
  5
53
102
{ACAD_REACTORS
330
42
102
}
330
42
100
AcDbScale
 70
     0
300
1'-0" = 1'-0"
140
12.0
141
12.0
290
     0
  0
TABLESTYLE
  5
64
102
{ACAD_XDICTIONARY
360
5B2
102
}
102
{ACAD_REACTORS
330
63
102
}
330
63
100
AcDbTableStyle
  3
Standard
 70
     0
 71
     0
 40
0.06
 41
0.06
280
     0
281
     0
  7
STANDARD
140
0.18
170
     2
 62
     0
 63
     7
283
     0
274
    -2
284
     1
 64
     0
275
    -2
285
     1
 65
     0
276
    -2
286
     1
 66
     0
277
    -2
287
     1
 67
     0
278
    -2
288
     1
 68
     0
279
    -2
289
     1
 69
     0
  7
STANDARD
140
0.25
170
     5
 62
     0
 63
     7
283
     0
274
    -2
284
     1
 64
     0
275
    -2
285
     1
 65
     0
276
    -2
286
     1
 66
     0
277
    -2
287
     1
 67
     0
278
    -2
288
     1
 68
     0
279
    -2
289
     1
 69
     0
  7
STANDARD
140
0.18
170
     5
 62
     0
 63
     7
283
     0
274
    -2
284
     1
 64
     0
275
    -2
285
     1
 65
     0
276
    -2
286
     1
 66
     0
277
    -2
287
     1
 67
     0
278
    -2
288
     1
 68
     0
279
    -2
289
     1
 69
     0
  0
VISUALSTYLE
  5
2F
102
{ACAD_XDICTIONARY
360
BF6
102
}
102
{ACAD_REACTORS
330
29
102
}
330
29
100
AcDbVisualStyle
  2

 70
     4
 71
     0
 72
     2
 73
     0
 90
        0
 40
-0.6
 41
-30.0
 62
     5
 63
     7
 74
     1
 91
        4
 64
     7
 65
   257
 75
     1
175
     1
 42
1.0
 92
        0
 66
   257
 43
1.0
 76
     1
 77
     6
 78
     2
 67
     7
 79
     5
170
     0
171
     0
290
     0
174
     0
 93
        1
 44
0.0
173
     0
291
     0
 45
0.0
1001
ACAD
1000
AcDbSavedByObjectVersion
1070
     0
  0
VISUALSTYLE
  5
431
102
{ACAD_XDICTIONARY
360
C21
102
}
102
{ACAD_REACTORS
330
29
102
}
330
29
100
AcDbVisualStyle
  2

 70
     5
 71
     0
 72
     2
 73
     1
 90
        0
 40
-0.6
 41
-30.0
 62
     5
 63
     7
 74
     1
 91
        4
 64
     7
 65
   257
 75
     1
175
     1
 42
1.0
 92
        0
 66
   257
 43
1.0
 76
     1
 77
     6
 78
     2
 67
     7
 79
     5
170
     0
171
     0
290
     0
174
     0
 93
        1
 44
0.0
173
     0
291
     0
 45
0.0
1001
ACAD
1000
AcDbSavedByObjectVersion
1070
     0
  0
VISUALSTYLE
  5
2E
102
{ACAD_XDICTIONARY
360
BF4
102
}
102
{ACAD_REACTORS
330
29
102
}
330
29
100
AcDbVisualStyle
  2

 70
     7
 71
     1
 72
     0
 73
     1
 90
        0
 40
-0.6
 41
-30.0
 62
     5
 63
     7
 74
     0
 91
        4
 64
     7
 65
   257
 75
     1
175
     1
 42
1.0
 92
        8
 66
     7
 43
1.0
 76
     1
 77
     6
 78
     2
 67
     7
 79
     5
170
     0
171
     0
290
     0
174
     0
 93
        1
 44
0.0
173
     0
291
     1
 45
0.0
1001
ACAD
1000
AcDbSavedByObjectVersion
1070
     0
  0
VISUALSTYLE
  5
35
102
{ACAD_XDICTIONARY
360
C02
102
}
102
{ACAD_REACTORS
330
29
102
}
330
29
100
AcDbVisualStyle
  2

 70
    12
 71
     2
 72
     2
 73
     0
 90
        0
 40
-0.6
 41
-30.0
 62
     5
 63
     7
 74
     1
 91
        4
 64
     7
 65
   257
 75
     1
175
     1
 42
1.0
 92
        8
 66
     7
 43
1.0
 76
     1
 77
     6
 78
     2
 67
     7
 79
     5
170
     0
171
     0
290
     0
174
     0
 93
        1
 44
50.0
173
     0
291
     1
 45
0.0
1001
ACAD
1000
AcDbSavedByObjectVersion
1070
     0
  0
VISUALSTYLE
  5
39
102
{ACAD_XDICTIONARY
360
C0A
102
}
102
{ACAD_REACTORS
330
29
102
}
330
29
100
AcDbVisualStyle
  2

 70
    16
 71
     2
 72
     2
 73
     3
 90
        0
 40
-0.6
 41
-30.0
 62
     5
 63
     8
 74
     1
 91
        4
 64
     7
 65
   257
 75
     1
175
     1
 42
1.0
 92
        8
 66
     8
 43
1.0
 76
     1
 77
     6
 78
     2
 67
     7
 79
     5
170
     0
171
     0
290
     0
174
     0
 93
        1
 44
0.0
173
     0
291
     1
 45
0.0
1001
ACAD
1000
AcDbSavedByObjectVersion
1070
     0
  0
VISUALSTYLE
  5
32
102
{ACAD_XDICTIONARY
360
BFC
102
}
102
{ACAD_REACTORS
330
29
102
}
330
29
100
AcDbVisualStyle
  2

 70
     9
 71
     3
 72
     2
 73
     0
 90
        0
 40
-0.6
 41
-30.0
 62
     5
 63
     7
 74
     2
 91
        2
 64
     7
 65
   257
 75
     1
175
     1
 42
179.0
 92
        8
 66
     7
 43
1.0
 76
     1
 77
     6
 78
     2
 67
     7
 79
     3
170
     0
171
     0
290
     0
174
     0
 93
        1
 44
0.0
173
     0
291
     0
 45
0.0
1001
ACAD
1000
AcDbSavedByObjectVersion
1070
     0
  0
VISUALSTYLE
  5
34
102
{ACAD_XDICTIONARY
360
C00
102
}
102
{ACAD_REACTORS
330
29
102
}
330
29
100
AcDbVisualStyle
  2

 70
    11
 71
     2
 72
     2
 73
     0
 90
        0
 40
-0.6
 41
-30.0
 62
     5
 63
     7
 74
     1
 91
        4
 64
     7
 65
   257
 75
     1
175
     1
 42
1.0
 92
        8
 66
     7
 43
1.0
 76
     1
 77
     6
 78
     2
 67
     7
 79
     5
170
     0
171
     0
290
     0
174
     0
 93
        1
 44
-50.0
173
     0
291
     1
 45
0.0
1001
ACAD
1000
AcDbSavedByObjectVersion
1070
     0
  0
VISUALSTYLE
  5
41
102
{ACAD_XDICTIONARY
360
C1A
102
}
102
{ACAD_REACTORS
330
29
102
}
330
29
100
AcDbVisualStyle
  2

 70
    22
 71
     2
 72
     2
 73
     0
 90
        0
 40
-0.6
 41
-30.0
 62
     5
 63
     7
 74
     1
 91
        4
 64
     7
 65
   257
 75
     1
175
     1
 42
1.0
 92
        8
 66
     7
 43
1.0
 76
     1
 77
     6
 78
     2
 67
     7
 79
     5
170
     0
171
     0
290
     0
174
     0
 93
        1
 44
0.0
173
     0
291
     1
 45
0.0
1001
ACAD
1000
AcDbSavedByObjectVersion
1070
     0
  0
VISUALSTYLE
  5
38
102
{ACAD_XDICTIONARY
360
C08
102
}
102
{ACAD_REACTORS
330
29
102
}
330
29
100
AcDbVisualStyle
  2

 70
    15
 71
     2
 72
     2
 73
     0
 90
        0
 40
-0.6
 41
-30.0
 62
     5
 63
     7
 74
     1
 91
        4
 64
     7
 65
   257
 75
     1
175
     1
 42
1.0
 92
        8
 66
     7
 43
1.0
 76
     1
 77
     6
 78
     2
 67
     7
 79
     5
170
     0
171
     0
290
     0
174
     0
 93
        1
 44
0.0
173
     0
291
     1
 45
0.0
1001
ACAD
1000
AcDbSavedByObjectVersion
1070
     0
  0
VISUALSTYLE
  5
2A
102
{ACAD_XDICTIONARY
360
BEC
102
}
102
{ACAD_REACTORS
330
29
102
}
330
29
100
AcDbVisualStyle
  2

 70
     0
 71
     2
 72
     1
 73
     1
 90
        2
 40
-0.6
 41
30.0
 62
     5
 63
     7
 74
     0
 91
        0
 64
     7
 65
   257
 75
     1
175
     1
 42
1.0
 92
        8
 66
     7
 43
1.0
 76
     1
 77
     6
 78
     2
 67
     7
 79
     5
170
     0
171
     0
290
     0
174
     0
 93
       13
 44
0.0
173
     0
291
     1
 45
0.0
1001
ACAD
1000
AcDbSavedByObjectVersion
1070
     0
  0
VISUALSTYLE
  5
2B
102
{ACAD_XDICTIONARY
360
BEE
102
}
102
{ACAD_REACTORS
330
29
102
}
330
29
100
AcDbVisualStyle
  2

 70
     1
 71
     2
 72
     1
 73
     1
 90
        2
 40
-0.6
 41
30.0
 62
     5
 63
     7
 74
     1
 91
        0
 64
     7
 65
   257
 75
     1
175
     1
 42
1.0
 92
        0
 66
   257
 43
1.0
 76
     1
 77
     6
 78
     2
 67
     7
 79
     5
170
     0
171
     0
290
     0
174
     0
 93
       13
 44
0.0
173
     0
291
     1
 45
0.0
1001
ACAD
1000
AcDbSavedByObjectVersion
1070
     0
  0
VISUALSTYLE
  5
2C
102
{ACAD_XDICTIONARY
360
BF0
102
}
102
{ACAD_REACTORS
330
29
102
}
330
29
100
AcDbVisualStyle
  2

 70
     2
 71
     2
 72
     2
 73
     1
 90
        2
 40
-0.6
 41
30.0
 62
     5
 63
     7
 74
     0
 91
        0
 64
     7
 65
   257
 75
     1
175
     1
 42
1.0
 92
        0
 66
     7
 43
1.0
 76
     1
 77
     6
 78
     2
 67
     7
 79
     5
170
     0
171
     0
290
     0
174
     0
 93
       13
 44
0.0
173
     0
291
     1
 45
0.0
1001
ACAD
1000
AcDbSavedByObjectVersion
1070
     0
  0
VISUALSTYLE
  5
2D
102
{ACAD_XDICTIONARY
360
BF2
102
}
102
{ACAD_REACTORS
330
29
102
}
330
29
100
AcDbVisualStyle
  2

 70
     3
 71
     2
 72
     2
 73
     1
 90
        2
 40
-0.6
 41
30.0
 62
     5
 63
     7
 74
     1
 91
        0
 64
     7
 65
   257
 75
     1
175
     1
 42
1.0
 92
        0
 66
   257
 43
1.0
 76
     1
 77
     6
 78
     2
 67
     7
 79
     5
170
     0
171
     0
290
     0
174
     0
 93
       13
 44
0.0
173
     0
291
     1
 45
0.0
1001
ACAD
1000
AcDbSavedByObjectVersion
1070
     0
  0
VISUALSTYLE
  5
31
102
{ACAD_XDICTIONARY
360
BFA
102
}
102
{ACAD_REACTORS
330
29
102
}
330
29
100
AcDbVisualStyle
  2

 70
     6
 71
     1
 72
     2
 73
     2
 90
        0
 40
-0.6
 41
-30.0
 62
     5
 63
     7
 74
     2
 91
        2
 64
     7
 65
   257
 75
     2
175
     1
 42
40.0
 92
        0
 66
   257
 43
1.0
 76
     1
 77
     6
 78
     2
 67
     7
 79
     3
170
     0
171
     0
290
     0
174
     0
 93
        1
 44
0.0
173
     0
291
     0
 45
0.0
1001
ACAD
1000
AcDbSavedByObjectVersion
1070
     0
  0
VISUALSTYLE
  5
3F
102
{ACAD_XDICTIONARY
360
C16
102
}
102
{ACAD_REACTORS
330
29
102
}
330
29
100
AcDbVisualStyle
  2

 70
    20
 71
     2
 72
     2
 73
     0
 90
        0
 40
-0.6
 41
-30.0
 62
     5
 63
     7
 74
     1
 91
        4
 64
     7
 65
   257
 75
     1
175
     1
 42
1.0
 92
       10
 66
     7
 43
1.0
 76
     1
 77
     6
 78
     2
 67
     7
 79
     5
170
     0
171
     0
290
     0
174
     0
 93
        1
 44
0.0
173
     0
291
     1
 45
0.0
1001
ACAD
1000
AcDbSavedByObjectVersion
1070
     0
  0
VISUALSTYLE
  5
37
102
{ACAD_XDICTIONARY
360
C06
102
}
102
{ACAD_REACTORS
330
29
102
}
330
29
100
AcDbVisualStyle
  2

 70
    14
 71
     2
 72
     2
 73
     0
 90
        0
 40
-0.6
 41
-30.0
 62
     5
 63
     7
 74
     1
 91
        4
 64
     7
 65
   257
 75
     7
175
     7
 42
1.0
 92
        8
 66
     7
 43
1.0
 76
     1
 77
     6
 78
     2
 67
     7
 79
     5
170
     0
171
     0
290
     0
174
     0
 93
        1
 44
0.0
173
     0
291
     1
 45
0.0
1001
ACAD
1000
AcDbSavedByObjectVersion
1070
     0
  0
VISUALSTYLE
  5
40
102
{ACAD_XDICTIONARY
360
C18
102
}
102
{ACAD_REACTORS
330
29
102
}
330
29
100
AcDbVisualStyle
  2

 70
    21
 71
     2
 72
     2
 73
     0
 90
        0
 40
-0.6
 41
-30.0
 62
     5
 63
     7
 74
     1
 91
        4
 64
     7
 65
   257
 75
     1
175
     1
 42
1.0
 92
        9
 66
     7
 43
1.0
 76
     1
 77
     6
 78
     2
 67
     7
 79
     5
170
     0
171
     0
290
     0
174
     0
 93
        1
 44
0.0
173
     0
291
     1
 45
0.0
1001
ACAD
1000
AcDbSavedByObjectVersion
1070
     0
  0
VISUALSTYLE
  5
33
102
{ACAD_XDICTIONARY
360
BFE
102
}
102
{ACAD_REACTORS
330
29
102
}
330
29
100
AcDbVisualStyle
  2

 70
     8
 71
     2
 72
     3
 73
     0
 90
        2
 40
-0.6
 41
30.0
 62
     5
 63
     7
 74
     0
 91
        0
 64
     7
 65
   257
 75
     1
175
     1
 42
1.0
 92
        8
 66
   257
 43
1.0
 76
     1
 77
     6
 78
     2
 67
     7
 79
     3
170
     0
171
     0
290
     0
174
     0
 93
       13
 44
0.0
173
     0
291
     0
 45
0.0
1001
ACAD
1000
AcDbSavedByObjectVersion
1070
     0
  0
VISUALSTYLE
  5
3E
102
{ACAD_XDICTIONARY
360
C14
102
}
102
{ACAD_REACTORS
330
29
102
}
330
29
100
AcDbVisualStyle
  2

 70
    27
 71
     2
 72
     2
 73
     1
 90
        2
 40
-0.6
 41
30.0
 62
     5
 63
     7
 74
     0
 91
        4
 64
     7
 65
   257
 75
     1
175
     1
 42
1.0
 92
        8
 66
   257
 43
1.0
 76
     1
 77
     6
 78
     2
 67
     8
 79
     3
170
     0
171
     0
290
     0
174
     0
 93
        5
 44
0.0
173
     0
291
     0
 45
0.0
1001
ACAD
1000
AcDbSavedByObjectVersion
1070
     0
  0
VISUALSTYLE
  5
3D
102
{ACAD_XDICTIONARY
360
C12
102
}
102
{ACAD_REACTORS
330
29
102
}
330
29
100
AcDbVisualStyle
  2

 70
    26
 71
     2
 72
     2
 73
     1
 90
        2
 40
-0.6
 41
30.0
 62
     5
 63
     7
 74
     1
 91
       10
 64
     7
 65
   257
 75
     2
175
     1
 42
1.0
 92
        8
 66
   257
 43
1.0
 76
     1
 77
     6
 78
     2
 67
     7
 79
     3
170
     0
171
     0
290
     0
174
     0
 93
        5
 44
0.0
173
     0
291
     0
 45
0.0
1001
ACAD
1000
AcDbSavedByObjectVersion
1070
     0
  0
VISUALSTYLE
  5
3A
102
{ACAD_XDICTIONARY
360
C0C
102
}
102
{ACAD_REACTORS
330
29
102
}
330
29
100
AcDbVisualStyle
  2

 70
    23
 71
     2
 72
     2
 73
     3
 90
        0
 40
-0.6
 41
-30.0
 62
     5
 63
     7
 74
     2
 91
        2
 64
     7
 65
     7
 75
     1
175
     1
 42
40.0
 92
        8
 66
     7
 43
1.0
 76
     1
 77
     6
 78
     2
 67
     7
 79
     3
170
     0
171
     0
290
     0
174
     0
 93
        1
 44
0.0
173
     0
291
     0
 45
0.0
1001
ACAD
1000
AcDbSavedByObjectVersion
1070
     0
  0
VISUALSTYLE
  5
3B
102
{ACAD_XDICTIONARY
360
C0E
102
}
102
{ACAD_REACTORS
330
29
102
}
330
29
100
AcDbVisualStyle
  2

 70
    24
 71
     1
 72
     2
 73
     2
 90
        0
 40
-0.6
 41
-30.0
 62
     5
 63
     7
 74
     2
 91
        2
 64
     7
 65
     7
 75
     1
175
     1
 42
40.0
 92
       11
 66
     7
 43
1.0
 76
     1
 77
     6
 78
     2
 67
     7
 79
     6
170
     0
171
     0
290
     0
174
     0
 93
        1
 44
0.0
173
     0
291
     0
 45
0.0
1001
ACAD
1000
AcDbSavedByObjectVersion
1070
     0
  0
VISUALSTYLE
  5
36
102
{ACAD_XDICTIONARY
360
C04
102
}
102
{ACAD_REACTORS
330
29
102
}
330
29
100
AcDbVisualStyle
  2

 70
    13
 71
     2
 72
     2
 73
     0
 90
        0
 40
-0.6
 41
-30.0
 62
     5
 63
     7
 74
     1
 91
        4
 64
     7
 65
   257
 75
     1
175
     1
 42
1.0
 92
       12
 66
     7
 43
1.0
 76
     1
 77
     6
 78
     2
 67
     7
 79
     5
170
     0
171
     0
290
     0
174
     0
 93
        1
 44
0.0
173
     0
291
     1
 45
0.0
1001
ACAD
1000
AcDbSavedByObjectVersion
1070
     0
  0
VISUALSTYLE
  5
30
102
{ACAD_XDICTIONARY
360
BF8
102
}
102
{ACAD_REACTORS
330
29
102
}
330
29
100
AcDbVisualStyle
  2

 70
     5
 71
     0
 72
     2
 73
     0
 90
        0
 40
-0.6
 41
-30.0
 62
     5
 63
     7
 74
     1
 91
        4
 64
     7
 65
   257
 75
     1
175
     1
 42
1.0
 92
        0
 66
   257
 43
1.0
 76
     1
 77
     6
 78
     2
 67
     7
 79
     3
170
     0
171
     0
290
     0
174
     0
 93
        1
 44
0.0
173
     0
291
     0
 45
0.0
1001
ACAD
1000
AcDbSavedByObjectVersion
1070
     0
  0
VISUALSTYLE
  5
3C
102
{ACAD_XDICTIONARY
360
C10
102
}
102
{ACAD_REACTORS
330
29
102
}
330
29
100
AcDbVisualStyle
  2

 70
    25
 71
     2
 72
     2
 73
     1
 90
        1
 40
0.5
 41
-30.0
 62
     5
 63
     7
 74
     1
 91
        0
 64
     7
 65
   257
 75
     1
175
     1
 42
1.0
 92
        8
 66
     7
 43
1.0
 76
     1
 77
     6
 78
     2
 67
     7
 79
     3
170
     0
171
     0
290
     0
174
     0
 93
       13
 44
0.0
173
     0
291
     0
 45
0.0
1001
ACAD
1000
AcDbSavedByObjectVersion
1070
     0
  0
DICTIONARYVAR
  5
5AD
102
{ACAD_REACTORS
330
5AA
102
}
330
5AA
100
DictionaryVariables
280
     0
  1
1:1
  0
DICTIONARYVAR
  5
5AC
102
{ACAD_REACTORS
330
5AA
102
}
330
5AA
100
DictionaryVariables
280
     0
  1
STANDARD
  0
DICTIONARYVAR
  5
5AB
102
{ACAD_REACTORS
330
5AA
102
}
330
5AA
100
DictionaryVariables
280
     0
  1
STANDARD
  0
DICTIONARYVAR
  5
5B0
102
{ACAD_REACTORS
330
5AA
102
}
330
5AA
100
DictionaryVariables
280
     0
  1
1
  0
DICTIONARYVAR
  5
5AF
102
{ACAD_REACTORS
330
5AA
102
}
330
5AA
100
DictionaryVariables
280
     0
  1
0
  0
DICTIONARYVAR
  5
5AE
102
{ACAD_REACTORS
330
5AA
102
}
330
5AA
100
DictionaryVariables
280
     0
  1
127
  0
DICTIONARYVAR
  5
A3C
102
{ACAD_REACTORS
330
5AA
102
}
330
5AA
100
DictionaryVariables
280
     0
  1
2
  0
DICTIONARY
  5
C1F
330
6E
100
AcDbDictionary
280
     1
281
     1
  3
ACAD_XREC_ROUNDTRIP
360
C20
  0
DICTIONARY
  5
C1D
330
6A
100
AcDbDictionary
280
     1
281
     1
  3
ACAD_XREC_ROUNDTRIP
360
C1E
  0
DICTIONARY
  5
1A
330
19
100
AcDbDictionary
280
     1
281
     1
  3
ACAD_XREC_ROUNDTRIP
360
5B7
  3
BUMPTILE
360
1C
  3
DIFFUSETILE
360
1B
  3
OPACITYTILE
360
1F
  3
REFLECTIONTILE
360
1E
  3
REFRACTIONTILE
360
20
  3
SPECULARTILE
360
1D
  0
DICTIONARY
  5
12
330
11
100
AcDbDictionary
280
     1
281
     1
  3
ACAD_XREC_ROUNDTRIP
360
5B6
  3
BUMPTILE
360
14
  3
DIFFUSETILE
360
13
  3
OPACITYTILE
360
17
  3
REFLECTIONTILE
360
16
  3
REFRACTIONTILE
360
18
  3
SPECULARTILE
360
15
  0
DICTIONARY
  5
22
330
21
100
AcDbDictionary
280
     1
281
     1
  3
ACAD_XREC_ROUNDTRIP
360
5B8
  3
BUMPTILE
360
24
  3
DIFFUSETILE
360
23
  3
OPACITYTILE
360
27
  3
REFLECTIONTILE
360
26
  3
REFRACTIONTILE
360
28
  3
SPECULARTILE
360
25
  0
DICTIONARY
  5
5B2
330
64
100
AcDbDictionary
280
     1
281
     1
  3
ACAD_ROUNDTRIP_2008_TABLESTYLE_CELLSTYLEMAP
360
BE5
  3
ACAD_XREC_ROUNDTRIP
360
C1C
  0
DICTIONARY
  5
BF6
330
2F
100
AcDbDictionary
280
     1
281
     1
  3
ACAD_XREC_ROUNDTRIP
360
BF7
  0
DICTIONARY
  5
C21
330
431
100
AcDbDictionary
280
     1
281
     1
  3
ACAD_XREC_ROUNDTRIP
360
C22
  0
DICTIONARY
  5
BF4
330
2E
100
AcDbDictionary
280
     1
281
     1
  3
ACAD_XREC_ROUNDTRIP
360
BF5
  0
DICTIONARY
  5
C02
330
35
100
AcDbDictionary
280
     1
281
     1
  3
ACAD_XREC_ROUNDTRIP
360
C03
  0
DICTIONARY
  5
C0A
330
39
100
AcDbDictionary
280
     1
281
     1
  3
ACAD_XREC_ROUNDTRIP
360
C0B
  0
DICTIONARY
  5
BFC
330
32
100
AcDbDictionary
280
     1
281
     1
  3
ACAD_XREC_ROUNDTRIP
360
BFD
  0
DICTIONARY
  5
C00
330
34
100
AcDbDictionary
280
     1
281
     1
  3
ACAD_XREC_ROUNDTRIP
360
C01
  0
DICTIONARY
  5
C1A
330
41
100
AcDbDictionary
280
     1
281
     1
  3
ACAD_XREC_ROUNDTRIP
360
C1B
  0
DICTIONARY
  5
C08
330
38
100
AcDbDictionary
280
     1
281
     1
  3
ACAD_XREC_ROUNDTRIP
360
C09
  0
DICTIONARY
  5
BEC
330
2A
100
AcDbDictionary
280
     1
281
     1
  3
ACAD_XREC_ROUNDTRIP
360
BED
  0
DICTIONARY
  5
BEE
330
2B
100
AcDbDictionary
280
     1
281
     1
  3
ACAD_XREC_ROUNDTRIP
360
BEF
  0
DICTIONARY
  5
BF0
330
2C
100
AcDbDictionary
280
     1
281
     1
  3
ACAD_XREC_ROUNDTRIP
360
BF1
  0
DICTIONARY
  5
BF2
330
2D
100
AcDbDictionary
280
     1
281
     1
  3
ACAD_XREC_ROUNDTRIP
360
BF3
  0
DICTIONARY
  5
BFA
330
31
100
AcDbDictionary
280
     1
281
     1
  3
ACAD_XREC_ROUNDTRIP
360
BFB
  0
DICTIONARY
  5
C16
330
3F
100
AcDbDictionary
280
     1
281
     1
  3
ACAD_XREC_ROUNDTRIP
360
C17
  0
DICTIONARY
  5
C06
330
37
100
AcDbDictionary
280
     1
281
     1
  3
ACAD_XREC_ROUNDTRIP
360
C07
  0
DICTIONARY
  5
C18
330
40
100
AcDbDictionary
280
     1
281
     1
  3
ACAD_XREC_ROUNDTRIP
360
C19
  0
DICTIONARY
  5
BFE
330
33
100
AcDbDictionary
280
     1
281
     1
  3
ACAD_XREC_ROUNDTRIP
360
BFF
  0
DICTIONARY
  5
C14
330
3E
100
AcDbDictionary
280
     1
281
     1
  3
ACAD_XREC_ROUNDTRIP
360
C15
  0
DICTIONARY
  5
C12
330
3D
100
AcDbDictionary
280
     1
281
     1
  3
ACAD_XREC_ROUNDTRIP
360
C13
  0
DICTIONARY
  5
C0C
330
3A
100
AcDbDictionary
280
     1
281
     1
  3
ACAD_XREC_ROUNDTRIP
360
C0D
  0
DICTIONARY
  5
C0E
330
3B
100
AcDbDictionary
280
     1
281
     1
  3
ACAD_XREC_ROUNDTRIP
360
C0F
  0
DICTIONARY
  5
C04
330
36
100
AcDbDictionary
280
     1
281
     1
  3
ACAD_XREC_ROUNDTRIP
360
C05
  0
DICTIONARY
  5
BF8
330
30
100
AcDbDictionary
280
     1
281
     1
  3
ACAD_XREC_ROUNDTRIP
360
BF9
  0
DICTIONARY
  5
C10
330
3C
100
AcDbDictionary
280
     1
281
     1
  3
ACAD_XREC_ROUNDTRIP
360
C11
  0
XRECORD
  5
C20
102
{ACAD_REACTORS
330
C1F
102
}
330
C1F
100
AcDbXrecord
280
     1
102
SHADEPLOT
 70
     0
102
SHADEPLOTRESLEVEL
 70
     2
102
SHADEPLOTCUSTOMDPI
 70
   300
  0
XRECORD
  5
C1E
102
{ACAD_REACTORS
330
C1D
102
}
330
C1D
100
AcDbXrecord
280
     1
102
SHADEPLOT
 70
     0
102
SHADEPLOTRESLEVEL
 70
     2
102
SHADEPLOTCUSTOMDPI
 70
   300
  0
XRECORD
  5
5B7
102
{ACAD_REACTORS
330
1A
102
}
330
1A
100
AcDbXrecord
280
     1
102
MATERIAL
148
0.0
149
0.0
149
0.0
 93
        0
 94
      127
282
     0
 72
     0
 77
     0
171
     0
175
     0
179
     0
273
     0
  0
XRECORD
  5
1C
102
{ACAD_REACTORS
330
1A
102
}
330
1A
100
AcDbXrecord
280
     1
270
     1
271
     1
  0
XRECORD
  5
1B
102
{ACAD_REACTORS
330
1A
102
}
330
1A
100
AcDbXrecord
280
     1
270
     1
271
     1
  0
XRECORD
  5
1F
102
{ACAD_REACTORS
330
1A
102
}
330
1A
100
AcDbXrecord
280
     1
270
     1
271
     1
  0
XRECORD
  5
1E
102
{ACAD_REACTORS
330
1A
102
}
330
1A
100
AcDbXrecord
280
     1
270
     1
271
     1
  0
XRECORD
  5
20
102
{ACAD_REACTORS
330
1A
102
}
330
1A
100
AcDbXrecord
280
     1
270
     1
271
     1
  0
XRECORD
  5
1D
102
{ACAD_REACTORS
330
1A
102
}
330
1A
100
AcDbXrecord
280
     1
270
     1
271
     1
  0
XRECORD
  5
5B6
102
{ACAD_REACTORS
330
12
102
}
330
12
100
AcDbXrecord
280
     1
102
MATERIAL
148
0.0
149
0.0
149
0.0
 93
        0
 94
      127
282
     0
 72
     0
 77
     0
171
     0
175
     0
179
     0
273
     0
  0
XRECORD
  5
14
102
{ACAD_REACTORS
330
12
102
}
330
12
100
AcDbXrecord
280
     1
270
     1
271
     1
  0
XRECORD
  5
13
102
{ACAD_REACTORS
330
12
102
}
330
12
100
AcDbXrecord
280
     1
270
     1
271
     1
  0
XRECORD
  5
17
102
{ACAD_REACTORS
330
12
102
}
330
12
100
AcDbXrecord
280
     1
270
     1
271
     1
  0
XRECORD
  5
16
102
{ACAD_REACTORS
330
12
102
}
330
12
100
AcDbXrecord
280
     1
270
     1
271
     1
  0
XRECORD
  5
18
102
{ACAD_REACTORS
330
12
102
}
330
12
100
AcDbXrecord
280
     1
270
     1
271
     1
  0
XRECORD
  5
15
102
{ACAD_REACTORS
330
12
102
}
330
12
100
AcDbXrecord
280
     1
270
     1
271
     1
  0
XRECORD
  5
5B8
102
{ACAD_REACTORS
330
22
102
}
330
22
100
AcDbXrecord
280
     1
102
MATERIAL
148
0.0
149
0.0
149
0.0
 93
        0
 94
      127
282
     0
 72
     0
 77
     0
171
     0
175
     0
179
     0
273
     0
  0
XRECORD
  5
24
102
{ACAD_REACTORS
330
22
102
}
330
22
100
AcDbXrecord
280
     1
270
     1
271
     1
  0
XRECORD
  5
23
102
{ACAD_REACTORS
330
22
102
}
330
22
100
AcDbXrecord
280
     1
270
     1
271
     1
  0
XRECORD
  5
27
102
{ACAD_REACTORS
330
22
102
}
330
22
100
AcDbXrecord
280
     1
270
     1
271
     1
  0
XRECORD
  5
26
102
{ACAD_REACTORS
330
22
102
}
330
22
100
AcDbXrecord
280
     1
270
     1
271
     1
  0
XRECORD
  5
28
102
{ACAD_REACTORS
330
22
102
}
330
22
100
AcDbXrecord
280
     1
270
     1
271
     1
  0
XRECORD
  5
25
102
{ACAD_REACTORS
330
22
102
}
330
22
100
AcDbXrecord
280
     1
270
     1
271
     1
  0
CELLSTYLEMAP
  5
BE5
102
{ACAD_REACTORS
330
5B2
102
}
330
5B2
100
AcDbCellStyleMap
 90
        3
300
CELLSTYLE
  1
TABLEFORMAT_BEGIN
 90
        5
170
     1
 91
        0
 92
    32768
 62
   257
 93
        1
300
CONTENTFORMAT
  1
CONTENTFORMAT_BEGIN
 90
        0
 91
        0
 92
      512
 93
        0
300

 40
0.0
140
1.0
 94
        5
 62
     0
340
55
144
0.25
309
CONTENTFORMAT_END
171
     1
301
MARGIN
  1
CELLMARGIN_BEGIN
 40
0.06
 40
0.06
 40
0.06
 40
0.06
 40
0.18
 40
0.18
309
CELLMARGIN_END
 94
        6
 95
        1
302
GRIDFORMAT
  1
GRIDFORMAT_BEGIN
 90
        0
 91
        1
 62
     0
 92
       -2
340
0
 93
        0
 40
0.045
309
GRIDFORMAT_END
 95
        2
302
GRIDFORMAT
  1
GRIDFORMAT_BEGIN
 90
        0
 91
        1
 62
     0
 92
       -2
340
0
 93
        0
 40
0.045
309
GRIDFORMAT_END
 95
        4
302
GRIDFORMAT
  1
GRIDFORMAT_BEGIN
 90
        0
 91
        1
 62
     0
 92
       -2
340
0
 93
        0
 40
0.045
309
GRIDFORMAT_END
 95
        8
302
GRIDFORMAT
  1
GRIDFORMAT_BEGIN
 90
        0
 91
        1
 62
     0
 92
       -2
340
0
 93
        0
 40
0.045
309
GRIDFORMAT_END
 95
       16
302
GRIDFORMAT
  1
GRIDFORMAT_BEGIN
 90
        0
 91
        1
 62
     0
 92
       -2
340
0
 93
        0
 40
0.045
309
GRIDFORMAT_END
 95
       32
302
GRIDFORMAT
  1
GRIDFORMAT_BEGIN
 90
        0
 91
        1
 62
     0
 92
       -2
340
0
 93
        0
 40
0.045
309
GRIDFORMAT_END
309
TABLEFORMAT_END
  1
CELLSTYLE_BEGIN
 90
        1
 91
        1
300
_TITLE
309
CELLSTYLE_END
300
CELLSTYLE
  1
TABLEFORMAT_BEGIN
 90
        5
170
     1
 91
        0
 92
        0
 62
   257
 93
        1
300
CONTENTFORMAT
  1
CONTENTFORMAT_BEGIN
 90
        0
 91
        0
 92
      512
 93
        0
300

 40
0.0
140
1.0
 94
        5
 62
     0
340
55
144
0.18
309
CONTENTFORMAT_END
171
     1
301
MARGIN
  1
CELLMARGIN_BEGIN
 40
0.06
 40
0.06
 40
0.06
 40
0.06
 40
0.18
 40
0.18
309
CELLMARGIN_END
 94
        6
 95
        1
302
GRIDFORMAT
  1
GRIDFORMAT_BEGIN
 90
        0
 91
        1
 62
     0
 92
       -2
340
0
 93
        0
 40
0.045
309
GRIDFORMAT_END
 95
        2
302
GRIDFORMAT
  1
GRIDFORMAT_BEGIN
 90
        0
 91
        1
 62
     0
 92
       -2
340
0
 93
        0
 40
0.045
309
GRIDFORMAT_END
 95
        4
302
GRIDFORMAT
  1
GRIDFORMAT_BEGIN
 90
        0
 91
        1
 62
     0
 92
       -2
340
0
 93
        0
 40
0.045
309
GRIDFORMAT_END
 95
        8
302
GRIDFORMAT
  1
GRIDFORMAT_BEGIN
 90
        0
 91
        1
 62
     0
 92
       -2
340
0
 93
        0
 40
0.045
309
GRIDFORMAT_END
 95
       16
302
GRIDFORMAT
  1
GRIDFORMAT_BEGIN
 90
        0
 91
        1
 62
     0
 92
       -2
340
0
 93
        0
 40
0.045
309
GRIDFORMAT_END
 95
       32
302
GRIDFORMAT
  1
GRIDFORMAT_BEGIN
 90
        0
 91
        1
 62
     0
 92
       -2
340
0
 93
        0
 40
0.045
309
GRIDFORMAT_END
309
TABLEFORMAT_END
  1
CELLSTYLE_BEGIN
 90
        2
 91
        1
300
_HEADER
309
CELLSTYLE_END
300
CELLSTYLE
  1
TABLEFORMAT_BEGIN
 90
        5
170
     1
 91
        0
 92
        0
 62
   257
 93
        1
300
CONTENTFORMAT
  1
CONTENTFORMAT_BEGIN
 90
        0
 91
        0
 92
      512
 93
        0
300

 40
0.0
140
1.0
 94
        2
 62
     0
340
55
144
0.18
309
CONTENTFORMAT_END
171
     1
301
MARGIN
  1
CELLMARGIN_BEGIN
 40
0.06
 40
0.06
 40
0.06
 40
0.06
 40
0.18
 40
0.18
309
CELLMARGIN_END
 94
        6
 95
        1
302
GRIDFORMAT
  1
GRIDFORMAT_BEGIN
 90
        0
 91
        1
 62
     0
 92
       -2
340
0
 93
        0
 40
0.045
309
GRIDFORMAT_END
 95
        2
302
GRIDFORMAT
  1
GRIDFORMAT_BEGIN
 90
        0
 91
        1
 62
     0
 92
       -2
340
0
 93
        0
 40
0.045
309
GRIDFORMAT_END
 95
        4
302
GRIDFORMAT
  1
GRIDFORMAT_BEGIN
 90
        0
 91
        1
 62
     0
 92
       -2
340
0
 93
        0
 40
0.045
309
GRIDFORMAT_END
 95
        8
302
GRIDFORMAT
  1
GRIDFORMAT_BEGIN
 90
        0
 91
        1
 62
     0
 92
       -2
340
0
 93
        0
 40
0.045
309
GRIDFORMAT_END
 95
       16
302
GRIDFORMAT
  1
GRIDFORMAT_BEGIN
 90
        0
 91
        1
 62
     0
 92
       -2
340
0
 93
        0
 40
0.045
309
GRIDFORMAT_END
 95
       32
302
GRIDFORMAT
  1
GRIDFORMAT_BEGIN
 90
        0
 91
        1
 62
     0
 92
       -2
340
0
 93
        0
 40
0.045
309
GRIDFORMAT_END
309
TABLEFORMAT_END
  1
CELLSTYLE_BEGIN
 90
        3
 91
        2
300
_DATA
309
CELLSTYLE_END
  0
XRECORD
  5
C1C
102
{ACAD_REACTORS
330
5B2
102
}
330
5B2
100
AcDbXrecord
280
     1
102
ACAD_ROUNDTRIP_PRE2007_TABLESTYLE
 90
      512
 91
        0
  1

 92
      512
 93
        0
  2

 94
      512
 95
        0
  3

  0
XRECORD
  5
BF7
102
{ACAD_REACTORS
330
BF6
102
}
330
BF6
100
AcDbXrecord
280
     1
102
RTVSPropertyOp0
 70
     1
102
RTVSPropertyOp1
 70
     1
102
RTVSPropertyOp2
 70
     1
102
RTVSPropertyOp3
 70
     1
102
RTVSPropertyOp4
 70
     1
102
RTVSPropertyOp5
 70
     1
102
RTVSPropertyOp6
 70
     1
102
RTVSPropertyOp7
 70
     1
102
RTVSPropertyOp8
 70
     1
102
RTVSPropertyOp9
 70
     1
102
RTVSPropertyOp10
 70
     1
102
RTVSPropertyOp11
 70
     1
102
RTVSPropertyOp12
 70
     1
102
RTVSPropertyOp13
 70
     1
102
RTVSPropertyOp14
 70
     1
102
RTVSPropertyOp15
 70
     1
102
RTVSPropertyOp16
 70
     1
102
RTVSPropertyOp17
 70
     1
102
RTVSPropertyOp18
 70
     1
102
RTVSPropertyOp19
 70
     1
102
RTVSPropertyOp20
 70
     1
102
RTVSPropertyOp21
 70
     1
102
RTVSPropertyOp22
 70
     1
102
RTVSPropertyOp23
 70
     1
102
RTVSPropertyOp24
 70
     1
102
RTVSPropertyOp25
 70
     1
102
RTVSPropertyOp26
 70
     1
102
RTVSPropertyOp27
 70
     1
102
RTVSPropertyOp28
 70
     1
102
RTVSPropertyOp29
 70
     1
102
RTVSPropertyOp30
 70
     1
102
RTVSPropertyOp31
 70
     1
102
RTVSPropertyOp32
 70
     1
  0
XRECORD
  5
C22
102
{ACAD_REACTORS
330
C21
102
}
330
C21
100
AcDbXrecord
280
     1
102
RTVSPropertyOp0
 70
     1
102
RTVSPropertyOp1
 70
     1
102
RTVSPropertyOp2
 70
     1
102
RTVSPropertyOp3
 70
     1
102
RTVSPropertyOp4
 70
     1
102
RTVSPropertyOp5
 70
     1
102
RTVSPropertyOp6
 70
     1
102
RTVSPropertyOp7
 70
     1
102
RTVSPropertyOp8
 70
     1
102
RTVSPropertyOp9
 70
     1
102
RTVSPropertyOp10
 70
     1
102
RTVSPropertyOp11
 70
     1
102
RTVSPropertyOp12
 70
     1
102
RTVSPropertyOp13
 70
     1
102
RTVSPropertyOp14
 70
     1
102
RTVSPropertyOp15
 70
     1
102
RTVSPropertyOp16
 70
     1
102
RTVSPropertyOp17
 70
     1
102
RTVSPropertyOp18
 70
     1
102
RTVSPropertyOp19
 70
     1
102
RTVSPropertyOp20
 70
     1
102
RTVSPropertyOp21
 70
     1
102
RTVSPropertyOp22
 70
     1
102
RTVSPropertyOp23
 70
     1
102
RTVSPropertyOp24
 70
     1
102
RTVSPropertyOp25
 70
     1
102
RTVSPropertyOp26
 70
     1
102
RTVSPropertyOp27
 70
     1
102
RTVSPropertyOp28
 70
     1
102
RTVSPropertyOp29
 70
     1
102
RTVSPropertyOp30
 70
     1
102
RTVSPropertyOp31
 70
     1
102
RTVSPropertyOp32
 70
     1
  0
XRECORD
  5
BF5
102
{ACAD_REACTORS
330
BF4
102
}
330
BF4
100
AcDbXrecord
280
     1
102
RTVSPropertyOp0
 70
     1
102
RTVSPropertyOp1
 70
     1
102
RTVSPropertyOp2
 70
     1
102
RTVSPropertyOp3
 70
     1
102
RTVSPropertyOp4
 70
     1
102
RTVSPropertyOp5
 70
     1
102
RTVSPropertyOp6
 70
     1
102
RTVSPropertyOp7
 70
     1
102
RTVSPropertyOp8
 70
     1
102
RTVSPropertyOp9
 70
     1
102
RTVSPropertyOp10
 70
     1
102
RTVSPropertyOp11
 70
     1
102
RTVSPropertyOp12
 70
     1
102
RTVSPropertyOp13
 70
     1
102
RTVSPropertyOp14
 70
     1
102
RTVSPropertyOp15
 70
     1
102
RTVSPropertyOp16
 70
     1
102
RTVSPropertyOp17
 70
     1
102
RTVSPropertyOp18
 70
     1
102
RTVSPropertyOp19
 70
     1
102
RTVSPropertyOp20
 70
     1
102
RTVSPropertyOp21
 70
     1
102
RTVSPropertyOp22
 70
     1
102
RTVSPropertyOp23
 70
     1
102
RTVSPropertyOp24
 70
     1
102
RTVSPropertyOp25
 70
     1
102
RTVSPropertyOp26
 70
     1
102
RTVSPropertyOp27
 70
     1
102
RTVSPropertyOp28
 70
     1
102
RTVSPropertyOp29
 70
     1
102
RTVSPropertyOp30
 70
     1
102
RTVSPropertyOp31
 70
     1
102
RTVSPropertyOp32
 70
     1
  0
XRECORD
  5
C03
102
{ACAD_REACTORS
330
C02
102
}
330
C02
100
AcDbXrecord
280
     1
102
RTVSPropertyOp0
 70
     1
102
RTVSPropertyOp1
 70
     1
102
RTVSPropertyOp2
 70
     1
102
RTVSPropertyOp3
 70
     1
102
RTVSPropertyOp4
 70
     1
102
RTVSPropertyOp5
 70
     1
102
RTVSPropertyOp6
 70
     1
102
RTVSPropertyOp7
 70
     1
102
RTVSPropertyOp8
 70
     1
102
RTVSPropertyOp9
 70
     1
102
RTVSPropertyOp10
 70
     1
102
RTVSPropertyOp11
 70
     1
102
RTVSPropertyOp12
 70
     1
102
RTVSPropertyOp13
 70
     1
102
RTVSPropertyOp14
 70
     1
102
RTVSPropertyOp15
 70
     1
102
RTVSPropertyOp16
 70
     1
102
RTVSPropertyOp17
 70
     1
102
RTVSPropertyOp18
 70
     1
102
RTVSPropertyOp19
 70
     1
102
RTVSPropertyOp20
 70
     1
102
RTVSPropertyOp21
 70
     1
102
RTVSPropertyOp22
 70
     1
102
RTVSPropertyOp23
 70
     1
102
RTVSPropertyOp24
 70
     1
102
RTVSPropertyOp25
 70
     1
102
RTVSPropertyOp26
 70
     1
102
RTVSPropertyOp27
 70
     1
102
RTVSPropertyOp28
 70
     1
102
RTVSPropertyOp29
 70
     1
102
RTVSPropertyOp30
 70
     1
102
RTVSPropertyOp31
 70
     1
102
RTVSPropertyOp32
 70
     1
  0
XRECORD
  5
C0B
102
{ACAD_REACTORS
330
C0A
102
}
330
C0A
100
AcDbXrecord
280
     1
102
RTVSPropertyOp0
 70
     1
102
RTVSPropertyOp1
 70
     1
102
RTVSPropertyOp2
 70
     1
102
RTVSPropertyOp3
 70
     1
102
RTVSPropertyOp4
 70
     1
102
RTVSPropertyOp5
 70
     1
102
RTVSPropertyOp6
 70
     1
102
RTVSPropertyOp7
 70
     1
102
RTVSPropertyOp8
 70
     1
102
RTVSPropertyOp9
 70
     1
102
RTVSPropertyOp10
 70
     1
102
RTVSPropertyOp11
 70
     1
102
RTVSPropertyOp12
 70
     1
102
RTVSPropertyOp13
 70
     1
102
RTVSPropertyOp14
 70
     1
102
RTVSPropertyOp15
 70
     1
102
RTVSPropertyOp16
 70
     1
102
RTVSPropertyOp17
 70
     1
102
RTVSPropertyOp18
 70
     1
102
RTVSPropertyOp19
 70
     1
102
RTVSPropertyOp20
 70
     1
102
RTVSPropertyOp21
 70
     1
102
RTVSPropertyOp22
 70
     1
102
RTVSPropertyOp23
 70
     1
102
RTVSPropertyOp24
 70
     1
102
RTVSPropertyOp25
 70
     1
102
RTVSPropertyOp26
 70
     1
102
RTVSPropertyOp27
 70
     1
102
RTVSPropertyOp28
 70
     1
102
RTVSPropertyOp29
 70
     1
102
RTVSPropertyOp30
 70
     1
102
RTVSPropertyOp31
 70
     1
102
RTVSPropertyOp32
 70
     1
  0
XRECORD
  5
BFD
102
{ACAD_REACTORS
330
BFC
102
}
330
BFC
100
AcDbXrecord
280
     1
102
RTVSPropertyOp0
 70
     1
102
RTVSPropertyOp1
 70
     1
102
RTVSPropertyOp2
 70
     1
102
RTVSPropertyOp3
 70
     1
102
RTVSPropertyOp4
 70
     1
102
RTVSPropertyOp5
 70
     1
102
RTVSPropertyOp6
 70
     1
102
RTVSPropertyOp7
 70
     1
102
RTVSPropertyOp8
 70
     1
102
RTVSPropertyOp9
 70
     1
102
RTVSPropertyOp10
 70
     1
102
RTVSPropertyOp11
 70
     1
102
RTVSPropertyOp12
 70
     1
102
RTVSPropertyOp13
 70
     1
102
RTVSPropertyOp14
 70
     1
102
RTVSPropertyOp15
 70
     1
102
RTVSPropertyOp16
 70
     1
102
RTVSPropertyOp17
 70
     1
102
RTVSPropertyOp18
 70
     1
102
RTVSPropertyOp19
 70
     1
102
RTVSPropertyOp20
 70
     1
102
RTVSPropertyOp21
 70
     1
102
RTVSPropertyOp22
 70
     1
102
RTVSPropertyOp23
 70
     1
102
RTVSPropertyOp24
 70
     1
102
RTVSPropertyOp25
 70
     1
102
RTVSPropertyOp26
 70
     1
102
RTVSPropertyOp27
 70
     1
102
RTVSPropertyOp28
 70
     1
102
RTVSPropertyOp29
 70
     1
102
RTVSPropertyOp30
 70
     1
102
RTVSPropertyOp31
 70
     1
102
RTVSPropertyOp32
 70
     1
  0
XRECORD
  5
C01
102
{ACAD_REACTORS
330
C00
102
}
330
C00
100
AcDbXrecord
280
     1
102
RTVSPropertyOp0
 70
     1
102
RTVSPropertyOp1
 70
     1
102
RTVSPropertyOp2
 70
     1
102
RTVSPropertyOp3
 70
     1
102
RTVSPropertyOp4
 70
     1
102
RTVSPropertyOp5
 70
     1
102
RTVSPropertyOp6
 70
     1
102
RTVSPropertyOp7
 70
     1
102
RTVSPropertyOp8
 70
     1
102
RTVSPropertyOp9
 70
     1
102
RTVSPropertyOp10
 70
     1
102
RTVSPropertyOp11
 70
     1
102
RTVSPropertyOp12
 70
     1
102
RTVSPropertyOp13
 70
     1
102
RTVSPropertyOp14
 70
     1
102
RTVSPropertyOp15
 70
     1
102
RTVSPropertyOp16
 70
     1
102
RTVSPropertyOp17
 70
     1
102
RTVSPropertyOp18
 70
     1
102
RTVSPropertyOp19
 70
     1
102
RTVSPropertyOp20
 70
     1
102
RTVSPropertyOp21
 70
     1
102
RTVSPropertyOp22
 70
     1
102
RTVSPropertyOp23
 70
     1
102
RTVSPropertyOp24
 70
     1
102
RTVSPropertyOp25
 70
     1
102
RTVSPropertyOp26
 70
     1
102
RTVSPropertyOp27
 70
     1
102
RTVSPropertyOp28
 70
     1
102
RTVSPropertyOp29
 70
     1
102
RTVSPropertyOp30
 70
     1
102
RTVSPropertyOp31
 70
     1
102
RTVSPropertyOp32
 70
     1
  0
XRECORD
  5
C1B
102
{ACAD_REACTORS
330
C1A
102
}
330
C1A
100
AcDbXrecord
280
     1
102
RTVSPropertyOp0
 70
     0
102
RTVSPropertyOp1
 70
     0
102
RTVSPropertyOp2
 70
     0
102
RTVSPropertyOp3
 70
     0
102
RTVSPropertyOp4
 70
     0
102
RTVSPropertyOp5
 70
     0
102
RTVSPropertyOp6
 70
     0
102
RTVSPropertyOp7
 70
     0
102
RTVSPropertyOp8
 70
     0
102
RTVSPropertyOp9
 70
     0
102
RTVSPropertyOp10
 70
     0
102
RTVSPropertyOp11
 70
     0
102
RTVSPropertyOp12
 70
     0
102
RTVSPropertyOp13
 70
     0
102
RTVSPropertyOp14
 70
     2
102
RTVSPropertyOp15
 70
     0
102
RTVSPropertyOp16
 70
     0
102
RTVSPropertyOp17
 70
     0
102
RTVSPropertyOp18
 70
     0
102
RTVSPropertyOp19
 70
     0
102
RTVSPropertyOp20
 70
     0
102
RTVSPropertyOp21
 70
     0
102
RTVSPropertyOp22
 70
     0
102
RTVSPropertyOp23
 70
     0
102
RTVSPropertyOp24
 70
     0
102
RTVSPropertyOp25
 70
     0
102
RTVSPropertyOp26
 70
     0
102
RTVSPropertyOp27
 70
     0
102
RTVSPropertyOp28
 70
     0
102
RTVSPropertyOp29
 70
     0
102
RTVSPropertyOp30
 70
     0
102
RTVSPropertyOp31
 70
     0
102
RTVSPropertyOp32
 70
     0
  0
XRECORD
  5
C09
102
{ACAD_REACTORS
330
C08
102
}
330
C08
100
AcDbXrecord
280
     1
102
RTVSPropertyOp0
 70
     1
102
RTVSPropertyOp1
 70
     1
102
RTVSPropertyOp2
 70
     1
102
RTVSPropertyOp3
 70
     1
102
RTVSPropertyOp4
 70
     1
102
RTVSPropertyOp5
 70
     1
102
RTVSPropertyOp6
 70
     1
102
RTVSPropertyOp7
 70
     1
102
RTVSPropertyOp8
 70
     1
102
RTVSPropertyOp9
 70
     1
102
RTVSPropertyOp10
 70
     1
102
RTVSPropertyOp11
 70
     1
102
RTVSPropertyOp12
 70
     1
102
RTVSPropertyOp13
 70
     1
102
RTVSPropertyOp14
 70
     1
102
RTVSPropertyOp15
 70
     1
102
RTVSPropertyOp16
 70
     1
102
RTVSPropertyOp17
 70
     1
102
RTVSPropertyOp18
 70
     1
102
RTVSPropertyOp19
 70
     1
102
RTVSPropertyOp20
 70
     1
102
RTVSPropertyOp21
 70
     1
102
RTVSPropertyOp22
 70
     1
102
RTVSPropertyOp23
 70
     1
102
RTVSPropertyOp24
 70
     1
102
RTVSPropertyOp25
 70
     1
102
RTVSPropertyOp26
 70
     1
102
RTVSPropertyOp27
 70
     1
102
RTVSPropertyOp28
 70
     1
102
RTVSPropertyOp29
 70
     1
102
RTVSPropertyOp30
 70
     1
102
RTVSPropertyOp31
 70
     1
102
RTVSPropertyOp32
 70
     1
  0
XRECORD
  5
BED
102
{ACAD_REACTORS
330
BEC
102
}
330
BEC
100
AcDbXrecord
280
     1
102
RTVSPropertyOp0
 70
     1
102
RTVSPropertyOp1
 70
     1
102
RTVSPropertyOp2
 70
     1
102
RTVSPropertyOp3
 70
     1
102
RTVSPropertyOp4
 70
     1
102
RTVSPropertyOp5
 70
     1
102
RTVSPropertyOp6
 70
     1
102
RTVSPropertyOp7
 70
     1
102
RTVSPropertyOp8
 70
     1
102
RTVSPropertyOp9
 70
     1
102
RTVSPropertyOp10
 70
     1
102
RTVSPropertyOp11
 70
     1
102
RTVSPropertyOp12
 70
     1
102
RTVSPropertyOp13
 70
     1
102
RTVSPropertyOp14
 70
     1
102
RTVSPropertyOp15
 70
     1
102
RTVSPropertyOp16
 70
     1
102
RTVSPropertyOp17
 70
     1
102
RTVSPropertyOp18
 70
     1
102
RTVSPropertyOp19
 70
     1
102
RTVSPropertyOp20
 70
     1
102
RTVSPropertyOp21
 70
     1
102
RTVSPropertyOp22
 70
     1
102
RTVSPropertyOp23
 70
     1
102
RTVSPropertyOp24
 70
     1
102
RTVSPropertyOp25
 70
     1
102
RTVSPropertyOp26
 70
     1
102
RTVSPropertyOp27
 70
     1
102
RTVSPropertyOp28
 70
     1
102
RTVSPropertyOp29
 70
     1
102
RTVSPropertyOp30
 70
     1
102
RTVSPropertyOp31
 70
     1
102
RTVSPropertyOp32
 70
     1
  0
XRECORD
  5
BEF
102
{ACAD_REACTORS
330
BEE
102
}
330
BEE
100
AcDbXrecord
280
     1
102
RTVSPropertyOp0
 70
     1
102
RTVSPropertyOp1
 70
     1
102
RTVSPropertyOp2
 70
     1
102
RTVSPropertyOp3
 70
     1
102
RTVSPropertyOp4
 70
     1
102
RTVSPropertyOp5
 70
     1
102
RTVSPropertyOp6
 70
     1
102
RTVSPropertyOp7
 70
     1
102
RTVSPropertyOp8
 70
     1
102
RTVSPropertyOp9
 70
     1
102
RTVSPropertyOp10
 70
     1
102
RTVSPropertyOp11
 70
     1
102
RTVSPropertyOp12
 70
     1
102
RTVSPropertyOp13
 70
     1
102
RTVSPropertyOp14
 70
     1
102
RTVSPropertyOp15
 70
     1
102
RTVSPropertyOp16
 70
     1
102
RTVSPropertyOp17
 70
     1
102
RTVSPropertyOp18
 70
     1
102
RTVSPropertyOp19
 70
     1
102
RTVSPropertyOp20
 70
     1
102
RTVSPropertyOp21
 70
     1
102
RTVSPropertyOp22
 70
     1
102
RTVSPropertyOp23
 70
     1
102
RTVSPropertyOp24
 70
     1
102
RTVSPropertyOp25
 70
     1
102
RTVSPropertyOp26
 70
     1
102
RTVSPropertyOp27
 70
     1
102
RTVSPropertyOp28
 70
     1
102
RTVSPropertyOp29
 70
     1
102
RTVSPropertyOp30
 70
     1
102
RTVSPropertyOp31
 70
     1
102
RTVSPropertyOp32
 70
     1
  0
XRECORD
  5
BF1
102
{ACAD_REACTORS
330
BF0
102
}
330
BF0
100
AcDbXrecord
280
     1
102
RTVSPropertyOp0
 70
     1
102
RTVSPropertyOp1
 70
     1
102
RTVSPropertyOp2
 70
     1
102
RTVSPropertyOp3
 70
     1
102
RTVSPropertyOp4
 70
     1
102
RTVSPropertyOp5
 70
     1
102
RTVSPropertyOp6
 70
     1
102
RTVSPropertyOp7
 70
     1
102
RTVSPropertyOp8
 70
     1
102
RTVSPropertyOp9
 70
     1
102
RTVSPropertyOp10
 70
     1
102
RTVSPropertyOp11
 70
     1
102
RTVSPropertyOp12
 70
     1
102
RTVSPropertyOp13
 70
     1
102
RTVSPropertyOp14
 70
     1
102
RTVSPropertyOp15
 70
     1
102
RTVSPropertyOp16
 70
     1
102
RTVSPropertyOp17
 70
     1
102
RTVSPropertyOp18
 70
     1
102
RTVSPropertyOp19
 70
     1
102
RTVSPropertyOp20
 70
     1
102
RTVSPropertyOp21
 70
     1
102
RTVSPropertyOp22
 70
     1
102
RTVSPropertyOp23
 70
     1
102
RTVSPropertyOp24
 70
     1
102
RTVSPropertyOp25
 70
     1
102
RTVSPropertyOp26
 70
     1
102
RTVSPropertyOp27
 70
     1
102
RTVSPropertyOp28
 70
     1
102
RTVSPropertyOp29
 70
     1
102
RTVSPropertyOp30
 70
     1
102
RTVSPropertyOp31
 70
     1
102
RTVSPropertyOp32
 70
     1
  0
XRECORD
  5
BF3
102
{ACAD_REACTORS
330
BF2
102
}
330
BF2
100
AcDbXrecord
280
     1
102
RTVSPropertyOp0
 70
     1
102
RTVSPropertyOp1
 70
     1
102
RTVSPropertyOp2
 70
     1
102
RTVSPropertyOp3
 70
     1
102
RTVSPropertyOp4
 70
     1
102
RTVSPropertyOp5
 70
     1
102
RTVSPropertyOp6
 70
     1
102
RTVSPropertyOp7
 70
     1
102
RTVSPropertyOp8
 70
     1
102
RTVSPropertyOp9
 70
     1
102
RTVSPropertyOp10
 70
     1
102
RTVSPropertyOp11
 70
     1
102
RTVSPropertyOp12
 70
     1
102
RTVSPropertyOp13
 70
     1
102
RTVSPropertyOp14
 70
     1
102
RTVSPropertyOp15
 70
     1
102
RTVSPropertyOp16
 70
     1
102
RTVSPropertyOp17
 70
     1
102
RTVSPropertyOp18
 70
     1
102
RTVSPropertyOp19
 70
     1
102
RTVSPropertyOp20
 70
     1
102
RTVSPropertyOp21
 70
     1
102
RTVSPropertyOp22
 70
     1
102
RTVSPropertyOp23
 70
     1
102
RTVSPropertyOp24
 70
     1
102
RTVSPropertyOp25
 70
     1
102
RTVSPropertyOp26
 70
     1
102
RTVSPropertyOp27
 70
     1
102
RTVSPropertyOp28
 70
     1
102
RTVSPropertyOp29
 70
     1
102
RTVSPropertyOp30
 70
     1
102
RTVSPropertyOp31
 70
     1
102
RTVSPropertyOp32
 70
     1
  0
XRECORD
  5
BFB
102
{ACAD_REACTORS
330
BFA
102
}
330
BFA
100
AcDbXrecord
280
     1
102
RTVSPropertyOp0
 70
     1
102
RTVSPropertyOp1
 70
     1
102
RTVSPropertyOp2
 70
     1
102
RTVSPropertyOp3
 70
     1
102
RTVSPropertyOp4
 70
     1
102
RTVSPropertyOp5
 70
     1
102
RTVSPropertyOp6
 70
     1
102
RTVSPropertyOp7
 70
     1
102
RTVSPropertyOp8
 70
     1
102
RTVSPropertyOp9
 70
     1
102
RTVSPropertyOp10
 70
     1
102
RTVSPropertyOp11
 70
     1
102
RTVSPropertyOp12
 70
     1
102
RTVSPropertyOp13
 70
     1
102
RTVSPropertyOp14
 70
     1
102
RTVSPropertyOp15
 70
     1
102
RTVSPropertyOp16
 70
     1
102
RTVSPropertyOp17
 70
     1
102
RTVSPropertyOp18
 70
     1
102
RTVSPropertyOp19
 70
     1
102
RTVSPropertyOp20
 70
     1
102
RTVSPropertyOp21
 70
     1
102
RTVSPropertyOp22
 70
     1
102
RTVSPropertyOp23
 70
     1
102
RTVSPropertyOp24
 70
     1
102
RTVSPropertyOp25
 70
     1
102
RTVSPropertyOp26
 70
     1
102
RTVSPropertyOp27
 70
     1
102
RTVSPropertyOp28
 70
     1
102
RTVSPropertyOp29
 70
     1
102
RTVSPropertyOp30
 70
     1
102
RTVSPropertyOp31
 70
     1
102
RTVSPropertyOp32
 70
     1
  0
XRECORD
  5
C17
102
{ACAD_REACTORS
330
C16
102
}
330
C16
100
AcDbXrecord
280
     1
102
RTVSPropertyOp0
 70
     0
102
RTVSPropertyOp1
 70
     0
102
RTVSPropertyOp2
 70
     0
102
RTVSPropertyOp3
 70
     0
102
RTVSPropertyOp4
 70
     0
102
RTVSPropertyOp5
 70
     0
102
RTVSPropertyOp6
 70
     0
102
RTVSPropertyOp7
 70
     0
102
RTVSPropertyOp8
 70
     0
102
RTVSPropertyOp9
 70
     0
102
RTVSPropertyOp10
 70
     0
102
RTVSPropertyOp11
 70
     0
102
RTVSPropertyOp12
 70
     0
102
RTVSPropertyOp13
 70
     0
102
RTVSPropertyOp14
 70
     2
102
RTVSPropertyOp15
 70
     0
102
RTVSPropertyOp16
 70
     0
102
RTVSPropertyOp17
 70
     0
102
RTVSPropertyOp18
 70
     0
102
RTVSPropertyOp19
 70
     0
102
RTVSPropertyOp20
 70
     0
102
RTVSPropertyOp21
 70
     0
102
RTVSPropertyOp22
 70
     0
102
RTVSPropertyOp23
 70
     0
102
RTVSPropertyOp24
 70
     0
102
RTVSPropertyOp25
 70
     0
102
RTVSPropertyOp26
 70
     0
102
RTVSPropertyOp27
 70
     0
102
RTVSPropertyOp28
 70
     0
102
RTVSPropertyOp29
 70
     0
102
RTVSPropertyOp30
 70
     0
102
RTVSPropertyOp31
 70
     0
102
RTVSPropertyOp32
 70
     0
  0
XRECORD
  5
C07
102
{ACAD_REACTORS
330
C06
102
}
330
C06
100
AcDbXrecord
280
     1
102
RTVSPropertyOp0
 70
     1
102
RTVSPropertyOp1
 70
     1
102
RTVSPropertyOp2
 70
     1
102
RTVSPropertyOp3
 70
     1
102
RTVSPropertyOp4
 70
     1
102
RTVSPropertyOp5
 70
     1
102
RTVSPropertyOp6
 70
     1
102
RTVSPropertyOp7
 70
     1
102
RTVSPropertyOp8
 70
     1
102
RTVSPropertyOp9
 70
     1
102
RTVSPropertyOp10
 70
     1
102
RTVSPropertyOp11
 70
     1
102
RTVSPropertyOp12
 70
     1
102
RTVSPropertyOp13
 70
     1
102
RTVSPropertyOp14
 70
     1
102
RTVSPropertyOp15
 70
     1
102
RTVSPropertyOp16
 70
     1
102
RTVSPropertyOp17
 70
     1
102
RTVSPropertyOp18
 70
     1
102
RTVSPropertyOp19
 70
     1
102
RTVSPropertyOp20
 70
     1
102
RTVSPropertyOp21
 70
     1
102
RTVSPropertyOp22
 70
     1
102
RTVSPropertyOp23
 70
     1
102
RTVSPropertyOp24
 70
     1
102
RTVSPropertyOp25
 70
     1
102
RTVSPropertyOp26
 70
     1
102
RTVSPropertyOp27
 70
     1
102
RTVSPropertyOp28
 70
     1
102
RTVSPropertyOp29
 70
     1
102
RTVSPropertyOp30
 70
     1
102
RTVSPropertyOp31
 70
     1
102
RTVSPropertyOp32
 70
     1
  0
XRECORD
  5
C19
102
{ACAD_REACTORS
330
C18
102
}
330
C18
100
AcDbXrecord
280
     1
102
RTVSPropertyOp0
 70
     0
102
RTVSPropertyOp1
 70
     0
102
RTVSPropertyOp2
 70
     0
102
RTVSPropertyOp3
 70
     0
102
RTVSPropertyOp4
 70
     0
102
RTVSPropertyOp5
 70
     0
102
RTVSPropertyOp6
 70
     0
102
RTVSPropertyOp7
 70
     0
102
RTVSPropertyOp8
 70
     0
102
RTVSPropertyOp9
 70
     0
102
RTVSPropertyOp10
 70
     0
102
RTVSPropertyOp11
 70
     0
102
RTVSPropertyOp12
 70
     0
102
RTVSPropertyOp13
 70
     0
102
RTVSPropertyOp14
 70
     2
102
RTVSPropertyOp15
 70
     0
102
RTVSPropertyOp16
 70
     0
102
RTVSPropertyOp17
 70
     0
102
RTVSPropertyOp18
 70
     0
102
RTVSPropertyOp19
 70
     0
102
RTVSPropertyOp20
 70
     0
102
RTVSPropertyOp21
 70
     0
102
RTVSPropertyOp22
 70
     0
102
RTVSPropertyOp23
 70
     0
102
RTVSPropertyOp24
 70
     0
102
RTVSPropertyOp25
 70
     0
102
RTVSPropertyOp26
 70
     0
102
RTVSPropertyOp27
 70
     0
102
RTVSPropertyOp28
 70
     0
102
RTVSPropertyOp29
 70
     0
102
RTVSPropertyOp30
 70
     0
102
RTVSPropertyOp31
 70
     0
102
RTVSPropertyOp32
 70
     0
  0
XRECORD
  5
BFF
102
{ACAD_REACTORS
330
BFE
102
}
330
BFE
100
AcDbXrecord
280
     1
102
RTVSPropertyOp0
 70
     1
102
RTVSPropertyOp1
 70
     1
102
RTVSPropertyOp2
 70
     1
102
RTVSPropertyOp3
 70
     1
102
RTVSPropertyOp4
 70
     1
102
RTVSPropertyOp5
 70
     1
102
RTVSPropertyOp6
 70
     1
102
RTVSPropertyOp7
 70
     1
102
RTVSPropertyOp8
 70
     1
102
RTVSPropertyOp9
 70
     1
102
RTVSPropertyOp10
 70
     1
102
RTVSPropertyOp11
 70
     1
102
RTVSPropertyOp12
 70
     1
102
RTVSPropertyOp13
 70
     1
102
RTVSPropertyOp14
 70
     1
102
RTVSPropertyOp15
 70
     1
102
RTVSPropertyOp16
 70
     1
102
RTVSPropertyOp17
 70
     1
102
RTVSPropertyOp18
 70
     1
102
RTVSPropertyOp19
 70
     1
102
RTVSPropertyOp20
 70
     1
102
RTVSPropertyOp21
 70
     1
102
RTVSPropertyOp22
 70
     1
102
RTVSPropertyOp23
 70
     1
102
RTVSPropertyOp24
 70
     1
102
RTVSPropertyOp25
 70
     1
102
RTVSPropertyOp26
 70
     1
102
RTVSPropertyOp27
 70
     1
102
RTVSPropertyOp28
 70
     1
102
RTVSPropertyOp29
 70
     1
102
RTVSPropertyOp30
 70
     1
102
RTVSPropertyOp31
 70
     1
102
RTVSPropertyOp32
 70
     1
  0
XRECORD
  5
C15
102
{ACAD_REACTORS
330
C14
102
}
330
C14
100
AcDbXrecord
280
     1
102
RTVSPropertyOp0
 70
     1
102
RTVSPropertyOp1
 70
     1
102
RTVSPropertyOp2
 70
     1
102
RTVSPropertyOp3
 70
     1
102
RTVSPropertyOp4
 70
     1
102
RTVSPropertyOp5
 70
     1
102
RTVSPropertyOp6
 70
     1
102
RTVSPropertyOp7
 70
     1
102
RTVSPropertyOp8
 70
     1
102
RTVSPropertyOp9
 70
     1
102
RTVSPropertyOp10
 70
     1
102
RTVSPropertyOp11
 70
     1
102
RTVSPropertyOp12
 70
     1
102
RTVSPropertyOp13
 70
     1
102
RTVSPropertyOp14
 70
     1
102
RTVSPropertyOp15
 70
     1
102
RTVSPropertyOp16
 70
     1
102
RTVSPropertyOp17
 70
     1
102
RTVSPropertyOp18
 70
     1
102
RTVSPropertyOp19
 70
     1
102
RTVSPropertyOp20
 70
     1
102
RTVSPropertyOp21
 70
     1
102
RTVSPropertyOp22
 70
     1
102
RTVSPropertyOp23
 70
     1
102
RTVSPropertyOp24
 70
     1
102
RTVSPropertyOp25
 70
     1
102
RTVSPropertyOp26
 70
     1
102
RTVSPropertyOp27
 70
     1
102
RTVSPropertyOp28
 70
     1
102
RTVSPropertyOp29
 70
     1
102
RTVSPropertyOp30
 70
     1
102
RTVSPropertyOp31
 70
     1
102
RTVSPropertyOp32
 70
     1
  0
XRECORD
  5
C13
102
{ACAD_REACTORS
330
C12
102
}
330
C12
100
AcDbXrecord
280
     1
102
RTVSPropertyOp0
 70
     1
102
RTVSPropertyOp1
 70
     1
102
RTVSPropertyOp2
 70
     1
102
RTVSPropertyOp3
 70
     1
102
RTVSPropertyOp4
 70
     1
102
RTVSPropertyOp5
 70
     1
102
RTVSPropertyOp6
 70
     1
102
RTVSPropertyOp7
 70
     1
102
RTVSPropertyOp8
 70
     1
102
RTVSPropertyOp9
 70
     1
102
RTVSPropertyOp10
 70
     1
102
RTVSPropertyOp11
 70
     1
102
RTVSPropertyOp12
 70
     1
102
RTVSPropertyOp13
 70
     1
102
RTVSPropertyOp14
 70
     1
102
RTVSPropertyOp15
 70
     1
102
RTVSPropertyOp16
 70
     1
102
RTVSPropertyOp17
 70
     1
102
RTVSPropertyOp18
 70
     1
102
RTVSPropertyOp19
 70
     1
102
RTVSPropertyOp20
 70
     1
102
RTVSPropertyOp21
 70
     1
102
RTVSPropertyOp22
 70
     1
102
RTVSPropertyOp23
 70
     1
102
RTVSPropertyOp24
 70
     1
102
RTVSPropertyOp25
 70
     1
102
RTVSPropertyOp26
 70
     1
102
RTVSPropertyOp27
 70
     1
102
RTVSPropertyOp28
 70
     1
102
RTVSPropertyOp29
 70
     1
102
RTVSPropertyOp30
 70
     1
102
RTVSPropertyOp31
 70
     1
102
RTVSPropertyOp32
 70
     1
  0
XRECORD
  5
C0D
102
{ACAD_REACTORS
330
C0C
102
}
330
C0C
100
AcDbXrecord
280
     1
102
RTVSPropertyOp0
 70
     1
102
RTVSPropertyOp1
 70
     1
102
RTVSPropertyOp2
 70
     1
102
RTVSPropertyOp3
 70
     1
102
RTVSPropertyOp4
 70
     1
102
RTVSPropertyOp5
 70
     1
102
RTVSPropertyOp6
 70
     1
102
RTVSPropertyOp7
 70
     1
102
RTVSPropertyOp8
 70
     1
102
RTVSPropertyOp9
 70
     1
102
RTVSPropertyOp10
 70
     1
102
RTVSPropertyOp11
 70
     1
102
RTVSPropertyOp12
 70
     1
102
RTVSPropertyOp13
 70
     1
102
RTVSPropertyOp14
 70
     1
102
RTVSPropertyOp15
 70
     1
102
RTVSPropertyOp16
 70
     1
102
RTVSPropertyOp17
 70
     1
102
RTVSPropertyOp18
 70
     1
102
RTVSPropertyOp19
 70
     1
102
RTVSPropertyOp20
 70
     1
102
RTVSPropertyOp21
 70
     1
102
RTVSPropertyOp22
 70
     1
102
RTVSPropertyOp23
 70
     1
102
RTVSPropertyOp24
 70
     1
102
RTVSPropertyOp25
 70
     1
102
RTVSPropertyOp26
 70
     1
102
RTVSPropertyOp27
 70
     1
102
RTVSPropertyOp28
 70
     1
102
RTVSPropertyOp29
 70
     1
102
RTVSPropertyOp30
 70
     1
102
RTVSPropertyOp31
 70
     1
102
RTVSPropertyOp32
 70
     1
  0
XRECORD
  5
C0F
102
{ACAD_REACTORS
330
C0E
102
}
330
C0E
100
AcDbXrecord
280
     1
102
RTVSPropertyOp0
 70
     1
102
RTVSPropertyOp1
 70
     1
102
RTVSPropertyOp2
 70
     1
102
RTVSPropertyOp3
 70
     1
102
RTVSPropertyOp4
 70
     1
102
RTVSPropertyOp5
 70
     1
102
RTVSPropertyOp6
 70
     1
102
RTVSPropertyOp7
 70
     1
102
RTVSPropertyOp8
 70
     1
102
RTVSPropertyOp9
 70
     1
102
RTVSPropertyOp10
 70
     1
102
RTVSPropertyOp11
 70
     1
102
RTVSPropertyOp12
 70
     1
102
RTVSPropertyOp13
 70
     1
102
RTVSPropertyOp14
 70
     1
102
RTVSPropertyOp15
 70
     1
102
RTVSPropertyOp16
 70
     1
102
RTVSPropertyOp17
 70
     1
102
RTVSPropertyOp18
 70
     1
102
RTVSPropertyOp19
 70
     1
102
RTVSPropertyOp20
 70
     1
102
RTVSPropertyOp21
 70
     1
102
RTVSPropertyOp22
 70
     1
102
RTVSPropertyOp23
 70
     1
102
RTVSPropertyOp24
 70
     1
102
RTVSPropertyOp25
 70
     1
102
RTVSPropertyOp26
 70
     1
102
RTVSPropertyOp27
 70
     1
102
RTVSPropertyOp28
 70
     1
102
RTVSPropertyOp29
 70
     1
102
RTVSPropertyOp30
 70
     1
102
RTVSPropertyOp31
 70
     1
102
RTVSPropertyOp32
 70
     1
  0
XRECORD
  5
C05
102
{ACAD_REACTORS
330
C04
102
}
330
C04
100
AcDbXrecord
280
     1
102
RTVSPropertyOp0
 70
     1
102
RTVSPropertyOp1
 70
     1
102
RTVSPropertyOp2
 70
     1
102
RTVSPropertyOp3
 70
     1
102
RTVSPropertyOp4
 70
     1
102
RTVSPropertyOp5
 70
     1
102
RTVSPropertyOp6
 70
     1
102
RTVSPropertyOp7
 70
     1
102
RTVSPropertyOp8
 70
     1
102
RTVSPropertyOp9
 70
     1
102
RTVSPropertyOp10
 70
     1
102
RTVSPropertyOp11
 70
     1
102
RTVSPropertyOp12
 70
     1
102
RTVSPropertyOp13
 70
     1
102
RTVSPropertyOp14
 70
     1
102
RTVSPropertyOp15
 70
     1
102
RTVSPropertyOp16
 70
     1
102
RTVSPropertyOp17
 70
     1
102
RTVSPropertyOp18
 70
     1
102
RTVSPropertyOp19
 70
     1
102
RTVSPropertyOp20
 70
     1
102
RTVSPropertyOp21
 70
     1
102
RTVSPropertyOp22
 70
     1
102
RTVSPropertyOp23
 70
     1
102
RTVSPropertyOp24
 70
     1
102
RTVSPropertyOp25
 70
     1
102
RTVSPropertyOp26
 70
     1
102
RTVSPropertyOp27
 70
     1
102
RTVSPropertyOp28
 70
     1
102
RTVSPropertyOp29
 70
     1
102
RTVSPropertyOp30
 70
     1
102
RTVSPropertyOp31
 70
     1
102
RTVSPropertyOp32
 70
     1
  0
XRECORD
  5
BF9
102
{ACAD_REACTORS
330
BF8
102
}
330
BF8
100
AcDbXrecord
280
     1
102
RTVSPropertyOp0
 70
     1
102
RTVSPropertyOp1
 70
     1
102
RTVSPropertyOp2
 70
     1
102
RTVSPropertyOp3
 70
     1
102
RTVSPropertyOp4
 70
     1
102
RTVSPropertyOp5
 70
     1
102
RTVSPropertyOp6
 70
     1
102
RTVSPropertyOp7
 70
     1
102
RTVSPropertyOp8
 70
     1
102
RTVSPropertyOp9
 70
     1
102
RTVSPropertyOp10
 70
     1
102
RTVSPropertyOp11
 70
     1
102
RTVSPropertyOp12
 70
     1
102
RTVSPropertyOp13
 70
     1
102
RTVSPropertyOp14
 70
     1
102
RTVSPropertyOp15
 70
     1
102
RTVSPropertyOp16
 70
     1
102
RTVSPropertyOp17
 70
     1
102
RTVSPropertyOp18
 70
     1
102
RTVSPropertyOp19
 70
     1
102
RTVSPropertyOp20
 70
     1
102
RTVSPropertyOp21
 70
     1
102
RTVSPropertyOp22
 70
     1
102
RTVSPropertyOp23
 70
     1
102
RTVSPropertyOp24
 70
     1
102
RTVSPropertyOp25
 70
     1
102
RTVSPropertyOp26
 70
     1
102
RTVSPropertyOp27
 70
     1
102
RTVSPropertyOp28
 70
     1
102
RTVSPropertyOp29
 70
     1
102
RTVSPropertyOp30
 70
     1
102
RTVSPropertyOp31
 70
     1
102
RTVSPropertyOp32
 70
     1
  0
XRECORD
  5
C11
102
{ACAD_REACTORS
330
C10
102
}
330
C10
100
AcDbXrecord
280
     1
102
RTVSPropertyOp0
 70
     1
102
RTVSPropertyOp1
 70
     1
102
RTVSPropertyOp2
 70
     1
102
RTVSPropertyOp3
 70
     1
102
RTVSPropertyOp4
 70
     1
102
RTVSPropertyOp5
 70
     1
102
RTVSPropertyOp6
 70
     1
102
RTVSPropertyOp7
 70
     1
102
RTVSPropertyOp8
 70
     1
102
RTVSPropertyOp9
 70
     1
102
RTVSPropertyOp10
 70
     1
102
RTVSPropertyOp11
 70
     1
102
RTVSPropertyOp12
 70
     1
102
RTVSPropertyOp13
 70
     1
102
RTVSPropertyOp14
 70
     1
102
RTVSPropertyOp15
 70
     1
102
RTVSPropertyOp16
 70
     1
102
RTVSPropertyOp17
 70
     1
102
RTVSPropertyOp18
 70
     1
102
RTVSPropertyOp19
 70
     1
102
RTVSPropertyOp20
 70
     1
102
RTVSPropertyOp21
 70
     1
102
RTVSPropertyOp22
 70
     1
102
RTVSPropertyOp23
 70
     1
102
RTVSPropertyOp24
 70
     1
102
RTVSPropertyOp25
 70
     1
102
RTVSPropertyOp26
 70
     1
102
RTVSPropertyOp27
 70
     1
102
RTVSPropertyOp28
 70
     1
102
RTVSPropertyOp29
 70
     1
102
RTVSPropertyOp30
 70
     1
102
RTVSPropertyOp31
 70
     1
102
RTVSPropertyOp32
 70
     1
  0
ENDSEC
  0
EOF
