  0
SECTION
  2
HEADER
  9
$ACADVER
  1
AC1015
  9
$ACADMAINTVER
 70
    20
  9
$DWGCODEPAGE
  3
ANSI_932
  9
$INSBASE
 10
0.0
 20
0.0
 30
0.0
  9
$EXTMIN
 10
809.2505863380322
 20
7.862236546374788
 30
-0.0015258207003583
  9
$EXTMAX
 10
1001.296345649773
 20
288.9933905099582
 30
0.0000000349246037
  9
$LIMMIN
 10
0.0
 20
0.0
  9
$LIMMAX
 10
12.0
 20
9.0
  9
$ORTHOMODE
 70
     1
  9
$REGENMODE
 70
     1
  9
$FILLMODE
 70
     1
  9
$QTEXTMODE
 70
     0
  9
$MIRRTEXT
 70
     0
  9
$LTSCALE
 40
1.0
  9
$ATTMODE
 70
     1
  9
$TEXTSIZE
 40
3.2
  9
$TRACEWID
 40
0.05
  9
$TEXTSTYLE
  7
高3.2
  9
$CLAYER
  8
0
  9
$CELTYPE
  6
ByLayer
  9
$CECOLOR
 62
   256
  9
$CELTSCALE
 40
1.0
  9
$DISPSILH
 70
     0
  9
$DIMSCALE
 40
1.0
  9
$DIMASZ
 40
2.5
  9
$DIMEXO
 40
0.25
  9
$DIMDLI
 40
0.2
  9
$DIMRND
 40
0.0
  9
$DIMDLE
 40
0.0
  9
$DIMEXE
 40
1.25
  9
$DIMTP
 40
0.0
  9
$DIMTM
 40
0.0
  9
$DIMTXT
 40
3.0
  9
$DIMCEN
 40
0.0
  9
$DIMTSZ
 40
0.0
  9
$DIMTOL
 70
     0
  9
$DIMLIM
 70
     0
  9
$DIMTIH
 70
     0
  9
$DIMTOH
 70
     0
  9
$DIMSE1
 70
     0
  9
$DIMSE2
 70
     0
  9
$DIMTAD
 70
     3
  9
$DIMZIN
 70
     8
  9
$DIMBLK
  1
Open30
  9
$DIMASO
 70
     1
  9
$DIMSHO
 70
     1
  9
$DIMPOST
  1

  9
$DIMAPOST
  1

  9
$DIMALT
 70
     0
  9
$DIMALTD
 70
     3
  9
$DIMALTF
 40
0.03937007874016
  9
$DIMLFAC
 40
1.0
  9
$DIMTOFL
 70
     1
  9
$DIMTVP
 40
0.0
  9
$DIMTIX
 70
     0
  9
$DIMSOXD
 70
     0
  9
$DIMSAH
 70
     0
  9
$DIMBLK1
  1

  9
$DIMBLK2
  1

  9
$DIMSTYLE
  2
1：1
  9
$DIMCLRD
 70
     0
  9
$DIMCLRE
 70
     0
  9
$DIMCLRT
 70
     4
  9
$DIMTFAC
 40
1.0
  9
$DIMGAP
 40
0.625
  9
$DIMJUST
 70
     0
  9
$DIMSD1
 70
     0
  9
$DIMSD2
 70
     0
  9
$DIMTOLJ
 70
     0
  9
$DIMTZIN
 70
     8
  9
$DIMALTZ
 70
     0
  9
$DIMALTTZ
 70
     0
  9
$DIMUPT
 70
     1
  9
$DIMDEC
 70
     2
  9
$DIMTDEC
 70
     2
  9
$DIMALTU
 70
     2
  9
$DIMALTTD
 70
     3
  9
$DIMTXSTY
  7
Standard
  9
$DIMAUNIT
 70
     0
  9
$DIMADEC
 70
     1
  9
$DIMALTRND
 40
0.0
  9
$DIMAZIN
 70
     2
  9
$DIMDSEP
 70
    46
  9
$DIMATFIT
 70
     0
  9
$DIMFRAC
 70
     0
  9
$DIMLDRBLK
  1
Open30
  9
$DIMLUNIT
 70
     2
  9
$DIMLWD
 70
    -2
  9
$DIMLWE
 70
    -2
  9
$DIMTMOVE
 70
     0
  9
$LUNITS
 70
     2
  9
$LUPREC
 70
     4
  9
$SKETCHINC
 40
0.1
  9
$FILLETRAD
 40
2.0
  9
$AUNITS
 70
     0
  9
$AUPREC
 70
     0
  9
$MENU
  1
.
  9
$ELEVATION
 40
0.0
  9
$PELEVATION
 40
0.0
  9
$THICKNESS
 40
0.0
  9
$LIMCHECK
 70
     0
  9
$CHAMFERA
 40
0.0
  9
$CHAMFERB
 40
0.0
  9
$CHAMFERC
 40
0.0
  9
$CHAMFERD
 40
0.0
  9
$SKPOLY
 70
     0
  9
$TDCREATE
 40
2456374.663505406
  9
$TDUCREATE
 40
2456374.288505406
  9
$TDUPDATE
 40
2456538.546704757
  9
$TDUUPDATE
 40
2456538.171704757
  9
$TDINDWG
 40
0.1506049190
  9
$TDUSRTIMER
 40
0.1506039352
  9
$USRTIMER
 70
     1
  9
$ANGBASE
 50
0.0
  9
$ANGDIR
 70
     0
  9
$PDMODE
 70
     0
  9
$PDSIZE
 40
0.0
  9
$PLINEWID
 40
0.0
  9
$SPLFRAME
 70
     0
  9
$SPLINETYPE
 70
     6
  9
$SPLINESEGS
 70
     8
  9
$HANDSEED
  5
10A2
  9
$SURFTAB1
 70
     6
  9
$SURFTAB2
 70
     6
  9
$SURFTYPE
 70
     6
  9
$SURFU
 70
     6
  9
$SURFV
 70
     6
  9
$UCSBASE
  2

  9
$UCSNAME
  2

  9
$UCSORG
 10
0.0
 20
0.0
 30
0.0
  9
$UCSXDIR
 10
1.0
 20
0.0
 30
0.0
  9
$UCSYDIR
 10
0.0
 20
1.0
 30
0.0
  9
$UCSORTHOREF
  2

  9
$UCSORTHOVIEW
 70
     0
  9
$UCSORGTOP
 10
0.0
 20
0.0
 30
0.0
  9
$UCSORGBOTTOM
 10
0.0
 20
0.0
 30
0.0
  9
$UCSORGLEFT
 10
0.0
 20
0.0
 30
0.0
  9
$UCSORGRIGHT
 10
0.0
 20
0.0
 30
0.0
  9
$UCSORGFRONT
 10
0.0
 20
0.0
 30
0.0
  9
$UCSORGBACK
 10
0.0
 20
0.0
 30
0.0
  9
$PUCSBASE
  2

  9
$PUCSNAME
  2

  9
$PUCSORG
 10
0.0
 20
0.0
 30
0.0
  9
$PUCSXDIR
 10
1.0
 20
0.0
 30
0.0
  9
$PUCSYDIR
 10
0.0
 20
1.0
 30
0.0
  9
$PUCSORTHOREF
  2

  9
$PUCSORTHOVIEW
 70
     0
  9
$PUCSORGTOP
 10
0.0
 20
0.0
 30
0.0
  9
$PUCSORGBOTTOM
 10
0.0
 20
0.0
 30
0.0
  9
$PUCSORGLEFT
 10
0.0
 20
0.0
 30
0.0
  9
$PUCSORGRIGHT
 10
0.0
 20
0.0
 30
0.0
  9
$PUCSORGFRONT
 10
0.0
 20
0.0
 30
0.0
  9
$PUCSORGBACK
 10
0.0
 20
0.0
 30
0.0
  9
$USERI1
 70
     0
  9
$USERI2
 70
     0
  9
$USERI3
 70
     0
  9
$USERI4
 70
     0
  9
$USERI5
 70
     0
  9
$USERR1
 40
0.0
  9
$USERR2
 40
0.0
  9
$USERR3
 40
0.0
  9
$USERR4
 40
0.0
  9
$USERR5
 40
0.0
  9
$WORLDVIEW
 70
     1
  9
$SHADEDGE
 70
     3
  9
$SHADEDIF
 70
    70
  9
$TILEMODE
 70
     1
  9
$MAXACTVP
 70
    64
  9
$PINSBASE
 10
0.0
 20
0.0
 30
0.0
  9
$PLIMCHECK
 70
     0
  9
$PEXTMIN
 10
0.0
 20
0.0
 30
0.0
  9
$PEXTMAX
 10
0.0
 20
0.0
 30
0.0
  9
$PLIMMIN
 10
0.0
 20
0.0
  9
$PLIMMAX
 10
12.0
 20
9.0
  9
$UNITMODE
 70
     0
  9
$VISRETAIN
 70
     1
  9
$PLINEGEN
 70
     0
  9
$PSLTSCALE
 70
     1
  9
$TREEDEPTH
 70
  3020
  9
$CMLSTYLE
  2
Standard
  9
$CMLJUST
 70
     0
  9
$CMLSCALE
 40
1.0
  9
$PROXYGRAPHICS
 70
     1
  9
$MEASUREMENT
 70
     1
  9
$CELWEIGHT
370
    -1
  9
$ENDCAPS
280
     0
  9
$JOINSTYLE
280
     0
  9
$LWDISPLAY
290
     0
  9
$INSUNITS
 70
     1
  9
$HYPERLINKBASE
  1

  9
$STYLESHEET
  1
n-plot.ctb
  9
$XEDIT
290
     1
  9
$CEPSNTYPE
380
     0
  9
$PSTYLEMODE
290
     1
  9
$FINGERPRINTGUID
  2
{0669329B-41E8-4A0A-8739-0A5DD98DF129}
  9
$VERSIONGUID
  2
{CCE8FFAA-856A-4DC5-857D-92CC08EE932A}
  9
$EXTNAMES
290
     1
  9
$PSVPSCALE
 40
0.0
  9
$OLESTARTUP
290
     0
  0
ENDSEC
  0
SECTION
  2
CLASSES
  0
CLASS
  1
ACDBDICTIONARYWDFLT
  2
AcDbDictionaryWithDefault
  3
ObjectDBX Classes
 90
        0
280
     0
281
     0
  0
CLASS
  1
ACDBPLACEHOLDER
  2
AcDbPlaceHolder
  3
ObjectDBX Classes
 90
        0
280
     0
281
     0
  0
CLASS
  1
LAYOUT
  2
AcDbLayout
  3
ObjectDBX Classes
 90
        0
280
     0
281
     0
  0
CLASS
  1
DICTIONARYVAR
  2
AcDbDictionaryVar
  3
ObjectDBX Classes
 90
        0
280
     0
281
     0
  0
CLASS
  1
TABLESTYLE
  2
AcDbTableStyle
  3
ObjectDBX Classes
 90
     4095
280
     0
281
     0
  0
CLASS
  1
MATERIAL
  2
AcDbMaterial
  3
ObjectDBX Classes
 90
     1153
280
     0
281
     0
  0
CLASS
  1
VISUALSTYLE
  2
AcDbVisualStyle
  3
ObjectDBX Classes
 90
     4095
280
     0
281
     0
  0
CLASS
  1
SORTENTSTABLE
  2
AcDbSortentsTable
  3
ObjectDBX Classes
 90
        0
280
     0
281
     0
  0
CLASS
  1
DIMASSOC
  2
AcDbDimAssoc
  3
"AcDbDimAssoc|Product Desc:     AcDim ARX App For Dimension|Company:          Autodesk, Inc.|WEB Address:      www.autodesk.com"
 90
        0
280
     0
281
     0
  0
CLASS
  1
SCALE
  2
AcDbScale
  3
ObjectDBX Classes
 90
     1153
280
     0
281
     0
  0
CLASS
  1
MLEADERSTYLE
  2
AcDbMLeaderStyle
  3
ACDB_MLEADERSTYLE_CLASS
 90
     4095
280
     0
281
     0
  0
CLASS
  1
CELLSTYLEMAP
  2
AcDbCellStyleMap
  3
ObjectDBX Classes
 90
     1152
280
     0
281
     0
  0
ENDSEC
  0
SECTION
  2
TABLES
  0
TABLE
  2
VPORT
  5
8
330
0
100
AcDbSymbolTable
 70
     1
  0
VPORT
  5
94
330
8
100
AcDbSymbolTableRecord
100
AcDbViewportTableRecord
  2
*Active
 70
     0
 10
0.0
 20
0.0
 11
1.0
 21
1.0
 12
909.9474763305762
 22
134.8868834834085
 13
0.0
 23
0.0
 14
0.5
 24
0.5
 15
0.5
 25
0.5
 16
0.0
 26
0.0
 36
1.0
 17
0.0
 27
0.0
 37
0.0
 40
379.5361564105665
 41
1.876470588235293
 42
50.0
 43
0.0
 44
0.0
 50
0.0
 51
0.0
 71
     0
 72
  1000
 73
     1
 74
     2
 75
     0
 76
     0
 77
     0
 78
     0
281
     0
 65
     1
110
0.0
120
0.0
130
0.0
111
1.0
121
0.0
131
0.0
112
0.0
122
1.0
132
0.0
 79
     0
146
0.0
  0
ENDTAB
  0
TABLE
  2
LTYPE
  5
5
330
0
100
AcDbSymbolTable
 70
     2
  0
LTYPE
  5
14
330
5
100
AcDbSymbolTableRecord
100
AcDbLinetypeTableRecord
  2
ByBlock
 70
     0
  3

 72
    65
 73
     0
 40
0.0
  0
LTYPE
  5
15
330
5
100
AcDbSymbolTableRecord
100
AcDbLinetypeTableRecord
  2
ByLayer
 70
     0
  3

 72
    65
 73
     0
 40
0.0
  0
LTYPE
  5
16
330
5
100
AcDbSymbolTableRecord
100
AcDbLinetypeTableRecord
  2
Continuous
 70
     0
  3
Solid line
 72
    65
 73
     0
 40
0.0
  0
ENDTAB
  0
TABLE
  2
LAYER
  5
2
102
{ACAD_XDICTIONARY
360
DD
102
}
330
0
100
AcDbSymbolTable
 70
     2
  0
LAYER
  5
10
102
{ACAD_XDICTIONARY
360
A55
102
}
330
2
100
AcDbSymbolTableRecord
100
AcDbLayerTableRecord
  2
0
 70
     0
 62
     7
  6
Continuous
370
    -3
390
F
  0
LAYER
  5
D8
330
2
100
AcDbSymbolTableRecord
100
AcDbLayerTableRecord
  2
Defpoints
 70
     0
 62
     7
  6
Continuous
290
     0
370
    -3
390
F
  0
ENDTAB
  0
TABLE
  2
STYLE
  5
3
330
0
100
AcDbSymbolTable
 70
     7
  0
STYLE
  5
11
330
3
100
AcDbSymbolTableRecord
100
AcDbTextStyleTableRecord
  2
Standard
 70
     0
 40
0.0
 41
1.0
 50
0.0
 71
     0
 42
0.2
  3
txt.shx
  4
bigfont.shx
  0
STYLE
  5
11D
330
3
100
AcDbSymbolTableRecord
100
AcDbTextStyleTableRecord
  2
高3.2
 70
     0
 40
3.2
 41
1.0
 50
0.0
 71
     0
 42
3.2
  3
txt.shx
  4
bigfont.shx
  0
STYLE
  5
11E
330
3
100
AcDbSymbolTableRecord
100
AcDbTextStyleTableRecord
  2
高6.3
 70
     0
 40
6.299999999999998
 41
1.0
 50
0.0
 71
     0
 42
6.299999999999998
  3
txt.shx
  4
bigfont.shx
  0
STYLE
  5
11F
330
3
100
AcDbSymbolTableRecord
100
AcDbTextStyleTableRecord
  2
高2.5
 70
     0
 40
2.5
 41
1.0
 50
0.0
 71
     0
 42
0.2
  3
txt.shx
  4
bigfont.shx
  0
STYLE
  5
146
330
3
100
AcDbSymbolTableRecord
100
AcDbTextStyleTableRecord
  2
高4.5
 70
     0
 40
4.5
 41
1.0
 50
0.0
 71
     0
 42
6.299999999999998
  3
txt.shx
  4
bigfont.shx
  0
STYLE
  5
171
330
3
100
AcDbSymbolTableRecord
100
AcDbTextStyleTableRecord
  2
高2
 70
     0
 40
2.0
 41
1.0
 50
0.0
 71
     0
 42
6.299999999999998
  3
txt.shx
  4
bigfont.shx
  0
ENDTAB
  0
TABLE
  2
VIEW
  5
6
330
0
100
AcDbSymbolTable
 70
     0
  0
ENDTAB
  0
TABLE
  2
UCS
  5
7
330
0
100
AcDbSymbolTable
 70
     0
  0
ENDTAB
  0
TABLE
  2
APPID
  5
9
330
0
100
AcDbSymbolTable
 70
    10
  0
APPID
  5
12
330
9
100
AcDbSymbolTableRecord
100
AcDbRegAppTableRecord
  2
ACAD
 70
     0
  0
APPID
  5
DC
330
9
100
AcDbSymbolTableRecord
100
AcDbRegAppTableRecord
  2
ACAD_DSTYLE_DIMJOGGED_JOGANGLE_SYMBOL
 70
     0
  0
APPID
  5
566
330
9
100
AcDbSymbolTableRecord
100
AcDbRegAppTableRecord
  2
ACAD_EXEMPT_FROM_CAD_STANDARDS
 70
     0
  0
APPID
  5
647
330
9
100
AcDbSymbolTableRecord
100
AcDbRegAppTableRecord
  2
ACAD_DSTYLE_DIMJAG
 70
     0
  0
APPID
  5
648
330
9
100
AcDbSymbolTableRecord
100
AcDbRegAppTableRecord
  2
ACAD_DSTYLE_DIMBREAK
 70
     0
  0
APPID
  5
649
330
9
100
AcDbSymbolTableRecord
100
AcDbRegAppTableRecord
  2
ACAD_DSTYLE_DIMTALN
 70
     0
  0
APPID
  5
87B
330
9
100
AcDbSymbolTableRecord
100
AcDbRegAppTableRecord
  2
ACAD_DSTYLE_DIMRADIAL_EXTENSION
 70
     0
  0
APPID
  5
A91
330
9
100
AcDbSymbolTableRecord
100
AcDbRegAppTableRecord
  2
ACAD_DSTYLE_DIMARC_LENGTH_SYMBOL
 70
     0
  0
APPID
  5
A92
330
9
100
AcDbSymbolTableRecord
100
AcDbRegAppTableRecord
  2
ACAD_DSTYLE_DIMEXT_LENGTH
 70
     0
  0
APPID
  5
AA7
330
9
100
AcDbSymbolTableRecord
100
AcDbRegAppTableRecord
  2
ACAD_MLEADERVER
 70
     0
  0
ENDTAB
  0
TABLE
  2
DIMSTYLE
  5
A
330
0
100
AcDbSymbolTable
 70
     2
100
AcDbDimStyleTable
 71
     1
340
D9
  0
DIMSTYLE
105
D9
330
A
100
AcDbSymbolTableRecord
100
AcDbDimStyleTableRecord
  2
1：1
 70
     0
 41
2.5
 42
0.25
 43
0.2
 44
1.25
 73
     0
 74
     0
 77
     3
 78
     8
 79
     2
140
3.0
141
0.0
143
0.03937007874016
147
0.625
171
     3
172
     1
178
     4
179
     1
271
     2
272
     2
274
     3
283
     0
284
     8
288
     1
289
     0
340
11
341
C6
342
C6
1001
ACAD_DSTYLE_DIMARC_LENGTH_SYMBOL
1070
   379
1070
     2
1001
ACAD_DSTYLE_DIMEXT_LENGTH
1070
   378
1040
1.25
1001
ACAD_DSTYLE_DIMJOGGED_JOGANGLE_SYMBOL
1070
   384
1040
1.570796326794896
  0
ENDTAB
  0
TABLE
  2
BLOCK_RECORD
  5
1
330
0
100
AcDbSymbolTable
 70
     7
  0
BLOCK_RECORD
  5
1F
102
{ACAD_XDICTIONARY
360
31A
102
}
330
1
100
AcDbSymbolTableRecord
100
AcDbBlockTableRecord
  2
*Model_Space
340
22
  0
BLOCK_RECORD
  5
58
330
1
100
AcDbSymbolTableRecord
100
AcDbBlockTableRecord
  2
*Paper_Space
340
59
  0
BLOCK_RECORD
  5
5D
330
1
100
AcDbSymbolTableRecord
100
AcDbBlockTableRecord
  2
*Paper_Space0
340
5E
  0
BLOCK_RECORD
  5
C6
330
1
100
AcDbSymbolTableRecord
100
AcDbBlockTableRecord
  2
_Open30
340
0
102
{BLKREFS
331
F77
331
F78
331
F80
331
F81
331
F89
331
F8A
331
F92
331
F93
102
}
  0
BLOCK_RECORD
  5
8E3
330
1
100
AcDbSymbolTableRecord
100
AcDbBlockTableRecord
  2
*D2
340
0
  0
BLOCK_RECORD
  5
8FB
330
1
100
AcDbSymbolTableRecord
100
AcDbBlockTableRecord
  2
*D3
340
0
  0
BLOCK_RECORD
  5
92F
330
1
100
AcDbSymbolTableRecord
100
AcDbBlockTableRecord
  2
*D4
340
0
  0
BLOCK_RECORD
  5
947
330
1
100
AcDbSymbolTableRecord
100
AcDbBlockTableRecord
  2
*D5
340
0
  0
ENDTAB
  0
ENDSEC
  0
SECTION
  2
BLOCKS
  0
BLOCK
  5
20
330
1F
100
AcDbEntity
  8
0
100
AcDbBlockBegin
  2
*Model_Space
 70
     0
 10
0.0
 20
0.0
 30
0.0
  3
*Model_Space
  1

  0
ENDBLK
  5
21
330
1F
100
AcDbEntity
  8
0
100
AcDbBlockEnd
  0
BLOCK
  5
5A
330
58
100
AcDbEntity
 67
     1
  8
0
100
AcDbBlockBegin
  2
*Paper_Space
 70
     0
 10
0.0
 20
0.0
 30
0.0
  3
*Paper_Space
  1

  0
ENDBLK
  5
5B
330
58
100
AcDbEntity
 67
     1
  8
0
100
AcDbBlockEnd
  0
BLOCK
  5
5F
330
5D
100
AcDbEntity
 67
     1
  8
0
100
AcDbBlockBegin
  2
*Paper_Space0
 70
     0
 10
0.0
 20
0.0
 30
0.0
  3
*Paper_Space0
  1

  0
ENDBLK
  5
60
330
5D
100
AcDbEntity
 67
     1
  8
0
100
AcDbBlockEnd
  0
BLOCK
  5
C7
330
C6
100
AcDbEntity
  8
0
100
AcDbBlockBegin
  2
_Open30
 70
     0
 10
0.0
 20
0.0
 30
0.0
  3
_Open30
  1

  0
LINE
  5
C8
330
C6
100
AcDbEntity
  8
0
  6
ByBlock
 62
     0
370
    -2
100
AcDbLine
 10
-1.0
 20
0.267949
 30
0.0
 11
0.0
 21
0.0
 31
0.0
  0
LINE
  5
C9
330
C6
100
AcDbEntity
  8
0
  6
ByBlock
 62
     0
370
    -2
100
AcDbLine
 10
0.0
 20
0.0
 30
0.0
 11
-1.0
 21
-0.267949
 31
0.0
  0
LINE
  5
CA
330
C6
100
AcDbEntity
  8
0
  6
ByBlock
 62
     0
370
    -2
100
AcDbLine
 10
0.0
 20
0.0
 30
0.0
 11
-1.0
 21
0.0
 31
0.0
  0
ENDBLK
  5
CB
330
C6
100
AcDbEntity
  8
0
100
AcDbBlockEnd
  0
BLOCK
  5
8E4
330
8E3
100
AcDbEntity
  8
0
100
AcDbBlockBegin
  2
*D2
 70
     1
 10
0.0
 20
0.0
 30
0.0
  3
*D2
  1

  0
LINE
  5
F74
330
8E3
100
AcDbEntity
  8
0
 62
     0
370
    -2
100
AcDbLine
 10
901.7201143258427
 20
158.3654498439546
 30
0.0
 11
927.4268339293412
 21
158.3654498439546
 31
0.0
  0
LINE
  5
F75
330
8E3
100
AcDbEntity
  8
0
 62
     0
370
    -2
100
AcDbLine
 10
901.7201143258427
 20
129.147249318657
 30
0.0
 11
927.4268339293412
 21
129.147249318657
 31
0.0
  0
LINE
  5
F76
330
8E3
100
AcDbEntity
  8
0
 62
     0
370
    -2
100
AcDbLine
 10
926.1768339293412
 20
155.8654498439546
 30
0.0
 11
926.1768339293412
 21
131.647249318657
 31
0.0
  0
INSERT
  5
F77
330
8E3
100
AcDbEntity
  8
0
 62
     0
370
    -2
100
AcDbBlockReference
  2
_Open30
 10
926.1768339293412
 20
158.3654498439546
 30
0.0
 41
2.5
 42
2.5
 43
2.5
 50
90.0
  0
INSERT
  5
F78
330
8E3
100
AcDbEntity
  8
0
 62
     0
370
    -2
100
AcDbBlockReference
  2
_Open30
 10
926.1768339293412
 20
129.147249318657
 30
0.0
 41
2.5
 42
2.5
 43
2.5
 50
270.0
  0
MTEXT
  5
F79
330
8E3
100
AcDbEntity
  8
0
 62
     4
100
AcDbMText
 10
924.0518339293412
 20
142.7042831101466
 30
0.0
 40
3.0
 41
0.0
 71
     5
 72
     1
  1
3000
 11
0.0000000000000001
 21
1.0
 31
0.0
 73
     1
 44
1.0
1001
ACAD
1000
MTEXTBEGIN
1070
    73
1070
     1
1070
    44
1040
1.0
1070
    74
1070
     0
1000
MTEXTEND
  0
POINT
  5
F7A
330
8E3
100
AcDbEntity
  8
Defpoints
 62
     0
100
AcDbPoint
 10
901.4701143258427
 20
158.3654498439546
 30
0.0
  0
POINT
  5
F7B
330
8E3
100
AcDbEntity
  8
Defpoints
 62
     0
100
AcDbPoint
 10
901.4701143258427
 20
129.147249318657
 30
0.0
  0
POINT
  5
F7C
330
8E3
100
AcDbEntity
  8
Defpoints
 62
     0
100
AcDbPoint
 10
926.1768339293412
 20
129.147249318657
 30
0.0
  0
ENDBLK
  5
8E5
330
8E3
100
AcDbEntity
  8
0
100
AcDbBlockEnd
  0
BLOCK
  5
8FC
330
8FB
100
AcDbEntity
  8
0
100
AcDbBlockBegin
  2
*D3
 70
     1
 10
0.0
 20
0.0
 30
0.0
  3
*D3
  1

  0
LINE
  5
F7D
330
8FB
100
AcDbEntity
  8
0
 62
     0
370
    -2
100
AcDbLine
 10
901.7201143258427
 20
158.3654498439546
 30
0.0
 11
927.4268339293412
 21
158.3654498439546
 31
0.0
  0
LINE
  5
F7E
330
8FB
100
AcDbEntity
  8
0
 62
     0
370
    -2
100
AcDbLine
 10
906.6201143258428
 20
211.8654498439546
 30
0.0
 11
927.4268339293412
 21
211.8654498439546
 31
0.0
  0
LINE
  5
F7F
330
8FB
100
AcDbEntity
  8
0
 62
     0
370
    -2
100
AcDbLine
 10
926.1768339293412
 20
160.8654498439546
 30
0.0
 11
926.1768339293412
 21
209.3654498439546
 31
0.0
  0
INSERT
  5
F80
330
8FB
100
AcDbEntity
  8
0
 62
     0
370
    -2
100
AcDbBlockReference
  2
_Open30
 10
926.1768339293412
 20
158.3654498439546
 30
0.0
 41
2.5
 42
2.5
 43
2.5
 50
270.0
  0
INSERT
  5
F81
330
8FB
100
AcDbEntity
  8
0
 62
     0
370
    -2
100
AcDbBlockReference
  2
_Open30
 10
926.1768339293412
 20
211.8654498439546
 30
0.0
 41
2.5
 42
2.5
 43
2.5
 50
90.0
  0
MTEXT
  5
F82
330
8FB
100
AcDbEntity
  8
0
 62
     4
100
AcDbMText
 10
924.0518339293412
 20
185.1154498439546
 30
0.0
 40
3.0
 41
0.0
 71
     5
 72
     1
  1
53.5
 11
0.0000000000000001
 21
1.0
 31
0.0
 73
     1
 44
1.0
1001
ACAD
1000
MTEXTBEGIN
1070
    73
1070
     1
1070
    44
1040
1.0
1070
    74
1070
     0
1000
MTEXTEND
  0
POINT
  5
F83
330
8FB
100
AcDbEntity
  8
Defpoints
 62
     0
100
AcDbPoint
 10
901.4701143258427
 20
158.3654498439546
 30
0.0
  0
POINT
  5
F84
330
8FB
100
AcDbEntity
  8
Defpoints
 62
     0
100
AcDbPoint
 10
906.3701143258427
 20
211.8654498439546
 30
0.0
  0
POINT
  5
F85
330
8FB
100
AcDbEntity
  8
Defpoints
 62
     0
100
AcDbPoint
 10
926.1768339293412
 20
211.8654498439546
 30
0.0
  0
ENDBLK
  5
8FD
330
8FB
100
AcDbEntity
  8
0
100
AcDbBlockEnd
  0
BLOCK
  5
930
330
92F
100
AcDbEntity
  8
0
100
AcDbBlockBegin
  2
*D4
 70
     1
 10
0.0
 20
0.0
 30
0.0
  3
*D4
  1

  0
LINE
  5
F86
330
92F
100
AcDbEntity
  8
0
 62
     0
370
    -2
100
AcDbLine
 10
906.3701143258427
 20
245.0662614518622
 30
0.0
 11
906.3701143258427
 21
253.4765221237444
 31
0.0
  0
LINE
  5
F87
330
92F
100
AcDbEntity
  8
0
 62
     0
370
    -2
100
AcDbLine
 10
884.5701143258422
 20
245.0662614518622
 30
0.0
 11
884.5701143258422
 21
253.4765221237444
 31
0.0
  0
LINE
  5
F88
330
92F
100
AcDbEntity
  8
0
 62
     0
370
    -2
100
AcDbLine
 10
903.8701143258428
 20
252.2265221237444
 30
0.0
 11
887.0701143258422
 21
252.2265221237444
 31
0.0
  0
INSERT
  5
F89
330
92F
100
AcDbEntity
  8
0
 62
     0
370
    -2
100
AcDbBlockReference
  2
_Open30
 10
906.3701143258427
 20
252.2265221237444
 30
0.0
 41
2.5
 42
2.5
 43
2.5
  0
INSERT
  5
F8A
330
92F
100
AcDbEntity
  8
0
 62
     0
370
    -2
100
AcDbBlockReference
  2
_Open30
 10
884.5701143258422
 20
252.2265221237444
 30
0.0
 41
2.5
 42
2.5
 43
2.5
 50
180.0
  0
MTEXT
  5
F8B
330
92F
100
AcDbEntity
  8
0
 62
     4
100
AcDbMText
 10
895.4296833555082
 20
254.3515221237444
 30
0.0
 40
3.0
 41
0.0
 71
     5
 72
     1
  1
21.8
 73
     1
 44
1.0
1001
ACAD
1000
MTEXTBEGIN
1070
    73
1070
     1
1070
    44
1040
1.0
1070
    74
1070
     0
1000
MTEXTEND
  0
POINT
  5
F8C
330
92F
100
AcDbEntity
  8
Defpoints
 62
     0
100
AcDbPoint
 10
906.3701143258427
 20
244.8162614518622
 30
0.0
  0
POINT
  5
F8D
330
92F
100
AcDbEntity
  8
Defpoints
 62
     0
100
AcDbPoint
 10
884.5701143258422
 20
244.8162614518622
 30
0.0
  0
POINT
  5
F8E
330
92F
100
AcDbEntity
  8
Defpoints
 62
     0
100
AcDbPoint
 10
884.5701143258422
 20
252.2265221237444
 30
0.0
  0
ENDBLK
  5
931
330
92F
100
AcDbEntity
  8
0
100
AcDbBlockEnd
  0
BLOCK
  5
948
330
947
100
AcDbEntity
  8
0
100
AcDbBlockBegin
  2
*D5
 70
     1
 10
0.0
 20
0.0
 30
0.0
  3
*D5
  1

  0
LINE
  5
F8F
330
947
100
AcDbEntity
  8
0
 62
     0
370
    -2
100
AcDbLine
 10
886.3201143258425
 20
246.8162614518622
 30
0.0
 11
874.8069348866437
 21
246.8162614518622
 31
0.0
  0
LINE
  5
F90
330
947
100
AcDbEntity
  8
0
 62
     0
370
    -2
100
AcDbLine
 10
889.5485414505891
 20
231.8162614518622
 30
0.0
 11
874.8069348866437
 21
231.8162614518622
 31
0.0
  0
LINE
  5
F91
330
947
100
AcDbEntity
  8
0
 62
     0
370
    -2
100
AcDbLine
 10
876.0569348866438
 20
244.3162614518622
 30
0.0
 11
876.0569348866438
 21
234.3162614518622
 31
0.0
  0
INSERT
  5
F92
330
947
100
AcDbEntity
  8
0
 62
     0
370
    -2
100
AcDbBlockReference
  2
_Open30
 10
876.0569348866438
 20
246.8162614518622
 30
0.0
 41
2.5
 42
2.5
 43
2.5
 50
90.0
  0
INSERT
  5
F93
330
947
100
AcDbEntity
  8
0
 62
     0
370
    -2
100
AcDbBlockReference
  2
_Open30
 10
876.0569348866438
 20
231.8162614518622
 30
0.0
 41
2.5
 42
2.5
 43
2.5
 50
270.0
  0
MTEXT
  5
F94
330
947
100
AcDbEntity
  8
0
 62
     4
100
AcDbMText
 10
873.9319348866438
 20
239.8464045415145
 30
0.0
 40
3.0
 41
0.0
 71
     5
 72
     1
  1
15
 11
0.0000000000000001
 21
1.0
 31
0.0
 73
     1
 44
1.0
1001
ACAD
1000
MTEXTBEGIN
1070
    73
1070
     1
1070
    44
1040
1.0
1070
    74
1070
     0
1000
MTEXTEND
  0
POINT
  5
F95
330
947
100
AcDbEntity
  8
Defpoints
 62
     0
100
AcDbPoint
 10
886.5701143258426
 20
246.8162614518622
 30
0.0
  0
POINT
  5
F96
330
947
100
AcDbEntity
  8
Defpoints
 62
     0
100
AcDbPoint
 10
889.7985414505891
 20
231.8162614518622
 30
0.0
  0
POINT
  5
F97
330
947
100
AcDbEntity
  8
Defpoints
 62
     0
100
AcDbPoint
 10
876.0569348866438
 20
231.8162614518622
 30
0.0
  0
ENDBLK
  5
949
330
947
100
AcDbEntity
  8
0
100
AcDbBlockEnd
  0
ENDSEC
  0
SECTION
  2
ENTITIES
  0
LINE
  5
823
330
1F
100
AcDbEntity
  8
0
 62
     3
100
AcDbLine
 10
886.7701143258427
 20
224.8654498439546
 30
0.0
 11
904.1701143258427
 21
224.8654498439546
 31
0.0
  0
LINE
  5
824
330
1F
100
AcDbEntity
  8
0
 62
     3
100
AcDbLine
 10
884.5701143258422
 20
211.8654498439546
 30
0.0
 11
906.3701143258427
 21
211.8654498439546
 31
0.0
  0
LINE
  5
825
330
1F
100
AcDbEntity
  8
0
 62
     3
100
AcDbLine
 10
904.1701143258427
 20
224.8654498439546
 30
0.0
 11
904.1701143258427
 21
211.8654498439546
 31
0.0
  0
LINE
  5
826
330
1F
100
AcDbEntity
  8
0
 62
     3
100
AcDbLine
 10
886.7701143258427
 20
224.8654498439546
 30
0.0
 11
886.7701143258427
 21
211.8654498439546
 31
0.0
  0
LINE
  5
827
330
1F
100
AcDbEntity
  8
0
 62
     3
100
AcDbLine
 10
899.5701143258424
 20
224.8654498439546
 30
0.0
 11
899.5701143258424
 21
211.8654498439546
 31
0.0
  0
LINE
  5
828
330
1F
100
AcDbEntity
  8
0
 62
     3
100
AcDbLine
 10
891.3701143258428
 20
224.8654498439546
 30
0.0
 11
891.3701143258428
 21
211.8654498439546
 31
0.0
  0
LINE
  5
829
330
1F
100
AcDbEntity
  8
0
 62
     3
100
AcDbLine
 10
906.3701143258427
 20
211.8654498439546
 30
0.0
 11
906.3701143258427
 21
195.3654498439545
 31
0.0
  0
LINE
  5
82A
330
1F
100
AcDbEntity
  8
0
 62
     3
100
AcDbLine
 10
884.5701143258422
 20
211.8654498439546
 30
0.0
 11
884.5701143258422
 21
195.3654498439545
 31
0.0
  0
LINE
  5
82C
330
1F
100
AcDbEntity
  8
0
 62
     3
100
AcDbLine
 10
889.4701143258426
 20
158.3654498439546
 30
0.0
 11
901.4701143258427
 21
158.3654498439546
 31
0.0
  0
LINE
  5
832
330
1F
100
AcDbEntity
  8
0
 62
     3
100
AcDbLine
 10
902.1701143258423
 20
185.3654498439543
 30
0.0
 11
901.4701143258427
 21
158.3654498439546
 31
0.0
  0
LINE
  5
833
330
1F
100
AcDbEntity
  8
0
 62
     3
100
AcDbLine
 10
888.7701143258427
 20
185.3654498439542
 30
0.0
 11
889.4701143258426
 21
158.3654498439546
 31
0.0
  0
ARC
  5
837
330
1F
100
AcDbEntity
  8
0
 62
     3
100
AcDbCircle
 10
917.0962421453916
 20
184.978476159744
 30
0.0
 40
14.93114330243268
100
AcDbArc
 50
135.9203019927117
 51
178.514886546324
  0
ARC
  5
838
330
1F
100
AcDbEntity
  8
0
 62
     3
100
AcDbCircle
 10
873.843986506294
 20
184.978476159744
 30
0.0
 40
14.93114330243268
100
AcDbArc
 50
1.485113453675938
 51
44.0796980072941
  0
LINE
  5
839
330
1F
100
AcDbEntity
  8
0
 62
     3
100
AcDbLine
 10
901.9701143258426
 20
197.3654498439546
 30
0.0
 11
901.9701143258426
 21
211.8654498439546
 31
0.0
  0
LINE
  5
83A
330
1F
100
AcDbEntity
  8
0
 62
     3
100
AcDbLine
 10
888.9701143258427
 20
197.3654498439546
 30
0.0
 11
888.9701143258427
 21
211.8654498439546
 31
0.0
  0
LINE
  5
83D
330
1F
100
AcDbEntity
  8
0
 62
     3
100
AcDbLine
 10
902.4701143258427
 20
196.3654498439546
 30
0.0
 11
902.4701143258427
 21
187.9810459464431
 31
0.0
  0
LINE
  5
83E
330
1F
100
AcDbEntity
  8
0
 62
     3
100
AcDbLine
 10
888.4701143258425
 20
196.3654498439546
 30
0.0
 11
888.4701143258425
 21
187.9810459464431
 31
0.0
  0
LINE
  5
83F
330
1F
100
AcDbEntity
  8
0
 62
     3
100
AcDbLine
 10
901.9701143258426
 20
197.3654498439546
 30
0.0
 11
902.4701143258427
 21
196.3654498439546
 31
0.0
  0
LINE
  5
840
330
1F
100
AcDbEntity
  8
0
 62
     3
100
AcDbLine
 10
902.4701143258427
 20
196.3654498439546
 30
0.0
 11
888.4701143258425
 21
196.3654498439546
 31
0.0
  0
LINE
  5
841
330
1F
100
AcDbEntity
  8
0
 62
     3
100
AcDbLine
 10
888.4701143258425
 20
196.3654498439546
 30
0.0
 11
888.9701143258427
 21
197.3654498439546
 31
0.0
  0
LINE
  5
842
330
1F
100
AcDbEntity
  8
0
 62
     3
100
AcDbLine
 10
888.9701143258427
 20
197.3654498439546
 30
0.0
 11
901.9701143258426
 21
197.3654498439546
 31
0.0
  0
LINE
  5
843
330
1F
100
AcDbEntity
  8
0
 62
     3
100
AcDbLine
 10
900.2201143258426
 20
189.8654498439546
 30
0.0
 11
900.2201143258426
 21
196.3654498439546
 31
0.0
  0
LINE
  5
844
330
1F
100
AcDbEntity
  8
0
 62
     3
100
AcDbLine
 10
890.7201143258427
 20
189.8654498439546
 30
0.0
 11
890.7201143258427
 21
196.3654498439546
 31
0.0
  0
LINE
  5
848
330
1F
100
AcDbEntity
  8
0
 62
     7
100
AcDbLine
 10
900.2201143258426
 20
189.8654498439546
 30
0.0
 11
890.7201143258427
 21
189.8654498439546
 31
0.0
  0
LINE
  5
84C
330
1F
100
AcDbEntity
  8
0
 62
     3
100
AcDbLine
 10
900.2201143258426
 20
189.8654498439546
 30
0.0
 11
899.3701143258428
 21
183.2654498439545
 31
0.0
  0
LINE
  5
84D
330
1F
100
AcDbEntity
  8
0
 62
     3
100
AcDbLine
 10
899.3701143258428
 20
183.2654498439545
 30
0.0
 11
891.5701143258424
 21
183.2654498439545
 31
0.0
  0
LINE
  5
84E
330
1F
100
AcDbEntity
  8
0
 62
     3
100
AcDbLine
 10
891.5701143258424
 20
183.2654498439545
 30
0.0
 11
890.7201143258427
 21
189.8654498439546
 31
0.0
  0
LINE
  5
84F
330
1F
100
AcDbEntity
  8
0
 62
     7
100
AcDbLine
 10
900.091326447055
 20
188.8654498439546
 30
0.0
 11
890.8489022046309
 21
188.8654498439546
 31
0.0
  0
LINE
  5
850
330
1F
100
AcDbEntity
  8
0
 62
     7
100
AcDbLine
 10
899.9625385682671
 20
187.8654498439546
 30
0.0
 11
890.9776900834186
 21
187.8654498439546
 31
0.0
  0
LINE
  5
851
330
1F
100
AcDbEntity
  8
0
 62
     7
100
AcDbLine
 10
899.8337506894792
 20
186.8654498439546
 30
0.0
 11
891.1064779622064
 21
186.8654498439545
 31
0.0
  0
LINE
  5
852
330
1F
100
AcDbEntity
  8
0
 62
     7
100
AcDbLine
 10
899.7049628106916
 20
185.8654498439546
 30
0.0
 11
891.2352658409943
 21
185.8654498439545
 31
0.0
  0
LINE
  5
853
330
1F
100
AcDbEntity
  8
0
 62
     7
100
AcDbLine
 10
899.5761749319031
 20
184.8654498439546
 30
0.0
 11
891.3640537197821
 21
184.8654498439546
 31
0.0
  0
LINE
  5
854
330
1F
100
AcDbEntity
  8
0
 62
     3
100
AcDbLine
 10
889.3275217332497
 20
163.8654498439546
 30
0.0
 11
901.6127069184353
 21
163.8654498439546
 31
0.0
  0
LINE
  5
855
330
1F
100
AcDbEntity
  8
0
 62
     3
100
AcDbLine
 10
889.288632844361
 20
165.3654498439546
 30
0.0
 11
901.6515958073242
 21
165.3654498439546
 31
0.0
  0
LINE
  5
856
330
1F
100
AcDbEntity
  8
0
 62
     3
100
AcDbLine
 10
889.2238180295462
 20
167.8654498439546
 30
0.0
 11
901.716410622139
 21
167.8654498439546
 31
0.0
  0
LINE
  5
857
330
1F
100
AcDbEntity
  8
0
 62
     3
100
AcDbLine
 10
889.1849291406577
 20
169.3654498439546
 30
0.0
 11
901.7552995110277
 21
169.3654498439546
 31
0.0
  0
LINE
  5
858
330
1F
100
AcDbEntity
  8
0
 62
     3
100
AcDbLine
 10
889.1201143258426
 20
171.8654498439546
 30
0.0
 11
901.820114325843
 21
171.8654498439546
 31
0.0
  0
LINE
  5
859
330
1F
100
AcDbEntity
  8
0
 62
     3
100
AcDbLine
 10
889.0812254369537
 20
173.3654498439546
 30
0.0
 11
901.8590032147315
 21
173.3654498439546
 31
0.0
  0
LINE
  5
85A
330
1F
100
AcDbEntity
  8
0
 62
     3
100
AcDbLine
 10
889.0164106221387
 20
175.8654498439546
 30
0.0
 11
901.9238180295463
 21
175.8654498439546
 31
0.0
  0
LINE
  5
85B
330
1F
100
AcDbEntity
  8
0
 62
     3
100
AcDbLine
 10
888.97752173325
 20
177.3654498439546
 30
0.0
 11
901.9627069184352
 21
177.3654498439546
 31
0.0
  0
LINE
  5
85C
330
1F
100
AcDbEntity
  8
0
 62
     7
100
AcDbLine
 10
896.4701143258427
 20
177.3654498439546
 30
0.0
 11
896.4701143258427
 21
175.8654498439546
 31
0.0
  0
LINE
  5
85D
330
1F
100
AcDbEntity
  8
0
 62
     7
100
AcDbLine
 10
894.4701143258427
 20
177.3654498439546
 30
0.0
 11
894.4701143258427
 21
175.8654498439546
 31
0.0
  0
LINE
  5
85E
330
1F
100
AcDbEntity
  8
0
 62
     7
100
AcDbLine
 10
894.4701143258427
 20
173.3654498439546
 30
0.0
 11
894.4701143258427
 21
171.8654498439546
 31
0.0
  0
LINE
  5
85F
330
1F
100
AcDbEntity
  8
0
 62
     7
100
AcDbLine
 10
896.4701143258427
 20
173.3654498439546
 30
0.0
 11
896.4701143258427
 21
171.8654498439546
 31
0.0
  0
LINE
  5
860
330
1F
100
AcDbEntity
  8
0
 62
     7
100
AcDbLine
 10
894.4701143258427
 20
169.3654498439546
 30
0.0
 11
894.4701143258427
 21
167.8654498439546
 31
0.0
  0
LINE
  5
861
330
1F
100
AcDbEntity
  8
0
 62
     7
100
AcDbLine
 10
896.4701143258427
 20
169.3654498439546
 30
0.0
 11
896.4701143258427
 21
167.8654498439546
 31
0.0
  0
LINE
  5
862
330
1F
100
AcDbEntity
  8
0
 62
     7
100
AcDbLine
 10
894.4701143258427
 20
165.3654498439546
 30
0.0
 11
894.4701143258427
 21
163.8654498439546
 31
0.0
  0
LINE
  5
863
330
1F
100
AcDbEntity
  8
0
 62
     7
100
AcDbLine
 10
896.4701143258427
 20
165.3654498439546
 30
0.0
 11
896.4701143258427
 21
163.8654498439546
 31
0.0
  0
LINE
  5
864
330
1F
100
AcDbEntity
  8
0
 62
     7
100
AcDbLine
 10
898.9701143258427
 20
177.3654498439546
 30
0.0
 11
898.9701143258427
 21
175.8654498439546
 31
0.0
  0
LINE
  5
865
330
1F
100
AcDbEntity
  8
0
 62
     7
100
AcDbLine
 10
891.9701143258427
 20
177.3654498439546
 30
0.0
 11
891.9701143258427
 21
175.8654498439546
 31
0.0
  0
LINE
  5
866
330
1F
100
AcDbEntity
  8
0
 62
     7
100
AcDbLine
 10
891.9701143258427
 20
173.3654498439546
 30
0.0
 11
891.9701143258427
 21
171.8654498439546
 31
0.0
  0
LINE
  5
867
330
1F
100
AcDbEntity
  8
0
 62
     7
100
AcDbLine
 10
898.9701143258427
 20
173.3654498439546
 30
0.0
 11
898.9701143258427
 21
171.8654498439546
 31
0.0
  0
LINE
  5
868
330
1F
100
AcDbEntity
  8
0
 62
     7
100
AcDbLine
 10
898.9701143258427
 20
169.3654498439546
 30
0.0
 11
898.9701143258427
 21
167.8654498439546
 31
0.0
  0
LINE
  5
869
330
1F
100
AcDbEntity
  8
0
 62
     7
100
AcDbLine
 10
891.9701143258427
 20
169.3654498439546
 30
0.0
 11
891.9701143258427
 21
167.8654498439546
 31
0.0
  0
LINE
  5
86A
330
1F
100
AcDbEntity
  8
0
 62
     7
100
AcDbLine
 10
891.9701143258427
 20
165.3654498439546
 30
0.0
 11
891.9701143258427
 21
163.8654498439546
 31
0.0
  0
LINE
  5
86B
330
1F
100
AcDbEntity
  8
0
 62
     3
100
AcDbLine
 10
891.9701143258427
 20
158.3654498439546
 30
0.0
 11
891.9701143258427
 21
146.771916615468
 31
0.0
  0
LINE
  5
86C
330
1F
100
AcDbEntity
  8
0
 62
     7
100
AcDbLine
 10
898.9701143258427
 20
165.3654498439546
 30
0.0
 11
898.9701143258427
 21
163.8654498439546
 31
0.0
  0
LINE
  5
86D
330
1F
100
AcDbEntity
  8
0
 62
     3
100
AcDbLine
 10
898.9701143258427
 20
158.3654498439546
 30
0.0
 11
898.9701143258427
 21
144.0744046330874
 31
0.0
  0
LINE
  5
86E
330
1F
100
AcDbEntity
  8
0
 62
     3
100
AcDbLine
 10
904.3701143258427
 20
246.8162614518622
 30
0.0
 11
886.5701143258426
 21
246.8162614518622
 31
0.0
  0
LINE
  5
86F
330
1F
100
AcDbEntity
  8
0
 62
     3
100
AcDbLine
 10
901.1416872010968
 20
231.8162614518622
 30
0.0
 11
889.7985414505891
 21
231.8162614518622
 31
0.0
  0
LINE
  5
870
330
1F
100
AcDbEntity
  8
0
 62
     3
100
AcDbLine
 10
906.3701143258427
 20
237.0446885766082
 30
0.0
 11
906.3701143258427
 21
244.8162614518622
 31
0.0
  0
LINE
  5
871
330
1F
100
AcDbEntity
  8
0
 62
     3
100
AcDbLine
 10
884.5701143258422
 20
244.8162614518622
 30
0.0
 11
884.5701143258422
 21
237.0446885766086
 31
0.0
  0
LINE
  5
874
330
1F
100
AcDbEntity
  8
0
 62
     3
100
AcDbLine
 10
902.5559007634697
 20
232.4020478894891
 30
0.0
 11
905.7843278882158
 21
235.6304750142352
 31
0.0
  0
LINE
  5
875
330
1F
100
AcDbEntity
  8
0
 62
     3
100
AcDbLine
 10
885.1559007634698
 20
235.6304750142354
 30
0.0
 11
888.3843278882162
 21
232.402047889489
 31
0.0
  0
ARC
  5
879
330
1F
100
AcDbEntity
  8
0
 62
     3
100
AcDbCircle
 10
890.4701143258426
 20
241.6162614518622
 30
0.0
 40
3.7
100
AcDbArc
 50
355.227324396288
 51
282.7261375538662
  0
ARC
  5
87A
330
1F
100
AcDbEntity
  8
0
 62
     3
100
AcDbCircle
 10
900.4701143258426
 20
241.6162614518622
 30
0.0
 40
3.7
100
AcDbArc
 50
257.2738624461337
 51
184.7726756037118
  0
ARC
  5
87D
330
1F
100
AcDbEntity
  8
0
 62
     3
100
AcDbCircle
 10
895.4701143258429
 20
237.2662614518621
 30
0.0
 40
4.25
100
AcDbArc
 50
169.9604506990608
 51
10.03954930093919
  0
CIRCLE
  5
87E
330
1F
100
AcDbEntity
  8
0
 62
     3
100
AcDbCircle
 10
900.4701143258426
 20
241.6162614518622
 30
0.0
 40
1.5
  0
CIRCLE
  5
87F
330
1F
100
AcDbEntity
  8
0
 62
     3
100
AcDbCircle
 10
890.4701143258426
 20
241.6162614518622
 30
0.0
 40
1.5
  0
CIRCLE
  5
880
330
1F
100
AcDbEntity
  8
0
 62
     3
100
AcDbCircle
 10
895.4701143258429
 20
237.2662614518621
 30
0.0
 40
2.0
  0
ARC
  5
881
330
1F
100
AcDbEntity
  8
0
 62
     3
100
AcDbCircle
 10
895.4701143258429
 20
237.2662614518621
 30
0.0
 40
4.25
100
AcDbArc
 50
72.00698874890683
 51
107.9930112510931
  0
ARC
  5
884
330
1F
100
AcDbEntity
  8
0
 62
     3
100
AcDbCircle
 10
904.3701143258427
 20
244.8162614518622
 30
0.0
 40
2.0
100
AcDbArc
 50
0.0
 51
90.0
  0
ARC
  5
885
330
1F
100
AcDbEntity
  8
0
 62
     3
100
AcDbCircle
 10
886.5701143258426
 20
244.8162614518622
 30
0.0
 40
2.0
100
AcDbArc
 50
90.0
 51
180.0
  0
ARC
  5
886
330
1F
100
AcDbEntity
  8
0
 62
     3
100
AcDbCircle
 10
886.5701143258426
 20
237.0446885766086
 30
0.0
 40
2.0
100
AcDbArc
 50
180.0
 51
225.0000000000001
  0
ARC
  5
887
330
1F
100
AcDbEntity
  8
0
 62
     3
100
AcDbCircle
 10
889.7985414505891
 20
233.8162614518622
 30
0.0
 40
2.0
100
AcDbArc
 50
225.0000000000001
 51
270.0
  0
ARC
  5
888
330
1F
100
AcDbEntity
  8
0
 62
     3
100
AcDbCircle
 10
901.1416872010968
 20
233.8162614518622
 30
0.0
 40
2.0
100
AcDbArc
 50
270.0
 51
314.9999999999999
  0
ARC
  5
889
330
1F
100
AcDbEntity
  8
0
 62
     3
100
AcDbCircle
 10
904.3701143258427
 20
237.0446885766082
 30
0.0
 40
2.0
100
AcDbArc
 50
314.9999999999999
 51
0.0
  0
LINE
  5
88B
330
1F
100
AcDbEntity
  8
0
 62
     7
100
AcDbLine
 10
891.9701143258427
 20
110.147249318657
 30
0.0
 11
891.9701143258427
 21
111.647249318657
 31
0.0
  0
LINE
  5
88C
330
1F
100
AcDbEntity
  8
0
 62
     7
100
AcDbLine
 10
891.9701143258427
 20
114.147249318657
 30
0.0
 11
891.9701143258427
 21
115.647249318657
 31
0.0
  0
LINE
  5
88D
330
1F
100
AcDbEntity
  8
0
 62
     7
100
AcDbLine
 10
891.9701143258427
 20
118.147249318657
 30
0.0
 11
891.9701143258427
 21
119.647249318657
 31
0.0
  0
LINE
  5
88E
330
1F
100
AcDbEntity
  8
0
 62
     7
100
AcDbLine
 10
891.9701143258427
 20
122.147249318657
 30
0.0
 11
891.9701143258427
 21
123.647249318657
 31
0.0
  0
LINE
  5
88F
330
1F
100
AcDbEntity
  8
0
 62
     7
100
AcDbLine
 10
898.9701143258427
 20
110.147249318657
 30
0.0
 11
898.9701143258427
 21
111.647249318657
 31
0.0
  0
LINE
  5
890
330
1F
100
AcDbEntity
  8
0
 62
     7
100
AcDbLine
 10
898.9701143258427
 20
114.147249318657
 30
0.0
 11
898.9701143258427
 21
115.647249318657
 31
0.0
  0
LINE
  5
891
330
1F
100
AcDbEntity
  8
0
 62
     7
100
AcDbLine
 10
898.9701143258427
 20
118.147249318657
 30
0.0
 11
898.9701143258427
 21
119.647249318657
 31
0.0
  0
LINE
  5
892
330
1F
100
AcDbEntity
  8
0
 62
     7
100
AcDbLine
 10
898.9701143258427
 20
122.147249318657
 30
0.0
 11
898.9701143258427
 21
123.647249318657
 31
0.0
  0
LINE
  5
893
330
1F
100
AcDbEntity
  8
0
 62
     7
100
AcDbLine
 10
894.4701143258427
 20
110.147249318657
 30
0.0
 11
894.4701143258427
 21
111.647249318657
 31
0.0
  0
LINE
  5
894
330
1F
100
AcDbEntity
  8
0
 62
     7
100
AcDbLine
 10
894.4701143258427
 20
114.147249318657
 30
0.0
 11
894.4701143258427
 21
115.647249318657
 31
0.0
  0
LINE
  5
895
330
1F
100
AcDbEntity
  8
0
 62
     7
100
AcDbLine
 10
894.4701143258427
 20
118.147249318657
 30
0.0
 11
894.4701143258427
 21
119.647249318657
 31
0.0
  0
LINE
  5
896
330
1F
100
AcDbEntity
  8
0
 62
     7
100
AcDbLine
 10
894.4701143258427
 20
122.147249318657
 30
0.0
 11
894.4701143258427
 21
123.647249318657
 31
0.0
  0
LINE
  5
897
330
1F
100
AcDbEntity
  8
0
 62
     7
100
AcDbLine
 10
896.4701143258427
 20
110.147249318657
 30
0.0
 11
896.4701143258427
 21
111.647249318657
 31
0.0
  0
LINE
  5
898
330
1F
100
AcDbEntity
  8
0
 62
     7
100
AcDbLine
 10
896.4701143258427
 20
114.147249318657
 30
0.0
 11
896.4701143258427
 21
115.647249318657
 31
0.0
  0
LINE
  5
899
330
1F
100
AcDbEntity
  8
0
 62
     7
100
AcDbLine
 10
896.4701143258427
 20
118.147249318657
 30
0.0
 11
896.4701143258427
 21
119.647249318657
 31
0.0
  0
LINE
  5
89A
330
1F
100
AcDbEntity
  8
0
 62
     7
100
AcDbLine
 10
896.4701143258427
 20
122.147249318657
 30
0.0
 11
896.4701143258427
 21
123.647249318657
 31
0.0
  0
LINE
  5
89B
330
1F
100
AcDbEntity
  8
0
 62
     3
100
AcDbLine
 10
890.7201143258427
 20
97.64724931865707
 30
0.0
 11
890.7201143258427
 21
91.14724931865707
 31
0.0
  0
LINE
  5
89C
330
1F
100
AcDbEntity
  8
0
 62
     3
100
AcDbLine
 10
900.2201143258426
 20
97.64724931865707
 30
0.0
 11
900.2201143258426
 21
91.14724931865707
 31
0.0
  0
LINE
  5
89D
330
1F
100
AcDbEntity
  8
0
 62
     3
100
AcDbLine
 10
888.4701143258425
 20
91.14724931865707
 30
0.0
 11
888.4701143258425
 21
99.53165321616836
 31
0.0
  0
LINE
  5
89E
330
1F
100
AcDbEntity
  8
0
 62
     3
100
AcDbLine
 10
902.4701143258427
 20
91.14724931865707
 30
0.0
 11
902.4701143258427
 21
99.53165321616836
 31
0.0
  0
LINE
  5
89F
330
1F
100
AcDbEntity
  8
0
 62
     3
100
AcDbLine
 10
888.9701143258427
 20
90.14724931865705
 30
0.0
 11
888.9701143258427
 21
75.64724931865703
 31
0.0
  0
LINE
  5
8A0
330
1F
100
AcDbEntity
  8
0
 62
     3
100
AcDbLine
 10
901.9701143258426
 20
90.14724931865705
 30
0.0
 11
901.9701143258426
 21
75.64724931865703
 31
0.0
  0
LINE
  5
8A1
330
1F
100
AcDbEntity
  8
0
 62
     3
100
AcDbLine
 10
884.5701143258422
 20
75.64724931865703
 30
0.0
 11
884.5701143258422
 21
92.14724931865708
 31
0.0
  0
LINE
  5
8A2
330
1F
100
AcDbEntity
  8
0
 62
     3
100
AcDbLine
 10
906.3701143258427
 20
75.64724931865703
 30
0.0
 11
906.3701143258427
 21
92.14724931865708
 31
0.0
  0
LINE
  5
8A3
330
1F
100
AcDbEntity
  8
0
 62
     3
100
AcDbLine
 10
891.3701143258428
 20
62.64724931865703
 30
0.0
 11
891.3701143258428
 21
75.64724931865703
 31
0.0
  0
LINE
  5
8A4
330
1F
100
AcDbEntity
  8
0
 62
     3
100
AcDbLine
 10
899.5701143258424
 20
62.64724931865703
 30
0.0
 11
899.5701143258424
 21
75.64724931865703
 31
0.0
  0
LINE
  5
8A5
330
1F
100
AcDbEntity
  8
0
 62
     3
100
AcDbLine
 10
886.7701143258427
 20
62.64724931865703
 30
0.0
 11
886.7701143258427
 21
75.64724931865703
 31
0.0
  0
LINE
  5
8A6
330
1F
100
AcDbEntity
  8
0
 62
     3
100
AcDbLine
 10
904.1701143258427
 20
62.64724931865703
 30
0.0
 11
904.1701143258427
 21
75.64724931865703
 31
0.0
  0
LINE
  5
8A7
330
1F
100
AcDbEntity
  8
0
 62
     3
100
AcDbLine
 10
886.7701143258427
 20
62.64724931865703
 30
0.0
 11
904.1701143258427
 21
62.64724931865703
 31
0.0
  0
LINE
  5
8A8
330
1F
100
AcDbEntity
  8
0
 62
     3
100
AcDbLine
 10
884.5701143258422
 20
75.64724931865703
 30
0.0
 11
906.3701143258427
 21
75.64724931865703
 31
0.0
  0
LINE
  5
8A9
330
1F
100
AcDbEntity
  8
0
 62
     3
100
AcDbLine
 10
889.4701143258426
 20
129.147249318657
 30
0.0
 11
901.4701143258427
 21
129.147249318657
 31
0.0
  0
LINE
  5
8AA
330
1F
100
AcDbEntity
  8
0
 62
     3
100
AcDbLine
 10
889.3275217332497
 20
123.647249318657
 30
0.0
 11
901.6127069184353
 21
123.647249318657
 31
0.0
  0
LINE
  5
8AB
330
1F
100
AcDbEntity
  8
0
 62
     3
100
AcDbLine
 10
889.288632844361
 20
122.147249318657
 30
0.0
 11
901.6515958073242
 21
122.147249318657
 31
0.0
  0
LINE
  5
8AC
330
1F
100
AcDbEntity
  8
0
 62
     3
100
AcDbLine
 10
889.2238180295462
 20
119.647249318657
 30
0.0
 11
901.716410622139
 21
119.647249318657
 31
0.0
  0
LINE
  5
8AD
330
1F
100
AcDbEntity
  8
0
 62
     3
100
AcDbLine
 10
889.1849291406577
 20
118.147249318657
 30
0.0
 11
901.7552995110277
 21
118.147249318657
 31
0.0
  0
LINE
  5
8AE
330
1F
100
AcDbEntity
  8
0
 62
     3
100
AcDbLine
 10
889.1201143258426
 20
115.647249318657
 30
0.0
 11
901.820114325843
 21
115.647249318657
 31
0.0
  0
LINE
  5
8AF
330
1F
100
AcDbEntity
  8
0
 62
     3
100
AcDbLine
 10
889.0812254369537
 20
114.147249318657
 30
0.0
 11
901.8590032147315
 21
114.147249318657
 31
0.0
  0
LINE
  5
8B0
330
1F
100
AcDbEntity
  8
0
 62
     3
100
AcDbLine
 10
889.0164106221387
 20
111.647249318657
 30
0.0
 11
901.9238180295463
 21
111.647249318657
 31
0.0
  0
LINE
  5
8B1
330
1F
100
AcDbEntity
  8
0
 62
     3
100
AcDbLine
 10
888.97752173325
 20
110.147249318657
 30
0.0
 11
901.9627069184352
 21
110.147249318657
 31
0.0
  0
LINE
  5
8B2
330
1F
100
AcDbEntity
  8
0
 62
     3
100
AcDbLine
 10
902.1701143258423
 20
102.1472493186573
 30
0.0
 11
901.4701143258427
 21
129.147249318657
 31
0.0
  0
LINE
  5
8B3
330
1F
100
AcDbEntity
  8
0
 62
     3
100
AcDbLine
 10
888.7701143258427
 20
102.1472493186573
 30
0.0
 11
889.4701143258426
 21
129.147249318657
 31
0.0
  0
ARC
  5
8B4
330
1F
100
AcDbEntity
  8
0
 62
     3
100
AcDbCircle
 10
917.0962421453916
 20
102.5342230028676
 30
0.0
 40
14.93114330243268
100
AcDbArc
 50
181.485113453675
 51
224.0796980072881
  0
ARC
  5
8B5
330
1F
100
AcDbEntity
  8
0
 62
     3
100
AcDbCircle
 10
873.843986506294
 20
102.5342230028676
 30
0.0
 40
14.93114330243268
100
AcDbArc
 50
315.9203019927034
 51
358.5148865463248
  0
LINE
  5
8B6
330
1F
100
AcDbEntity
  8
0
 62
     3
100
AcDbLine
 10
901.9701143258426
 20
90.14724931865705
 30
0.0
 11
902.4701143258427
 21
91.14724931865707
 31
0.0
  0
LINE
  5
8B7
330
1F
100
AcDbEntity
  8
0
 62
     3
100
AcDbLine
 10
902.4701143258427
 20
91.14724931865707
 30
0.0
 11
888.4701143258425
 21
91.14724931865707
 31
0.0
  0
LINE
  5
8B8
330
1F
100
AcDbEntity
  8
0
 62
     7
100
AcDbLine
 10
900.2201143258426
 20
97.64724931865707
 30
0.0
 11
890.7201143258427
 21
97.64724931865707
 31
0.0
  0
LINE
  5
8B9
330
1F
100
AcDbEntity
  8
0
 62
     7
100
AcDbLine
 10
900.091326447055
 20
98.64724931865708
 30
0.0
 11
890.8489022046309
 21
98.64724931865708
 31
0.0
  0
LINE
  5
8BA
330
1F
100
AcDbEntity
  8
0
 62
     7
100
AcDbLine
 10
899.9625385682671
 20
99.64724931865696
 30
0.0
 11
890.9776900834186
 21
99.64724931865706
 31
0.0
  0
LINE
  5
8BB
330
1F
100
AcDbEntity
  8
0
 62
     7
100
AcDbLine
 10
899.8337506894792
 20
100.647249318657
 30
0.0
 11
891.1064779622064
 21
100.6472493186571
 31
0.0
  0
LINE
  5
8BC
330
1F
100
AcDbEntity
  8
0
 62
     7
100
AcDbLine
 10
899.7049628106916
 20
101.647249318657
 30
0.0
 11
891.2352658409943
 21
101.6472493186571
 31
0.0
  0
LINE
  5
8BD
330
1F
100
AcDbEntity
  8
0
 62
     7
100
AcDbLine
 10
899.5761749319031
 20
102.647249318657
 30
0.0
 11
891.3640537197821
 21
102.647249318657
 31
0.0
  0
LINE
  5
8BE
330
1F
100
AcDbEntity
  8
0
 62
     3
100
AcDbLine
 10
888.4701143258425
 20
91.14724931865707
 30
0.0
 11
888.9701143258427
 21
90.14724931865705
 31
0.0
  0
LINE
  5
8BF
330
1F
100
AcDbEntity
  8
0
 62
     3
100
AcDbLine
 10
888.9701143258427
 20
90.14724931865705
 30
0.0
 11
901.9701143258426
 21
90.14724931865705
 31
0.0
  0
LINE
  5
8C0
330
1F
100
AcDbEntity
  8
0
 62
     3
100
AcDbLine
 10
900.2201143258426
 20
97.64724931865707
 30
0.0
 11
899.3701143258428
 21
104.247249318657
 31
0.0
  0
LINE
  5
8C1
330
1F
100
AcDbEntity
  8
0
 62
     3
100
AcDbLine
 10
899.3701143258428
 20
104.247249318657
 30
0.0
 11
891.5701143258424
 21
104.247249318657
 31
0.0
  0
LINE
  5
8C2
330
1F
100
AcDbEntity
  8
0
 62
     3
100
AcDbLine
 10
891.5701143258424
 20
104.247249318657
 30
0.0
 11
890.7201143258427
 21
97.64724931865707
 31
0.0
  0
ARC
  5
8D6
330
1F
100
AcDbEntity
  8
0
100
AcDbCircle
 10
892.3432343494349
 20
142.4565775013742
 30
0.0
 40
4.331439740044038
100
AcDbArc
 50
40.9810933850447
 51
142.2840773942748
  0
ARC
  5
8D7
330
1F
100
AcDbEntity
  8
0
100
AcDbCircle
 10
898.6991755170317
 20
148.5500129860202
 30
0.0
 40
4.483801731450839
100
AcDbArc
 50
226.5074136344084
 51
310.3212519642446
  0
ARC
  5
8DE
330
1F
100
AcDbEntity
  8
0
100
AcDbCircle
 10
892.3432343494349
 20
138.6117802355896
 30
0.0
 40
4.331439740044038
100
AcDbArc
 50
40.9810933850447
 51
142.2840773942748
  0
ARC
  5
8DF
330
1F
100
AcDbEntity
  8
0
100
AcDbCircle
 10
898.6991755170317
 20
144.7052157202356
 30
0.0
 40
4.483801731450839
100
AcDbArc
 50
226.5074136344084
 51
310.3212519642446
  0
LINE
  5
8E0
330
1F
100
AcDbEntity
  8
0
 62
     3
100
AcDbLine
 10
898.9701143258427
 20
140.2296073673028
 30
0.0
 11
898.9701143258427
 21
129.147249318657
 31
0.0
  0
LINE
  5
8E1
330
1F
100
AcDbEntity
  8
0
 62
     3
100
AcDbLine
 10
891.9701143258427
 20
142.9271193496834
 30
0.0
 11
891.9701143258427
 21
129.147249318657
 31
0.0
  0
TEXT
  5
983
330
1F
100
AcDbEntity
  8
0
 62
     4
100
AcDbText
 10
910.466669001722
 20
233.8084257517455
 30
0.0
 40
3.2
  1
7A 125V
  7
高3.2
100
AcDbText
  0
LINE
  5
984
330
1F
100
AcDbEntity
  8
0
100
AcDbLine
 10
910.0297033001336
 20
232.7894947943178
 30
0.0
 11
930.7126321708134
 21
232.7894947943178
 31
0.0
  0
LINE
  5
985
330
1F
100
AcDbEntity
  8
0
 62
     3
100
AcDbLine
 10
809.7537139416022
 20
146.3624419978891
 30
0.0
 11
809.2657871116022
 21
146.3624419978891
 31
0.0
  0
LINE
  5
986
330
1F
100
AcDbEntity
  8
0
 62
     3
100
AcDbLine
 10
821.2657871116023
 20
284.8624419978892
 30
0.0
 11
821.2657871116023
 21
7.862441997889161
 31
0.0
  0
LINE
  5
988
330
1F
100
AcDbEntity
  8
0
 62
     3
100
AcDbLine
 10
1001.265787111602
 20
7.862441997889161
 30
0.0
 11
1001.265787111602
 21
284.8624419978892
 31
0.0
  0
LINE
  5
989
330
1F
100
AcDbEntity
  8
0
 62
     3
100
AcDbLine
 10
821.2657871116023
 20
7.862441997889161
 30
0.0
 11
1001.265787111602
 21
7.862441997889161
 31
0.0
  0
LINE
  5
98A
330
1F
100
AcDbEntity
  8
0
 62
     3
100
AcDbLine
 10
858.3501391316023
 20
286.6498860978892
 30
0.0
 11
858.7858870416024
 21
286.4224179578891
 31
0.0
  0
LINE
  5
98B
330
1F
100
AcDbEntity
  8
0
 62
     3
100
AcDbLine
 10
858.3501391316023
 20
282.9192556178892
 30
0.0
 11
858.7858870416024
 21
283.1467237578891
 31
0.0
  0
LINE
  5
98C
330
1F
100
AcDbEntity
  8
0
 62
     3
100
AcDbLine
 10
858.7858870416024
 20
286.4224179578891
 30
0.0
 11
858.7858870416024
 21
283.1467237578891
 31
0.0
  0
LINE
  5
98D
330
1F
100
AcDbEntity
  8
0
 62
     3
100
AcDbLine
 10
859.8894044616024
 20
282.9192556178892
 30
0.0
 11
859.4536565516023
 21
283.1467237578891
 31
0.0
  0
LINE
  5
98E
330
1F
100
AcDbEntity
  8
0
 62
     3
100
AcDbLine
 10
859.4536565516023
 20
285.1435825678891
 30
0.0
 11
859.4536565516023
 21
283.1467237578891
 31
0.0
  0
LINE
  5
98F
330
1F
100
AcDbEntity
  8
0
 62
     3
100
AcDbLine
 10
862.4312672416023
 20
286.6498860978892
 30
0.0
 11
861.9955193316025
 21
286.4224179578891
 31
0.0
  0
LINE
  5
990
330
1F
100
AcDbEntity
  8
0
 62
     3
100
AcDbLine
 10
860.8920019116023
 20
286.6498860978892
 30
0.0
 11
861.3277498216023
 21
286.4224179578891
 31
0.0
  0
LINE
  5
991
330
1F
100
AcDbEntity
  8
0
 62
     3
100
AcDbLine
 10
861.3277498216023
 20
286.4224179578891
 30
0.0
 11
861.3277498216023
 21
284.9800808978891
 31
0.0
  0
LINE
  5
992
330
1F
100
AcDbEntity
  8
0
 62
     3
100
AcDbLine
 10
861.9955193316025
 20
286.4224179578891
 30
0.0
 11
861.9955193316025
 21
282.7076944778891
 31
0.0
  0
LINE
  5
993
330
1F
100
AcDbEntity
  8
0
 62
     3
100
AcDbLine
 10
862.6465644416024
 20
286.6498834678891
 30
0.0
 11
863.0823107816025
 21
286.4224123278892
 31
0.0
  0
LINE
  5
994
330
1F
100
AcDbEntity
  8
0
 62
     3
100
AcDbLine
 10
862.6464864716025
 20
282.9193055978891
 30
0.0
 11
863.0822423216025
 21
283.1467585178891
 31
0.0
  0
LINE
  5
995
330
1F
100
AcDbEntity
  8
0
 62
     3
100
AcDbLine
 10
863.0823107816025
 20
286.4224123278892
 30
0.0
 11
863.0823107816025
 21
283.1467585178891
 31
0.0
  0
LINE
  5
996
330
1F
100
AcDbEntity
  8
0
 62
     3
100
AcDbLine
 10
864.5761008416025
 20
286.6498597978891
 30
0.0
 11
864.1403497516025
 21
286.4223977678891
 31
0.0
  0
LINE
  5
997
330
1F
100
AcDbEntity
  8
0
 62
     3
100
AcDbLine
 10
864.1403497516025
 20
286.4223977678891
 30
0.0
 11
864.1403497516025
 21
283.1467439478891
 31
0.0
  0
LINE
  5
998
330
1F
100
AcDbEntity
  8
0
 62
     3
100
AcDbLine
 10
864.5761008416025
 20
282.9192819178892
 30
0.0
 11
864.1403497516025
 21
283.1467439478891
 31
0.0
  0
LINE
  5
999
330
1F
100
AcDbEntity
  8
0
 62
     3
100
AcDbLine
 10
868.2663542816023
 20
286.6498187978891
 30
0.0
 11
868.7021014016025
 21
286.4223491578891
 31
0.0
  0
LINE
  5
99A
330
1F
100
AcDbEntity
  8
0
 62
     3
100
AcDbLine
 10
868.7021014016025
 20
286.4223491578891
 30
0.0
 11
868.7020442316024
 21
283.1466953478891
 31
0.0
  0
LINE
  5
99B
330
1F
100
AcDbEntity
  8
0
 62
     3
100
AcDbLine
 10
868.2662891716024
 20
282.9192409178892
 30
0.0
 11
868.7020442316024
 21
283.1466953478891
 31
0.0
  0
LINE
  5
99C
330
1F
100
AcDbEntity
  8
0
 62
     3
100
AcDbLine
 10
870.2186152416025
 20
286.6498187978891
 30
0.0
 11
869.7828681216023
 21
286.4223491578891
 31
0.0
  0
LINE
  5
99D
330
1F
100
AcDbEntity
  8
0
 62
     3
100
AcDbLine
 10
870.2186803516022
 20
282.9192409178892
 30
0.0
 11
869.7829252916022
 21
283.1466953478891
 31
0.0
  0
LINE
  5
99E
330
1F
100
AcDbEntity
  8
0
 62
     3
100
AcDbLine
 10
870.4223431016025
 20
286.6498187978891
 30
0.0
 11
870.8580902316024
 21
286.4223491578891
 31
0.0
  0
LINE
  5
99F
330
1F
100
AcDbEntity
  8
0
 62
     3
100
AcDbLine
 10
870.4222779916023
 20
282.9192409178892
 30
0.0
 11
870.8580330516022
 21
283.1466953478891
 31
0.0
  0
LINE
  5
9A0
330
1F
100
AcDbEntity
  8
0
 62
     3
100
AcDbLine
 10
872.3746040716022
 20
286.6498187978891
 30
0.0
 11
871.9388569516025
 21
286.4223491578891
 31
0.0
  0
LINE
  5
9A1
330
1F
100
AcDbEntity
  8
0
 62
     3
100
AcDbLine
 10
871.9388569516025
 20
286.4223491578891
 30
0.0
 11
871.9389141216025
 21
283.1466953478891
 31
0.0
  0
LINE
  5
9A2
330
1F
100
AcDbEntity
  8
0
 62
     3
100
AcDbLine
 10
872.3746691816025
 20
282.9192409178892
 30
0.0
 11
871.9389141216025
 21
283.1466953478891
 31
0.0
  0
LINE
  5
9A3
330
1F
100
AcDbEntity
  8
0
 62
     3
100
AcDbLine
 10
870.8580653216023
 20
284.9952160378891
 30
0.0
 11
869.7828930316022
 21
284.9952160378891
 31
0.0
  0
LINE
  5
9A4
330
1F
100
AcDbEntity
  8
0
 62
     3
100
AcDbLine
 10
870.8580579616024
 20
284.5739256778892
 30
0.0
 11
869.7829003816023
 21
284.5739256778892
 31
0.0
  0
LINE
  5
9A5
330
1F
100
AcDbEntity
  8
0
 62
     3
100
AcDbLine
 10
870.8580902316024
 20
286.4223491578891
 30
0.0
 11
870.8580653216023
 21
284.9952160378891
 31
0.0
  0
LINE
  5
9A6
330
1F
100
AcDbEntity
  8
0
 62
     3
100
AcDbLine
 10
870.8580579616024
 20
284.5739256778892
 30
0.0
 11
870.8580330516022
 21
283.1466953478891
 31
0.0
  0
LINE
  5
9A7
330
1F
100
AcDbEntity
  8
0
 62
     3
100
AcDbLine
 10
869.7828681216023
 20
286.4223491578891
 30
0.0
 11
869.7828930316022
 21
284.9952160378891
 31
0.0
  0
LINE
  5
9A8
330
1F
100
AcDbEntity
  8
0
 62
     3
100
AcDbLine
 10
869.7829003816023
 20
284.5739256778892
 30
0.0
 11
869.7829252916022
 21
283.1466953478891
 31
0.0
  0
LINE
  5
9A9
330
1F
100
AcDbEntity
  8
0
 62
     3
100
AcDbLine
 10
872.5815631916022
 20
286.6498187978891
 30
0.0
 11
873.0173103116023
 21
286.4223491578891
 31
0.0
  0
LINE
  5
9AA
330
1F
100
AcDbEntity
  8
0
 62
     3
100
AcDbLine
 10
873.0173103116023
 20
286.4223491578891
 30
0.0
 11
873.0172531416023
 21
283.1466953478891
 31
0.0
  0
LINE
  5
9AB
330
1F
100
AcDbEntity
  8
0
 62
     3
100
AcDbLine
 10
872.5814980816023
 20
282.9192409178892
 30
0.0
 11
873.0172531416023
 21
283.1466953478891
 31
0.0
  0
LINE
  5
9AC
330
1F
100
AcDbEntity
  8
0
 62
     3
100
AcDbLine
 10
874.5110734616025
 20
286.6498187978891
 30
0.0
 11
874.0753263416022
 21
286.4223491578891
 31
0.0
  0
LINE
  5
9AD
330
1F
100
AcDbEntity
  8
0
 62
     3
100
AcDbLine
 10
874.0753263416022
 20
286.4223491578891
 30
0.0
 11
874.0753835116024
 21
283.1466953478891
 31
0.0
  0
LINE
  5
9AE
330
1F
100
AcDbEntity
  8
0
 62
     3
100
AcDbLine
 10
874.5111385716025
 20
282.9192409178892
 30
0.0
 11
874.0753835116024
 21
283.1466953478891
 31
0.0
  0
LINE
  5
9AF
330
1F
100
AcDbEntity
  8
0
 62
     3
100
AcDbLine
 10
874.7254330316025
 20
286.6498187978891
 30
0.0
 11
875.1611801516023
 21
286.4223491578891
 31
0.0
  0
LINE
  5
9B0
330
1F
100
AcDbEntity
  8
0
 62
     3
100
AcDbLine
 10
875.1611801516023
 20
286.4223491578891
 30
0.0
 11
875.1611229816024
 21
283.1466953478891
 31
0.0
  0
LINE
  5
9B1
330
1F
100
AcDbEntity
  8
0
 62
     3
100
AcDbLine
 10
874.7253679216024
 20
282.9192409178892
 30
0.0
 11
875.1611229816024
 21
283.1466953478891
 31
0.0
  0
ARC
  5
9B2
330
1F
100
AcDbEntity
  8
0
 62
     3
100
AcDbCircle
 10
866.8744430116023
 20
284.7939606178892
 30
0.0
 40
2.086285909999999
100
AcDbArc
 50
97.70152350999721
 51
270.0
  0
ARC
  5
9B3
330
1F
100
AcDbEntity
  8
0
 62
     3
100
AcDbCircle
 10
879.7550438516022
 20
284.7730039878892
 30
0.0
 40
2.108943379999999
100
AcDbArc
 50
0.3142502699992948
 51
69.00558244999614
  0
ARC
  5
9B4
330
1F
100
AcDbEntity
  8
0
 62
     3
100
AcDbCircle
 10
880.2157191716023
 20
284.7730039878892
 30
0.0
 40
2.108943379999999
100
AcDbArc
 50
110.9944175499969
 51
148.1166110200035
  0
ARC
  5
9B5
330
1F
100
AcDbEntity
  8
0
 62
     3
100
AcDbCircle
 10
879.7550438516022
 20
284.7961377278892
 30
0.0
 40
2.108943379999999
100
AcDbArc
 50
290.9944175500038
 51
359.6857497300006
  0
ARC
  5
9B6
330
1F
100
AcDbEntity
  8
0
 62
     3
100
AcDbCircle
 10
880.2157191716023
 20
284.7961377278892
 30
0.0
 40
2.108943379999999
100
AcDbArc
 50
211.8833889799965
 51
249.0055824499961
  0
ARC
  5
9B7
330
1F
100
AcDbEntity
  8
0
 62
     3
100
AcDbCircle
 10
879.9853815116025
 20
285.6473762478891
 30
0.0
 40
1.214070989999997
100
AcDbArc
 50
64.36517189999968
 51
115.6348281000003
  0
ARC
  5
9B8
330
1F
100
AcDbEntity
  8
0
 62
     3
100
AcDbCircle
 10
879.9853815116025
 20
283.9217654678892
 30
0.0
 40
1.214070989999997
100
AcDbArc
 50
244.3651718999997
 51
295.6348281000003
  0
ARC
  5
9B9
330
1F
100
AcDbEntity
  8
0
 62
     3
100
AcDbCircle
 10
879.9853815116025
 20
285.6704379278891
 30
0.0
 40
0.59585563
100
AcDbArc
 50
19.48660554000285
 51
160.5133944599971
  0
ARC
  5
9BA
330
1F
100
AcDbEntity
  8
0
 62
     3
100
AcDbCircle
 10
879.9853815116025
 20
283.9217654678892
 30
0.0
 40
1.214070989999997
100
AcDbArc
 50
244.3651718999997
 51
295.6348281000003
  0
ARC
  5
9BB
330
1F
100
AcDbEntity
  8
0
 62
     3
100
AcDbCircle
 10
879.9853815116025
 20
283.8987037878892
 30
0.0
 40
0.59585563
100
AcDbArc
 50
199.4866055400028
 51
340.5133944599969
  0
ARC
  5
9BC
330
1F
100
AcDbEntity
  8
0
 62
     3
100
AcDbCircle
 10
875.2429090116024
 20
262.5565110178892
 30
0.0
 40
26.04
100
AcDbArc
 50
69.50571480000146
 51
81.68998806999736
  0
ARC
  5
9BD
330
1F
100
AcDbEntity
  8
0
 62
     3
100
AcDbCircle
 10
875.2429090116024
 20
307.0126306978892
 30
0.0
 40
26.04
100
AcDbArc
 50
278.3100119300026
 51
290.4942851999986
  0
ARC
  5
9BE
330
1F
100
AcDbEntity
  8
0
 62
     3
100
AcDbCircle
 10
883.5511131416025
 20
284.7845708578891
 30
0.0
 40
2.31
100
AcDbArc
 50
290.4942851999986
 51
69.50571480000146
  0
ARC
  5
9BF
330
1F
100
AcDbEntity
  8
0
 62
     3
100
AcDbCircle
 10
856.2511131416025
 20
284.7845708578891
 30
0.0
 40
2.31
100
AcDbArc
 50
110.4942851999985
 51
249.5057147999945
  0
ARC
  5
9C0
330
1F
100
AcDbEntity
  8
0
 62
     3
100
AcDbCircle
 10
864.5593172616024
 20
262.5565110178892
 30
0.0
 40
26.04
100
AcDbArc
 50
98.31001192999607
 51
110.4942851999985
  0
ARC
  5
9C1
330
1F
100
AcDbEntity
  8
0
 62
     3
100
AcDbCircle
 10
864.5593172616024
 20
307.0126306978892
 30
0.0
 40
26.04
100
AcDbArc
 50
249.5057147999945
 51
261.6899880699973
  0
ARC
  5
9C2
330
1F
100
AcDbEntity
  8
0
 62
     3
100
AcDbCircle
 10
869.9011131416025
 20
225.9845708578892
 30
0.0
 40
62.99999987
100
AcDbArc
 50
81.68998806999736
 51
98.31001192999607
  0
ARC
  5
9C3
330
1F
100
AcDbEntity
  8
0
 62
     3
100
AcDbCircle
 10
869.9011131416025
 20
343.5845708578892
 30
0.0
 40
62.99999987
100
AcDbArc
 50
261.6899880699973
 51
278.3100119300026
  0
ARC
  5
9C4
330
1F
100
AcDbEntity
  8
0
 62
     3
100
AcDbCircle
 10
869.9011131416025
 20
225.9845708578892
 30
0.0
 40
62.36999987
100
AcDbArc
 50
81.68998806999736
 51
98.31001192999607
  0
ARC
  5
9C5
330
1F
100
AcDbEntity
  8
0
 62
     3
100
AcDbCircle
 10
869.9011131416025
 20
343.5845708578892
 30
0.0
 40
62.36999987
100
AcDbArc
 50
261.6899880699973
 51
278.3100119300026
  0
ARC
  5
9C6
330
1F
100
AcDbEntity
  8
0
 62
     3
100
AcDbCircle
 10
875.2429090116024
 20
307.0126306978892
 30
0.0
 40
25.41
100
AcDbArc
 50
278.3100119300026
 51
290.4942851999986
  0
ARC
  5
9C7
330
1F
100
AcDbEntity
  8
0
 62
     3
100
AcDbCircle
 10
875.2429090116024
 20
262.5565110178892
 30
0.0
 40
25.41
100
AcDbArc
 50
69.50571480000146
 51
81.68998806999736
  0
ARC
  5
9C8
330
1F
100
AcDbEntity
  8
0
 62
     3
100
AcDbCircle
 10
883.5511131416025
 20
284.7845708578891
 30
0.0
 40
1.679999999999999
100
AcDbArc
 50
290.4942851999986
 51
69.50571480000146
  0
ARC
  5
9C9
330
1F
100
AcDbEntity
  8
0
 62
     3
100
AcDbCircle
 10
856.2511131416025
 20
284.7845708578891
 30
0.0
 40
1.679999999999999
100
AcDbArc
 50
110.4942851999985
 51
249.5057147999945
  0
ARC
  5
9CA
330
1F
100
AcDbEntity
  8
0
 62
     3
100
AcDbCircle
 10
864.5593172616024
 20
262.5565110178892
 30
0.0
 40
25.41
100
AcDbArc
 50
98.31001192999607
 51
110.4942851999985
  0
ARC
  5
9CB
330
1F
100
AcDbEntity
  8
0
 62
     3
100
AcDbCircle
 10
864.5593172616024
 20
307.0126306978892
 30
0.0
 40
25.41
100
AcDbArc
 50
249.5057147999945
 51
261.6899880699973
  0
LINE
  5
9CC
330
1F
100
AcDbEntity
  8
0
 62
     3
100
AcDbLine
 10
874.5110742416025
 20
282.7076944778891
 30
0.0
 11
872.5815624116023
 21
282.7076944778891
 31
0.0
  0
LINE
  5
9CD
330
1F
100
AcDbEntity
  8
0
 62
     3
100
AcDbLine
 10
874.5110742416025
 20
282.9192556178892
 30
0.0
 11
874.5110742416025
 21
282.7076944778891
 31
0.0
  0
LINE
  5
9CE
330
1F
100
AcDbEntity
  8
0
 62
     3
100
AcDbLine
 10
872.3746048516025
 20
286.8613485178892
 30
0.0
 11
870.4223423216022
 21
286.8613485178892
 31
0.0
  0
LINE
  5
9CF
330
1F
100
AcDbEntity
  8
0
 62
     3
100
AcDbLine
 10
872.3746048516025
 20
286.8613485178892
 30
0.0
 11
872.3746048516025
 21
286.6498860978892
 31
0.0
  0
LINE
  5
9D0
330
1F
100
AcDbEntity
  8
0
 62
     3
100
AcDbLine
 10
872.3746048516025
 20
282.9192556178892
 30
0.0
 11
872.3746048516025
 21
282.7075957678892
 31
0.0
  0
LINE
  5
9D1
330
1F
100
AcDbEntity
  8
0
 62
     3
100
AcDbLine
 10
872.3746048516025
 20
282.7075957678892
 30
0.0
 11
870.4223423216022
 21
282.7075957678892
 31
0.0
  0
LINE
  5
9D2
330
1F
100
AcDbEntity
  8
0
 62
     3
100
AcDbLine
 10
874.5110742416025
 20
286.8614472378892
 30
0.0
 11
874.5110742416025
 21
286.6498860978892
 31
0.0
  0
LINE
  5
9D3
330
1F
100
AcDbEntity
  8
0
 62
     3
100
AcDbLine
 10
874.5110742416025
 20
286.8614472378892
 30
0.0
 11
872.5815624116023
 21
286.8614472378892
 31
0.0
  0
LINE
  5
9D4
330
1F
100
AcDbEntity
  8
0
 62
     3
100
AcDbLine
 10
872.5815624116023
 20
286.8614472378892
 30
0.0
 11
872.5815624116023
 21
286.6498860978892
 31
0.0
  0
LINE
  5
9D5
330
1F
100
AcDbEntity
  8
0
 62
     3
100
AcDbLine
 10
874.7254322416024
 20
282.9192556178892
 30
0.0
 11
874.7254322416024
 21
282.7076944778891
 31
0.0
  0
LINE
  5
9D6
330
1F
100
AcDbEntity
  8
0
 62
     3
100
AcDbLine
 10
876.7097328016022
 20
282.7076944778891
 30
0.0
 11
874.7254322416024
 21
282.7076944778891
 31
0.0
  0
LINE
  5
9D7
330
1F
100
AcDbEntity
  8
0
 62
     3
100
AcDbLine
 10
876.2191961716025
 20
286.1936777178891
 30
0.0
 11
876.2191961716025
 21
283.3754639978891
 31
0.0
  0
LINE
  5
9D8
330
1F
100
AcDbEntity
  8
0
 62
     3
100
AcDbLine
 10
876.2191961716025
 20
283.3754639978891
 30
0.0
 11
876.4092451416024
 21
283.3754639978891
 31
0.0
  0
ARC
  5
9D9
330
1F
100
AcDbEntity
  8
0
 62
     3
100
AcDbCircle
 10
875.4374594016024
 20
284.7845708578891
 30
0.0
 40
1.71170957
100
AcDbArc
 50
304.5919552700023
 51
55.4080447299977
  0
LINE
  5
9DA
330
1F
100
AcDbEntity
  8
0
 62
     3
100
AcDbLine
 10
876.7097328016022
 20
286.8614472378892
 30
0.0
 11
874.7254322416024
 21
286.8614472378892
 31
0.0
  0
LINE
  5
9DB
330
1F
100
AcDbEntity
  8
0
 62
     3
100
AcDbLine
 10
874.7254322416024
 20
286.8614472378892
 30
0.0
 11
874.7254322416024
 21
286.6498860978892
 31
0.0
  0
LINE
  5
9DC
330
1F
100
AcDbEntity
  8
0
 62
     3
100
AcDbLine
 10
872.5815624116023
 20
282.9192556178892
 30
0.0
 11
872.5815624116023
 21
282.7076944778891
 31
0.0
  0
LINE
  5
9DD
330
1F
100
AcDbEntity
  8
0
 62
     3
100
AcDbLine
 10
876.2191961716025
 20
286.1936777178891
 30
0.0
 11
876.4092451416024
 21
286.1936777178891
 31
0.0
  0
LINE
  5
9DE
330
1F
100
AcDbEntity
  8
0
 62
     3
100
AcDbLine
 10
864.5760365116023
 20
282.9192556178892
 30
0.0
 11
864.5760328216024
 21
282.7076747078892
 31
0.0
  0
LINE
  5
9DF
330
1F
100
AcDbEntity
  8
0
 62
     3
100
AcDbLine
 10
862.6465209816023
 20
282.7077142478891
 30
0.0
 11
864.5760328216024
 21
282.7076805778892
 31
0.0
  0
LINE
  5
9E0
330
1F
100
AcDbEntity
  8
0
 62
     3
100
AcDbLine
 10
858.3501391316023
 20
282.7076944778891
 30
0.0
 11
859.8894044616024
 21
282.7076944778891
 31
0.0
  0
ARC
  5
9E1
330
1F
100
AcDbEntity
  8
0
 62
     3
100
AcDbCircle
 10
853.3681964516024
 20
284.8334774778892
 30
0.0
 40
14.71356563
100
AcDbArc
 50
353.8660061899995
 51
357.6940342600001
  0
LINE
  5
9E2
330
1F
100
AcDbEntity
  8
0
 62
     3
100
AcDbLine
 10
867.0847763116025
 20
284.2451098278892
 30
0.0
 11
868.0698472016024
 21
284.2414649478892
 31
0.0
  0
LINE
  5
9E4
330
1F
100
AcDbEntity
  8
0
 62
     3
100
AcDbLine
 10
867.0887547316024
 20
285.3203245678892
 30
0.0
 11
868.0738256116022
 21
285.3166796978892
 31
0.0
  0
ARC
  5
9E5
330
1F
100
AcDbEntity
  8
0
 62
     3
100
AcDbCircle
 10
853.3681964516024
 20
284.8334774778892
 30
0.0
 40
14.71356563
100
AcDbArc
 50
1.88196573999942
 51
5.709993809999878
  0
LINE
  5
9E6
330
1F
100
AcDbEntity
  8
0
 62
     3
100
AcDbLine
 10
864.5761053116023
 20
286.8614274678892
 30
0.0
 11
864.5761016216024
 21
286.6498860978892
 31
0.0
  0
LINE
  5
9E7
330
1F
100
AcDbEntity
  8
0
 62
     3
100
AcDbLine
 10
862.6465934816023
 20
286.8614670078891
 30
0.0
 11
864.5761053116023
 21
286.8614333278891
 31
0.0
  0
LINE
  5
9E8
330
1F
100
AcDbEntity
  8
0
 62
     3
100
AcDbLine
 10
862.6465246716023
 20
282.9192556178892
 30
0.0
 11
862.6465209816023
 21
282.7077142478891
 31
0.0
  0
LINE
  5
9E9
330
1F
100
AcDbEntity
  8
0
 62
     3
100
AcDbLine
 10
862.6465934816023
 20
286.8614670078891
 30
0.0
 11
862.6465897916023
 21
286.6498860978892
 31
0.0
  0
LINE
  5
9EA
330
1F
100
AcDbEntity
  8
0
 62
     3
100
AcDbLine
 10
859.8894044616024
 20
282.9192556178892
 30
0.0
 11
859.8894044616024
 21
282.7076944778891
 31
0.0
  0
LINE
  5
9EB
330
1F
100
AcDbEntity
  8
0
 62
     3
100
AcDbLine
 10
859.4536565516023
 20
285.1435825678891
 30
0.0
 11
860.9760866116022
 21
282.7076944778891
 31
0.0
  0
LINE
  5
9EC
330
1F
100
AcDbEntity
  8
0
 62
     3
100
AcDbLine
 10
860.9760866116022
 20
282.7076944778891
 30
0.0
 11
861.9955193316025
 21
282.7076944778891
 31
0.0
  0
LINE
  5
9ED
330
1F
100
AcDbEntity
  8
0
 62
     3
100
AcDbLine
 10
862.4312672416023
 20
286.8614472378892
 30
0.0
 11
862.4312672416023
 21
286.6498860978892
 31
0.0
  0
LINE
  5
9EE
330
1F
100
AcDbEntity
  8
0
 62
     3
100
AcDbLine
 10
860.8920019116023
 20
286.8614472378892
 30
0.0
 11
862.4312672416023
 21
286.8614472378892
 31
0.0
  0
LINE
  5
9EF
330
1F
100
AcDbEntity
  8
0
 62
     3
100
AcDbLine
 10
860.8920019116023
 20
286.8614472378892
 30
0.0
 11
860.8920019116023
 21
286.6498860978892
 31
0.0
  0
LINE
  5
9F0
330
1F
100
AcDbEntity
  8
0
 62
     3
100
AcDbLine
 10
861.3277498216023
 20
284.9800808978891
 30
0.0
 11
860.0931031516024
 21
286.8614472378892
 31
0.0
  0
LINE
  5
9F1
330
1F
100
AcDbEntity
  8
0
 62
     3
100
AcDbLine
 10
858.3501391316023
 20
286.8614472378892
 30
0.0
 11
860.0931031516024
 21
286.8614472378892
 31
0.0
  0
LINE
  5
9F2
330
1F
100
AcDbEntity
  8
0
 62
     3
100
AcDbLine
 10
868.2663534916024
 20
286.8613485178892
 30
0.0
 11
870.2186160316022
 21
286.8613485178892
 31
0.0
  0
LINE
  5
9F3
330
1F
100
AcDbEntity
  8
0
 62
     3
100
AcDbLine
 10
868.2663534916024
 20
286.6498860978892
 30
0.0
 11
868.2663534916024
 21
286.8613485178892
 31
0.0
  0
LINE
  5
9F4
330
1F
100
AcDbEntity
  8
0
 62
     3
100
AcDbLine
 10
868.2663534916024
 20
282.7075957678892
 30
0.0
 11
868.2663534916024
 21
282.9192556178892
 31
0.0
  0
LINE
  5
9F5
330
1F
100
AcDbEntity
  8
0
 62
     3
100
AcDbLine
 10
868.2663534916024
 20
282.7075957678892
 30
0.0
 11
870.2186160316022
 21
282.7075957678892
 31
0.0
  0
LINE
  5
9F6
330
1F
100
AcDbEntity
  8
0
 62
     3
100
AcDbLine
 10
870.4223423216022
 20
282.9192556178892
 30
0.0
 11
870.4223423216022
 21
282.7075957678892
 31
0.0
  0
LINE
  5
9F7
330
1F
100
AcDbEntity
  8
0
 62
     3
100
AcDbLine
 10
870.2186160316022
 20
282.9192556178892
 30
0.0
 11
870.2186160316022
 21
282.7075957678892
 31
0.0
  0
LINE
  5
9F8
330
1F
100
AcDbEntity
  8
0
 62
     3
100
AcDbLine
 10
870.2186160316022
 20
286.6498860978892
 30
0.0
 11
870.2186160316022
 21
286.8613485178892
 31
0.0
  0
LINE
  5
9F9
330
1F
100
AcDbEntity
  8
0
 62
     3
100
AcDbLine
 10
870.4223423216022
 20
286.6498860978892
 30
0.0
 11
870.4223423216022
 21
286.8613485178892
 31
0.0
  0
LINE
  5
9FA
330
1F
100
AcDbEntity
  8
0
 62
     3
100
AcDbLine
 10
858.3501391316023
 20
282.9192556178892
 30
0.0
 11
858.3501391316023
 21
282.7076944778891
 31
0.0
  0
LINE
  5
9FB
330
1F
100
AcDbEntity
  8
0
 62
     3
100
AcDbLine
 10
858.3501391316023
 20
286.8614472378892
 30
0.0
 11
858.3501391316023
 21
286.6498860978892
 31
0.0
  0
ARC
  5
9FC
330
1F
100
AcDbEntity
  8
0
 62
     3
100
AcDbCircle
 10
876.9197328016025
 20
285.2203187678891
 30
0.0
 40
1.641128469999999
100
AcDbArc
 50
17.30874898000033
 51
23.76507095999699
  0
ARC
  5
9FD
330
1F
100
AcDbEntity
  8
0
 62
     3
100
AcDbCircle
 10
875.5214594016022
 20
284.7845708578891
 30
0.0
 40
3.105725599999998
100
AcDbArc
 50
342.6912510199997
 51
17.3085664400021
  0
ARC
  5
9FE
330
1F
100
AcDbEntity
  8
0
 62
     3
100
AcDbCircle
 10
876.9197328016025
 20
284.3488229578892
 30
0.0
 40
1.641128469999999
100
AcDbArc
 50
336.2349290399962
 51
342.6912510199997
  0
ARC
  5
9FF
330
1F
100
AcDbEntity
  8
0
 62
     3
100
AcDbCircle
 10
876.7097328016022
 20
285.2203187678891
 30
0.0
 40
1.641128469999999
100
AcDbArc
 50
17.30874898000033
 51
90.0
  0
ARC
  5
A00
330
1F
100
AcDbEntity
  8
0
 62
     3
100
AcDbCircle
 10
875.3114594016023
 20
284.7845708578891
 30
0.0
 40
3.105725599999998
100
AcDbArc
 50
342.6912510199997
 51
17.3085664400021
  0
ARC
  5
A01
330
1F
100
AcDbEntity
  8
0
 62
     3
100
AcDbCircle
 10
876.7097328016022
 20
284.3488229578892
 30
0.0
 40
1.641128469999999
100
AcDbArc
 50
270.0
 51
342.6912510199997
  0
ARC
  5
A02
330
1F
100
AcDbEntity
  8
0
 62
     3
100
AcDbCircle
 10
866.5857924316023
 20
284.7845708578891
 30
0.0
 40
2.076876379999998
100
AcDbArc
 50
46.75287961000136
 51
89.74999828999569
  0
ARC
  5
A03
330
1F
100
AcDbEntity
  8
0
 62
     3
100
AcDbCircle
 10
866.5857924316023
 20
284.7845708578891
 30
0.0
 40
2.076876379999998
100
AcDbArc
 50
273.976333149997
 51
312.8231203899985
  0
ARC
  5
A04
330
1F
100
AcDbEntity
  8
0
 62
     3
100
AcDbCircle
 10
878.0276003716023
 20
284.7525093278891
 30
0.0
 40
2.755888999999998
100
AcDbArc
 50
0.6665840599997753
 51
23.90392827000148
  0
ARC
  5
A05
330
1F
100
AcDbEntity
  8
0
 62
     3
100
AcDbCircle
 10
881.9431626516022
 20
284.7525093278891
 30
0.0
 40
2.755888999999998
100
AcDbArc
 50
156.0960717299985
 51
179.3334159400002
  0
ARC
  5
A06
330
1F
100
AcDbEntity
  8
0
 62
     3
100
AcDbCircle
 10
878.0276003716023
 20
284.8166323878892
 30
0.0
 40
2.755888999999998
100
AcDbArc
 50
336.0960717299985
 51
359.3334159400003
  0
ARC
  5
A07
330
1F
100
AcDbEntity
  8
0
 62
     3
100
AcDbCircle
 10
881.9431626516022
 20
284.8166323878892
 30
0.0
 40
2.755888999999998
100
AcDbArc
 50
180.6665840599997
 51
203.9039282700014
  0
LINE
  5
A08
330
1F
100
AcDbEntity
  8
0
 62
     3
100
AcDbLine
 10
886.5934497416022
 20
284.8624419978892
 30
0.0
 11
1001.265787111602
 21
284.8624419978892
 31
0.0
  0
LINE
  5
A0A
330
1F
100
AcDbEntity
  8
0
 62
     3
100
AcDbLine
 10
853.1807032216024
 20
284.8624419978892
 30
0.0
 11
821.2657871116023
 21
284.8624419978892
 31
0.0
  0
LINE
  5
A0B
330
1F
100
AcDbEntity
  8
0
 62
     3
100
AcDbLine
 10
949.2657871116023
 20
7.862441997889161
 30
0.0
 11
949.2657871116023
 21
53.86244199788918
 31
0.0
  0
LINE
  5
A0C
330
1F
100
AcDbEntity
  8
0
 62
     3
100
AcDbLine
 10
962.2657871116023
 20
17.86244199788916
 30
0.0
 11
962.2657871116023
 21
45.86244199788914
 31
0.0
  0
LINE
  5
A0D
330
1F
100
AcDbEntity
  8
0
 62
     3
100
AcDbLine
 10
922.2657871116023
 20
17.86244199788916
 30
0.0
 11
922.2657871116023
 21
31.86244199788916
 31
0.0
  0
LINE
  5
A0E
330
1F
100
AcDbEntity
  8
0
 62
     3
100
AcDbLine
 10
932.2657871116023
 20
31.86244199788916
 30
0.0
 11
932.2657871116023
 21
7.862441997889161
 31
0.0
  0
LINE
  5
A0F
330
1F
100
AcDbEntity
  8
0
 62
     3
100
AcDbLine
 10
903.2657871116024
 20
47.86244199788916
 30
0.0
 11
903.2657871116024
 21
24.86244199788917
 31
0.0
  0
LINE
  5
A10
330
1F
100
AcDbEntity
  8
0
 62
     3
100
AcDbLine
 10
962.2657871116023
 20
45.86244199788914
 30
0.0
 11
962.2657871116023
 21
47.86244199788916
 31
0.0
  0
LINE
  5
A11
330
1F
100
AcDbEntity
  8
0
 62
     3
100
AcDbLine
 10
975.2657871116023
 20
24.86244199788917
 30
0.0
 11
975.2657871116023
 21
53.86244199788918
 31
0.0
  0
LINE
  5
A12
330
1F
100
AcDbEntity
  8
0
 62
     3
100
AcDbLine
 10
1001.265787111602
 20
47.86244199788916
 30
0.0
 11
890.0203524716026
 21
47.86244199788917
 31
0.0
  0
LINE
  5
A13
330
1F
100
AcDbEntity
  8
0
 62
     3
100
AcDbLine
 10
1001.265787111602
 20
38.86244199788917
 30
0.0
 11
890.0203524716022
 21
38.86244199788917
 31
0.0
  0
LINE
  5
A14
330
1F
100
AcDbEntity
  8
0
 62
     3
100
AcDbLine
 10
1001.265787111602
 20
24.86244199788917
 30
0.0
 11
890.0203524716022
 21
24.86244199788917
 31
0.0
  0
LINE
  5
A15
330
1F
100
AcDbEntity
  8
0
 62
     3
100
AcDbLine
 10
1001.265787111602
 20
17.86244199788916
 30
0.0
 11
889.9623446116024
 21
17.86244199788916
 31
0.0
  0
LINE
  5
A16
330
1F
100
AcDbEntity
  8
0
 62
     3
100
AcDbLine
 10
988.2657871116023
 20
24.86244199788917
 30
0.0
 11
988.2657871116023
 21
47.86244199788916
 31
0.0
  0
LINE
  5
A17
330
1F
100
AcDbEntity
  8
0
 62
     3
100
AcDbLine
 10
890.0203524716022
 20
47.86244199788917
 30
0.0
 11
890.0203524716022
 21
7.862441997889161
 31
0.0
  0
LINE
  5
A18
330
1F
100
AcDbEntity
  8
0
 62
     3
100
AcDbLine
 10
949.2657871116023
 20
31.86244199788916
 30
0.0
 11
890.0203524716022
 21
31.86244199788915
 31
0.0
  0
LINE
  5
A19
330
1F
100
AcDbEntity
  8
0
 62
     3
100
AcDbLine
 10
932.5441120416023
 20
12.69530325788915
 30
0.0
 11
949.2657871116023
 21
12.69530325788915
 31
0.0
  0
LINE
  5
A1A
330
1F
100
AcDbEntity
  8
0
 62
     3
100
AcDbLine
 10
936.2657871116024
 20
38.86244199788917
 30
0.0
 11
944.2657871116024
 21
38.86244199788917
 31
0.0
  0
TEXT
  5
A1B
330
1F
100
AcDbEntity
  8
0
 62
     3
100
AcDbText
 10
933.4301125249181
 20
26.93553885125452
 30
0.0
 40
2.5
  1
-
  7
高2.5
100
AcDbText
  0
TEXT
  5
A1C
330
1F
100
AcDbEntity
  8
0
 62
     3
100
AcDbText
 10
904.4621558068547
 20
27.16025640287308
 30
0.0
 40
2.5
  1
PVC
  7
高2.5
100
AcDbText
  0
TEXT
  5
A1D
330
1F
100
AcDbEntity
  8
0
 62
     3
100
AcDbText
 10
904.727063561552
 20
39.76500856307529
 30
0.0
 40
3.2
  1
連結ケーブル3m
  7
高3.2
100
AcDbText
1001
ACAD
1000
ACAD_MTEXT_DEFINED_HEIGHT_BEGIN
1070
    46
1040
0.0
1000
ACAD_MTEXT_DEFINED_HEIGHT_END
  0
TEXT
  5
A1E
330
1F
100
AcDbEntity
  8
0
 62
     3
100
AcDbText
 10
991.3313762050764
 20
44.37613409659276
 30
0.0
 40
2.0
  1
DEF
  7
高2
100
AcDbText
  0
TEXT
  5
A1F
330
1F
100
AcDbEntity
  8
0
 62
     3
100
AcDbText
 10
977.3922778513682
 20
44.37613409659267
 30
0.0
 40
2.0
  1
DESN
  7
高2
100
AcDbText
  0
TEXT
  5
A20
330
1F
100
AcDbEntity
  8
0
 62
     3
100
AcDbText
 10
951.1379109113679
 20
44.37613409659276
 30
0.0
 40
2.0
  1
APPD
  7
高2
100
AcDbText
  0
TEXT
  5
A21
330
1F
100
AcDbEntity
  8
0
 62
     3
100
AcDbText
 10
964.2506470116023
 20
44.37613409659276
 30
0.0
 40
2.0
  1
CHCK
  7
高2
100
AcDbText
  0
TEXT
  5
A22
330
1F
100
AcDbEntity
  8
0
 62
     3
100
AcDbText
 10
923.1929527507553
 20
22.03084082111988
 30
0.0
 40
2.0
  1
SCALE
 41
0.8
  7
高2
100
AcDbText
  0
TEXT
  5
A23
330
1F
100
AcDbEntity
  8
0
 62
     3
100
AcDbText
 10
891.7049311746485
 20
22.0308408211199
 30
0.0
 40
2.0
  1
3AD　ANGLE
 41
1.5
  7
高2
100
AcDbText
  0
TEXT
  5
A24
330
1F
100
AcDbEntity
  8
0
 62
     3
100
AcDbText
 10
922.4623584416036
 20
28.78237889007699
 30
0.0
 40
2.0
  1
REMARKS
 41
0.7
  7
高2
100
AcDbText
  0
TEXT
  5
A25
330
1F
100
AcDbEntity
  8
0
 62
     3
100
AcDbText
 10
891.4880228216022
 20
28.86244199788917
 30
0.0
 40
2.0
  1
MATERIAL
 41
0.7
  7
高2
100
AcDbText
  0
TEXT
  5
A26
330
1F
100
AcDbEntity
  8
0
 62
     3
100
AcDbText
 10
892.0645100243564
 20
35.86244199788915
 30
0.0
 40
2.0
  1
MODEL
  7
高2
100
AcDbText
  0
TEXT
  5
A27
330
1F
100
AcDbEntity
  8
0
 62
     3
100
AcDbText
 10
891.7014309056877
 20
44.56946334848818
 30
0.0
 40
2.0
  1
CONPONENTS
 41
0.5
  7
高2
100
AcDbText
  0
TEXT
  5
A28
330
1F
100
AcDbEntity
  8
0
 62
     3
100
AcDbText
 10
904.4085463768546
 20
32.94992312570111
 30
0.0
 40
4.5
  1
LCL-ONE-J3
 41
0.9
  7
高4.5
100
AcDbText
  0
TEXT
  5
A29
330
1F
100
AcDbEntity
  8
0
 62
     3
100
AcDbText
 10
952.330832842221
 20
9.900903393254749
 30
0.0
 40
6.299999999999998
  1
LCL-ONE-J3
 41
0.7
  7
高6.3
100
AcDbText
1001
ACAD
1000
ACAD_MTEXT_DEFINED_HEIGHT_BEGIN
1070
    46
1040
0.0
1000
ACAD_MTEXT_DEFINED_HEIGHT_END
  0
TEXT
  5
A2A
330
1F
100
AcDbEntity
  8
0
 62
     3
100
AcDbText
 10
965.8292968619321
 20
18.96333115612217
 30
0.0
 40
3.2
  1
2013.03.22
  7
高3.2
100
AcDbText
1001
ACAD
1000
ACAD_MTEXT_DEFINED_HEIGHT_BEGIN
1070
    46
1040
0.0
1000
ACAD_MTEXT_DEFINED_HEIGHT_END
  0
TEXT
  5
A2B
330
1F
100
AcDbEntity
  8
0
 62
     3
100
AcDbText
 10
936.0533850062488
 20
18.96335900045703
 30
0.0
 40
3.2
  1
1/1
  7
高3.2
100
AcDbText
  0
TEXT
  5
A2C
330
1F
100
AcDbEntity
  8
0
 62
     3
100
AcDbText
 10
933.1307139816022
 20
8.679320171025125
 30
0.0
 40
3.2
  1
ZK-A4Y
 41
0.8
  7
高3.2
100
AcDbText
  0
TEXT
  5
A2D
330
1F
100
AcDbEntity
  8
0
 62
     3
100
AcDbText
 10
890.8510535116024
 20
14.38706242007699
 30
0.0
 40
2.0
  1
NICHIDO IND.CO.LTD
 41
1.3
  7
高2
100
AcDbText
  0
TEXT
  5
A2E
330
1F
100
AcDbEntity
  8
0
 62
     3
100
AcDbText
 10
892.0325767765596
 20
40.00297020577407
 30
0.0
 40
3.2
  1
品 名
  7
高3.2
100
AcDbText
1001
ACAD
1000
ACAD_MTEXT_DEFINED_HEIGHT_BEGIN
1070
    46
1040
0.0
1000
ACAD_MTEXT_DEFINED_HEIGHT_END
  0
TEXT
  5
A2F
330
1F
100
AcDbEntity
  8
0
 62
     3
100
AcDbText
 10
892.0325767765596
 20
32.36244199788915
 30
0.0
 40
3.2
  1
型 式
  7
高3.2
100
AcDbText
1001
ACAD
1000
ACAD_MTEXT_DEFINED_HEIGHT_BEGIN
1070
    46
1040
3.064735913775952
1000
ACAD_MTEXT_DEFINED_HEIGHT_END
  0
TEXT
  5
A30
330
1F
100
AcDbEntity
  8
0
 62
     3
100
AcDbText
 10
892.0325767765596
 20
25.36244199788917
 30
0.0
 40
3.2
  1
材 質
  7
高3.2
100
AcDbText
1001
ACAD
1000
ACAD_MTEXT_DEFINED_HEIGHT_BEGIN
1070
    46
1040
0.0
1000
ACAD_MTEXT_DEFINED_HEIGHT_END
  0
TEXT
  5
A31
330
1F
100
AcDbEntity
  8
0
 62
     3
100
AcDbText
 10
891.7275418265596
 20
18.3298819901354
 30
0.0
 40
3.2
  1
第 三 角 法
  7
高3.2
100
AcDbText
1001
ACAD
1000
ACAD_MTEXT_DEFINED_HEIGHT_BEGIN
1070
    46
1040
0.0
1000
ACAD_MTEXT_DEFINED_HEIGHT_END
  0
TEXT
  5
A32
330
1F
100
AcDbEntity
  8
0
 62
     3
100
AcDbText
 10
890.1340744340885
 20
9.002970205774097
 30
0.0
 40
3.2
  1
日動工業株式会社
 41
1.199999999999999
  7
高3.2
100
AcDbText
1001
ACAD
1000
ACAD_MTEXT_DEFINED_HEIGHT_BEGIN
1070
    46
1040
0.0
1000
ACAD_MTEXT_DEFINED_HEIGHT_END
  0
TEXT
  5
A33
330
1F
100
AcDbEntity
  8
0
 62
     3
100
AcDbText
 10
923.7696986335667
 20
25.24702053105672
 30
0.0
 40
3.2
  1
備考
  7
高3.2
100
AcDbText
1001
ACAD
1000
ACAD_MTEXT_DEFINED_HEIGHT_BEGIN
1070
    46
1040
0.0
1000
ACAD_MTEXT_DEFINED_HEIGHT_END
  0
TEXT
  5
A34
330
1F
100
AcDbEntity
  8
0
 62
     3
100
AcDbText
 10
933.4187560806023
 20
14.00867202345946
 30
0.0
 40
2.5
  1
出図コード
  7
高2.5
100
AcDbText
1001
ACAD
1000
ACAD_MTEXT_DEFINED_HEIGHT_BEGIN
1070
    46
1040
0.0
1000
ACAD_MTEXT_DEFINED_HEIGHT_END
  0
TEXT
  5
A35
330
1F
100
AcDbEntity
  8
0
 62
     3
100
AcDbText
 10
923.6109325154794
 20
18.31567690830208
 30
0.0
 40
3.2
  1
尺度
  7
高3.2
100
AcDbText
1001
ACAD
1000
ACAD_MTEXT_DEFINED_HEIGHT_BEGIN
1070
    46
1040
0.0
1000
ACAD_MTEXT_DEFINED_HEIGHT_END
  0
TEXT
  5
A36
330
1F
100
AcDbEntity
  8
0
 62
     3
100
AcDbText
 10
950.757193997258
 20
19.44715535641957
 30
0.0
 40
3.2
  1
作成日
  7
高3.2
100
AcDbText
1001
ACAD
1000
ACAD_MTEXT_DEFINED_HEIGHT_BEGIN
1070
    46
1040
0.0
1000
ACAD_MTEXT_DEFINED_HEIGHT_END
  0
TEXT
  5
A37
330
1F
100
AcDbEntity
  8
0
 62
     3
100
AcDbText
 10
950.6516680041224
 20
40.00297020577407
 30
0.0
 40
3.2
  1
承 認
  7
高3.2
100
AcDbText
1001
ACAD
1000
ACAD_MTEXT_DEFINED_HEIGHT_BEGIN
1070
    46
1040
0.0
1000
ACAD_MTEXT_DEFINED_HEIGHT_END
  0
TEXT
  5
A38
330
1F
100
AcDbEntity
  8
0
 62
     3
100
AcDbText
 10
963.651668004122
 20
40.00297020577407
 30
0.0
 40
3.2
  1
検 図
  7
高3.2
100
AcDbText
1001
ACAD
1000
ACAD_MTEXT_DEFINED_HEIGHT_BEGIN
1070
    46
1040
0.0
1000
ACAD_MTEXT_DEFINED_HEIGHT_END
  0
TEXT
  5
A39
330
1F
100
AcDbEntity
  8
0
 62
     3
100
AcDbText
 10
976.651668004122
 20
40.00297020577407
 30
0.0
 40
3.2
  1
設 計
  7
高3.2
100
AcDbText
1001
ACAD
1000
ACAD_MTEXT_DEFINED_HEIGHT_BEGIN
1070
    46
1040
0.0
1000
ACAD_MTEXT_DEFINED_HEIGHT_END
  0
TEXT
  5
A3A
330
1F
100
AcDbEntity
  8
0
 62
     3
100
AcDbText
 10
989.9523045241222
 20
40.00297020577407
 30
0.0
 40
3.2
  1
製 図
  7
高3.2
100
AcDbText
1001
ACAD
1000
ACAD_MTEXT_DEFINED_HEIGHT_BEGIN
1070
    46
1040
0.0
1000
ACAD_MTEXT_DEFINED_HEIGHT_END
  0
TEXT
  5
A3B
330
1F
100
AcDbEntity
  8
0
 62
     3
100
AcDbText
 10
988.7657871116022
 20
275.3624419978891
 30
0.0
 40
3.2
  1
担　当
  7
高3.2
100
AcDbText
  0
TEXT
  5
A3C
330
1F
100
AcDbEntity
  8
0
 62
     3
100
AcDbText
 10
944.7657871116023
 20
275.3624419978891
 30
0.0
 40
3.2
  1
変更・追記内容
  7
高3.2
100
AcDbText
  0
TEXT
  5
A3D
330
1F
100
AcDbEntity
  8
0
 62
     3
100
AcDbText
 10
919.8793021119417
 20
270.6919034879809
 30
0.0
 40
2.0
  1
1
  7
高2
100
AcDbText
  0
TEXT
  5
A3E
330
1F
100
AcDbEntity
  8
0
 62
     3
100
AcDbText
 10
919.5707906351843
 20
265.522086775708
 30
0.0
 40
2.0
  1
2
  7
高2
100
AcDbText
  0
TEXT
  5
A3F
330
1F
100
AcDbEntity
  8
0
 62
     3
100
AcDbText
 10
926.7657871116023
 20
275.3624419978891
 30
0.0
 40
3.2
  1
日　付
  7
高3.2
100
AcDbText
  0
TEXT
  5
A40
330
1F
100
AcDbEntity
  8
0
 62
     3
100
AcDbText
 10
926.7657871116023
 20
280.3624419978892
 30
0.0
 40
3.2
  1
図　　　　面　　　　略　　　　歴
  7
高3.2
100
AcDbText
  0
TEXT
  5
A41
330
1F
100
AcDbEntity
  8
0
 62
     3
100
AcDbText
 10
916.7657871116023
 20
275.3624419978891
 30
0.0
 40
3.2
  1
記号
  7
高3.2
100
AcDbText
  0
LINE
  5
A42
330
1F
100
AcDbEntity
  8
0
100
AcDbLine
 10
920.2657871116024
 20
268.6533379978893
 30
0.0
 11
918.3657871116023
 21
265.3624419978892
 31
0.0
  0
LINE
  5
A43
330
1F
100
AcDbEntity
  8
0
100
AcDbLine
 10
920.2657871116024
 20
268.6533379978893
 30
0.0
 11
922.1657871116022
 21
265.3624419978892
 31
0.0
  0
LINE
  5
A44
330
1F
100
AcDbEntity
  8
0
100
AcDbLine
 10
918.3657871116023
 20
265.3624419978892
 30
0.0
 11
922.1657871116022
 21
265.3624419978892
 31
0.0
  0
LINE
  5
A45
330
1F
100
AcDbEntity
  8
0
100
AcDbLine
 10
920.2657871116024
 20
273.6533389978892
 30
0.0
 11
918.3657871116023
 21
270.3624419978892
 31
0.0
  0
LINE
  5
A46
330
1F
100
AcDbEntity
  8
0
100
AcDbLine
 10
920.2657871116024
 20
273.6533389978892
 30
0.0
 11
922.1657871116022
 21
270.3624419978892
 31
0.0
  0
LINE
  5
A47
330
1F
100
AcDbEntity
  8
0
100
AcDbLine
 10
918.3657871116023
 20
270.3624419978892
 30
0.0
 11
922.1657871116022
 21
270.3624419978892
 31
0.0
  0
LINE
  5
A48
330
1F
100
AcDbEntity
  8
0
 62
     3
100
AcDbLine
 10
915.2657871116023
 20
279.8624419978892
 30
0.0
 11
1001.265787111602
 21
279.8624419978892
 31
0.0
  0
LINE
  5
A49
330
1F
100
AcDbEntity
  8
0
 62
     3
100
AcDbLine
 10
915.2657871116023
 20
274.8624419978892
 30
0.0
 11
1001.265787111602
 21
274.8624419978892
 31
0.0
  0
LINE
  5
A4A
330
1F
100
AcDbEntity
  8
0
 62
     7
100
AcDbLine
 10
915.2657871116023
 20
269.8624419978892
 30
0.0
 11
1001.265787111602
 21
269.8624419978892
 31
0.0
  0
LINE
  5
A4B
330
1F
100
AcDbEntity
  8
0
 62
     3
100
AcDbLine
 10
915.2657871116023
 20
264.8624419978891
 30
0.0
 11
1001.265787111602
 21
264.8624419978891
 31
0.0
  0
LINE
  5
A4C
330
1F
100
AcDbEntity
  8
0
 62
     7
100
AcDbLine
 10
987.2657871116023
 20
264.8624419978891
 30
0.0
 11
987.2657871116023
 21
279.8624419978892
 31
0.0
  0
LINE
  5
A4D
330
1F
100
AcDbEntity
  8
0
 62
     7
100
AcDbLine
 10
943.2657871116022
 20
264.8624419978891
 30
0.0
 11
943.2657871116022
 21
279.8624419978892
 31
0.0
  0
LINE
  5
A4E
330
1F
100
AcDbEntity
  8
0
 62
     7
100
AcDbLine
 10
925.2657871116023
 20
264.8624419978891
 30
0.0
 11
925.2657871116023
 21
279.8624419978892
 31
0.0
  0
LINE
  5
A4F
330
1F
100
AcDbEntity
  8
0
 62
     3
100
AcDbLine
 10
915.2657871116023
 20
264.8624419978891
 30
0.0
 11
915.2657871116023
 21
284.8624419978892
 31
0.0
  0
LINE
  5
A50
330
1F
100
AcDbEntity
  8
0
 62
     3
100
AcDbLine
 10
1001.265787111602
 20
53.86244199788918
 30
0.0
 11
949.2657871116026
 21
53.86244199788919
 31
0.0
  0
TEXT
  5
A51
330
1F
100
AcDbEntity
  8
0
 62
     3
100
AcDbText
 10
954.9040705483077
 20
48.25355553216604
 30
0.0
 40
4.5
  1
コード
  7
高4.5
100
AcDbText
  0
TEXT
  5
A52
330
1F
100
AcDbEntity
  8
0
 62
     3
100
AcDbText
 10
977.3473031313251
 20
48.25355553216604
 30
0.0
 40
4.5
  1
55366
  7
高4.5
100
AcDbText
  0
TEXT
  5
A53
330
1F
100
AcDbEntity
  8
0
100
AcDbText
 10
993.4355689089571
 20
28.91801541406289
 30
0.0
 40
3.2
  1
I
  7
高3.2
100
AcDbText
  0
TEXT
  5
A54
330
1F
100
AcDbEntity
  8
0
 62
     3
100
AcDbText
 10
904.727063561552
 20
44.02524320939193
 30
0.0
 40
3.2
  1
連結式一体型チューブライト用
 41
0.8
  7
高3.2
100
AcDbText
1001
ACAD
1000
ACAD_MTEXT_DEFINED_HEIGHT_BEGIN
1070
    46
1040
0.0
1000
ACAD_MTEXT_DEFINED_HEIGHT_END
  0
TEXT
  5
B90
330
1F
100
AcDbEntity
  8
0
 62
     4
100
AcDbText
 10
940.3007373948396
 20
62.6305379956134
 30
0.0
 40
3.2
  1
※ナイロンクランプ(ビス含)付属
  7
高3.2
100
AcDbText
  0
LINE
  5
FE5
330
1F
100
AcDbEntity
  8
0
 62
     3
100
AcDbLine
 10
867.0887547316024
 20
285.3203245678892
 30
0.0
 11
867.0701272016025
 21
285.4395923378892
 31
0.0
  0
LINE
  5
FE6
330
1F
100
AcDbEntity
  8
0
 62
     3
100
AcDbLine
 10
867.0701272016025
 20
285.4395923378892
 30
0.0
 11
867.0477560216024
 21
285.5537971178892
 31
0.0
  0
LINE
  5
FE7
330
1F
100
AcDbEntity
  8
0
 62
     3
100
AcDbLine
 10
867.0477560216024
 20
285.5537971178892
 30
0.0
 11
867.0218140916023
 21
285.6620561778892
 31
0.0
  0
LINE
  5
FE8
330
1F
100
AcDbEntity
  8
0
 62
     3
100
AcDbLine
 10
867.0218140916023
 20
285.6620561778892
 30
0.0
 11
866.9925019516025
 21
285.7635327278891
 31
0.0
  0
LINE
  5
FE9
330
1F
100
AcDbEntity
  8
0
 62
     3
100
AcDbLine
 10
866.9925019516025
 20
285.7635327278891
 30
0.0
 11
866.9600461416022
 21
285.8574424078891
 31
0.0
  0
LINE
  5
FEA
330
1F
100
AcDbEntity
  8
0
 62
     3
100
AcDbLine
 10
866.9600461416022
 20
285.8574424078891
 30
0.0
 11
866.9246975516022
 21
285.9430593478892
 31
0.0
  0
LINE
  5
FEB
330
1F
100
AcDbEntity
  8
0
 62
     3
100
AcDbLine
 10
866.9246975516022
 20
285.9430593478892
 30
0.0
 11
866.8867294016022
 21
286.0197217578892
 31
0.0
  0
LINE
  5
FEC
330
1F
100
AcDbEntity
  8
0
 62
     3
100
AcDbLine
 10
866.8867294016022
 20
286.0197217578892
 30
0.0
 11
866.8464351516025
 21
286.0868370978892
 31
0.0
  0
LINE
  5
FED
330
1F
100
AcDbEntity
  8
0
 62
     3
100
AcDbLine
 10
866.8464351516025
 20
286.0868370978892
 30
0.0
 11
866.8041262816023
 21
286.1438865878891
 31
0.0
  0
LINE
  5
FEE
330
1F
100
AcDbEntity
  8
0
 62
     3
100
AcDbLine
 10
866.8041262816023
 20
286.1438865878891
 30
0.0
 11
866.7601297916023
 21
286.1904292578891
 31
0.0
  0
LINE
  5
FEF
330
1F
100
AcDbEntity
  8
0
 62
     3
100
AcDbLine
 10
866.7601297916023
 20
286.1904292578891
 30
0.0
 11
866.7147857716024
 21
286.2261053778892
 31
0.0
  0
LINE
  5
FF0
330
1F
100
AcDbEntity
  8
0
 62
     3
100
AcDbLine
 10
866.7147857716024
 20
286.2261053778892
 30
0.0
 11
866.6684447016022
 21
286.2506391678892
 31
0.0
  0
LINE
  5
FF1
330
1F
100
AcDbEntity
  8
0
 62
     3
100
AcDbLine
 10
866.6684447016022
 20
286.2506391678892
 30
0.0
 11
866.6214647616023
 21
286.2638410178892
 31
0.0
  0
LINE
  5
FF2
330
1F
100
AcDbEntity
  8
0
 62
     3
100
AcDbLine
 10
866.6214647616023
 20
286.2638410178892
 30
0.0
 11
866.5742091016024
 21
286.2656088578892
 31
0.0
  0
LINE
  5
FF3
330
1F
100
AcDbEntity
  8
0
 62
     3
100
AcDbLine
 10
866.5742091016024
 20
286.2656088578892
 30
0.0
 11
866.5270429716024
 21
286.2559290478891
 31
0.0
  0
LINE
  5
FF4
330
1F
100
AcDbEntity
  8
0
 62
     3
100
AcDbLine
 10
866.5270429716024
 20
286.2559290478891
 30
0.0
 11
866.4803309416024
 21
286.2348763878891
 31
0.0
  0
LINE
  5
FF5
330
1F
100
AcDbEntity
  8
0
 62
     3
100
AcDbLine
 10
866.4803309416024
 20
286.2348763878891
 30
0.0
 11
866.4344340816024
 21
286.2026136178891
 31
0.0
  0
LINE
  5
FF6
330
1F
100
AcDbEntity
  8
0
 62
     3
100
AcDbLine
 10
866.4344340816024
 20
286.2026136178891
 30
0.0
 11
866.3897071416025
 21
286.1593901078892
 31
0.0
  0
LINE
  5
FF7
330
1F
100
AcDbEntity
  8
0
 62
     3
100
AcDbLine
 10
866.3897071416025
 20
286.1593901078892
 30
0.0
 11
866.3464958316025
 21
286.1055399478892
 31
0.0
  0
LINE
  5
FF8
330
1F
100
AcDbEntity
  8
0
 62
     3
100
AcDbLine
 10
866.3464958316025
 20
286.1055399478892
 30
0.0
 11
866.3051341716025
 21
286.0414793778892
 31
0.0
  0
LINE
  5
FF9
330
1F
100
AcDbEntity
  8
0
 62
     3
100
AcDbLine
 10
866.3051341716025
 20
286.0414793778892
 30
0.0
 11
866.2659418516025
 21
285.9677035578892
 31
0.0
  0
LINE
  5
FFA
330
1F
100
AcDbEntity
  8
0
 62
     3
100
AcDbLine
 10
866.2659418516025
 20
285.9677035578892
 30
0.0
 11
866.2292218116023
 21
285.8847827278891
 31
0.0
  0
LINE
  5
FFB
330
1F
100
AcDbEntity
  8
0
 62
     3
100
AcDbLine
 10
866.2292218116023
 20
285.8847827278891
 30
0.0
 11
866.1952578816023
 21
285.7933578178892
 31
0.0
  0
LINE
  5
FFC
330
1F
100
AcDbEntity
  8
0
 62
     3
100
AcDbLine
 10
866.1952578816023
 20
285.7933578178892
 30
0.0
 11
866.1643125816024
 21
285.6941355178891
 31
0.0
  0
LINE
  5
FFD
330
1F
100
AcDbEntity
  8
0
 62
     3
100
AcDbLine
 10
866.1643125816024
 20
285.6941355178891
 30
0.0
 11
866.1366251016023
 21
285.5878827478891
 31
0.0
  0
LINE
  5
FFE
330
1F
100
AcDbEntity
  8
0
 62
     3
100
AcDbLine
 10
866.1366251016023
 20
285.5878827478891
 30
0.0
 11
866.1124094516022
 21
285.4754207878892
 31
0.0
  0
LINE
  5
FFF
330
1F
100
AcDbEntity
  8
0
 62
     3
100
AcDbLine
 10
866.1124094516022
 20
285.4754207878892
 30
0.0
 11
866.0918528116022
 21
285.3576189078891
 31
0.0
  0
LINE
  5
1000
330
1F
100
AcDbEntity
  8
0
 62
     3
100
AcDbLine
 10
866.0918528116022
 20
285.3576189078891
 30
0.0
 11
866.0751140716023
 21
285.2353876678892
 31
0.0
  0
LINE
  5
1001
330
1F
100
AcDbEntity
  8
0
 62
     3
100
AcDbLine
 10
866.0751140716023
 20
285.2353876678892
 30
0.0
 11
866.0623226116022
 21
285.1096718478892
 31
0.0
  0
LINE
  5
1002
330
1F
100
AcDbEntity
  8
0
 62
     3
100
AcDbLine
 10
866.0623226116022
 20
285.1096718478892
 30
0.0
 11
866.0535773016023
 21
284.9814431678892
 31
0.0
  0
LINE
  5
1003
330
1F
100
AcDbEntity
  8
0
 62
     3
100
AcDbLine
 10
866.0535773016023
 20
284.9814431678892
 30
0.0
 11
866.0489457416025
 21
284.8516927578891
 31
0.0
  0
LINE
  5
1004
330
1F
100
AcDbEntity
  8
0
 62
     3
100
AcDbLine
 10
866.0489457416025
 20
284.8516927578891
 30
0.0
 11
866.0484637316022
 21
284.7214235278892
 31
0.0
  0
LINE
  5
1005
330
1F
100
AcDbEntity
  8
0
 62
     3
100
AcDbLine
 10
866.0484637316022
 20
284.7214235278892
 30
0.0
 11
866.0521349916022
 21
284.5916424078891
 31
0.0
  0
LINE
  5
1006
330
1F
100
AcDbEntity
  8
0
 62
     3
100
AcDbLine
 10
866.0521349916022
 20
284.5916424078891
 30
0.0
 11
866.0599311516023
 21
284.4633525178892
 31
0.0
  0
LINE
  5
1007
330
1F
100
AcDbEntity
  8
0
 62
     3
100
AcDbLine
 10
866.0599311516023
 20
284.4633525178892
 30
0.0
 11
866.0717919516024
 21
284.3375454778892
 31
0.0
  0
LINE
  5
1008
330
1F
100
AcDbEntity
  8
0
 62
     3
100
AcDbLine
 10
866.0717919516024
 20
284.3375454778892
 30
0.0
 11
866.0876257116022
 21
284.2151937078892
 31
0.0
  0
LINE
  5
1009
330
1F
100
AcDbEntity
  8
0
 62
     3
100
AcDbLine
 10
866.0876257116022
 20
284.2151937078892
 30
0.0
 11
866.1073100316023
 21
284.0972429378892
 31
0.0
  0
LINE
  5
100A
330
1F
100
AcDbEntity
  8
0
 62
     3
100
AcDbLine
 10
866.1073100316023
 20
284.0972429378892
 30
0.0
 11
866.1306927916022
 21
283.9846048678892
 31
0.0
  0
LINE
  5
100B
330
1F
100
AcDbEntity
  8
0
 62
     3
100
AcDbLine
 10
866.1306927916022
 20
283.9846048678892
 30
0.0
 11
866.1575932216022
 21
283.8781501078892
 31
0.0
  0
LINE
  5
100C
330
1F
100
AcDbEntity
  8
0
 62
     3
100
AcDbLine
 10
866.1575932216022
 20
283.8781501078892
 30
0.0
 11
866.1878034216025
 21
283.7787015178892
 31
0.0
  0
LINE
  5
100D
330
1F
100
AcDbEntity
  8
0
 62
     3
100
AcDbLine
 10
866.1878034216025
 20
283.7787015178892
 30
0.0
 11
866.2210898716024
 21
283.6870277878892
 31
0.0
  0
LINE
  5
100E
330
1F
100
AcDbEntity
  8
0
 62
     3
100
AcDbLine
 10
866.2210898716024
 20
283.6870277878892
 30
0.0
 11
866.2571952716023
 21
283.6038374878892
 31
0.0
  0
LINE
  5
100F
330
1F
100
AcDbEntity
  8
0
 62
     3
100
AcDbLine
 10
866.2571952716023
 20
283.6038374878892
 30
0.0
 11
866.2958405716024
 21
283.5297736578892
 31
0.0
  0
LINE
  5
1010
330
1F
100
AcDbEntity
  8
0
 62
     3
100
AcDbLine
 10
866.2958405716024
 20
283.5297736578892
 30
0.0
 11
866.3367270516022
 21
283.4654087678891
 31
0.0
  0
LINE
  5
1011
330
1F
100
AcDbEntity
  8
0
 62
     3
100
AcDbLine
 10
866.3367270516022
 20
283.4654087678891
 30
0.0
 11
866.3795386716023
 21
283.4112403178892
 31
0.0
  0
LINE
  5
1012
330
1F
100
AcDbEntity
  8
0
 62
     3
100
AcDbLine
 10
866.3795386716023
 20
283.4112403178892
 30
0.0
 11
866.4239445316026
 21
283.3676869978892
 31
0.0
  0
LINE
  5
1013
330
1F
100
AcDbEntity
  8
0
 62
     3
100
AcDbLine
 10
866.4239445316026
 20
283.3676869978892
 30
0.0
 11
866.4696013816023
 21
283.3350854678892
 31
0.0
  0
LINE
  5
1014
330
1F
100
AcDbEntity
  8
0
 62
     3
100
AcDbLine
 10
866.4696013816023
 20
283.3350854678892
 30
0.0
 11
866.5161563416024
 21
283.3136877078891
 31
0.0
  0
LINE
  5
1015
330
1F
100
AcDbEntity
  8
0
 62
     3
100
AcDbLine
 10
866.5161563416024
 20
283.3136877078891
 30
0.0
 11
866.5632495516025
 21
283.3036591278892
 31
0.0
  0
LINE
  5
1016
330
1F
100
AcDbEntity
  8
0
 62
     3
100
AcDbLine
 10
866.5632495516025
 20
283.3036591278892
 30
0.0
 11
866.6105170016024
 21
283.3050772278891
 31
0.0
  0
LINE
  5
1017
330
1F
100
AcDbEntity
  8
0
 62
     3
100
AcDbLine
 10
866.6105170016024
 20
283.3050772278891
 30
0.0
 11
866.6575933416025
 21
283.3179310478891
 31
0.0
  0
LINE
  5
1018
330
1F
100
AcDbEntity
  8
0
 62
     3
100
AcDbLine
 10
866.6575933416025
 20
283.3179310478891
 30
0.0
 11
866.7041147016023
 21
283.3421212478892
 31
0.0
  0
LINE
  5
1019
330
1F
100
AcDbEntity
  8
0
 62
     3
100
AcDbLine
 10
866.7041147016023
 20
283.3421212478892
 30
0.0
 11
866.7497214916025
 21
283.3774608278892
 31
0.0
  0
LINE
  5
101A
330
1F
100
AcDbEntity
  8
0
 62
     3
100
AcDbLine
 10
866.7497214916025
 20
283.3774608278892
 30
0.0
 11
866.7940611916023
 21
283.4236766478891
 31
0.0
  0
LINE
  5
101B
330
1F
100
AcDbEntity
  8
0
 62
     3
100
AcDbLine
 10
866.7940611916023
 20
283.4236766478891
 30
0.0
 11
866.8367910816025
 21
283.4804114878892
 31
0.0
  0
LINE
  5
101C
330
1F
100
AcDbEntity
  8
0
 62
     3
100
AcDbLine
 10
866.8367910816025
 20
283.4804114878892
 30
0.0
 11
866.8775808816022
 21
283.5472267978892
 31
0.0
  0
LINE
  5
101D
330
1F
100
AcDbEntity
  8
0
 62
     3
100
AcDbLine
 10
866.8775808816022
 20
283.5472267978892
 30
0.0
 11
866.9161153116023
 21
283.6236061478892
 31
0.0
  0
LINE
  5
101E
330
1F
100
AcDbEntity
  8
0
 62
     3
100
AcDbLine
 10
866.9161153116023
 20
283.6236061478892
 30
0.0
 11
866.9520965116022
 21
283.7089591578891
 31
0.0
  0
LINE
  5
101F
330
1F
100
AcDbEntity
  8
0
 62
     3
100
AcDbLine
 10
866.9520965116022
 20
283.7089591578891
 30
0.0
 11
866.9852463716024
 21
283.8026260878891
 31
0.0
  0
LINE
  5
1020
330
1F
100
AcDbEntity
  8
0
 62
     3
100
AcDbLine
 10
866.9852463716024
 20
283.8026260878891
 30
0.0
 11
867.0153086516025
 21
283.9038829478892
 31
0.0
  0
LINE
  5
1021
330
1F
100
AcDbEntity
  8
0
 62
     3
100
AcDbLine
 10
867.0153086516025
 20
283.9038829478892
 30
0.0
 11
867.0420510016024
 21
284.0119470678892
 31
0.0
  0
LINE
  5
1022
330
1F
100
AcDbEntity
  8
0
 62
     3
100
AcDbLine
 10
867.0420510016024
 20
284.0119470678892
 30
0.0
 11
867.0652667016025
 21
284.1259831778891
 31
0.0
  0
LINE
  5
1023
330
1F
100
AcDbEntity
  8
0
 62
     3
100
AcDbLine
 10
867.0652667016025
 20
284.1259831778891
 30
0.0
 11
867.0847763116025
 21
284.2451098278892
 31
0.0
  0
TEXT
  5
1024
330
1F
100
AcDbEntity
  8
0
 62
     4
100
AcDbText
 10
923.0819364618774
 20
117.911060952457
 30
0.0
 40
3.0
  1
VCTF0.75sqx3芯
100
AcDbText
1001
ACAD
1000
MTEXTBEGIN
1070
    73
1070
     1
1070
    44
1040
1.0
1070
    74
1070
     0
1000
MTEXTEND
  0
LINE
  5
1027
330
1F
100
AcDbEntity
  8
0
100
AcDbLine
 10
886.3201143258425
 20
246.8162614518622
 30
0.0
 11
874.8069348866437
 21
246.8162614518622
 31
0.0
  0
LINE
  5
1028
330
1F
100
AcDbEntity
  8
0
100
AcDbLine
 10
889.5485414505891
 20
231.8162614518622
 30
0.0
 11
874.8069348866437
 21
231.8162614518622
 31
0.0
  0
LINE
  5
1029
330
1F
100
AcDbEntity
  8
0
100
AcDbLine
 10
876.0569348866438
 20
244.3162614518622
 30
0.0
 11
876.0569348866438
 21
234.3162614518622
 31
0.0
  0
LINE
  5
102D
330
1F
100
AcDbEntity
  8
0
100
AcDbLine
 10
906.3701143258427
 20
245.0662614518622
 30
0.0
 11
906.3701143258427
 21
253.4765221237444
 31
0.0
  0
LINE
  5
102E
330
1F
100
AcDbEntity
  8
0
100
AcDbLine
 10
884.5701143258422
 20
245.0662614518622
 30
0.0
 11
884.5701143258422
 21
253.4765221237444
 31
0.0
  0
LINE
  5
102F
330
1F
100
AcDbEntity
  8
0
100
AcDbLine
 10
903.8701143258428
 20
252.2265221237444
 30
0.0
 11
887.0701143258422
 21
252.2265221237444
 31
0.0
  0
LINE
  5
1033
330
1F
100
AcDbEntity
  8
0
100
AcDbLine
 10
901.7201143258427
 20
158.3654498439546
 30
0.0
 11
927.4268339293412
 21
158.3654498439546
 31
0.0
  0
LINE
  5
1034
330
1F
100
AcDbEntity
  8
0
100
AcDbLine
 10
906.6201143258428
 20
211.8654498439546
 30
0.0
 11
927.4268339293412
 21
211.8654498439546
 31
0.0
  0
LINE
  5
1035
330
1F
100
AcDbEntity
  8
0
100
AcDbLine
 10
926.1768339293412
 20
160.8654498439546
 30
0.0
 11
926.1768339293412
 21
209.3654498439546
 31
0.0
  0
LINE
  5
1039
330
1F
100
AcDbEntity
  8
0
100
AcDbLine
 10
901.7201143258427
 20
158.3654498439546
 30
0.0
 11
927.4268339293412
 21
158.3654498439546
 31
0.0
  0
LINE
  5
103A
330
1F
100
AcDbEntity
  8
0
100
AcDbLine
 10
901.7201143258427
 20
129.147249318657
 30
0.0
 11
927.4268339293412
 21
129.147249318657
 31
0.0
  0
LINE
  5
103B
330
1F
100
AcDbEntity
  8
0
100
AcDbLine
 10
926.1768339293412
 20
155.8654498439546
 30
0.0
 11
926.1768339293412
 21
131.647249318657
 31
0.0
  0
LINE
  5
103F
330
1F
100
AcDbEntity
  8
0
100
AcDbLine
 10
900.9913027196185
 20
133.2171032677958
 30
0.0
 11
919.9569364618774
 21
119.411060952457
 31
0.0
1001
ACAD
1000
DSTYLE
1002
{
1070
   147
1040
0.625
1070
    77
1070
     0
1002
}
  0
LINE
  5
1040
330
1F
100
AcDbEntity
  8
0
100
AcDbLine
 10
919.9569364618774
 20
119.411060952457
 30
0.0
 11
922.4569364618774
 21
119.411060952457
 31
0.0
1001
ACAD
1000
DSTYLE
1002
{
1070
   147
1040
0.625
1070
    77
1070
     0
1002
}
  0
LINE
  5
1041
330
1F
100
AcDbEntity
  8
0
  6
ByBlock
 62
     0
370
    -2
100
AcDbLine
 10
900.5970626370482
 20
132.6755278588719
 30
0.0
 11
898.9701143258427
 21
134.6884283429799
 31
0.0
  0
LINE
  5
1042
330
1F
100
AcDbEntity
  8
0
  6
ByBlock
 62
     0
370
    -2
100
AcDbLine
 10
898.9701143258427
 20
134.6884283429799
 30
0.0
 11
901.3855428021891
 21
133.7586786767197
 31
0.0
  0
LINE
  5
1043
330
1F
100
AcDbEntity
  8
0
  6
ByBlock
 62
     0
370
    -2
100
AcDbLine
 10
898.9701143258427
 20
134.6884283429799
 30
0.0
 11
900.9913027196185
 21
133.2171032677958
 31
0.0
  0
TEXT
  5
1044
330
1F
100
AcDbEntity
  8
0
 62
     4
100
AcDbText
 10
875.4319348866436
 20
237.8464045415145
 30
0.0
 40
3.0
  1
15
 50
90.0
100
AcDbText
  0
LINE
  5
1045
330
1F
100
AcDbEntity
  8
0
  6
ByBlock
 62
     0
370
    -2
100
AcDbLine
 10
876.7268073866437
 20
234.3162614518622
 30
0.0
 11
876.0569348866438
 21
231.8162614518622
 31
0.0
  0
LINE
  5
1046
330
1F
100
AcDbEntity
  8
0
  6
ByBlock
 62
     0
370
    -2
100
AcDbLine
 10
876.0569348866438
 20
231.8162614518622
 30
0.0
 11
875.3870623866436
 21
234.3162614518622
 31
0.0
  0
LINE
  5
1047
330
1F
100
AcDbEntity
  8
0
  6
ByBlock
 62
     0
370
    -2
100
AcDbLine
 10
876.0569348866438
 20
231.8162614518622
 30
0.0
 11
876.0569348866438
 21
234.3162614518622
 31
0.0
  0
LINE
  5
1048
330
1F
100
AcDbEntity
  8
0
  6
ByBlock
 62
     0
370
    -2
100
AcDbLine
 10
875.3870623866436
 20
244.3162614518622
 30
0.0
 11
876.0569348866438
 21
246.8162614518622
 31
0.0
  0
LINE
  5
1049
330
1F
100
AcDbEntity
  8
0
  6
ByBlock
 62
     0
370
    -2
100
AcDbLine
 10
876.0569348866438
 20
246.8162614518622
 30
0.0
 11
876.7268073866437
 21
244.3162614518622
 31
0.0
  0
LINE
  5
104A
330
1F
100
AcDbEntity
  8
0
  6
ByBlock
 62
     0
370
    -2
100
AcDbLine
 10
876.0569348866438
 20
246.8162614518622
 30
0.0
 11
876.0569348866438
 21
244.3162614518622
 31
0.0
  0
TEXT
  5
104B
330
1F
100
AcDbEntity
  8
0
 62
     4
100
AcDbText
 10
891.4296833555082
 20
252.8515221237444
 30
0.0
 40
3.0
  1
21.8
100
AcDbText
  0
LINE
  5
104C
330
1F
100
AcDbEntity
  8
0
  6
ByBlock
 62
     0
370
    -2
100
AcDbLine
 10
887.0701143258422
 20
251.5566496237444
 30
0.0
 11
884.5701143258422
 21
252.2265221237444
 31
0.0
  0
LINE
  5
104D
330
1F
100
AcDbEntity
  8
0
  6
ByBlock
 62
     0
370
    -2
100
AcDbLine
 10
884.5701143258422
 20
252.2265221237444
 30
0.0
 11
887.0701143258422
 21
252.8963946237444
 31
0.0
  0
LINE
  5
104E
330
1F
100
AcDbEntity
  8
0
  6
ByBlock
 62
     0
370
    -2
100
AcDbLine
 10
884.5701143258422
 20
252.2265221237444
 30
0.0
 11
887.0701143258422
 21
252.2265221237444
 31
0.0
  0
LINE
  5
104F
330
1F
100
AcDbEntity
  8
0
  6
ByBlock
 62
     0
370
    -2
100
AcDbLine
 10
903.8701143258428
 20
252.8963946237444
 30
0.0
 11
906.3701143258427
 21
252.2265221237444
 31
0.0
  0
LINE
  5
1050
330
1F
100
AcDbEntity
  8
0
  6
ByBlock
 62
     0
370
    -2
100
AcDbLine
 10
906.3701143258427
 20
252.2265221237444
 30
0.0
 11
903.8701143258428
 21
251.5566496237444
 31
0.0
  0
LINE
  5
1051
330
1F
100
AcDbEntity
  8
0
  6
ByBlock
 62
     0
370
    -2
100
AcDbLine
 10
906.3701143258427
 20
252.2265221237444
 30
0.0
 11
903.8701143258428
 21
252.2265221237444
 31
0.0
  0
TEXT
  5
1052
330
1F
100
AcDbEntity
  8
0
 62
     4
100
AcDbText
 10
925.5518339293413
 20
180.6154498439546
 30
0.0
 40
3.0
  1
53.5
 50
90.0
100
AcDbText
  0
LINE
  5
1053
330
1F
100
AcDbEntity
  8
0
  6
ByBlock
 62
     0
370
    -2
100
AcDbLine
 10
925.5069614293413
 20
209.3654498439546
 30
0.0
 11
926.1768339293412
 21
211.8654498439546
 31
0.0
  0
LINE
  5
1054
330
1F
100
AcDbEntity
  8
0
  6
ByBlock
 62
     0
370
    -2
100
AcDbLine
 10
926.1768339293412
 20
211.8654498439546
 30
0.0
 11
926.8467064293412
 21
209.3654498439546
 31
0.0
  0
LINE
  5
1055
330
1F
100
AcDbEntity
  8
0
  6
ByBlock
 62
     0
370
    -2
100
AcDbLine
 10
926.1768339293412
 20
211.8654498439546
 30
0.0
 11
926.1768339293412
 21
209.3654498439546
 31
0.0
  0
LINE
  5
1056
330
1F
100
AcDbEntity
  8
0
  6
ByBlock
 62
     0
370
    -2
100
AcDbLine
 10
926.8467064293412
 20
160.8654498439546
 30
0.0
 11
926.1768339293412
 21
158.3654498439546
 31
0.0
  0
LINE
  5
1057
330
1F
100
AcDbEntity
  8
0
  6
ByBlock
 62
     0
370
    -2
100
AcDbLine
 10
926.1768339293412
 20
158.3654498439546
 30
0.0
 11
925.5069614293413
 21
160.8654498439546
 31
0.0
  0
LINE
  5
1058
330
1F
100
AcDbEntity
  8
0
  6
ByBlock
 62
     0
370
    -2
100
AcDbLine
 10
926.1768339293412
 20
158.3654498439546
 30
0.0
 11
926.1768339293412
 21
160.8654498439546
 31
0.0
  0
TEXT
  5
1059
330
1F
100
AcDbEntity
  8
0
 62
     4
100
AcDbText
 10
925.5518339293413
 20
137.9542831101466
 30
0.0
 40
3.0
  1
3000
 50
90.0
100
AcDbText
  0
LINE
  5
105A
330
1F
100
AcDbEntity
  8
0
  6
ByBlock
 62
     0
370
    -2
100
AcDbLine
 10
925.5069614293413
 20
155.8654498439546
 30
0.0
 11
926.1768339293412
 21
158.3654498439546
 31
0.0
  0
LINE
  5
105B
330
1F
100
AcDbEntity
  8
0
  6
ByBlock
 62
     0
370
    -2
100
AcDbLine
 10
926.1768339293412
 20
158.3654498439546
 30
0.0
 11
926.8467064293412
 21
155.8654498439546
 31
0.0
  0
LINE
  5
105C
330
1F
100
AcDbEntity
  8
0
  6
ByBlock
 62
     0
370
    -2
100
AcDbLine
 10
926.1768339293412
 20
158.3654498439546
 30
0.0
 11
926.1768339293412
 21
155.8654498439546
 31
0.0
  0
LINE
  5
105D
330
1F
100
AcDbEntity
  8
0
  6
ByBlock
 62
     0
370
    -2
100
AcDbLine
 10
926.8467064293412
 20
131.647249318657
 30
0.0
 11
926.1768339293412
 21
129.147249318657
 31
0.0
  0
LINE
  5
105E
330
1F
100
AcDbEntity
  8
0
  6
ByBlock
 62
     0
370
    -2
100
AcDbLine
 10
926.1768339293412
 20
129.147249318657
 30
0.0
 11
925.5069614293413
 21
131.647249318657
 31
0.0
  0
LINE
  5
105F
330
1F
100
AcDbEntity
  8
0
  6
ByBlock
 62
     0
370
    -2
100
AcDbLine
 10
926.1768339293412
 20
129.147249318657
 30
0.0
 11
926.1768339293412
 21
131.647249318657
 31
0.0
  0
ENDSEC
  0
SECTION
  2
OBJECTS
  0
DICTIONARY
  5
C
330
0
100
AcDbDictionary
281
     1
  3
ACAD_2007HEADERVARS_RT
350
1063
  3
ACAD_COLOR
350
73
  3
ACAD_GROUP
350
D
  3
ACAD_LAYOUT
350
1A
  3
ACAD_MATERIAL
350
72
  3
ACAD_MLEADERSTYLE
350
168
  3
ACAD_MLINESTYLE
350
17
  3
ACAD_PLOTSETTINGS
350
19
  3
ACAD_PLOTSTYLENAME
350
E
  3
ACAD_SCALELIST
350
156
  3
ACAD_TABLESTYLE
350
86
  3
ACAD_VISUALSTYLE
350
99
  3
ACDB_RECOMPOSE_DATA
350
1061
  3
AcDbVariableDictionary
350
66
  3
DWGPROPS
350
1062
  0
DICTIONARY
  5
DD
330
2
100
AcDbDictionary
280
     1
281
     1
  3
ACAD_LAYERSTATES
360
DE
  0
DICTIONARY
  5
A55
330
10
100
AcDbDictionary
280
     1
281
     1
  3
ADSK_XREC_LAYER_RECONCILED
360
A56
  0
DICTIONARY
  5
31A
330
1F
100
AcDbDictionary
280
     1
281
     1
  3
ACAD_SORTENTS
360
31B
  0
DICTIONARY
  5
1063
102
{ACAD_REACTORS
330
C
102
}
330
C
100
AcDbDictionary
281
     1
  3
DIMARCSYM
350
1065
  3
DIMFXL
350
1064
  3
DIMJOGANG
350
1066
  0
DICTIONARY
  5
73
102
{ACAD_REACTORS
330
C
102
}
330
C
100
AcDbDictionary
281
     1
  0
DICTIONARY
  5
D
102
{ACAD_REACTORS
330
C
102
}
330
C
100
AcDbDictionary
281
     1
  0
DICTIONARY
  5
1A
102
{ACAD_REACTORS
330
C
102
}
330
C
100
AcDbDictionary
281
     1
  3
Model
350
22
  3
レイアウト1
350
59
  3
レイアウト2
350
5E
  0
DICTIONARY
  5
72
102
{ACAD_REACTORS
330
C
102
}
330
C
100
AcDbDictionary
281
     1
  3
ByBlock
350
97
  3
ByLayer
350
96
  3
Global
350
98
  0
DICTIONARY
  5
168
102
{ACAD_REACTORS
330
C
102
}
330
C
100
AcDbDictionary
281
     1
  3
Standard
350
169
  0
DICTIONARY
  5
17
102
{ACAD_REACTORS
330
C
102
}
330
C
100
AcDbDictionary
281
     1
  3
Standard
350
18
  0
DICTIONARY
  5
19
102
{ACAD_REACTORS
330
C
102
}
330
C
100
AcDbDictionary
281
     1
  0
ACDBDICTIONARYWDFLT
  5
E
102
{ACAD_REACTORS
330
C
102
}
330
C
100
AcDbDictionary
281
     1
  3
Normal
350
F
100
AcDbDictionaryWithDefault
340
F
  0
DICTIONARY
  5
156
102
{ACAD_REACTORS
330
C
102
}
330
C
100
AcDbDictionary
281
     1
  3
A0
350
157
  3
A1
350
158
  3
A2
350
159
  3
A3
350
15A
  3
A4
350
15B
  3
A5
350
15C
  3
A6
350
15D
  3
A7
350
15E
  3
A8
350
15F
  3
A9
350
160
  3
B0
350
161
  3
B1
350
162
  3
B2
350
163
  3
B3
350
164
  3
B4
350
165
  3
B5
350
166
  3
B6
350
167
  0
DICTIONARY
  5
86
102
{ACAD_REACTORS
330
C
102
}
330
C
100
AcDbDictionary
281
     1
  3
Standard
350
87
  0
DICTIONARY
  5
99
102
{ACAD_REACTORS
330
C
102
}
330
C
100
AcDbDictionary
281
     1
  3
2dWireframe
350
9F
  3
3D Hidden
350
A1
  3
3dWireframe
350
A0
  3
Basic
350
9E
  3
Brighten
350
A5
  3
ColorChange
350
A9
  3
Conceptual
350
A2
  3
Dim
350
A4
  3
EdgeColorOff
350
155
  3
Facepattern
350
A8
  3
Flat
350
9A
  3
FlatWithEdges
350
9B
  3
Gouraud
350
9C
  3
GouraudWithEdges
350
9D
  3
Hidden
350
14D
  3
JitterOff
350
153
  3
Linepattern
350
A7
  3
OverhangOff
350
154
  3
Realistic
350
A3
  3
Shaded
350
152
  3
Shaded with edges
350
151
  3
Shades of Gray
350
14E
  3
Sketchy
350
14F
  3
Thicken
350
A6
  3
Wireframe
350
14C
  3
X-Ray
350
150
  0
XRECORD
  5
1061
102
{ACAD_REACTORS
330
C
102
}
330
C
100
AcDbXrecord
280
     1
 90
        1
330
87
  0
DICTIONARY
  5
66
102
{ACAD_REACTORS
330
C
102
}
330
C
100
AcDbDictionary
281
     1
  3
CANNOSCALE
350
245
  3
CMLEADERSTYLE
350
243
  3
CTABLESTYLE
350
89
  3
DIMASSOC
350
67
  3
HIDETEXT
350
6B
  3
INDEXCTL
350
A5A
  3
LAYEREVAL
350
247
  3
LAYERNOTIFY
350
248
  3
LIGHTINGUNITS
350
246
  3
MSLTSCALE
350
244
  3
SORTENTS
350
A59
  3
XCLIPFRAME
350
F9A
  0
XRECORD
  5
1062
102
{ACAD_REACTORS
330
C
102
}
330
C
100
AcDbXrecord
280
     1
  1
DWGPROPS COOKIE
  2

  3

  4

  6

  7

  8
imamura
  9

300
=
301
=
302
=
303
=
304
=
305
=
306
=
307
=
308
=
309
=
 40
0.1506048148148148
 41
2456374.663505406
 42
2456538.546704757
  1

 90
        0
  0
DICTIONARY
  5
DE
102
{ACAD_REACTORS
330
DD
102
}
330
DD
100
AcDbDictionary
281
     1
  0
XRECORD
  5
A56
102
{ACAD_REACTORS
330
A55
102
}
330
A55
100
AcDbXrecord
280
     1
290
     1
  0
SORTENTSTABLE
  5
31B
102
{ACAD_REACTORS
330
31A
102
}
330
31A
100
AcDbSortentsTable
330
1F
331
87D
  5
1018
331
8D6
  5
1055
331
879
  5
1016
331
A24
  5
9A0
331
8E0
  5
9F2
331
102F
  5
9A2
331
A20
  5
8DF
331
8C2
  5
1054
331
FEC
  5
A26
331
A1C
  5
8D5
331
FE8
  5
A22
331
1027
  5
9AD
331
A18
  5
8D1
331
1023
  5
1005
331
9AE
  5
85C
331
854
  5
A0A
331
9AA
  5
858
331
88F
  5
1021
331
850
  5
A1A
331
9A6
  5
854
331
9E5
  5
89D
331
88B
  5
101D
331
84C
  5
1007
331
9A2
  5
850
331
9E1
  5
899
331
848
  5
A18
331
8BE
  5
1050
331
8BA
  5
104C
331
A14
  5
8CD
331
8B6
  5
1048
331
A4F
  5
9E6
331
101F
  5
1001
331
105E
  5
980
331
A10
  5
8C8
331
8B2
  5
1044
331
A4B
  5
9E2
331
101B
  5
FFD
331
105A
  5
946
331
A0C
  5
8C4
331
1017
  5
FF9
331
1056
  5
993
331
A08
  5
8C0
331
1013
  5
FF5
331
1052
  5
99F
331
887
  5
100C
331
99E
  5
84C
331
9DD
  5
895
331
9D9
  5
891
331
844
  5
9FB
331
99A
  5
848
331
840
  5
A17
331
996
  5
843
331
9D5
  5
88D
331
992
  5
83B
331
9D1
  5
888
331
838
  5
A15
331
8AE
  5
1040
331
A47
  5
9DE
331
8AA
  5
103C
331
A43
  5
9DA
331
A04
  5
8BC
331
A51
  5
105B
331
8A6
  5
1038
331
A3F
  5
9D6
331
100F
  5
FF1
331
104E
  5
9A9
331
A00
  5
8B8
331
8A2
  5
1034
331
A3B
  5
9D2
331
100B
  5
FED
331
104A
  5
9B3
331
9FC
  5
8B4
331
1007
  5
FE9
331
1046
  5
9B5
331
9F8
  5
8B0
331
1003
  5
FE5
331
1042
  5
9B9
331
98E
  5
831
331
9CD
  5
884
331
9C9
  5
87C
331
98A
  5
82D
331
86F
  5
100B
331
9C5
  5
877
331
82C
  5
A09
331
86B
  5
9EB
331
9C1
  5
870
331
828
  5
A03
331
89E
  5
1030
331
A37
  5
9CE
331
985
  5
822
331
89A
  5
102C
331
A33
  5
9CA
331
9F4
  5
8AC
331
896
  5
1028
331
A2F
  5
9C6
331
FFF
  5
A52
331
9F0
  5
8A8
331
892
  5
1024
331
A2B
  5
9C2
331
FFB
  5
A48
331
103A
  5
8FA
331
9EC
  5
8A4
331
FF7
  5
A31
331
9E8
  5
8A0
331
FF3
  5
A2D
331
867
  5
9EE
331
9BD
  5
86B
331
863
  5
9FA
331
9B9
  5
867
331
85F
  5
9F8
331
9B5
  5
863
331
85B
  5
A11
331
824
  5
A08
331
9B1
  5
85F
331
A27
  5
9BB
331
A23
  5
8E2
331
FEF
  5
A29
331
102E
  5
9A3
331
A1F
  5
8DE
331
8C1
  5
1053
331
FEB
  5
A25
331
A1B
  5
8D4
331
1022
  5
1004
331
857
  5
A0D
331
9AD
  5
85B
331
853
  5
A1D
331
9A9
  5
857
331
88E
  5
1020
331
84F
  5
A19
331
9A5
  5
853
331
9E4
  5
89C
331
9A1
  5
84F
331
9E0
  5
898
331
8BD
  5
104F
331
FE7
  5
A21
331
A17
  5
8D0
331
8B9
  5
104B
331
A13
  5
8CC
331
8B5
  5
1047
331
A4E
  5
9E5
331
101E
  5
1000
331
105D
  5
946
331
A0F
  5
8C7
331
8B1
  5
1043
331
A4A
  5
9E1
331
101A
  5
FFC
331
1059
  5
98D
331
A0B
  5
8C3
331
1016
  5
FF8
331
1055
  5
99E
331
1012
  5
FF4
331
1051
  5
9A6
331
886
  5
1015
331
99D
  5
84B
331
9DC
  5
894
331
9D8
  5
890
331
843
  5
9FC
331
999
  5
847
331
83F
  5
A16
331
995
  5
842
331
9D4
  5
88B
331
991
  5
83A
331
9D0
  5
887
331
8AD
  5
103F
331
A46
  5
9DD
331
A07
  5
8BF
331
A54
  5
105E
331
8A9
  5
103B
331
A42
  5
9D9
331
A03
  5
8BB
331
8A5
  5
1037
331
A3E
  5
9D5
331
A50
  5
8CB
331
100E
  5
FF0
331
104D
  5
9A8
331
9FF
  5
8B7
331
8A1
  5
1033
331
A3A
  5
9D1
331
100A
  5
FEC
331
1049
  5
9B2
331
9FB
  5
8B3
331
1006
  5
FE8
331
1045
  5
9B4
331
1002
  5
B90
331
1041
  5
9B8
331
837
  5
A14
331
98D
  5
830
331
9CC
  5
881
331
9C8
  5
87A
331
833
  5
A13
331
989
  5
82C
331
86E
  5
100A
331
9C4
  5
876
331
86A
  5
9EA
331
9C0
  5
86E
331
984
  5
105A
331
89D
  5
102F
331
A36
  5
9CD
331
9F7
  5
8AF
331
899
  5
102B
331
A32
  5
9C9
331
9F3
  5
8AB
331
895
  5
1027
331
A2E
  5
9C5
331
FFE
  5
A51
331
9EF
  5
8A7
331
891
  5
1023
331
A2A
  5
9C1
331
FFA
  5
A47
331
1039
  5
8E2
331
9EB
  5
8A3
331
FF6
  5
A30
331
1035
  5
99A
331
FF2
  5
A2C
331
866
  5
9E8
331
9BC
  5
86A
331
862
  5
9F6
331
9B8
  5
866
331
827
  5
A04
331
85E
  5
9F4
331
9B4
  5
862
331
85A
  5
A10
331
823
  5
A07
331
9B0
  5
85E
331
87F
  5
101B
331
A26
  5
9AE
331
A22
  5
8E1
331
FEE
  5
A28
331
102D
  5
9A1
331
A1E
  5
8D7
331
8C0
  5
1052
331
FEA
  5
A24
331
1029
  5
9AF
331
A1A
  5
8D3
331
1021
  5
1003
331
856
  5
A0C
331
9AC
  5
85A
331
9E7
  5
89F
331
852
  5
A1C
331
9A8
  5
856
331
88D
  5
101F
331
84E
  5
1009
331
9A4
  5
852
331
889
  5
100E
331
9A0
  5
84E
331
8BC
  5
104E
331
FE6
  5
A20
331
A16
  5
8CF
331
8B8
  5
104A
331
A12
  5
8CA
331
8B4
  5
1046
331
A4D
  5
9E4
331
101D
  5
FFF
331
105C
  5
98C
331
A0E
  5
8C6
331
8B0
  5
1042
331
A49
  5
9E0
331
1019
  5
FFB
331
1058
  5
995
331
A0A
  5
8C2
331
1015
  5
FF7
331
1054
  5
99D
331
1011
  5
FF3
331
1050
  5
9A5
331
9DF
  5
897
331
885
  5
1011
331
99C
  5
84A
331
9DB
  5
893
331
9D7
  5
88F
331
881
  5
1019
331
842
  5
1006
331
998
  5
845
331
875
  5
1014
331
83E
  5
9FD
331
994
  5
841
331
9D3
  5
88A
331
871
  5
1010
331
83A
  5
9FF
331
990
  5
839
331
8AC
  5
103E
331
A45
  5
9DC
331
A06
  5
8BE
331
A53
  5
105D
331
8A8
  5
103A
331
A41
  5
9D8
331
A02
  5
8BA
331
8A4
  5
1036
331
A3D
  5
9D4
331
100D
  5
FEF
331
104C
  5
9A7
331
9FE
  5
8B6
331
8A0
  5
1032
331
A39
  5
9D0
331
1009
  5
FEB
331
1048
  5
9B1
331
9FA
  5
8B2
331
1005
  5
FE7
331
1044
  5
9B7
331
1001
  5
A54
331
1040
  5
9BD
331
9CF
  5
886
331
98C
  5
82F
331
9CB
  5
87E
331
9C7
  5
879
331
832
  5
A12
331
988
  5
82B
331
86D
  5
9F1
331
9C3
  5
875
331
82A
  5
A01
331
869
  5
9E9
331
983
  5
1059
331
89C
  5
102E
331
A35
  5
9CC
331
9F6
  5
8AE
331
8DF
  5
1058
331
898
  5
102A
331
A31
  5
9C8
331
9F2
  5
8AA
331
894
  5
1026
331
A2D
  5
9C4
331
FFD
  5
A50
331
9EE
  5
8A6
331
890
  5
1022
331
A29
  5
9C0
331
FF9
  5
A46
331
9EA
  5
8A2
331
FF5
  5
A2F
331
1034
  5
992
331
FF1
  5
A2B
331
9BF
  5
86D
331
865
  5
9E7
331
9BB
  5
869
331
861
  5
9F9
331
9B7
  5
865
331
826
  5
A05
331
85D
  5
9F3
331
9B3
  5
861
331
859
  5
A0F
331
87E
  5
101A
331
8D7
  5
1056
331
87A
  5
1017
331
A25
  5
9AC
331
8E1
  5
9EC
331
A21
  5
8E0
331
FED
  5
A27
331
A1D
  5
8D6
331
FE9
  5
A23
331
1028
  5
9B0
331
A19
  5
8D2
331
1024
  5
9BF
331
1020
  5
1002
331
9AF
  5
85D
331
855
  5
A0B
331
9AB
  5
859
331
851
  5
A1B
331
9A7
  5
855
331
9E6
  5
89E
331
88C
  5
101E
331
84D
  5
1008
331
9A3
  5
851
331
9E2
  5
89A
331
888
  5
1013
331
8BF
  5
1051
331
8BB
  5
104D
331
FE5
  5
A1F
331
A15
  5
8CE
331
B90
  5
105F
331
8B7
  5
1049
331
105F
  5
984
331
A11
  5
8C9
331
8B3
  5
1045
331
A4C
  5
9E3
331
101C
  5
FFE
331
105B
  5
98B
331
A0D
  5
8C5
331
A48
  5
9DF
331
1018
  5
FFA
331
1057
  5
994
331
1014
  5
FF6
331
1053
  5
99C
331
1010
  5
FF2
331
99F
  5
84D
331
9DE
  5
896
331
9DA
  5
892
331
884
  5
100F
331
99B
  5
849
331
9D6
  5
88E
331
880
  5
101C
331
841
  5
A1E
331
997
  5
844
331
874
  5
1012
331
83D
  5
9FE
331
993
  5
83D
331
9D2
  5
889
331
870
  5
100D
331
839
  5
A00
331
8AF
  5
1041
331
8AB
  5
103D
331
A44
  5
9DB
331
A05
  5
8BD
331
A52
  5
105C
331
8A7
  5
1039
331
A40
  5
9D7
331
104F
  5
9A4
331
A01
  5
8B9
331
8A3
  5
1035
331
A3C
  5
9D3
331
100C
  5
FEE
331
104B
  5
9AB
331
9FD
  5
8B5
331
A38
  5
9CF
331
1008
  5
FEA
331
1047
  5
9B6
331
9F9
  5
8B1
331
1004
  5
FE6
331
1043
  5
9BA
331
1000
  5
A53
331
98F
  5
832
331
9CE
  5
885
331
98B
  5
82E
331
9CA
  5
87D
331
9C6
  5
878
331
86C
  5
9F0
331
9C2
  5
874
331
829
  5
A02
331
868
  5
9EF
331
89F
  5
1031
331
986
  5
829
331
89B
  5
102D
331
A34
  5
9CB
331
9F5
  5
8AD
331
8DE
  5
1057
331
897
  5
1029
331
A30
  5
9C7
331
103F
  5
9BC
331
9F1
  5
8A9
331
893
  5
1025
331
A2C
  5
9C3
331
FFC
  5
A4F
331
103B
  5
92E
331
9ED
  5
8A5
331
A28
  5
9BE
331
FF8
  5
A45
331
9E9
  5
8A1
331
FF4
  5
A2E
331
1033
  5
991
331
FF0
  5
A2A
331
9BE
  5
86C
331
864
  5
9ED
331
9BA
  5
868
331
860
  5
9F5
331
9B6
  5
864
331
825
  5
A06
331
85C
  5
9F7
331
9B2
  5
860
331
858
  5
A0E
  0
XRECORD
  5
1065
102
{ACAD_REACTORS
330
1063
102
}
330
1063
100
AcDbXrecord
280
     1
 70
     2
  0
XRECORD
  5
1064
102
{ACAD_REACTORS
330
1063
102
}
330
1063
100
AcDbXrecord
280
     1
 40
1.25
  0
XRECORD
  5
1066
102
{ACAD_REACTORS
330
1063
102
}
330
1063
100
AcDbXrecord
280
     1
 40
1.570796326794896
  0
LAYOUT
  5
22
102
{ACAD_XDICTIONARY
360
1067
102
}
102
{ACAD_REACTORS
330
1A
102
}
330
1A
100
AcDbPlotSettings
  1

  2
none_device
  4
ANSI_A_(8.50_x_11.00_Inches)
  6

 40
6.349999904632567
 41
19.04999923706055
 42
6.350006103515625
 43
19.04998779296875
 44
215.8999938964844
 45
279.3999938964844
 46
0.0
 47
0.0
 48
0.0
 49
0.0
140
0.0
141
0.0
142
1.0
143
2.584895464708373
 70
 11952
 72
     0
 73
     1
 74
     0
  7

 75
     0
147
0.3868628397755418
148
0.0
149
0.0
100
AcDbLayout
  1
Model
 70
     1
 71
     0
 10
0.0
 20
0.0
 11
12.0
 21
9.0
 12
0.0
 22
0.0
 32
0.0
 14
0.0
 24
0.0
 34
0.0
 15
0.0
 25
0.0
 35
0.0
146
0.0
 13
0.0
 23
0.0
 33
0.0
 16
1.0
 26
0.0
 36
0.0
 17
0.0
 27
1.0
 37
0.0
 76
     0
330
1F
331
94
  0
LAYOUT
  5
59
102
{ACAD_XDICTIONARY
360
1069
102
}
102
{ACAD_REACTORS
330
1A
102
}
330
1A
100
AcDbPlotSettings
  1

  2
None
  4

  6

 40
0.0
 41
0.0
 42
0.0
 43
0.0
 44
0.0
 45
0.0
 46
0.0
 47
0.0
 48
0.0
 49
0.0
140
0.0
141
0.0
142
1.0
143
1.0
 70
   688
 72
     0
 73
     0
 74
     5
  7

 75
    16
147
1.0
148
0.0
149
0.0
100
AcDbLayout
  1
レイアウト1
 70
     1
 71
     1
 10
0.0
 20
0.0
 11
12.0
 21
9.0
 12
0.0
 22
0.0
 32
0.0
 14
0.0
 24
0.0
 34
0.0
 15
0.0
 25
0.0
 35
0.0
146
0.0
 13
0.0
 23
0.0
 33
0.0
 16
1.0
 26
0.0
 36
0.0
 17
0.0
 27
1.0
 37
0.0
 76
     0
330
58
  0
LAYOUT
  5
5E
102
{ACAD_XDICTIONARY
360
106B
102
}
102
{ACAD_REACTORS
330
1A
102
}
330
1A
100
AcDbPlotSettings
  1

  2
None
  4

  6

 40
0.0
 41
0.0
 42
0.0
 43
0.0
 44
0.0
 45
0.0
 46
0.0
 47
0.0
 48
0.0
 49
0.0
140
0.0
141
0.0
142
1.0
143
1.0
 70
   688
 72
     0
 73
     0
 74
     5
  7

 75
    16
147
1.0
148
0.0
149
0.0
100
AcDbLayout
  1
レイアウト2
 70
     1
 71
     2
 10
0.0
 20
0.0
 11
12.0
 21
9.0
 12
0.0
 22
0.0
 32
0.0
 14
0.0
 24
0.0
 34
0.0
 15
0.0
 25
0.0
 35
0.0
146
0.0
 13
0.0
 23
0.0
 33
0.0
 16
1.0
 26
0.0
 36
0.0
 17
0.0
 27
1.0
 37
0.0
 76
     0
330
5D
  0
MATERIAL
  5
97
102
{ACAD_XDICTIONARY
360
A6D
102
}
102
{ACAD_REACTORS
330
72
102
}
330
72
100
AcDbMaterial
  1
ByBlock
 73
     1
 78
     1
172
     1
176
     1
270
     1
274
     1
  0
MATERIAL
  5
96
102
{ACAD_XDICTIONARY
360
A6B
102
}
102
{ACAD_REACTORS
330
72
102
}
330
72
100
AcDbMaterial
  1
ByLayer
 73
     1
 78
     1
172
     1
176
     1
270
     1
274
     1
  0
MATERIAL
  5
98
102
{ACAD_XDICTIONARY
360
A6F
102
}
102
{ACAD_REACTORS
330
72
102
}
330
72
100
AcDbMaterial
  1
Global
 73
     1
 78
     1
172
     1
176
     1
270
     1
274
     1
  0
MLEADERSTYLE
  5
169
102
{ACAD_REACTORS
330
168
102
}
330
168
100
AcDbMLeaderStyle
170
     2
171
     1
172
     0
 90
        2
 40
0.0
 41
0.0
173
     1
 91
-1056964608
340
14
 92
       -2
290
     1
 42
2.0
291
     1
 43
0.36
  3
Standard
 44
4.0
300

342
11
174
     1
178
     6
175
     1
176
     0
 93
-1056964608
 45
4.0
292
     0
297
     0
 46
4.0
 94
-1056964608
 47
1.0
 49
1.0
140
1.0
293
     1
141
0.0
294
     1
177
     0
142
1.0
295
     0
296
     0
143
0.125
1001
ACAD_MLEADERVER
1070
     2
  0
MLINESTYLE
  5
18
102
{ACAD_REACTORS
330
17
102
}
330
17
100
AcDbMlineStyle
  2
STANDARD
 70
     0
  3

 62
   256
 51
90.0
 52
90.0
 71
     2
 49
0.5
 62
   256
  6
BYLAYER
 49
-0.5
 62
   256
  6
BYLAYER
  0
ACDBPLACEHOLDER
  5
F
102
{ACAD_REACTORS
330
E
102
}
330
E
  0
SCALE
  5
157
102
{ACAD_REACTORS
330
156
102
}
330
156
100
AcDbScale
 70
     0
300
1:1
140
1.0
141
1.0
290
     1
  0
SCALE
  5
158
102
{ACAD_REACTORS
330
156
102
}
330
156
100
AcDbScale
 70
     0
300
1:2
140
1.0
141
2.0
290
     0
  0
SCALE
  5
159
102
{ACAD_REACTORS
330
156
102
}
330
156
100
AcDbScale
 70
     0
300
1:4
140
1.0
141
4.0
290
     0
  0
SCALE
  5
15A
102
{ACAD_REACTORS
330
156
102
}
330
156
100
AcDbScale
 70
     0
300
1:5
140
1.0
141
5.0
290
     0
  0
SCALE
  5
15B
102
{ACAD_REACTORS
330
156
102
}
330
156
100
AcDbScale
 70
     0
300
1:8
140
1.0
141
8.0
290
     0
  0
SCALE
  5
15C
102
{ACAD_REACTORS
330
156
102
}
330
156
100
AcDbScale
 70
     0
300
1:10
140
1.0
141
10.0
290
     0
  0
SCALE
  5
15D
102
{ACAD_REACTORS
330
156
102
}
330
156
100
AcDbScale
 70
     0
300
1:16
140
1.0
141
16.0
290
     0
  0
SCALE
  5
15E
102
{ACAD_REACTORS
330
156
102
}
330
156
100
AcDbScale
 70
     0
300
1:20
140
1.0
141
20.0
290
     0
  0
SCALE
  5
15F
102
{ACAD_REACTORS
330
156
102
}
330
156
100
AcDbScale
 70
     0
300
1:30
140
1.0
141
30.0
290
     0
  0
SCALE
  5
160
102
{ACAD_REACTORS
330
156
102
}
330
156
100
AcDbScale
 70
     0
300
1:40
140
1.0
141
40.0
290
     0
  0
SCALE
  5
161
102
{ACAD_REACTORS
330
156
102
}
330
156
100
AcDbScale
 70
     0
300
1:50
140
1.0
141
50.0
290
     0
  0
SCALE
  5
162
102
{ACAD_REACTORS
330
156
102
}
330
156
100
AcDbScale
 70
     0
300
1:100
140
1.0
141
100.0
290
     0
  0
SCALE
  5
163
102
{ACAD_REACTORS
330
156
102
}
330
156
100
AcDbScale
 70
     0
300
2:1
140
2.0
141
1.0
290
     0
  0
SCALE
  5
164
102
{ACAD_REACTORS
330
156
102
}
330
156
100
AcDbScale
 70
     0
300
4:1
140
4.0
141
1.0
290
     0
  0
SCALE
  5
165
102
{ACAD_REACTORS
330
156
102
}
330
156
100
AcDbScale
 70
     0
300
8:1
140
8.0
141
1.0
290
     0
  0
SCALE
  5
166
102
{ACAD_REACTORS
330
156
102
}
330
156
100
AcDbScale
 70
     0
300
10:1
140
10.0
141
1.0
290
     0
  0
SCALE
  5
167
102
{ACAD_REACTORS
330
156
102
}
330
156
100
AcDbScale
 70
     0
300
100:1
140
100.0
141
1.0
290
     0
  0
TABLESTYLE
  5
87
102
{ACAD_XDICTIONARY
360
A5C
102
}
102
{ACAD_REACTORS
330
86
102
}
330
86
100
AcDbTableStyle
  3
Standard
 70
     0
 71
     0
 40
0.06
 41
0.06
280
     0
281
     0
  7
Standard
140
0.18
170
     2
 62
     0
 63
     7
283
     0
274
    -2
284
     1
 64
     0
275
    -2
285
     1
 65
     0
276
    -2
286
     1
 66
     0
277
    -2
287
     1
 67
     0
278
    -2
288
     1
 68
     0
279
    -2
289
     1
 69
     0
  7
Standard
140
0.25
170
     5
 62
     0
 63
     7
283
     0
274
    -2
284
     1
 64
     0
275
    -2
285
     1
 65
     0
276
    -2
286
     1
 66
     0
277
    -2
287
     1
 67
     0
278
    -2
288
     1
 68
     0
279
    -2
289
     1
 69
     0
  7
Standard
140
0.18
170
     5
 62
     0
 63
     7
283
     0
274
    -2
284
     1
 64
     0
275
    -2
285
     1
 65
     0
276
    -2
286
     1
 66
     0
277
    -2
287
     1
 67
     0
278
    -2
288
     1
 68
     0
279
    -2
289
     1
 69
     0
  0
VISUALSTYLE
  5
9F
102
{ACAD_XDICTIONARY
360
1078
102
}
102
{ACAD_REACTORS
330
99
102
}
330
99
100
AcDbVisualStyle
  2

 70
     4
 71
     0
 72
     2
 73
     1
 90
        0
 40
-0.6
 41
-30.0
 62
     5
 63
     7
 74
     1
 91
        4
 64
     7
 65
   257
 75
     1
175
     1
 42
1.0
 92
        0
 66
   257
 43
1.0
 76
     1
 77
     6
 78
     2
 67
     7
 79
     5
170
     0
171
     0
290
     0
174
     0
 93
        1
 44
0.0
173
     0
291
     0
 45
0.0
1001
ACAD
1000
AcDbSavedByObjectVersion
1070
     0
  0
VISUALSTYLE
  5
A1
102
{ACAD_XDICTIONARY
360
107C
102
}
102
{ACAD_REACTORS
330
99
102
}
330
99
100
AcDbVisualStyle
  2

 70
     6
 71
     1
 72
     2
 73
     2
 90
        0
 40
-0.6
 41
-30.0
 62
     5
 63
     7
 74
     2
 91
        2
 64
     7
 65
   257
 75
     2
175
     1
 42
40.0
 92
        0
 66
   257
 43
1.0
 76
     1
 77
     6
 78
     2
 67
     7
 79
     3
170
     0
171
     0
290
     0
174
     0
 93
        1
 44
0.0
173
     0
291
     0
 45
0.0
1001
ACAD
1000
AcDbSavedByObjectVersion
1070
     0
  0
VISUALSTYLE
  5
A0
102
{ACAD_XDICTIONARY
360
107A
102
}
102
{ACAD_REACTORS
330
99
102
}
330
99
100
AcDbVisualStyle
  2

 70
     5
 71
     0
 72
     2
 73
     1
 90
        0
 40
-0.6
 41
-30.0
 62
     5
 63
     7
 74
     1
 91
        4
 64
     7
 65
   257
 75
     1
175
     1
 42
1.0
 92
        0
 66
   257
 43
1.0
 76
     1
 77
     6
 78
     2
 67
     7
 79
     5
170
     0
171
     0
290
     0
174
     0
 93
        1
 44
0.0
173
     0
291
     0
 45
0.0
1001
ACAD
1000
AcDbSavedByObjectVersion
1070
     0
  0
VISUALSTYLE
  5
9E
102
{ACAD_XDICTIONARY
360
1076
102
}
102
{ACAD_REACTORS
330
99
102
}
330
99
100
AcDbVisualStyle
  2

 70
     7
 71
     1
 72
     0
 73
     1
 90
        0
 40
-0.6
 41
-30.0
 62
     5
 63
     7
 74
     0
 91
        4
 64
     7
 65
   257
 75
     1
175
     1
 42
1.0
 92
        8
 66
     7
 43
1.0
 76
     1
 77
     6
 78
     2
 67
     7
 79
     5
170
     0
171
     0
290
     0
174
     0
 93
        1
 44
0.0
173
     0
291
     1
 45
0.0
1001
ACAD
1000
AcDbSavedByObjectVersion
1070
     0
  0
VISUALSTYLE
  5
A5
102
{ACAD_XDICTIONARY
360
1084
102
}
102
{ACAD_REACTORS
330
99
102
}
330
99
100
AcDbVisualStyle
  2

 70
    12
 71
     2
 72
     2
 73
     1
 90
        0
 40
-0.6
 41
-30.0
 62
     5
 63
     7
 74
     1
 91
        4
 64
     7
 65
   257
 75
     1
175
     1
 42
1.0
 92
        8
 66
     7
 43
1.0
 76
     1
 77
     6
 78
     2
 67
     7
 79
     5
170
     0
171
     0
290
     0
174
     0
 93
        1
 44
50.0
173
     0
291
     1
 45
0.0
1001
ACAD
1000
AcDbSavedByObjectVersion
1070
     0
  0
VISUALSTYLE
  5
A9
102
{ACAD_XDICTIONARY
360
108C
102
}
102
{ACAD_REACTORS
330
99
102
}
330
99
100
AcDbVisualStyle
  2

 70
    16
 71
     2
 72
     2
 73
     3
 90
        0
 40
-0.6
 41
-30.0
 62
     5
 63
     8
 74
     1
 91
        4
 64
     7
 65
   257
 75
     1
175
     1
 42
1.0
 92
        8
 66
     8
 43
1.0
 76
     1
 77
     6
 78
     2
 67
     7
 79
     5
170
     0
171
     0
290
     0
174
     0
 93
        1
 44
0.0
173
     0
291
     1
 45
0.0
1001
ACAD
1000
AcDbSavedByObjectVersion
1070
     0
  0
VISUALSTYLE
  5
A2
102
{ACAD_XDICTIONARY
360
107E
102
}
102
{ACAD_REACTORS
330
99
102
}
330
99
100
AcDbVisualStyle
  2

 70
     9
 71
     3
 72
     2
 73
     1
 90
        0
 40
-0.6
 41
-30.0
 62
     5
 63
     7
 74
     2
 91
        2
 64
     7
 65
   257
 75
     1
175
     1
 42
40.0
 92
        8
 66
     7
 43
1.0
 76
     1
 77
     6
 78
     2
 67
     7
 79
     3
170
     0
171
     0
290
     0
174
     0
 93
        1
 44
0.0
173
     0
291
     0
 45
0.0
1001
ACAD
1000
AcDbSavedByObjectVersion
1070
     0
  0
VISUALSTYLE
  5
A4
102
{ACAD_XDICTIONARY
360
1082
102
}
102
{ACAD_REACTORS
330
99
102
}
330
99
100
AcDbVisualStyle
  2

 70
    11
 71
     2
 72
     2
 73
     1
 90
        0
 40
-0.6
 41
-30.0
 62
     5
 63
     7
 74
     1
 91
        4
 64
     7
 65
   257
 75
     1
175
     1
 42
1.0
 92
        8
 66
     7
 43
1.0
 76
     1
 77
     6
 78
     2
 67
     7
 79
     5
170
     0
171
     0
290
     0
174
     0
 93
        1
 44
-50.0
173
     0
291
     1
 45
0.0
1001
ACAD
1000
AcDbSavedByObjectVersion
1070
     0
  0
VISUALSTYLE
  5
155
102
{ACAD_XDICTIONARY
360
10A0
102
}
102
{ACAD_REACTORS
330
99
102
}
330
99
100
AcDbVisualStyle
  2

 70
    22
 71
     2
 72
     2
 73
     0
 90
        0
 40
-0.6
 41
-30.0
 62
     5
 63
     7
 74
     1
 91
        4
 64
     7
 65
   257
 75
     1
175
     1
 42
1.0
 92
        8
 66
     7
 43
1.0
 76
     1
 77
     6
 78
     2
 67
     7
 79
     5
170
     0
171
     0
290
     0
174
     0
 93
        1
 44
0.0
173
     0
291
     1
 45
0.0
1001
ACAD
1000
AcDbSavedByObjectVersion
1070
     0
  0
VISUALSTYLE
  5
A8
102
{ACAD_XDICTIONARY
360
108A
102
}
102
{ACAD_REACTORS
330
99
102
}
330
99
100
AcDbVisualStyle
  2

 70
    15
 71
     2
 72
     2
 73
     1
 90
        0
 40
-0.6
 41
-30.0
 62
     5
 63
     7
 74
     1
 91
        4
 64
     7
 65
   257
 75
     1
175
     1
 42
1.0
 92
        8
 66
     7
 43
1.0
 76
     1
 77
     6
 78
     2
 67
     7
 79
     5
170
     0
171
     0
290
     0
174
     0
 93
        1
 44
0.0
173
     0
291
     1
 45
0.0
1001
ACAD
1000
AcDbSavedByObjectVersion
1070
     0
  0
VISUALSTYLE
  5
9A
102
{ACAD_XDICTIONARY
360
106E
102
}
102
{ACAD_REACTORS
330
99
102
}
330
99
100
AcDbVisualStyle
  2

 70
     0
 71
     2
 72
     1
 73
     1
 90
        2
 40
-0.6
 41
30.0
 62
     5
 63
     7
 74
     0
 91
        4
 64
     7
 65
   257
 75
     1
175
     1
 42
1.0
 92
        8
 66
     7
 43
1.0
 76
     1
 77
     6
 78
     2
 67
     7
 79
     5
170
     0
171
     0
290
     0
174
     0
 93
        1
 44
0.0
173
     0
291
     1
 45
0.0
1001
ACAD
1000
AcDbSavedByObjectVersion
1070
     0
  0
VISUALSTYLE
  5
9B
102
{ACAD_XDICTIONARY
360
1070
102
}
102
{ACAD_REACTORS
330
99
102
}
330
99
100
AcDbVisualStyle
  2

 70
     1
 71
     2
 72
     1
 73
     1
 90
        2
 40
-0.6
 41
30.0
 62
     5
 63
     7
 74
     1
 91
        4
 64
     7
 65
   257
 75
     1
175
     1
 42
1.0
 92
        0
 66
   257
 43
1.0
 76
     1
 77
     6
 78
     2
 67
     7
 79
     5
170
     0
171
     0
290
     0
174
     0
 93
        1
 44
0.0
173
     0
291
     1
 45
0.0
1001
ACAD
1000
AcDbSavedByObjectVersion
1070
     0
  0
VISUALSTYLE
  5
9C
102
{ACAD_XDICTIONARY
360
1072
102
}
102
{ACAD_REACTORS
330
99
102
}
330
99
100
AcDbVisualStyle
  2

 70
     2
 71
     2
 72
     2
 73
     1
 90
        2
 40
-0.6
 41
30.0
 62
     5
 63
     7
 74
     0
 91
        4
 64
     7
 65
   257
 75
     1
175
     1
 42
1.0
 92
        0
 66
     7
 43
1.0
 76
     1
 77
     6
 78
     2
 67
     7
 79
     5
170
     0
171
     0
290
     0
174
     0
 93
        1
 44
0.0
173
     0
291
     1
 45
0.0
1001
ACAD
1000
AcDbSavedByObjectVersion
1070
     0
  0
VISUALSTYLE
  5
9D
102
{ACAD_XDICTIONARY
360
1074
102
}
102
{ACAD_REACTORS
330
99
102
}
330
99
100
AcDbVisualStyle
  2

 70
     3
 71
     2
 72
     2
 73
     1
 90
        2
 40
-0.6
 41
30.0
 62
     5
 63
     7
 74
     1
 91
        4
 64
     7
 65
   257
 75
     1
175
     1
 42
1.0
 92
        0
 66
   257
 43
1.0
 76
     1
 77
     6
 78
     2
 67
     7
 79
     5
170
     0
171
     0
290
     0
174
     0
 93
        1
 44
0.0
173
     0
291
     1
 45
0.0
1001
ACAD
1000
AcDbSavedByObjectVersion
1070
     0
  0
VISUALSTYLE
  5
14D
102
{ACAD_XDICTIONARY
360
1090
102
}
102
{ACAD_REACTORS
330
99
102
}
330
99
100
AcDbVisualStyle
  2

 70
     6
 71
     1
 72
     2
 73
     2
 90
        0
 40
-0.6
 41
-30.0
 62
     5
 63
     7
 74
     2
 91
        2
 64
     7
 65
   257
 75
     2
175
     1
 42
40.0
 92
        0
 66
   257
 43
1.0
 76
     1
 77
     6
 78
     2
 67
     7
 79
     3
170
     0
171
     0
290
     0
174
     0
 93
        1
 44
0.0
173
     0
291
     0
 45
0.0
1001
ACAD
1000
AcDbSavedByObjectVersion
1070
     0
  0
VISUALSTYLE
  5
153
102
{ACAD_XDICTIONARY
360
109C
102
}
102
{ACAD_REACTORS
330
99
102
}
330
99
100
AcDbVisualStyle
  2

 70
    20
 71
     2
 72
     2
 73
     0
 90
        0
 40
-0.6
 41
-30.0
 62
     5
 63
     7
 74
     1
 91
        4
 64
     7
 65
   257
 75
     1
175
     1
 42
1.0
 92
       10
 66
     7
 43
1.0
 76
     1
 77
     6
 78
     2
 67
     7
 79
     5
170
     0
171
     0
290
     0
174
     0
 93
        1
 44
0.0
173
     0
291
     1
 45
0.0
1001
ACAD
1000
AcDbSavedByObjectVersion
1070
     0
  0
VISUALSTYLE
  5
A7
102
{ACAD_XDICTIONARY
360
1088
102
}
102
{ACAD_REACTORS
330
99
102
}
330
99
100
AcDbVisualStyle
  2

 70
    14
 71
     2
 72
     2
 73
     1
 90
        0
 40
-0.6
 41
-30.0
 62
     5
 63
     7
 74
     1
 91
        4
 64
     7
 65
   257
 75
     7
175
     7
 42
1.0
 92
        8
 66
     7
 43
1.0
 76
     1
 77
     6
 78
     2
 67
     7
 79
     5
170
     0
171
     0
290
     0
174
     0
 93
        1
 44
0.0
173
     0
291
     1
 45
0.0
1001
ACAD
1000
AcDbSavedByObjectVersion
1070
     0
  0
VISUALSTYLE
  5
154
102
{ACAD_XDICTIONARY
360
109E
102
}
102
{ACAD_REACTORS
330
99
102
}
330
99
100
AcDbVisualStyle
  2

 70
    21
 71
     2
 72
     2
 73
     0
 90
        0
 40
-0.6
 41
-30.0
 62
     5
 63
     7
 74
     1
 91
        4
 64
     7
 65
   257
 75
     1
175
     1
 42
1.0
 92
        9
 66
     7
 43
1.0
 76
     1
 77
     6
 78
     2
 67
     7
 79
     5
170
     0
171
     0
290
     0
174
     0
 93
        1
 44
0.0
173
     0
291
     1
 45
0.0
1001
ACAD
1000
AcDbSavedByObjectVersion
1070
     0
  0
VISUALSTYLE
  5
A3
102
{ACAD_XDICTIONARY
360
1080
102
}
102
{ACAD_REACTORS
330
99
102
}
330
99
100
AcDbVisualStyle
  2

 70
     8
 71
     2
 72
     2
 73
     1
 90
        0
 40
-0.6
 41
-30.0
 62
     5
 63
     7
 74
     1
 91
        0
 64
     7
 65
   257
 75
     1
175
     1
 42
1.0
 92
        8
 66
     8
 43
1.0
 76
     1
 77
     6
 78
     2
 67
     7
 79
     5
170
     0
171
     0
290
     0
174
     0
 93
       13
 44
0.0
173
     0
291
     0
 45
0.0
1001
ACAD
1000
AcDbSavedByObjectVersion
1070
     0
  0
VISUALSTYLE
  5
152
102
{ACAD_XDICTIONARY
360
109A
102
}
102
{ACAD_REACTORS
330
99
102
}
330
99
100
AcDbVisualStyle
  2

 70
    27
 71
     2
 72
     2
 73
     1
 90
        2
 40
-0.6
 41
30.0
 62
     5
 63
     7
 74
     0
 91
        4
 64
     7
 65
   257
 75
     1
175
     1
 42
1.0
 92
        8
 66
   257
 43
1.0
 76
     1
 77
     6
 78
     2
 67
     8
 79
     3
170
     0
171
     0
290
     0
174
     0
 93
        5
 44
0.0
173
     0
291
     0
 45
0.0
1001
ACAD
1000
AcDbSavedByObjectVersion
1070
     0
  0
VISUALSTYLE
  5
151
102
{ACAD_XDICTIONARY
360
1098
102
}
102
{ACAD_REACTORS
330
99
102
}
330
99
100
AcDbVisualStyle
  2

 70
    26
 71
     2
 72
     2
 73
     1
 90
        2
 40
-0.6
 41
30.0
 62
     5
 63
     7
 74
     1
 91
       10
 64
     7
 65
   257
 75
     2
175
     1
 42
1.0
 92
        8
 66
   257
 43
1.0
 76
     1
 77
     6
 78
     2
 67
     7
 79
     3
170
     0
171
     0
290
     0
174
     0
 93
        5
 44
0.0
173
     0
291
     0
 45
0.0
1001
ACAD
1000
AcDbSavedByObjectVersion
1070
     0
  0
VISUALSTYLE
  5
14E
102
{ACAD_XDICTIONARY
360
1092
102
}
102
{ACAD_REACTORS
330
99
102
}
330
99
100
AcDbVisualStyle
  2

 70
    23
 71
     2
 72
     2
 73
     3
 90
        0
 40
-0.6
 41
-30.0
 62
     5
 63
     7
 74
     2
 91
        2
 64
     7
 65
     7
 75
     1
175
     1
 42
40.0
 92
        8
 66
     7
 43
1.0
 76
     1
 77
     6
 78
     2
 67
     7
 79
     3
170
     0
171
     0
290
     0
174
     0
 93
        1
 44
0.0
173
     0
291
     0
 45
0.0
1001
ACAD
1000
AcDbSavedByObjectVersion
1070
     0
  0
VISUALSTYLE
  5
14F
102
{ACAD_XDICTIONARY
360
1094
102
}
102
{ACAD_REACTORS
330
99
102
}
330
99
100
AcDbVisualStyle
  2

 70
    24
 71
     1
 72
     2
 73
     2
 90
        0
 40
-0.6
 41
-30.0
 62
     5
 63
     7
 74
     2
 91
        2
 64
     7
 65
     7
 75
     1
175
     1
 42
40.0
 92
       11
 66
     7
 43
1.0
 76
     1
 77
     6
 78
     2
 67
     7
 79
     6
170
     0
171
     0
290
     0
174
     0
 93
        1
 44
0.0
173
     0
291
     0
 45
0.0
1001
ACAD
1000
AcDbSavedByObjectVersion
1070
     0
  0
VISUALSTYLE
  5
A6
102
{ACAD_XDICTIONARY
360
1086
102
}
102
{ACAD_REACTORS
330
99
102
}
330
99
100
AcDbVisualStyle
  2

 70
    13
 71
     2
 72
     2
 73
     1
 90
        0
 40
-0.6
 41
-30.0
 62
     5
 63
     7
 74
     1
 91
        4
 64
     7
 65
   257
 75
     1
175
     1
 42
1.0
 92
       12
 66
     7
 43
1.0
 76
     1
 77
     6
 78
     2
 67
     7
 79
     5
170
     0
171
     0
290
     0
174
     0
 93
        1
 44
0.0
173
     0
291
     1
 45
0.0
1001
ACAD
1000
AcDbSavedByObjectVersion
1070
     0
  0
VISUALSTYLE
  5
14C
102
{ACAD_XDICTIONARY
360
108E
102
}
102
{ACAD_REACTORS
330
99
102
}
330
99
100
AcDbVisualStyle
  2

 70
     5
 71
     0
 72
     2
 73
     0
 90
        0
 40
-0.6
 41
-30.0
 62
     5
 63
     7
 74
     1
 91
        4
 64
     7
 65
   257
 75
     1
175
     1
 42
1.0
 92
        0
 66
   257
 43
1.0
 76
     1
 77
     6
 78
     2
 67
     7
 79
     3
170
     0
171
     0
290
     0
174
     0
 93
        1
 44
0.0
173
     0
291
     0
 45
0.0
1001
ACAD
1000
AcDbSavedByObjectVersion
1070
     0
  0
VISUALSTYLE
  5
150
102
{ACAD_XDICTIONARY
360
1096
102
}
102
{ACAD_REACTORS
330
99
102
}
330
99
100
AcDbVisualStyle
  2

 70
    25
 71
     2
 72
     2
 73
     1
 90
        1
 40
0.5
 41
-30.0
 62
     5
 63
     7
 74
     1
 91
        0
 64
     7
 65
   257
 75
     1
175
     1
 42
1.0
 92
        8
 66
     7
 43
1.0
 76
     1
 77
     6
 78
     2
 67
     7
 79
     3
170
     0
171
     0
290
     0
174
     0
 93
       13
 44
0.0
173
     0
291
     0
 45
0.0
1001
ACAD
1000
AcDbSavedByObjectVersion
1070
     0
  0
DICTIONARYVAR
  5
245
102
{ACAD_REACTORS
330
66
102
}
330
66
100
DictionaryVariables
280
     0
  1
1:1
  0
DICTIONARYVAR
  5
243
102
{ACAD_REACTORS
330
66
102
}
330
66
100
DictionaryVariables
280
     0
  1
STANDARD
  0
DICTIONARYVAR
  5
89
102
{ACAD_REACTORS
330
66
102
}
330
66
100
DictionaryVariables
280
     0
  1
STANDARD
  0
DICTIONARYVAR
  5
67
102
{ACAD_REACTORS
330
66
102
}
330
66
100
DictionaryVariables
280
     0
  1
2
  0
DICTIONARYVAR
  5
6B
102
{ACAD_REACTORS
330
66
102
}
330
66
100
DictionaryVariables
280
     0
  1
1
  0
DICTIONARYVAR
  5
A5A
102
{ACAD_REACTORS
330
66
102
}
330
66
100
DictionaryVariables
280
     0
  1
0
  0
DICTIONARYVAR
  5
247
102
{ACAD_REACTORS
330
66
102
}
330
66
100
DictionaryVariables
280
     0
  1
1
  0
DICTIONARYVAR
  5
248
102
{ACAD_REACTORS
330
66
102
}
330
66
100
DictionaryVariables
280
     0
  1
15
  0
DICTIONARYVAR
  5
246
102
{ACAD_REACTORS
330
66
102
}
330
66
100
DictionaryVariables
280
     0
  1
0
  0
DICTIONARYVAR
  5
244
102
{ACAD_REACTORS
330
66
102
}
330
66
100
DictionaryVariables
280
     0
  1
0
  0
DICTIONARYVAR
  5
A59
102
{ACAD_REACTORS
330
66
102
}
330
66
100
DictionaryVariables
280
     0
  1
127
  0
DICTIONARYVAR
  5
F9A
102
{ACAD_REACTORS
330
66
102
}
330
66
100
DictionaryVariables
280
     0
  1
2
  0
DICTIONARY
  5
1067
330
22
100
AcDbDictionary
280
     1
281
     1
  3
ACAD_XREC_ROUNDTRIP
360
1068
  0
DICTIONARY
  5
1069
330
59
100
AcDbDictionary
280
     1
281
     1
  3
ACAD_XREC_ROUNDTRIP
360
106A
  0
DICTIONARY
  5
106B
330
5E
100
AcDbDictionary
280
     1
281
     1
  3
ACAD_XREC_ROUNDTRIP
360
106C
  0
DICTIONARY
  5
A6D
330
97
100
AcDbDictionary
280
     1
281
     1
  3
ACAD_XREC_ROUNDTRIP
360
A6E
  0
DICTIONARY
  5
A6B
330
96
100
AcDbDictionary
280
     1
281
     1
  3
ACAD_XREC_ROUNDTRIP
360
A6C
  0
DICTIONARY
  5
A6F
330
98
100
AcDbDictionary
280
     1
281
     1
  3
ACAD_XREC_ROUNDTRIP
360
A70
  0
DICTIONARY
  5
A5C
330
87
100
AcDbDictionary
280
     1
281
     1
  3
ACAD_ROUNDTRIP_2008_TABLESTYLE_CELLSTYLEMAP
360
1060
  3
ACAD_XREC_ROUNDTRIP
360
106D
  0
DICTIONARY
  5
1078
330
9F
100
AcDbDictionary
280
     1
281
     1
  3
ACAD_XREC_ROUNDTRIP
360
1079
  0
DICTIONARY
  5
107C
330
A1
100
AcDbDictionary
280
     1
281
     1
  3
ACAD_XREC_ROUNDTRIP
360
107D
  0
DICTIONARY
  5
107A
330
A0
100
AcDbDictionary
280
     1
281
     1
  3
ACAD_XREC_ROUNDTRIP
360
107B
  0
DICTIONARY
  5
1076
330
9E
100
AcDbDictionary
280
     1
281
     1
  3
ACAD_XREC_ROUNDTRIP
360
1077
  0
DICTIONARY
  5
1084
330
A5
100
AcDbDictionary
280
     1
281
     1
  3
ACAD_XREC_ROUNDTRIP
360
1085
  0
DICTIONARY
  5
108C
330
A9
100
AcDbDictionary
280
     1
281
     1
  3
ACAD_XREC_ROUNDTRIP
360
108D
  0
DICTIONARY
  5
107E
330
A2
100
AcDbDictionary
280
     1
281
     1
  3
ACAD_XREC_ROUNDTRIP
360
107F
  0
DICTIONARY
  5
1082
330
A4
100
AcDbDictionary
280
     1
281
     1
  3
ACAD_XREC_ROUNDTRIP
360
1083
  0
DICTIONARY
  5
10A0
330
155
100
AcDbDictionary
280
     1
281
     1
  3
ACAD_XREC_ROUNDTRIP
360
10A1
  0
DICTIONARY
  5
108A
330
A8
100
AcDbDictionary
280
     1
281
     1
  3
ACAD_XREC_ROUNDTRIP
360
108B
  0
DICTIONARY
  5
106E
330
9A
100
AcDbDictionary
280
     1
281
     1
  3
ACAD_XREC_ROUNDTRIP
360
106F
  0
DICTIONARY
  5
1070
330
9B
100
AcDbDictionary
280
     1
281
     1
  3
ACAD_XREC_ROUNDTRIP
360
1071
  0
DICTIONARY
  5
1072
330
9C
100
AcDbDictionary
280
     1
281
     1
  3
ACAD_XREC_ROUNDTRIP
360
1073
  0
DICTIONARY
  5
1074
330
9D
100
AcDbDictionary
280
     1
281
     1
  3
ACAD_XREC_ROUNDTRIP
360
1075
  0
DICTIONARY
  5
1090
330
14D
100
AcDbDictionary
280
     1
281
     1
  3
ACAD_XREC_ROUNDTRIP
360
1091
  0
DICTIONARY
  5
109C
330
153
100
AcDbDictionary
280
     1
281
     1
  3
ACAD_XREC_ROUNDTRIP
360
109D
  0
DICTIONARY
  5
1088
330
A7
100
AcDbDictionary
280
     1
281
     1
  3
ACAD_XREC_ROUNDTRIP
360
1089
  0
DICTIONARY
  5
109E
330
154
100
AcDbDictionary
280
     1
281
     1
  3
ACAD_XREC_ROUNDTRIP
360
109F
  0
DICTIONARY
  5
1080
330
A3
100
AcDbDictionary
280
     1
281
     1
  3
ACAD_XREC_ROUNDTRIP
360
1081
  0
DICTIONARY
  5
109A
330
152
100
AcDbDictionary
280
     1
281
     1
  3
ACAD_XREC_ROUNDTRIP
360
109B
  0
DICTIONARY
  5
1098
330
151
100
AcDbDictionary
280
     1
281
     1
  3
ACAD_XREC_ROUNDTRIP
360
1099
  0
DICTIONARY
  5
1092
330
14E
100
AcDbDictionary
280
     1
281
     1
  3
ACAD_XREC_ROUNDTRIP
360
1093
  0
DICTIONARY
  5
1094
330
14F
100
AcDbDictionary
280
     1
281
     1
  3
ACAD_XREC_ROUNDTRIP
360
1095
  0
DICTIONARY
  5
1086
330
A6
100
AcDbDictionary
280
     1
281
     1
  3
ACAD_XREC_ROUNDTRIP
360
1087
  0
DICTIONARY
  5
108E
330
14C
100
AcDbDictionary
280
     1
281
     1
  3
ACAD_XREC_ROUNDTRIP
360
108F
  0
DICTIONARY
  5
1096
330
150
100
AcDbDictionary
280
     1
281
     1
  3
ACAD_XREC_ROUNDTRIP
360
1097
  0
XRECORD
  5
1068
102
{ACAD_REACTORS
330
1067
102
}
330
1067
100
AcDbXrecord
280
     1
102
SHADEPLOT
 70
     0
102
SHADEPLOTRESLEVEL
 70
     2
102
SHADEPLOTCUSTOMDPI
 70
   300
  0
XRECORD
  5
106A
102
{ACAD_REACTORS
330
1069
102
}
330
1069
100
AcDbXrecord
280
     1
102
SHADEPLOT
 70
     0
102
SHADEPLOTRESLEVEL
 70
     2
102
SHADEPLOTCUSTOMDPI
 70
   300
  0
XRECORD
  5
106C
102
{ACAD_REACTORS
330
106B
102
}
330
106B
100
AcDbXrecord
280
     1
102
SHADEPLOT
 70
     0
102
SHADEPLOTRESLEVEL
 70
     2
102
SHADEPLOTCUSTOMDPI
 70
   300
  0
XRECORD
  5
A6E
102
{ACAD_REACTORS
330
A6D
102
}
330
A6D
100
AcDbXrecord
280
     1
102
MATERIAL
148
0.0
149
0.0
149
0.0
 93
        0
 94
      127
282
     0
 72
     1
 77
     1
171
     1
175
     1
179
     1
273
     0
  0
XRECORD
  5
A6C
102
{ACAD_REACTORS
330
A6B
102
}
330
A6B
100
AcDbXrecord
280
     1
102
MATERIAL
148
0.0
149
0.0
149
0.0
 93
        0
 94
      127
282
     0
 72
     1
 77
     1
171
     1
175
     1
179
     1
273
     0
  0
XRECORD
  5
A70
102
{ACAD_REACTORS
330
A6F
102
}
330
A6F
100
AcDbXrecord
280
     1
102
MATERIAL
148
0.0
149
0.0
149
0.0
 93
        0
 94
      127
282
     0
 72
     1
 77
     1
171
     1
175
     1
179
     1
273
     0
  0
CELLSTYLEMAP
  5
1060
102
{ACAD_REACTORS
330
A5C
102
}
330
A5C
100
AcDbCellStyleMap
 90
        3
300
CELLSTYLE
  1
TABLEFORMAT_BEGIN
 90
        5
170
     1
 91
        0
 92
    32768
 62
   257
 93
        1
300
CONTENTFORMAT
  1
CONTENTFORMAT_BEGIN
 90
        0
 91
        0
 92
      512
 93
        0
300

 40
0.0
140
1.0
 94
        5
 62
     0
340
11
144
0.25
309
CONTENTFORMAT_END
171
     1
301
MARGIN
  1
CELLMARGIN_BEGIN
 40
0.06
 40
0.06
 40
0.06
 40
0.06
 40
0.18
 40
0.18
309
CELLMARGIN_END
 94
        6
 95
        1
302
GRIDFORMAT
  1
GRIDFORMAT_BEGIN
 90
        0
 91
        1
 62
     0
 92
       -2
340
0
 93
        0
 40
0.045
309
GRIDFORMAT_END
 95
        2
302
GRIDFORMAT
  1
GRIDFORMAT_BEGIN
 90
        0
 91
        1
 62
     0
 92
       -2
340
0
 93
        0
 40
0.045
309
GRIDFORMAT_END
 95
        4
302
GRIDFORMAT
  1
GRIDFORMAT_BEGIN
 90
        0
 91
        1
 62
     0
 92
       -2
340
0
 93
        0
 40
0.045
309
GRIDFORMAT_END
 95
        8
302
GRIDFORMAT
  1
GRIDFORMAT_BEGIN
 90
        0
 91
        1
 62
     0
 92
       -2
340
0
 93
        0
 40
0.045
309
GRIDFORMAT_END
 95
       16
302
GRIDFORMAT
  1
GRIDFORMAT_BEGIN
 90
        0
 91
        1
 62
     0
 92
       -2
340
0
 93
        0
 40
0.045
309
GRIDFORMAT_END
 95
       32
302
GRIDFORMAT
  1
GRIDFORMAT_BEGIN
 90
        0
 91
        1
 62
     0
 92
       -2
340
0
 93
        0
 40
0.045
309
GRIDFORMAT_END
309
TABLEFORMAT_END
  1
CELLSTYLE_BEGIN
 90
        1
 91
        1
300
_TITLE
309
CELLSTYLE_END
300
CELLSTYLE
  1
TABLEFORMAT_BEGIN
 90
        5
170
     1
 91
        0
 92
        0
 62
   257
 93
        1
300
CONTENTFORMAT
  1
CONTENTFORMAT_BEGIN
 90
        0
 91
        0
 92
      512
 93
        0
300

 40
0.0
140
1.0
 94
        5
 62
     0
340
11
144
0.18
309
CONTENTFORMAT_END
171
     1
301
MARGIN
  1
CELLMARGIN_BEGIN
 40
0.06
 40
0.06
 40
0.06
 40
0.06
 40
0.18
 40
0.18
309
CELLMARGIN_END
 94
        6
 95
        1
302
GRIDFORMAT
  1
GRIDFORMAT_BEGIN
 90
        0
 91
        1
 62
     0
 92
       -2
340
0
 93
        0
 40
0.045
309
GRIDFORMAT_END
 95
        2
302
GRIDFORMAT
  1
GRIDFORMAT_BEGIN
 90
        0
 91
        1
 62
     0
 92
       -2
340
0
 93
        0
 40
0.045
309
GRIDFORMAT_END
 95
        4
302
GRIDFORMAT
  1
GRIDFORMAT_BEGIN
 90
        0
 91
        1
 62
     0
 92
       -2
340
0
 93
        0
 40
0.045
309
GRIDFORMAT_END
 95
        8
302
GRIDFORMAT
  1
GRIDFORMAT_BEGIN
 90
        0
 91
        1
 62
     0
 92
       -2
340
0
 93
        0
 40
0.045
309
GRIDFORMAT_END
 95
       16
302
GRIDFORMAT
  1
GRIDFORMAT_BEGIN
 90
        0
 91
        1
 62
     0
 92
       -2
340
0
 93
        0
 40
0.045
309
GRIDFORMAT_END
 95
       32
302
GRIDFORMAT
  1
GRIDFORMAT_BEGIN
 90
        0
 91
        1
 62
     0
 92
       -2
340
0
 93
        0
 40
0.045
309
GRIDFORMAT_END
309
TABLEFORMAT_END
  1
CELLSTYLE_BEGIN
 90
        2
 91
        1
300
_HEADER
309
CELLSTYLE_END
300
CELLSTYLE
  1
TABLEFORMAT_BEGIN
 90
        5
170
     1
 91
        0
 92
        0
 62
   257
 93
        1
300
CONTENTFORMAT
  1
CONTENTFORMAT_BEGIN
 90
        0
 91
        0
 92
      512
 93
        0
300

 40
0.0
140
1.0
 94
        2
 62
     0
340
11
144
0.18
309
CONTENTFORMAT_END
171
     1
301
MARGIN
  1
CELLMARGIN_BEGIN
 40
0.06
 40
0.06
 40
0.06
 40
0.06
 40
0.18
 40
0.18
309
CELLMARGIN_END
 94
        6
 95
        1
302
GRIDFORMAT
  1
GRIDFORMAT_BEGIN
 90
        0
 91
        1
 62
     0
 92
       -2
340
0
 93
        0
 40
0.045
309
GRIDFORMAT_END
 95
        2
302
GRIDFORMAT
  1
GRIDFORMAT_BEGIN
 90
        0
 91
        1
 62
     0
 92
       -2
340
0
 93
        0
 40
0.045
309
GRIDFORMAT_END
 95
        4
302
GRIDFORMAT
  1
GRIDFORMAT_BEGIN
 90
        0
 91
        1
 62
     0
 92
       -2
340
0
 93
        0
 40
0.045
309
GRIDFORMAT_END
 95
        8
302
GRIDFORMAT
  1
GRIDFORMAT_BEGIN
 90
        0
 91
        1
 62
     0
 92
       -2
340
0
 93
        0
 40
0.045
309
GRIDFORMAT_END
 95
       16
302
GRIDFORMAT
  1
GRIDFORMAT_BEGIN
 90
        0
 91
        1
 62
     0
 92
       -2
340
0
 93
        0
 40
0.045
309
GRIDFORMAT_END
 95
       32
302
GRIDFORMAT
  1
GRIDFORMAT_BEGIN
 90
        0
 91
        1
 62
     0
 92
       -2
340
0
 93
        0
 40
0.045
309
GRIDFORMAT_END
309
TABLEFORMAT_END
  1
CELLSTYLE_BEGIN
 90
        3
 91
        2
300
_DATA
309
CELLSTYLE_END
  0
XRECORD
  5
106D
102
{ACAD_REACTORS
330
A5C
102
}
330
A5C
100
AcDbXrecord
280
     1
102
ACAD_ROUNDTRIP_PRE2007_TABLESTYLE
 90
      512
 91
        0
  1

 92
      512
 93
        0
  2

 94
      512
 95
        0
  3

  0
XRECORD
  5
1079
102
{ACAD_REACTORS
330
1078
102
}
330
1078
100
AcDbXrecord
280
     1
102
RTVSPropertyOp0
 70
     1
102
RTVSPropertyOp1
 70
     1
102
RTVSPropertyOp2
 70
     1
102
RTVSPropertyOp3
 70
     1
102
RTVSPropertyOp4
 70
     1
102
RTVSPropertyOp5
 70
     1
102
RTVSPropertyOp6
 70
     1
102
RTVSPropertyOp7
 70
     1
102
RTVSPropertyOp8
 70
     1
102
RTVSPropertyOp9
 70
     1
102
RTVSPropertyOp10
 70
     1
102
RTVSPropertyOp11
 70
     1
102
RTVSPropertyOp12
 70
     1
102
RTVSPropertyOp13
 70
     1
102
RTVSPropertyOp14
 70
     1
102
RTVSPropertyOp15
 70
     1
102
RTVSPropertyOp16
 70
     1
102
RTVSPropertyOp17
 70
     1
102
RTVSPropertyOp18
 70
     1
102
RTVSPropertyOp19
 70
     1
102
RTVSPropertyOp20
 70
     1
102
RTVSPropertyOp21
 70
     1
102
RTVSPropertyOp22
 70
     1
102
RTVSPropertyOp23
 70
     1
102
RTVSPropertyOp24
 70
     1
102
RTVSPropertyOp25
 70
     1
102
RTVSPropertyOp26
 70
     1
102
RTVSPropertyOp27
 70
     1
102
RTVSPropertyOp28
 70
     1
102
RTVSPropertyOp29
 70
     1
102
RTVSPropertyOp30
 70
     1
102
RTVSPropertyOp31
 70
     1
102
RTVSPropertyOp32
 70
     1
  0
XRECORD
  5
107D
102
{ACAD_REACTORS
330
107C
102
}
330
107C
100
AcDbXrecord
280
     1
102
RTVSPropertyOp0
 70
     1
102
RTVSPropertyOp1
 70
     1
102
RTVSPropertyOp2
 70
     1
102
RTVSPropertyOp3
 70
     1
102
RTVSPropertyOp4
 70
     1
102
RTVSPropertyOp5
 70
     1
102
RTVSPropertyOp6
 70
     1
102
RTVSPropertyOp7
 70
     1
102
RTVSPropertyOp8
 70
     1
102
RTVSPropertyOp9
 70
     1
102
RTVSPropertyOp10
 70
     1
102
RTVSPropertyOp11
 70
     1
102
RTVSPropertyOp12
 70
     1
102
RTVSPropertyOp13
 70
     1
102
RTVSPropertyOp14
 70
     1
102
RTVSPropertyOp15
 70
     1
102
RTVSPropertyOp16
 70
     1
102
RTVSPropertyOp17
 70
     1
102
RTVSPropertyOp18
 70
     1
102
RTVSPropertyOp19
 70
     1
102
RTVSPropertyOp20
 70
     1
102
RTVSPropertyOp21
 70
     1
102
RTVSPropertyOp22
 70
     1
102
RTVSPropertyOp23
 70
     1
102
RTVSPropertyOp24
 70
     1
102
RTVSPropertyOp25
 70
     1
102
RTVSPropertyOp26
 70
     1
102
RTVSPropertyOp27
 70
     1
102
RTVSPropertyOp28
 70
     1
102
RTVSPropertyOp29
 70
     1
102
RTVSPropertyOp30
 70
     1
102
RTVSPropertyOp31
 70
     1
102
RTVSPropertyOp32
 70
     1
  0
XRECORD
  5
107B
102
{ACAD_REACTORS
330
107A
102
}
330
107A
100
AcDbXrecord
280
     1
102
RTVSPropertyOp0
 70
     1
102
RTVSPropertyOp1
 70
     1
102
RTVSPropertyOp2
 70
     1
102
RTVSPropertyOp3
 70
     1
102
RTVSPropertyOp4
 70
     1
102
RTVSPropertyOp5
 70
     1
102
RTVSPropertyOp6
 70
     1
102
RTVSPropertyOp7
 70
     1
102
RTVSPropertyOp8
 70
     1
102
RTVSPropertyOp9
 70
     1
102
RTVSPropertyOp10
 70
     1
102
RTVSPropertyOp11
 70
     1
102
RTVSPropertyOp12
 70
     1
102
RTVSPropertyOp13
 70
     1
102
RTVSPropertyOp14
 70
     1
102
RTVSPropertyOp15
 70
     1
102
RTVSPropertyOp16
 70
     1
102
RTVSPropertyOp17
 70
     1
102
RTVSPropertyOp18
 70
     1
102
RTVSPropertyOp19
 70
     1
102
RTVSPropertyOp20
 70
     1
102
RTVSPropertyOp21
 70
     1
102
RTVSPropertyOp22
 70
     1
102
RTVSPropertyOp23
 70
     1
102
RTVSPropertyOp24
 70
     1
102
RTVSPropertyOp25
 70
     1
102
RTVSPropertyOp26
 70
     1
102
RTVSPropertyOp27
 70
     1
102
RTVSPropertyOp28
 70
     1
102
RTVSPropertyOp29
 70
     1
102
RTVSPropertyOp30
 70
     1
102
RTVSPropertyOp31
 70
     1
102
RTVSPropertyOp32
 70
     1
  0
XRECORD
  5
1077
102
{ACAD_REACTORS
330
1076
102
}
330
1076
100
AcDbXrecord
280
     1
102
RTVSPropertyOp0
 70
     1
102
RTVSPropertyOp1
 70
     1
102
RTVSPropertyOp2
 70
     1
102
RTVSPropertyOp3
 70
     1
102
RTVSPropertyOp4
 70
     1
102
RTVSPropertyOp5
 70
     1
102
RTVSPropertyOp6
 70
     1
102
RTVSPropertyOp7
 70
     1
102
RTVSPropertyOp8
 70
     1
102
RTVSPropertyOp9
 70
     1
102
RTVSPropertyOp10
 70
     1
102
RTVSPropertyOp11
 70
     1
102
RTVSPropertyOp12
 70
     1
102
RTVSPropertyOp13
 70
     1
102
RTVSPropertyOp14
 70
     1
102
RTVSPropertyOp15
 70
     1
102
RTVSPropertyOp16
 70
     1
102
RTVSPropertyOp17
 70
     1
102
RTVSPropertyOp18
 70
     1
102
RTVSPropertyOp19
 70
     1
102
RTVSPropertyOp20
 70
     1
102
RTVSPropertyOp21
 70
     1
102
RTVSPropertyOp22
 70
     1
102
RTVSPropertyOp23
 70
     1
102
RTVSPropertyOp24
 70
     1
102
RTVSPropertyOp25
 70
     1
102
RTVSPropertyOp26
 70
     1
102
RTVSPropertyOp27
 70
     1
102
RTVSPropertyOp28
 70
     1
102
RTVSPropertyOp29
 70
     1
102
RTVSPropertyOp30
 70
     1
102
RTVSPropertyOp31
 70
     1
102
RTVSPropertyOp32
 70
     1
  0
XRECORD
  5
1085
102
{ACAD_REACTORS
330
1084
102
}
330
1084
100
AcDbXrecord
280
     1
102
RTVSPropertyOp0
 70
     1
102
RTVSPropertyOp1
 70
     1
102
RTVSPropertyOp2
 70
     1
102
RTVSPropertyOp3
 70
     1
102
RTVSPropertyOp4
 70
     1
102
RTVSPropertyOp5
 70
     1
102
RTVSPropertyOp6
 70
     1
102
RTVSPropertyOp7
 70
     1
102
RTVSPropertyOp8
 70
     1
102
RTVSPropertyOp9
 70
     1
102
RTVSPropertyOp10
 70
     1
102
RTVSPropertyOp11
 70
     1
102
RTVSPropertyOp12
 70
     1
102
RTVSPropertyOp13
 70
     1
102
RTVSPropertyOp14
 70
     1
102
RTVSPropertyOp15
 70
     1
102
RTVSPropertyOp16
 70
     1
102
RTVSPropertyOp17
 70
     1
102
RTVSPropertyOp18
 70
     1
102
RTVSPropertyOp19
 70
     1
102
RTVSPropertyOp20
 70
     1
102
RTVSPropertyOp21
 70
     1
102
RTVSPropertyOp22
 70
     1
102
RTVSPropertyOp23
 70
     1
102
RTVSPropertyOp24
 70
     1
102
RTVSPropertyOp25
 70
     1
102
RTVSPropertyOp26
 70
     1
102
RTVSPropertyOp27
 70
     1
102
RTVSPropertyOp28
 70
     1
102
RTVSPropertyOp29
 70
     1
102
RTVSPropertyOp30
 70
     1
102
RTVSPropertyOp31
 70
     1
102
RTVSPropertyOp32
 70
     1
  0
XRECORD
  5
108D
102
{ACAD_REACTORS
330
108C
102
}
330
108C
100
AcDbXrecord
280
     1
102
RTVSPropertyOp0
 70
     1
102
RTVSPropertyOp1
 70
     1
102
RTVSPropertyOp2
 70
     1
102
RTVSPropertyOp3
 70
     1
102
RTVSPropertyOp4
 70
     1
102
RTVSPropertyOp5
 70
     1
102
RTVSPropertyOp6
 70
     1
102
RTVSPropertyOp7
 70
     1
102
RTVSPropertyOp8
 70
     1
102
RTVSPropertyOp9
 70
     1
102
RTVSPropertyOp10
 70
     1
102
RTVSPropertyOp11
 70
     1
102
RTVSPropertyOp12
 70
     1
102
RTVSPropertyOp13
 70
     1
102
RTVSPropertyOp14
 70
     1
102
RTVSPropertyOp15
 70
     1
102
RTVSPropertyOp16
 70
     1
102
RTVSPropertyOp17
 70
     1
102
RTVSPropertyOp18
 70
     1
102
RTVSPropertyOp19
 70
     1
102
RTVSPropertyOp20
 70
     1
102
RTVSPropertyOp21
 70
     1
102
RTVSPropertyOp22
 70
     1
102
RTVSPropertyOp23
 70
     1
102
RTVSPropertyOp24
 70
     1
102
RTVSPropertyOp25
 70
     1
102
RTVSPropertyOp26
 70
     1
102
RTVSPropertyOp27
 70
     1
102
RTVSPropertyOp28
 70
     1
102
RTVSPropertyOp29
 70
     1
102
RTVSPropertyOp30
 70
     1
102
RTVSPropertyOp31
 70
     1
102
RTVSPropertyOp32
 70
     1
  0
XRECORD
  5
107F
102
{ACAD_REACTORS
330
107E
102
}
330
107E
100
AcDbXrecord
280
     1
102
RTVSPropertyOp0
 70
     1
102
RTVSPropertyOp1
 70
     1
102
RTVSPropertyOp2
 70
     1
102
RTVSPropertyOp3
 70
     1
102
RTVSPropertyOp4
 70
     1
102
RTVSPropertyOp5
 70
     1
102
RTVSPropertyOp6
 70
     1
102
RTVSPropertyOp7
 70
     1
102
RTVSPropertyOp8
 70
     1
102
RTVSPropertyOp9
 70
     1
102
RTVSPropertyOp10
 70
     1
102
RTVSPropertyOp11
 70
     1
102
RTVSPropertyOp12
 70
     1
102
RTVSPropertyOp13
 70
     1
102
RTVSPropertyOp14
 70
     1
102
RTVSPropertyOp15
 70
     1
102
RTVSPropertyOp16
 70
     1
102
RTVSPropertyOp17
 70
     1
102
RTVSPropertyOp18
 70
     1
102
RTVSPropertyOp19
 70
     1
102
RTVSPropertyOp20
 70
     1
102
RTVSPropertyOp21
 70
     1
102
RTVSPropertyOp22
 70
     1
102
RTVSPropertyOp23
 70
     1
102
RTVSPropertyOp24
 70
     1
102
RTVSPropertyOp25
 70
     1
102
RTVSPropertyOp26
 70
     1
102
RTVSPropertyOp27
 70
     1
102
RTVSPropertyOp28
 70
     1
102
RTVSPropertyOp29
 70
     1
102
RTVSPropertyOp30
 70
     1
102
RTVSPropertyOp31
 70
     1
102
RTVSPropertyOp32
 70
     1
  0
XRECORD
  5
1083
102
{ACAD_REACTORS
330
1082
102
}
330
1082
100
AcDbXrecord
280
     1
102
RTVSPropertyOp0
 70
     1
102
RTVSPropertyOp1
 70
     1
102
RTVSPropertyOp2
 70
     1
102
RTVSPropertyOp3
 70
     1
102
RTVSPropertyOp4
 70
     1
102
RTVSPropertyOp5
 70
     1
102
RTVSPropertyOp6
 70
     1
102
RTVSPropertyOp7
 70
     1
102
RTVSPropertyOp8
 70
     1
102
RTVSPropertyOp9
 70
     1
102
RTVSPropertyOp10
 70
     1
102
RTVSPropertyOp11
 70
     1
102
RTVSPropertyOp12
 70
     1
102
RTVSPropertyOp13
 70
     1
102
RTVSPropertyOp14
 70
     1
102
RTVSPropertyOp15
 70
     1
102
RTVSPropertyOp16
 70
     1
102
RTVSPropertyOp17
 70
     1
102
RTVSPropertyOp18
 70
     1
102
RTVSPropertyOp19
 70
     1
102
RTVSPropertyOp20
 70
     1
102
RTVSPropertyOp21
 70
     1
102
RTVSPropertyOp22
 70
     1
102
RTVSPropertyOp23
 70
     1
102
RTVSPropertyOp24
 70
     1
102
RTVSPropertyOp25
 70
     1
102
RTVSPropertyOp26
 70
     1
102
RTVSPropertyOp27
 70
     1
102
RTVSPropertyOp28
 70
     1
102
RTVSPropertyOp29
 70
     1
102
RTVSPropertyOp30
 70
     1
102
RTVSPropertyOp31
 70
     1
102
RTVSPropertyOp32
 70
     1
  0
XRECORD
  5
10A1
102
{ACAD_REACTORS
330
10A0
102
}
330
10A0
100
AcDbXrecord
280
     1
102
RTVSPropertyOp0
 70
     0
102
RTVSPropertyOp1
 70
     0
102
RTVSPropertyOp2
 70
     0
102
RTVSPropertyOp3
 70
     0
102
RTVSPropertyOp4
 70
     0
102
RTVSPropertyOp5
 70
     0
102
RTVSPropertyOp6
 70
     0
102
RTVSPropertyOp7
 70
     0
102
RTVSPropertyOp8
 70
     0
102
RTVSPropertyOp9
 70
     0
102
RTVSPropertyOp10
 70
     0
102
RTVSPropertyOp11
 70
     0
102
RTVSPropertyOp12
 70
     0
102
RTVSPropertyOp13
 70
     0
102
RTVSPropertyOp14
 70
     2
102
RTVSPropertyOp15
 70
     0
102
RTVSPropertyOp16
 70
     0
102
RTVSPropertyOp17
 70
     0
102
RTVSPropertyOp18
 70
     0
102
RTVSPropertyOp19
 70
     0
102
RTVSPropertyOp20
 70
     0
102
RTVSPropertyOp21
 70
     0
102
RTVSPropertyOp22
 70
     0
102
RTVSPropertyOp23
 70
     0
102
RTVSPropertyOp24
 70
     0
102
RTVSPropertyOp25
 70
     0
102
RTVSPropertyOp26
 70
     0
102
RTVSPropertyOp27
 70
     0
102
RTVSPropertyOp28
 70
     1
102
RTVSPropertyOp29
 70
     1
102
RTVSPropertyOp30
 70
     1
102
RTVSPropertyOp31
 70
     1
102
RTVSPropertyOp32
 70
     1
  0
XRECORD
  5
108B
102
{ACAD_REACTORS
330
108A
102
}
330
108A
100
AcDbXrecord
280
     1
102
RTVSPropertyOp0
 70
     1
102
RTVSPropertyOp1
 70
     1
102
RTVSPropertyOp2
 70
     1
102
RTVSPropertyOp3
 70
     1
102
RTVSPropertyOp4
 70
     1
102
RTVSPropertyOp5
 70
     1
102
RTVSPropertyOp6
 70
     1
102
RTVSPropertyOp7
 70
     1
102
RTVSPropertyOp8
 70
     1
102
RTVSPropertyOp9
 70
     1
102
RTVSPropertyOp10
 70
     1
102
RTVSPropertyOp11
 70
     1
102
RTVSPropertyOp12
 70
     1
102
RTVSPropertyOp13
 70
     1
102
RTVSPropertyOp14
 70
     1
102
RTVSPropertyOp15
 70
     1
102
RTVSPropertyOp16
 70
     1
102
RTVSPropertyOp17
 70
     1
102
RTVSPropertyOp18
 70
     1
102
RTVSPropertyOp19
 70
     1
102
RTVSPropertyOp20
 70
     1
102
RTVSPropertyOp21
 70
     1
102
RTVSPropertyOp22
 70
     1
102
RTVSPropertyOp23
 70
     1
102
RTVSPropertyOp24
 70
     1
102
RTVSPropertyOp25
 70
     1
102
RTVSPropertyOp26
 70
     1
102
RTVSPropertyOp27
 70
     1
102
RTVSPropertyOp28
 70
     1
102
RTVSPropertyOp29
 70
     1
102
RTVSPropertyOp30
 70
     1
102
RTVSPropertyOp31
 70
     1
102
RTVSPropertyOp32
 70
     1
  0
XRECORD
  5
106F
102
{ACAD_REACTORS
330
106E
102
}
330
106E
100
AcDbXrecord
280
     1
102
RTVSPropertyOp0
 70
     1
102
RTVSPropertyOp1
 70
     1
102
RTVSPropertyOp2
 70
     1
102
RTVSPropertyOp3
 70
     1
102
RTVSPropertyOp4
 70
     1
102
RTVSPropertyOp5
 70
     1
102
RTVSPropertyOp6
 70
     1
102
RTVSPropertyOp7
 70
     1
102
RTVSPropertyOp8
 70
     1
102
RTVSPropertyOp9
 70
     1
102
RTVSPropertyOp10
 70
     1
102
RTVSPropertyOp11
 70
     1
102
RTVSPropertyOp12
 70
     1
102
RTVSPropertyOp13
 70
     1
102
RTVSPropertyOp14
 70
     1
102
RTVSPropertyOp15
 70
     1
102
RTVSPropertyOp16
 70
     1
102
RTVSPropertyOp17
 70
     1
102
RTVSPropertyOp18
 70
     1
102
RTVSPropertyOp19
 70
     1
102
RTVSPropertyOp20
 70
     1
102
RTVSPropertyOp21
 70
     1
102
RTVSPropertyOp22
 70
     1
102
RTVSPropertyOp23
 70
     1
102
RTVSPropertyOp24
 70
     1
102
RTVSPropertyOp25
 70
     1
102
RTVSPropertyOp26
 70
     1
102
RTVSPropertyOp27
 70
     1
102
RTVSPropertyOp28
 70
     1
102
RTVSPropertyOp29
 70
     1
102
RTVSPropertyOp30
 70
     1
102
RTVSPropertyOp31
 70
     1
102
RTVSPropertyOp32
 70
     1
  0
XRECORD
  5
1071
102
{ACAD_REACTORS
330
1070
102
}
330
1070
100
AcDbXrecord
280
     1
102
RTVSPropertyOp0
 70
     1
102
RTVSPropertyOp1
 70
     1
102
RTVSPropertyOp2
 70
     1
102
RTVSPropertyOp3
 70
     1
102
RTVSPropertyOp4
 70
     1
102
RTVSPropertyOp5
 70
     1
102
RTVSPropertyOp6
 70
     1
102
RTVSPropertyOp7
 70
     1
102
RTVSPropertyOp8
 70
     1
102
RTVSPropertyOp9
 70
     1
102
RTVSPropertyOp10
 70
     1
102
RTVSPropertyOp11
 70
     1
102
RTVSPropertyOp12
 70
     1
102
RTVSPropertyOp13
 70
     1
102
RTVSPropertyOp14
 70
     1
102
RTVSPropertyOp15
 70
     1
102
RTVSPropertyOp16
 70
     1
102
RTVSPropertyOp17
 70
     1
102
RTVSPropertyOp18
 70
     1
102
RTVSPropertyOp19
 70
     1
102
RTVSPropertyOp20
 70
     1
102
RTVSPropertyOp21
 70
     1
102
RTVSPropertyOp22
 70
     1
102
RTVSPropertyOp23
 70
     1
102
RTVSPropertyOp24
 70
     1
102
RTVSPropertyOp25
 70
     1
102
RTVSPropertyOp26
 70
     1
102
RTVSPropertyOp27
 70
     1
102
RTVSPropertyOp28
 70
     1
102
RTVSPropertyOp29
 70
     1
102
RTVSPropertyOp30
 70
     1
102
RTVSPropertyOp31
 70
     1
102
RTVSPropertyOp32
 70
     1
  0
XRECORD
  5
1073
102
{ACAD_REACTORS
330
1072
102
}
330
1072
100
AcDbXrecord
280
     1
102
RTVSPropertyOp0
 70
     1
102
RTVSPropertyOp1
 70
     1
102
RTVSPropertyOp2
 70
     1
102
RTVSPropertyOp3
 70
     1
102
RTVSPropertyOp4
 70
     1
102
RTVSPropertyOp5
 70
     1
102
RTVSPropertyOp6
 70
     1
102
RTVSPropertyOp7
 70
     1
102
RTVSPropertyOp8
 70
     1
102
RTVSPropertyOp9
 70
     1
102
RTVSPropertyOp10
 70
     1
102
RTVSPropertyOp11
 70
     1
102
RTVSPropertyOp12
 70
     1
102
RTVSPropertyOp13
 70
     1
102
RTVSPropertyOp14
 70
     1
102
RTVSPropertyOp15
 70
     1
102
RTVSPropertyOp16
 70
     1
102
RTVSPropertyOp17
 70
     1
102
RTVSPropertyOp18
 70
     1
102
RTVSPropertyOp19
 70
     1
102
RTVSPropertyOp20
 70
     1
102
RTVSPropertyOp21
 70
     1
102
RTVSPropertyOp22
 70
     1
102
RTVSPropertyOp23
 70
     1
102
RTVSPropertyOp24
 70
     1
102
RTVSPropertyOp25
 70
     1
102
RTVSPropertyOp26
 70
     1
102
RTVSPropertyOp27
 70
     1
102
RTVSPropertyOp28
 70
     1
102
RTVSPropertyOp29
 70
     1
102
RTVSPropertyOp30
 70
     1
102
RTVSPropertyOp31
 70
     1
102
RTVSPropertyOp32
 70
     1
  0
XRECORD
  5
1075
102
{ACAD_REACTORS
330
1074
102
}
330
1074
100
AcDbXrecord
280
     1
102
RTVSPropertyOp0
 70
     1
102
RTVSPropertyOp1
 70
     1
102
RTVSPropertyOp2
 70
     1
102
RTVSPropertyOp3
 70
     1
102
RTVSPropertyOp4
 70
     1
102
RTVSPropertyOp5
 70
     1
102
RTVSPropertyOp6
 70
     1
102
RTVSPropertyOp7
 70
     1
102
RTVSPropertyOp8
 70
     1
102
RTVSPropertyOp9
 70
     1
102
RTVSPropertyOp10
 70
     1
102
RTVSPropertyOp11
 70
     1
102
RTVSPropertyOp12
 70
     1
102
RTVSPropertyOp13
 70
     1
102
RTVSPropertyOp14
 70
     1
102
RTVSPropertyOp15
 70
     1
102
RTVSPropertyOp16
 70
     1
102
RTVSPropertyOp17
 70
     1
102
RTVSPropertyOp18
 70
     1
102
RTVSPropertyOp19
 70
     1
102
RTVSPropertyOp20
 70
     1
102
RTVSPropertyOp21
 70
     1
102
RTVSPropertyOp22
 70
     1
102
RTVSPropertyOp23
 70
     1
102
RTVSPropertyOp24
 70
     1
102
RTVSPropertyOp25
 70
     1
102
RTVSPropertyOp26
 70
     1
102
RTVSPropertyOp27
 70
     1
102
RTVSPropertyOp28
 70
     1
102
RTVSPropertyOp29
 70
     1
102
RTVSPropertyOp30
 70
     1
102
RTVSPropertyOp31
 70
     1
102
RTVSPropertyOp32
 70
     1
  0
XRECORD
  5
1091
102
{ACAD_REACTORS
330
1090
102
}
330
1090
100
AcDbXrecord
280
     1
102
RTVSPropertyOp0
 70
     1
102
RTVSPropertyOp1
 70
     1
102
RTVSPropertyOp2
 70
     1
102
RTVSPropertyOp3
 70
     1
102
RTVSPropertyOp4
 70
     1
102
RTVSPropertyOp5
 70
     1
102
RTVSPropertyOp6
 70
     1
102
RTVSPropertyOp7
 70
     1
102
RTVSPropertyOp8
 70
     1
102
RTVSPropertyOp9
 70
     1
102
RTVSPropertyOp10
 70
     1
102
RTVSPropertyOp11
 70
     1
102
RTVSPropertyOp12
 70
     1
102
RTVSPropertyOp13
 70
     1
102
RTVSPropertyOp14
 70
     1
102
RTVSPropertyOp15
 70
     1
102
RTVSPropertyOp16
 70
     1
102
RTVSPropertyOp17
 70
     1
102
RTVSPropertyOp18
 70
     1
102
RTVSPropertyOp19
 70
     1
102
RTVSPropertyOp20
 70
     1
102
RTVSPropertyOp21
 70
     1
102
RTVSPropertyOp22
 70
     1
102
RTVSPropertyOp23
 70
     1
102
RTVSPropertyOp24
 70
     1
102
RTVSPropertyOp25
 70
     1
102
RTVSPropertyOp26
 70
     1
102
RTVSPropertyOp27
 70
     1
102
RTVSPropertyOp28
 70
     1
102
RTVSPropertyOp29
 70
     1
102
RTVSPropertyOp30
 70
     1
102
RTVSPropertyOp31
 70
     1
102
RTVSPropertyOp32
 70
     1
  0
XRECORD
  5
109D
102
{ACAD_REACTORS
330
109C
102
}
330
109C
100
AcDbXrecord
280
     1
102
RTVSPropertyOp0
 70
     0
102
RTVSPropertyOp1
 70
     0
102
RTVSPropertyOp2
 70
     0
102
RTVSPropertyOp3
 70
     0
102
RTVSPropertyOp4
 70
     0
102
RTVSPropertyOp5
 70
     0
102
RTVSPropertyOp6
 70
     0
102
RTVSPropertyOp7
 70
     0
102
RTVSPropertyOp8
 70
     0
102
RTVSPropertyOp9
 70
     0
102
RTVSPropertyOp10
 70
     0
102
RTVSPropertyOp11
 70
     0
102
RTVSPropertyOp12
 70
     0
102
RTVSPropertyOp13
 70
     0
102
RTVSPropertyOp14
 70
     2
102
RTVSPropertyOp15
 70
     0
102
RTVSPropertyOp16
 70
     0
102
RTVSPropertyOp17
 70
     0
102
RTVSPropertyOp18
 70
     0
102
RTVSPropertyOp19
 70
     0
102
RTVSPropertyOp20
 70
     0
102
RTVSPropertyOp21
 70
     0
102
RTVSPropertyOp22
 70
     0
102
RTVSPropertyOp23
 70
     0
102
RTVSPropertyOp24
 70
     0
102
RTVSPropertyOp25
 70
     0
102
RTVSPropertyOp26
 70
     0
102
RTVSPropertyOp27
 70
     0
102
RTVSPropertyOp28
 70
     1
102
RTVSPropertyOp29
 70
     1
102
RTVSPropertyOp30
 70
     1
102
RTVSPropertyOp31
 70
     1
102
RTVSPropertyOp32
 70
     1
  0
XRECORD
  5
1089
102
{ACAD_REACTORS
330
1088
102
}
330
1088
100
AcDbXrecord
280
     1
102
RTVSPropertyOp0
 70
     1
102
RTVSPropertyOp1
 70
     1
102
RTVSPropertyOp2
 70
     1
102
RTVSPropertyOp3
 70
     1
102
RTVSPropertyOp4
 70
     1
102
RTVSPropertyOp5
 70
     1
102
RTVSPropertyOp6
 70
     1
102
RTVSPropertyOp7
 70
     1
102
RTVSPropertyOp8
 70
     1
102
RTVSPropertyOp9
 70
     1
102
RTVSPropertyOp10
 70
     1
102
RTVSPropertyOp11
 70
     1
102
RTVSPropertyOp12
 70
     1
102
RTVSPropertyOp13
 70
     1
102
RTVSPropertyOp14
 70
     1
102
RTVSPropertyOp15
 70
     1
102
RTVSPropertyOp16
 70
     1
102
RTVSPropertyOp17
 70
     1
102
RTVSPropertyOp18
 70
     1
102
RTVSPropertyOp19
 70
     1
102
RTVSPropertyOp20
 70
     1
102
RTVSPropertyOp21
 70
     1
102
RTVSPropertyOp22
 70
     1
102
RTVSPropertyOp23
 70
     1
102
RTVSPropertyOp24
 70
     1
102
RTVSPropertyOp25
 70
     1
102
RTVSPropertyOp26
 70
     1
102
RTVSPropertyOp27
 70
     1
102
RTVSPropertyOp28
 70
     1
102
RTVSPropertyOp29
 70
     1
102
RTVSPropertyOp30
 70
     1
102
RTVSPropertyOp31
 70
     1
102
RTVSPropertyOp32
 70
     1
  0
XRECORD
  5
109F
102
{ACAD_REACTORS
330
109E
102
}
330
109E
100
AcDbXrecord
280
     1
102
RTVSPropertyOp0
 70
     0
102
RTVSPropertyOp1
 70
     0
102
RTVSPropertyOp2
 70
     0
102
RTVSPropertyOp3
 70
     0
102
RTVSPropertyOp4
 70
     0
102
RTVSPropertyOp5
 70
     0
102
RTVSPropertyOp6
 70
     0
102
RTVSPropertyOp7
 70
     0
102
RTVSPropertyOp8
 70
     0
102
RTVSPropertyOp9
 70
     0
102
RTVSPropertyOp10
 70
     0
102
RTVSPropertyOp11
 70
     0
102
RTVSPropertyOp12
 70
     0
102
RTVSPropertyOp13
 70
     0
102
RTVSPropertyOp14
 70
     2
102
RTVSPropertyOp15
 70
     0
102
RTVSPropertyOp16
 70
     0
102
RTVSPropertyOp17
 70
     0
102
RTVSPropertyOp18
 70
     0
102
RTVSPropertyOp19
 70
     0
102
RTVSPropertyOp20
 70
     0
102
RTVSPropertyOp21
 70
     0
102
RTVSPropertyOp22
 70
     0
102
RTVSPropertyOp23
 70
     0
102
RTVSPropertyOp24
 70
     0
102
RTVSPropertyOp25
 70
     0
102
RTVSPropertyOp26
 70
     0
102
RTVSPropertyOp27
 70
     0
102
RTVSPropertyOp28
 70
     1
102
RTVSPropertyOp29
 70
     1
102
RTVSPropertyOp30
 70
     1
102
RTVSPropertyOp31
 70
     1
102
RTVSPropertyOp32
 70
     1
  0
XRECORD
  5
1081
102
{ACAD_REACTORS
330
1080
102
}
330
1080
100
AcDbXrecord
280
     1
102
RTVSPropertyOp0
 70
     1
102
RTVSPropertyOp1
 70
     1
102
RTVSPropertyOp2
 70
     1
102
RTVSPropertyOp3
 70
     1
102
RTVSPropertyOp4
 70
     1
102
RTVSPropertyOp5
 70
     1
102
RTVSPropertyOp6
 70
     1
102
RTVSPropertyOp7
 70
     1
102
RTVSPropertyOp8
 70
     1
102
RTVSPropertyOp9
 70
     1
102
RTVSPropertyOp10
 70
     1
102
RTVSPropertyOp11
 70
     1
102
RTVSPropertyOp12
 70
     1
102
RTVSPropertyOp13
 70
     1
102
RTVSPropertyOp14
 70
     1
102
RTVSPropertyOp15
 70
     1
102
RTVSPropertyOp16
 70
     1
102
RTVSPropertyOp17
 70
     1
102
RTVSPropertyOp18
 70
     1
102
RTVSPropertyOp19
 70
     1
102
RTVSPropertyOp20
 70
     1
102
RTVSPropertyOp21
 70
     1
102
RTVSPropertyOp22
 70
     1
102
RTVSPropertyOp23
 70
     1
102
RTVSPropertyOp24
 70
     1
102
RTVSPropertyOp25
 70
     1
102
RTVSPropertyOp26
 70
     1
102
RTVSPropertyOp27
 70
     1
102
RTVSPropertyOp28
 70
     1
102
RTVSPropertyOp29
 70
     1
102
RTVSPropertyOp30
 70
     1
102
RTVSPropertyOp31
 70
     1
102
RTVSPropertyOp32
 70
     1
  0
XRECORD
  5
109B
102
{ACAD_REACTORS
330
109A
102
}
330
109A
100
AcDbXrecord
280
     1
102
RTVSPropertyOp0
 70
     1
102
RTVSPropertyOp1
 70
     1
102
RTVSPropertyOp2
 70
     1
102
RTVSPropertyOp3
 70
     1
102
RTVSPropertyOp4
 70
     1
102
RTVSPropertyOp5
 70
     1
102
RTVSPropertyOp6
 70
     1
102
RTVSPropertyOp7
 70
     1
102
RTVSPropertyOp8
 70
     1
102
RTVSPropertyOp9
 70
     1
102
RTVSPropertyOp10
 70
     1
102
RTVSPropertyOp11
 70
     1
102
RTVSPropertyOp12
 70
     1
102
RTVSPropertyOp13
 70
     1
102
RTVSPropertyOp14
 70
     1
102
RTVSPropertyOp15
 70
     1
102
RTVSPropertyOp16
 70
     1
102
RTVSPropertyOp17
 70
     1
102
RTVSPropertyOp18
 70
     1
102
RTVSPropertyOp19
 70
     1
102
RTVSPropertyOp20
 70
     1
102
RTVSPropertyOp21
 70
     1
102
RTVSPropertyOp22
 70
     1
102
RTVSPropertyOp23
 70
     1
102
RTVSPropertyOp24
 70
     1
102
RTVSPropertyOp25
 70
     1
102
RTVSPropertyOp26
 70
     1
102
RTVSPropertyOp27
 70
     1
102
RTVSPropertyOp28
 70
     1
102
RTVSPropertyOp29
 70
     1
102
RTVSPropertyOp30
 70
     1
102
RTVSPropertyOp31
 70
     1
102
RTVSPropertyOp32
 70
     1
  0
XRECORD
  5
1099
102
{ACAD_REACTORS
330
1098
102
}
330
1098
100
AcDbXrecord
280
     1
102
RTVSPropertyOp0
 70
     1
102
RTVSPropertyOp1
 70
     1
102
RTVSPropertyOp2
 70
     1
102
RTVSPropertyOp3
 70
     1
102
RTVSPropertyOp4
 70
     1
102
RTVSPropertyOp5
 70
     1
102
RTVSPropertyOp6
 70
     1
102
RTVSPropertyOp7
 70
     1
102
RTVSPropertyOp8
 70
     1
102
RTVSPropertyOp9
 70
     1
102
RTVSPropertyOp10
 70
     1
102
RTVSPropertyOp11
 70
     1
102
RTVSPropertyOp12
 70
     1
102
RTVSPropertyOp13
 70
     1
102
RTVSPropertyOp14
 70
     1
102
RTVSPropertyOp15
 70
     1
102
RTVSPropertyOp16
 70
     1
102
RTVSPropertyOp17
 70
     1
102
RTVSPropertyOp18
 70
     1
102
RTVSPropertyOp19
 70
     1
102
RTVSPropertyOp20
 70
     1
102
RTVSPropertyOp21
 70
     1
102
RTVSPropertyOp22
 70
     1
102
RTVSPropertyOp23
 70
     1
102
RTVSPropertyOp24
 70
     1
102
RTVSPropertyOp25
 70
     1
102
RTVSPropertyOp26
 70
     1
102
RTVSPropertyOp27
 70
     1
102
RTVSPropertyOp28
 70
     1
102
RTVSPropertyOp29
 70
     1
102
RTVSPropertyOp30
 70
     1
102
RTVSPropertyOp31
 70
     1
102
RTVSPropertyOp32
 70
     1
  0
XRECORD
  5
1093
102
{ACAD_REACTORS
330
1092
102
}
330
1092
100
AcDbXrecord
280
     1
102
RTVSPropertyOp0
 70
     1
102
RTVSPropertyOp1
 70
     1
102
RTVSPropertyOp2
 70
     1
102
RTVSPropertyOp3
 70
     1
102
RTVSPropertyOp4
 70
     1
102
RTVSPropertyOp5
 70
     1
102
RTVSPropertyOp6
 70
     1
102
RTVSPropertyOp7
 70
     1
102
RTVSPropertyOp8
 70
     1
102
RTVSPropertyOp9
 70
     1
102
RTVSPropertyOp10
 70
     1
102
RTVSPropertyOp11
 70
     1
102
RTVSPropertyOp12
 70
     1
102
RTVSPropertyOp13
 70
     1
102
RTVSPropertyOp14
 70
     1
102
RTVSPropertyOp15
 70
     1
102
RTVSPropertyOp16
 70
     1
102
RTVSPropertyOp17
 70
     1
102
RTVSPropertyOp18
 70
     1
102
RTVSPropertyOp19
 70
     1
102
RTVSPropertyOp20
 70
     1
102
RTVSPropertyOp21
 70
     1
102
RTVSPropertyOp22
 70
     1
102
RTVSPropertyOp23
 70
     1
102
RTVSPropertyOp24
 70
     1
102
RTVSPropertyOp25
 70
     1
102
RTVSPropertyOp26
 70
     1
102
RTVSPropertyOp27
 70
     1
102
RTVSPropertyOp28
 70
     1
102
RTVSPropertyOp29
 70
     1
102
RTVSPropertyOp30
 70
     1
102
RTVSPropertyOp31
 70
     1
102
RTVSPropertyOp32
 70
     1
  0
XRECORD
  5
1095
102
{ACAD_REACTORS
330
1094
102
}
330
1094
100
AcDbXrecord
280
     1
102
RTVSPropertyOp0
 70
     1
102
RTVSPropertyOp1
 70
     1
102
RTVSPropertyOp2
 70
     1
102
RTVSPropertyOp3
 70
     1
102
RTVSPropertyOp4
 70
     1
102
RTVSPropertyOp5
 70
     1
102
RTVSPropertyOp6
 70
     1
102
RTVSPropertyOp7
 70
     1
102
RTVSPropertyOp8
 70
     1
102
RTVSPropertyOp9
 70
     1
102
RTVSPropertyOp10
 70
     1
102
RTVSPropertyOp11
 70
     1
102
RTVSPropertyOp12
 70
     1
102
RTVSPropertyOp13
 70
     1
102
RTVSPropertyOp14
 70
     1
102
RTVSPropertyOp15
 70
     1
102
RTVSPropertyOp16
 70
     1
102
RTVSPropertyOp17
 70
     1
102
RTVSPropertyOp18
 70
     1
102
RTVSPropertyOp19
 70
     1
102
RTVSPropertyOp20
 70
     1
102
RTVSPropertyOp21
 70
     1
102
RTVSPropertyOp22
 70
     1
102
RTVSPropertyOp23
 70
     1
102
RTVSPropertyOp24
 70
     1
102
RTVSPropertyOp25
 70
     1
102
RTVSPropertyOp26
 70
     1
102
RTVSPropertyOp27
 70
     1
102
RTVSPropertyOp28
 70
     1
102
RTVSPropertyOp29
 70
     1
102
RTVSPropertyOp30
 70
     1
102
RTVSPropertyOp31
 70
     1
102
RTVSPropertyOp32
 70
     1
  0
XRECORD
  5
1087
102
{ACAD_REACTORS
330
1086
102
}
330
1086
100
AcDbXrecord
280
     1
102
RTVSPropertyOp0
 70
     1
102
RTVSPropertyOp1
 70
     1
102
RTVSPropertyOp2
 70
     1
102
RTVSPropertyOp3
 70
     1
102
RTVSPropertyOp4
 70
     1
102
RTVSPropertyOp5
 70
     1
102
RTVSPropertyOp6
 70
     1
102
RTVSPropertyOp7
 70
     1
102
RTVSPropertyOp8
 70
     1
102
RTVSPropertyOp9
 70
     1
102
RTVSPropertyOp10
 70
     1
102
RTVSPropertyOp11
 70
     1
102
RTVSPropertyOp12
 70
     1
102
RTVSPropertyOp13
 70
     1
102
RTVSPropertyOp14
 70
     1
102
RTVSPropertyOp15
 70
     1
102
RTVSPropertyOp16
 70
     1
102
RTVSPropertyOp17
 70
     1
102
RTVSPropertyOp18
 70
     1
102
RTVSPropertyOp19
 70
     1
102
RTVSPropertyOp20
 70
     1
102
RTVSPropertyOp21
 70
     1
102
RTVSPropertyOp22
 70
     1
102
RTVSPropertyOp23
 70
     1
102
RTVSPropertyOp24
 70
     1
102
RTVSPropertyOp25
 70
     1
102
RTVSPropertyOp26
 70
     1
102
RTVSPropertyOp27
 70
     1
102
RTVSPropertyOp28
 70
     1
102
RTVSPropertyOp29
 70
     1
102
RTVSPropertyOp30
 70
     1
102
RTVSPropertyOp31
 70
     1
102
RTVSPropertyOp32
 70
     1
  0
XRECORD
  5
108F
102
{ACAD_REACTORS
330
108E
102
}
330
108E
100
AcDbXrecord
280
     1
102
RTVSPropertyOp0
 70
     1
102
RTVSPropertyOp1
 70
     1
102
RTVSPropertyOp2
 70
     1
102
RTVSPropertyOp3
 70
     1
102
RTVSPropertyOp4
 70
     1
102
RTVSPropertyOp5
 70
     1
102
RTVSPropertyOp6
 70
     1
102
RTVSPropertyOp7
 70
     1
102
RTVSPropertyOp8
 70
     1
102
RTVSPropertyOp9
 70
     1
102
RTVSPropertyOp10
 70
     1
102
RTVSPropertyOp11
 70
     1
102
RTVSPropertyOp12
 70
     1
102
RTVSPropertyOp13
 70
     1
102
RTVSPropertyOp14
 70
     1
102
RTVSPropertyOp15
 70
     1
102
RTVSPropertyOp16
 70
     1
102
RTVSPropertyOp17
 70
     1
102
RTVSPropertyOp18
 70
     1
102
RTVSPropertyOp19
 70
     1
102
RTVSPropertyOp20
 70
     1
102
RTVSPropertyOp21
 70
     1
102
RTVSPropertyOp22
 70
     1
102
RTVSPropertyOp23
 70
     1
102
RTVSPropertyOp24
 70
     1
102
RTVSPropertyOp25
 70
     1
102
RTVSPropertyOp26
 70
     1
102
RTVSPropertyOp27
 70
     1
102
RTVSPropertyOp28
 70
     1
102
RTVSPropertyOp29
 70
     1
102
RTVSPropertyOp30
 70
     1
102
RTVSPropertyOp31
 70
     1
102
RTVSPropertyOp32
 70
     1
  0
XRECORD
  5
1097
102
{ACAD_REACTORS
330
1096
102
}
330
1096
100
AcDbXrecord
280
     1
102
RTVSPropertyOp0
 70
     1
102
RTVSPropertyOp1
 70
     1
102
RTVSPropertyOp2
 70
     1
102
RTVSPropertyOp3
 70
     1
102
RTVSPropertyOp4
 70
     1
102
RTVSPropertyOp5
 70
     1
102
RTVSPropertyOp6
 70
     1
102
RTVSPropertyOp7
 70
     1
102
RTVSPropertyOp8
 70
     1
102
RTVSPropertyOp9
 70
     1
102
RTVSPropertyOp10
 70
     1
102
RTVSPropertyOp11
 70
     1
102
RTVSPropertyOp12
 70
     1
102
RTVSPropertyOp13
 70
     1
102
RTVSPropertyOp14
 70
     1
102
RTVSPropertyOp15
 70
     1
102
RTVSPropertyOp16
 70
     1
102
RTVSPropertyOp17
 70
     1
102
RTVSPropertyOp18
 70
     1
102
RTVSPropertyOp19
 70
     1
102
RTVSPropertyOp20
 70
     1
102
RTVSPropertyOp21
 70
     1
102
RTVSPropertyOp22
 70
     1
102
RTVSPropertyOp23
 70
     1
102
RTVSPropertyOp24
 70
     1
102
RTVSPropertyOp25
 70
     1
102
RTVSPropertyOp26
 70
     1
102
RTVSPropertyOp27
 70
     1
102
RTVSPropertyOp28
 70
     1
102
RTVSPropertyOp29
 70
     1
102
RTVSPropertyOp30
 70
     1
102
RTVSPropertyOp31
 70
     1
102
RTVSPropertyOp32
 70
     1
  0
ENDSEC
  0
EOF
