  0
SECTION
  2
HEADER
  9
$ACADVER
  1
AC1015
  9
$ACADMAINTVER
 70
    20
  9
$DWGCODEPAGE
  3
ANSI_932
  9
$INSBASE
 10
0.0
 20
0.0
 30
0.0
  9
$EXTMIN
 10
-102.0
 20
-138.5
 30
0.0
  9
$EXTMAX
 10
90.0
 20
142.62212873
 30
0.0
  9
$LIMMIN
 10
-102.001
 20
-138.501
  9
$LIMMAX
 10
90.00100000000001
 20
142.623131
  9
$ORTHOMODE
 70
     1
  9
$REGENMODE
 70
     1
  9
$FILLMODE
 70
     1
  9
$QTEXTMODE
 70
     0
  9
$MIRRTEXT
 70
     0
  9
$LTSCALE
 40
4.685369
  9
$ATTMODE
 70
     1
  9
$TEXTSIZE
 40
3.2
  9
$TRACEWID
 40
0.05
  9
$TEXTSTYLE
  7
高3.2
  9
$CLAYER
  8
0
  9
$CELTYPE
  6
CONTINUOUS
  9
$CECOLOR
 62
   256
  9
$CELTSCALE
 40
1.0
  9
$DISPSILH
 70
     0
  9
$DIMSCALE
 40
1.0
  9
$DIMASZ
 40
2.5
  9
$DIMEXO
 40
0.25
  9
$DIMDLI
 40
0.2
  9
$DIMRND
 40
0.0
  9
$DIMDLE
 40
0.0
  9
$DIMEXE
 40
1.25
  9
$DIMTP
 40
0.0
  9
$DIMTM
 40
0.0
  9
$DIMTXT
 40
3.0
  9
$DIMCEN
 40
0.0
  9
$DIMTSZ
 40
0.0
  9
$DIMTOL
 70
     0
  9
$DIMLIM
 70
     0
  9
$DIMTIH
 70
     0
  9
$DIMTOH
 70
     0
  9
$DIMSE1
 70
     0
  9
$DIMSE2
 70
     0
  9
$DIMTAD
 70
     3
  9
$DIMZIN
 70
     8
  9
$DIMBLK
  1
Open30
  9
$DIMASO
 70
     1
  9
$DIMSHO
 70
     1
  9
$DIMPOST
  1

  9
$DIMAPOST
  1

  9
$DIMALT
 70
     0
  9
$DIMALTD
 70
     3
  9
$DIMALTF
 40
0.03937007874016
  9
$DIMLFAC
 40
2.0
  9
$DIMTOFL
 70
     1
  9
$DIMTVP
 40
0.0
  9
$DIMTIX
 70
     0
  9
$DIMSOXD
 70
     0
  9
$DIMSAH
 70
     0
  9
$DIMBLK1
  1

  9
$DIMBLK2
  1

  9
$DIMSTYLE
  2
1／2
  9
$DIMCLRD
 70
     0
  9
$DIMCLRE
 70
     0
  9
$DIMCLRT
 70
     4
  9
$DIMTFAC
 40
1.0
  9
$DIMGAP
 40
0.625
  9
$DIMJUST
 70
     0
  9
$DIMSD1
 70
     0
  9
$DIMSD2
 70
     0
  9
$DIMTOLJ
 70
     0
  9
$DIMTZIN
 70
     8
  9
$DIMALTZ
 70
     0
  9
$DIMALTTZ
 70
     0
  9
$DIMUPT
 70
     1
  9
$DIMDEC
 70
     2
  9
$DIMTDEC
 70
     2
  9
$DIMALTU
 70
     2
  9
$DIMALTTD
 70
     3
  9
$DIMTXSTY
  7
STANDARD
  9
$DIMAUNIT
 70
     0
  9
$DIMADEC
 70
     1
  9
$DIMALTRND
 40
0.0
  9
$DIMAZIN
 70
     2
  9
$DIMDSEP
 70
    46
  9
$DIMATFIT
 70
     0
  9
$DIMFRAC
 70
     0
  9
$DIMLDRBLK
  1
Open30
  9
$DIMLUNIT
 70
     2
  9
$DIMLWD
 70
    -2
  9
$DIMLWE
 70
    -2
  9
$DIMTMOVE
 70
     0
  9
$LUNITS
 70
     2
  9
$LUPREC
 70
     4
  9
$SKETCHINC
 40
0.1
  9
$FILLETRAD
 40
0.0
  9
$AUNITS
 70
     0
  9
$AUPREC
 70
     0
  9
$MENU
  1
.
  9
$ELEVATION
 40
0.0
  9
$PELEVATION
 40
0.0
  9
$THICKNESS
 40
0.0
  9
$LIMCHECK
 70
     0
  9
$CHAMFERA
 40
0.5
  9
$CHAMFERB
 40
0.5
  9
$CHAMFERC
 40
0.0
  9
$CHAMFERD
 40
0.0
  9
$SKPOLY
 70
     0
  9
$TDCREATE
 40
2455442.601448206
  9
$TDUCREATE
 40
2455442.226448206
  9
$TDUPDATE
 40
2457872.373603345
  9
$TDUUPDATE
 40
2457871.998603345
  9
$TDINDWG
 40
1.2912239815
  9
$TDUSRTIMER
 40
1.2912095023
  9
$USRTIMER
 70
     1
  9
$ANGBASE
 50
0.0
  9
$ANGDIR
 70
     0
  9
$PDMODE
 70
     0
  9
$PDSIZE
 40
0.0
  9
$PLINEWID
 40
0.0
  9
$SPLFRAME
 70
     0
  9
$SPLINETYPE
 70
     6
  9
$SPLINESEGS
 70
     8
  9
$HANDSEED
  5
3136
  9
$SURFTAB1
 70
     6
  9
$SURFTAB2
 70
     6
  9
$SURFTYPE
 70
     6
  9
$SURFU
 70
     6
  9
$SURFV
 70
     6
  9
$UCSBASE
  2

  9
$UCSNAME
  2

  9
$UCSORG
 10
0.0
 20
0.0
 30
0.0
  9
$UCSXDIR
 10
1.0
 20
0.0
 30
0.0
  9
$UCSYDIR
 10
0.0
 20
1.0
 30
0.0
  9
$UCSORTHOREF
  2

  9
$UCSORTHOVIEW
 70
     0
  9
$UCSORGTOP
 10
0.0
 20
0.0
 30
0.0
  9
$UCSORGBOTTOM
 10
0.0
 20
0.0
 30
0.0
  9
$UCSORGLEFT
 10
0.0
 20
0.0
 30
0.0
  9
$UCSORGRIGHT
 10
0.0
 20
0.0
 30
0.0
  9
$UCSORGFRONT
 10
0.0
 20
0.0
 30
0.0
  9
$UCSORGBACK
 10
0.0
 20
0.0
 30
0.0
  9
$PUCSBASE
  2

  9
$PUCSNAME
  2

  9
$PUCSORG
 10
0.0
 20
0.0
 30
0.0
  9
$PUCSXDIR
 10
1.0
 20
0.0
 30
0.0
  9
$PUCSYDIR
 10
0.0
 20
1.0
 30
0.0
  9
$PUCSORTHOREF
  2

  9
$PUCSORTHOVIEW
 70
     0
  9
$PUCSORGTOP
 10
0.0
 20
0.0
 30
0.0
  9
$PUCSORGBOTTOM
 10
0.0
 20
0.0
 30
0.0
  9
$PUCSORGLEFT
 10
0.0
 20
0.0
 30
0.0
  9
$PUCSORGRIGHT
 10
0.0
 20
0.0
 30
0.0
  9
$PUCSORGFRONT
 10
0.0
 20
0.0
 30
0.0
  9
$PUCSORGBACK
 10
0.0
 20
0.0
 30
0.0
  9
$USERI1
 70
     0
  9
$USERI2
 70
     0
  9
$USERI3
 70
     0
  9
$USERI4
 70
     0
  9
$USERI5
 70
     0
  9
$USERR1
 40
0.0
  9
$USERR2
 40
0.0
  9
$USERR3
 40
0.0
  9
$USERR4
 40
0.0
  9
$USERR5
 40
0.0
  9
$WORLDVIEW
 70
     1
  9
$SHADEDGE
 70
     3
  9
$SHADEDIF
 70
    70
  9
$TILEMODE
 70
     1
  9
$MAXACTVP
 70
    64
  9
$PINSBASE
 10
0.0
 20
0.0
 30
0.0
  9
$PLIMCHECK
 70
     0
  9
$PEXTMIN
 10
1.000000000000000E+20
 20
1.000000000000000E+20
 30
1.000000000000000E+20
  9
$PEXTMAX
 10
-1.000000000000000E+20
 20
-1.000000000000000E+20
 30
-1.000000000000000E+20
  9
$PLIMMIN
 10
0.0
 20
0.0
  9
$PLIMMAX
 10
12.0
 20
9.0
  9
$UNITMODE
 70
     0
  9
$VISRETAIN
 70
     1
  9
$PLINEGEN
 70
     0
  9
$PSLTSCALE
 70
     1
  9
$TREEDEPTH
 70
  3020
  9
$CMLSTYLE
  2
Standard
  9
$CMLJUST
 70
     0
  9
$CMLSCALE
 40
1.0
  9
$PROXYGRAPHICS
 70
     1
  9
$MEASUREMENT
 70
     0
  9
$CELWEIGHT
370
    -1
  9
$ENDCAPS
280
     0
  9
$JOINSTYLE
280
     0
  9
$LWDISPLAY
290
     0
  9
$INSUNITS
 70
     0
  9
$HYPERLINKBASE
  1

  9
$STYLESHEET
  1
N-PLOT.CTB
  9
$XEDIT
290
     1
  9
$CEPSNTYPE
380
     0
  9
$PSTYLEMODE
290
     1
  9
$FINGERPRINTGUID
  2
{A40AFDDE-27A6-4300-BB85-D69376388927}
  9
$VERSIONGUID
  2
{290DB57F-5A2B-4066-9222-0EE1C26B9EDC}
  9
$EXTNAMES
290
     1
  9
$PSVPSCALE
 40
0.0
  9
$OLESTARTUP
290
     0
  0
ENDSEC
  0
SECTION
  2
CLASSES
  0
CLASS
  1
ACDBDICTIONARYWDFLT
  2
AcDbDictionaryWithDefault
  3
ObjectDBX Classes
 90
        0
280
     0
281
     0
  0
CLASS
  1
MATERIAL
  2
AcDbMaterial
  3
ObjectDBX Classes
 90
     1153
280
     0
281
     0
  0
CLASS
  1
VISUALSTYLE
  2
AcDbVisualStyle
  3
ObjectDBX Classes
 90
     4095
280
     0
281
     0
  0
CLASS
  1
TABLESTYLE
  2
AcDbTableStyle
  3
ObjectDBX Classes
 90
     4095
280
     0
281
     0
  0
CLASS
  1
DICTIONARYVAR
  2
AcDbDictionaryVar
  3
ObjectDBX Classes
 90
        0
280
     0
281
     0
  0
CLASS
  1
ACDBPLACEHOLDER
  2
AcDbPlaceHolder
  3
ObjectDBX Classes
 90
        0
280
     0
281
     0
  0
CLASS
  1
LAYOUT
  2
AcDbLayout
  3
ObjectDBX Classes
 90
        0
280
     0
281
     0
  0
CLASS
  1
SORTENTSTABLE
  2
AcDbSortentsTable
  3
ObjectDBX Classes
 90
        0
280
     0
281
     0
  0
CLASS
  1
SCALE
  2
AcDbScale
  3
ObjectDBX Classes
 90
     1153
280
     0
281
     0
  0
CLASS
  1
MLEADERSTYLE
  2
AcDbMLeaderStyle
  3
ACDB_MLEADERSTYLE_CLASS
 90
     4095
280
     0
281
     0
  0
CLASS
  1
CELLSTYLEMAP
  2
AcDbCellStyleMap
  3
ObjectDBX Classes
 90
     1152
280
     0
281
     0
  0
CLASS
  1
AEC_REFEDIT_STATUS_TRACKER
  2
AecDbRefEditStatusTracker
  3
AecArchBase60|Product Desc: Autodesk Architectural Desktop 2007 |Company: Autodesk,Inc. |WEB Address: www.autodesk.com
 90
    32897
280
     0
281
     0
  0
CLASS
  1
NPOCOLLECTION
  2
AcDbImpNonPersistentObjectsCollection
  3
ObjectDBX Classes
 90
    33921
280
     0
281
     0
  0
ENDSEC
  0
SECTION
  2
TABLES
  0
TABLE
  2
VPORT
  5
8
102
{ACAD_XDICTIONARY
360
2D5E
102
}
330
0
100
AcDbSymbolTable
 70
     1
  0
VPORT
  5
56
330
8
100
AcDbSymbolTableRecord
100
AcDbViewportTableRecord
  2
*Active
 70
     0
 10
0.0
 20
0.0
 11
1.0
 21
1.0
 12
58.78414643855092
 22
-0.461947018775561
 13
0.0
 23
0.0
 14
1.0
 24
1.0
 15
0.0
 25
0.0
 16
0.0
 26
0.0
 36
1.0
 17
0.0
 27
0.0
 37
0.0
 40
568.1846781458468
 41
2.068601583113456
 42
50.0
 43
0.0
 44
0.0
 50
0.0
 51
0.0
 71
     0
 72
  1000
 73
     1
 74
     1
 75
     0
 76
     0
 77
     0
 78
     0
281
     0
 65
     1
110
0.0
120
0.0
130
0.0
111
1.0
121
0.0
131
0.0
112
0.0
122
1.0
132
0.0
 79
     0
146
0.0
  0
ENDTAB
  0
TABLE
  2
LTYPE
  5
5
330
0
100
AcDbSymbolTable
 70
     3
  0
LTYPE
  5
28
330
5
100
AcDbSymbolTableRecord
100
AcDbLinetypeTableRecord
  2
ByBlock
 70
     0
  3

 72
    65
 73
     0
 40
0.0
  0
LTYPE
  5
29
330
5
100
AcDbSymbolTableRecord
100
AcDbLinetypeTableRecord
  2
ByLayer
 70
     0
  3

 72
    65
 73
     0
 40
0.0
  0
LTYPE
  5
2A
330
5
100
AcDbSymbolTableRecord
100
AcDbLinetypeTableRecord
  2
CONTINUOUS
 70
     0
  3
Solid-line
 72
    65
 73
     0
 40
0.0
  0
LTYPE
  5
1582
330
5
100
AcDbSymbolTableRecord
100
AcDbLinetypeTableRecord
  2
CENTER
 70
     0
  3
Center ____ _ ____ _ ____ _ ____ _ ____ _ ____
 72
    65
 73
     4
 40
2.0
 49
1.25
 74
     0
 49
-0.25
 74
     0
 49
0.25
 74
     0
 49
-0.25
 74
     0
  0
LTYPE
  5
2CDE
330
5
100
AcDbSymbolTableRecord
100
AcDbLinetypeTableRecord
  2
HIDDEN
 70
     0
  3
Hidden __ __ __ __ __ __ __ __ __ __ __ __ __ _
 72
    65
 73
     2
 40
0.375
 49
0.25
 74
     0
 49
-0.125
 74
     0
  0
ENDTAB
  0
TABLE
  2
LAYER
  5
2
102
{ACAD_XDICTIONARY
360
2FE
102
}
330
0
100
AcDbSymbolTable
 70
     2
  0
LAYER
  5
25
102
{ACAD_XDICTIONARY
360
DA4
102
}
330
2
100
AcDbSymbolTableRecord
100
AcDbLayerTableRecord
  2
0
 70
     0
 62
     7
  6
CONTINUOUS
370
    -3
390
F
  0
LAYER
  5
2FA
330
2
100
AcDbSymbolTableRecord
100
AcDbLayerTableRecord
  2
Defpoints
 70
     0
 62
     7
  6
CONTINUOUS
290
     0
370
    -3
390
F
  0
ENDTAB
  0
TABLE
  2
STYLE
  5
3
330
0
100
AcDbSymbolTable
 70
     7
  0
STYLE
  5
26
330
3
100
AcDbSymbolTableRecord
100
AcDbTextStyleTableRecord
  2
STANDARD
 70
     0
 40
0.0
 41
1.0
 50
0.0
 71
     0
 42
0.2
  3
TXT
  4
BIGFONT
  0
STYLE
  5
9E3
330
3
100
AcDbSymbolTableRecord
100
AcDbTextStyleTableRecord
  2
高3.2
 70
     0
 40
3.2
 41
1.0
 50
0.0
 71
     0
 42
3.2
  3
txt.shx
  4
bigfont.shx
  0
STYLE
  5
9E4
330
3
100
AcDbSymbolTableRecord
100
AcDbTextStyleTableRecord
  2
高6.3
 70
     0
 40
6.299999999999998
 41
1.0
 50
0.0
 71
     0
 42
6.299999999999998
  3
txt.shx
  4
bigfont.shx
  0
STYLE
  5
9E5
330
3
100
AcDbSymbolTableRecord
100
AcDbTextStyleTableRecord
  2
高2.5
 70
     0
 40
2.5
 41
1.0
 50
0.0
 71
     0
 42
0.2
  3
txt.shx
  4
bigfont.shx
  0
STYLE
  5
9E6
330
3
100
AcDbSymbolTableRecord
100
AcDbTextStyleTableRecord
  2
高4.5
 70
     0
 40
4.5
 41
1.0
 50
0.0
 71
     0
 42
6.299999999999998
  3
txt.shx
  4
bigfont.shx
  0
STYLE
  5
9E7
330
3
100
AcDbSymbolTableRecord
100
AcDbTextStyleTableRecord
  2
高2
 70
     0
 40
2.0
 41
1.0
 50
0.0
 71
     0
 42
6.299999999999998
  3
txt.shx
  4
bigfont.shx
  0
STYLE
  5
1581
330
3
100
AcDbSymbolTableRecord
100
AcDbTextStyleTableRecord
  2

 70
     1
 40
0.0
 41
1.0
 50
0.0
 71
     0
 42
3.2
  3
ltypeshp.shx
  4

  0
ENDTAB
  0
TABLE
  2
VIEW
  5
6
330
0
100
AcDbSymbolTable
 70
     0
  0
ENDTAB
  0
TABLE
  2
UCS
  5
7
330
0
100
AcDbSymbolTable
 70
     0
  0
ENDTAB
  0
TABLE
  2
APPID
  5
9
330
0
100
AcDbSymbolTable
 70
    11
  0
APPID
  5
27
330
9
100
AcDbSymbolTableRecord
100
AcDbRegAppTableRecord
  2
ACAD
 70
     0
  0
APPID
  5
2FC
330
9
100
AcDbSymbolTableRecord
100
AcDbRegAppTableRecord
  2
ACAD_DSTYLE_DIMJOGGED_JOGANGLE_SYMBOL
 70
     0
  0
APPID
  5
2FD
330
9
100
AcDbSymbolTableRecord
100
AcDbRegAppTableRecord
  2
ACAD_PSEXT
 70
     0
  0
APPID
  5
529
330
9
100
AcDbSymbolTableRecord
100
AcDbRegAppTableRecord
  2
ACAD_EXEMPT_FROM_CAD_STANDARDS
 70
     0
  0
APPID
  5
796
330
9
100
AcDbSymbolTableRecord
100
AcDbRegAppTableRecord
  2
ACAD_DSTYLE_DIMARC_LENGTH_SYMBOL
 70
     0
  0
APPID
  5
797
330
9
100
AcDbSymbolTableRecord
100
AcDbRegAppTableRecord
  2
ACAD_DSTYLE_DIMEXT_LENGTH
 70
     0
  0
APPID
  5
C84
330
9
100
AcDbSymbolTableRecord
100
AcDbRegAppTableRecord
  2
ACAD_DSTYLE_DIMJAG
 70
     0
  0
APPID
  5
C85
330
9
100
AcDbSymbolTableRecord
100
AcDbRegAppTableRecord
  2
ACAD_DSTYLE_DIMBREAK
 70
     0
  0
APPID
  5
C86
330
9
100
AcDbSymbolTableRecord
100
AcDbRegAppTableRecord
  2
ACAD_DSTYLE_DIMTALN
 70
     0
  0
APPID
  5
DEC
330
9
100
AcDbSymbolTableRecord
100
AcDbRegAppTableRecord
  2
ACAD_MLEADERVER
 70
     0
  0
APPID
  5
2CC3
330
9
100
AcDbSymbolTableRecord
100
AcDbRegAppTableRecord
  2
ACAD_DSTYLE_DIMRADIAL_EXTENSION
 70
     0
  0
ENDTAB
  0
TABLE
  2
DIMSTYLE
  5
A
330
0
100
AcDbSymbolTable
 70
    11
100
AcDbDimStyleTable
 71
     3
340
2FB
340
16D9
340
2BB
  0
DIMSTYLE
105
2BB
330
A
100
AcDbSymbolTableRecord
100
AcDbDimStyleTableRecord
  2
Standard
 70
     0
340
26
  0
DIMSTYLE
105
2FB
330
A
100
AcDbSymbolTableRecord
100
AcDbDimStyleTableRecord
  2
1／2
 70
     0
 41
2.5
 42
0.25
 43
0.2
 44
1.25
 73
     0
 74
     0
 77
     3
 78
     8
 79
     2
140
3.0
141
0.0
143
0.03937007874016
144
2.0
147
0.625
171
     3
172
     1
178
     4
179
     1
271
     2
272
     2
274
     3
283
     0
284
     8
288
     1
289
     0
340
26
341
2DA
342
2DA
1001
ACAD_DSTYLE_DIMARC_LENGTH_SYMBOL
1070
   379
1070
     2
1001
ACAD_DSTYLE_DIMEXT_LENGTH
1070
   378
1040
1.25
1001
ACAD_DSTYLE_DIMJOGGED_JOGANGLE_SYMBOL
1070
   384
1040
1.570796326794896
  0
DIMSTYLE
105
16D9
330
A
100
AcDbSymbolTableRecord
100
AcDbDimStyleTableRecord
  2
1：1
 70
     0
 41
2.5
 42
0.25
 43
0.2
 44
1.25
 73
     0
 74
     0
 77
     3
 78
     8
 79
     2
140
3.0
141
0.0
143
0.03937007874016
147
0.625
171
     3
172
     1
178
     4
179
     1
271
     2
272
     2
274
     3
283
     0
284
     8
288
     1
289
     0
340
26
341
2DA
342
2DA
1001
ACAD_DSTYLE_DIMARC_LENGTH_SYMBOL
1070
   379
1070
     2
1001
ACAD_DSTYLE_DIMEXT_LENGTH
1070
   378
1040
1.25
1001
ACAD_DSTYLE_DIMJOGGED_JOGANGLE_SYMBOL
1070
   384
1040
1.570796326794896
  0
DIMSTYLE
105
16DA
330
A
100
AcDbSymbolTableRecord
100
AcDbDimStyleTableRecord
  2
2：1
 70
     0
 41
2.5
 42
0.25
 43
0.2
 44
1.25
 73
     0
 74
     0
 77
     3
 78
     8
 79
     2
140
3.0
141
0.0
143
0.03937007874016
144
0.5
147
0.625
171
     3
172
     1
178
     4
179
     1
271
     2
272
     2
274
     3
283
     0
284
     8
288
     1
289
     0
340
26
341
2DA
342
2DA
1001
ACAD_DSTYLE_DIMARC_LENGTH_SYMBOL
1070
   379
1070
     2
1001
ACAD_DSTYLE_DIMEXT_LENGTH
1070
   378
1040
1.25
1001
ACAD_DSTYLE_DIMJOGGED_JOGANGLE_SYMBOL
1070
   384
1040
1.570796326794896
  0
DIMSTYLE
105
16DB
330
A
100
AcDbSymbolTableRecord
100
AcDbDimStyleTableRecord
  2
5：1
 70
     0
 41
2.5
 42
0.25
 43
0.2
 44
1.25
 73
     0
 74
     0
 77
     3
 78
     8
 79
     2
140
3.0
141
0.0
143
0.03937007874016
144
0.2
147
0.625
171
     3
172
     1
178
     4
179
     1
271
     2
272
     2
274
     3
283
     0
284
     8
288
     1
289
     0
340
26
341
2DA
342
2DA
1001
ACAD_DSTYLE_DIMARC_LENGTH_SYMBOL
1070
   379
1070
     2
1001
ACAD_DSTYLE_DIMEXT_LENGTH
1070
   378
1040
1.25
1001
ACAD_DSTYLE_DIMJOGGED_JOGANGLE_SYMBOL
1070
   384
1040
1.570796326794896
  0
DIMSTYLE
105
16DC
330
A
100
AcDbSymbolTableRecord
100
AcDbDimStyleTableRecord
  2
10：1
 70
     0
 41
2.5
 42
0.25
 43
0.2
 44
1.25
 73
     0
 74
     0
 77
     3
 78
     8
 79
     2
140
3.0
141
0.0
143
0.03937007874016
144
0.1
147
0.625
171
     3
172
     1
178
     4
179
     1
271
     2
272
     2
274
     3
283
     0
284
     8
288
     1
289
     0
340
26
341
2DA
342
2DA
1001
ACAD_DSTYLE_DIMARC_LENGTH_SYMBOL
1070
   379
1070
     2
1001
ACAD_DSTYLE_DIMEXT_LENGTH
1070
   378
1040
1.25
1001
ACAD_DSTYLE_DIMJOGGED_JOGANGLE_SYMBOL
1070
   384
1040
1.570796326794896
  0
DIMSTYLE
105
16DD
330
A
100
AcDbSymbolTableRecord
100
AcDbDimStyleTableRecord
  2
1／5
 70
     0
 41
2.5
 42
0.25
 43
0.2
 44
1.25
 73
     0
 74
     0
 77
     3
 78
     8
 79
     2
140
3.0
141
0.0
143
0.03937007874016
144
5.0
147
0.625
171
     3
172
     1
178
     4
179
     1
271
     2
272
     2
274
     3
283
     0
284
     8
288
     1
289
     0
340
26
341
2DA
342
2DA
1001
ACAD_DSTYLE_DIMARC_LENGTH_SYMBOL
1070
   379
1070
     2
1001
ACAD_DSTYLE_DIMEXT_LENGTH
1070
   378
1040
1.25
1001
ACAD_DSTYLE_DIMJOGGED_JOGANGLE_SYMBOL
1070
   384
1040
1.570796326794896
  0
DIMSTYLE
105
16DE
330
A
100
AcDbSymbolTableRecord
100
AcDbDimStyleTableRecord
  2
1／10
 70
     0
 41
2.5
 42
0.25
 43
0.2
 44
1.25
 73
     0
 74
     0
 77
     3
 78
     8
 79
     2
140
3.0
141
0.0
143
0.03937007874016
144
10.0
147
0.625
171
     3
172
     1
178
     4
179
     1
271
     2
272
     2
274
     3
283
     0
284
     8
288
     1
289
     0
340
26
341
2DA
342
2DA
1001
ACAD_DSTYLE_DIMARC_LENGTH_SYMBOL
1070
   379
1070
     2
1001
ACAD_DSTYLE_DIMEXT_LENGTH
1070
   378
1040
1.25
1001
ACAD_DSTYLE_DIMJOGGED_JOGANGLE_SYMBOL
1070
   384
1040
1.570796326794896
  0
DIMSTYLE
105
16DF
330
A
100
AcDbSymbolTableRecord
100
AcDbDimStyleTableRecord
  2
1／4
 70
     0
 41
2.5
 42
0.25
 43
0.2
 44
1.25
 73
     0
 74
     0
 77
     3
 78
     8
 79
     2
140
3.0
141
0.0
143
0.03937007874016
144
4.0
147
0.625
171
     3
172
     1
178
     4
179
     1
271
     2
272
     2
274
     3
283
     0
284
     8
288
     1
289
     0
340
26
341
2DA
342
2DA
1001
ACAD_DSTYLE_DIMARC_LENGTH_SYMBOL
1070
   379
1070
     2
1001
ACAD_DSTYLE_DIMEXT_LENGTH
1070
   378
1040
1.25
1001
ACAD_DSTYLE_DIMJOGGED_JOGANGLE_SYMBOL
1070
   384
1040
1.570796326794896
  0
DIMSTYLE
105
16E0
330
A
100
AcDbSymbolTableRecord
100
AcDbDimStyleTableRecord
  2
1／3
 70
     0
 41
2.5
 42
0.25
 43
0.2
 44
1.25
 73
     0
 74
     0
 77
     3
 78
     8
 79
     2
140
3.0
141
0.0
143
0.03937007874016
144
3.0
147
0.625
171
     3
172
     1
178
     4
179
     1
271
     2
272
     2
274
     3
283
     0
284
     8
288
     1
289
     0
340
26
341
2DA
342
2DA
1001
ACAD_DSTYLE_DIMARC_LENGTH_SYMBOL
1070
   379
1070
     2
1001
ACAD_DSTYLE_DIMEXT_LENGTH
1070
   378
1040
1.25
1001
ACAD_DSTYLE_DIMJOGGED_JOGANGLE_SYMBOL
1070
   384
1040
1.570796326794896
  0
DIMSTYLE
105
16E1
330
A
100
AcDbSymbolTableRecord
100
AcDbDimStyleTableRecord
  2
FREE
 70
     0
 41
2.5
 42
0.25
 43
0.2
 44
1.25
 73
     0
 74
     0
 77
     3
 78
     8
 79
     2
140
3.0
141
0.0
143
0.03937007874016
147
0.625
171
     3
172
     1
178
     4
179
     1
271
     2
272
     2
274
     3
283
     0
284
     8
288
     1
289
     0
340
26
341
2DA
342
2DA
1001
ACAD_DSTYLE_DIMBREAK
1070
   391
1040
3.75
1001
ACAD_DSTYLE_DIMJAG
1070
   388
1040
1.5
1001
ACAD_DSTYLE_DIMTALN
1070
   392
1070
     0
1001
ACAD_DSTYLE_DIMARC_LENGTH_SYMBOL
1070
   379
1070
     2
1001
ACAD_DSTYLE_DIMEXT_LENGTH
1070
   378
1040
1.25
1001
ACAD_DSTYLE_DIMJOGGED_JOGANGLE_SYMBOL
1070
   384
1040
1.570796326794896
  0
ENDTAB
  0
TABLE
  2
BLOCK_RECORD
  5
1
330
0
100
AcDbSymbolTable
 70
     5
  0
BLOCK_RECORD
  5
36
102
{ACAD_XDICTIONARY
360
5D9
102
}
330
1
100
AcDbSymbolTableRecord
100
AcDbBlockTableRecord
  2
*Model_Space
340
39
  0
BLOCK_RECORD
  5
32
330
1
100
AcDbSymbolTableRecord
100
AcDbBlockTableRecord
  2
*Paper_Space
340
35
  0
BLOCK_RECORD
  5
2DA
330
1
100
AcDbSymbolTableRecord
100
AcDbBlockTableRecord
  2
_Open30
340
0
102
{BLKREFS
331
2CAA
331
2CAB
331
2CD8
331
2CD9
331
2D05
331
2D06
331
2D4A
331
2D4B
102
}
  0
BLOCK_RECORD
  5
1F37
330
1
100
AcDbSymbolTableRecord
100
AcDbBlockTableRecord
  2
*D1
340
0
  0
BLOCK_RECORD
  5
1F6C
330
1
100
AcDbSymbolTableRecord
100
AcDbBlockTableRecord
  2
*D2
340
0
  0
BLOCK_RECORD
  5
1F83
330
1
100
AcDbSymbolTableRecord
100
AcDbBlockTableRecord
  2
*D3
340
0
  0
BLOCK_RECORD
  5
1FBD
330
1
100
AcDbSymbolTableRecord
100
AcDbBlockTableRecord
  2
*D4
340
0
  0
ENDTAB
  0
ENDSEC
  0
SECTION
  2
BLOCKS
  0
BLOCK
  5
37
330
36
100
AcDbEntity
  8
0
100
AcDbBlockBegin
  2
*Model_Space
 70
     0
 10
0.0
 20
0.0
 30
0.0
  3
*Model_Space
  1

  0
ENDBLK
  5
38
330
36
100
AcDbEntity
  8
0
100
AcDbBlockEnd
  0
BLOCK
  5
33
330
32
100
AcDbEntity
 67
     1
  8
0
100
AcDbBlockBegin
  2
*Paper_Space
 70
     0
 10
0.0
 20
0.0
 30
0.0
  3
*Paper_Space
  1

  0
ENDBLK
  5
34
330
32
100
AcDbEntity
 67
     1
  8
0
100
AcDbBlockEnd
  0
BLOCK
  5
2DB
330
2DA
100
AcDbEntity
  8
0
100
AcDbBlockBegin
  2
_Open30
 70
     0
 10
0.0
 20
0.0
 30
0.0
  3
_Open30
  1

  0
LINE
  5
2DC
330
2DA
100
AcDbEntity
  8
0
  6
ByBlock
 62
     0
370
    -2
100
AcDbLine
 10
-1.0
 20
0.267949
 30
0.0
 11
0.0
 21
0.0
 31
0.0
  0
LINE
  5
2DD
330
2DA
100
AcDbEntity
  8
0
  6
ByBlock
 62
     0
370
    -2
100
AcDbLine
 10
0.0
 20
0.0
 30
0.0
 11
-1.0
 21
-0.267949
 31
0.0
  0
LINE
  5
2DE
330
2DA
100
AcDbEntity
  8
0
  6
ByBlock
 62
     0
370
    -2
100
AcDbLine
 10
0.0
 20
0.0
 30
0.0
 11
-1.0
 21
0.0
 31
0.0
  0
ENDBLK
  5
2DF
330
2DA
100
AcDbEntity
  8
0
100
AcDbBlockEnd
  0
BLOCK
  5
1F38
330
1F37
100
AcDbEntity
  8
0
100
AcDbBlockBegin
  2
*D1
 70
     1
 10
0.0
 20
0.0
 30
0.0
  3
*D1
  1

  0
LINE
  5
2D47
330
1F37
100
AcDbEntity
  8
0
  6
Continuous
 62
     0
370
    -2
100
AcDbLine
 10
61.68765139121659
 20
72.9764458849861
 30
0.0
 11
61.68765139121659
 21
89.5194068620076
 31
0.0
  0
LINE
  5
2D48
330
1F37
100
AcDbEntity
  8
0
  6
Continuous
 62
     0
370
    -2
100
AcDbLine
 10
75.68765139121659
 20
72.9764458849861
 30
0.0
 11
75.68765139121659
 21
89.5194068620076
 31
0.0
  0
LINE
  5
2D49
330
1F37
100
AcDbEntity
  8
0
  6
Continuous
 62
     0
370
    -2
100
AcDbLine
 10
64.18765139121659
 20
88.2694068620076
 30
0.0
 11
73.18765139121659
 21
88.2694068620076
 31
0.0
  0
INSERT
  5
2D4A
330
1F37
100
AcDbEntity
  8
0
  6
Continuous
 62
     0
370
    -2
100
AcDbBlockReference
  2
_Open30
 10
61.68765139121659
 20
88.2694068620076
 30
0.0
 41
2.5
 42
2.5
 43
2.5
 50
180.0
  0
INSERT
  5
2D4B
330
1F37
100
AcDbEntity
  8
0
  6
Continuous
 62
     0
370
    -2
100
AcDbBlockReference
  2
_Open30
 10
75.68765139121659
 20
88.2694068620076
 30
0.0
 41
2.5
 42
2.5
 43
2.5
  0
MTEXT
  5
2D4C
330
1F37
100
AcDbEntity
  8
0
  6
Continuous
 62
     4
100
AcDbMText
 10
68.68765139121659
 20
90.39440686200761
 30
0.0
 40
3.0
 41
0.0
 71
     5
 72
     1
  1
%%C28
 73
     1
 44
1.0
1001
ACAD
1000
MTEXTBEGIN
1070
    73
1070
     1
1070
    44
1040
1.0
1070
    74
1070
     0
1000
MTEXTEND
  0
POINT
  5
2D4D
330
1F37
100
AcDbEntity
  8
Defpoints
  6
Continuous
 62
     0
100
AcDbPoint
 10
61.68765139121659
 20
72.72644588498611
 30
0.0
  0
POINT
  5
2D4E
330
1F37
100
AcDbEntity
  8
Defpoints
  6
Continuous
 62
     0
100
AcDbPoint
 10
75.68765139121659
 20
72.72644588498611
 30
0.0
  0
POINT
  5
2D4F
330
1F37
100
AcDbEntity
  8
Defpoints
  6
Continuous
 62
     0
100
AcDbPoint
 10
75.68765139121659
 20
88.2694068620076
 30
0.0
  0
ENDBLK
  5
1F39
330
1F37
100
AcDbEntity
  8
0
100
AcDbBlockEnd
  0
BLOCK
  5
1F6D
330
1F6C
100
AcDbEntity
  8
0
100
AcDbBlockBegin
  2
*D2
 70
     1
 10
0.0
 20
0.0
 30
0.0
  3
*D2
  1

  0
LINE
  5
2CA7
330
1F6C
100
AcDbEntity
  8
0
  6
Continuous
 62
     0
370
    -2
100
AcDbLine
 10
35.11642837691422
 20
79.37644588498611
 30
0.0
 11
35.11642837691422
 21
98.31633973020712
 31
0.0
  0
LINE
  5
2CA8
330
1F6C
100
AcDbEntity
  8
0
  6
Continuous
 62
     0
370
    -2
100
AcDbLine
 10
-78.93161670140376
 20
79.47644588498609
 30
0.0
 11
-78.93161670140376
 21
98.31633973020712
 31
0.0
  0
LINE
  5
2CA9
330
1F6C
100
AcDbEntity
  8
0
  6
Continuous
 62
     0
370
    -2
100
AcDbLine
 10
32.61642837691422
 20
97.06633973020712
 30
0.0
 11
-76.43161670140376
 21
97.06633973020712
 31
0.0
  0
INSERT
  5
2CAA
330
1F6C
100
AcDbEntity
  8
0
  6
Continuous
 62
     0
370
    -2
100
AcDbBlockReference
  2
_Open30
 10
35.11642837691422
 20
97.06633973020712
 30
0.0
 41
2.5
 42
2.5
 43
2.5
  0
INSERT
  5
2CAB
330
1F6C
100
AcDbEntity
  8
0
  6
Continuous
 62
     0
370
    -2
100
AcDbBlockReference
  2
_Open30
 10
-78.93161670140376
 20
97.06633973020712
 30
0.0
 41
2.5
 42
2.5
 43
2.5
 50
180.0
  0
MTEXT
  5
2CAC
330
1F6C
100
AcDbEntity
  8
0
  6
Continuous
 62
     4
100
AcDbMText
 10
-21.90759416224478
 20
99.19133973020713
 30
0.0
 40
3.0
 41
0.0
 71
     5
 72
     1
  1
1198
 73
     1
 44
1.0
1001
ACAD
1000
MTEXTBEGIN
1070
    73
1070
     1
1070
    44
1040
1.0
1070
    74
1070
     0
1000
MTEXTEND
  0
POINT
  5
2CAD
330
1F6C
100
AcDbEntity
  8
Defpoints
  6
Continuous
 62
     0
100
AcDbPoint
 10
35.11642837691422
 20
79.12644588498611
 30
0.0
  0
POINT
  5
2CAE
330
1F6C
100
AcDbEntity
  8
Defpoints
  6
Continuous
 62
     0
100
AcDbPoint
 10
-78.93161670140376
 20
79.22644588498609
 30
0.0
  0
POINT
  5
2CAF
330
1F6C
100
AcDbEntity
  8
Defpoints
  6
Continuous
 62
     0
100
AcDbPoint
 10
-78.93161670140376
 20
97.06633973020712
 30
0.0
  0
ENDBLK
  5
1F6E
330
1F6C
100
AcDbEntity
  8
0
100
AcDbBlockEnd
  0
BLOCK
  5
1F84
330
1F83
100
AcDbEntity
  8
0
100
AcDbBlockBegin
  2
*D3
 70
     1
 10
0.0
 20
0.0
 30
0.0
  3
*D3
  1

  0
LINE
  5
2CD5
330
1F83
100
AcDbEntity
  8
0
  6
Continuous
 62
     0
370
    -2
100
AcDbLine
 10
38.6664283769142
 20
73.27269588498609
 30
0.0
 11
38.6664283769142
 21
104.3531517358026
 31
0.0
  0
LINE
  5
2CD6
330
1F83
100
AcDbEntity
  8
0
  6
Continuous
 62
     0
370
    -2
100
AcDbLine
 10
-82.48161670140374
 20
73.2726958849861
 30
0.0
 11
-82.48161670140374
 21
104.3531517358026
 31
0.0
  0
LINE
  5
2CD7
330
1F83
100
AcDbEntity
  8
0
  6
Continuous
 62
     0
370
    -2
100
AcDbLine
 10
36.1664283769142
 20
103.1031517358026
 30
0.0
 11
-79.98161670140375
 21
103.1031517358026
 31
0.0
  0
INSERT
  5
2CD8
330
1F83
100
AcDbEntity
  8
0
  6
Continuous
 62
     0
370
    -2
100
AcDbBlockReference
  2
_Open30
 10
38.6664283769142
 20
103.1031517358026
 30
0.0
 41
2.5
 42
2.5
 43
2.5
  0
INSERT
  5
2CD9
330
1F83
100
AcDbEntity
  8
0
  6
Continuous
 62
     0
370
    -2
100
AcDbBlockReference
  2
_Open30
 10
-82.48161670140374
 20
103.1031517358026
 30
0.0
 41
2.5
 42
2.5
 43
2.5
 50
180.0
  0
MTEXT
  5
2CDA
330
1F83
100
AcDbEntity
  8
0
  6
Continuous
 62
     4
100
AcDbMText
 10
-21.90759416224478
 20
105.2281517358026
 30
0.0
 40
3.0
 41
0.0
 71
     5
 72
     1
  1
1212.2
 73
     1
 44
1.0
1001
ACAD
1000
MTEXTBEGIN
1070
    73
1070
     1
1070
    44
1040
1.0
1070
    74
1070
     0
1000
MTEXTEND
  0
POINT
  5
2CDB
330
1F83
100
AcDbEntity
  8
Defpoints
  6
Continuous
 62
     0
100
AcDbPoint
 10
38.6664283769142
 20
73.02269588498609
 30
0.0
  0
POINT
  5
2CDC
330
1F83
100
AcDbEntity
  8
Defpoints
  6
Continuous
 62
     0
100
AcDbPoint
 10
-82.48161670140374
 20
73.0226958849861
 30
0.0
  0
POINT
  5
2CDD
330
1F83
100
AcDbEntity
  8
Defpoints
  6
Continuous
 62
     0
100
AcDbPoint
 10
-82.48161670140374
 20
103.1031517358026
 30
0.0
  0
ENDBLK
  5
1F85
330
1F83
100
AcDbEntity
  8
0
100
AcDbBlockEnd
  0
BLOCK
  5
1FBE
330
1FBD
100
AcDbEntity
  8
0
100
AcDbBlockBegin
  2
*D4
 70
     1
 10
0.0
 20
0.0
 30
0.0
  3
*D4
  1

  0
LINE
  5
2D00
330
1FBD
100
AcDbEntity
  8
0
  6
Continuous
 62
     0
370
    -2
100
AcDbLine
 10
-41.35918016248346
 20
79.2264458849861
 30
0.0
 11
-45.18582235712754
 21
79.2264458849861
 31
0.0
  0
LINE
  5
2D01
330
1FBD
100
AcDbEntity
  8
0
  6
Continuous
 62
     0
370
    -2
100
AcDbLine
 10
-41.35918016248346
 20
66.2264458849861
 30
0.0
 11
-45.18582235712754
 21
66.2264458849861
 31
0.0
  0
LINE
  5
2D02
330
1FBD
100
AcDbEntity
  8
0
  6
Continuous
 62
     0
370
    -2
100
AcDbLine
 10
-43.93582235712754
 20
63.7264458849861
 30
0.0
 11
-43.93582235712754
 21
61.2264458849861
 31
0.0
  0
LINE
  5
2D03
330
1FBD
100
AcDbEntity
  8
0
  6
Continuous
 62
     0
370
    -2
100
AcDbLine
 10
-43.93582235712753
 20
81.72644588498611
 30
0.0
 11
-43.93582235712753
 21
93.4764458849861
 31
0.0
  0
LINE
  5
2D04
330
1FBD
100
AcDbEntity
  8
0
  6
Continuous
 62
     0
370
    -2
100
AcDbLine
 10
-43.93582235712754
 20
66.2264458849861
 30
0.0
 11
-43.93582235712754
 21
79.2264458849861
 31
0.0
  0
INSERT
  5
2D05
330
1FBD
100
AcDbEntity
  8
0
  6
Continuous
 62
     0
370
    -2
100
AcDbBlockReference
  2
_Open30
 10
-43.93582235712754
 20
66.2264458849861
 30
0.0
 41
2.5
 42
2.5
 43
2.5
 50
90.0
  0
INSERT
  5
2D06
330
1FBD
100
AcDbEntity
  8
0
  6
Continuous
 62
     0
370
    -2
100
AcDbBlockReference
  2
_Open30
 10
-43.93582235712754
 20
79.2264458849861
 30
0.0
 41
2.5
 42
2.5
 43
2.5
 50
270.0
  0
MTEXT
  5
2D07
330
1FBD
100
AcDbEntity
  8
0
  6
Continuous
 62
     4
100
AcDbMText
 10
-46.06082235712754
 20
88.8514458849861
 30
0.0
 40
3.0
 41
0.0
 71
     5
 72
     1
  1
%%C26
 11
0.0000000000000001
 21
1.0
 31
0.0
 73
     1
 44
1.0
1001
ACAD
1000
MTEXTBEGIN
1070
    73
1070
     1
1070
    44
1040
1.0
1070
    74
1070
     0
1000
MTEXTEND
  0
POINT
  5
2D08
330
1FBD
100
AcDbEntity
  8
Defpoints
  6
Continuous
 62
     0
100
AcDbPoint
 10
-41.10918016248347
 20
79.2264458849861
 30
0.0
  0
POINT
  5
2D09
330
1FBD
100
AcDbEntity
  8
Defpoints
  6
Continuous
 62
     0
100
AcDbPoint
 10
-41.10918016248347
 20
66.2264458849861
 30
0.0
  0
POINT
  5
2D0A
330
1FBD
100
AcDbEntity
  8
Defpoints
  6
Continuous
 62
     0
100
AcDbPoint
 10
-43.93582235712754
 20
66.2264458849861
 30
0.0
  0
ENDBLK
  5
1FBF
330
1FBD
100
AcDbEntity
  8
0
100
AcDbBlockEnd
  0
ENDSEC
  0
SECTION
  2
ENTITIES
  0
LINE
  5
88
330
36
100
AcDbEntity
  8
0
 62
     3
100
AcDbLine
 10
-101.512073
 20
0.0
 30
0.0
 11
-102.0
 21
0.0
 31
0.0
  0
LINE
  5
161
330
36
100
AcDbEntity
  8
0
 62
     3
100
AcDbLine
 10
64.257701
 20
-121.834277
 30
0.0
 11
64.25770100000001
 21
-98.834277
 31
0.0
  0
LINE
  5
163
330
36
100
AcDbEntity
  8
0
 62
     3
100
AcDbLine
 10
11.204092
 20
-128.834277
 30
0.0
 11
11.204092
 21
-114.834277
 31
0.0
  0
TEXT
  5
165
330
36
100
AcDbEntity
  8
0
 62
     3
100
AcDbText
 10
40.268019
 20
-102.629161
 30
0.0
 40
2.0
  1
A
 41
0.7
100
AcDbText
  0
TEXT
  5
166
330
36
100
AcDbEntity
  8
0
 62
     3
100
AcDbText
 10
42.803306
 20
-102.629161
 30
0.0
 40
2.0
  1
P
 41
0.7
100
AcDbText
  0
TEXT
  5
167
330
36
100
AcDbEntity
  8
0
 62
     3
100
AcDbText
 10
45.338592
 20
-102.629161
 30
0.0
 40
2.0
  1
P
 41
0.7
100
AcDbText
  0
TEXT
  5
168
330
36
100
AcDbEntity
  8
0
 62
     3
100
AcDbText
 10
47.873878
 20
-102.629161
 30
0.0
 40
2.0
  1
D
 41
0.7
100
AcDbText
  0
TEXT
  5
169
330
36
100
AcDbEntity
  8
0
 62
     3
100
AcDbText
 10
53.242561
 20
-102.629161
 30
0.0
 40
2.0
  1
C
 41
0.7
100
AcDbText
  0
TEXT
  5
16A
330
36
100
AcDbEntity
  8
0
 62
     3
100
AcDbText
 10
55.77784699999998
 20
-102.629161
 30
0.0
 40
2.0
  1
H
 41
0.7
100
AcDbText
  0
TEXT
  5
16B
330
36
100
AcDbEntity
  8
0
 62
     3
100
AcDbText
 10
58.31313399999999
 20
-102.629161
 30
0.0
 40
2.0
  1
C
 41
0.7
100
AcDbText
  0
TEXT
  5
16C
330
36
100
AcDbEntity
  8
0
 62
     3
100
AcDbText
 10
60.84842
 20
-102.629161
 30
0.0
 40
2.0
  1
K
 41
0.7
100
AcDbText
  0
TEXT
  5
16D
330
36
100
AcDbEntity
  8
0
 62
     3
100
AcDbText
 10
66.522386
 20
-102.629161
 30
0.0
 40
2.0
  1
DESN
 41
1.216762999999998
100
AcDbText
  0
TEXT
  5
16E
330
36
100
AcDbEntity
  8
0
 62
     3
100
AcDbText
 10
-18.483972
 20
-131.975659
 30
0.0
 40
2.0
  1
NICHIDO IND.CO.LTD
 41
1.274876
100
AcDbText
  0
LINE
  5
16F
330
36
100
AcDbEntity
  8
0
 62
     3
100
AcDbLine
 10
-8.100942999999999
 20
-98.83427699999998
 30
0.0
 11
-8.100942999999999
 21
-121.834277
 31
0.0
  0
LINE
  5
170
330
36
100
AcDbEntity
  8
0
 62
     3
100
AcDbLine
 10
38.25770100000001
 20
-98.83427699999998
 30
0.0
 11
38.25770100000001
 21
-138.5
 31
0.0
  0
LINE
  5
175
330
36
100
AcDbEntity
  8
0
 62
     3
100
AcDbLine
 10
51.257701
 20
-98.83427699999998
 30
0.0
 11
51.257701
 21
-128.834277
 31
0.0
  0
TEXT
  5
176
330
36
100
AcDbEntity
  8
0
 62
     3
100
AcDbText
 10
39.37014600000001
 20
-127.96959
 30
0.0
 40
3.2
  1
作成日
 41
1.017225999999997
100
AcDbText
  0
LINE
  5
177
330
36
100
AcDbEntity
  8
0
 62
     3
100
AcDbLine
 10
90.0
 20
-98.834277
 30
0.0
 11
-21.346378
 21
-98.83427699999998
 31
0.0
  0
LINE
  5
178
330
36
100
AcDbEntity
  8
0
 62
     3
100
AcDbLine
 10
77.257701
 20
-121.834277
 30
0.0
 11
77.257701
 21
-98.83427699999998
 31
0.0
  0
TEXT
  5
179
330
36
100
AcDbEntity
  8
0
 62
     3
100
AcDbText
 10
80.58150500000001
 20
-102.543343
 30
0.0
 40
1.8
  1
D
 41
0.666667
100
AcDbText
  0
TEXT
  5
17A
330
36
100
AcDbEntity
  8
0
 62
     3
100
AcDbText
 10
83.39813300000001
 20
-102.543343
 30
0.0
 40
1.8
  1
E
 41
0.666667
100
AcDbText
  0
TEXT
  5
17B
330
36
100
AcDbEntity
  8
0
 62
     3
100
AcDbText
 10
86.214761
 20
-102.543343
 30
0.0
 40
1.8
  1
F
 41
0.666667
100
AcDbText
  0
TEXT
  5
17C
330
36
100
AcDbEntity
  8
0
 62
     3
100
AcDbText
 10
80.58150500000001
 20
-106.5358959999999
 30
0.0
 40
3.2
  1
製図
 41
1.076369
100
AcDbText
  0
LINE
  5
17D
330
36
100
AcDbEntity
  8
0
 62
     3
100
AcDbLine
 10
-21.346378
 20
-98.83427699999998
 30
0.0
 11
-21.346378
 21
-138.5
 31
0.0
  0
TEXT
  5
17E
330
36
100
AcDbEntity
  8
0
 62
     3
100
AcDbText
 10
-19.969725
 20
-138.167534
 30
0.0
 40
5.0
  1
日動工業株式会社
 41
0.833333
100
AcDbText
  0
LINE
  5
17F
330
36
100
AcDbEntity
  8
0
 62
     3
100
AcDbLine
 10
21.536026
 20
-114.834277
 30
0.0
 11
21.536026
 21
-138.5
 31
0.0
  0
LINE
  5
180
330
36
100
AcDbEntity
  8
0
 62
     3
100
AcDbLine
 10
21.536026
 20
-133.6671379999999
 30
0.0
 11
38.25770100000001
 21
-133.6671379999999
 31
0.0
  0
TEXT
  5
181
330
36
100
AcDbEntity
  8
0
 62
     3
100
AcDbText
 10
22.122628
 20
-132.850708
 30
0.0
 40
3.2
  1
出図コード
 41
0.8356860000000001
100
AcDbText
  0
LINE
  5
182
330
36
100
AcDbEntity
  8
0
 62
     3
100
AcDbLine
 10
90.0
 20
-128.834277
 30
0.0
 11
-21.34637800000001
 21
-128.834277
 31
0.0
  0
LINE
  5
183
330
36
100
AcDbEntity
  8
0
 62
     3
100
AcDbLine
 10
86.32079799999997
 20
-128.834277
 30
0.0
 11
90.0
 21
-128.8342769999999
 31
0.0
  0
LINE
  5
185
330
36
100
AcDbEntity
  8
0
 62
     3
100
AcDbLine
 10
-21.346378
 20
-107.834277
 30
0.0
 11
90.0
 21
-107.834277
 31
0.0
  0
LINE
  5
18B
330
36
100
AcDbEntity
  8
0
 62
     3
100
AcDbLine
 10
-21.34637800000001
 20
-114.834277
 30
0.0
 11
38.25770100000001
 21
-114.834277
 31
0.0
  0
LINE
  5
191
330
36
100
AcDbEntity
  8
0
 62
     3
100
AcDbLine
 10
-21.34637800000001
 20
-121.834277
 30
0.0
 11
90.0
 21
-121.834277
 31
0.0
  0
TEXT
  5
192
330
36
100
AcDbEntity
  8
0
 62
     3
100
AcDbText
 10
21.99008
 20
-137.897805
 30
0.0
 40
3.2
  1
ZK-A4Y
 41
0.8112849999999999
100
AcDbText
  0
LINE
  5
193
330
36
100
AcDbEntity
  8
0
 62
     3
100
AcDbLine
 10
-90.0
 20
138.5
 30
0.0
 11
-90.0
 21
-138.5
 31
0.0
  0
LINE
  5
194
330
36
100
AcDbEntity
  8
0
 62
     3
100
AcDbLine
 10
90.0
 20
-138.5
 30
0.0
 11
90.0
 21
138.5
 31
0.0
  0
LINE
  5
195
330
36
100
AcDbEntity
  8
0
 62
     3
100
AcDbLine
 10
90.0
 20
-138.5
 30
0.0
 11
-90.0
 21
-138.5
 31
0.0
  0
TEXT
  5
19A
330
36
100
AcDbEntity
  8
0
 62
     3
100
AcDbText
 10
-19.528981
 20
-102.664751
 30
0.0
 40
2.0
  1
CONPONENTS
 41
0.5331600000000001
100
AcDbText
  0
TEXT
  5
19B
330
36
100
AcDbEntity
  8
0
 62
     3
100
AcDbText
 10
-19.878707
 20
-121.596928
 30
0.0
 40
3.0
  1
材
 41
0.833333
100
AcDbText
  0
TEXT
  5
19C
330
36
100
AcDbEntity
  8
0
 62
     3
100
AcDbText
 10
-12.343065
 20
-121.596928
 30
0.0
 40
3.0
  1
質
 41
0.833333
100
AcDbText
  0
TEXT
  5
19D
330
36
100
AcDbEntity
  8
0
 62
     3
100
AcDbText
 10
-19.790637
 20
-110.972404
 30
0.0
 40
2.0
  1
MODEL
 41
1.031072999999999
100
AcDbText
  0
TEXT
  5
19E
330
36
100
AcDbEntity
  8
0
 62
     3
100
AcDbText
 10
-19.878707
 20
-117.91462
 30
0.0
 40
2.0
  1
MATERIAL
 41
0.659278
100
AcDbText
  0
TEXT
  5
19F
330
36
100
AcDbEntity
  8
0
 62
     3
100
AcDbText
 10
11.428573
 20
-121.596928
 30
0.0
 40
3.0
  1
備
 41
0.833333
100
AcDbText
  0
TEXT
  5
1A0
330
36
100
AcDbEntity
  8
0
 62
     3
100
AcDbText
 10
18.161575
 20
-121.596928
 30
0.0
 40
3.0
  1
考
 41
0.833333
100
AcDbText
  0
TEXT
  5
1A1
330
36
100
AcDbEntity
  8
0
 62
     3
100
AcDbText
 10
11.74797475442096
 20
-117.91462
 30
0.0
 40
2.0
  1
REMARKS
 41
0.675794
100
AcDbText
  0
TEXT
  5
1A2
330
36
100
AcDbEntity
  8
0
 62
     3
100
AcDbText
 10
-18.288978
 20
-124.834741
 30
0.0
 40
2.0
  1
3AD
 41
1.42614
100
AcDbText
  0
TEXT
  5
1A3
330
36
100
AcDbEntity
  8
0
 62
     3
100
AcDbText
 10
-8.977999
 20
-124.669007
 30
0.0
 40
2.0
  1
ANGLE
 41
1.669883999999995
100
AcDbText
  0
TEXT
  5
1A4
330
36
100
AcDbEntity
  8
0
 62
     3
100
AcDbText
 10
11.955888
 20
-125.045848
 30
0.0
 40
2.0
  1
SCALE
 41
0.7719630000000001
100
AcDbText
  0
TEXT
  5
1A5
330
36
100
AcDbEntity
  8
0
 62
     3
100
AcDbText
 10
-18.602849
 20
-128.834277
 30
0.0
 40
3.0
  1
第
 41
0.833333
100
AcDbText
  0
TEXT
  5
1A6
330
36
100
AcDbEntity
  8
0
 62
     3
100
AcDbText
 10
-10.815999
 20
-128.834277
 30
0.0
 40
3.0
  1
三
 41
0.833333
100
AcDbText
  0
TEXT
  5
1A7
330
36
100
AcDbEntity
  8
0
 62
     3
100
AcDbText
 10
-3.029149
 20
-128.834277
 30
0.0
 40
3.0
  1
角
 41
0.833333
100
AcDbText
  0
TEXT
  5
1A8
330
36
100
AcDbEntity
  8
0
 62
     3
100
AcDbText
 10
4.757700999999999
 20
-128.834277
 30
0.0
 40
3.0
  1
法
 41
0.833333
100
AcDbText
  0
TEXT
  5
1A9
330
36
100
AcDbEntity
  8
0
 62
     3
100
AcDbText
 10
11.819093
 20
-128.5458479999999
 30
0.0
 40
3.0
  1
尺
 41
0.833333
100
AcDbText
  0
TEXT
  5
1AA
330
36
100
AcDbEntity
  8
0
 62
     3
100
AcDbText
 10
18.552095
 20
-128.5458479999999
 30
0.0
 40
3.0
  1
度
 41
0.833333
100
AcDbText
  0
TEXT
  5
1AB
330
36
100
AcDbEntity
  8
0
 62
     3
100
AcDbText
 10
41.13536599999997
 20
-106.376548
 30
0.0
 40
3.0
  1
承認
 41
1.089472999999999
100
AcDbText
  0
TEXT
  5
1AC
330
36
100
AcDbEntity
  8
0
 62
     3
100
AcDbText
 10
54.37824599999999
 20
-106.434277
 30
0.0
 40
3.0
  1
検図
 41
0.931761
100
AcDbText
  0
TEXT
  5
1AD
330
36
100
AcDbEntity
  8
0
 62
     3
100
AcDbText
 10
67.37864300000001
 20
-106.434277
 30
0.0
 40
3.0
  1
設
 41
0.833333
100
AcDbText
  0
TEXT
  5
1AE
330
36
100
AcDbEntity
  8
0
 62
     3
100
AcDbText
 10
71.868511
 20
-106.434277
 30
0.0
 40
3.0
  1
計
 41
0.833333
100
AcDbText
  0
TEXT
  5
1AF
330
36
100
AcDbEntity
  8
0
 62
     3
100
AcDbText
 10
-19.597509
 20
-107.145521
 30
0.0
 40
3.0
  1
品
 41
0.833333
100
AcDbText
  0
TEXT
  5
1B0
330
36
100
AcDbEntity
  8
0
 62
     3
100
AcDbText
 10
-12.061867
 20
-107.145521
 30
0.0
 40
3.0
  1
名
 41
0.833333
100
AcDbText
  0
TEXT
  5
1B1
330
36
100
AcDbEntity
  8
0
 62
     3
100
AcDbText
 10
-19.790637
 20
-114.604664
 30
0.0
 40
3.0
  1
型
 41
0.833333
100
AcDbText
  0
TEXT
  5
1B2
330
36
100
AcDbEntity
  8
0
 62
     3
100
AcDbText
 10
-12.242546
 20
-114.604664
 30
0.0
 40
3.0
  1
式
 41
0.833333
100
AcDbText
  0
LINE
  5
219
330
36
100
AcDbEntity
  8
0
 62
     3
100
AcDbLine
 10
64.257701
 20
-98.83427699999998
 30
0.0
 11
64.257701
 21
-92.83427699999998
 31
0.0
  0
LINE
  5
21A
330
36
100
AcDbEntity
  8
0
 62
     3
100
AcDbLine
 10
38.25770100000001
 20
-98.83427699999998
 30
0.0
 11
38.25770100000001
 21
-92.83427699999998
 31
0.0
  0
LINE
  5
21B
330
36
100
AcDbEntity
  8
0
 62
     3
100
AcDbLine
 10
90.0
 20
-92.834277
 30
0.0
 11
38.25770100000001
 21
-92.83427699999998
 31
0.0
  0
TEXT
  5
21C
330
36
100
AcDbEntity
  8
0
 62
     3
100
AcDbText
 10
44.253299
 20
-98.03792800000001
 30
0.0
 40
4.5
  1
コード
  7
高4.5
100
AcDbText
  0
TEXT
  5
21D
330
36
100
AcDbEntity
  8
0
 62
     3
100
AcDbText
 10
-6.581908394574384
 20
-106.662986
 30
0.0
 40
4.5
  1
LEDチューブライト40W型(片側結線)
 41
0.45
  7
高4.5
100
AcDbText
  0
TEXT
  5
25F
330
36
100
AcDbEntity
  8
0
 62
     3
100
AcDbText
 10
25.04916102999141
 20
-128.386584
 30
0.0
 40
3.2
  1
1/2
  7
高3.2
100
AcDbText
  0
TEXT
  5
260
330
36
100
AcDbEntity
  8
0
 62
     3
100
AcDbText
 10
55.28894399999999
 20
-128.272057
 30
0.0
 40
3.2
  1
2017.02.10
  7
高3.2
100
AcDbText
  0
TEXT
  5
2A5
330
36
100
AcDbEntity
  8
0
 62
     3
100
AcDbText
 10
-6.086263030737427
 20
-113.8974032392477
 30
0.0
 40
4.5
  1
LCL-4014W-HI
 41
0.8
  7
高4.5
100
AcDbText
  0
TEXT
  5
2A6
330
36
100
AcDbEntity
  8
0
 62
     3
100
AcDbText
 10
40.79756493353443
 20
-137.3016748436918
 30
0.0
 40
6.299999999999998
  1
LCL-4014W-HI
 41
0.6
  7
高6.3
100
AcDbText
  0
TEXT
  5
2A7
330
36
100
AcDbEntity
  8
0
 62
     3
100
AcDbText
 10
66.244847
 20
-98.19014000000001
 30
0.0
 40
4.5
  1
8244
  7
高4.5
100
AcDbText
  0
TEXT
  5
2BF
330
36
100
AcDbEntity
  8
0
 62
     3
100
AcDbText
 10
23.46953264338866
 20
-120.1386778328505
 30
0.0
 40
2.5
  1
-
 41
0.6
  7
高2.5
100
AcDbText
  0
TEXT
  5
FC4
330
36
100
AcDbEntity
  8
0
  6
Continuous
100
AcDbText
 10
82.29316131646214
 20
-117.3182101945936
 30
0.0
 40
4.5
  1
I
  7
高4.5
100
AcDbText
  0
TEXT
  5
1160
330
36
100
AcDbEntity
  8
0
 62
     3
100
AcDbText
 10
-6.821035387507888
 20
-120.1386778328505
 30
0.0
 40
2.5
  1
PC
  7
高2.5
100
AcDbText
  0
LINE
  5
17C3
330
36
100
AcDbEntity
  8
0
 62
     3
100
AcDbLine
 10
-52.91564798000013
 20
140.2874440999999
 30
0.0
 11
-52.47990006999998
 21
140.0599759599999
 31
0.0
  0
LINE
  5
17C4
330
36
100
AcDbEntity
  8
0
 62
     3
100
AcDbLine
 10
-52.91564798000013
 20
136.5568136199999
 30
0.0
 11
-52.47990006999998
 21
136.78428176
 31
0.0
  0
LINE
  5
17C5
330
36
100
AcDbEntity
  8
0
 62
     3
100
AcDbLine
 10
-52.47990006999998
 20
140.0599759599999
 30
0.0
 11
-52.47990006999998
 21
136.78428176
 31
0.0
  0
LINE
  5
17C6
330
36
100
AcDbEntity
  8
0
 62
     3
100
AcDbLine
 10
-51.3763826500001
 20
136.5568136199999
 30
0.0
 11
-51.81213056000024
 21
136.78428176
 31
0.0
  0
LINE
  5
17C7
330
36
100
AcDbEntity
  8
0
 62
     3
100
AcDbLine
 10
-51.81213056000024
 20
138.7811405699999
 30
0.0
 11
-51.81213056000024
 21
136.78428176
 31
0.0
  0
LINE
  5
17C8
330
36
100
AcDbEntity
  8
0
 62
     3
100
AcDbLine
 10
-48.83451987000011
 20
140.2874440999999
 30
0.0
 11
-49.27026778000004
 21
140.0599759599999
 31
0.0
  0
LINE
  5
17C9
330
36
100
AcDbEntity
  8
0
 62
     3
100
AcDbLine
 10
-50.37378520000014
 20
140.2874440999999
 30
0.0
 11
-49.93803729000001
 21
140.0599759599999
 31
0.0
  0
LINE
  5
17CA
330
36
100
AcDbEntity
  8
0
 62
     3
100
AcDbLine
 10
-49.93803729000001
 20
140.0599759599999
 30
0.0
 11
-49.93803729000001
 21
138.6176389
 31
0.0
  0
LINE
  5
17CB
330
36
100
AcDbEntity
  8
0
 62
     3
100
AcDbLine
 10
-49.27026778000004
 20
140.0599759599999
 30
0.0
 11
-49.27026778000004
 21
136.34525248
 31
0.0
  0
LINE
  5
17CC
330
36
100
AcDbEntity
  8
0
 62
     3
100
AcDbLine
 10
-48.61922267
 20
140.28744147
 30
0.0
 11
-48.18347633000008
 21
140.0599703299999
 31
0.0
  0
LINE
  5
17CD
330
36
100
AcDbEntity
  8
0
 62
     3
100
AcDbLine
 10
-48.6193006400001
 20
136.5568636
 30
0.0
 11
-48.18354479000003
 21
136.7843165199999
 31
0.0
  0
LINE
  5
17CE
330
36
100
AcDbEntity
  8
0
 62
     3
100
AcDbLine
 10
-48.18347633000008
 20
140.0599703299999
 30
0.0
 11
-48.18347633000008
 21
136.7843165199999
 31
0.0
  0
LINE
  5
17CF
330
36
100
AcDbEntity
  8
0
 62
     3
100
AcDbLine
 10
-46.68968627000004
 20
140.2874177999999
 30
0.0
 11
-47.12543735999997
 21
140.05995577
 31
0.0
  0
LINE
  5
17D0
330
36
100
AcDbEntity
  8
0
 62
     3
100
AcDbLine
 10
-47.12543735999997
 20
140.05995577
 30
0.0
 11
-47.12543735999997
 21
136.78430195
 31
0.0
  0
LINE
  5
17D1
330
36
100
AcDbEntity
  8
0
 62
     3
100
AcDbLine
 10
-46.68968627000004
 20
136.55683992
 30
0.0
 11
-47.12543735999997
 21
136.78430195
 31
0.0
  0
LINE
  5
17D2
330
36
100
AcDbEntity
  8
0
 62
     3
100
AcDbLine
 10
-42.99943283000015
 20
140.2873767999999
 30
0.0
 11
-42.56368571000007
 21
140.0599071599999
 31
0.0
  0
LINE
  5
17D3
330
36
100
AcDbEntity
  8
0
 62
     3
100
AcDbLine
 10
-42.56368571000007
 20
140.0599071599999
 30
0.0
 11
-42.56374288000006
 21
136.7842533499999
 31
0.0
  0
LINE
  5
17D4
330
36
100
AcDbEntity
  8
0
 62
     3
100
AcDbLine
 10
-42.99949794000006
 20
136.55679892
 30
0.0
 11
-42.56374288000006
 21
136.7842533499999
 31
0.0
  0
LINE
  5
17D5
330
36
100
AcDbEntity
  8
0
 62
     3
100
AcDbLine
 10
-41.04717187000003
 20
140.2873767999999
 30
0.0
 11
-41.48291899000013
 21
140.0599071599999
 31
0.0
  0
LINE
  5
17D6
330
36
100
AcDbEntity
  8
0
 62
     3
100
AcDbLine
 10
-41.04710676000013
 20
136.55679892
 30
0.0
 11
-41.48286182000012
 21
136.7842533499999
 31
0.0
  0
LINE
  5
17D7
330
36
100
AcDbEntity
  8
0
 62
     3
100
AcDbLine
 10
-40.84344400999998
 20
140.2873767999999
 30
0.0
 11
-40.40769688
 21
140.0599071599999
 31
0.0
  0
LINE
  5
17D8
330
36
100
AcDbEntity
  8
0
 62
     3
100
AcDbLine
 10
-40.84350912000013
 20
136.55679892
 30
0.0
 11
-40.40775406000011
 21
136.7842533499999
 31
0.0
  0
LINE
  5
17D9
330
36
100
AcDbEntity
  8
0
 62
     3
100
AcDbLine
 10
-38.89118304000021
 20
140.2873767999999
 30
0.0
 11
-39.32693016000007
 21
140.0599071599999
 31
0.0
  0
LINE
  5
17DA
330
36
100
AcDbEntity
  8
0
 62
     3
100
AcDbLine
 10
-39.32693016000007
 20
140.0599071599999
 30
0.0
 11
-39.32687299000008
 21
136.7842533499999
 31
0.0
  0
LINE
  5
17DB
330
36
100
AcDbEntity
  8
0
 62
     3
100
AcDbLine
 10
-38.89111793000007
 20
136.55679892
 30
0.0
 11
-39.32687299000008
 21
136.7842533499999
 31
0.0
  0
LINE
  5
17DC
330
36
100
AcDbEntity
  8
0
 62
     3
100
AcDbLine
 10
-40.40772179000009
 20
138.6327740399999
 30
0.0
 11
-41.48289408000005
 21
138.6327740399999
 31
0.0
  0
LINE
  5
17DD
330
36
100
AcDbEntity
  8
0
 62
     3
100
AcDbLine
 10
-40.40772915000025
 20
138.21148368
 30
0.0
 11
-41.48288673000024
 21
138.21148368
 31
0.0
  0
LINE
  5
17DE
330
36
100
AcDbEntity
  8
0
 62
     3
100
AcDbLine
 10
-40.40769688
 20
140.0599071599999
 30
0.0
 11
-40.40772179000009
 21
138.6327740399999
 31
0.0
  0
LINE
  5
17DF
330
36
100
AcDbEntity
  8
0
 62
     3
100
AcDbLine
 10
-40.40772915000025
 20
138.21148368
 30
0.0
 11
-40.40775406000011
 21
136.7842533499999
 31
0.0
  0
LINE
  5
17E0
330
36
100
AcDbEntity
  8
0
 62
     3
100
AcDbLine
 10
-41.48291899000013
 20
140.0599071599999
 30
0.0
 11
-41.48289408000005
 21
138.6327740399999
 31
0.0
  0
LINE
  5
17E1
330
36
100
AcDbEntity
  8
0
 62
     3
100
AcDbLine
 10
-41.48288673000024
 20
138.21148368
 30
0.0
 11
-41.48286182000012
 21
136.7842533499999
 31
0.0
  0
LINE
  5
17E2
330
36
100
AcDbEntity
  8
0
 62
     3
100
AcDbLine
 10
-38.68422392000002
 20
140.2873767999999
 30
0.0
 11
-38.24847680000015
 21
140.0599071599999
 31
0.0
  0
LINE
  5
17E3
330
36
100
AcDbEntity
  8
0
 62
     3
100
AcDbLine
 10
-38.24847680000015
 20
140.0599071599999
 30
0.0
 11
-38.24853397000016
 21
136.7842533499999
 31
0.0
  0
LINE
  5
17E4
330
36
100
AcDbEntity
  8
0
 62
     3
100
AcDbLine
 10
-38.68428903000017
 20
136.55679892
 30
0.0
 11
-38.24853397000016
 21
136.7842533499999
 31
0.0
  0
LINE
  5
17E5
330
36
100
AcDbEntity
  8
0
 62
     3
100
AcDbLine
 10
-36.75471365000021
 20
140.2873767999999
 30
0.0
 11
-37.19046077000007
 21
140.0599071599999
 31
0.0
  0
LINE
  5
17E6
330
36
100
AcDbEntity
  8
0
 62
     3
100
AcDbLine
 10
-37.19046077000007
 20
140.0599071599999
 30
0.0
 11
-37.19040360000008
 21
136.7842533499999
 31
0.0
  0
LINE
  5
17E7
330
36
100
AcDbEntity
  8
0
 62
     3
100
AcDbLine
 10
-36.75464854000006
 20
136.55679892
 30
0.0
 11
-37.19040360000008
 21
136.7842533499999
 31
0.0
  0
LINE
  5
17E8
330
36
100
AcDbEntity
  8
0
 62
     3
100
AcDbLine
 10
-36.54035408000004
 20
140.2873767999999
 30
0.0
 11
-36.10460696000018
 21
140.0599071599999
 31
0.0
  0
LINE
  5
17E9
330
36
100
AcDbEntity
  8
0
 62
     3
100
AcDbLine
 10
-36.10460696000018
 20
140.0599071599999
 30
0.0
 11
-36.10466413000017
 21
136.7842533499999
 31
0.0
  0
LINE
  5
17EA
330
36
100
AcDbEntity
  8
0
 62
     3
100
AcDbLine
 10
-36.54041919000019
 20
136.55679892
 30
0.0
 11
-36.10466413000017
 21
136.7842533499999
 31
0.0
  0
ARC
  5
17EB
330
36
100
AcDbEntity
  8
0
 62
     3
100
AcDbCircle
 10
-44.39134409999996
 20
138.43151862
 30
0.0
 40
2.086285909999999
100
AcDbArc
 50
97.70152350999763
 51
270.0
  0
ARC
  5
17EC
330
36
100
AcDbEntity
  8
0
 62
     3
100
AcDbCircle
 10
-31.51074326000026
 20
138.41056199
 30
0.0
 40
2.108943379999999
100
AcDbArc
 50
0.3142502700074235
 51
69.00558244999094
  0
ARC
  5
17ED
330
36
100
AcDbEntity
  8
0
 62
     3
100
AcDbCircle
 10
-31.05006794000019
 20
138.41056199
 30
0.0
 40
2.108943379999999
100
AcDbArc
 50
110.9944175499969
 51
148.1166110200025
  0
ARC
  5
17EE
330
36
100
AcDbEntity
  8
0
 62
     3
100
AcDbCircle
 10
-31.51074326000026
 20
138.4336957299999
 30
0.0
 40
2.108943379999999
100
AcDbArc
 50
290.9944175499969
 51
359.6857497299926
  0
ARC
  5
17EF
330
36
100
AcDbEntity
  8
0
 62
     3
100
AcDbCircle
 10
-31.05006794000019
 20
138.4336957299999
 30
0.0
 40
2.108943379999999
100
AcDbArc
 50
211.8833889799973
 51
249.0055824499891
  0
ARC
  5
17F0
330
36
100
AcDbEntity
  8
0
 62
     3
100
AcDbCircle
 10
-31.2804056
 20
139.28493425
 30
0.0
 40
1.214070989999997
100
AcDbArc
 50
64.36517190000066
 51
115.6348280999993
  0
ARC
  5
17F1
330
36
100
AcDbEntity
  8
0
 62
     3
100
AcDbCircle
 10
-31.2804056
 20
137.55932347
 30
0.0
 40
1.214070989999997
100
AcDbArc
 50
244.3651719000007
 51
295.6348280999993
  0
ARC
  5
17F2
330
36
100
AcDbEntity
  8
0
 62
     3
100
AcDbCircle
 10
-31.2804056
 20
139.30799593
 30
0.0
 40
0.59585563
100
AcDbArc
 50
19.48660554000628
 51
160.5133944599935
  0
ARC
  5
17F3
330
36
100
AcDbEntity
  8
0
 62
     3
100
AcDbCircle
 10
-31.2804056
 20
137.55932347
 30
0.0
 40
1.214070989999997
100
AcDbArc
 50
244.3651719000007
 51
295.6348280999993
  0
ARC
  5
17F4
330
36
100
AcDbEntity
  8
0
 62
     3
100
AcDbCircle
 10
-31.2804056
 20
137.53626179
 30
0.0
 40
0.59585563
100
AcDbArc
 50
199.4866055400053
 51
340.5133944599937
  0
ARC
  5
17F5
330
36
100
AcDbEntity
  8
0
 62
     3
100
AcDbCircle
 10
-36.02287810000007
 20
116.19406902
 30
0.0
 40
26.04
100
AcDbArc
 50
69.50571480000886
 51
81.68998806999658
  0
ARC
  5
17F6
330
36
100
AcDbEntity
  8
0
 62
     3
100
AcDbCircle
 10
-36.02287810000007
 20
160.6501886999999
 30
0.0
 40
26.04
100
AcDbArc
 50
278.3100119300026
 51
290.4942851999912
  0
ARC
  5
17F7
330
36
100
AcDbEntity
  8
0
 62
     3
100
AcDbCircle
 10
-27.71467397000015
 20
138.4221288599999
 30
0.0
 40
2.31
100
AcDbArc
 50
290.4942851999912
 51
69.50571480000886
  0
ARC
  5
17F8
330
36
100
AcDbEntity
  8
0
 62
     3
100
AcDbCircle
 10
-55.0146739700001
 20
138.4221288599999
 30
0.0
 40
2.31
100
AcDbArc
 50
110.4942851999907
 51
249.5057147999946
  0
ARC
  5
17F9
330
36
100
AcDbEntity
  8
0
 62
     3
100
AcDbCircle
 10
-46.70646985000007
 20
116.19406902
 30
0.0
 40
26.04
100
AcDbArc
 50
98.31001192998868
 51
110.4942851999907
  0
ARC
  5
17FA
330
36
100
AcDbEntity
  8
0
 62
     3
100
AcDbCircle
 10
-46.70646985000007
 20
160.6501886999999
 30
0.0
 40
26.04
100
AcDbArc
 50
249.5057147999946
 51
261.6899880699974
  0
ARC
  5
17FB
330
36
100
AcDbEntity
  8
0
 62
     3
100
AcDbCircle
 10
-41.36467397000024
 20
79.62212885999997
 30
0.0
 40
62.99999987
100
AcDbArc
 50
81.68998806999658
 51
98.31001192998868
  0
ARC
  5
17FC
330
36
100
AcDbEntity
  8
0
 62
     3
100
AcDbCircle
 10
-41.36467397000024
 20
197.22212886
 30
0.0
 40
62.99999987
100
AcDbArc
 50
261.6899880699974
 51
278.3100119300026
  0
ARC
  5
17FD
330
36
100
AcDbEntity
  8
0
 62
     3
100
AcDbCircle
 10
-41.36467397000024
 20
79.62212885999997
 30
0.0
 40
62.36999987
100
AcDbArc
 50
81.68998806999658
 51
98.31001192998868
  0
ARC
  5
17FE
330
36
100
AcDbEntity
  8
0
 62
     3
100
AcDbCircle
 10
-41.36467397000024
 20
197.22212886
 30
0.0
 40
62.36999987
100
AcDbArc
 50
261.6899880699974
 51
278.3100119300026
  0
ARC
  5
17FF
330
36
100
AcDbEntity
  8
0
 62
     3
100
AcDbCircle
 10
-36.02287810000007
 20
160.6501886999999
 30
0.0
 40
25.41
100
AcDbArc
 50
278.3100119300026
 51
290.4942851999912
  0
ARC
  5
1800
330
36
100
AcDbEntity
  8
0
 62
     3
100
AcDbCircle
 10
-36.02287810000007
 20
116.19406902
 30
0.0
 40
25.41
100
AcDbArc
 50
69.50571480000886
 51
81.68998806999658
  0
ARC
  5
1801
330
36
100
AcDbEntity
  8
0
 62
     3
100
AcDbCircle
 10
-27.71467397000015
 20
138.4221288599999
 30
0.0
 40
1.679999999999999
100
AcDbArc
 50
290.4942851999912
 51
69.50571480000886
  0
ARC
  5
1802
330
36
100
AcDbEntity
  8
0
 62
     3
100
AcDbCircle
 10
-55.0146739700001
 20
138.4221288599999
 30
0.0
 40
1.679999999999999
100
AcDbArc
 50
110.4942851999907
 51
249.5057147999946
  0
ARC
  5
1803
330
36
100
AcDbEntity
  8
0
 62
     3
100
AcDbCircle
 10
-46.70646985000007
 20
116.19406902
 30
0.0
 40
25.41
100
AcDbArc
 50
98.31001192998868
 51
110.4942851999907
  0
ARC
  5
1804
330
36
100
AcDbEntity
  8
0
 62
     3
100
AcDbCircle
 10
-46.70646985000007
 20
160.6501886999999
 30
0.0
 40
25.41
100
AcDbArc
 50
249.5057147999946
 51
261.6899880699974
  0
LINE
  5
1805
330
36
100
AcDbEntity
  8
0
 62
     3
100
AcDbLine
 10
-36.75471287000005
 20
136.34525248
 30
0.0
 11
-38.68422470000019
 21
136.34525248
 31
0.0
  0
LINE
  5
1806
330
36
100
AcDbEntity
  8
0
 62
     3
100
AcDbLine
 10
-36.75471287000005
 20
136.5568136199999
 30
0.0
 11
-36.75471287000005
 21
136.34525248
 31
0.0
  0
LINE
  5
1807
330
36
100
AcDbEntity
  8
0
 62
     3
100
AcDbLine
 10
-38.89118226000005
 20
140.49890652
 30
0.0
 11
-40.84344479000015
 21
140.49890652
 31
0.0
  0
LINE
  5
1808
330
36
100
AcDbEntity
  8
0
 62
     3
100
AcDbLine
 10
-38.89118226000005
 20
140.49890652
 30
0.0
 11
-38.89118226000005
 21
140.2874440999999
 31
0.0
  0
LINE
  5
1809
330
36
100
AcDbEntity
  8
0
 62
     3
100
AcDbLine
 10
-38.89118226000005
 20
136.5568136199999
 30
0.0
 11
-38.89118226000005
 21
136.34515377
 31
0.0
  0
LINE
  5
180A
330
36
100
AcDbEntity
  8
0
 62
     3
100
AcDbLine
 10
-38.89118226000005
 20
136.34515377
 30
0.0
 11
-40.84344479000015
 21
136.34515377
 31
0.0
  0
LINE
  5
180B
330
36
100
AcDbEntity
  8
0
 62
     3
100
AcDbLine
 10
-36.75471287000005
 20
140.49900524
 30
0.0
 11
-36.75471287000005
 21
140.2874440999999
 31
0.0
  0
LINE
  5
180C
330
36
100
AcDbEntity
  8
0
 62
     3
100
AcDbLine
 10
-36.75471287000005
 20
140.49900524
 30
0.0
 11
-38.68422470000019
 21
140.49900524
 31
0.0
  0
LINE
  5
180D
330
36
100
AcDbEntity
  8
0
 62
     3
100
AcDbLine
 10
-38.68422470000019
 20
140.49900524
 30
0.0
 11
-38.68422470000019
 21
140.2874440999999
 31
0.0
  0
LINE
  5
180E
330
36
100
AcDbEntity
  8
0
 62
     3
100
AcDbLine
 10
-36.5403548700001
 20
136.5568136199999
 30
0.0
 11
-36.5403548700001
 21
136.34525248
 31
0.0
  0
LINE
  5
180F
330
36
100
AcDbEntity
  8
0
 62
     3
100
AcDbLine
 10
-34.55605431000004
 20
136.34525248
 30
0.0
 11
-36.5403548700001
 21
136.34525248
 31
0.0
  0
LINE
  5
1810
330
36
100
AcDbEntity
  8
0
 62
     3
100
AcDbLine
 10
-35.04659093999999
 20
139.83123572
 30
0.0
 11
-35.04659093999999
 21
137.013022
 31
0.0
  0
LINE
  5
1811
330
36
100
AcDbEntity
  8
0
 62
     3
100
AcDbLine
 10
-35.04659093999999
 20
137.013022
 30
0.0
 11
-34.85654197000008
 21
137.013022
 31
0.0
  0
ARC
  5
1812
330
36
100
AcDbEntity
  8
0
 62
     3
100
AcDbCircle
 10
-35.82832771000017
 20
138.4221288599999
 30
0.0
 40
1.71170957
100
AcDbArc
 50
304.5919552700034
 51
55.40804472999656
  0
LINE
  5
1813
330
36
100
AcDbEntity
  8
0
 62
     3
100
AcDbLine
 10
-34.55605431000004
 20
140.49900524
 30
0.0
 11
-36.5403548700001
 21
140.49900524
 31
0.0
  0
LINE
  5
1814
330
36
100
AcDbEntity
  8
0
 62
     3
100
AcDbLine
 10
-36.5403548700001
 20
140.49900524
 30
0.0
 11
-36.5403548700001
 21
140.2874440999999
 31
0.0
  0
LINE
  5
1815
330
36
100
AcDbEntity
  8
0
 62
     3
100
AcDbLine
 10
-38.68422470000019
 20
136.5568136199999
 30
0.0
 11
-38.68422470000019
 21
136.34525248
 31
0.0
  0
LINE
  5
1816
330
36
100
AcDbEntity
  8
0
 62
     3
100
AcDbLine
 10
-35.04659093999999
 20
139.83123572
 30
0.0
 11
-34.85654197000008
 21
139.83123572
 31
0.0
  0
LINE
  5
1817
330
36
100
AcDbEntity
  8
0
 62
     3
100
AcDbLine
 10
-46.68975060000001
 20
136.5568136199999
 30
0.0
 11
-46.6897542900001
 21
136.34523271
 31
0.0
  0
LINE
  5
1818
330
36
100
AcDbEntity
  8
0
 62
     3
100
AcDbLine
 10
-48.61926613000014
 20
136.34527225
 30
0.0
 11
-46.6897542900001
 21
136.34523858
 31
0.0
  0
LINE
  5
1819
330
36
100
AcDbEntity
  8
0
 62
     3
100
AcDbLine
 10
-52.91564798000013
 20
136.34525248
 30
0.0
 11
-51.3763826500001
 21
136.34525248
 31
0.0
  0
ARC
  5
181A
330
36
100
AcDbEntity
  8
0
 62
     3
100
AcDbCircle
 10
-57.8975906600001
 20
138.4710354799999
 30
0.0
 40
14.71356563
100
AcDbArc
 50
353.8660061899952
 51
357.6940342600066
  0
LINE
  5
181B
330
36
100
AcDbEntity
  8
0
 62
     3
100
AcDbLine
 10
-44.18101079999996
 20
137.8826678299999
 30
0.0
 11
-43.19593991000011
 21
137.87902295
 31
0.0
  0
LINE
  5
181D
330
36
100
AcDbEntity
  8
0
 62
     3
100
AcDbLine
 10
-44.17703238000011
 20
138.95788257
 30
0.0
 11
-43.19196150000015
 21
138.9542377
 31
0.0
  0
ARC
  5
181E
330
36
100
AcDbEntity
  8
0
 62
     3
100
AcDbCircle
 10
-57.8975906600001
 20
138.4710354799999
 30
0.0
 40
14.71356563
100
AcDbArc
 50
1.881965739991514
 51
5.709993809994633
  0
LINE
  5
181F
330
36
100
AcDbEntity
  8
0
 62
     3
100
AcDbLine
 10
-46.68968180000002
 20
140.49898547
 30
0.0
 11
-46.6896854900001
 21
140.2874440999999
 31
0.0
  0
LINE
  5
1820
330
36
100
AcDbEntity
  8
0
 62
     3
100
AcDbLine
 10
-48.61919363000016
 20
140.49902501
 30
0.0
 11
-46.68968180000002
 21
140.4989913299999
 31
0.0
  0
LINE
  5
1821
330
36
100
AcDbEntity
  8
0
 62
     3
100
AcDbLine
 10
-48.61926244000006
 20
136.5568136199999
 30
0.0
 11
-48.61926613000014
 21
136.34527225
 31
0.0
  0
LINE
  5
1822
330
36
100
AcDbEntity
  8
0
 62
     3
100
AcDbLine
 10
-48.61919363000016
 20
140.49902501
 30
0.0
 11
-48.61919732000024
 21
140.2874440999999
 31
0.0
  0
LINE
  5
1823
330
36
100
AcDbEntity
  8
0
 62
     3
100
AcDbLine
 10
-51.3763826500001
 20
136.5568136199999
 30
0.0
 11
-51.3763826500001
 21
136.34525248
 31
0.0
  0
LINE
  5
1824
330
36
100
AcDbEntity
  8
0
 62
     3
100
AcDbLine
 10
-51.81213056000024
 20
138.7811405699999
 30
0.0
 11
-50.28970049999998
 21
136.34525248
 31
0.0
  0
LINE
  5
1825
330
36
100
AcDbEntity
  8
0
 62
     3
100
AcDbLine
 10
-50.28970049999998
 20
136.34525248
 30
0.0
 11
-49.27026778000004
 21
136.34525248
 31
0.0
  0
LINE
  5
1826
330
36
100
AcDbEntity
  8
0
 62
     3
100
AcDbLine
 10
-48.83451987000011
 20
140.49900524
 30
0.0
 11
-48.83451987000011
 21
140.2874440999999
 31
0.0
  0
LINE
  5
1827
330
36
100
AcDbEntity
  8
0
 62
     3
100
AcDbLine
 10
-50.37378520000014
 20
140.49900524
 30
0.0
 11
-48.83451987000011
 21
140.49900524
 31
0.0
  0
LINE
  5
1828
330
36
100
AcDbEntity
  8
0
 62
     3
100
AcDbLine
 10
-50.37378520000014
 20
140.49900524
 30
0.0
 11
-50.37378520000014
 21
140.2874440999999
 31
0.0
  0
LINE
  5
1829
330
36
100
AcDbEntity
  8
0
 62
     3
100
AcDbLine
 10
-49.93803729000001
 20
138.6176389
 30
0.0
 11
-51.17268396000008
 21
140.49900524
 31
0.0
  0
LINE
  5
182A
330
36
100
AcDbEntity
  8
0
 62
     3
100
AcDbLine
 10
-52.91564798000013
 20
140.49900524
 30
0.0
 11
-51.17268396000008
 21
140.49900524
 31
0.0
  0
LINE
  5
182B
330
36
100
AcDbEntity
  8
0
 62
     3
100
AcDbLine
 10
-42.9994336200002
 20
140.49890652
 30
0.0
 11
-41.04717108000023
 21
140.49890652
 31
0.0
  0
LINE
  5
182C
330
36
100
AcDbEntity
  8
0
 62
     3
100
AcDbLine
 10
-42.9994336200002
 20
140.2874440999999
 30
0.0
 11
-42.9994336200002
 21
140.49890652
 31
0.0
  0
LINE
  5
182D
330
36
100
AcDbEntity
  8
0
 62
     3
100
AcDbLine
 10
-42.9994336200002
 20
136.34515377
 30
0.0
 11
-42.9994336200002
 21
136.5568136199999
 31
0.0
  0
LINE
  5
182E
330
36
100
AcDbEntity
  8
0
 62
     3
100
AcDbLine
 10
-42.9994336200002
 20
136.34515377
 30
0.0
 11
-41.04717108000023
 21
136.34515377
 31
0.0
  0
LINE
  5
182F
330
36
100
AcDbEntity
  8
0
 62
     3
100
AcDbLine
 10
-40.84344479000015
 20
136.5568136199999
 30
0.0
 11
-40.84344479000015
 21
136.34515377
 31
0.0
  0
LINE
  5
1830
330
36
100
AcDbEntity
  8
0
 62
     3
100
AcDbLine
 10
-41.04717108000023
 20
136.5568136199999
 30
0.0
 11
-41.04717108000023
 21
136.34515377
 31
0.0
  0
LINE
  5
1831
330
36
100
AcDbEntity
  8
0
 62
     3
100
AcDbLine
 10
-41.04717108000023
 20
140.2874440999999
 30
0.0
 11
-41.04717108000023
 21
140.49890652
 31
0.0
  0
LINE
  5
1832
330
36
100
AcDbEntity
  8
0
 62
     3
100
AcDbLine
 10
-40.84344479000015
 20
140.2874440999999
 30
0.0
 11
-40.84344479000015
 21
140.49890652
 31
0.0
  0
LINE
  5
1833
330
36
100
AcDbEntity
  8
0
 62
     3
100
AcDbLine
 10
-52.91564798000013
 20
136.5568136199999
 30
0.0
 11
-52.91564798000013
 21
136.34525248
 31
0.0
  0
LINE
  5
1834
330
36
100
AcDbEntity
  8
0
 62
     3
100
AcDbLine
 10
-52.91564798000013
 20
140.49900524
 30
0.0
 11
-52.91564798000013
 21
140.2874440999999
 31
0.0
  0
ARC
  5
1835
330
36
100
AcDbEntity
  8
0
 62
     3
100
AcDbCircle
 10
-34.34605431
 20
138.8578767699999
 30
0.0
 40
1.641128469999999
100
AcDbArc
 50
17.30874897999775
 51
23.76507095999313
  0
ARC
  5
1836
330
36
100
AcDbEntity
  8
0
 62
     3
100
AcDbCircle
 10
-35.74432771000011
 20
138.4221288599999
 30
0.0
 40
3.105725599999998
100
AcDbArc
 50
342.6912510200022
 51
17.30856643999535
  0
ARC
  5
1837
330
36
100
AcDbEntity
  8
0
 62
     3
100
AcDbCircle
 10
-34.34605431
 20
137.98638096
 30
0.0
 40
1.641128469999999
100
AcDbArc
 50
336.2349290400069
 51
342.6912510200022
  0
ARC
  5
1838
330
36
100
AcDbEntity
  8
0
 62
     3
100
AcDbCircle
 10
-34.55605431000004
 20
138.8578767699999
 30
0.0
 40
1.641128469999999
100
AcDbArc
 50
17.30874897999775
 51
90.0
  0
ARC
  5
1839
330
36
100
AcDbEntity
  8
0
 62
     3
100
AcDbCircle
 10
-35.95432771000015
 20
138.4221288599999
 30
0.0
 40
3.105725599999998
100
AcDbArc
 50
342.6912510200022
 51
17.30856643999535
  0
ARC
  5
183A
330
36
100
AcDbEntity
  8
0
 62
     3
100
AcDbCircle
 10
-34.55605431000004
 20
137.98638096
 30
0.0
 40
1.641128469999999
100
AcDbArc
 50
270.0
 51
342.6912510200022
  0
ARC
  5
183B
330
36
100
AcDbEntity
  8
0
 62
     3
100
AcDbCircle
 10
-44.67999468000015
 20
138.4221288599999
 30
0.0
 40
2.076876379999998
100
AcDbArc
 50
46.75287960999258
 51
89.74999828999569
  0
ARC
  5
183C
330
36
100
AcDbEntity
  8
0
 62
     3
100
AcDbCircle
 10
-44.67999468000015
 20
138.4221288599999
 30
0.0
 40
2.076876379999998
100
AcDbArc
 50
273.976333149997
 51
312.8231203899972
  0
ARC
  5
183D
330
36
100
AcDbEntity
  8
0
 62
     3
100
AcDbCircle
 10
-33.23818674000018
 20
138.3900673299999
 30
0.0
 40
2.755888999999998
100
AcDbArc
 50
0.6665840599916574
 51
23.90392827000086
  0
ARC
  5
183E
330
36
100
AcDbEntity
  8
0
 62
     3
100
AcDbCircle
 10
-29.32262446000004
 20
138.3900673299999
 30
0.0
 40
2.755888999999998
100
AcDbArc
 50
156.096071729999
 51
179.3334159400083
  0
ARC
  5
183F
330
36
100
AcDbEntity
  8
0
 62
     3
100
AcDbCircle
 10
-33.23818674000018
 20
138.45419039
 30
0.0
 40
2.755888999999998
100
AcDbArc
 50
336.0960717299992
 51
359.3334159400084
  0
ARC
  5
1840
330
36
100
AcDbEntity
  8
0
 62
     3
100
AcDbCircle
 10
-29.32262446000004
 20
138.45419039
 30
0.0
 40
2.755888999999998
100
AcDbArc
 50
180.6665840599917
 51
203.903928270001
  0
LINE
  5
1841
330
36
100
AcDbEntity
  8
0
 62
     3
100
AcDbLine
 10
-24.67233737000015
 20
138.5
 30
0.0
 11
90.0
 21
138.5
 31
0.0
  0
LINE
  5
1842
330
36
100
AcDbEntity
  8
0
 62
     3
100
AcDbLine
 10
-58.08508389000007
 20
138.5
 30
0.0
 11
-90.0
 21
138.5
 31
0.0
  0
TEXT
  5
1843
330
36
100
AcDbEntity
  8
0
 62
     3
100
AcDbText
 10
77.5
 20
129.0
 30
0.0
 40
3.2
  1
担　当
  7
高3.2
100
AcDbText
  0
TEXT
  5
1844
330
36
100
AcDbEntity
  8
0
 62
     3
100
AcDbText
 10
33.5
 20
129.0
 30
0.0
 40
3.2
  1
変更・追記内容
  7
高3.2
100
AcDbText
  0
TEXT
  5
1845
330
36
100
AcDbEntity
  8
0
 62
     3
100
AcDbText
 10
8.613515000339246
 20
124.3294614900917
 30
0.0
 40
2.0
  1
1
  7
高2
100
AcDbText
  0
TEXT
  5
1846
330
36
100
AcDbEntity
  8
0
 62
     3
100
AcDbText
 10
8.305003523581945
 20
119.1596447778188
 30
0.0
 40
2.0
  1
2
  7
高2
100
AcDbText
  0
TEXT
  5
1847
330
36
100
AcDbEntity
  8
0
 62
     3
100
AcDbText
 10
15.5
 20
129.0
 30
0.0
 40
3.2
  1
日　付
  7
高3.2
100
AcDbText
  0
TEXT
  5
1848
330
36
100
AcDbEntity
  8
0
 62
     3
100
AcDbText
 10
15.5
 20
134.0
 30
0.0
 40
3.2
  1
図　　　　面　　　　略　　　　歴
  7
高3.2
100
AcDbText
  0
TEXT
  5
1849
330
36
100
AcDbEntity
  8
0
 62
     3
100
AcDbText
 10
5.5
 20
129.0
 30
0.0
 40
3.2
  1
記号
  7
高3.2
100
AcDbText
  0
LINE
  5
184A
330
36
100
AcDbEntity
  8
0
 62
     7
100
AcDbLine
 10
9.0
 20
122.2908960000001
 30
0.0
 11
7.099999999999909
 21
119.0
 31
0.0
  0
LINE
  5
184B
330
36
100
AcDbEntity
  8
0
 62
     7
100
AcDbLine
 10
9.0
 20
122.2908960000001
 30
0.0
 11
10.89999999999986
 21
119.0
 31
0.0
  0
LINE
  5
184C
330
36
100
AcDbEntity
  8
0
 62
     7
100
AcDbLine
 10
7.099999999999909
 20
119.0
 30
0.0
 11
10.89999999999986
 21
119.0
 31
0.0
  0
LINE
  5
184D
330
36
100
AcDbEntity
  8
0
 62
     7
100
AcDbLine
 10
9.0
 20
127.2908970000001
 30
0.0
 11
7.099999999999909
 21
124.0
 31
0.0
  0
LINE
  5
184E
330
36
100
AcDbEntity
  8
0
 62
     7
100
AcDbLine
 10
9.0
 20
127.2908970000001
 30
0.0
 11
10.89999999999986
 21
124.0
 31
0.0
  0
LINE
  5
184F
330
36
100
AcDbEntity
  8
0
 62
     7
100
AcDbLine
 10
7.099999999999909
 20
124.0
 30
0.0
 11
10.89999999999986
 21
124.0
 31
0.0
  0
LINE
  5
1850
330
36
100
AcDbEntity
  8
0
 62
     3
100
AcDbLine
 10
4.0
 20
133.5
 30
0.0
 11
90.0
 21
133.5
 31
0.0
  0
LINE
  5
1851
330
36
100
AcDbEntity
  8
0
 62
     3
100
AcDbLine
 10
4.0
 20
128.5
 30
0.0
 11
90.0
 21
128.5
 31
0.0
  0
LINE
  5
1852
330
36
100
AcDbEntity
  8
0
 62
     7
100
AcDbLine
 10
4.0
 20
123.5
 30
0.0
 11
90.0
 21
123.5
 31
0.0
  0
LINE
  5
1853
330
36
100
AcDbEntity
  8
0
 62
     3
100
AcDbLine
 10
4.0
 20
118.5
 30
0.0
 11
90.0
 21
118.5
 31
0.0
  0
LINE
  5
1854
330
36
100
AcDbEntity
  8
0
 62
     7
100
AcDbLine
 10
76.0
 20
118.5
 30
0.0
 11
76.0
 21
133.5
 31
0.0
  0
LINE
  5
1855
330
36
100
AcDbEntity
  8
0
 62
     7
100
AcDbLine
 10
32.0
 20
118.5
 30
0.0
 11
32.0
 21
133.5
 31
0.0
  0
LINE
  5
1856
330
36
100
AcDbEntity
  8
0
 62
     7
100
AcDbLine
 10
14.0
 20
118.5
 30
0.0
 11
14.0
 21
133.5
 31
0.0
  0
LINE
  5
1857
330
36
100
AcDbEntity
  8
0
 62
     3
100
AcDbLine
 10
4.0
 20
118.5
 30
0.0
 11
4.0
 21
138.5
 31
0.0
  0
LINE
  5
1BBE
330
36
100
AcDbEntity
  8
0
  6
Continuous
 62
     3
100
AcDbLine
 10
35.1164283769142
 20
66.5764458849861
 30
0.0
 11
35.1164283769142
 21
78.87644588498611
 31
0.0
  0
CIRCLE
  5
1BE5
330
36
100
AcDbEntity
  8
0
  6
Continuous
 62
     3
100
AcDbCircle
 10
68.68765139121659
 20
72.72644588498611
 30
0.0
 40
6.400000000000005
  0
CIRCLE
  5
1BE6
330
36
100
AcDbEntity
  8
0
  6
Continuous
 62
     3
100
AcDbCircle
 10
68.68765139121659
 20
72.72644588498611
 30
0.0
 40
7.0
  0
CIRCLE
  5
1CBF
330
36
100
AcDbEntity
  8
0
  6
Continuous
 62
     7
100
AcDbCircle
 10
65.51265139121674
 20
72.72644588498611
 30
0.0
 40
0.5925000000000001
  0
LINE
  5
1ED4
330
36
100
AcDbEntity
  8
0
  6
CENTER
 62
     7
100
AcDbLine
 10
-84.76816441825167
 20
38.31732579885989
 30
0.0
 11
42.6012486996808
 21
38.31732579885989
 31
0.0
  0
LINE
  5
1ED5
330
36
100
AcDbEntity
  8
0
  6
CENTER
 62
     7
100
AcDbLine
 10
-84.76816441825167
 20
72.72644588498611
 30
0.0
 11
42.60124869968078
 21
72.72644588498611
 31
0.0
  0
ARC
  5
1ED8
330
36
100
AcDbEntity
  8
0
  6
Continuous
100
AcDbCircle
 10
-0.6244097488713101
 20
43.22529420214578
 30
0.0
 40
20.56010805351166
100
AcDbArc
 50
162.1331383693704
 51
197.8668616306296
  0
ARC
  5
1ED9
330
36
100
AcDbEntity
  8
0
  6
Continuous
100
AcDbCircle
 10
-33.67386937825252
 20
31.16455098853669
 30
0.0
 40
14.65707119556047
100
AcDbArc
 50
336.8903875550897
 51
23.1096124449137
  0
ARC
  5
1EDA
330
36
100
AcDbEntity
  8
0
  6
Continuous
100
AcDbCircle
 10
-5.125183215968441
 20
43.22529420214578
 30
0.0
 40
20.56010805351166
100
AcDbArc
 50
162.1331383693704
 51
197.8668616306296
  0
ARC
  5
1EDB
330
36
100
AcDbEntity
  8
0
  6
Continuous
100
AcDbCircle
 10
-38.17464284534965
 20
31.16455098853669
 30
0.0
 40
14.65707119556047
100
AcDbArc
 50
336.8903875550897
 51
23.1096124449137
  0
ARC
  5
1EDC
330
36
100
AcDbEntity
  8
0
  6
Continuous
100
AcDbCircle
 10
-0.6244097488713101
 20
77.63441428827201
 30
0.0
 40
20.56010805351166
100
AcDbArc
 50
162.1331383693704
 51
197.8668616306296
  0
ARC
  5
1EDD
330
36
100
AcDbEntity
  8
0
  6
Continuous
100
AcDbCircle
 10
-33.67386937825252
 20
65.57367107466291
 30
0.0
 40
14.65707119556047
100
AcDbArc
 50
336.8903875550897
 51
23.1096124449137
  0
ARC
  5
1EDE
330
36
100
AcDbEntity
  8
0
  6
Continuous
100
AcDbCircle
 10
-5.125183215968441
 20
77.63441428827201
 30
0.0
 40
20.56010805351166
100
AcDbArc
 50
162.1331383693704
 51
197.8668616306296
  0
ARC
  5
1EDF
330
36
100
AcDbEntity
  8
0
  6
Continuous
100
AcDbCircle
 10
-38.17464284534965
 20
65.57367107466291
 30
0.0
 40
14.65707119556047
100
AcDbArc
 50
336.8903875550897
 51
23.1096124449137
  0
LINE
  5
2102
330
36
100
AcDbEntity
  8
0
 62
     7
100
AcDbLine
 10
-41.17312420835892
 20
-67.16467238725977
 30
0.0
 11
16.80114674116952
 21
-67.16467238725977
 31
0.0
  0
LINE
  5
2103
330
36
100
AcDbEntity
  8
0
 62
     7
100
AcDbLine
 10
-41.17312420835893
 20
-63.16467238725977
 30
0.0
 11
16.80114674116951
 21
-63.16467238725977
 31
0.0
  0
LINE
  5
2105
330
36
100
AcDbEntity
  8
0
 62
     7
100
AcDbLine
 10
-41.17312420835896
 20
-59.16467238725977
 30
0.0
 11
16.80114674116947
 21
-59.16467238725977
 31
0.0
  0
LINE
  5
2106
330
36
100
AcDbEntity
  8
0
 62
     7
100
AcDbLine
 10
-33.61604023041833
 20
-55.16467238725977
 30
0.0
 11
16.80114674116947
 21
-55.16467238725977
 31
0.0
  0
LINE
  5
2107
330
36
100
AcDbEntity
  8
0
 62
     7
100
AcDbLine
 10
-33.61604023041833
 20
-51.16467238725977
 30
0.0
 11
16.80114674116947
 21
-51.16467238725977
 31
0.0
  0
LINE
  5
2108
330
36
100
AcDbEntity
  8
0
 62
     7
100
AcDbLine
 10
-33.61604023041833
 20
-47.16467238725977
 30
0.0
 11
16.80114674116947
 21
-47.16467238725977
 31
0.0
  0
LINE
  5
2109
330
36
100
AcDbEntity
  8
0
 62
     7
100
AcDbLine
 10
-33.61604023041833
 20
-43.16467238725977
 30
0.0
 11
16.80114674116947
 21
-43.16467238725977
 31
0.0
  0
LINE
  5
210A
330
36
100
AcDbEntity
  8
0
 62
     7
100
AcDbLine
 10
-41.17312420835896
 20
-39.16467238725978
 30
0.0
 11
16.80114674116947
 21
-39.16467238725978
 31
0.0
  0
LINE
  5
210B
330
36
100
AcDbEntity
  8
0
 62
     7
100
AcDbLine
 10
-41.17312420835896
 20
-35.16467238725977
 30
0.0
 11
16.80114674116947
 21
-35.16467238725977
 31
0.0
  0
LINE
  5
210C
330
36
100
AcDbEntity
  8
0
 62
     7
100
AcDbLine
 10
-41.17312420835896
 20
-31.16467238725977
 30
0.0
 11
16.80114674116947
 21
-31.16467238725977
 31
0.0
  0
LINE
  5
210D
330
36
100
AcDbEntity
  8
0
 62
     7
100
AcDbLine
 10
-41.17312420835896
 20
-27.16467238725977
 30
0.0
 11
16.80114674116947
 21
-27.16467238725977
 31
0.0
  0
LINE
  5
210E
330
36
100
AcDbEntity
  8
0
 62
     7
100
AcDbLine
 10
-41.17312420835896
 20
-23.16467238725977
 30
0.0
 11
16.80114674116947
 21
-23.16467238725977
 31
0.0
  0
LINE
  5
210F
330
36
100
AcDbEntity
  8
0
 62
     7
100
AcDbLine
 10
-41.17312420835896
 20
-19.16467238725976
 30
0.0
 11
16.80114674116947
 21
-19.16467238725976
 31
0.0
  0
LINE
  5
2110
330
36
100
AcDbEntity
  8
0
 62
     7
100
AcDbLine
 10
-41.17312420835896
 20
-15.16467238725977
 30
0.0
 11
16.80114674116947
 21
-15.16467238725977
 31
0.0
  0
LINE
  5
2111
330
36
100
AcDbEntity
  8
0
 62
     7
100
AcDbLine
 10
-41.17312420835875
 20
-7.164672387259766
 30
0.0
 11
16.80114674116969
 21
-7.164672387259766
 31
0.0
  0
TEXT
  5
2112
330
36
100
AcDbEntity
  8
0
 62
     3
100
AcDbText
 10
-21.95269106453087
 20
-70.43739965998705
 30
0.0
 40
2.5
  1
253g
 41
0.8
  7
高2.5
100
AcDbText
  0
TEXT
  5
2113
330
36
100
AcDbEntity
  8
0
 62
     3
100
AcDbText
 10
-40.08221511744981
 20
-70.43739965998705
 30
0.0
 40
2.5
  1
質　　　量
 41
0.8
  7
高2.5
100
AcDbText
  0
TEXT
  5
2114
330
36
100
AcDbEntity
  8
0
 62
     3
100
AcDbText
 10
-40.08221511744981
 20
-62.43739965998705
 30
0.0
 40
2.5
  1
球　寿　命
 41
0.8
  7
高2.5
100
AcDbText
  0
TEXT
  5
2115
330
36
100
AcDbEntity
  8
0
 62
     3
100
AcDbText
 10
-40.08221511744981
 20
-66.43739965998702
 30
0.0
 40
2.5
  1
使用環境温度
 41
0.8
  7
高2.5
100
AcDbText
  0
TEXT
  5
2117
330
36
100
AcDbEntity
  8
0
 62
     3
100
AcDbText
 10
-40.08221511744986
 20
-38.43739965998704
 30
0.0
 40
2.5
  1
固有エネルギー消費効率
 41
0.5
  7
高2.5
100
AcDbText
  0
TEXT
  5
2118
330
36
100
AcDbEntity
  8
0
 62
     3
100
AcDbText
 10
-40.08221511744986
 20
-34.43739965998704
 30
0.0
 40
2.5
  1
定格消費電力
 41
0.8
  7
高2.5
100
AcDbText
  0
TEXT
  5
2119
330
36
100
AcDbEntity
  8
0
 62
     3
100
AcDbText
 10
-40.08221511744986
 20
-30.43739965998704
 30
0.0
 40
2.5
  1
定格　電流
 41
0.8
  7
高2.5
100
AcDbText
  0
TEXT
  5
211A
330
36
100
AcDbEntity
  8
0
 62
     3
100
AcDbText
 10
-40.08221511744986
 20
-26.43739965998704
 30
0.0
 40
2.5
  1
入力電圧範囲
 41
0.8
  7
高2.5
100
AcDbText
  0
TEXT
  5
211B
330
36
100
AcDbEntity
  8
0
 62
     3
100
AcDbText
 10
-40.08221511744986
 20
-22.43739965998704
 30
0.0
 40
2.5
  1
周　波　数
 41
0.8
  7
高2.5
100
AcDbText
  0
TEXT
  5
211C
330
36
100
AcDbEntity
  8
0
 62
     3
100
AcDbText
 10
-40.08221511744986
 20
-18.43739965998704
 30
0.0
 40
2.5
  1
定格　電圧
 41
0.8
  7
高2.5
100
AcDbText
  0
TEXT
  5
211E
330
36
100
AcDbEntity
  8
0
 62
     3
100
AcDbText
 10
-40.08221511744966
 20
-2.437399659987041
 30
0.0
 40
2.5
  1
色　温　度
 41
0.8
  7
高2.5
100
AcDbText
  0
TEXT
  5
211F
330
36
100
AcDbEntity
  8
0
 62
     3
100
AcDbText
 10
-40.08221511744966
 20
1.562600340012958
 30
0.0
 40
2.5
  1
定格　光束
 41
0.8
  7
高2.5
100
AcDbText
  0
TEXT
  5
2120
330
36
100
AcDbEntity
  8
0
 62
     3
100
AcDbText
 10
-40.08221511744966
 20
5.562600340012958
 30
0.0
 40
2.5
  1
光　　　源
 41
0.8
  7
高2.5
100
AcDbText
  0
TEXT
  5
2122
330
36
100
AcDbEntity
  8
0
 62
     3
100
AcDbText
 10
-40.08221511744966
 20
-6.437399659987042
 30
0.0
 40
2.5
  1
平均演色評価数
 41
0.8
  7
高2.5
100
AcDbText
  0
TEXT
  5
2123
330
36
100
AcDbEntity
  8
0
 62
     3
100
AcDbText
 10
-40.08221511744986
 20
-42.43739965998702
 30
0.0
 40
2.5
  1
照度
 41
0.8
  7
高2.5
100
AcDbText
  0
LINE
  5
2124
330
36
100
AcDbEntity
  8
0
 62
     7
100
AcDbLine
 10
-41.17312420835875
 20
-3.164672387259768
 30
0.0
 11
16.80114674116969
 21
-3.164672387259768
 31
0.0
  0
LINE
  5
2125
330
36
100
AcDbEntity
  8
0
 62
     7
100
AcDbLine
 10
-41.17312420835875
 20
0.8353276127402311
 30
0.0
 11
16.80114674116969
 21
0.8353276127402311
 31
0.0
  0
LINE
  5
2126
330
36
100
AcDbEntity
  8
0
 62
     7
100
AcDbLine
 10
-41.17312420835875
 20
4.835327612740231
 30
0.0
 11
16.80114674116969
 21
4.835327612740231
 31
0.0
  0
LINE
  5
212A
330
36
100
AcDbEntity
  8
0
 62
     7
100
AcDbLine
 10
-41.17312420835879
 20
12.83532761274023
 30
0.0
 11
16.80114674116967
 21
12.83532761274023
 31
0.0
  0
LINE
  5
212B
330
36
100
AcDbEntity
  8
0
100
AcDbLine
 10
-33.61604023041833
 20
-39.16467238725978
 30
0.0
 11
-33.61604023041833
 21
-59.16467238725977
 31
0.0
  0
TEXT
  5
212C
330
36
100
AcDbEntity
  8
0
 62
     3
100
AcDbText
 10
-32.52513113950924
 20
-42.43739965998702
 30
0.0
 40
2.5
  1
1m
 41
0.8
  7
高2.5
100
AcDbText
  0
TEXT
  5
212D
330
36
100
AcDbEntity
  8
0
 62
     3
100
AcDbText
 10
-32.52513113950924
 20
-46.43739965998702
 30
0.0
 40
2.5
  1
2m
 41
0.8
  7
高2.5
100
AcDbText
  0
TEXT
  5
212E
330
36
100
AcDbEntity
  8
0
 62
     3
100
AcDbText
 10
-32.52513113950924
 20
-50.43739965998703
 30
0.0
 40
2.5
  1
3m
 41
0.8
  7
高2.5
100
AcDbText
  0
TEXT
  5
212F
330
36
100
AcDbEntity
  8
0
 62
     3
100
AcDbText
 10
-32.52513113950924
 20
-54.43739965998705
 30
0.0
 40
2.5
  1
4m
 41
0.8
  7
高2.5
100
AcDbText
  0
TEXT
  5
2130
330
36
100
AcDbEntity
  8
0
 62
     3
100
AcDbText
 10
-32.52513113950924
 20
-58.43739965998705
 30
0.0
 40
2.5
  1
5m
 41
0.8
  7
高2.5
100
AcDbText
  0
LINE
  5
2131
330
36
100
AcDbEntity
  8
0
 62
     3
100
AcDbLine
 10
-41.17312420835892
 20
-71.16467238725977
 30
0.0
 11
16.80114674116952
 21
-71.16467238725977
 31
0.0
  0
TEXT
  5
2134
330
36
100
AcDbEntity
  8
0
 62
     3
100
AcDbText
 10
-21.95269106453068
 20
5.562600340012958
 30
0.0
 40
2.5
  1
LED
 41
0.8
  7
高2.5
100
AcDbText
  0
TEXT
  5
2135
330
36
100
AcDbEntity
  8
0
 62
     3
100
AcDbText
 10
-21.95269106453068
 20
1.562600340012958
 30
0.0
 40
2.5
  1
2250Lm
 41
0.8
  7
高2.5
100
AcDbText
  0
TEXT
  5
2136
330
36
100
AcDbEntity
  8
0
 62
     3
100
AcDbText
 10
-21.95269106453068
 20
-2.437399659987041
 30
0.0
 40
2.5
  1
5000K
 41
0.8
  7
高2.5
100
AcDbText
  0
TEXT
  5
2137
330
36
100
AcDbEntity
  8
0
 62
     3
100
AcDbText
 10
-21.95269106453068
 20
-6.437399659987042
 30
0.0
 40
2.5
  1
Ra83
 41
0.8
  7
高2.5
100
AcDbText
  0
TEXT
  5
2138
330
36
100
AcDbEntity
  8
0
 62
     3
100
AcDbText
 10
-21.9526910645309
 20
-14.43739965998704
 30
0.0
 40
2.5
  1
H:160\U+00B0 V:310\U+00B0[1/10ビーム角]
 41
0.8
  7
高2.5
100
AcDbText
  0
TEXT
  5
2139
330
36
100
AcDbEntity
  8
0
 62
     3
100
AcDbText
 10
-21.9526910645309
 20
-18.43739965998704
 30
0.0
 40
2.5
  1
AC100V (200V)
 41
0.8
  7
高2.5
100
AcDbText
  0
TEXT
  5
213A
330
36
100
AcDbEntity
  8
0
 62
     3
100
AcDbText
 10
-21.9526910645309
 20
-22.43739965998704
 30
0.0
 40
2.5
  1
50/60Hz
 41
0.8
  7
高2.5
100
AcDbText
  0
TEXT
  5
213B
330
36
100
AcDbEntity
  8
0
 62
     3
100
AcDbText
 10
-21.9526910645309
 20
-26.43739965998704
 30
0.0
 40
2.5
  1
AC100～240V
 41
0.8
  7
高2.5
100
AcDbText
  0
TEXT
  5
213C
330
36
100
AcDbEntity
  8
0
 62
     3
100
AcDbText
 10
-21.9526910645309
 20
-30.43739965998704
 30
0.0
 40
2.5
  1
0.15A (0.08A)
 41
0.8
  7
高2.5
100
AcDbText
  0
TEXT
  5
213D
330
36
100
AcDbEntity
  8
0
 62
     3
100
AcDbText
 10
-21.9526910645309
 20
-34.43739965998704
 30
0.0
 40
2.5
  1
14.5W (14.5W)
 41
0.8
  7
高2.5
100
AcDbText
  0
TEXT
  5
213E
330
36
100
AcDbEntity
  8
0
 62
     3
100
AcDbText
 10
-21.9526910645309
 20
-38.43739965998704
 30
0.0
 40
2.5
  1
155.1Lm/W (155.1Lm/W)
 41
0.8
  7
高2.5
100
AcDbText
  0
TEXT
  5
213F
330
36
100
AcDbEntity
  8
0
 62
     3
100
AcDbText
 10
-21.9526910645309
 20
-42.43739965998702
 30
0.0
 40
2.5
  1
455Lx
 41
0.8
  7
高2.5
100
AcDbText
  0
TEXT
  5
2140
330
36
100
AcDbEntity
  8
0
 62
     3
100
AcDbText
 10
-21.9526910645309
 20
-46.43739965998702
 30
0.0
 40
2.5
  1
135Lx
 41
0.8
  7
高2.5
100
AcDbText
  0
TEXT
  5
2141
330
36
100
AcDbEntity
  8
0
 62
     3
100
AcDbText
 10
-21.9526910645309
 20
-50.43739965998703
 30
0.0
 40
2.5
  1
65Lx
 41
0.8
  7
高2.5
100
AcDbText
  0
TEXT
  5
2142
330
36
100
AcDbEntity
  8
0
 62
     3
100
AcDbText
 10
-21.9526910645309
 20
-54.43739965998705
 30
0.0
 40
2.5
  1
40Lx
 41
0.8
  7
高2.5
100
AcDbText
  0
TEXT
  5
2143
330
36
100
AcDbEntity
  8
0
 62
     3
100
AcDbText
 10
-21.9526910645309
 20
-58.43739965998705
 30
0.0
 40
2.5
  1
25Lx
 41
0.8
  7
高2.5
100
AcDbText
  0
TEXT
  5
2145
330
36
100
AcDbEntity
  8
0
 62
     3
100
AcDbText
 10
-21.95269106453087
 20
-62.43739965998705
 30
0.0
 40
2.5
  1
50000H
 41
0.8
  7
高2.5
100
AcDbText
  0
TEXT
  5
2146
330
36
100
AcDbEntity
  8
0
 62
     3
100
AcDbText
 10
-21.95269106453087
 20
-66.43739965998702
 30
0.0
 40
2.5
  1
-20～40℃
 41
0.8
  7
高2.5
100
AcDbText
  0
LINE
  5
2147
330
36
100
AcDbEntity
  8
0
 62
     3
100
AcDbLine
 10
-41.17312420835879
 20
16.83532761274023
 30
0.0
 11
-41.17312420835892
 21
-71.16467238725977
 31
0.0
  0
LINE
  5
2148
330
36
100
AcDbEntity
  8
0
 62
     7
100
AcDbLine
 10
-23.04360015543996
 20
-71.16467238725977
 30
0.0
 11
-23.04360015543981
 21
16.83532761274023
 31
0.0
  0
LINE
  5
2149
330
36
100
AcDbEntity
  8
0
 62
     3
100
AcDbLine
 10
16.80114674116952
 20
-71.16467238725977
 30
0.0
 11
16.80114674116999
 21
16.83532761274023
 31
0.0
  0
TEXT
  5
214A
330
36
100
AcDbEntity
  8
0
 62
     3
100
AcDbText
 10
-27.23248603953668
 20
18.89348205295403
 30
0.0
 40
3.2
  1
主　　仕　　様
  7
高3.2
100
AcDbText
  0
LINE
  5
214B
330
36
100
AcDbEntity
  8
0
100
AcDbLine
 10
-28.03315103426808
 20
18.26384344652297
 30
0.0
 11
0.033918260050001
 21
18.26384344652297
 31
0.0
  0
TEXT
  5
214C
330
36
100
AcDbEntity
  8
0
 62
     7
100
AcDbText
 10
-44.23990767329691
 20
-82.90939817996655
 30
0.0
 40
2.0
  1
注４）照度は当社実測値の為、使用環境下により異なります。
  7
高2
100
AcDbText
  0
TEXT
  5
214D
330
36
100
AcDbEntity
  8
0
 62
     7
100
AcDbText
 10
-44.23990767329691
 20
-85.59121636178472
 30
0.0
 40
2.0
  1
注５）球寿命は光束が70%%%に低下するまでの時間です。
  7
高2
100
AcDbText
  0
TEXT
  5
214E
330
36
100
AcDbEntity
  8
0
 62
     7
100
AcDbText
 10
-44.23990767329691
 20
-88.2730345436029
 30
0.0
 40
2.0
  1
　　　表示は設計値であり、製品の寿命を保証するものではありません。
  7
高2
100
AcDbText
  0
TEXT
  5
214F
330
36
100
AcDbEntity
  8
0
 62
     7
100
AcDbText
 10
-44.23990767329691
 20
-80.22757999814833
 30
0.0
 40
2.0
  1
注３）()内数値は入力200Vでの値です。
  7
高2
100
AcDbText
  0
TEXT
  5
2150
330
36
100
AcDbEntity
  8
0
 62
     7
100
AcDbText
 10
-44.23990767329691
 20
-77.54576181633018
 30
0.0
 40
2.0
  1
注２）LEDの光色、明るさにはバラツキがあります。
  7
高2
100
AcDbText
  0
TEXT
  5
2151
330
36
100
AcDbEntity
  8
0
 62
     7
100
AcDbText
 10
-44.23990767329691
 20
-74.863943634512
 30
0.0
 40
2.0
  1
注１）当器具のLED素子交換はできません。
  7
高2
100
AcDbText
  0
TEXT
  5
2152
330
36
100
AcDbEntity
  8
0
 62
     7
100
AcDbText
 10
-44.23990767329691
 20
-90.95485272542109
 30
0.0
 40
2.0
  1
注６）安全にご使用いただくため、取扱説明書をご参照ください。
  7
高2
100
AcDbText
  0
TEXT
  5
2154
330
36
100
AcDbEntity
  8
0
 62
     3
100
AcDbText
 10
-40.08221511744969
 20
13.56260034001296
 30
0.0
 40
2.5
  1
型　　　式
 41
0.8
  7
高2.5
100
AcDbText
  0
LINE
  5
2155
330
36
100
AcDbEntity
  8
0
 62
     3
100
AcDbLine
 10
-41.17312420835879
 20
16.83532761274023
 30
0.0
 11
16.80114674116967
 21
16.83532761274023
 31
0.0
  0
TEXT
  5
2156
330
36
100
AcDbEntity
  8
0
 62
     3
100
AcDbText
 10
-21.95269106453071
 20
13.56260034001296
 30
0.0
 40
2.5
  1
LCL-4014W-HI
 41
0.8
  7
高2.5
100
AcDbText
  0
TEXT
  5
2157
330
36
100
AcDbEntity
  8
0
 62
     7
100
AcDbText
 10
-44.23990767329691
 20
-93.63667090723927
 30
0.0
 40
2.0
  1
注７）仕様変更は予告なく行う場合があります。予めご了承ください。
  7
高2
100
AcDbText
  0
TEXT
  5
2158
330
36
100
AcDbEntity
  8
0
 62
     3
100
AcDbText
 10
-40.08221511744966
 20
9.562600340012956
 30
0.0
 40
2.5
  1
口金サイズ
 41
0.8
  7
高2.5
100
AcDbText
  0
LINE
  5
2159
330
36
100
AcDbEntity
  8
0
 62
     7
100
AcDbLine
 10
-41.17312420835875
 20
8.835327612740231
 30
0.0
 11
16.80114674116969
 21
8.835327612740231
 31
0.0
  0
TEXT
  5
215A
330
36
100
AcDbEntity
  8
0
 62
     3
100
AcDbText
 10
-21.95269106453068
 20
9.562600340012956
 30
0.0
 40
2.5
  1
G13
 41
0.8
  7
高2.5
100
AcDbText
  0
TEXT
  5
2686
330
36
100
AcDbEntity
  8
0
  6
Continuous
100
AcDbText
 10
62.3077672175923
 20
37.06045809064517
 30
0.0
 40
3.2
  1
H
  7
高3.2
100
AcDbText
  0
TEXT
  5
2687
330
36
100
AcDbEntity
  8
0
  6
Continuous
100
AcDbText
 10
51.64700500605203
 20
47.71581631323761
 30
0.0
 40
3.2
  1
V
  7
高3.2
100
AcDbText
  0
TEXT
  5
2A98
330
36
100
AcDbEntity
  8
0
 62
     3
100
AcDbText
 10
-40.08221511744986
 20
-10.43739965998704
 30
0.0
 40
2.5
  1
照射　角度
 41
0.8
  7
高2.5
100
AcDbText
  0
TEXT
  5
2A99
330
36
100
AcDbEntity
  8
0
 62
     3
100
AcDbText
 10
-21.9526910645309
 20
-10.43739965998704
 30
0.0
 40
2.5
  1
H:105\U+00B0 V:170\U+00B0[1/2ビーム角]
 41
0.8
  7
高2.5
100
AcDbText
  0
LINE
  5
2C3F
330
36
100
AcDbEntity
  8
0
 62
     3
100
AcDbLine
 10
30.6164283769142
 20
79.1264458849861
 30
0.0
 11
34.8664283769142
 21
79.12644588498611
 31
0.0
  0
LINE
  5
2C42
330
36
100
AcDbEntity
  8
0
 62
     3
100
AcDbLine
 10
30.6164283769142
 20
66.3264458849861
 30
0.0
 11
34.8664283769142
 21
66.3264458849861
 31
0.0
  0
LINE
  5
2C4B
330
36
100
AcDbEntity
  8
0
  6
ByBlock
 62
     3
100
AcDbLine
 10
10.61642837691421
 20
79.7264458849861
 30
0.0
 11
30.3664283769142
 21
79.7264458849861
 31
0.0
  0
LINE
  5
2C4C
330
36
100
AcDbEntity
  8
0
  6
ByBlock
 62
     3
100
AcDbLine
 10
10.6164283769142
 20
65.72644588498611
 30
0.0
 11
30.3664283769142
 21
65.72644588498611
 31
0.0
  0
CIRCLE
  5
2C80
330
36
100
AcDbEntity
  8
0
  6
Continuous
 62
     7
100
AcDbCircle
 10
71.86265139121674
 20
72.72644588498611
 30
0.0
 40
0.5925000000000001
  0
LINE
  5
2C81
330
36
100
AcDbEntity
  8
0
  6
Continuous
 62
     7
100
AcDbLine
 10
38.6664283769142
 20
72.43019588498609
 30
0.0
 11
38.6664283769142
 21
73.02269588498609
 31
0.0
  0
LINE
  5
2C82
330
36
100
AcDbEntity
  8
0
  6
Continuous
 62
     7
100
AcDbLine
 10
38.37017837691419
 20
73.31894588498609
 30
0.0
 11
35.1164283769142
 21
73.3189458849861
 31
0.0
  0
LINE
  5
2C83
330
36
100
AcDbEntity
  8
0
  6
Continuous
 62
     7
100
AcDbLine
 10
38.37017837691419
 20
72.1339458849861
 30
0.0
 11
35.1164283769142
 21
72.1339458849861
 31
0.0
  0
LINE
  5
2C85
330
36
100
AcDbEntity
  8
0
  6
Continuous
 62
     7
100
AcDbLine
 10
38.3701783769142
 20
72.1339458849861
 30
0.0
 11
38.6664283769142
 21
72.43019588498611
 31
0.0
  0
LINE
  5
2C8A
330
36
100
AcDbEntity
  8
0
  6
Continuous
 62
     7
100
AcDbLine
 10
38.6664283769142
 20
73.0226958849861
 30
0.0
 11
38.3701783769142
 21
73.3189458849861
 31
0.0
  0
LINE
  5
2C8B
330
36
100
AcDbEntity
  8
0
  6
Continuous
 62
     7
100
AcDbLine
 10
38.37017837691421
 20
73.31894588498609
 30
0.0
 11
38.37017837691421
 21
72.1339458849861
 31
0.0
  0
LINE
  5
2CB0
330
36
100
AcDbEntity
  8
0
  6
Continuous
 62
     3
100
AcDbLine
 10
30.6164283769142
 20
65.9764458849861
 30
0.0
 11
30.6164283769142
 21
79.47644588498611
 31
0.0
  0
LINE
  5
2CB1
330
36
100
AcDbEntity
  8
0
  6
Continuous
 62
     3
100
AcDbLine
 10
10.6164283769142
 20
65.72644588498611
 30
0.0
 11
10.6164283769142
 21
79.7264458849861
 31
0.0
  0
LINE
  5
2CB5
330
36
100
AcDbEntity
  8
0
  6
Continuous
100
AcDbLine
 10
10.6164283769142
 20
75.22644588498611
 30
0.0
 11
-21.0430221243696
 21
75.22644588498612
 31
0.0
  0
LINE
  5
2CB6
330
36
100
AcDbEntity
  8
0
  6
Continuous
 62
     3
100
AcDbLine
 10
10.6164283769142
 20
79.2264458849861
 30
0.0
 11
-21.1227872106886
 21
79.22644588498612
 31
0.0
  0
LINE
  5
2CB7
330
36
100
AcDbEntity
  8
0
  6
Continuous
 62
     3
100
AcDbLine
 10
10.6164283769142
 20
66.2264458849861
 30
0.0
 11
-19.03134155418007
 21
66.22644588498612
 31
0.0
  0
ARC
  5
2CBF
330
36
100
AcDbEntity
  8
0
  6
Continuous
 62
     3
100
AcDbCircle
 10
34.8664283769142
 20
78.87644588498611
 30
0.0
 40
0.25
100
AcDbArc
 50
0.0
 51
90.00000000000019
  0
ARC
  5
2CC0
330
36
100
AcDbEntity
  8
0
  6
Continuous
 62
     3
100
AcDbCircle
 10
34.8664283769142
 20
66.5764458849861
 30
0.0
 40
0.25
100
AcDbArc
 50
270.0
 51
0.0
  0
ARC
  5
2CC1
330
36
100
AcDbEntity
  8
0
  6
Continuous
 62
     3
100
AcDbCircle
 10
30.3664283769142
 20
79.47644588498611
 30
0.0
 40
0.25
100
AcDbArc
 50
0.0
 51
90.0
  0
ARC
  5
2CC2
330
36
100
AcDbEntity
  8
0
  6
Continuous
 62
     3
100
AcDbCircle
 10
30.3664283769142
 20
65.9764458849861
 30
0.0
 40
0.25
100
AcDbArc
 50
270.0
 51
0.0
  0
LINE
  5
2CC4
330
36
100
AcDbEntity
  8
0
  6
Continuous
 62
     3
100
AcDbLine
 10
-78.93161670140376
 20
66.5764458849861
 30
0.0
 11
-78.93161670140376
 21
78.87644588498611
 31
0.0
  0
ARC
  5
2CC5
330
36
100
AcDbEntity
  8
0
  6
Continuous
 62
     3
100
AcDbCircle
 10
-78.68161670140375
 20
66.5764458849861
 30
0.0
 40
0.25
100
AcDbArc
 50
180.0
 51
270.0
  0
ARC
  5
2CC6
330
36
100
AcDbEntity
  8
0
  6
Continuous
 62
     3
100
AcDbCircle
 10
-78.68161670140375
 20
78.87644588498611
 30
0.0
 40
0.25
100
AcDbArc
 50
90.0
 51
180.0
  0
LINE
  5
2CC7
330
36
100
AcDbEntity
  8
0
  6
Continuous
 62
     3
100
AcDbLine
 10
-54.43161670140375
 20
65.72644588498611
 30
0.0
 11
-54.43161670140375
 21
79.7264458849861
 31
0.0
  0
LINE
  5
2CC8
330
36
100
AcDbEntity
  8
0
  6
Continuous
 62
     3
100
AcDbLine
 10
-74.43161670140375
 20
65.9764458849861
 30
0.0
 11
-74.43161670140375
 21
79.47644588498611
 31
0.0
  0
ARC
  5
2CC9
330
36
100
AcDbEntity
  8
0
  6
Continuous
 62
     3
100
AcDbCircle
 10
-74.18161670140375
 20
65.9764458849861
 30
0.0
 40
0.25
100
AcDbArc
 50
180.0
 51
270.0
  0
ARC
  5
2CCA
330
36
100
AcDbEntity
  8
0
  6
Continuous
 62
     3
100
AcDbCircle
 10
-74.18161670140375
 20
79.47644588498611
 30
0.0
 40
0.25
100
AcDbArc
 50
90.0
 51
180.0
  0
LINE
  5
2CCB
330
36
100
AcDbEntity
  8
0
  6
ByBlock
 62
     3
100
AcDbLine
 10
-54.43161670140375
 20
65.72644588498611
 30
0.0
 11
-74.18161670140375
 21
65.72644588498611
 31
0.0
  0
LINE
  5
2CCC
330
36
100
AcDbEntity
  8
0
  6
ByBlock
 62
     3
100
AcDbLine
 10
-54.43161670140376
 20
79.7264458849861
 30
0.0
 11
-74.18161670140375
 21
79.7264458849861
 31
0.0
  0
LINE
  5
2CCD
330
36
100
AcDbEntity
  8
0
 62
     3
100
AcDbLine
 10
-74.43161670140375
 20
66.3264458849861
 30
0.0
 11
-78.68161670140375
 21
66.3264458849861
 31
0.0
  0
LINE
  5
2CCE
330
36
100
AcDbEntity
  8
0
 62
     3
100
AcDbLine
 10
-74.43161670140375
 20
79.1264458849861
 30
0.0
 11
-78.68161670140375
 21
79.12644588498611
 31
0.0
  0
LINE
  5
2CCF
330
36
100
AcDbEntity
  8
0
  6
Continuous
 62
     7
100
AcDbLine
 10
-82.48161670140374
 20
72.43019588498609
 30
0.0
 11
-82.48161670140374
 21
73.02269588498609
 31
0.0
  0
LINE
  5
2CD0
330
36
100
AcDbEntity
  8
0
  6
Continuous
 62
     7
100
AcDbLine
 10
-82.18536670140375
 20
73.31894588498609
 30
0.0
 11
-78.93161670140376
 21
73.3189458849861
 31
0.0
  0
LINE
  5
2CD1
330
36
100
AcDbEntity
  8
0
  6
Continuous
 62
     7
100
AcDbLine
 10
-82.18536670140375
 20
72.1339458849861
 30
0.0
 11
-78.93161670140376
 21
72.1339458849861
 31
0.0
  0
LINE
  5
2CD2
330
36
100
AcDbEntity
  8
0
  6
Continuous
 62
     7
100
AcDbLine
 10
-82.18536670140375
 20
72.1339458849861
 30
0.0
 11
-82.48161670140374
 21
72.43019588498611
 31
0.0
  0
LINE
  5
2CD3
330
36
100
AcDbEntity
  8
0
  6
Continuous
 62
     7
100
AcDbLine
 10
-82.48161670140374
 20
73.0226958849861
 30
0.0
 11
-82.18536670140375
 21
73.3189458849861
 31
0.0
  0
LINE
  5
2CD4
330
36
100
AcDbEntity
  8
0
  6
Continuous
 62
     7
100
AcDbLine
 10
-82.18536670140377
 20
73.31894588498609
 30
0.0
 11
-82.18536670140377
 21
72.1339458849861
 31
0.0
  0
LINE
  5
2D0B
330
36
100
AcDbEntity
  8
0
  6
Continuous
 62
     3
100
AcDbLine
 10
35.1164283769142
 20
32.16732579885988
 30
0.0
 11
35.1164283769142
 21
44.46732579885989
 31
0.0
  0
ARC
  5
2D0C
330
36
100
AcDbEntity
  8
0
  6
Continuous
 62
     3
100
AcDbCircle
 10
34.8664283769142
 20
32.16732579885988
 30
0.0
 40
0.25
100
AcDbArc
 50
270.0
 51
0.0
  0
ARC
  5
2D0D
330
36
100
AcDbEntity
  8
0
  6
Continuous
 62
     3
100
AcDbCircle
 10
34.8664283769142
 20
44.46732579885989
 30
0.0
 40
0.25
100
AcDbArc
 50
0.0
 51
90.00000000000019
  0
LINE
  5
2D0E
330
36
100
AcDbEntity
  8
0
  6
Continuous
 62
     3
100
AcDbLine
 10
10.6164283769142
 20
31.31732579885989
 30
0.0
 11
10.6164283769142
 21
45.31732579885988
 31
0.0
  0
LINE
  5
2D0F
330
36
100
AcDbEntity
  8
0
  6
Continuous
 62
     3
100
AcDbLine
 10
30.6164283769142
 20
31.56732579885989
 30
0.0
 11
30.6164283769142
 21
45.06732579885989
 31
0.0
  0
ARC
  5
2D10
330
36
100
AcDbEntity
  8
0
  6
Continuous
 62
     3
100
AcDbCircle
 10
30.3664283769142
 20
31.56732579885989
 30
0.0
 40
0.25
100
AcDbArc
 50
270.0
 51
0.0
  0
ARC
  5
2D11
330
36
100
AcDbEntity
  8
0
  6
Continuous
 62
     3
100
AcDbCircle
 10
30.3664283769142
 20
45.06732579885989
 30
0.0
 40
0.25
100
AcDbArc
 50
0.0
 51
90.0
  0
LINE
  5
2D12
330
36
100
AcDbEntity
  8
0
  6
Continuous
 62
     7
100
AcDbLine
 10
38.6664283769142
 20
41.19607579885987
 30
0.0
 11
38.6664283769142
 21
41.78857579885987
 31
0.0
  0
LINE
  5
2D13
330
36
100
AcDbEntity
  8
0
  6
ByBlock
 62
     3
100
AcDbLine
 10
10.6164283769142
 20
31.31732579885989
 30
0.0
 11
30.3664283769142
 21
31.31732579885989
 31
0.0
  0
LINE
  5
2D14
330
36
100
AcDbEntity
  8
0
  6
ByBlock
 62
     3
100
AcDbLine
 10
10.61642837691421
 20
45.31732579885988
 30
0.0
 11
30.3664283769142
 21
45.31732579885988
 31
0.0
  0
LINE
  5
2D15
330
36
100
AcDbEntity
  8
0
 62
     3
100
AcDbLine
 10
30.6164283769142
 20
31.91732579885989
 30
0.0
 11
34.8664283769142
 21
31.91732579885989
 31
0.0
  0
LINE
  5
2D16
330
36
100
AcDbEntity
  8
0
 62
     3
100
AcDbLine
 10
30.6164283769142
 20
44.71732579885988
 30
0.0
 11
34.8664283769142
 21
44.7173257988599
 31
0.0
  0
LINE
  5
2D17
330
36
100
AcDbEntity
  8
0
  6
Continuous
 62
     7
100
AcDbLine
 10
38.37017837691419
 20
42.08482579885987
 30
0.0
 11
35.1164283769142
 21
42.08482579885989
 31
0.0
  0
LINE
  5
2D18
330
36
100
AcDbEntity
  8
0
  6
Continuous
 62
     7
100
AcDbLine
 10
38.37017837691419
 20
40.89982579885989
 30
0.0
 11
35.1164283769142
 21
40.89982579885989
 31
0.0
  0
LINE
  5
2D19
330
36
100
AcDbEntity
  8
0
  6
Continuous
 62
     7
100
AcDbLine
 10
38.3701783769142
 20
40.89982579885989
 30
0.0
 11
38.6664283769142
 21
41.19607579885989
 31
0.0
  0
LINE
  5
2D1A
330
36
100
AcDbEntity
  8
0
  6
Continuous
 62
     7
100
AcDbLine
 10
38.6664283769142
 20
41.78857579885988
 30
0.0
 11
38.3701783769142
 21
42.08482579885989
 31
0.0
  0
LINE
  5
2D1B
330
36
100
AcDbEntity
  8
0
  6
Continuous
 62
     7
100
AcDbLine
 10
38.37017837691421
 20
42.08482579885987
 30
0.0
 11
38.37017837691421
 21
40.89982579885989
 31
0.0
  0
LINE
  5
2D1D
330
36
100
AcDbEntity
  8
0
  6
Continuous
 62
     3
100
AcDbLine
 10
10.6164283769142
 20
44.81732579885989
 30
0.0
 11
-21.1227872106886
 21
44.81732579885989
 31
0.0
  0
LINE
  5
2D1E
330
36
100
AcDbEntity
  8
0
  6
Continuous
 62
     3
100
AcDbLine
 10
10.6164283769142
 20
31.81732579885989
 30
0.0
 11
-19.03134155418007
 21
31.81732579885989
 31
0.0
  0
LINE
  5
2D1F
330
36
100
AcDbEntity
  8
0
  6
Continuous
 62
     3
100
AcDbLine
 10
-78.93161670140376
 20
32.16732579885988
 30
0.0
 11
-78.93161670140376
 21
44.46732579885989
 31
0.0
  0
ARC
  5
2D20
330
36
100
AcDbEntity
  8
0
  6
Continuous
 62
     3
100
AcDbCircle
 10
-78.68161670140375
 20
32.16732579885988
 30
0.0
 40
0.25
100
AcDbArc
 50
180.0
 51
270.0
  0
ARC
  5
2D21
330
36
100
AcDbEntity
  8
0
  6
Continuous
 62
     3
100
AcDbCircle
 10
-78.68161670140375
 20
44.46732579885989
 30
0.0
 40
0.25
100
AcDbArc
 50
90.0
 51
180.0
  0
LINE
  5
2D22
330
36
100
AcDbEntity
  8
0
  6
Continuous
 62
     3
100
AcDbLine
 10
-54.43161670140375
 20
31.31732579885989
 30
0.0
 11
-54.43161670140375
 21
45.31732579885988
 31
0.0
  0
LINE
  5
2D23
330
36
100
AcDbEntity
  8
0
  6
Continuous
 62
     3
100
AcDbLine
 10
-74.43161670140375
 20
31.56732579885989
 30
0.0
 11
-74.43161670140375
 21
45.06732579885989
 31
0.0
  0
ARC
  5
2D24
330
36
100
AcDbEntity
  8
0
  6
Continuous
 62
     3
100
AcDbCircle
 10
-74.18161670140375
 20
31.56732579885989
 30
0.0
 40
0.25
100
AcDbArc
 50
180.0
 51
270.0
  0
ARC
  5
2D25
330
36
100
AcDbEntity
  8
0
  6
Continuous
 62
     3
100
AcDbCircle
 10
-74.18161670140375
 20
45.06732579885989
 30
0.0
 40
0.25
100
AcDbArc
 50
90.0
 51
180.0
  0
LINE
  5
2D26
330
36
100
AcDbEntity
  8
0
  6
ByBlock
 62
     3
100
AcDbLine
 10
-54.43161670140375
 20
31.31732579885989
 30
0.0
 11
-74.18161670140375
 21
31.31732579885989
 31
0.0
  0
LINE
  5
2D27
330
36
100
AcDbEntity
  8
0
  6
ByBlock
 62
     3
100
AcDbLine
 10
-54.43161670140376
 20
45.31732579885988
 30
0.0
 11
-74.18161670140375
 21
45.31732579885988
 31
0.0
  0
LINE
  5
2D28
330
36
100
AcDbEntity
  8
0
 62
     3
100
AcDbLine
 10
-74.43161670140375
 20
31.91732579885989
 30
0.0
 11
-78.68161670140375
 21
31.91732579885989
 31
0.0
  0
LINE
  5
2D29
330
36
100
AcDbEntity
  8
0
 62
     3
100
AcDbLine
 10
-74.43161670140375
 20
44.71732579885988
 30
0.0
 11
-78.68161670140375
 21
44.7173257988599
 31
0.0
  0
LINE
  5
2D2A
330
36
100
AcDbEntity
  8
0
  6
Continuous
 62
     7
100
AcDbLine
 10
-82.48161670140374
 20
41.19607579885987
 30
0.0
 11
-82.48161670140374
 21
41.78857579885987
 31
0.0
  0
LINE
  5
2D2B
330
36
100
AcDbEntity
  8
0
  6
Continuous
 62
     7
100
AcDbLine
 10
-82.18536670140375
 20
42.08482579885987
 30
0.0
 11
-78.93161670140376
 21
42.08482579885989
 31
0.0
  0
LINE
  5
2D2C
330
36
100
AcDbEntity
  8
0
  6
Continuous
 62
     7
100
AcDbLine
 10
-82.18536670140375
 20
40.89982579885989
 30
0.0
 11
-78.93161670140376
 21
40.89982579885989
 31
0.0
  0
LINE
  5
2D2D
330
36
100
AcDbEntity
  8
0
  6
Continuous
 62
     7
100
AcDbLine
 10
-82.18536670140375
 20
40.89982579885989
 30
0.0
 11
-82.48161670140374
 21
41.19607579885989
 31
0.0
  0
LINE
  5
2D2E
330
36
100
AcDbEntity
  8
0
  6
Continuous
 62
     7
100
AcDbLine
 10
-82.48161670140374
 20
41.78857579885988
 30
0.0
 11
-82.18536670140375
 21
42.08482579885989
 31
0.0
  0
LINE
  5
2D2F
330
36
100
AcDbEntity
  8
0
  6
Continuous
 62
     7
100
AcDbLine
 10
-82.18536670140377
 20
42.08482579885987
 30
0.0
 11
-82.18536670140377
 21
40.89982579885989
 31
0.0
  0
LINE
  5
2D32
330
36
100
AcDbEntity
  8
0
  6
Continuous
 62
     7
100
AcDbLine
 10
38.6664283769142
 20
34.84607579885988
 30
0.0
 11
38.6664283769142
 21
35.43857579885988
 31
0.0
  0
LINE
  5
2D33
330
36
100
AcDbEntity
  8
0
  6
Continuous
 62
     7
100
AcDbLine
 10
38.37017837691419
 20
35.73482579885988
 30
0.0
 11
35.1164283769142
 21
35.7348257988599
 31
0.0
  0
LINE
  5
2D34
330
36
100
AcDbEntity
  8
0
  6
Continuous
 62
     7
100
AcDbLine
 10
38.37017837691419
 20
34.54982579885989
 30
0.0
 11
35.1164283769142
 21
34.54982579885989
 31
0.0
  0
LINE
  5
2D35
330
36
100
AcDbEntity
  8
0
  6
Continuous
 62
     7
100
AcDbLine
 10
38.3701783769142
 20
34.54982579885989
 30
0.0
 11
38.6664283769142
 21
34.84607579885989
 31
0.0
  0
LINE
  5
2D36
330
36
100
AcDbEntity
  8
0
  6
Continuous
 62
     7
100
AcDbLine
 10
38.6664283769142
 20
35.43857579885989
 30
0.0
 11
38.3701783769142
 21
35.7348257988599
 31
0.0
  0
LINE
  5
2D37
330
36
100
AcDbEntity
  8
0
  6
Continuous
 62
     7
100
AcDbLine
 10
38.37017837691421
 20
35.73482579885988
 30
0.0
 11
38.37017837691421
 21
34.54982579885989
 31
0.0
  0
LINE
  5
2D38
330
36
100
AcDbEntity
  8
0
  6
Continuous
 62
     7
100
AcDbLine
 10
-82.48161670140374
 20
34.84607579885989
 30
0.0
 11
-82.48161670140374
 21
35.43857579885989
 31
0.0
  0
LINE
  5
2D39
330
36
100
AcDbEntity
  8
0
  6
Continuous
 62
     7
100
AcDbLine
 10
-82.18536670140375
 20
35.7348257988599
 30
0.0
 11
-78.93161670140376
 21
35.73482579885991
 31
0.0
  0
LINE
  5
2D3A
330
36
100
AcDbEntity
  8
0
  6
Continuous
 62
     7
100
AcDbLine
 10
-82.18536670140375
 20
34.54982579885991
 30
0.0
 11
-78.93161670140376
 21
34.54982579885991
 31
0.0
  0
LINE
  5
2D3B
330
36
100
AcDbEntity
  8
0
  6
Continuous
 62
     7
100
AcDbLine
 10
-82.18536670140375
 20
34.54982579885991
 30
0.0
 11
-82.48161670140374
 21
34.84607579885991
 31
0.0
  0
LINE
  5
2D3C
330
36
100
AcDbEntity
  8
0
  6
Continuous
 62
     7
100
AcDbLine
 10
-82.48161670140374
 20
35.43857579885991
 30
0.0
 11
-82.18536670140375
 21
35.73482579885991
 31
0.0
  0
LINE
  5
2D3D
330
36
100
AcDbEntity
  8
0
  6
Continuous
 62
     7
100
AcDbLine
 10
-82.18536670140377
 20
35.7348257988599
 30
0.0
 11
-82.18536670140377
 21
34.54982579885991
 31
0.0
  0
LINE
  5
2D3E
330
36
100
AcDbEntity
  8
0
  6
Continuous
 62
     3
100
AcDbLine
 10
-25.62356067778573
 20
79.22644588498612
 30
0.0
 11
-54.43161670140375
 21
79.2264458849861
 31
0.0
  0
LINE
  5
2D3F
330
36
100
AcDbEntity
  8
0
  6
Continuous
100
AcDbLine
 10
-25.54379559146673
 20
75.22644588498612
 30
0.0
 11
-54.43161670140375
 21
75.22644588498611
 31
0.0
  0
LINE
  5
2D40
330
36
100
AcDbEntity
  8
0
  6
Continuous
 62
     3
100
AcDbLine
 10
-23.5321150212772
 20
66.22644588498612
 30
0.0
 11
-54.43161670140375
 21
66.2264458849861
 31
0.0
  0
LINE
  5
2D41
330
36
100
AcDbEntity
  8
0
  6
Continuous
 62
     3
100
AcDbLine
 10
-25.62356067778573
 20
44.81732579885989
 30
0.0
 11
-54.43161670140375
 21
44.81732579885989
 31
0.0
  0
LINE
  5
2D42
330
36
100
AcDbEntity
  8
0
  6
Continuous
 62
     3
100
AcDbLine
 10
-23.5321150212772
 20
31.81732579885989
 30
0.0
 11
-54.43161670140375
 21
31.81732579885989
 31
0.0
  0
LINE
  5
2D50
330
36
100
AcDbEntity
  8
0
  6
CENTER
 62
     7
100
AcDbLine
 10
68.6876513912166
 20
62.22644588498611
 30
0.0
 11
68.6876513912166
 21
83.2264458849861
 31
0.0
  0
LINE
  5
2D51
330
36
100
AcDbEntity
  8
0
  6
CENTER
 62
     7
100
AcDbLine
 10
58.18765139121659
 20
72.72644588498611
 30
0.0
 11
79.18765139121659
 21
72.72644588498611
 31
0.0
  0
TEXT
  5
2DA1
330
36
100
AcDbEntity
  8
0
  6
Continuous
100
AcDbText
 10
65.03307656945844
 20
74.40872855857026
 30
0.0
 40
1.5
  1
L
  7
高2
100
AcDbText
  0
TEXT
  5
2DA2
330
36
100
AcDbEntity
  8
0
  6
Continuous
100
AcDbText
 10
71.38307656945844
 20
74.40872855857026
 30
0.0
 40
1.5
  1
N
  7
高2
100
AcDbText
  0
TEXT
  5
2DA3
330
36
100
AcDbEntity
  8
0
  6
Continuous
100
AcDbText
 10
16.5372366272386
 20
78.21315807831104
 30
0.0
 40
1.0
  1
電源端子
 41
2.0
  7
高2
100
AcDbText
  0
TEXT
  5
2F6A
330
36
100
AcDbEntity
  8
0
  6
Continuous
100
AcDbText
 10
15.5
 20
124.0
 30
0.0
 40
2.5
  1
'17.04.10
  7
高2.5
100
AcDbText
  0
TEXT
  5
2F6B
330
36
100
AcDbEntity
  8
0
  6
Continuous
100
AcDbText
 10
33.5
 20
124.0
 30
0.0
 40
2.5
  1
消費電力変更
  7
高2.5
100
AcDbText
  0
TEXT
  5
2F6C
330
36
100
AcDbEntity
  8
0
  6
Continuous
100
AcDbText
 10
77.5
 20
124.0
 30
0.0
 40
2.5
  1
今村
  7
高2.5
100
AcDbText
  0
TEXT
  5
3058
330
36
100
AcDbEntity
  8
0
  6
Continuous
 62
     4
100
AcDbText
 10
2.674575201172411
 20
83.91925099466595
 30
0.0
 40
3.0
  1
白
100
AcDbText
  0
TEXT
  5
305B
330
36
100
AcDbEntity
  8
0
  6
Continuous
 62
     4
100
AcDbText
 10
10.01252311154572
 20
58.13000577694367
 30
0.0
 40
3.0
  1
乳白
100
AcDbText
  0
LINE
  5
305E
330
36
100
AcDbEntity
  8
0
  6
Continuous
100
AcDbLine
 10
-41.35918016248346
 20
79.2264458849861
 30
0.0
 11
-45.18582235712754
 21
79.2264458849861
 31
0.0
  0
LINE
  5
305F
330
36
100
AcDbEntity
  8
0
  6
Continuous
100
AcDbLine
 10
-41.35918016248346
 20
66.2264458849861
 30
0.0
 11
-45.18582235712754
 21
66.2264458849861
 31
0.0
  0
LINE
  5
3060
330
36
100
AcDbEntity
  8
0
  6
Continuous
100
AcDbLine
 10
-43.93582235712754
 20
63.7264458849861
 30
0.0
 11
-43.93582235712754
 21
61.2264458849861
 31
0.0
  0
LINE
  5
3061
330
36
100
AcDbEntity
  8
0
  6
Continuous
100
AcDbLine
 10
-43.93582235712753
 20
81.72644588498611
 30
0.0
 11
-43.93582235712753
 21
93.4764458849861
 31
0.0
  0
LINE
  5
3062
330
36
100
AcDbEntity
  8
0
  6
Continuous
100
AcDbLine
 10
-43.93582235712754
 20
66.2264458849861
 30
0.0
 11
-43.93582235712754
 21
79.2264458849861
 31
0.0
  0
LINE
  5
3066
330
36
100
AcDbEntity
  8
0
  6
Continuous
100
AcDbLine
 10
38.6664283769142
 20
73.27269588498609
 30
0.0
 11
38.6664283769142
 21
104.3531517358026
 31
0.0
  0
LINE
  5
3067
330
36
100
AcDbEntity
  8
0
  6
Continuous
100
AcDbLine
 10
-82.48161670140374
 20
73.2726958849861
 30
0.0
 11
-82.48161670140374
 21
104.3531517358026
 31
0.0
  0
LINE
  5
3068
330
36
100
AcDbEntity
  8
0
  6
Continuous
100
AcDbLine
 10
36.1664283769142
 20
103.1031517358026
 30
0.0
 11
-79.98161670140375
 21
103.1031517358026
 31
0.0
  0
LINE
  5
306C
330
36
100
AcDbEntity
  8
0
  6
Continuous
100
AcDbLine
 10
35.11642837691422
 20
79.37644588498611
 30
0.0
 11
35.11642837691422
 21
98.31633973020712
 31
0.0
  0
LINE
  5
306D
330
36
100
AcDbEntity
  8
0
  6
Continuous
100
AcDbLine
 10
-78.93161670140376
 20
79.47644588498609
 30
0.0
 11
-78.93161670140376
 21
98.31633973020712
 31
0.0
  0
LINE
  5
306E
330
36
100
AcDbEntity
  8
0
  6
Continuous
100
AcDbLine
 10
32.61642837691422
 20
97.06633973020712
 30
0.0
 11
-76.43161670140376
 21
97.06633973020712
 31
0.0
  0
LINE
  5
3072
330
36
100
AcDbEntity
  8
0
  6
Continuous
100
AcDbLine
 10
61.68765139121659
 20
72.9764458849861
 30
0.0
 11
61.68765139121659
 21
89.5194068620076
 31
0.0
  0
LINE
  5
3073
330
36
100
AcDbEntity
  8
0
  6
Continuous
100
AcDbLine
 10
75.68765139121659
 20
72.9764458849861
 30
0.0
 11
75.68765139121659
 21
89.5194068620076
 31
0.0
  0
LINE
  5
3074
330
36
100
AcDbEntity
  8
0
  6
Continuous
100
AcDbLine
 10
64.18765139121659
 20
88.2694068620076
 30
0.0
 11
73.18765139121659
 21
88.2694068620076
 31
0.0
  0
LINE
  5
3078
330
36
100
AcDbEntity
  8
0
 62
     3
100
AcDbLine
 10
-44.17703238000011
 20
138.95788257
 30
0.0
 11
-44.19565991000013
 21
139.07715034
 31
0.0
  0
LINE
  5
3079
330
36
100
AcDbEntity
  8
0
 62
     3
100
AcDbLine
 10
-44.19565991000013
 20
139.07715034
 30
0.0
 11
-44.21803109000006
 21
139.19135512
 31
0.0
  0
LINE
  5
307A
330
36
100
AcDbEntity
  8
0
 62
     3
100
AcDbLine
 10
-44.21803109000006
 20
139.19135512
 30
0.0
 11
-44.2439730200001
 21
139.2996141799999
 31
0.0
  0
LINE
  5
307B
330
36
100
AcDbEntity
  8
0
 62
     3
100
AcDbLine
 10
-44.2439730200001
 20
139.2996141799999
 30
0.0
 11
-44.2732851600001
 21
139.4010907299999
 31
0.0
  0
LINE
  5
307C
330
36
100
AcDbEntity
  8
0
 62
     3
100
AcDbLine
 10
-44.2732851600001
 20
139.4010907299999
 30
0.0
 11
-44.30574096999999
 21
139.49500041
 31
0.0
  0
LINE
  5
307D
330
36
100
AcDbEntity
  8
0
 62
     3
100
AcDbLine
 10
-44.30574096999999
 20
139.49500041
 30
0.0
 11
-44.34108956
 21
139.58061735
 31
0.0
  0
LINE
  5
307E
330
36
100
AcDbEntity
  8
0
 62
     3
100
AcDbLine
 10
-44.34108956
 20
139.58061735
 30
0.0
 11
-44.3790577100001
 21
139.6572797599999
 31
0.0
  0
LINE
  5
307F
330
36
100
AcDbEntity
  8
0
 62
     3
100
AcDbLine
 10
-44.3790577100001
 20
139.6572797599999
 30
0.0
 11
-44.41935196000009
 21
139.7243951
 31
0.0
  0
LINE
  5
3080
330
36
100
AcDbEntity
  8
0
 62
     3
100
AcDbLine
 10
-44.41935196000009
 20
139.7243951
 30
0.0
 11
-44.46166083000025
 21
139.7814445899999
 31
0.0
  0
LINE
  5
3081
330
36
100
AcDbEntity
  8
0
 62
     3
100
AcDbLine
 10
-44.46166083000025
 20
139.7814445899999
 30
0.0
 11
-44.50565732000018
 21
139.82798726
 31
0.0
  0
LINE
  5
3082
330
36
100
AcDbEntity
  8
0
 62
     3
100
AcDbLine
 10
-44.50565732000018
 20
139.82798726
 30
0.0
 11
-44.55100134000008
 21
139.8636633799999
 31
0.0
  0
LINE
  5
3083
330
36
100
AcDbEntity
  8
0
 62
     3
100
AcDbLine
 10
-44.55100134000008
 20
139.8636633799999
 30
0.0
 11
-44.59734241000023
 21
139.88819717
 31
0.0
  0
LINE
  5
3084
330
36
100
AcDbEntity
  8
0
 62
     3
100
AcDbLine
 10
-44.59734241000023
 20
139.88819717
 30
0.0
 11
-44.64432235000002
 21
139.90139902
 31
0.0
  0
LINE
  5
3085
330
36
100
AcDbEntity
  8
0
 62
     3
100
AcDbLine
 10
-44.64432235000002
 20
139.90139902
 30
0.0
 11
-44.69157801000005
 21
139.90316686
 31
0.0
  0
LINE
  5
3086
330
36
100
AcDbEntity
  8
0
 62
     3
100
AcDbLine
 10
-44.69157801000005
 20
139.90316686
 30
0.0
 11
-44.7387441400001
 21
139.8934870499999
 31
0.0
  0
LINE
  5
3087
330
36
100
AcDbEntity
  8
0
 62
     3
100
AcDbLine
 10
-44.7387441400001
 20
139.8934870499999
 30
0.0
 11
-44.78545617000007
 21
139.8724343899999
 31
0.0
  0
LINE
  5
3088
330
36
100
AcDbEntity
  8
0
 62
     3
100
AcDbLine
 10
-44.78545617000007
 20
139.8724343899999
 30
0.0
 11
-44.83135303000017
 21
139.8401716199999
 31
0.0
  0
LINE
  5
3089
330
36
100
AcDbEntity
  8
0
 62
     3
100
AcDbLine
 10
-44.83135303000017
 20
139.8401716199999
 30
0.0
 11
-44.87607997000011
 21
139.79694811
 31
0.0
  0
LINE
  5
308A
330
36
100
AcDbEntity
  8
0
 62
     3
100
AcDbLine
 10
-44.87607997000011
 20
139.79694811
 30
0.0
 11
-44.91929128000015
 21
139.74309795
 31
0.0
  0
LINE
  5
308B
330
36
100
AcDbEntity
  8
0
 62
     3
100
AcDbLine
 10
-44.91929128000015
 20
139.74309795
 30
0.0
 11
-44.96065294000003
 21
139.6790373799999
 31
0.0
  0
LINE
  5
308C
330
36
100
AcDbEntity
  8
0
 62
     3
100
AcDbLine
 10
-44.96065294000003
 20
139.6790373799999
 30
0.0
 11
-44.99984526000026
 21
139.60526156
 31
0.0
  0
LINE
  5
308D
330
36
100
AcDbEntity
  8
0
 62
     3
100
AcDbLine
 10
-44.99984526000026
 20
139.60526156
 30
0.0
 11
-45.0365653000001
 21
139.52234073
 31
0.0
  0
LINE
  5
308E
330
36
100
AcDbEntity
  8
0
 62
     3
100
AcDbLine
 10
-45.0365653000001
 20
139.52234073
 30
0.0
 11
-45.07052923000014
 21
139.43091582
 31
0.0
  0
LINE
  5
308F
330
36
100
AcDbEntity
  8
0
 62
     3
100
AcDbLine
 10
-45.07052923000014
 20
139.43091582
 30
0.0
 11
-45.10147453000013
 21
139.33169352
 31
0.0
  0
LINE
  5
3090
330
36
100
AcDbEntity
  8
0
 62
     3
100
AcDbLine
 10
-45.10147453000013
 20
139.33169352
 30
0.0
 11
-45.12916201000006
 21
139.2254407499999
 31
0.0
  0
LINE
  5
3091
330
36
100
AcDbEntity
  8
0
 62
     3
100
AcDbLine
 10
-45.12916201000006
 20
139.2254407499999
 30
0.0
 11
-45.15337766000015
 21
139.1129787899999
 31
0.0
  0
LINE
  5
3092
330
36
100
AcDbEntity
  8
0
 62
     3
100
AcDbLine
 10
-45.15337766000015
 20
139.1129787899999
 30
0.0
 11
-45.17393430000015
 21
138.99517691
 31
0.0
  0
LINE
  5
3093
330
36
100
AcDbEntity
  8
0
 62
     3
100
AcDbLine
 10
-45.17393430000015
 20
138.99517691
 30
0.0
 11
-45.19067304000009
 21
138.87294567
 31
0.0
  0
LINE
  5
3094
330
36
100
AcDbEntity
  8
0
 62
     3
100
AcDbLine
 10
-45.19067304000009
 20
138.87294567
 30
0.0
 11
-45.2034645000001
 21
138.7472298499999
 31
0.0
  0
LINE
  5
3095
330
36
100
AcDbEntity
  8
0
 62
     3
100
AcDbLine
 10
-45.2034645000001
 20
138.7472298499999
 30
0.0
 11
-45.2122098100001
 21
138.61900117
 31
0.0
  0
LINE
  5
3096
330
36
100
AcDbEntity
  8
0
 62
     3
100
AcDbLine
 10
-45.2122098100001
 20
138.61900117
 30
0.0
 11
-45.2168413700001
 21
138.48925076
 31
0.0
  0
LINE
  5
3097
330
36
100
AcDbEntity
  8
0
 62
     3
100
AcDbLine
 10
-45.2168413700001
 20
138.48925076
 30
0.0
 11
-45.21732338000015
 21
138.3589815299999
 31
0.0
  0
LINE
  5
3098
330
36
100
AcDbEntity
  8
0
 62
     3
100
AcDbLine
 10
-45.21732338000015
 20
138.3589815299999
 30
0.0
 11
-45.21365212
 21
138.2292004099999
 31
0.0
  0
LINE
  5
3099
330
36
100
AcDbEntity
  8
0
 62
     3
100
AcDbLine
 10
-45.21365212
 20
138.2292004099999
 30
0.0
 11
-45.20585596
 21
138.10091052
 31
0.0
  0
LINE
  5
309A
330
36
100
AcDbEntity
  8
0
 62
     3
100
AcDbLine
 10
-45.20585596
 20
138.10091052
 30
0.0
 11
-45.19399516000021
 21
137.97510348
 31
0.0
  0
LINE
  5
309B
330
36
100
AcDbEntity
  8
0
 62
     3
100
AcDbLine
 10
-45.19399516000021
 20
137.97510348
 30
0.0
 11
-45.17816140000014
 21
137.85275171
 31
0.0
  0
LINE
  5
309C
330
36
100
AcDbEntity
  8
0
 62
     3
100
AcDbLine
 10
-45.17816140000014
 20
137.85275171
 30
0.0
 11
-45.15847708000001
 21
137.73480094
 31
0.0
  0
LINE
  5
309D
330
36
100
AcDbEntity
  8
0
 62
     3
100
AcDbLine
 10
-45.15847708000001
 20
137.73480094
 30
0.0
 11
-45.13509432000001
 21
137.62216287
 31
0.0
  0
LINE
  5
309E
330
36
100
AcDbEntity
  8
0
 62
     3
100
AcDbLine
 10
-45.13509432000001
 20
137.62216287
 30
0.0
 11
-45.10819389000015
 21
137.51570811
 31
0.0
  0
LINE
  5
309F
330
36
100
AcDbEntity
  8
0
 62
     3
100
AcDbLine
 10
-45.10819389000015
 20
137.51570811
 30
0.0
 11
-45.0779836900001
 21
137.41625952
 31
0.0
  0
LINE
  5
30A0
330
36
100
AcDbEntity
  8
0
 62
     3
100
AcDbLine
 10
-45.0779836900001
 20
137.41625952
 30
0.0
 11
-45.04469723999998
 21
137.32458579
 31
0.0
  0
LINE
  5
30A1
330
36
100
AcDbEntity
  8
0
 62
     3
100
AcDbLine
 10
-45.04469723999998
 20
137.32458579
 30
0.0
 11
-45.00859184000001
 21
137.24139549
 31
0.0
  0
LINE
  5
30A2
330
36
100
AcDbEntity
  8
0
 62
     3
100
AcDbLine
 10
-45.00859184000001
 20
137.24139549
 30
0.0
 11
-44.96994654000014
 21
137.1673316599999
 31
0.0
  0
LINE
  5
30A3
330
36
100
AcDbEntity
  8
0
 62
     3
100
AcDbLine
 10
-44.96994654000014
 20
137.1673316599999
 30
0.0
 11
-44.92906006000021
 21
137.10296677
 31
0.0
  0
LINE
  5
30A4
330
36
100
AcDbEntity
  8
0
 62
     3
100
AcDbLine
 10
-44.92906006000021
 20
137.10296677
 30
0.0
 11
-44.88624844000014
 21
137.04879832
 31
0.0
  0
LINE
  5
30A5
330
36
100
AcDbEntity
  8
0
 62
     3
100
AcDbLine
 10
-44.88624844000014
 20
137.04879832
 30
0.0
 11
-44.84184258000005
 21
137.005245
 31
0.0
  0
LINE
  5
30A6
330
36
100
AcDbEntity
  8
0
 62
     3
100
AcDbLine
 10
-44.84184258000005
 20
137.005245
 30
0.0
 11
-44.79618573000015
 21
136.9726434699999
 31
0.0
  0
LINE
  5
30A7
330
36
100
AcDbEntity
  8
0
 62
     3
100
AcDbLine
 10
-44.79618573000015
 20
136.9726434699999
 30
0.0
 11
-44.74963077000007
 21
136.9512457099999
 31
0.0
  0
LINE
  5
30A8
330
36
100
AcDbEntity
  8
0
 62
     3
100
AcDbLine
 10
-44.74963077000007
 20
136.9512457099999
 30
0.0
 11
-44.7025375600001
 21
136.94121713
 31
0.0
  0
LINE
  5
30A9
330
36
100
AcDbEntity
  8
0
 62
     3
100
AcDbLine
 10
-44.7025375600001
 20
136.94121713
 30
0.0
 11
-44.65527011000017
 21
136.9426352299999
 31
0.0
  0
LINE
  5
30AA
330
36
100
AcDbEntity
  8
0
 62
     3
100
AcDbLine
 10
-44.65527011000017
 20
136.9426352299999
 30
0.0
 11
-44.60819377000006
 21
136.95548905
 31
0.0
  0
LINE
  5
30AB
330
36
100
AcDbEntity
  8
0
 62
     3
100
AcDbLine
 10
-44.60819377000006
 20
136.95548905
 30
0.0
 11
-44.56167241000001
 21
136.97967925
 31
0.0
  0
LINE
  5
30AC
330
36
100
AcDbEntity
  8
0
 62
     3
100
AcDbLine
 10
-44.56167241000001
 20
136.97967925
 30
0.0
 11
-44.51606562000007
 21
137.01501883
 31
0.0
  0
LINE
  5
30AD
330
36
100
AcDbEntity
  8
0
 62
     3
100
AcDbLine
 10
-44.51606562000007
 20
137.01501883
 30
0.0
 11
-44.47172592000015
 21
137.0612346499999
 31
0.0
  0
LINE
  5
30AE
330
36
100
AcDbEntity
  8
0
 62
     3
100
AcDbLine
 10
-44.47172592000015
 20
137.0612346499999
 30
0.0
 11
-44.42899603000022
 21
137.1179694899999
 31
0.0
  0
LINE
  5
30AF
330
36
100
AcDbEntity
  8
0
 62
     3
100
AcDbLine
 10
-44.42899603000022
 20
137.1179694899999
 30
0.0
 11
-44.38820623000014
 21
137.1847848
 31
0.0
  0
LINE
  5
30B0
330
36
100
AcDbEntity
  8
0
 62
     3
100
AcDbLine
 10
-44.38820623000014
 20
137.1847848
 30
0.0
 11
-44.3496718000001
 21
137.26116415
 31
0.0
  0
LINE
  5
30B1
330
36
100
AcDbEntity
  8
0
 62
     3
100
AcDbLine
 10
-44.3496718000001
 20
137.26116415
 30
0.0
 11
-44.31369059999997
 21
137.3465171599999
 31
0.0
  0
LINE
  5
30B2
330
36
100
AcDbEntity
  8
0
 62
     3
100
AcDbLine
 10
-44.31369059999997
 20
137.3465171599999
 30
0.0
 11
-44.2805407400001
 21
137.44018409
 31
0.0
  0
LINE
  5
30B3
330
36
100
AcDbEntity
  8
0
 62
     3
100
AcDbLine
 10
-44.2805407400001
 20
137.44018409
 30
0.0
 11
-44.25047846000007
 21
137.54144095
 31
0.0
  0
LINE
  5
30B4
330
36
100
AcDbEntity
  8
0
 62
     3
100
AcDbLine
 10
-44.25047846000007
 20
137.54144095
 30
0.0
 11
-44.2237361100001
 21
137.64950507
 31
0.0
  0
LINE
  5
30B5
330
36
100
AcDbEntity
  8
0
 62
     3
100
AcDbLine
 10
-44.2237361100001
 20
137.64950507
 30
0.0
 11
-44.20052041000007
 21
137.7635411799999
 31
0.0
  0
LINE
  5
30B6
330
36
100
AcDbEntity
  8
0
 62
     3
100
AcDbLine
 10
-44.20052041000007
 20
137.7635411799999
 30
0.0
 11
-44.18101079999996
 21
137.8826678299999
 31
0.0
  0
LINE
  5
30B7
330
36
100
AcDbEntity
  8
0
  6
Continuous
100
AcDbLine
 10
53.00312384200609
 20
33.4086754886373
 30
0.0
 11
53.00312384200609
 21
38.31732579885989
 31
0.0
1001
ACAD
1000
DSTYLE
1002
{
1070
   147
1040
0.625
1070
    77
1070
     0
1002
}
  0
LINE
  5
30B8
330
36
100
AcDbEntity
  8
0
  6
ByBlock
 62
     0
370
    -2
100
AcDbLine
 10
53.67299634200609
 20
33.4086754886373
 30
0.0
 11
53.00312384200609
 21
30.9086754886373
 31
0.0
  0
LINE
  5
30B9
330
36
100
AcDbEntity
  8
0
  6
ByBlock
 62
     0
370
    -2
100
AcDbLine
 10
53.00312384200609
 20
30.9086754886373
 30
0.0
 11
52.33325134200609
 21
33.4086754886373
 31
0.0
  0
LINE
  5
30BA
330
36
100
AcDbEntity
  8
0
  6
ByBlock
 62
     0
370
    -2
100
AcDbLine
 10
53.00312384200609
 20
30.9086754886373
 30
0.0
 11
53.00312384200609
 21
33.4086754886373
 31
0.0
  0
LINE
  5
30BB
330
36
100
AcDbEntity
  8
0
  6
Continuous
100
AcDbLine
 10
48.09447353178348
 20
38.31732579885989
 30
0.0
 11
53.00312384200609
 21
38.31732579885989
 31
0.0
1001
ACAD
1000
DSTYLE
1002
{
1070
   147
1040
0.625
1070
    77
1070
     0
1002
}
  0
LINE
  5
30BC
330
36
100
AcDbEntity
  8
0
  6
ByBlock
 62
     0
370
    -2
100
AcDbLine
 10
48.09447353178348
 20
37.64745329885989
 30
0.0
 11
45.59447353178348
 21
38.31732579885989
 31
0.0
  0
LINE
  5
30BD
330
36
100
AcDbEntity
  8
0
  6
ByBlock
 62
     0
370
    -2
100
AcDbLine
 10
45.59447353178348
 20
38.31732579885989
 30
0.0
 11
48.09447353178348
 21
38.98719829885989
 31
0.0
  0
LINE
  5
30BE
330
36
100
AcDbEntity
  8
0
  6
ByBlock
 62
     0
370
    -2
100
AcDbLine
 10
45.59447353178348
 20
38.31732579885989
 30
0.0
 11
48.09447353178348
 21
38.31732579885989
 31
0.0
  0
LINE
  5
30BF
330
36
100
AcDbEntity
  8
0
  6
Continuous
100
AcDbLine
 10
53.00312384200609
 20
43.2259761090824
 30
0.0
 11
53.00312384200609
 21
38.31732579885989
 31
0.0
1001
ACAD
1000
DSTYLE
1002
{
1070
   147
1040
0.625
1070
    77
1070
     0
1002
}
  0
LINE
  5
30C0
330
36
100
AcDbEntity
  8
0
  6
ByBlock
 62
     0
370
    -2
100
AcDbLine
 10
52.33325134200609
 20
43.2259761090824
 30
0.0
 11
53.00312384200609
 21
45.7259761090824
 31
0.0
  0
LINE
  5
30C1
330
36
100
AcDbEntity
  8
0
  6
ByBlock
 62
     0
370
    -2
100
AcDbLine
 10
53.00312384200609
 20
45.7259761090824
 30
0.0
 11
53.67299634200609
 21
43.2259761090824
 31
0.0
  0
LINE
  5
30C2
330
36
100
AcDbEntity
  8
0
  6
ByBlock
 62
     0
370
    -2
100
AcDbLine
 10
53.00312384200609
 20
45.7259761090824
 30
0.0
 11
53.00312384200609
 21
43.2259761090824
 31
0.0
  0
LINE
  5
30C3
330
36
100
AcDbEntity
  8
0
  6
Continuous
100
AcDbLine
 10
57.91177415222865
 20
38.31732579885989
 30
0.0
 11
53.00312384200609
 21
38.31732579885989
 31
0.0
1001
ACAD
1000
DSTYLE
1002
{
1070
   147
1040
0.625
1070
    77
1070
     0
1002
}
  0
LINE
  5
30C4
330
36
100
AcDbEntity
  8
0
  6
ByBlock
 62
     0
370
    -2
100
AcDbLine
 10
57.91177415222865
 20
38.98719829885989
 30
0.0
 11
60.41177415222865
 21
38.31732579885989
 31
0.0
  0
LINE
  5
30C5
330
36
100
AcDbEntity
  8
0
  6
ByBlock
 62
     0
370
    -2
100
AcDbLine
 10
60.41177415222865
 20
38.31732579885989
 30
0.0
 11
57.91177415222865
 21
37.6474532988599
 31
0.0
  0
LINE
  5
30C6
330
36
100
AcDbEntity
  8
0
  6
ByBlock
 62
     0
370
    -2
100
AcDbLine
 10
60.41177415222865
 20
38.31732579885989
 30
0.0
 11
57.91177415222865
 21
38.31732579885989
 31
0.0
  0
LINE
  5
30C7
330
36
100
AcDbEntity
  8
0
  6
Continuous
100
AcDbLine
 10
-2.720155245418279
 20
81.32115926470524
 30
0.0
 11
-0.050424798827589
 21
85.41925099466595
 31
0.0
1001
ACAD
1000
DSTYLE
1002
{
1070
   147
1040
0.625
1070
    77
1070
     0
1002
}
  0
LINE
  5
30C8
330
36
100
AcDbEntity
  8
0
  6
Continuous
100
AcDbLine
 10
-0.050424798827589
 20
85.41925099466595
 30
0.0
 11
2.449575201172411
 21
85.41925099466595
 31
0.0
1001
ACAD
1000
DSTYLE
1002
{
1070
   147
1040
0.625
1070
    77
1070
     0
1002
}
  0
LINE
  5
30C9
330
36
100
AcDbEntity
  8
0
  6
ByBlock
 62
     0
370
    -2
100
AcDbLine
 10
-2.158878890035914
 20
80.95551186741525
 30
0.0
 11
-4.084770889775922
 21
79.2264458849861
 31
0.0
  0
LINE
  5
30CA
330
36
100
AcDbEntity
  8
0
  6
ByBlock
 62
     0
370
    -2
100
AcDbLine
 10
-4.084770889775922
 20
79.2264458849861
 30
0.0
 11
-3.281431600800641
 21
81.68680666199524
 31
0.0
  0
LINE
  5
30CB
330
36
100
AcDbEntity
  8
0
  6
ByBlock
 62
     0
370
    -2
100
AcDbLine
 10
-4.084770889775922
 20
79.2264458849861
 30
0.0
 11
-2.720155245418278
 21
81.32115926470524
 31
0.0
  0
LINE
  5
30CC
330
36
100
AcDbEntity
  8
0
  6
Continuous
100
AcDbLine
 10
4.211570131482031
 20
64.08352896708942
 30
0.0
 11
6.887523111545721
 21
59.63000577694367
 31
0.0
1001
ACAD
1000
DSTYLE
1002
{
1070
   147
1040
0.625
1070
    77
1070
     0
1002
}
  0
LINE
  5
30CD
330
36
100
AcDbEntity
  8
0
  6
Continuous
100
AcDbLine
 10
6.887523111545721
 20
59.63000577694367
 30
0.0
 11
9.387523111545721
 21
59.63000577694367
 31
0.0
1001
ACAD
1000
DSTYLE
1002
{
1070
   147
1040
0.625
1070
    77
1070
     0
1002
}
  0
LINE
  5
30CE
330
36
100
AcDbEntity
  8
0
  6
ByBlock
 62
     0
370
    -2
100
AcDbLine
 10
3.637377686248533
 20
63.73851852943133
 30
0.0
 11
2.923972724296001
 21
66.2264458849861
 31
0.0
  0
LINE
  5
30CF
330
36
100
AcDbEntity
  8
0
  6
ByBlock
 62
     0
370
    -2
100
AcDbLine
 10
2.923972724296001
 20
66.2264458849861
 30
0.0
 11
4.785762576715529
 21
64.42853940474751
 31
0.0
  0
LINE
  5
30D0
330
36
100
AcDbEntity
  8
0
  6
ByBlock
 62
     0
370
    -2
100
AcDbLine
 10
2.923972724296001
 20
66.2264458849861
 30
0.0
 11
4.211570131482031
 21
64.08352896708942
 31
0.0
  0
TEXT
  5
30D1
330
36
100
AcDbEntity
  8
0
  6
Continuous
 62
     4
100
AcDbText
 10
-44.56082235712755
 20
84.85144588498609
 30
0.0
 40
3.0
  1
\U+220526
 50
90.0
100
AcDbText
  0
LINE
  5
30D2
330
36
100
AcDbEntity
  8
0
  6
ByBlock
 62
     0
370
    -2
100
AcDbLine
 10
-43.26594985712754
 20
81.72644588498611
 30
0.0
 11
-43.93582235712754
 21
79.2264458849861
 31
0.0
  0
LINE
  5
30D3
330
36
100
AcDbEntity
  8
0
  6
ByBlock
 62
     0
370
    -2
100
AcDbLine
 10
-43.93582235712754
 20
79.2264458849861
 30
0.0
 11
-44.60569485712754
 21
81.72644588498611
 31
0.0
  0
LINE
  5
30D4
330
36
100
AcDbEntity
  8
0
  6
ByBlock
 62
     0
370
    -2
100
AcDbLine
 10
-43.93582235712754
 20
79.2264458849861
 30
0.0
 11
-43.93582235712754
 21
81.72644588498611
 31
0.0
  0
LINE
  5
30D5
330
36
100
AcDbEntity
  8
0
  6
ByBlock
 62
     0
370
    -2
100
AcDbLine
 10
-44.60569485712754
 20
63.7264458849861
 30
0.0
 11
-43.93582235712754
 21
66.2264458849861
 31
0.0
  0
LINE
  5
30D6
330
36
100
AcDbEntity
  8
0
  6
ByBlock
 62
     0
370
    -2
100
AcDbLine
 10
-43.93582235712754
 20
66.2264458849861
 30
0.0
 11
-43.26594985712755
 21
63.7264458849861
 31
0.0
  0
LINE
  5
30D7
330
36
100
AcDbEntity
  8
0
  6
ByBlock
 62
     0
370
    -2
100
AcDbLine
 10
-43.93582235712754
 20
66.2264458849861
 30
0.0
 11
-43.93582235712754
 21
63.7264458849861
 31
0.0
  0
TEXT
  5
30D8
330
36
100
AcDbEntity
  8
0
  6
Continuous
 62
     4
100
AcDbText
 10
-28.40759416224478
 20
103.7281517358026
 30
0.0
 40
3.0
  1
1212.2
100
AcDbText
  0
LINE
  5
30D9
330
36
100
AcDbEntity
  8
0
  6
ByBlock
 62
     0
370
    -2
100
AcDbLine
 10
-79.98161670140375
 20
102.4332792358026
 30
0.0
 11
-82.48161670140374
 21
103.1031517358026
 31
0.0
  0
LINE
  5
30DA
330
36
100
AcDbEntity
  8
0
  6
ByBlock
 62
     0
370
    -2
100
AcDbLine
 10
-82.48161670140374
 20
103.1031517358026
 30
0.0
 11
-79.98161670140375
 21
103.7730242358026
 31
0.0
  0
LINE
  5
30DB
330
36
100
AcDbEntity
  8
0
  6
ByBlock
 62
     0
370
    -2
100
AcDbLine
 10
-82.48161670140374
 20
103.1031517358026
 30
0.0
 11
-79.98161670140375
 21
103.1031517358026
 31
0.0
  0
LINE
  5
30DC
330
36
100
AcDbEntity
  8
0
  6
ByBlock
 62
     0
370
    -2
100
AcDbLine
 10
36.1664283769142
 20
103.7730242358026
 30
0.0
 11
38.6664283769142
 21
103.1031517358026
 31
0.0
  0
LINE
  5
30DD
330
36
100
AcDbEntity
  8
0
  6
ByBlock
 62
     0
370
    -2
100
AcDbLine
 10
38.6664283769142
 20
103.1031517358026
 30
0.0
 11
36.1664283769142
 21
102.4332792358026
 31
0.0
  0
LINE
  5
30DE
330
36
100
AcDbEntity
  8
0
  6
ByBlock
 62
     0
370
    -2
100
AcDbLine
 10
38.6664283769142
 20
103.1031517358026
 30
0.0
 11
36.1664283769142
 21
103.1031517358026
 31
0.0
  0
TEXT
  5
30DF
330
36
100
AcDbEntity
  8
0
  6
Continuous
 62
     4
100
AcDbText
 10
-26.40759416224478
 20
97.69133973020712
 30
0.0
 40
3.0
  1
1198
100
AcDbText
  0
LINE
  5
30E0
330
36
100
AcDbEntity
  8
0
  6
ByBlock
 62
     0
370
    -2
100
AcDbLine
 10
-76.43161670140376
 20
96.39646723020712
 30
0.0
 11
-78.93161670140376
 21
97.06633973020712
 31
0.0
  0
LINE
  5
30E1
330
36
100
AcDbEntity
  8
0
  6
ByBlock
 62
     0
370
    -2
100
AcDbLine
 10
-78.93161670140376
 20
97.06633973020712
 30
0.0
 11
-76.43161670140376
 21
97.73621223020711
 31
0.0
  0
LINE
  5
30E2
330
36
100
AcDbEntity
  8
0
  6
ByBlock
 62
     0
370
    -2
100
AcDbLine
 10
-78.93161670140376
 20
97.06633973020712
 30
0.0
 11
-76.43161670140376
 21
97.06633973020712
 31
0.0
  0
LINE
  5
30E3
330
36
100
AcDbEntity
  8
0
  6
ByBlock
 62
     0
370
    -2
100
AcDbLine
 10
32.61642837691422
 20
97.73621223020711
 30
0.0
 11
35.11642837691422
 21
97.06633973020712
 31
0.0
  0
LINE
  5
30E4
330
36
100
AcDbEntity
  8
0
  6
ByBlock
 62
     0
370
    -2
100
AcDbLine
 10
35.11642837691422
 20
97.06633973020712
 30
0.0
 11
32.61642837691422
 21
96.39646723020712
 31
0.0
  0
LINE
  5
30E5
330
36
100
AcDbEntity
  8
0
  6
ByBlock
 62
     0
370
    -2
100
AcDbLine
 10
35.11642837691422
 20
97.06633973020712
 30
0.0
 11
32.61642837691422
 21
97.06633973020712
 31
0.0
  0
TEXT
  5
30E6
330
36
100
AcDbEntity
  8
0
  6
Continuous
 62
     4
100
AcDbText
 10
64.68765139121659
 20
88.8944068620076
 30
0.0
 40
3.0
  1
\U+220528
100
AcDbText
  0
LINE
  5
30E7
330
36
100
AcDbEntity
  8
0
  6
ByBlock
 62
     0
370
    -2
100
AcDbLine
 10
73.18765139121659
 20
88.93927936200759
 30
0.0
 11
75.68765139121659
 21
88.2694068620076
 31
0.0
  0
LINE
  5
30E8
330
36
100
AcDbEntity
  8
0
  6
ByBlock
 62
     0
370
    -2
100
AcDbLine
 10
75.68765139121659
 20
88.2694068620076
 30
0.0
 11
73.18765139121659
 21
87.5995343620076
 31
0.0
  0
LINE
  5
30E9
330
36
100
AcDbEntity
  8
0
  6
ByBlock
 62
     0
370
    -2
100
AcDbLine
 10
75.68765139121659
 20
88.2694068620076
 30
0.0
 11
73.18765139121659
 21
88.2694068620076
 31
0.0
  0
LINE
  5
30EA
330
36
100
AcDbEntity
  8
0
  6
ByBlock
 62
     0
370
    -2
100
AcDbLine
 10
64.18765139121659
 20
87.5995343620076
 30
0.0
 11
61.68765139121659
 21
88.2694068620076
 31
0.0
  0
LINE
  5
30EB
330
36
100
AcDbEntity
  8
0
  6
ByBlock
 62
     0
370
    -2
100
AcDbLine
 10
61.68765139121659
 20
88.2694068620076
 30
0.0
 11
64.18765139121659
 21
88.93927936200759
 31
0.0
  0
LINE
  5
30EC
330
36
100
AcDbEntity
  8
0
  6
ByBlock
 62
     0
370
    -2
100
AcDbLine
 10
61.68765139121659
 20
88.2694068620076
 30
0.0
 11
64.18765139121659
 21
88.2694068620076
 31
0.0
  0
ENDSEC
  0
SECTION
  2
OBJECTS
  0
DICTIONARY
  5
C
330
0
100
AcDbDictionary
281
     1
  3
ACAD_2007HEADERVARS_RT
350
30F2
  3
ACAD_COLOR
350
2F
  3
ACAD_GROUP
350
D
  3
ACAD_LAYOUT
350
2E
  3
ACAD_MATERIAL
350
10
  3
ACAD_MLEADERSTYLE
350
B6E
  3
ACAD_MLINESTYLE
350
2B
  3
ACAD_PLOTSETTINGS
350
2D
  3
ACAD_PLOTSTYLENAME
350
E
  3
ACAD_SCALELIST
350
B5C
  3
ACAD_TABLESTYLE
350
30
  3
ACAD_VISUALSTYLE
350
14
  3
AcadDim
350
10D8
  3
ACDB_RECOMPOSE_DATA
350
30F0
  3
AcDbVariableDictionary
350
2BD
  3
AEC_PROPERTY_SET_DEFS
350
2100
  3
DWGPROPS
350
30F1
  0
DICTIONARY
  5
2D5E
330
8
100
AcDbDictionary
280
     1
281
     1
  0
DICTIONARY
  5
2FE
330
2
100
AcDbDictionary
280
     1
281
     1
  3
ACAD_LAYERSTATES
360
2FF
  0
DICTIONARY
  5
DA4
330
25
100
AcDbDictionary
280
     1
281
     1
  3
ADSK_XREC_LAYER_RECONCILED
360
DA5
  0
DICTIONARY
  5
5D9
330
36
100
AcDbDictionary
280
     1
281
     1
  3
ACAD_SORTENTS
360
5DA
  0
DICTIONARY
  5
30F2
102
{ACAD_REACTORS
330
C
102
}
330
C
100
AcDbDictionary
281
     1
  3
DIMARCSYM
350
30F4
  3
DIMFXL
350
30F3
  3
DIMJOGANG
350
30F5
  0
DICTIONARY
  5
2F
102
{ACAD_REACTORS
330
C
102
}
330
C
100
AcDbDictionary
281
     1
  0
DICTIONARY
  5
D
102
{ACAD_REACTORS
330
C
102
}
330
C
100
AcDbDictionary
281
     1
  0
DICTIONARY
  5
2E
102
{ACAD_REACTORS
330
C
102
}
330
C
100
AcDbDictionary
281
     1
  3
Model
350
39
  3
レイアウト1
350
35
  0
DICTIONARY
  5
10
102
{ACAD_REACTORS
330
C
102
}
330
C
100
AcDbDictionary
281
     1
  3
ByBlock
350
12
  3
ByLayer
350
11
  3
Global
350
13
  0
DICTIONARY
  5
B6E
102
{ACAD_REACTORS
330
C
102
}
330
C
100
AcDbDictionary
281
     1
  3
Standard
350
B6F
  0
DICTIONARY
  5
2B
102
{ACAD_REACTORS
330
C
102
}
330
C
100
AcDbDictionary
281
     1
  3
Standard
350
2C
  0
DICTIONARY
  5
2D
102
{ACAD_REACTORS
330
C
102
}
330
C
100
AcDbDictionary
281
     1
  0
ACDBDICTIONARYWDFLT
  5
E
102
{ACAD_REACTORS
330
C
102
}
330
C
100
AcDbDictionary
281
     1
  3
Normal
350
F
100
AcDbDictionaryWithDefault
340
F
  0
DICTIONARY
  5
B5C
102
{ACAD_REACTORS
330
C
102
}
330
C
100
AcDbDictionary
281
     1
  3
A0
350
B5D
  3
A1
350
B5E
  3
A2
350
B5F
  3
A3
350
B60
  3
A4
350
B61
  3
A5
350
B62
  3
A6
350
B63
  3
A7
350
B64
  3
A8
350
B65
  3
A9
350
B66
  3
B0
350
B67
  3
B1
350
B68
  3
B2
350
B69
  3
B3
350
B6A
  3
B4
350
B6B
  3
B5
350
B6C
  3
B6
350
B6D
  0
DICTIONARY
  5
30
102
{ACAD_REACTORS
330
C
102
}
330
C
100
AcDbDictionary
281
     1
  3
Standard
350
31
  3
部品表
350
16E2
  0
DICTIONARY
  5
14
102
{ACAD_REACTORS
330
C
102
}
330
C
100
AcDbDictionary
281
     1
  3
2dWireframe
350
1A
  3
3D Hidden
350
1C
  3
3dWireframe
350
1B
  3
Basic
350
19
  3
Brighten
350
20
  3
ColorChange
350
24
  3
Conceptual
350
1D
  3
Dim
350
1F
  3
EdgeColorOff
350
B5B
  3
Facepattern
350
23
  3
Flat
350
15
  3
FlatWithEdges
350
16
  3
Gouraud
350
17
  3
GouraudWithEdges
350
18
  3
Hidden
350
B53
  3
JitterOff
350
B59
  3
Linepattern
350
22
  3
OverhangOff
350
B5A
  3
Realistic
350
1E
  3
Shaded
350
B58
  3
Shaded with edges
350
B57
  3
Shades of Gray
350
B54
  3
Sketchy
350
B55
  3
Thicken
350
21
  3
Wireframe
350
B52
  3
X-Ray
350
B56
  0
XRECORD
  5
10D8
102
{ACAD_REACTORS
330
C
102
}
330
C
100
AcDbXrecord
280
     1
 90
   990106
  3

 60
     0
 61
     0
 62
     1
 63
     3
 64
     0
 65
     0
 66
     0
 67
     3
 68
     1
 69
     0
 70
     0
 71
     0
 72
     0
 40
0.0
170
     0
340
0
  0
XRECORD
  5
30F0
102
{ACAD_REACTORS
330
C
102
}
330
C
100
AcDbXrecord
280
     1
 90
        1
330
31
330
16E2
  0
DICTIONARY
  5
2BD
102
{ACAD_REACTORS
330
C
102
}
330
C
100
AcDbDictionary
281
     1
  3
CANNOSCALE
350
DA9
  3
CMLEADERSTYLE
350
DA8
  3
CTABLESTYLE
350
2BE
  3
DIMASSOC
350
2C7
  3
INDEXCTL
350
2C6
  3
SORTENTS
350
2C5
  3
XCLIPFRAME
350
30ED
  0
DICTIONARY
  5
2100
102
{ACAD_REACTORS
330
C
102
}
330
C
100
AcDbDictionary
281
     1
  0
XRECORD
  5
30F1
102
{ACAD_REACTORS
330
C
102
}
330
C
100
AcDbXrecord
280
     1
  1
DWGPROPS COOKIE
  2

  3

  4

  6

  7

  8
imamura
  9

300
=
301
=
302
=
303
=
304
=
305
=
306
=
307
=
308
=
309
=
 40
1.291223796296296
 41
2455442.601448206
 42
2457872.373603345
  1

 90
        0
  0
DICTIONARY
  5
2FF
102
{ACAD_REACTORS
330
2FE
102
}
330
2FE
100
AcDbDictionary
281
     1
  0
XRECORD
  5
DA5
102
{ACAD_REACTORS
330
DA4
102
}
330
DA4
100
AcDbXrecord
280
     1
290
     1
  0
SORTENTSTABLE
  5
5DA
102
{ACAD_REACTORS
330
5D9
102
}
330
5D9
100
AcDbSortentsTable
330
36
331
17EF
  5
17EF
331
1BE5
  5
214A
331
17EB
  5
17EB
331
25F
  5
25F
331
1826
  5
1FBC
331
17E7
  5
17E7
331
1822
  5
1E24
331
17E3
  5
17E3
331
21B
  5
21B
331
180
  5
180
331
2D36
  5
30DD
331
30B4
  5
1CEE
331
2D32
  5
30D9
331
2126
  5
2DA3
331
30B0
  5
1855
331
30EB
  5
2C3F
331
2D2E
  5
30D7
331
2122
  5
2D50
331
30AC
  5
1851
331
2D2A
  5
30D3
331
30A8
  5
184D
331
211E
  5
2D40
331
3073
  5
2684
331
2159
  5
3080
331
2CD3
  5
30B1
331
211A
  5
2D3D
331
2C80
  5
3096
331
181E
  5
1D78
331
17DF
  5
17DF
331
1855
  5
213E
331
17DB
  5
17DB
331
181A
  5
181A
331
1816
  5
1816
331
1851
  5
213A
331
17D7
  5
17D7
331
1812
  5
1812
331
184D
  5
2136
331
17D3
  5
17D3
331
1160
  5
1160
331
1AF
  5
1AF
331
1849
  5
2130
331
1AB
  5
1AB
331
17C
  5
17C
331
178
  5
178
331
170
  5
170
331
30E7
  5
2C4C
331
30E3
  5
2CBD
331
2D26
  5
30CF
331
30A4
  5
1849
331
30DF
  5
2CCD
331
2DA1
  5
30E7
331
2D22
  5
30CB
331
2CCF
  5
30AD
331
2155
  5
307C
331
30A0
  5
1845
331
30DB
  5
2D0C
331
2D1E
  5
30C6
331
2151
  5
3079
331
3067
  5
2CCF
331
2CCB
  5
30A9
331
2112
  5
2D36
331
309C
  5
1841
331
2C4C
  5
214F
331
2D1A
  5
30C2
331
214D
  5
3075
331
2CC7
  5
30A5
331
210E
  5
2D32
331
3098
  5
183D
331
2149
  5
3071
331
210A
  5
2D2E
331
180E
  5
180E
331
17CF
  5
17CF
331
1845
  5
212C
331
17CB
  5
17CB
331
180A
  5
180A
331
1A7
  5
1A7
331
1841
  5
2125
331
17C7
  5
17C7
331
1806
  5
1806
331
FC4
  5
10B3
331
1A3
  5
1A3
331
1EDC
  5
2158
331
17C3
  5
17C3
331
183D
  5
2120
331
1802
  5
1802
331
19F
  5
19F
331
1ED8
  5
2154
331
1839
  5
211B
331
19B
  5
19B
331
16C
  5
16C
331
168
  5
168
331
30D7
  5
2D15
331
30D3
  5
2D17
331
2D16
  5
30BE
331
305F
  5
2D0F
331
3094
  5
1839
331
30CF
  5
2D1B
331
2D51
  5
30E6
331
2D12
  5
30BA
331
2145
  5
306D
331
305B
  5
2D20
331
2106
  5
2D2A
331
3090
  5
1835
331
2CBF
  5
2143
331
30CB
  5
2D23
331
2D0E
  5
30B6
331
2141
  5
306A
331
2102
  5
2D27
331
308C
  5
1831
331
2CB7
  5
30A0
331
213D
  5
3066
331
3088
  5
182D
331
2139
  5
3062
331
17FE
  5
17FE
331
1ED4
  5
214D
331
1835
  5
2117
331
17FA
  5
17FA
331
2A6
  5
2A6
331
1831
  5
2017
331
17F6
  5
17F6
331
193
  5
193
331
182D
  5
1FEF
331
17F2
  5
17F2
331
1829
  5
1FE0
331
18B
  5
18B
331
88
  5
88
331
30C7
  5
2D24
331
30C3
  5
3085
331
3084
  5
1829
331
30BF
  5
3089
331
2D41
  5
30C5
331
2135
  5
305E
331
3080
  5
1825
331
30BB
  5
308D
331
2D3D
  5
30E4
331
2131
  5
305C
331
307C
  5
1821
331
2D39
  5
30E0
331
2A98
  5
3094
331
212D
  5
3050
331
3078
  5
181D
331
17EE
  5
17EE
331
17EA
  5
17EA
331
1825
  5
1F6B
331
17E6
  5
17E6
331
1821
  5
1E23
331
17E2
  5
17E2
331
21A
  5
21A
331
183
  5
183
331
30B7
  5
3091
331
2D35
  5
30DC
331
30B3
  5
1BE7
331
2125
  5
2DA2
331
30AF
  5
1854
331
30EA
  5
2A99
331
2F6C
  5
30EC
331
2D2D
  5
30D6
331
2C8B
  5
309B
331
30AB
  5
1850
331
2D29
  5
30D2
331
3072
  5
2683
331
2158
  5
307F
331
2CD2
  5
30B0
331
2119
  5
2D3C
331
2C83
  5
3098
331
181D
  5
1D77
331
17DE
  5
17DE
331
1819
  5
1819
331
1854
  5
213D
331
17DA
  5
17DA
331
1815
  5
1815
331
1850
  5
2139
331
17D6
  5
17D6
331
1B2
  5
1B2
331
1811
  5
1811
331
184C
  5
2135
331
17D2
  5
17D2
331
1AE
  5
1AE
331
17F
  5
17F
331
1848
  5
212F
331
1AA
  5
1AA
331
17B
  5
17B
331
177
  5
177
331
30E6
  5
2CB5
331
30A7
  5
184C
331
30E2
  5
2CCC
331
2D25
  5
30CE
331
306E
  5
2CBC
331
30A3
  5
1848
331
30DE
  5
2CD3
331
2D21
  5
30CA
331
2154
  5
307B
331
2CCE
  5
30AC
331
2115
  5
2D39
331
309F
  5
1844
331
30DA
  5
2D0B
331
2D1D
  5
30C4
331
2150
  5
3078
331
3066
  5
2CCE
331
2CCA
  5
30A8
331
2111
  5
2D35
331
309B
  5
1840
331
2C4B
  5
2150
331
2D19
  5
30C1
331
214C
  5
3074
331
3062
  5
2D12
331
2CC6
  5
30A4
331
210D
  5
2D31
331
2148
  5
3070
331
2109
  5
2D2D
331
2CC2
  5
2147
331
17CE
  5
17CE
331
180D
  5
180D
331
1844
  5
212B
331
17CA
  5
17CA
331
1809
  5
1809
331
1A6
  5
1A6
331
1EDF
  5
2682
331
17C6
  5
17C6
331
1840
  5
2124
331
1805
  5
1805
331
1A2
  5
1A2
331
1EDB
  5
2157
331
183C
  5
211F
331
1801
  5
1801
331
19E
  5
19E
331
16F
  5
16F
331
1838
  5
211A
331
19A
  5
19A
331
16B
  5
16B
331
167
  5
167
331
163
  5
163
331
30D6
  5
2D14
331
3097
  5
183C
331
30D2
  5
2D16
331
2D15
  5
30BD
331
305E
  5
2D0E
331
3093
  5
1838
331
30CE
  5
2D1A
331
2D50
  5
30E5
331
2D11
  5
30B9
331
2105
  5
2D29
331
308F
  5
1834
331
2C3F
  5
2152
331
30CA
  5
2D22
331
2D0D
  5
30B5
331
2140
  5
3069
331
308B
  5
1830
331
2CB6
  5
309E
331
213C
  5
3065
331
2138
  5
3061
331
17FD
  5
17FD
331
1834
  5
2115
331
17F9
  5
17F9
331
2A5
  5
2A5
331
1CBF
  5
214C
331
17F5
  5
17F5
331
1830
  5
2016
331
192
  5
192
331
182C
  5
1FEE
331
17F1
  5
17F1
331
1828
  5
1FDF
331
30C6
  5
3084
331
3087
  5
182C
331
30C2
  5
3088
331
3083
  5
1828
331
30BE
  5
308C
331
2D40
  5
30A1
331
2134
  5
305D
331
307F
  5
1824
331
30BA
  5
3090
331
2D3C
  5
30E3
331
2130
  5
3053
331
307B
  5
1820
331
2D38
  5
30DF
331
2687
  5
3093
331
212C
  5
2F6C
331
17ED
  5
17ED
331
17E9
  5
17E9
331
1824
  5
1F29
331
17E5
  5
17E5
331
1820
  5
1E22
331
17E1
  5
17E1
331
21D
  5
21D
331
219
  5
219
331
182
  5
182
331
30B6
  5
1D76
331
2D34
  5
30DB
331
30B2
  5
1857
331
2124
  5
2DA1
331
30AE
  5
1853
331
30E9
  5
2C7F
331
2F6B
  5
30EB
331
2D2C
  5
30D5
331
30AA
  5
184F
331
2C8A
  5
309A
331
2120
  5
2D42
331
2D28
  5
30D1
331
211C
  5
2D3F
331
2CD1
  5
30AF
331
2118
  5
2D3B
331
2C82
  5
3097
331
1857
  5
2140
331
17DD
  5
17DD
331
1818
  5
1818
331
1853
  5
213C
331
17D9
  5
17D9
331
1814
  5
1814
331
184F
  5
2138
331
17D5
  5
17D5
331
1B1
  5
1B1
331
1810
  5
1810
331
184B
  5
2134
331
17D1
  5
17D1
331
1AD
  5
1AD
331
17E
  5
17E
331
1A9
  5
1A9
331
17A
  5
17A
331
176
  5
176
331
30E5
  5
2CC9
331
30A6
  5
184B
331
30E1
  5
2CCB
331
2DA3
  5
30E9
331
2D24
  5
30CD
331
2157
  5
307E
331
306D
  5
2CB7
331
30A2
  5
1847
331
30DD
  5
2CD2
331
2D20
  5
30C9
331
2CCD
  5
30AB
331
2114
  5
2D38
331
309E
  5
1843
331
30D9
  5
2CD4
331
214F
  5
3077
331
2CC9
  5
30A7
331
2110
  5
2D34
331
309A
  5
183F
331
2D18
  5
30C0
331
214B
  5
3073
331
3061
  5
2D11
331
2CC5
  5
30A3
331
210C
  5
2D30
331
2108
  5
2D2C
331
2C42
  5
2151
331
2CC1
  5
2148
331
1847
  5
212E
331
17CD
  5
17CD
331
180C
  5
180C
331
1808
  5
1808
331
1843
  5
212A
331
17C9
  5
17C9
331
1A5
  5
1A5
331
1EDE
  5
215A
331
17C5
  5
17C5
331
183F
  5
2123
331
1804
  5
1804
331
1A1
  5
1A1
331
1EDA
  5
2156
331
183B
  5
211E
331
1800
  5
1800
331
19D
  5
19D
331
16E
  5
16E
331
16A
  5
16A
331
166
  5
166
331
30D5
  5
2D13
331
3096
  5
183B
331
30D1
  5
2D19
331
2D14
  5
30BC
331
2147
  5
306F
331
3092
  5
1837
331
30CD
  5
2D1F
331
2D10
  5
30B8
331
2143
  5
306C
331
308E
  5
1833
331
30C9
  5
2D21
331
2D0C
  5
30B4
331
213F
  5
3068
331
308A
  5
182F
331
2CB5
  5
309C
331
213B
  5
3064
331
2CB1
  5
2145
331
1837
  5
2119
331
17FC
  5
17FC
331
1833
  5
2114
331
17F8
  5
17F8
331
195
  5
195
331
182F
  5
1FF1
331
17F4
  5
17F4
331
191
  5
191
331
182B
  5
1FEC
331
17F0
  5
17F0
331
260
  5
260
331
30C5
  5
3083
331
3086
  5
182B
331
30C1
  5
3087
331
2137
  5
3060
331
3082
  5
1827
331
30BD
  5
308B
331
2D3F
  5
309D
331
307E
  5
1823
331
30B9
  5
308F
331
2D3B
  5
30E2
331
212F
  5
3052
331
307A
  5
181F
331
2686
  5
3092
331
212B
  5
2F6B
331
1BE6
  5
214B
331
17EC
  5
17EC
331
1827
  5
1FDE
331
17E8
  5
17E8
331
1823
  5
1E25
331
1BBE
  5
2141
331
17E4
  5
17E4
331
17E0
  5
17E0
331
21C
  5
21C
331
185
  5
185
331
181
  5
181
331
2D37
  5
30DE
331
30B5
  5
1D3B
331
2D33
  5
30DA
331
30B1
  5
1856
331
30EC
  5
2C42
331
2D2F
  5
30D8
331
2123
  5
2D51
331
30AD
  5
1852
331
30E8
  5
2C7E
331
2F6A
  5
30EA
331
2D2B
  5
30D4
331
30A9
  5
184E
331
211F
  5
2D41
331
3074
  5
2685
331
215A
  5
3081
331
2CD4
  5
30B2
331
211B
  5
2D3E
331
2C85
  5
3099
331
2CD0
  5
30AE
331
2C81
  5
2149
331
181F
  5
1E21
331
1856
  5
213F
331
17DC
  5
17DC
331
181B
  5
181B
331
1852
  5
213B
331
17D8
  5
17D8
331
1817
  5
1817
331
1813
  5
1813
331
184E
  5
2137
331
17D4
  5
17D4
331
1B0
  5
1B0
331
184A
  5
2131
331
17D0
  5
17D0
331
1AC
  5
1AC
331
17D
  5
17D
331
1A8
  5
1A8
331
179
  5
179
331
175
  5
175
331
30E4
  5
2CC6
331
2D27
  5
30D0
331
30A5
  5
184A
331
30E0
  5
2CCA
331
2DA2
  5
30E8
331
2D23
  5
30CC
331
2156
  5
307D
331
306C
  5
2CB6
331
2117
  5
2D3A
331
30A1
  5
1846
331
30DC
  5
2CD1
331
2D1F
  5
30C8
331
2152
  5
307A
331
3068
  5
2CD0
331
2CCC
  5
30AA
331
2113
  5
2D37
331
309D
  5
1842
331
30D8
  5
2D0D
331
2D1B
  5
30C3
331
214E
  5
3076
331
2CC8
  5
30A6
331
210F
  5
2D33
331
3099
  5
183E
331
214A
  5
3072
331
3060
  5
2D10
331
2CC4
  5
30A2
331
210B
  5
2D2F
331
2CC0
  5
2142
331
180F
  5
180F
331
1846
  5
212D
331
17CC
  5
17CC
331
180B
  5
180B
331
1842
  5
2126
331
17C8
  5
17C8
331
1807
  5
1807
331
1A4
  5
1A4
331
1EDD
  5
2159
331
17C4
  5
17C4
331
183E
  5
2122
331
1803
  5
1803
331
1A0
  5
1A0
331
2BF
  5
2BF
331
1ED9
  5
2155
331
183A
  5
211C
331
19C
  5
19C
331
16D
  5
16D
331
169
  5
169
331
165
  5
165
331
161
  5
161
331
30D4
  5
2D18
331
2D17
  5
30BF
331
3095
  5
183A
331
30D0
  5
2D1C
331
2D13
  5
30BB
331
2146
  5
306E
331
2107
  5
2D2B
331
3091
  5
1836
331
30CC
  5
2D1D
331
2D0F
  5
30B7
331
2142
  5
306B
331
3058
  5
2D26
331
2103
  5
2D28
331
308D
  5
1832
331
30C8
  5
2D25
331
2D0B
  5
30B3
331
213E
  5
3067
331
3089
  5
182E
331
213A
  5
3063
331
2CB0
  5
2146
331
17FF
  5
17FF
331
1ED5
  5
214E
331
1836
  5
2118
331
17FB
  5
17FB
331
2A7
  5
2A7
331
1832
  5
2113
331
17F7
  5
17F7
331
194
  5
194
331
182E
  5
1FF0
331
17F3
  5
17F3
331
182A
  5
1FE1
331
30C4
  5
3082
331
3085
  5
182A
331
30C0
  5
3086
331
2D42
  5
30C7
331
2136
  5
305F
331
3081
  5
1826
331
30BC
  5
308A
331
2D3E
  5
309F
331
307D
  5
1822
331
30B8
  5
308E
331
2D3A
  5
30E1
331
2A99
  5
3095
331
212E
  5
3051
331
3079
  5
181E
331
212A
  5
2F6A
  0
XRECORD
  5
30F4
102
{ACAD_REACTORS
330
30F2
102
}
330
30F2
100
AcDbXrecord
280
     1
 70
     2
  0
XRECORD
  5
30F3
102
{ACAD_REACTORS
330
30F2
102
}
330
30F2
100
AcDbXrecord
280
     1
 40
1.25
  0
XRECORD
  5
30F5
102
{ACAD_REACTORS
330
30F2
102
}
330
30F2
100
AcDbXrecord
280
     1
 40
1.570796326794896
  0
LAYOUT
  5
39
102
{ACAD_XDICTIONARY
360
311F
102
}
102
{ACAD_REACTORS
330
2E
102
}
330
2E
100
AcDbPlotSettings
  1

  2
PDF Complete
  4
A4
  6

 40
3.174999952316281
 41
3.174999952316281
 42
3.175003051757812
 43
3.17498779296875
 44
209.9733276367186
 45
297.0106506347656
 46
0.0
 47
0.0
 48
0.0
 49
0.0
140
0.0
141
0.0
142
1.0
143
41.55432757113839
 70
 11952
 72
     0
 73
     1
 74
     0
  7

 75
     0
147
0.0240648822505445
148
6191.45587034033
149
3548.573645552828
100
AcDbLayout
  1
Model
 70
     1
 71
     0
 10
0.0
 20
0.0
 11
12.0
 21
9.0
 12
0.0
 22
0.0
 32
0.0
 14
0.0
 24
0.0
 34
0.0
 15
0.0
 25
0.0
 35
0.0
146
0.0
 13
0.0
 23
0.0
 33
0.0
 16
1.0
 26
0.0
 36
0.0
 17
0.0
 27
1.0
 37
0.0
 76
     0
330
36
331
56
1001
ACAD_PSEXT
1000
PDF Complete
1000
PDF Complete Converter
1000
PDFC
1000
PDF Document Creator
1070
     0
  0
LAYOUT
  5
35
102
{ACAD_XDICTIONARY
360
311D
102
}
102
{ACAD_REACTORS
330
2E
102
}
330
2E
100
AcDbPlotSettings
  1

  2
PDF Complete
  4

  6

 40
0.0
 41
0.0
 42
0.0
 43
0.0
 44
0.0
 45
0.0
 46
0.0
 47
0.0
 48
0.0
 49
0.0
140
0.0
141
0.0
142
1.0
143
1.0
 70
   688
 72
     0
 73
     0
 74
     5
  7

 75
    16
147
1.0
148
0.0
149
0.0
100
AcDbLayout
  1
レイアウト1
 70
     1
 71
     1
 10
0.0
 20
0.0
 11
12.0
 21
9.0
 12
0.0
 22
0.0
 32
0.0
 14
1.000000000000000E+20
 24
1.000000000000000E+20
 34
1.000000000000000E+20
 15
-1.000000000000000E+20
 25
-1.000000000000000E+20
 35
-1.000000000000000E+20
146
0.0
 13
0.0
 23
0.0
 33
0.0
 16
1.0
 26
0.0
 36
0.0
 17
0.0
 27
1.0
 37
0.0
 76
     0
330
32
  0
MATERIAL
  5
12
102
{ACAD_XDICTIONARY
360
30F8
102
}
102
{ACAD_REACTORS
330
10
102
}
330
10
100
AcDbMaterial
  1
ByBlock
  0
MATERIAL
  5
11
102
{ACAD_XDICTIONARY
360
30F6
102
}
102
{ACAD_REACTORS
330
10
102
}
330
10
100
AcDbMaterial
  1
ByLayer
  0
MATERIAL
  5
13
102
{ACAD_XDICTIONARY
360
30FA
102
}
102
{ACAD_REACTORS
330
10
102
}
330
10
100
AcDbMaterial
  1
Global
  0
MLEADERSTYLE
  5
B6F
102
{ACAD_REACTORS
330
B6E
102
}
330
B6E
100
AcDbMLeaderStyle
170
     2
171
     1
172
     0
 90
        2
 40
0.0
 41
0.0
173
     1
 91
-1056964608
340
28
 92
       -2
290
     1
 42
0.09
291
     1
 43
0.36
  3
Standard
 44
0.18
300

342
26
174
     1
178
     6
175
     1
176
     0
 93
-1056964608
 45
0.18
292
     0
297
     0
 46
0.18
 94
-1056964608
 47
1.0
 49
1.0
140
1.0
293
     1
141
0.0
294
     1
177
     0
142
1.0
295
     0
296
     0
143
0.125
1001
ACAD_MLEADERVER
1070
     2
  0
MLINESTYLE
  5
2C
102
{ACAD_REACTORS
330
2B
102
}
330
2B
100
AcDbMlineStyle
  2
STANDARD
 70
     0
  3

 62
   256
 51
90.0
 52
90.0
 71
     2
 49
0.5
 62
   256
  6
BYLAYER
 49
-0.5
 62
   256
  6
BYLAYER
  0
ACDBPLACEHOLDER
  5
F
102
{ACAD_REACTORS
330
E
102
}
330
E
  0
SCALE
  5
B5D
102
{ACAD_REACTORS
330
B5C
102
}
330
B5C
100
AcDbScale
 70
     0
300
1:1
140
1.0
141
1.0
290
     1
  0
SCALE
  5
B5E
102
{ACAD_REACTORS
330
B5C
102
}
330
B5C
100
AcDbScale
 70
     0
300
1/128" = 1'-0"
140
0.0078125
141
12.0
290
     0
  0
SCALE
  5
B5F
102
{ACAD_REACTORS
330
B5C
102
}
330
B5C
100
AcDbScale
 70
     0
300
1/64" = 1'-0"
140
0.015625
141
12.0
290
     0
  0
SCALE
  5
B60
102
{ACAD_REACTORS
330
B5C
102
}
330
B5C
100
AcDbScale
 70
     0
300
1/32" = 1'-0"
140
0.03125
141
12.0
290
     0
  0
SCALE
  5
B61
102
{ACAD_REACTORS
330
B5C
102
}
330
B5C
100
AcDbScale
 70
     0
300
1/16" = 1'-0"
140
0.0625
141
12.0
290
     0
  0
SCALE
  5
B62
102
{ACAD_REACTORS
330
B5C
102
}
330
B5C
100
AcDbScale
 70
     0
300
3/32" = 1'-0"
140
0.09375
141
12.0
290
     0
  0
SCALE
  5
B63
102
{ACAD_REACTORS
330
B5C
102
}
330
B5C
100
AcDbScale
 70
     0
300
1/8" = 1'-0"
140
0.125
141
12.0
290
     0
  0
SCALE
  5
B64
102
{ACAD_REACTORS
330
B5C
102
}
330
B5C
100
AcDbScale
 70
     0
300
3/16" = 1'-0"
140
0.1875
141
12.0
290
     0
  0
SCALE
  5
B65
102
{ACAD_REACTORS
330
B5C
102
}
330
B5C
100
AcDbScale
 70
     0
300
1/4" = 1'-0"
140
0.25
141
12.0
290
     0
  0
SCALE
  5
B66
102
{ACAD_REACTORS
330
B5C
102
}
330
B5C
100
AcDbScale
 70
     0
300
3/8" = 1'-0"
140
0.375
141
12.0
290
     0
  0
SCALE
  5
B67
102
{ACAD_REACTORS
330
B5C
102
}
330
B5C
100
AcDbScale
 70
     0
300
1/2" = 1'-0"
140
0.5
141
12.0
290
     0
  0
SCALE
  5
B68
102
{ACAD_REACTORS
330
B5C
102
}
330
B5C
100
AcDbScale
 70
     0
300
3/4" = 1'-0"
140
0.75
141
12.0
290
     0
  0
SCALE
  5
B69
102
{ACAD_REACTORS
330
B5C
102
}
330
B5C
100
AcDbScale
 70
     0
300
1" = 1'-0"
140
1.0
141
12.0
290
     0
  0
SCALE
  5
B6A
102
{ACAD_REACTORS
330
B5C
102
}
330
B5C
100
AcDbScale
 70
     0
300
1-1/2" = 1'-0"
140
1.5
141
12.0
290
     0
  0
SCALE
  5
B6B
102
{ACAD_REACTORS
330
B5C
102
}
330
B5C
100
AcDbScale
 70
     0
300
3" = 1'-0"
140
3.0
141
12.0
290
     0
  0
SCALE
  5
B6C
102
{ACAD_REACTORS
330
B5C
102
}
330
B5C
100
AcDbScale
 70
     0
300
6" = 1'-0"
140
6.0
141
12.0
290
     0
  0
SCALE
  5
B6D
102
{ACAD_REACTORS
330
B5C
102
}
330
B5C
100
AcDbScale
 70
     0
300
1'-0" = 1'-0"
140
12.0
141
12.0
290
     0
  0
TABLESTYLE
  5
31
102
{ACAD_XDICTIONARY
360
DAB
102
}
102
{ACAD_REACTORS
330
30
102
}
330
30
100
AcDbTableStyle
  3
Standard
 70
     0
 71
     0
 40
0.06
 41
0.06
280
     0
281
     0
  7
STANDARD
140
0.18
170
     2
 62
     0
 63
     7
283
     0
274
    -2
284
     1
 64
     0
275
    -2
285
     1
 65
     0
276
    -2
286
     1
 66
     0
277
    -2
287
     1
 67
     0
278
    -2
288
     1
 68
     0
279
    -2
289
     1
 69
     0
  7
STANDARD
140
0.25
170
     5
 62
     0
 63
     7
283
     0
274
    -2
284
     1
 64
     0
275
    -2
285
     1
 65
     0
276
    -2
286
     1
 66
     0
277
    -2
287
     1
 67
     0
278
    -2
288
     1
 68
     0
279
    -2
289
     1
 69
     0
  7
STANDARD
140
0.18
170
     5
 62
     0
 63
     7
283
     0
274
    -2
284
     1
 64
     0
275
    -2
285
     1
 65
     0
276
    -2
286
     1
 66
     0
277
    -2
287
     1
 67
     0
278
    -2
288
     1
 68
     0
279
    -2
289
     1
 69
     0
  0
TABLESTYLE
  5
16E2
102
{ACAD_XDICTIONARY
360
16E3
102
}
102
{ACAD_REACTORS
330
30
102
}
330
30
100
AcDbTableStyle
  3
Standard
 70
     1
 71
     0
 40
1.5
 41
0.5
280
     0
281
     0
  7
高3.2
140
0.18
170
     7
 62
     3
 63
     7
283
     0
274
    -2
284
     1
 64
     3
275
    -2
285
     1
 65
     7
276
    -2
286
     1
 66
     3
277
    -2
287
     1
 67
     3
278
    -2
288
     1
 68
     7
279
    -2
289
     1
 69
     3
  7
高3.2
140
0.25
170
     8
 62
     3
 63
     7
283
     0
274
    -2
284
     1
 64
     0
275
    -2
285
     1
 65
     0
276
    -2
286
     1
 66
     0
277
    -2
287
     1
 67
     0
278
    -2
288
     1
 68
     0
279
    -2
289
     1
 69
     0
  7
高3.2
140
0.18
170
     7
 62
     3
 63
     7
283
     0
274
    -2
284
     1
 64
     3
275
    -2
285
     1
 65
     7
276
    -2
286
     1
 66
     3
277
    -2
287
     1
 67
     3
278
    -2
288
     1
 68
     7
279
    -2
289
     1
 69
     3
  0
VISUALSTYLE
  5
1A
102
{ACAD_XDICTIONARY
360
3106
102
}
102
{ACAD_REACTORS
330
14
102
}
330
14
100
AcDbVisualStyle
  2

 70
     4
 71
     0
 72
     2
 73
     0
 90
        0
 40
-0.6
 41
-30.0
 62
     5
 63
     7
 74
     1
 91
        4
 64
     7
 65
   257
 75
     1
175
     1
 42
1.0
 92
        0
 66
   257
 43
1.0
 76
     1
 77
     6
 78
     2
 67
     7
 79
     5
170
     0
171
     0
290
     0
174
     0
 93
        1
 44
0.0
173
     0
291
     0
 45
0.0
1001
ACAD
1000
AcDbSavedByObjectVersion
1070
     0
  0
VISUALSTYLE
  5
1C
102
{ACAD_XDICTIONARY
360
310A
102
}
102
{ACAD_REACTORS
330
14
102
}
330
14
100
AcDbVisualStyle
  2

 70
     6
 71
     1
 72
     2
 73
     2
 90
        0
 40
-0.6
 41
-30.0
 62
     5
 63
     7
 74
     2
 91
        2
 64
     7
 65
   257
 75
     2
175
     1
 42
40.0
 92
        0
 66
   257
 43
1.0
 76
     1
 77
     6
 78
     2
 67
     7
 79
     3
170
     0
171
     0
290
     0
174
     0
 93
        1
 44
0.0
173
     0
291
     0
 45
0.0
1001
ACAD
1000
AcDbSavedByObjectVersion
1070
     0
  0
VISUALSTYLE
  5
1B
102
{ACAD_XDICTIONARY
360
3108
102
}
102
{ACAD_REACTORS
330
14
102
}
330
14
100
AcDbVisualStyle
  2

 70
     5
 71
     0
 72
     2
 73
     0
 90
        0
 40
-0.6
 41
-30.0
 62
     5
 63
     7
 74
     1
 91
        4
 64
     7
 65
   257
 75
     1
175
     1
 42
1.0
 92
        0
 66
   257
 43
1.0
 76
     1
 77
     6
 78
     2
 67
     7
 79
     5
170
     0
171
     0
290
     0
174
     0
 93
        1
 44
0.0
173
     0
291
     0
 45
0.0
1001
ACAD
1000
AcDbSavedByObjectVersion
1070
     0
  0
VISUALSTYLE
  5
19
102
{ACAD_XDICTIONARY
360
3104
102
}
102
{ACAD_REACTORS
330
14
102
}
330
14
100
AcDbVisualStyle
  2

 70
     7
 71
     1
 72
     0
 73
     1
 90
        0
 40
-0.6
 41
-30.0
 62
     5
 63
     7
 74
     0
 91
        4
 64
     7
 65
   257
 75
     1
175
     1
 42
1.0
 92
        8
 66
     7
 43
1.0
 76
     1
 77
     6
 78
     2
 67
     7
 79
     5
170
     0
171
     0
290
     0
174
     0
 93
        1
 44
0.0
173
     0
291
     1
 45
0.0
1001
ACAD
1000
AcDbSavedByObjectVersion
1070
     0
  0
VISUALSTYLE
  5
20
102
{ACAD_XDICTIONARY
360
3112
102
}
102
{ACAD_REACTORS
330
14
102
}
330
14
100
AcDbVisualStyle
  2

 70
    12
 71
     2
 72
     2
 73
     0
 90
        0
 40
-0.6
 41
-30.0
 62
     5
 63
     7
 74
     1
 91
        4
 64
     7
 65
   257
 75
     1
175
     1
 42
1.0
 92
        8
 66
     7
 43
1.0
 76
     1
 77
     6
 78
     2
 67
     7
 79
     5
170
     0
171
     0
290
     0
174
     0
 93
        1
 44
50.0
173
     0
291
     1
 45
0.0
1001
ACAD
1000
AcDbSavedByObjectVersion
1070
     0
  0
VISUALSTYLE
  5
24
102
{ACAD_XDICTIONARY
360
311A
102
}
102
{ACAD_REACTORS
330
14
102
}
330
14
100
AcDbVisualStyle
  2

 70
    16
 71
     2
 72
     2
 73
     3
 90
        0
 40
-0.6
 41
-30.0
 62
     5
 63
     8
 74
     1
 91
        4
 64
     7
 65
   257
 75
     1
175
     1
 42
1.0
 92
        8
 66
     8
 43
1.0
 76
     1
 77
     6
 78
     2
 67
     7
 79
     5
170
     0
171
     0
290
     0
174
     0
 93
        1
 44
0.0
173
     0
291
     1
 45
0.0
1001
ACAD
1000
AcDbSavedByObjectVersion
1070
     0
  0
VISUALSTYLE
  5
1D
102
{ACAD_XDICTIONARY
360
310C
102
}
102
{ACAD_REACTORS
330
14
102
}
330
14
100
AcDbVisualStyle
  2

 70
     9
 71
     3
 72
     2
 73
     0
 90
        0
 40
-0.6
 41
-30.0
 62
     5
 63
     7
 74
     2
 91
        2
 64
     7
 65
   257
 75
     1
175
     1
 42
40.0
 92
        8
 66
     7
 43
1.0
 76
     1
 77
     6
 78
     2
 67
     7
 79
     3
170
     0
171
     0
290
     0
174
     0
 93
        1
 44
0.0
173
     0
291
     0
 45
0.0
1001
ACAD
1000
AcDbSavedByObjectVersion
1070
     0
  0
VISUALSTYLE
  5
1F
102
{ACAD_XDICTIONARY
360
3110
102
}
102
{ACAD_REACTORS
330
14
102
}
330
14
100
AcDbVisualStyle
  2

 70
    11
 71
     2
 72
     2
 73
     0
 90
        0
 40
-0.6
 41
-30.0
 62
     5
 63
     7
 74
     1
 91
        4
 64
     7
 65
   257
 75
     1
175
     1
 42
1.0
 92
        8
 66
     7
 43
1.0
 76
     1
 77
     6
 78
     2
 67
     7
 79
     5
170
     0
171
     0
290
     0
174
     0
 93
        1
 44
-50.0
173
     0
291
     1
 45
0.0
1001
ACAD
1000
AcDbSavedByObjectVersion
1070
     0
  0
VISUALSTYLE
  5
B5B
102
{ACAD_XDICTIONARY
360
3133
102
}
102
{ACAD_REACTORS
330
14
102
}
330
14
100
AcDbVisualStyle
  2

 70
    22
 71
     2
 72
     2
 73
     0
 90
        0
 40
-0.6
 41
-30.0
 62
     5
 63
     7
 74
     1
 91
        4
 64
     7
 65
   257
 75
     1
175
     1
 42
1.0
 92
        8
 66
     7
 43
1.0
 76
     1
 77
     6
 78
     2
 67
     7
 79
     5
170
     0
171
     0
290
     0
174
     0
 93
        1
 44
0.0
173
     0
291
     1
 45
0.0
1001
ACAD
1000
AcDbSavedByObjectVersion
1070
     0
  0
VISUALSTYLE
  5
23
102
{ACAD_XDICTIONARY
360
3118
102
}
102
{ACAD_REACTORS
330
14
102
}
330
14
100
AcDbVisualStyle
  2

 70
    15
 71
     2
 72
     2
 73
     0
 90
        0
 40
-0.6
 41
-30.0
 62
     5
 63
     7
 74
     1
 91
        4
 64
     7
 65
   257
 75
     1
175
     1
 42
1.0
 92
        8
 66
     7
 43
1.0
 76
     1
 77
     6
 78
     2
 67
     7
 79
     5
170
     0
171
     0
290
     0
174
     0
 93
        1
 44
0.0
173
     0
291
     1
 45
0.0
1001
ACAD
1000
AcDbSavedByObjectVersion
1070
     0
  0
VISUALSTYLE
  5
15
102
{ACAD_XDICTIONARY
360
30FC
102
}
102
{ACAD_REACTORS
330
14
102
}
330
14
100
AcDbVisualStyle
  2

 70
     0
 71
     2
 72
     1
 73
     1
 90
        2
 40
-0.6
 41
30.0
 62
     5
 63
     7
 74
     0
 91
        4
 64
     7
 65
   257
 75
     1
175
     1
 42
1.0
 92
        8
 66
     7
 43
1.0
 76
     1
 77
     6
 78
     2
 67
     7
 79
     5
170
     0
171
     0
290
     0
174
     0
 93
       13
 44
0.0
173
     0
291
     1
 45
0.0
1001
ACAD
1000
AcDbSavedByObjectVersion
1070
     0
  0
VISUALSTYLE
  5
16
102
{ACAD_XDICTIONARY
360
30FE
102
}
102
{ACAD_REACTORS
330
14
102
}
330
14
100
AcDbVisualStyle
  2

 70
     1
 71
     2
 72
     1
 73
     1
 90
        2
 40
-0.6
 41
30.0
 62
     5
 63
     7
 74
     1
 91
        4
 64
     7
 65
   257
 75
     1
175
     1
 42
1.0
 92
        0
 66
   257
 43
1.0
 76
     1
 77
     6
 78
     2
 67
     7
 79
     5
170
     0
171
     0
290
     0
174
     0
 93
       13
 44
0.0
173
     0
291
     1
 45
0.0
1001
ACAD
1000
AcDbSavedByObjectVersion
1070
     0
  0
VISUALSTYLE
  5
17
102
{ACAD_XDICTIONARY
360
3100
102
}
102
{ACAD_REACTORS
330
14
102
}
330
14
100
AcDbVisualStyle
  2

 70
     2
 71
     2
 72
     2
 73
     1
 90
        2
 40
-0.6
 41
30.0
 62
     5
 63
     7
 74
     0
 91
        4
 64
     7
 65
   257
 75
     1
175
     1
 42
1.0
 92
        0
 66
     7
 43
1.0
 76
     1
 77
     6
 78
     2
 67
     7
 79
     5
170
     0
171
     0
290
     0
174
     0
 93
       13
 44
0.0
173
     0
291
     1
 45
0.0
1001
ACAD
1000
AcDbSavedByObjectVersion
1070
     0
  0
VISUALSTYLE
  5
18
102
{ACAD_XDICTIONARY
360
3102
102
}
102
{ACAD_REACTORS
330
14
102
}
330
14
100
AcDbVisualStyle
  2

 70
     3
 71
     2
 72
     2
 73
     1
 90
        2
 40
-0.6
 41
30.0
 62
     5
 63
     7
 74
     1
 91
        4
 64
     7
 65
   257
 75
     1
175
     1
 42
1.0
 92
        0
 66
   257
 43
1.0
 76
     1
 77
     6
 78
     2
 67
     7
 79
     5
170
     0
171
     0
290
     0
174
     0
 93
       13
 44
0.0
173
     0
291
     1
 45
0.0
1001
ACAD
1000
AcDbSavedByObjectVersion
1070
     0
  0
VISUALSTYLE
  5
B53
102
{ACAD_XDICTIONARY
360
3123
102
}
102
{ACAD_REACTORS
330
14
102
}
330
14
100
AcDbVisualStyle
  2

 70
     6
 71
     1
 72
     2
 73
     2
 90
        0
 40
-0.6
 41
-30.0
 62
     5
 63
     7
 74
     2
 91
        2
 64
     7
 65
   257
 75
     2
175
     1
 42
40.0
 92
        0
 66
   257
 43
1.0
 76
     1
 77
     6
 78
     2
 67
     7
 79
     3
170
     0
171
     0
290
     0
174
     0
 93
        1
 44
0.0
173
     0
291
     0
 45
0.0
1001
ACAD
1000
AcDbSavedByObjectVersion
1070
     0
  0
VISUALSTYLE
  5
B59
102
{ACAD_XDICTIONARY
360
312F
102
}
102
{ACAD_REACTORS
330
14
102
}
330
14
100
AcDbVisualStyle
  2

 70
    20
 71
     2
 72
     2
 73
     0
 90
        0
 40
-0.6
 41
-30.0
 62
     5
 63
     7
 74
     1
 91
        4
 64
     7
 65
   257
 75
     1
175
     1
 42
1.0
 92
       10
 66
     7
 43
1.0
 76
     1
 77
     6
 78
     2
 67
     7
 79
     5
170
     0
171
     0
290
     0
174
     0
 93
        1
 44
0.0
173
     0
291
     1
 45
0.0
1001
ACAD
1000
AcDbSavedByObjectVersion
1070
     0
  0
VISUALSTYLE
  5
22
102
{ACAD_XDICTIONARY
360
3116
102
}
102
{ACAD_REACTORS
330
14
102
}
330
14
100
AcDbVisualStyle
  2

 70
    14
 71
     2
 72
     2
 73
     0
 90
        0
 40
-0.6
 41
-30.0
 62
     5
 63
     7
 74
     1
 91
        4
 64
     7
 65
   257
 75
     7
175
     7
 42
1.0
 92
        8
 66
     7
 43
1.0
 76
     1
 77
     6
 78
     2
 67
     7
 79
     5
170
     0
171
     0
290
     0
174
     0
 93
        1
 44
0.0
173
     0
291
     1
 45
0.0
1001
ACAD
1000
AcDbSavedByObjectVersion
1070
     0
  0
VISUALSTYLE
  5
B5A
102
{ACAD_XDICTIONARY
360
3131
102
}
102
{ACAD_REACTORS
330
14
102
}
330
14
100
AcDbVisualStyle
  2

 70
    21
 71
     2
 72
     2
 73
     0
 90
        0
 40
-0.6
 41
-30.0
 62
     5
 63
     7
 74
     1
 91
        4
 64
     7
 65
   257
 75
     1
175
     1
 42
1.0
 92
        9
 66
     7
 43
1.0
 76
     1
 77
     6
 78
     2
 67
     7
 79
     5
170
     0
171
     0
290
     0
174
     0
 93
        1
 44
0.0
173
     0
291
     1
 45
0.0
1001
ACAD
1000
AcDbSavedByObjectVersion
1070
     0
  0
VISUALSTYLE
  5
1E
102
{ACAD_XDICTIONARY
360
310E
102
}
102
{ACAD_REACTORS
330
14
102
}
330
14
100
AcDbVisualStyle
  2

 70
     8
 71
     2
 72
     2
 73
     0
 90
        0
 40
-0.6
 41
-30.0
 62
     5
 63
     7
 74
     1
 91
        0
 64
     7
 65
   257
 75
     1
175
     1
 42
1.0
 92
        8
 66
     8
 43
1.0
 76
     1
 77
     6
 78
     2
 67
     7
 79
     5
170
     0
171
     0
290
     0
174
     0
 93
       13
 44
0.0
173
     0
291
     0
 45
0.0
1001
ACAD
1000
AcDbSavedByObjectVersion
1070
     0
  0
VISUALSTYLE
  5
B58
102
{ACAD_XDICTIONARY
360
312D
102
}
102
{ACAD_REACTORS
330
14
102
}
330
14
100
AcDbVisualStyle
  2

 70
    27
 71
     2
 72
     2
 73
     1
 90
        2
 40
-0.6
 41
30.0
 62
     5
 63
     7
 74
     0
 91
        4
 64
     7
 65
   257
 75
     1
175
     1
 42
1.0
 92
        8
 66
   257
 43
1.0
 76
     1
 77
     6
 78
     2
 67
     8
 79
     3
170
     0
171
     0
290
     0
174
     0
 93
        5
 44
0.0
173
     0
291
     0
 45
0.0
1001
ACAD
1000
AcDbSavedByObjectVersion
1070
     0
  0
VISUALSTYLE
  5
B57
102
{ACAD_XDICTIONARY
360
312B
102
}
102
{ACAD_REACTORS
330
14
102
}
330
14
100
AcDbVisualStyle
  2

 70
    26
 71
     2
 72
     2
 73
     1
 90
        2
 40
-0.6
 41
30.0
 62
     5
 63
     7
 74
     1
 91
       10
 64
     7
 65
   257
 75
     2
175
     1
 42
1.0
 92
        8
 66
   257
 43
1.0
 76
     1
 77
     6
 78
     2
 67
     7
 79
     3
170
     0
171
     0
290
     0
174
     0
 93
        5
 44
0.0
173
     0
291
     0
 45
0.0
1001
ACAD
1000
AcDbSavedByObjectVersion
1070
     0
  0
VISUALSTYLE
  5
B54
102
{ACAD_XDICTIONARY
360
3125
102
}
102
{ACAD_REACTORS
330
14
102
}
330
14
100
AcDbVisualStyle
  2

 70
    23
 71
     2
 72
     2
 73
     3
 90
        0
 40
-0.6
 41
-30.0
 62
     5
 63
     7
 74
     2
 91
        2
 64
     7
 65
     7
 75
     1
175
     1
 42
40.0
 92
        8
 66
     7
 43
1.0
 76
     1
 77
     6
 78
     2
 67
     7
 79
     3
170
     0
171
     0
290
     0
174
     0
 93
        1
 44
0.0
173
     0
291
     0
 45
0.0
1001
ACAD
1000
AcDbSavedByObjectVersion
1070
     0
  0
VISUALSTYLE
  5
B55
102
{ACAD_XDICTIONARY
360
3127
102
}
102
{ACAD_REACTORS
330
14
102
}
330
14
100
AcDbVisualStyle
  2

 70
    24
 71
     1
 72
     2
 73
     2
 90
        0
 40
-0.6
 41
-30.0
 62
     5
 63
     7
 74
     2
 91
        2
 64
     7
 65
     7
 75
     1
175
     1
 42
40.0
 92
       11
 66
     7
 43
1.0
 76
     1
 77
     6
 78
     2
 67
     7
 79
     6
170
     0
171
     0
290
     0
174
     0
 93
        1
 44
0.0
173
     0
291
     0
 45
0.0
1001
ACAD
1000
AcDbSavedByObjectVersion
1070
     0
  0
VISUALSTYLE
  5
21
102
{ACAD_XDICTIONARY
360
3114
102
}
102
{ACAD_REACTORS
330
14
102
}
330
14
100
AcDbVisualStyle
  2

 70
    13
 71
     2
 72
     2
 73
     0
 90
        0
 40
-0.6
 41
-30.0
 62
     5
 63
     7
 74
     1
 91
        4
 64
     7
 65
   257
 75
     1
175
     1
 42
1.0
 92
       12
 66
     7
 43
1.0
 76
     1
 77
     6
 78
     2
 67
     7
 79
     5
170
     0
171
     0
290
     0
174
     0
 93
        1
 44
0.0
173
     0
291
     1
 45
0.0
1001
ACAD
1000
AcDbSavedByObjectVersion
1070
     0
  0
VISUALSTYLE
  5
B52
102
{ACAD_XDICTIONARY
360
3121
102
}
102
{ACAD_REACTORS
330
14
102
}
330
14
100
AcDbVisualStyle
  2

 70
     5
 71
     0
 72
     2
 73
     0
 90
        0
 40
-0.6
 41
-30.0
 62
     5
 63
     7
 74
     1
 91
        4
 64
     7
 65
   257
 75
     1
175
     1
 42
1.0
 92
        0
 66
   257
 43
1.0
 76
     1
 77
     6
 78
     2
 67
     7
 79
     3
170
     0
171
     0
290
     0
174
     0
 93
        1
 44
0.0
173
     0
291
     0
 45
0.0
1001
ACAD
1000
AcDbSavedByObjectVersion
1070
     0
  0
VISUALSTYLE
  5
B56
102
{ACAD_XDICTIONARY
360
3129
102
}
102
{ACAD_REACTORS
330
14
102
}
330
14
100
AcDbVisualStyle
  2

 70
    25
 71
     2
 72
     2
 73
     1
 90
        1
 40
0.5
 41
-30.0
 62
     5
 63
     7
 74
     1
 91
        0
 64
     7
 65
   257
 75
     1
175
     1
 42
1.0
 92
        8
 66
     7
 43
1.0
 76
     1
 77
     6
 78
     2
 67
     7
 79
     3
170
     0
171
     0
290
     0
174
     0
 93
       13
 44
0.0
173
     0
291
     0
 45
0.0
1001
ACAD
1000
AcDbSavedByObjectVersion
1070
     0
  0
DICTIONARYVAR
  5
DA9
102
{ACAD_REACTORS
330
2BD
102
}
330
2BD
100
DictionaryVariables
280
     0
  1
1:1
  0
DICTIONARYVAR
  5
DA8
102
{ACAD_REACTORS
330
2BD
102
}
330
2BD
100
DictionaryVariables
280
     0
  1
STANDARD
  0
DICTIONARYVAR
  5
2BE
102
{ACAD_REACTORS
330
2BD
102
}
330
2BD
100
DictionaryVariables
280
     0
  1
STANDARD
  0
DICTIONARYVAR
  5
2C7
102
{ACAD_REACTORS
330
2BD
102
}
330
2BD
100
DictionaryVariables
280
     0
  1
1
  0
DICTIONARYVAR
  5
2C6
102
{ACAD_REACTORS
330
2BD
102
}
330
2BD
100
DictionaryVariables
280
     0
  1
0
  0
DICTIONARYVAR
  5
2C5
102
{ACAD_REACTORS
330
2BD
102
}
330
2BD
100
DictionaryVariables
280
     0
  1
127
  0
DICTIONARYVAR
  5
30ED
102
{ACAD_REACTORS
330
2BD
102
}
330
2BD
100
DictionaryVariables
280
     0
  1
2
  0
DICTIONARY
  5
311F
330
39
100
AcDbDictionary
280
     1
281
     1
  3
ACAD_XREC_ROUNDTRIP
360
3120
  0
DICTIONARY
  5
311D
330
35
100
AcDbDictionary
280
     1
281
     1
  3
ACAD_XREC_ROUNDTRIP
360
311E
  0
DICTIONARY
  5
30F8
330
12
100
AcDbDictionary
280
     1
281
     1
  3
ACAD_XREC_ROUNDTRIP
360
30F9
  0
DICTIONARY
  5
30F6
330
11
100
AcDbDictionary
280
     1
281
     1
  3
ACAD_XREC_ROUNDTRIP
360
30F7
  0
DICTIONARY
  5
30FA
330
13
100
AcDbDictionary
280
     1
281
     1
  3
ACAD_XREC_ROUNDTRIP
360
30FB
  0
DICTIONARY
  5
DAB
330
31
100
AcDbDictionary
280
     1
281
     1
  3
ACAD_ROUNDTRIP_2008_TABLESTYLE_CELLSTYLEMAP
360
30EE
  3
ACAD_XREC_ROUNDTRIP
360
311C
  0
DICTIONARY
  5
16E3
330
16E2
100
AcDbDictionary
280
     1
281
     1
  3
ACAD_ROUNDTRIP_2008_TABLESTYLE_CELLSTYLEMAP
360
30EF
  3
ACAD_XREC_ROUNDTRIP
360
3135
  0
DICTIONARY
  5
3106
330
1A
100
AcDbDictionary
280
     1
281
     1
  3
ACAD_XREC_ROUNDTRIP
360
3107
  0
DICTIONARY
  5
310A
330
1C
100
AcDbDictionary
280
     1
281
     1
  3
ACAD_XREC_ROUNDTRIP
360
310B
  0
DICTIONARY
  5
3108
330
1B
100
AcDbDictionary
280
     1
281
     1
  3
ACAD_XREC_ROUNDTRIP
360
3109
  0
DICTIONARY
  5
3104
330
19
100
AcDbDictionary
280
     1
281
     1
  3
ACAD_XREC_ROUNDTRIP
360
3105
  0
DICTIONARY
  5
3112
330
20
100
AcDbDictionary
280
     1
281
     1
  3
ACAD_XREC_ROUNDTRIP
360
3113
  0
DICTIONARY
  5
311A
330
24
100
AcDbDictionary
280
     1
281
     1
  3
ACAD_XREC_ROUNDTRIP
360
311B
  0
DICTIONARY
  5
310C
330
1D
100
AcDbDictionary
280
     1
281
     1
  3
ACAD_XREC_ROUNDTRIP
360
310D
  0
DICTIONARY
  5
3110
330
1F
100
AcDbDictionary
280
     1
281
     1
  3
ACAD_XREC_ROUNDTRIP
360
3111
  0
DICTIONARY
  5
3133
330
B5B
100
AcDbDictionary
280
     1
281
     1
  3
ACAD_XREC_ROUNDTRIP
360
3134
  0
DICTIONARY
  5
3118
330
23
100
AcDbDictionary
280
     1
281
     1
  3
ACAD_XREC_ROUNDTRIP
360
3119
  0
DICTIONARY
  5
30FC
330
15
100
AcDbDictionary
280
     1
281
     1
  3
ACAD_XREC_ROUNDTRIP
360
30FD
  0
DICTIONARY
  5
30FE
330
16
100
AcDbDictionary
280
     1
281
     1
  3
ACAD_XREC_ROUNDTRIP
360
30FF
  0
DICTIONARY
  5
3100
330
17
100
AcDbDictionary
280
     1
281
     1
  3
ACAD_XREC_ROUNDTRIP
360
3101
  0
DICTIONARY
  5
3102
330
18
100
AcDbDictionary
280
     1
281
     1
  3
ACAD_XREC_ROUNDTRIP
360
3103
  0
DICTIONARY
  5
3123
330
B53
100
AcDbDictionary
280
     1
281
     1
  3
ACAD_XREC_ROUNDTRIP
360
3124
  0
DICTIONARY
  5
312F
330
B59
100
AcDbDictionary
280
     1
281
     1
  3
ACAD_XREC_ROUNDTRIP
360
3130
  0
DICTIONARY
  5
3116
330
22
100
AcDbDictionary
280
     1
281
     1
  3
ACAD_XREC_ROUNDTRIP
360
3117
  0
DICTIONARY
  5
3131
330
B5A
100
AcDbDictionary
280
     1
281
     1
  3
ACAD_XREC_ROUNDTRIP
360
3132
  0
DICTIONARY
  5
310E
330
1E
100
AcDbDictionary
280
     1
281
     1
  3
ACAD_XREC_ROUNDTRIP
360
310F
  0
DICTIONARY
  5
312D
330
B58
100
AcDbDictionary
280
     1
281
     1
  3
ACAD_XREC_ROUNDTRIP
360
312E
  0
DICTIONARY
  5
312B
330
B57
100
AcDbDictionary
280
     1
281
     1
  3
ACAD_XREC_ROUNDTRIP
360
312C
  0
DICTIONARY
  5
3125
330
B54
100
AcDbDictionary
280
     1
281
     1
  3
ACAD_XREC_ROUNDTRIP
360
3126
  0
DICTIONARY
  5
3127
330
B55
100
AcDbDictionary
280
     1
281
     1
  3
ACAD_XREC_ROUNDTRIP
360
3128
  0
DICTIONARY
  5
3114
330
21
100
AcDbDictionary
280
     1
281
     1
  3
ACAD_XREC_ROUNDTRIP
360
3115
  0
DICTIONARY
  5
3121
330
B52
100
AcDbDictionary
280
     1
281
     1
  3
ACAD_XREC_ROUNDTRIP
360
3122
  0
DICTIONARY
  5
3129
330
B56
100
AcDbDictionary
280
     1
281
     1
  3
ACAD_XREC_ROUNDTRIP
360
312A
  0
XRECORD
  5
3120
102
{ACAD_REACTORS
330
311F
102
}
330
311F
100
AcDbXrecord
280
     1
102
SHADEPLOT
 70
     0
102
SHADEPLOTRESLEVEL
 70
     2
102
SHADEPLOTCUSTOMDPI
 70
   300
  0
XRECORD
  5
311E
102
{ACAD_REACTORS
330
311D
102
}
330
311D
100
AcDbXrecord
280
     1
102
SHADEPLOT
 70
     0
102
SHADEPLOTRESLEVEL
 70
     2
102
SHADEPLOTCUSTOMDPI
 70
   300
  0
XRECORD
  5
30F9
102
{ACAD_REACTORS
330
30F8
102
}
330
30F8
100
AcDbXrecord
280
     1
102
MATERIAL
148
0.0
149
0.0
149
0.0
 93
        0
 94
      127
282
     0
 72
     1
 77
     1
171
     1
175
     1
179
     1
273
     0
  0
XRECORD
  5
30F7
102
{ACAD_REACTORS
330
30F6
102
}
330
30F6
100
AcDbXrecord
280
     1
102
MATERIAL
148
0.0
149
0.0
149
0.0
 93
        0
 94
      127
282
     0
 72
     1
 77
     1
171
     1
175
     1
179
     1
273
     0
  0
XRECORD
  5
30FB
102
{ACAD_REACTORS
330
30FA
102
}
330
30FA
100
AcDbXrecord
280
     1
102
MATERIAL
148
0.0
149
0.0
149
0.0
 93
        0
 94
      127
282
     0
 72
     1
 77
     1
171
     1
175
     1
179
     1
273
     0
  0
CELLSTYLEMAP
  5
30EE
102
{ACAD_REACTORS
330
DAB
102
}
330
DAB
100
AcDbCellStyleMap
 90
        3
300
CELLSTYLE
  1
TABLEFORMAT_BEGIN
 90
        5
170
     1
 91
        0
 92
    32768
 62
   257
 93
        1
300
CONTENTFORMAT
  1
CONTENTFORMAT_BEGIN
 90
        0
 91
        0
 92
      512
 93
        0
300

 40
0.0
140
1.0
 94
        5
 62
     0
340
26
144
0.25
309
CONTENTFORMAT_END
171
     1
301
MARGIN
  1
CELLMARGIN_BEGIN
 40
0.06
 40
0.06
 40
0.06
 40
0.06
 40
0.18
 40
0.18
309
CELLMARGIN_END
 94
        6
 95
        1
302
GRIDFORMAT
  1
GRIDFORMAT_BEGIN
 90
        0
 91
        1
 62
     0
 92
       -2
340
0
 93
        0
 40
0.045
309
GRIDFORMAT_END
 95
        2
302
GRIDFORMAT
  1
GRIDFORMAT_BEGIN
 90
        0
 91
        1
 62
     0
 92
       -2
340
0
 93
        0
 40
0.045
309
GRIDFORMAT_END
 95
        4
302
GRIDFORMAT
  1
GRIDFORMAT_BEGIN
 90
        0
 91
        1
 62
     0
 92
       -2
340
0
 93
        0
 40
0.045
309
GRIDFORMAT_END
 95
        8
302
GRIDFORMAT
  1
GRIDFORMAT_BEGIN
 90
        0
 91
        1
 62
     0
 92
       -2
340
0
 93
        0
 40
0.045
309
GRIDFORMAT_END
 95
       16
302
GRIDFORMAT
  1
GRIDFORMAT_BEGIN
 90
        0
 91
        1
 62
     0
 92
       -2
340
0
 93
        0
 40
0.045
309
GRIDFORMAT_END
 95
       32
302
GRIDFORMAT
  1
GRIDFORMAT_BEGIN
 90
        0
 91
        1
 62
     0
 92
       -2
340
0
 93
        0
 40
0.045
309
GRIDFORMAT_END
309
TABLEFORMAT_END
  1
CELLSTYLE_BEGIN
 90
        1
 91
        1
300
_TITLE
309
CELLSTYLE_END
300
CELLSTYLE
  1
TABLEFORMAT_BEGIN
 90
        5
170
     1
 91
        0
 92
        0
 62
   257
 93
        1
300
CONTENTFORMAT
  1
CONTENTFORMAT_BEGIN
 90
        0
 91
        0
 92
      512
 93
        0
300

 40
0.0
140
1.0
 94
        5
 62
     0
340
26
144
0.18
309
CONTENTFORMAT_END
171
     1
301
MARGIN
  1
CELLMARGIN_BEGIN
 40
0.06
 40
0.06
 40
0.06
 40
0.06
 40
0.18
 40
0.18
309
CELLMARGIN_END
 94
        6
 95
        1
302
GRIDFORMAT
  1
GRIDFORMAT_BEGIN
 90
        0
 91
        1
 62
     0
 92
       -2
340
0
 93
        0
 40
0.045
309
GRIDFORMAT_END
 95
        2
302
GRIDFORMAT
  1
GRIDFORMAT_BEGIN
 90
        0
 91
        1
 62
     0
 92
       -2
340
0
 93
        0
 40
0.045
309
GRIDFORMAT_END
 95
        4
302
GRIDFORMAT
  1
GRIDFORMAT_BEGIN
 90
        0
 91
        1
 62
     0
 92
       -2
340
0
 93
        0
 40
0.045
309
GRIDFORMAT_END
 95
        8
302
GRIDFORMAT
  1
GRIDFORMAT_BEGIN
 90
        0
 91
        1
 62
     0
 92
       -2
340
0
 93
        0
 40
0.045
309
GRIDFORMAT_END
 95
       16
302
GRIDFORMAT
  1
GRIDFORMAT_BEGIN
 90
        0
 91
        1
 62
     0
 92
       -2
340
0
 93
        0
 40
0.045
309
GRIDFORMAT_END
 95
       32
302
GRIDFORMAT
  1
GRIDFORMAT_BEGIN
 90
        0
 91
        1
 62
     0
 92
       -2
340
0
 93
        0
 40
0.045
309
GRIDFORMAT_END
309
TABLEFORMAT_END
  1
CELLSTYLE_BEGIN
 90
        2
 91
        1
300
_HEADER
309
CELLSTYLE_END
300
CELLSTYLE
  1
TABLEFORMAT_BEGIN
 90
        5
170
     1
 91
        0
 92
        0
 62
   257
 93
        1
300
CONTENTFORMAT
  1
CONTENTFORMAT_BEGIN
 90
        0
 91
        0
 92
      512
 93
        0
300

 40
0.0
140
1.0
 94
        2
 62
     0
340
26
144
0.18
309
CONTENTFORMAT_END
171
     1
301
MARGIN
  1
CELLMARGIN_BEGIN
 40
0.06
 40
0.06
 40
0.06
 40
0.06
 40
0.18
 40
0.18
309
CELLMARGIN_END
 94
        6
 95
        1
302
GRIDFORMAT
  1
GRIDFORMAT_BEGIN
 90
        0
 91
        1
 62
     0
 92
       -2
340
0
 93
        0
 40
0.045
309
GRIDFORMAT_END
 95
        2
302
GRIDFORMAT
  1
GRIDFORMAT_BEGIN
 90
        0
 91
        1
 62
     0
 92
       -2
340
0
 93
        0
 40
0.045
309
GRIDFORMAT_END
 95
        4
302
GRIDFORMAT
  1
GRIDFORMAT_BEGIN
 90
        0
 91
        1
 62
     0
 92
       -2
340
0
 93
        0
 40
0.045
309
GRIDFORMAT_END
 95
        8
302
GRIDFORMAT
  1
GRIDFORMAT_BEGIN
 90
        0
 91
        1
 62
     0
 92
       -2
340
0
 93
        0
 40
0.045
309
GRIDFORMAT_END
 95
       16
302
GRIDFORMAT
  1
GRIDFORMAT_BEGIN
 90
        0
 91
        1
 62
     0
 92
       -2
340
0
 93
        0
 40
0.045
309
GRIDFORMAT_END
 95
       32
302
GRIDFORMAT
  1
GRIDFORMAT_BEGIN
 90
        0
 91
        1
 62
     0
 92
       -2
340
0
 93
        0
 40
0.045
309
GRIDFORMAT_END
309
TABLEFORMAT_END
  1
CELLSTYLE_BEGIN
 90
        3
 91
        2
300
_DATA
309
CELLSTYLE_END
  0
XRECORD
  5
311C
102
{ACAD_REACTORS
330
DAB
102
}
330
DAB
100
AcDbXrecord
280
     1
102
ACAD_ROUNDTRIP_PRE2007_TABLESTYLE
 90
      512
 91
        0
  1

 92
      512
 93
        0
  2

 94
      512
 95
        0
  3

  0
CELLSTYLEMAP
  5
30EF
102
{ACAD_REACTORS
330
16E3
102
}
330
16E3
100
AcDbCellStyleMap
 90
        3
300
CELLSTYLE
  1
TABLEFORMAT_BEGIN
 90
        5
170
     1
 91
        0
 92
    32768
 62
   257
 93
        1
300
CONTENTFORMAT
  1
CONTENTFORMAT_BEGIN
 90
        0
 91
        0
 92
      512
 93
        0
300

 40
0.0
140
1.0
 94
        8
 62
     3
340
9E3
144
0.25
309
CONTENTFORMAT_END
171
     1
301
MARGIN
  1
CELLMARGIN_BEGIN
 40
0.5
 40
10.0
 40
0.06
 40
0.06
 40
0.18
 40
0.18
309
CELLMARGIN_END
 94
        6
 95
        1
302
GRIDFORMAT
  1
GRIDFORMAT_BEGIN
 90
        0
 91
        1
 62
     0
 92
       -2
340
0
 93
        0
 40
0.045
309
GRIDFORMAT_END
 95
        2
302
GRIDFORMAT
  1
GRIDFORMAT_BEGIN
 90
        0
 91
        1
 62
     0
 92
       -2
340
0
 93
        0
 40
0.045
309
GRIDFORMAT_END
 95
        4
302
GRIDFORMAT
  1
GRIDFORMAT_BEGIN
 90
        0
 91
        1
 62
     0
 92
       -2
340
0
 93
        0
 40
0.045
309
GRIDFORMAT_END
 95
        8
302
GRIDFORMAT
  1
GRIDFORMAT_BEGIN
 90
        0
 91
        1
 62
     0
 92
       -2
340
0
 93
        0
 40
0.045
309
GRIDFORMAT_END
 95
       16
302
GRIDFORMAT
  1
GRIDFORMAT_BEGIN
 90
        0
 91
        1
 62
     0
 92
       -2
340
0
 93
        0
 40
0.045
309
GRIDFORMAT_END
 95
       32
302
GRIDFORMAT
  1
GRIDFORMAT_BEGIN
 90
        0
 91
        1
 62
     0
 92
       -2
340
0
 93
        0
 40
0.045
309
GRIDFORMAT_END
309
TABLEFORMAT_END
  1
CELLSTYLE_BEGIN
 90
        1
 91
        1
300
_TITLE
309
CELLSTYLE_END
300
CELLSTYLE
  1
TABLEFORMAT_BEGIN
 90
        5
170
     1
 91
        0
 92
        0
 62
   257
 93
        1
300
CONTENTFORMAT
  1
CONTENTFORMAT_BEGIN
 90
        0
 91
        0
 92
      512
 93
        0
300

 40
0.0
140
1.0
 94
        7
 62
     3
340
9E3
144
0.18
309
CONTENTFORMAT_END
171
     1
301
MARGIN
  1
CELLMARGIN_BEGIN
 40
0.5
 40
1.5
 40
0.06
 40
0.06
 40
0.18
 40
0.18
309
CELLMARGIN_END
 94
        6
 95
        1
302
GRIDFORMAT
  1
GRIDFORMAT_BEGIN
 90
        0
 91
        1
 62
     3
 92
       -2
340
28
 93
        0
 40
0.045
309
GRIDFORMAT_END
 95
        2
302
GRIDFORMAT
  1
GRIDFORMAT_BEGIN
 90
        0
 91
        1
 62
     7
 92
       -2
340
28
 93
        0
 40
0.045
309
GRIDFORMAT_END
 95
        4
302
GRIDFORMAT
  1
GRIDFORMAT_BEGIN
 90
        0
 91
        1
 62
     3
 92
       -2
340
28
 93
        0
 40
0.045
309
GRIDFORMAT_END
 95
        8
302
GRIDFORMAT
  1
GRIDFORMAT_BEGIN
 90
        0
 91
        1
 62
     3
 92
       -2
340
28
 93
        0
 40
0.045
309
GRIDFORMAT_END
 95
       16
302
GRIDFORMAT
  1
GRIDFORMAT_BEGIN
 90
        0
 91
        1
 62
     7
 92
       -2
340
28
 93
        0
 40
0.045
309
GRIDFORMAT_END
 95
       32
302
GRIDFORMAT
  1
GRIDFORMAT_BEGIN
 90
        0
 91
        1
 62
     3
 92
       -2
340
28
 93
        0
 40
0.045
309
GRIDFORMAT_END
309
TABLEFORMAT_END
  1
CELLSTYLE_BEGIN
 90
        2
 91
        1
300
_HEADER
309
CELLSTYLE_END
300
CELLSTYLE
  1
TABLEFORMAT_BEGIN
 90
        5
170
     1
 91
        0
 92
        0
 62
   257
 93
        1
300
CONTENTFORMAT
  1
CONTENTFORMAT_BEGIN
 90
        0
 91
        0
 92
      512
 93
        0
300

 40
0.0
140
1.0
 94
        7
 62
     3
340
9E3
144
0.18
309
CONTENTFORMAT_END
171
     1
301
MARGIN
  1
CELLMARGIN_BEGIN
 40
0.5
 40
1.5
 40
0.06
 40
0.06
 40
0.18
 40
0.18
309
CELLMARGIN_END
 94
        6
 95
        1
302
GRIDFORMAT
  1
GRIDFORMAT_BEGIN
 90
        0
 91
        1
 62
     3
 92
       -2
340
28
 93
        0
 40
0.045
309
GRIDFORMAT_END
 95
        2
302
GRIDFORMAT
  1
GRIDFORMAT_BEGIN
 90
        0
 91
        1
 62
     7
 92
       -2
340
28
 93
        0
 40
0.045
309
GRIDFORMAT_END
 95
        4
302
GRIDFORMAT
  1
GRIDFORMAT_BEGIN
 90
        0
 91
        1
 62
     3
 92
       -2
340
28
 93
        0
 40
0.045
309
GRIDFORMAT_END
 95
        8
302
GRIDFORMAT
  1
GRIDFORMAT_BEGIN
 90
        0
 91
        1
 62
     3
 92
       -2
340
28
 93
        0
 40
0.045
309
GRIDFORMAT_END
 95
       16
302
GRIDFORMAT
  1
GRIDFORMAT_BEGIN
 90
        0
 91
        1
 62
     7
 92
       -2
340
28
 93
        0
 40
0.045
309
GRIDFORMAT_END
 95
       32
302
GRIDFORMAT
  1
GRIDFORMAT_BEGIN
 90
        0
 91
        1
 62
     3
 92
       -2
340
28
 93
        0
 40
0.045
309
GRIDFORMAT_END
309
TABLEFORMAT_END
  1
CELLSTYLE_BEGIN
 90
        3
 91
        2
300
_DATA
309
CELLSTYLE_END
  0
XRECORD
  5
3135
102
{ACAD_REACTORS
330
16E3
102
}
330
16E3
100
AcDbXrecord
280
     1
102
ACAD_ROUNDTRIP_PRE2007_TABLESTYLE
 90
      512
 91
        0
  1

 92
      512
 93
        0
  2

 94
      512
 95
        0
  3

  0
XRECORD
  5
3107
102
{ACAD_REACTORS
330
3106
102
}
330
3106
100
AcDbXrecord
280
     1
102
RTVSPropertyOp0
 70
     1
102
RTVSPropertyOp1
 70
     1
102
RTVSPropertyOp2
 70
     1
102
RTVSPropertyOp3
 70
     1
102
RTVSPropertyOp4
 70
     1
102
RTVSPropertyOp5
 70
     1
102
RTVSPropertyOp6
 70
     1
102
RTVSPropertyOp7
 70
     1
102
RTVSPropertyOp8
 70
     1
102
RTVSPropertyOp9
 70
     1
102
RTVSPropertyOp10
 70
     1
102
RTVSPropertyOp11
 70
     1
102
RTVSPropertyOp12
 70
     1
102
RTVSPropertyOp13
 70
     1
102
RTVSPropertyOp14
 70
     1
102
RTVSPropertyOp15
 70
     1
102
RTVSPropertyOp16
 70
     1
102
RTVSPropertyOp17
 70
     1
102
RTVSPropertyOp18
 70
     1
102
RTVSPropertyOp19
 70
     1
102
RTVSPropertyOp20
 70
     1
102
RTVSPropertyOp21
 70
     1
102
RTVSPropertyOp22
 70
     1
102
RTVSPropertyOp23
 70
     1
102
RTVSPropertyOp24
 70
     1
102
RTVSPropertyOp25
 70
     1
102
RTVSPropertyOp26
 70
     1
102
RTVSPropertyOp27
 70
     1
102
RTVSPropertyOp28
 70
     1
102
RTVSPropertyOp29
 70
     1
102
RTVSPropertyOp30
 70
     1
102
RTVSPropertyOp31
 70
     1
102
RTVSPropertyOp32
 70
     1
  0
XRECORD
  5
310B
102
{ACAD_REACTORS
330
310A
102
}
330
310A
100
AcDbXrecord
280
     1
102
RTVSPropertyOp0
 70
     1
102
RTVSPropertyOp1
 70
     1
102
RTVSPropertyOp2
 70
     1
102
RTVSPropertyOp3
 70
     1
102
RTVSPropertyOp4
 70
     1
102
RTVSPropertyOp5
 70
     1
102
RTVSPropertyOp6
 70
     1
102
RTVSPropertyOp7
 70
     1
102
RTVSPropertyOp8
 70
     1
102
RTVSPropertyOp9
 70
     1
102
RTVSPropertyOp10
 70
     1
102
RTVSPropertyOp11
 70
     1
102
RTVSPropertyOp12
 70
     1
102
RTVSPropertyOp13
 70
     1
102
RTVSPropertyOp14
 70
     1
102
RTVSPropertyOp15
 70
     1
102
RTVSPropertyOp16
 70
     1
102
RTVSPropertyOp17
 70
     1
102
RTVSPropertyOp18
 70
     1
102
RTVSPropertyOp19
 70
     1
102
RTVSPropertyOp20
 70
     1
102
RTVSPropertyOp21
 70
     1
102
RTVSPropertyOp22
 70
     1
102
RTVSPropertyOp23
 70
     1
102
RTVSPropertyOp24
 70
     1
102
RTVSPropertyOp25
 70
     1
102
RTVSPropertyOp26
 70
     1
102
RTVSPropertyOp27
 70
     1
102
RTVSPropertyOp28
 70
     1
102
RTVSPropertyOp29
 70
     1
102
RTVSPropertyOp30
 70
     1
102
RTVSPropertyOp31
 70
     1
102
RTVSPropertyOp32
 70
     1
  0
XRECORD
  5
3109
102
{ACAD_REACTORS
330
3108
102
}
330
3108
100
AcDbXrecord
280
     1
102
RTVSPropertyOp0
 70
     1
102
RTVSPropertyOp1
 70
     1
102
RTVSPropertyOp2
 70
     1
102
RTVSPropertyOp3
 70
     1
102
RTVSPropertyOp4
 70
     1
102
RTVSPropertyOp5
 70
     1
102
RTVSPropertyOp6
 70
     1
102
RTVSPropertyOp7
 70
     1
102
RTVSPropertyOp8
 70
     1
102
RTVSPropertyOp9
 70
     1
102
RTVSPropertyOp10
 70
     1
102
RTVSPropertyOp11
 70
     1
102
RTVSPropertyOp12
 70
     1
102
RTVSPropertyOp13
 70
     1
102
RTVSPropertyOp14
 70
     1
102
RTVSPropertyOp15
 70
     1
102
RTVSPropertyOp16
 70
     1
102
RTVSPropertyOp17
 70
     1
102
RTVSPropertyOp18
 70
     1
102
RTVSPropertyOp19
 70
     1
102
RTVSPropertyOp20
 70
     1
102
RTVSPropertyOp21
 70
     1
102
RTVSPropertyOp22
 70
     1
102
RTVSPropertyOp23
 70
     1
102
RTVSPropertyOp24
 70
     1
102
RTVSPropertyOp25
 70
     1
102
RTVSPropertyOp26
 70
     1
102
RTVSPropertyOp27
 70
     1
102
RTVSPropertyOp28
 70
     1
102
RTVSPropertyOp29
 70
     1
102
RTVSPropertyOp30
 70
     1
102
RTVSPropertyOp31
 70
     1
102
RTVSPropertyOp32
 70
     1
  0
XRECORD
  5
3105
102
{ACAD_REACTORS
330
3104
102
}
330
3104
100
AcDbXrecord
280
     1
102
RTVSPropertyOp0
 70
     1
102
RTVSPropertyOp1
 70
     1
102
RTVSPropertyOp2
 70
     1
102
RTVSPropertyOp3
 70
     1
102
RTVSPropertyOp4
 70
     1
102
RTVSPropertyOp5
 70
     1
102
RTVSPropertyOp6
 70
     1
102
RTVSPropertyOp7
 70
     1
102
RTVSPropertyOp8
 70
     1
102
RTVSPropertyOp9
 70
     1
102
RTVSPropertyOp10
 70
     1
102
RTVSPropertyOp11
 70
     1
102
RTVSPropertyOp12
 70
     1
102
RTVSPropertyOp13
 70
     1
102
RTVSPropertyOp14
 70
     1
102
RTVSPropertyOp15
 70
     1
102
RTVSPropertyOp16
 70
     1
102
RTVSPropertyOp17
 70
     1
102
RTVSPropertyOp18
 70
     1
102
RTVSPropertyOp19
 70
     1
102
RTVSPropertyOp20
 70
     1
102
RTVSPropertyOp21
 70
     1
102
RTVSPropertyOp22
 70
     1
102
RTVSPropertyOp23
 70
     1
102
RTVSPropertyOp24
 70
     1
102
RTVSPropertyOp25
 70
     1
102
RTVSPropertyOp26
 70
     1
102
RTVSPropertyOp27
 70
     1
102
RTVSPropertyOp28
 70
     1
102
RTVSPropertyOp29
 70
     1
102
RTVSPropertyOp30
 70
     1
102
RTVSPropertyOp31
 70
     1
102
RTVSPropertyOp32
 70
     1
  0
XRECORD
  5
3113
102
{ACAD_REACTORS
330
3112
102
}
330
3112
100
AcDbXrecord
280
     1
102
RTVSPropertyOp0
 70
     1
102
RTVSPropertyOp1
 70
     1
102
RTVSPropertyOp2
 70
     1
102
RTVSPropertyOp3
 70
     1
102
RTVSPropertyOp4
 70
     1
102
RTVSPropertyOp5
 70
     1
102
RTVSPropertyOp6
 70
     1
102
RTVSPropertyOp7
 70
     1
102
RTVSPropertyOp8
 70
     1
102
RTVSPropertyOp9
 70
     1
102
RTVSPropertyOp10
 70
     1
102
RTVSPropertyOp11
 70
     1
102
RTVSPropertyOp12
 70
     1
102
RTVSPropertyOp13
 70
     1
102
RTVSPropertyOp14
 70
     1
102
RTVSPropertyOp15
 70
     1
102
RTVSPropertyOp16
 70
     1
102
RTVSPropertyOp17
 70
     1
102
RTVSPropertyOp18
 70
     1
102
RTVSPropertyOp19
 70
     1
102
RTVSPropertyOp20
 70
     1
102
RTVSPropertyOp21
 70
     1
102
RTVSPropertyOp22
 70
     1
102
RTVSPropertyOp23
 70
     1
102
RTVSPropertyOp24
 70
     1
102
RTVSPropertyOp25
 70
     1
102
RTVSPropertyOp26
 70
     1
102
RTVSPropertyOp27
 70
     1
102
RTVSPropertyOp28
 70
     1
102
RTVSPropertyOp29
 70
     1
102
RTVSPropertyOp30
 70
     1
102
RTVSPropertyOp31
 70
     1
102
RTVSPropertyOp32
 70
     1
  0
XRECORD
  5
311B
102
{ACAD_REACTORS
330
311A
102
}
330
311A
100
AcDbXrecord
280
     1
102
RTVSPropertyOp0
 70
     1
102
RTVSPropertyOp1
 70
     1
102
RTVSPropertyOp2
 70
     1
102
RTVSPropertyOp3
 70
     1
102
RTVSPropertyOp4
 70
     1
102
RTVSPropertyOp5
 70
     1
102
RTVSPropertyOp6
 70
     1
102
RTVSPropertyOp7
 70
     1
102
RTVSPropertyOp8
 70
     1
102
RTVSPropertyOp9
 70
     1
102
RTVSPropertyOp10
 70
     1
102
RTVSPropertyOp11
 70
     1
102
RTVSPropertyOp12
 70
     1
102
RTVSPropertyOp13
 70
     1
102
RTVSPropertyOp14
 70
     1
102
RTVSPropertyOp15
 70
     1
102
RTVSPropertyOp16
 70
     1
102
RTVSPropertyOp17
 70
     1
102
RTVSPropertyOp18
 70
     1
102
RTVSPropertyOp19
 70
     1
102
RTVSPropertyOp20
 70
     1
102
RTVSPropertyOp21
 70
     1
102
RTVSPropertyOp22
 70
     1
102
RTVSPropertyOp23
 70
     1
102
RTVSPropertyOp24
 70
     1
102
RTVSPropertyOp25
 70
     1
102
RTVSPropertyOp26
 70
     1
102
RTVSPropertyOp27
 70
     1
102
RTVSPropertyOp28
 70
     1
102
RTVSPropertyOp29
 70
     1
102
RTVSPropertyOp30
 70
     1
102
RTVSPropertyOp31
 70
     1
102
RTVSPropertyOp32
 70
     1
  0
XRECORD
  5
310D
102
{ACAD_REACTORS
330
310C
102
}
330
310C
100
AcDbXrecord
280
     1
102
RTVSPropertyOp0
 70
     1
102
RTVSPropertyOp1
 70
     1
102
RTVSPropertyOp2
 70
     1
102
RTVSPropertyOp3
 70
     1
102
RTVSPropertyOp4
 70
     1
102
RTVSPropertyOp5
 70
     1
102
RTVSPropertyOp6
 70
     1
102
RTVSPropertyOp7
 70
     1
102
RTVSPropertyOp8
 70
     1
102
RTVSPropertyOp9
 70
     1
102
RTVSPropertyOp10
 70
     1
102
RTVSPropertyOp11
 70
     1
102
RTVSPropertyOp12
 70
     1
102
RTVSPropertyOp13
 70
     1
102
RTVSPropertyOp14
 70
     1
102
RTVSPropertyOp15
 70
     1
102
RTVSPropertyOp16
 70
     1
102
RTVSPropertyOp17
 70
     1
102
RTVSPropertyOp18
 70
     1
102
RTVSPropertyOp19
 70
     1
102
RTVSPropertyOp20
 70
     1
102
RTVSPropertyOp21
 70
     1
102
RTVSPropertyOp22
 70
     1
102
RTVSPropertyOp23
 70
     1
102
RTVSPropertyOp24
 70
     1
102
RTVSPropertyOp25
 70
     1
102
RTVSPropertyOp26
 70
     1
102
RTVSPropertyOp27
 70
     1
102
RTVSPropertyOp28
 70
     1
102
RTVSPropertyOp29
 70
     1
102
RTVSPropertyOp30
 70
     1
102
RTVSPropertyOp31
 70
     1
102
RTVSPropertyOp32
 70
     1
  0
XRECORD
  5
3111
102
{ACAD_REACTORS
330
3110
102
}
330
3110
100
AcDbXrecord
280
     1
102
RTVSPropertyOp0
 70
     1
102
RTVSPropertyOp1
 70
     1
102
RTVSPropertyOp2
 70
     1
102
RTVSPropertyOp3
 70
     1
102
RTVSPropertyOp4
 70
     1
102
RTVSPropertyOp5
 70
     1
102
RTVSPropertyOp6
 70
     1
102
RTVSPropertyOp7
 70
     1
102
RTVSPropertyOp8
 70
     1
102
RTVSPropertyOp9
 70
     1
102
RTVSPropertyOp10
 70
     1
102
RTVSPropertyOp11
 70
     1
102
RTVSPropertyOp12
 70
     1
102
RTVSPropertyOp13
 70
     1
102
RTVSPropertyOp14
 70
     1
102
RTVSPropertyOp15
 70
     1
102
RTVSPropertyOp16
 70
     1
102
RTVSPropertyOp17
 70
     1
102
RTVSPropertyOp18
 70
     1
102
RTVSPropertyOp19
 70
     1
102
RTVSPropertyOp20
 70
     1
102
RTVSPropertyOp21
 70
     1
102
RTVSPropertyOp22
 70
     1
102
RTVSPropertyOp23
 70
     1
102
RTVSPropertyOp24
 70
     1
102
RTVSPropertyOp25
 70
     1
102
RTVSPropertyOp26
 70
     1
102
RTVSPropertyOp27
 70
     1
102
RTVSPropertyOp28
 70
     1
102
RTVSPropertyOp29
 70
     1
102
RTVSPropertyOp30
 70
     1
102
RTVSPropertyOp31
 70
     1
102
RTVSPropertyOp32
 70
     1
  0
XRECORD
  5
3134
102
{ACAD_REACTORS
330
3133
102
}
330
3133
100
AcDbXrecord
280
     1
102
RTVSPropertyOp0
 70
     0
102
RTVSPropertyOp1
 70
     0
102
RTVSPropertyOp2
 70
     0
102
RTVSPropertyOp3
 70
     0
102
RTVSPropertyOp4
 70
     0
102
RTVSPropertyOp5
 70
     0
102
RTVSPropertyOp6
 70
     0
102
RTVSPropertyOp7
 70
     0
102
RTVSPropertyOp8
 70
     0
102
RTVSPropertyOp9
 70
     0
102
RTVSPropertyOp10
 70
     0
102
RTVSPropertyOp11
 70
     0
102
RTVSPropertyOp12
 70
     0
102
RTVSPropertyOp13
 70
     0
102
RTVSPropertyOp14
 70
     2
102
RTVSPropertyOp15
 70
     0
102
RTVSPropertyOp16
 70
     0
102
RTVSPropertyOp17
 70
     0
102
RTVSPropertyOp18
 70
     0
102
RTVSPropertyOp19
 70
     0
102
RTVSPropertyOp20
 70
     0
102
RTVSPropertyOp21
 70
     0
102
RTVSPropertyOp22
 70
     0
102
RTVSPropertyOp23
 70
     0
102
RTVSPropertyOp24
 70
     0
102
RTVSPropertyOp25
 70
     0
102
RTVSPropertyOp26
 70
     0
102
RTVSPropertyOp27
 70
     0
102
RTVSPropertyOp28
 70
     0
102
RTVSPropertyOp29
 70
     0
102
RTVSPropertyOp30
 70
     0
102
RTVSPropertyOp31
 70
     0
102
RTVSPropertyOp32
 70
     0
  0
XRECORD
  5
3119
102
{ACAD_REACTORS
330
3118
102
}
330
3118
100
AcDbXrecord
280
     1
102
RTVSPropertyOp0
 70
     1
102
RTVSPropertyOp1
 70
     1
102
RTVSPropertyOp2
 70
     1
102
RTVSPropertyOp3
 70
     1
102
RTVSPropertyOp4
 70
     1
102
RTVSPropertyOp5
 70
     1
102
RTVSPropertyOp6
 70
     1
102
RTVSPropertyOp7
 70
     1
102
RTVSPropertyOp8
 70
     1
102
RTVSPropertyOp9
 70
     1
102
RTVSPropertyOp10
 70
     1
102
RTVSPropertyOp11
 70
     1
102
RTVSPropertyOp12
 70
     1
102
RTVSPropertyOp13
 70
     1
102
RTVSPropertyOp14
 70
     1
102
RTVSPropertyOp15
 70
     1
102
RTVSPropertyOp16
 70
     1
102
RTVSPropertyOp17
 70
     1
102
RTVSPropertyOp18
 70
     1
102
RTVSPropertyOp19
 70
     1
102
RTVSPropertyOp20
 70
     1
102
RTVSPropertyOp21
 70
     1
102
RTVSPropertyOp22
 70
     1
102
RTVSPropertyOp23
 70
     1
102
RTVSPropertyOp24
 70
     1
102
RTVSPropertyOp25
 70
     1
102
RTVSPropertyOp26
 70
     1
102
RTVSPropertyOp27
 70
     1
102
RTVSPropertyOp28
 70
     1
102
RTVSPropertyOp29
 70
     1
102
RTVSPropertyOp30
 70
     1
102
RTVSPropertyOp31
 70
     1
102
RTVSPropertyOp32
 70
     1
  0
XRECORD
  5
30FD
102
{ACAD_REACTORS
330
30FC
102
}
330
30FC
100
AcDbXrecord
280
     1
102
RTVSPropertyOp0
 70
     1
102
RTVSPropertyOp1
 70
     1
102
RTVSPropertyOp2
 70
     1
102
RTVSPropertyOp3
 70
     1
102
RTVSPropertyOp4
 70
     1
102
RTVSPropertyOp5
 70
     1
102
RTVSPropertyOp6
 70
     1
102
RTVSPropertyOp7
 70
     1
102
RTVSPropertyOp8
 70
     1
102
RTVSPropertyOp9
 70
     1
102
RTVSPropertyOp10
 70
     1
102
RTVSPropertyOp11
 70
     1
102
RTVSPropertyOp12
 70
     1
102
RTVSPropertyOp13
 70
     1
102
RTVSPropertyOp14
 70
     1
102
RTVSPropertyOp15
 70
     1
102
RTVSPropertyOp16
 70
     1
102
RTVSPropertyOp17
 70
     1
102
RTVSPropertyOp18
 70
     1
102
RTVSPropertyOp19
 70
     1
102
RTVSPropertyOp20
 70
     1
102
RTVSPropertyOp21
 70
     1
102
RTVSPropertyOp22
 70
     1
102
RTVSPropertyOp23
 70
     1
102
RTVSPropertyOp24
 70
     1
102
RTVSPropertyOp25
 70
     1
102
RTVSPropertyOp26
 70
     1
102
RTVSPropertyOp27
 70
     1
102
RTVSPropertyOp28
 70
     1
102
RTVSPropertyOp29
 70
     1
102
RTVSPropertyOp30
 70
     1
102
RTVSPropertyOp31
 70
     1
102
RTVSPropertyOp32
 70
     1
  0
XRECORD
  5
30FF
102
{ACAD_REACTORS
330
30FE
102
}
330
30FE
100
AcDbXrecord
280
     1
102
RTVSPropertyOp0
 70
     1
102
RTVSPropertyOp1
 70
     1
102
RTVSPropertyOp2
 70
     1
102
RTVSPropertyOp3
 70
     1
102
RTVSPropertyOp4
 70
     1
102
RTVSPropertyOp5
 70
     1
102
RTVSPropertyOp6
 70
     1
102
RTVSPropertyOp7
 70
     1
102
RTVSPropertyOp8
 70
     1
102
RTVSPropertyOp9
 70
     1
102
RTVSPropertyOp10
 70
     1
102
RTVSPropertyOp11
 70
     1
102
RTVSPropertyOp12
 70
     1
102
RTVSPropertyOp13
 70
     1
102
RTVSPropertyOp14
 70
     1
102
RTVSPropertyOp15
 70
     1
102
RTVSPropertyOp16
 70
     1
102
RTVSPropertyOp17
 70
     1
102
RTVSPropertyOp18
 70
     1
102
RTVSPropertyOp19
 70
     1
102
RTVSPropertyOp20
 70
     1
102
RTVSPropertyOp21
 70
     1
102
RTVSPropertyOp22
 70
     1
102
RTVSPropertyOp23
 70
     1
102
RTVSPropertyOp24
 70
     1
102
RTVSPropertyOp25
 70
     1
102
RTVSPropertyOp26
 70
     1
102
RTVSPropertyOp27
 70
     1
102
RTVSPropertyOp28
 70
     1
102
RTVSPropertyOp29
 70
     1
102
RTVSPropertyOp30
 70
     1
102
RTVSPropertyOp31
 70
     1
102
RTVSPropertyOp32
 70
     1
  0
XRECORD
  5
3101
102
{ACAD_REACTORS
330
3100
102
}
330
3100
100
AcDbXrecord
280
     1
102
RTVSPropertyOp0
 70
     1
102
RTVSPropertyOp1
 70
     1
102
RTVSPropertyOp2
 70
     1
102
RTVSPropertyOp3
 70
     1
102
RTVSPropertyOp4
 70
     1
102
RTVSPropertyOp5
 70
     1
102
RTVSPropertyOp6
 70
     1
102
RTVSPropertyOp7
 70
     1
102
RTVSPropertyOp8
 70
     1
102
RTVSPropertyOp9
 70
     1
102
RTVSPropertyOp10
 70
     1
102
RTVSPropertyOp11
 70
     1
102
RTVSPropertyOp12
 70
     1
102
RTVSPropertyOp13
 70
     1
102
RTVSPropertyOp14
 70
     1
102
RTVSPropertyOp15
 70
     1
102
RTVSPropertyOp16
 70
     1
102
RTVSPropertyOp17
 70
     1
102
RTVSPropertyOp18
 70
     1
102
RTVSPropertyOp19
 70
     1
102
RTVSPropertyOp20
 70
     1
102
RTVSPropertyOp21
 70
     1
102
RTVSPropertyOp22
 70
     1
102
RTVSPropertyOp23
 70
     1
102
RTVSPropertyOp24
 70
     1
102
RTVSPropertyOp25
 70
     1
102
RTVSPropertyOp26
 70
     1
102
RTVSPropertyOp27
 70
     1
102
RTVSPropertyOp28
 70
     1
102
RTVSPropertyOp29
 70
     1
102
RTVSPropertyOp30
 70
     1
102
RTVSPropertyOp31
 70
     1
102
RTVSPropertyOp32
 70
     1
  0
XRECORD
  5
3103
102
{ACAD_REACTORS
330
3102
102
}
330
3102
100
AcDbXrecord
280
     1
102
RTVSPropertyOp0
 70
     1
102
RTVSPropertyOp1
 70
     1
102
RTVSPropertyOp2
 70
     1
102
RTVSPropertyOp3
 70
     1
102
RTVSPropertyOp4
 70
     1
102
RTVSPropertyOp5
 70
     1
102
RTVSPropertyOp6
 70
     1
102
RTVSPropertyOp7
 70
     1
102
RTVSPropertyOp8
 70
     1
102
RTVSPropertyOp9
 70
     1
102
RTVSPropertyOp10
 70
     1
102
RTVSPropertyOp11
 70
     1
102
RTVSPropertyOp12
 70
     1
102
RTVSPropertyOp13
 70
     1
102
RTVSPropertyOp14
 70
     1
102
RTVSPropertyOp15
 70
     1
102
RTVSPropertyOp16
 70
     1
102
RTVSPropertyOp17
 70
     1
102
RTVSPropertyOp18
 70
     1
102
RTVSPropertyOp19
 70
     1
102
RTVSPropertyOp20
 70
     1
102
RTVSPropertyOp21
 70
     1
102
RTVSPropertyOp22
 70
     1
102
RTVSPropertyOp23
 70
     1
102
RTVSPropertyOp24
 70
     1
102
RTVSPropertyOp25
 70
     1
102
RTVSPropertyOp26
 70
     1
102
RTVSPropertyOp27
 70
     1
102
RTVSPropertyOp28
 70
     1
102
RTVSPropertyOp29
 70
     1
102
RTVSPropertyOp30
 70
     1
102
RTVSPropertyOp31
 70
     1
102
RTVSPropertyOp32
 70
     1
  0
XRECORD
  5
3124
102
{ACAD_REACTORS
330
3123
102
}
330
3123
100
AcDbXrecord
280
     1
102
RTVSPropertyOp0
 70
     1
102
RTVSPropertyOp1
 70
     1
102
RTVSPropertyOp2
 70
     1
102
RTVSPropertyOp3
 70
     1
102
RTVSPropertyOp4
 70
     1
102
RTVSPropertyOp5
 70
     1
102
RTVSPropertyOp6
 70
     1
102
RTVSPropertyOp7
 70
     1
102
RTVSPropertyOp8
 70
     1
102
RTVSPropertyOp9
 70
     1
102
RTVSPropertyOp10
 70
     1
102
RTVSPropertyOp11
 70
     1
102
RTVSPropertyOp12
 70
     1
102
RTVSPropertyOp13
 70
     1
102
RTVSPropertyOp14
 70
     1
102
RTVSPropertyOp15
 70
     1
102
RTVSPropertyOp16
 70
     1
102
RTVSPropertyOp17
 70
     1
102
RTVSPropertyOp18
 70
     1
102
RTVSPropertyOp19
 70
     1
102
RTVSPropertyOp20
 70
     1
102
RTVSPropertyOp21
 70
     1
102
RTVSPropertyOp22
 70
     1
102
RTVSPropertyOp23
 70
     1
102
RTVSPropertyOp24
 70
     1
102
RTVSPropertyOp25
 70
     1
102
RTVSPropertyOp26
 70
     1
102
RTVSPropertyOp27
 70
     1
102
RTVSPropertyOp28
 70
     1
102
RTVSPropertyOp29
 70
     1
102
RTVSPropertyOp30
 70
     1
102
RTVSPropertyOp31
 70
     1
102
RTVSPropertyOp32
 70
     1
  0
XRECORD
  5
3130
102
{ACAD_REACTORS
330
312F
102
}
330
312F
100
AcDbXrecord
280
     1
102
RTVSPropertyOp0
 70
     0
102
RTVSPropertyOp1
 70
     0
102
RTVSPropertyOp2
 70
     0
102
RTVSPropertyOp3
 70
     0
102
RTVSPropertyOp4
 70
     0
102
RTVSPropertyOp5
 70
     0
102
RTVSPropertyOp6
 70
     0
102
RTVSPropertyOp7
 70
     0
102
RTVSPropertyOp8
 70
     0
102
RTVSPropertyOp9
 70
     0
102
RTVSPropertyOp10
 70
     0
102
RTVSPropertyOp11
 70
     0
102
RTVSPropertyOp12
 70
     0
102
RTVSPropertyOp13
 70
     0
102
RTVSPropertyOp14
 70
     2
102
RTVSPropertyOp15
 70
     0
102
RTVSPropertyOp16
 70
     0
102
RTVSPropertyOp17
 70
     0
102
RTVSPropertyOp18
 70
     0
102
RTVSPropertyOp19
 70
     0
102
RTVSPropertyOp20
 70
     0
102
RTVSPropertyOp21
 70
     0
102
RTVSPropertyOp22
 70
     0
102
RTVSPropertyOp23
 70
     0
102
RTVSPropertyOp24
 70
     0
102
RTVSPropertyOp25
 70
     0
102
RTVSPropertyOp26
 70
     0
102
RTVSPropertyOp27
 70
     0
102
RTVSPropertyOp28
 70
     0
102
RTVSPropertyOp29
 70
     0
102
RTVSPropertyOp30
 70
     0
102
RTVSPropertyOp31
 70
     0
102
RTVSPropertyOp32
 70
     0
  0
XRECORD
  5
3117
102
{ACAD_REACTORS
330
3116
102
}
330
3116
100
AcDbXrecord
280
     1
102
RTVSPropertyOp0
 70
     1
102
RTVSPropertyOp1
 70
     1
102
RTVSPropertyOp2
 70
     1
102
RTVSPropertyOp3
 70
     1
102
RTVSPropertyOp4
 70
     1
102
RTVSPropertyOp5
 70
     1
102
RTVSPropertyOp6
 70
     1
102
RTVSPropertyOp7
 70
     1
102
RTVSPropertyOp8
 70
     1
102
RTVSPropertyOp9
 70
     1
102
RTVSPropertyOp10
 70
     1
102
RTVSPropertyOp11
 70
     1
102
RTVSPropertyOp12
 70
     1
102
RTVSPropertyOp13
 70
     1
102
RTVSPropertyOp14
 70
     1
102
RTVSPropertyOp15
 70
     1
102
RTVSPropertyOp16
 70
     1
102
RTVSPropertyOp17
 70
     1
102
RTVSPropertyOp18
 70
     1
102
RTVSPropertyOp19
 70
     1
102
RTVSPropertyOp20
 70
     1
102
RTVSPropertyOp21
 70
     1
102
RTVSPropertyOp22
 70
     1
102
RTVSPropertyOp23
 70
     1
102
RTVSPropertyOp24
 70
     1
102
RTVSPropertyOp25
 70
     1
102
RTVSPropertyOp26
 70
     1
102
RTVSPropertyOp27
 70
     1
102
RTVSPropertyOp28
 70
     1
102
RTVSPropertyOp29
 70
     1
102
RTVSPropertyOp30
 70
     1
102
RTVSPropertyOp31
 70
     1
102
RTVSPropertyOp32
 70
     1
  0
XRECORD
  5
3132
102
{ACAD_REACTORS
330
3131
102
}
330
3131
100
AcDbXrecord
280
     1
102
RTVSPropertyOp0
 70
     0
102
RTVSPropertyOp1
 70
     0
102
RTVSPropertyOp2
 70
     0
102
RTVSPropertyOp3
 70
     0
102
RTVSPropertyOp4
 70
     0
102
RTVSPropertyOp5
 70
     0
102
RTVSPropertyOp6
 70
     0
102
RTVSPropertyOp7
 70
     0
102
RTVSPropertyOp8
 70
     0
102
RTVSPropertyOp9
 70
     0
102
RTVSPropertyOp10
 70
     0
102
RTVSPropertyOp11
 70
     0
102
RTVSPropertyOp12
 70
     0
102
RTVSPropertyOp13
 70
     0
102
RTVSPropertyOp14
 70
     2
102
RTVSPropertyOp15
 70
     0
102
RTVSPropertyOp16
 70
     0
102
RTVSPropertyOp17
 70
     0
102
RTVSPropertyOp18
 70
     0
102
RTVSPropertyOp19
 70
     0
102
RTVSPropertyOp20
 70
     0
102
RTVSPropertyOp21
 70
     0
102
RTVSPropertyOp22
 70
     0
102
RTVSPropertyOp23
 70
     0
102
RTVSPropertyOp24
 70
     0
102
RTVSPropertyOp25
 70
     0
102
RTVSPropertyOp26
 70
     0
102
RTVSPropertyOp27
 70
     0
102
RTVSPropertyOp28
 70
     0
102
RTVSPropertyOp29
 70
     0
102
RTVSPropertyOp30
 70
     0
102
RTVSPropertyOp31
 70
     0
102
RTVSPropertyOp32
 70
     0
  0
XRECORD
  5
310F
102
{ACAD_REACTORS
330
310E
102
}
330
310E
100
AcDbXrecord
280
     1
102
RTVSPropertyOp0
 70
     1
102
RTVSPropertyOp1
 70
     1
102
RTVSPropertyOp2
 70
     1
102
RTVSPropertyOp3
 70
     1
102
RTVSPropertyOp4
 70
     1
102
RTVSPropertyOp5
 70
     1
102
RTVSPropertyOp6
 70
     1
102
RTVSPropertyOp7
 70
     1
102
RTVSPropertyOp8
 70
     1
102
RTVSPropertyOp9
 70
     1
102
RTVSPropertyOp10
 70
     1
102
RTVSPropertyOp11
 70
     1
102
RTVSPropertyOp12
 70
     1
102
RTVSPropertyOp13
 70
     1
102
RTVSPropertyOp14
 70
     1
102
RTVSPropertyOp15
 70
     1
102
RTVSPropertyOp16
 70
     1
102
RTVSPropertyOp17
 70
     1
102
RTVSPropertyOp18
 70
     1
102
RTVSPropertyOp19
 70
     1
102
RTVSPropertyOp20
 70
     1
102
RTVSPropertyOp21
 70
     1
102
RTVSPropertyOp22
 70
     1
102
RTVSPropertyOp23
 70
     1
102
RTVSPropertyOp24
 70
     1
102
RTVSPropertyOp25
 70
     1
102
RTVSPropertyOp26
 70
     1
102
RTVSPropertyOp27
 70
     1
102
RTVSPropertyOp28
 70
     1
102
RTVSPropertyOp29
 70
     1
102
RTVSPropertyOp30
 70
     1
102
RTVSPropertyOp31
 70
     1
102
RTVSPropertyOp32
 70
     1
  0
XRECORD
  5
312E
102
{ACAD_REACTORS
330
312D
102
}
330
312D
100
AcDbXrecord
280
     1
102
RTVSPropertyOp0
 70
     1
102
RTVSPropertyOp1
 70
     1
102
RTVSPropertyOp2
 70
     1
102
RTVSPropertyOp3
 70
     1
102
RTVSPropertyOp4
 70
     1
102
RTVSPropertyOp5
 70
     1
102
RTVSPropertyOp6
 70
     1
102
RTVSPropertyOp7
 70
     1
102
RTVSPropertyOp8
 70
     1
102
RTVSPropertyOp9
 70
     1
102
RTVSPropertyOp10
 70
     1
102
RTVSPropertyOp11
 70
     1
102
RTVSPropertyOp12
 70
     1
102
RTVSPropertyOp13
 70
     1
102
RTVSPropertyOp14
 70
     1
102
RTVSPropertyOp15
 70
     1
102
RTVSPropertyOp16
 70
     1
102
RTVSPropertyOp17
 70
     1
102
RTVSPropertyOp18
 70
     1
102
RTVSPropertyOp19
 70
     1
102
RTVSPropertyOp20
 70
     1
102
RTVSPropertyOp21
 70
     1
102
RTVSPropertyOp22
 70
     1
102
RTVSPropertyOp23
 70
     1
102
RTVSPropertyOp24
 70
     1
102
RTVSPropertyOp25
 70
     1
102
RTVSPropertyOp26
 70
     1
102
RTVSPropertyOp27
 70
     1
102
RTVSPropertyOp28
 70
     1
102
RTVSPropertyOp29
 70
     1
102
RTVSPropertyOp30
 70
     1
102
RTVSPropertyOp31
 70
     1
102
RTVSPropertyOp32
 70
     1
  0
XRECORD
  5
312C
102
{ACAD_REACTORS
330
312B
102
}
330
312B
100
AcDbXrecord
280
     1
102
RTVSPropertyOp0
 70
     1
102
RTVSPropertyOp1
 70
     1
102
RTVSPropertyOp2
 70
     1
102
RTVSPropertyOp3
 70
     1
102
RTVSPropertyOp4
 70
     1
102
RTVSPropertyOp5
 70
     1
102
RTVSPropertyOp6
 70
     1
102
RTVSPropertyOp7
 70
     1
102
RTVSPropertyOp8
 70
     1
102
RTVSPropertyOp9
 70
     1
102
RTVSPropertyOp10
 70
     1
102
RTVSPropertyOp11
 70
     1
102
RTVSPropertyOp12
 70
     1
102
RTVSPropertyOp13
 70
     1
102
RTVSPropertyOp14
 70
     1
102
RTVSPropertyOp15
 70
     1
102
RTVSPropertyOp16
 70
     1
102
RTVSPropertyOp17
 70
     1
102
RTVSPropertyOp18
 70
     1
102
RTVSPropertyOp19
 70
     1
102
RTVSPropertyOp20
 70
     1
102
RTVSPropertyOp21
 70
     1
102
RTVSPropertyOp22
 70
     1
102
RTVSPropertyOp23
 70
     1
102
RTVSPropertyOp24
 70
     1
102
RTVSPropertyOp25
 70
     1
102
RTVSPropertyOp26
 70
     1
102
RTVSPropertyOp27
 70
     1
102
RTVSPropertyOp28
 70
     1
102
RTVSPropertyOp29
 70
     1
102
RTVSPropertyOp30
 70
     1
102
RTVSPropertyOp31
 70
     1
102
RTVSPropertyOp32
 70
     1
  0
XRECORD
  5
3126
102
{ACAD_REACTORS
330
3125
102
}
330
3125
100
AcDbXrecord
280
     1
102
RTVSPropertyOp0
 70
     1
102
RTVSPropertyOp1
 70
     1
102
RTVSPropertyOp2
 70
     1
102
RTVSPropertyOp3
 70
     1
102
RTVSPropertyOp4
 70
     1
102
RTVSPropertyOp5
 70
     1
102
RTVSPropertyOp6
 70
     1
102
RTVSPropertyOp7
 70
     1
102
RTVSPropertyOp8
 70
     1
102
RTVSPropertyOp9
 70
     1
102
RTVSPropertyOp10
 70
     1
102
RTVSPropertyOp11
 70
     1
102
RTVSPropertyOp12
 70
     1
102
RTVSPropertyOp13
 70
     1
102
RTVSPropertyOp14
 70
     1
102
RTVSPropertyOp15
 70
     1
102
RTVSPropertyOp16
 70
     1
102
RTVSPropertyOp17
 70
     1
102
RTVSPropertyOp18
 70
     1
102
RTVSPropertyOp19
 70
     1
102
RTVSPropertyOp20
 70
     1
102
RTVSPropertyOp21
 70
     1
102
RTVSPropertyOp22
 70
     1
102
RTVSPropertyOp23
 70
     1
102
RTVSPropertyOp24
 70
     1
102
RTVSPropertyOp25
 70
     1
102
RTVSPropertyOp26
 70
     1
102
RTVSPropertyOp27
 70
     1
102
RTVSPropertyOp28
 70
     1
102
RTVSPropertyOp29
 70
     1
102
RTVSPropertyOp30
 70
     1
102
RTVSPropertyOp31
 70
     1
102
RTVSPropertyOp32
 70
     1
  0
XRECORD
  5
3128
102
{ACAD_REACTORS
330
3127
102
}
330
3127
100
AcDbXrecord
280
     1
102
RTVSPropertyOp0
 70
     1
102
RTVSPropertyOp1
 70
     1
102
RTVSPropertyOp2
 70
     1
102
RTVSPropertyOp3
 70
     1
102
RTVSPropertyOp4
 70
     1
102
RTVSPropertyOp5
 70
     1
102
RTVSPropertyOp6
 70
     1
102
RTVSPropertyOp7
 70
     1
102
RTVSPropertyOp8
 70
     1
102
RTVSPropertyOp9
 70
     1
102
RTVSPropertyOp10
 70
     1
102
RTVSPropertyOp11
 70
     1
102
RTVSPropertyOp12
 70
     1
102
RTVSPropertyOp13
 70
     1
102
RTVSPropertyOp14
 70
     1
102
RTVSPropertyOp15
 70
     1
102
RTVSPropertyOp16
 70
     1
102
RTVSPropertyOp17
 70
     1
102
RTVSPropertyOp18
 70
     1
102
RTVSPropertyOp19
 70
     1
102
RTVSPropertyOp20
 70
     1
102
RTVSPropertyOp21
 70
     1
102
RTVSPropertyOp22
 70
     1
102
RTVSPropertyOp23
 70
     1
102
RTVSPropertyOp24
 70
     1
102
RTVSPropertyOp25
 70
     1
102
RTVSPropertyOp26
 70
     1
102
RTVSPropertyOp27
 70
     1
102
RTVSPropertyOp28
 70
     1
102
RTVSPropertyOp29
 70
     1
102
RTVSPropertyOp30
 70
     1
102
RTVSPropertyOp31
 70
     1
102
RTVSPropertyOp32
 70
     1
  0
XRECORD
  5
3115
102
{ACAD_REACTORS
330
3114
102
}
330
3114
100
AcDbXrecord
280
     1
102
RTVSPropertyOp0
 70
     1
102
RTVSPropertyOp1
 70
     1
102
RTVSPropertyOp2
 70
     1
102
RTVSPropertyOp3
 70
     1
102
RTVSPropertyOp4
 70
     1
102
RTVSPropertyOp5
 70
     1
102
RTVSPropertyOp6
 70
     1
102
RTVSPropertyOp7
 70
     1
102
RTVSPropertyOp8
 70
     1
102
RTVSPropertyOp9
 70
     1
102
RTVSPropertyOp10
 70
     1
102
RTVSPropertyOp11
 70
     1
102
RTVSPropertyOp12
 70
     1
102
RTVSPropertyOp13
 70
     1
102
RTVSPropertyOp14
 70
     1
102
RTVSPropertyOp15
 70
     1
102
RTVSPropertyOp16
 70
     1
102
RTVSPropertyOp17
 70
     1
102
RTVSPropertyOp18
 70
     1
102
RTVSPropertyOp19
 70
     1
102
RTVSPropertyOp20
 70
     1
102
RTVSPropertyOp21
 70
     1
102
RTVSPropertyOp22
 70
     1
102
RTVSPropertyOp23
 70
     1
102
RTVSPropertyOp24
 70
     1
102
RTVSPropertyOp25
 70
     1
102
RTVSPropertyOp26
 70
     1
102
RTVSPropertyOp27
 70
     1
102
RTVSPropertyOp28
 70
     1
102
RTVSPropertyOp29
 70
     1
102
RTVSPropertyOp30
 70
     1
102
RTVSPropertyOp31
 70
     1
102
RTVSPropertyOp32
 70
     1
  0
XRECORD
  5
3122
102
{ACAD_REACTORS
330
3121
102
}
330
3121
100
AcDbXrecord
280
     1
102
RTVSPropertyOp0
 70
     1
102
RTVSPropertyOp1
 70
     1
102
RTVSPropertyOp2
 70
     1
102
RTVSPropertyOp3
 70
     1
102
RTVSPropertyOp4
 70
     1
102
RTVSPropertyOp5
 70
     1
102
RTVSPropertyOp6
 70
     1
102
RTVSPropertyOp7
 70
     1
102
RTVSPropertyOp8
 70
     1
102
RTVSPropertyOp9
 70
     1
102
RTVSPropertyOp10
 70
     1
102
RTVSPropertyOp11
 70
     1
102
RTVSPropertyOp12
 70
     1
102
RTVSPropertyOp13
 70
     1
102
RTVSPropertyOp14
 70
     1
102
RTVSPropertyOp15
 70
     1
102
RTVSPropertyOp16
 70
     1
102
RTVSPropertyOp17
 70
     1
102
RTVSPropertyOp18
 70
     1
102
RTVSPropertyOp19
 70
     1
102
RTVSPropertyOp20
 70
     1
102
RTVSPropertyOp21
 70
     1
102
RTVSPropertyOp22
 70
     1
102
RTVSPropertyOp23
 70
     1
102
RTVSPropertyOp24
 70
     1
102
RTVSPropertyOp25
 70
     1
102
RTVSPropertyOp26
 70
     1
102
RTVSPropertyOp27
 70
     1
102
RTVSPropertyOp28
 70
     1
102
RTVSPropertyOp29
 70
     1
102
RTVSPropertyOp30
 70
     1
102
RTVSPropertyOp31
 70
     1
102
RTVSPropertyOp32
 70
     1
  0
XRECORD
  5
312A
102
{ACAD_REACTORS
330
3129
102
}
330
3129
100
AcDbXrecord
280
     1
102
RTVSPropertyOp0
 70
     1
102
RTVSPropertyOp1
 70
     1
102
RTVSPropertyOp2
 70
     1
102
RTVSPropertyOp3
 70
     1
102
RTVSPropertyOp4
 70
     1
102
RTVSPropertyOp5
 70
     1
102
RTVSPropertyOp6
 70
     1
102
RTVSPropertyOp7
 70
     1
102
RTVSPropertyOp8
 70
     1
102
RTVSPropertyOp9
 70
     1
102
RTVSPropertyOp10
 70
     1
102
RTVSPropertyOp11
 70
     1
102
RTVSPropertyOp12
 70
     1
102
RTVSPropertyOp13
 70
     1
102
RTVSPropertyOp14
 70
     1
102
RTVSPropertyOp15
 70
     1
102
RTVSPropertyOp16
 70
     1
102
RTVSPropertyOp17
 70
     1
102
RTVSPropertyOp18
 70
     1
102
RTVSPropertyOp19
 70
     1
102
RTVSPropertyOp20
 70
     1
102
RTVSPropertyOp21
 70
     1
102
RTVSPropertyOp22
 70
     1
102
RTVSPropertyOp23
 70
     1
102
RTVSPropertyOp24
 70
     1
102
RTVSPropertyOp25
 70
     1
102
RTVSPropertyOp26
 70
     1
102
RTVSPropertyOp27
 70
     1
102
RTVSPropertyOp28
 70
     1
102
RTVSPropertyOp29
 70
     1
102
RTVSPropertyOp30
 70
     1
102
RTVSPropertyOp31
 70
     1
102
RTVSPropertyOp32
 70
     1
  0
ENDSEC
  0
EOF
