  0
SECTION
  2
HEADER
  9
$ACADVER
  1
AC1015
  9
$ACADMAINTVER
 70
    20
  9
$DWGCODEPAGE
  3
ANSI_932
  9
$INSBASE
 10
0.0
 20
0.0
 30
0.0
  9
$EXTMIN
 10
-102.0
 20
-138.5
 30
0.0
  9
$EXTMAX
 10
92.49999999999998
 20
142.62212873
 30
0.0
  9
$LIMMIN
 10
-102.001
 20
-138.501
  9
$LIMMAX
 10
90.00100000000001
 20
142.623131
  9
$ORTHOMODE
 70
     1
  9
$REGENMODE
 70
     1
  9
$FILLMODE
 70
     1
  9
$QTEXTMODE
 70
     0
  9
$MIRRTEXT
 70
     0
  9
$LTSCALE
 40
4.685369
  9
$ATTMODE
 70
     1
  9
$TEXTSIZE
 40
3.2
  9
$TRACEWID
 40
0.05
  9
$TEXTSTYLE
  7
高3.2
  9
$CLAYER
  8
0
  9
$CELTYPE
  6
ByLayer
  9
$CECOLOR
 62
   256
  9
$CELTSCALE
 40
1.0
  9
$DISPSILH
 70
     0
  9
$DIMSCALE
 40
1.0
  9
$DIMASZ
 40
2.5
  9
$DIMEXO
 40
0.25
  9
$DIMDLI
 40
0.2
  9
$DIMRND
 40
0.0
  9
$DIMDLE
 40
0.0
  9
$DIMEXE
 40
1.25
  9
$DIMTP
 40
0.0
  9
$DIMTM
 40
0.0
  9
$DIMTXT
 40
3.0
  9
$DIMCEN
 40
0.0
  9
$DIMTSZ
 40
0.0
  9
$DIMTOL
 70
     0
  9
$DIMLIM
 70
     0
  9
$DIMTIH
 70
     0
  9
$DIMTOH
 70
     0
  9
$DIMSE1
 70
     0
  9
$DIMSE2
 70
     0
  9
$DIMTAD
 70
     3
  9
$DIMZIN
 70
     8
  9
$DIMBLK
  1
Open30
  9
$DIMASO
 70
     1
  9
$DIMSHO
 70
     1
  9
$DIMPOST
  1

  9
$DIMAPOST
  1

  9
$DIMALT
 70
     0
  9
$DIMALTD
 70
     3
  9
$DIMALTF
 40
0.03937007874016
  9
$DIMLFAC
 40
2.0
  9
$DIMTOFL
 70
     1
  9
$DIMTVP
 40
0.0
  9
$DIMTIX
 70
     0
  9
$DIMSOXD
 70
     0
  9
$DIMSAH
 70
     0
  9
$DIMBLK1
  1

  9
$DIMBLK2
  1

  9
$DIMSTYLE
  2
1／2
  9
$DIMCLRD
 70
     0
  9
$DIMCLRE
 70
     0
  9
$DIMCLRT
 70
     4
  9
$DIMTFAC
 40
1.0
  9
$DIMGAP
 40
0.625
  9
$DIMJUST
 70
     0
  9
$DIMSD1
 70
     0
  9
$DIMSD2
 70
     0
  9
$DIMTOLJ
 70
     0
  9
$DIMTZIN
 70
     8
  9
$DIMALTZ
 70
     0
  9
$DIMALTTZ
 70
     0
  9
$DIMUPT
 70
     1
  9
$DIMDEC
 70
     2
  9
$DIMTDEC
 70
     2
  9
$DIMALTU
 70
     2
  9
$DIMALTTD
 70
     3
  9
$DIMTXSTY
  7
STANDARD
  9
$DIMAUNIT
 70
     0
  9
$DIMADEC
 70
     1
  9
$DIMALTRND
 40
0.0
  9
$DIMAZIN
 70
     2
  9
$DIMDSEP
 70
    46
  9
$DIMATFIT
 70
     0
  9
$DIMFRAC
 70
     0
  9
$DIMLDRBLK
  1
Open30
  9
$DIMLUNIT
 70
     2
  9
$DIMLWD
 70
    -2
  9
$DIMLWE
 70
    -2
  9
$DIMTMOVE
 70
     0
  9
$LUNITS
 70
     2
  9
$LUPREC
 70
     4
  9
$SKETCHINC
 40
0.1
  9
$FILLETRAD
 40
0.0
  9
$AUNITS
 70
     0
  9
$AUPREC
 70
     0
  9
$MENU
  1
.
  9
$ELEVATION
 40
0.0
  9
$PELEVATION
 40
0.0
  9
$THICKNESS
 40
0.0
  9
$LIMCHECK
 70
     0
  9
$CHAMFERA
 40
0.5
  9
$CHAMFERB
 40
0.5
  9
$CHAMFERC
 40
0.0
  9
$CHAMFERD
 40
0.0
  9
$SKPOLY
 70
     0
  9
$TDCREATE
 40
2455442.601448206
  9
$TDUCREATE
 40
2455442.226448206
  9
$TDUPDATE
 40
2459598.645435915
  9
$TDUUPDATE
 40
2459598.270435915
  9
$TDINDWG
 40
1.3647558912
  9
$TDUSRTIMER
 40
1.3647398495
  9
$USRTIMER
 70
     1
  9
$ANGBASE
 50
0.0
  9
$ANGDIR
 70
     0
  9
$PDMODE
 70
     0
  9
$PDSIZE
 40
0.0
  9
$PLINEWID
 40
0.0
  9
$SPLFRAME
 70
     0
  9
$SPLINETYPE
 70
     6
  9
$SPLINESEGS
 70
     8
  9
$HANDSEED
  5
366C
  9
$SURFTAB1
 70
     6
  9
$SURFTAB2
 70
     6
  9
$SURFTYPE
 70
     6
  9
$SURFU
 70
     6
  9
$SURFV
 70
     6
  9
$UCSBASE
  2

  9
$UCSNAME
  2

  9
$UCSORG
 10
0.0
 20
0.0
 30
0.0
  9
$UCSXDIR
 10
1.0
 20
0.0
 30
0.0
  9
$UCSYDIR
 10
0.0
 20
1.0
 30
0.0
  9
$UCSORTHOREF
  2

  9
$UCSORTHOVIEW
 70
     0
  9
$UCSORGTOP
 10
0.0
 20
0.0
 30
0.0
  9
$UCSORGBOTTOM
 10
0.0
 20
0.0
 30
0.0
  9
$UCSORGLEFT
 10
0.0
 20
0.0
 30
0.0
  9
$UCSORGRIGHT
 10
0.0
 20
0.0
 30
0.0
  9
$UCSORGFRONT
 10
0.0
 20
0.0
 30
0.0
  9
$UCSORGBACK
 10
0.0
 20
0.0
 30
0.0
  9
$PUCSBASE
  2

  9
$PUCSNAME
  2

  9
$PUCSORG
 10
0.0
 20
0.0
 30
0.0
  9
$PUCSXDIR
 10
1.0
 20
0.0
 30
0.0
  9
$PUCSYDIR
 10
0.0
 20
1.0
 30
0.0
  9
$PUCSORTHOREF
  2

  9
$PUCSORTHOVIEW
 70
     0
  9
$PUCSORGTOP
 10
0.0
 20
0.0
 30
0.0
  9
$PUCSORGBOTTOM
 10
0.0
 20
0.0
 30
0.0
  9
$PUCSORGLEFT
 10
0.0
 20
0.0
 30
0.0
  9
$PUCSORGRIGHT
 10
0.0
 20
0.0
 30
0.0
  9
$PUCSORGFRONT
 10
0.0
 20
0.0
 30
0.0
  9
$PUCSORGBACK
 10
0.0
 20
0.0
 30
0.0
  9
$USERI1
 70
     0
  9
$USERI2
 70
     0
  9
$USERI3
 70
     0
  9
$USERI4
 70
     0
  9
$USERI5
 70
     0
  9
$USERR1
 40
0.0
  9
$USERR2
 40
0.0
  9
$USERR3
 40
0.0
  9
$USERR4
 40
0.0
  9
$USERR5
 40
0.0
  9
$WORLDVIEW
 70
     1
  9
$SHADEDGE
 70
     3
  9
$SHADEDIF
 70
    70
  9
$TILEMODE
 70
     1
  9
$MAXACTVP
 70
    64
  9
$PINSBASE
 10
0.0
 20
0.0
 30
0.0
  9
$PLIMCHECK
 70
     0
  9
$PEXTMIN
 10
1.000000000000000E+20
 20
1.000000000000000E+20
 30
1.000000000000000E+20
  9
$PEXTMAX
 10
-1.000000000000000E+20
 20
-1.000000000000000E+20
 30
-1.000000000000000E+20
  9
$PLIMMIN
 10
0.0
 20
0.0
  9
$PLIMMAX
 10
12.0
 20
9.0
  9
$UNITMODE
 70
     0
  9
$VISRETAIN
 70
     1
  9
$PLINEGEN
 70
     0
  9
$PSLTSCALE
 70
     1
  9
$TREEDEPTH
 70
  3020
  9
$CMLSTYLE
  2
Standard
  9
$CMLJUST
 70
     0
  9
$CMLSCALE
 40
1.0
  9
$PROXYGRAPHICS
 70
     1
  9
$MEASUREMENT
 70
     0
  9
$CELWEIGHT
370
    -1
  9
$ENDCAPS
280
     0
  9
$JOINSTYLE
280
     0
  9
$LWDISPLAY
290
     0
  9
$INSUNITS
 70
     0
  9
$HYPERLINKBASE
  1

  9
$STYLESHEET
  1
N-PLOT.CTB
  9
$XEDIT
290
     1
  9
$CEPSNTYPE
380
     0
  9
$PSTYLEMODE
290
     1
  9
$FINGERPRINTGUID
  2
{A40AFDDE-27A6-4300-BB85-D69376388927}
  9
$VERSIONGUID
  2
{AE4941D2-DF70-413D-8342-1BCC23B947D6}
  9
$EXTNAMES
290
     1
  9
$PSVPSCALE
 40
0.0
  9
$OLESTARTUP
290
     0
  0
ENDSEC
  0
SECTION
  2
CLASSES
  0
CLASS
  1
ACDBDICTIONARYWDFLT
  2
AcDbDictionaryWithDefault
  3
ObjectDBX Classes
 90
        0
280
     0
281
     0
  0
CLASS
  1
MATERIAL
  2
AcDbMaterial
  3
ObjectDBX Classes
 90
     1153
280
     0
281
     0
  0
CLASS
  1
VISUALSTYLE
  2
AcDbVisualStyle
  3
ObjectDBX Classes
 90
     4095
280
     0
281
     0
  0
CLASS
  1
TABLESTYLE
  2
AcDbTableStyle
  3
ObjectDBX Classes
 90
     4095
280
     0
281
     0
  0
CLASS
  1
DICTIONARYVAR
  2
AcDbDictionaryVar
  3
ObjectDBX Classes
 90
        0
280
     0
281
     0
  0
CLASS
  1
ACDBPLACEHOLDER
  2
AcDbPlaceHolder
  3
ObjectDBX Classes
 90
        0
280
     0
281
     0
  0
CLASS
  1
LAYOUT
  2
AcDbLayout
  3
ObjectDBX Classes
 90
        0
280
     0
281
     0
  0
CLASS
  1
SORTENTSTABLE
  2
AcDbSortentsTable
  3
ObjectDBX Classes
 90
        0
280
     0
281
     0
  0
CLASS
  1
SCALE
  2
AcDbScale
  3
ObjectDBX Classes
 90
     1153
280
     0
281
     0
  0
CLASS
  1
MLEADERSTYLE
  2
AcDbMLeaderStyle
  3
ACDB_MLEADERSTYLE_CLASS
 90
     4095
280
     0
281
     0
  0
CLASS
  1
CELLSTYLEMAP
  2
AcDbCellStyleMap
  3
ObjectDBX Classes
 90
     1152
280
     0
281
     0
  0
CLASS
  1
AEC_REFEDIT_STATUS_TRACKER
  2
AecDbRefEditStatusTracker
  3
AecArchBase60|Product Desc: Autodesk Architectural Desktop 2007 |Company: Autodesk,Inc. |WEB Address: www.autodesk.com
 90
      129
280
     0
281
     0
  0
CLASS
  1
NPOCOLLECTION
  2
AcDbImpNonPersistentObjectsCollection
  3
ObjectDBX Classes
 90
     1153
280
     0
281
     0
  0
ENDSEC
  0
SECTION
  2
TABLES
  0
TABLE
  2
VPORT
  5
8
330
0
100
AcDbSymbolTable
 70
     1
  0
VPORT
  5
56
330
8
100
AcDbSymbolTableRecord
100
AcDbViewportTableRecord
  2
*Active
 70
     0
 10
0.0
 20
0.0
 11
1.0
 21
1.0
 12
150.9207592322585
 22
-0.3760870176787989
 13
0.0
 23
0.0
 14
1.0
 24
1.0
 15
0.0
 25
0.0
 16
0.0
 26
0.0
 36
1.0
 17
0.0
 27
0.0
 37
0.0
 40
527.267961948742
 41
1.906005221932114
 42
50.0
 43
0.0
 44
0.0
 50
0.0
 51
0.0
 71
     0
 72
  1000
 73
     1
 74
     1
 75
     0
 76
     0
 77
     0
 78
     0
281
     0
 65
     1
110
0.0
120
0.0
130
0.0
111
1.0
121
0.0
131
0.0
112
0.0
122
1.0
132
0.0
 79
     0
146
0.0
  0
ENDTAB
  0
TABLE
  2
LTYPE
  5
5
330
0
100
AcDbSymbolTable
 70
     3
  0
LTYPE
  5
28
330
5
100
AcDbSymbolTableRecord
100
AcDbLinetypeTableRecord
  2
ByBlock
 70
     0
  3

 72
    65
 73
     0
 40
0.0
  0
LTYPE
  5
29
330
5
100
AcDbSymbolTableRecord
100
AcDbLinetypeTableRecord
  2
ByLayer
 70
     0
  3

 72
    65
 73
     0
 40
0.0
  0
LTYPE
  5
2A
330
5
100
AcDbSymbolTableRecord
100
AcDbLinetypeTableRecord
  2
CONTINUOUS
 70
     0
  3
Solid-line
 72
    65
 73
     0
 40
0.0
  0
LTYPE
  5
1582
330
5
100
AcDbSymbolTableRecord
100
AcDbLinetypeTableRecord
  2
CENTER
 70
     0
  3
Center ____ _ ____ _ ____ _ ____ _ ____ _ ____
 72
    65
 73
     4
 40
2.0
 49
1.25
 74
     0
 49
-0.25
 74
     0
 49
0.25
 74
     0
 49
-0.25
 74
     0
  0
ENDTAB
  0
TABLE
  2
LAYER
  5
2
102
{ACAD_XDICTIONARY
360
2FE
102
}
330
0
100
AcDbSymbolTable
 70
     2
  0
LAYER
  5
25
102
{ACAD_XDICTIONARY
360
DA4
102
}
330
2
100
AcDbSymbolTableRecord
100
AcDbLayerTableRecord
  2
0
 70
     0
 62
     7
  6
CONTINUOUS
370
    -3
390
F
  0
LAYER
  5
2FA
330
2
100
AcDbSymbolTableRecord
100
AcDbLayerTableRecord
  2
Defpoints
 70
     0
 62
     7
  6
CONTINUOUS
290
     0
370
    -3
390
F
  0
ENDTAB
  0
TABLE
  2
STYLE
  5
3
330
0
100
AcDbSymbolTable
 70
     6
  0
STYLE
  5
26
330
3
100
AcDbSymbolTableRecord
100
AcDbTextStyleTableRecord
  2
STANDARD
 70
     0
 40
0.0
 41
1.0
 50
0.0
 71
     0
 42
0.2
  3
TXT
  4
BIGFONT
  0
STYLE
  5
9E3
330
3
100
AcDbSymbolTableRecord
100
AcDbTextStyleTableRecord
  2
高3.2
 70
     0
 40
3.2
 41
1.0
 50
0.0
 71
     0
 42
3.2
  3
txt.shx
  4
bigfont.shx
  0
STYLE
  5
9E4
330
3
100
AcDbSymbolTableRecord
100
AcDbTextStyleTableRecord
  2
高6.3
 70
     0
 40
6.299999999999998
 41
1.0
 50
0.0
 71
     0
 42
6.299999999999998
  3
txt.shx
  4
bigfont.shx
  0
STYLE
  5
9E5
330
3
100
AcDbSymbolTableRecord
100
AcDbTextStyleTableRecord
  2
高2.5
 70
     0
 40
2.5
 41
1.0
 50
0.0
 71
     0
 42
0.2
  3
txt.shx
  4
bigfont.shx
  0
STYLE
  5
9E6
330
3
100
AcDbSymbolTableRecord
100
AcDbTextStyleTableRecord
  2
高4.5
 70
     0
 40
4.5
 41
1.0
 50
0.0
 71
     0
 42
6.299999999999998
  3
txt.shx
  4
bigfont.shx
  0
STYLE
  5
9E7
330
3
100
AcDbSymbolTableRecord
100
AcDbTextStyleTableRecord
  2
高2
 70
     0
 40
2.0
 41
1.0
 50
0.0
 71
     0
 42
6.299999999999998
  3
txt.shx
  4
bigfont.shx
  0
ENDTAB
  0
TABLE
  2
VIEW
  5
6
330
0
100
AcDbSymbolTable
 70
     0
  0
ENDTAB
  0
TABLE
  2
UCS
  5
7
330
0
100
AcDbSymbolTable
 70
     0
  0
ENDTAB
  0
TABLE
  2
APPID
  5
9
330
0
100
AcDbSymbolTable
 70
    10
  0
APPID
  5
27
330
9
100
AcDbSymbolTableRecord
100
AcDbRegAppTableRecord
  2
ACAD
 70
     0
  0
APPID
  5
2FC
330
9
100
AcDbSymbolTableRecord
100
AcDbRegAppTableRecord
  2
ACAD_DSTYLE_DIMJOGGED_JOGANGLE_SYMBOL
 70
     0
  0
APPID
  5
2FD
330
9
100
AcDbSymbolTableRecord
100
AcDbRegAppTableRecord
  2
ACAD_PSEXT
 70
     0
  0
APPID
  5
529
330
9
100
AcDbSymbolTableRecord
100
AcDbRegAppTableRecord
  2
ACAD_EXEMPT_FROM_CAD_STANDARDS
 70
     0
  0
APPID
  5
796
330
9
100
AcDbSymbolTableRecord
100
AcDbRegAppTableRecord
  2
ACAD_DSTYLE_DIMARC_LENGTH_SYMBOL
 70
     0
  0
APPID
  5
797
330
9
100
AcDbSymbolTableRecord
100
AcDbRegAppTableRecord
  2
ACAD_DSTYLE_DIMEXT_LENGTH
 70
     0
  0
APPID
  5
C84
330
9
100
AcDbSymbolTableRecord
100
AcDbRegAppTableRecord
  2
ACAD_DSTYLE_DIMJAG
 70
     0
  0
APPID
  5
C85
330
9
100
AcDbSymbolTableRecord
100
AcDbRegAppTableRecord
  2
ACAD_DSTYLE_DIMBREAK
 70
     0
  0
APPID
  5
C86
330
9
100
AcDbSymbolTableRecord
100
AcDbRegAppTableRecord
  2
ACAD_DSTYLE_DIMTALN
 70
     0
  0
APPID
  5
DEC
330
9
100
AcDbSymbolTableRecord
100
AcDbRegAppTableRecord
  2
ACAD_MLEADERVER
 70
     0
  0
ENDTAB
  0
TABLE
  2
DIMSTYLE
  5
A
330
0
100
AcDbSymbolTable
 70
    11
100
AcDbDimStyleTable
 71
     3
340
2FB
340
16D9
340
2BB
  0
DIMSTYLE
105
2BB
330
A
100
AcDbSymbolTableRecord
100
AcDbDimStyleTableRecord
  2
Standard
 70
     0
340
26
  0
DIMSTYLE
105
2FB
330
A
100
AcDbSymbolTableRecord
100
AcDbDimStyleTableRecord
  2
1／2
 70
     0
 41
2.5
 42
0.25
 43
0.2
 44
1.25
 73
     0
 74
     0
 77
     3
 78
     8
 79
     2
140
3.0
141
0.0
143
0.03937007874016
144
2.0
147
0.625
171
     3
172
     1
178
     4
179
     1
271
     2
272
     2
274
     3
283
     0
284
     8
288
     1
289
     0
340
26
341
2DA
342
2DA
1001
ACAD_DSTYLE_DIMARC_LENGTH_SYMBOL
1070
   379
1070
     2
1001
ACAD_DSTYLE_DIMEXT_LENGTH
1070
   378
1040
1.25
1001
ACAD_DSTYLE_DIMJOGGED_JOGANGLE_SYMBOL
1070
   384
1040
1.570796326794896
  0
DIMSTYLE
105
16D9
330
A
100
AcDbSymbolTableRecord
100
AcDbDimStyleTableRecord
  2
1：1
 70
     0
 41
2.5
 42
0.25
 43
0.2
 44
1.25
 73
     0
 74
     0
 77
     3
 78
     8
 79
     2
140
3.0
141
0.0
143
0.03937007874016
147
0.625
171
     3
172
     1
178
     4
179
     1
271
     2
272
     2
274
     3
283
     0
284
     8
288
     1
289
     0
340
26
341
2DA
342
2DA
1001
ACAD_DSTYLE_DIMARC_LENGTH_SYMBOL
1070
   379
1070
     2
1001
ACAD_DSTYLE_DIMEXT_LENGTH
1070
   378
1040
1.25
1001
ACAD_DSTYLE_DIMJOGGED_JOGANGLE_SYMBOL
1070
   384
1040
1.570796326794896
  0
DIMSTYLE
105
16DA
330
A
100
AcDbSymbolTableRecord
100
AcDbDimStyleTableRecord
  2
2：1
 70
     0
 41
2.5
 42
0.25
 43
0.2
 44
1.25
 73
     0
 74
     0
 77
     3
 78
     8
 79
     2
140
3.0
141
0.0
143
0.03937007874016
144
0.5
147
0.625
171
     3
172
     1
178
     4
179
     1
271
     2
272
     2
274
     3
283
     0
284
     8
288
     1
289
     0
340
26
341
2DA
342
2DA
1001
ACAD_DSTYLE_DIMARC_LENGTH_SYMBOL
1070
   379
1070
     2
1001
ACAD_DSTYLE_DIMEXT_LENGTH
1070
   378
1040
1.25
1001
ACAD_DSTYLE_DIMJOGGED_JOGANGLE_SYMBOL
1070
   384
1040
1.570796326794896
  0
DIMSTYLE
105
16DB
330
A
100
AcDbSymbolTableRecord
100
AcDbDimStyleTableRecord
  2
5：1
 70
     0
 41
2.5
 42
0.25
 43
0.2
 44
1.25
 73
     0
 74
     0
 77
     3
 78
     8
 79
     2
140
3.0
141
0.0
143
0.03937007874016
144
0.2
147
0.625
171
     3
172
     1
178
     4
179
     1
271
     2
272
     2
274
     3
283
     0
284
     8
288
     1
289
     0
340
26
341
2DA
342
2DA
1001
ACAD_DSTYLE_DIMARC_LENGTH_SYMBOL
1070
   379
1070
     2
1001
ACAD_DSTYLE_DIMEXT_LENGTH
1070
   378
1040
1.25
1001
ACAD_DSTYLE_DIMJOGGED_JOGANGLE_SYMBOL
1070
   384
1040
1.570796326794896
  0
DIMSTYLE
105
16DC
330
A
100
AcDbSymbolTableRecord
100
AcDbDimStyleTableRecord
  2
10：1
 70
     0
 41
2.5
 42
0.25
 43
0.2
 44
1.25
 73
     0
 74
     0
 77
     3
 78
     8
 79
     2
140
3.0
141
0.0
143
0.03937007874016
144
0.1
147
0.625
171
     3
172
     1
178
     4
179
     1
271
     2
272
     2
274
     3
283
     0
284
     8
288
     1
289
     0
340
26
341
2DA
342
2DA
1001
ACAD_DSTYLE_DIMARC_LENGTH_SYMBOL
1070
   379
1070
     2
1001
ACAD_DSTYLE_DIMEXT_LENGTH
1070
   378
1040
1.25
1001
ACAD_DSTYLE_DIMJOGGED_JOGANGLE_SYMBOL
1070
   384
1040
1.570796326794896
  0
DIMSTYLE
105
16DD
330
A
100
AcDbSymbolTableRecord
100
AcDbDimStyleTableRecord
  2
1／5
 70
     0
 41
2.5
 42
0.25
 43
0.2
 44
1.25
 73
     0
 74
     0
 77
     3
 78
     8
 79
     2
140
3.0
141
0.0
143
0.03937007874016
144
5.0
147
0.625
171
     3
172
     1
178
     4
179
     1
271
     2
272
     2
274
     3
283
     0
284
     8
288
     1
289
     0
340
26
341
2DA
342
2DA
1001
ACAD_DSTYLE_DIMARC_LENGTH_SYMBOL
1070
   379
1070
     2
1001
ACAD_DSTYLE_DIMEXT_LENGTH
1070
   378
1040
1.25
1001
ACAD_DSTYLE_DIMJOGGED_JOGANGLE_SYMBOL
1070
   384
1040
1.570796326794896
  0
DIMSTYLE
105
16DE
330
A
100
AcDbSymbolTableRecord
100
AcDbDimStyleTableRecord
  2
1／10
 70
     0
 41
2.5
 42
0.25
 43
0.2
 44
1.25
 73
     0
 74
     0
 77
     3
 78
     8
 79
     2
140
3.0
141
0.0
143
0.03937007874016
144
10.0
147
0.625
171
     3
172
     1
178
     4
179
     1
271
     2
272
     2
274
     3
283
     0
284
     8
288
     1
289
     0
340
26
341
2DA
342
2DA
1001
ACAD_DSTYLE_DIMARC_LENGTH_SYMBOL
1070
   379
1070
     2
1001
ACAD_DSTYLE_DIMEXT_LENGTH
1070
   378
1040
1.25
1001
ACAD_DSTYLE_DIMJOGGED_JOGANGLE_SYMBOL
1070
   384
1040
1.570796326794896
  0
DIMSTYLE
105
16DF
330
A
100
AcDbSymbolTableRecord
100
AcDbDimStyleTableRecord
  2
1／4
 70
     0
 41
2.5
 42
0.25
 43
0.2
 44
1.25
 73
     0
 74
     0
 77
     3
 78
     8
 79
     2
140
3.0
141
0.0
143
0.03937007874016
144
4.0
147
0.625
171
     3
172
     1
178
     4
179
     1
271
     2
272
     2
274
     3
283
     0
284
     8
288
     1
289
     0
340
26
341
2DA
342
2DA
1001
ACAD_DSTYLE_DIMARC_LENGTH_SYMBOL
1070
   379
1070
     2
1001
ACAD_DSTYLE_DIMEXT_LENGTH
1070
   378
1040
1.25
1001
ACAD_DSTYLE_DIMJOGGED_JOGANGLE_SYMBOL
1070
   384
1040
1.570796326794896
  0
DIMSTYLE
105
16E0
330
A
100
AcDbSymbolTableRecord
100
AcDbDimStyleTableRecord
  2
1／3
 70
     0
 41
2.5
 42
0.25
 43
0.2
 44
1.25
 73
     0
 74
     0
 77
     3
 78
     8
 79
     2
140
3.0
141
0.0
143
0.03937007874016
144
3.0
147
0.625
171
     3
172
     1
178
     4
179
     1
271
     2
272
     2
274
     3
283
     0
284
     8
288
     1
289
     0
340
26
341
2DA
342
2DA
1001
ACAD_DSTYLE_DIMARC_LENGTH_SYMBOL
1070
   379
1070
     2
1001
ACAD_DSTYLE_DIMEXT_LENGTH
1070
   378
1040
1.25
1001
ACAD_DSTYLE_DIMJOGGED_JOGANGLE_SYMBOL
1070
   384
1040
1.570796326794896
  0
DIMSTYLE
105
16E1
330
A
100
AcDbSymbolTableRecord
100
AcDbDimStyleTableRecord
  2
FREE
 70
     0
 41
2.5
 42
0.25
 43
0.2
 44
1.25
 73
     0
 74
     0
 77
     3
 78
     8
 79
     2
140
3.0
141
0.0
143
0.03937007874016
147
0.625
171
     3
172
     1
178
     4
179
     1
271
     2
272
     2
274
     3
283
     0
284
     8
288
     1
289
     0
340
26
341
2DA
342
2DA
1001
ACAD_DSTYLE_DIMBREAK
1070
   391
1040
3.75
1001
ACAD_DSTYLE_DIMJAG
1070
   388
1040
1.5
1001
ACAD_DSTYLE_DIMTALN
1070
   392
1070
     0
1001
ACAD_DSTYLE_DIMARC_LENGTH_SYMBOL
1070
   379
1070
     2
1001
ACAD_DSTYLE_DIMEXT_LENGTH
1070
   378
1040
1.25
1001
ACAD_DSTYLE_DIMJOGGED_JOGANGLE_SYMBOL
1070
   384
1040
1.570796326794896
  0
ENDTAB
  0
TABLE
  2
BLOCK_RECORD
  5
1
330
0
100
AcDbSymbolTable
 70
     8
  0
BLOCK_RECORD
  5
36
102
{ACAD_XDICTIONARY
360
5D9
102
}
330
1
100
AcDbSymbolTableRecord
100
AcDbBlockTableRecord
  2
*Model_Space
340
39
  0
BLOCK_RECORD
  5
32
330
1
100
AcDbSymbolTableRecord
100
AcDbBlockTableRecord
  2
*Paper_Space
340
35
  0
BLOCK_RECORD
  5
2DA
330
1
100
AcDbSymbolTableRecord
100
AcDbBlockTableRecord
  2
_Open30
340
0
102
{BLKREFS
331
34D2
331
34D3
331
34DB
331
34DC
331
34E4
331
34E5
331
34ED
331
34EE
331
34F6
331
34F7
331
3501
331
3502
331
350C
331
350D
102
}
  0
BLOCK_RECORD
  5
1F2A
330
1
100
AcDbSymbolTableRecord
100
AcDbBlockTableRecord
  2
*D1
340
0
  0
BLOCK_RECORD
  5
1F37
330
1
100
AcDbSymbolTableRecord
100
AcDbBlockTableRecord
  2
*D2
340
0
  0
BLOCK_RECORD
  5
1F4D
330
1
100
AcDbSymbolTableRecord
100
AcDbBlockTableRecord
  2
*D3
340
0
  0
BLOCK_RECORD
  5
1F6C
330
1
100
AcDbSymbolTableRecord
100
AcDbBlockTableRecord
  2
*D4
340
0
  0
BLOCK_RECORD
  5
1F83
330
1
100
AcDbSymbolTableRecord
100
AcDbBlockTableRecord
  2
*D5
340
0
  0
BLOCK_RECORD
  5
1FBD
330
1
100
AcDbSymbolTableRecord
100
AcDbBlockTableRecord
  2
*D6
340
0
  0
BLOCK_RECORD
  5
1FD0
330
1
100
AcDbSymbolTableRecord
100
AcDbBlockTableRecord
  2
*D7
340
0
  0
ENDTAB
  0
ENDSEC
  0
SECTION
  2
BLOCKS
  0
BLOCK
  5
37
330
36
100
AcDbEntity
  8
0
100
AcDbBlockBegin
  2
*Model_Space
 70
     0
 10
0.0
 20
0.0
 30
0.0
  3
*Model_Space
  1

  0
ENDBLK
  5
38
330
36
100
AcDbEntity
  8
0
100
AcDbBlockEnd
  0
BLOCK
  5
33
330
32
100
AcDbEntity
 67
     1
  8
0
100
AcDbBlockBegin
  2
*Paper_Space
 70
     0
 10
0.0
 20
0.0
 30
0.0
  3
*Paper_Space
  1

  0
ENDBLK
  5
34
330
32
100
AcDbEntity
 67
     1
  8
0
100
AcDbBlockEnd
  0
BLOCK
  5
2DB
330
2DA
100
AcDbEntity
  8
0
100
AcDbBlockBegin
  2
_Open30
 70
     0
 10
0.0
 20
0.0
 30
0.0
  3
_Open30
  1

  0
LINE
  5
2DC
330
2DA
100
AcDbEntity
  8
0
  6
ByBlock
 62
     0
370
    -2
100
AcDbLine
 10
-1.0
 20
0.267949
 30
0.0
 11
0.0
 21
0.0
 31
0.0
  0
LINE
  5
2DD
330
2DA
100
AcDbEntity
  8
0
  6
ByBlock
 62
     0
370
    -2
100
AcDbLine
 10
0.0
 20
0.0
 30
0.0
 11
-1.0
 21
-0.267949
 31
0.0
  0
LINE
  5
2DE
330
2DA
100
AcDbEntity
  8
0
  6
ByBlock
 62
     0
370
    -2
100
AcDbLine
 10
0.0
 20
0.0
 30
0.0
 11
-1.0
 21
0.0
 31
0.0
  0
ENDBLK
  5
2DF
330
2DA
100
AcDbEntity
  8
0
100
AcDbBlockEnd
  0
BLOCK
  5
1F2B
330
1F2A
100
AcDbEntity
  8
0
100
AcDbBlockBegin
  2
*D1
 70
     1
 10
0.0
 20
0.0
 30
0.0
  3
*D1
  1

  0
LINE
  5
34CF
330
1F2A
100
AcDbEntity
  8
0
 62
     0
370
    -2
100
AcDbLine
 10
68.4376513912167
 20
80.85144588498605
 30
0.0
 11
48.21436893811323
 21
80.85144588498605
 31
0.0
  0
LINE
  5
34D0
330
1F2A
100
AcDbEntity
  8
0
 62
     0
370
    -2
100
AcDbLine
 10
68.43765139121659
 20
64.60144588498611
 30
0.0
 11
48.21436893811323
 21
64.60144588498611
 31
0.0
  0
LINE
  5
34D1
330
1F2A
100
AcDbEntity
  8
0
 62
     0
370
    -2
100
AcDbLine
 10
49.46436893811323
 20
78.35144588498605
 30
0.0
 11
49.46436893811323
 21
67.10144588498611
 31
0.0
  0
INSERT
  5
34D2
330
1F2A
100
AcDbEntity
  8
0
 62
     0
370
    -2
100
AcDbBlockReference
  2
_Open30
 10
49.46436893811323
 20
80.85144588498605
 30
0.0
 41
2.5
 42
2.5
 43
2.5
 50
90.0
  0
INSERT
  5
34D3
330
1F2A
100
AcDbEntity
  8
0
 62
     0
370
    -2
100
AcDbBlockReference
  2
_Open30
 10
49.46436893811323
 20
64.60144588498611
 30
0.0
 41
2.5
 42
2.5
 43
2.5
 50
270.0
  0
MTEXT
  5
34D4
330
1F2A
100
AcDbEntity
  8
0
 62
     4
100
AcDbMText
 10
47.33936893811322
 20
72.56611283784469
 30
0.0
 40
3.0
 41
0.0
 71
     5
 72
     1
  1
32.5
 11
0.0000000000000001
 21
1.0
 31
0.0
 73
     1
 44
1.0
1001
ACAD
1000
MTEXTBEGIN
1070
    73
1070
     1
1070
    44
1040
1.0
1070
    74
1070
     0
1000
MTEXTEND
  0
POINT
  5
34D5
330
1F2A
100
AcDbEntity
  8
Defpoints
 62
     0
100
AcDbPoint
 10
68.6876513912167
 20
80.85144588498605
 30
0.0
  0
POINT
  5
34D6
330
1F2A
100
AcDbEntity
  8
Defpoints
 62
     0
100
AcDbPoint
 10
68.68765139121659
 20
64.60144588498611
 30
0.0
  0
POINT
  5
34D7
330
1F2A
100
AcDbEntity
  8
Defpoints
 62
     0
100
AcDbPoint
 10
49.46436893811323
 20
64.60144588498611
 30
0.0
  0
ENDBLK
  5
1F2C
330
1F2A
100
AcDbEntity
  8
0
100
AcDbBlockEnd
  0
BLOCK
  5
1F38
330
1F37
100
AcDbEntity
  8
0
100
AcDbBlockBegin
  2
*D2
 70
     1
 10
0.0
 20
0.0
 30
0.0
  3
*D2
  1

  0
LINE
  5
34D8
330
1F37
100
AcDbEntity
  8
0
 62
     0
370
    -2
100
AcDbLine
 10
61.43765139121659
 20
73.85144588498609
 30
0.0
 11
61.43765139121659
 21
98.29232214251669
 31
0.0
  0
LINE
  5
34D9
330
1F37
100
AcDbEntity
  8
0
 62
     0
370
    -2
100
AcDbLine
 10
75.93765139121664
 20
73.85144588498609
 30
0.0
 11
75.93765139121664
 21
98.29232214251669
 31
0.0
  0
LINE
  5
34DA
330
1F37
100
AcDbEntity
  8
0
 62
     0
370
    -2
100
AcDbLine
 10
63.93765139121659
 20
97.04232214251669
 30
0.0
 11
73.43765139121664
 21
97.04232214251669
 31
0.0
  0
INSERT
  5
34DB
330
1F37
100
AcDbEntity
  8
0
 62
     0
370
    -2
100
AcDbBlockReference
  2
_Open30
 10
61.43765139121659
 20
97.04232214251669
 30
0.0
 41
2.5
 42
2.5
 43
2.5
 50
180.0
  0
INSERT
  5
34DC
330
1F37
100
AcDbEntity
  8
0
 62
     0
370
    -2
100
AcDbBlockReference
  2
_Open30
 10
75.93765139121664
 20
97.04232214251669
 30
0.0
 41
2.5
 42
2.5
 43
2.5
  0
MTEXT
  5
34DD
330
1F37
100
AcDbEntity
  8
0
 62
     4
100
AcDbMText
 10
68.68765139121659
 20
99.1673221425167
 30
0.0
 40
3.0
 41
0.0
 71
     5
 72
     1
  1
29
 73
     1
 44
1.0
1001
ACAD
1000
MTEXTBEGIN
1070
    73
1070
     1
1070
    44
1040
1.0
1070
    74
1070
     0
1000
MTEXTEND
  0
POINT
  5
34DE
330
1F37
100
AcDbEntity
  8
Defpoints
 62
     0
100
AcDbPoint
 10
61.43765139121659
 20
73.60144588498609
 30
0.0
  0
POINT
  5
34DF
330
1F37
100
AcDbEntity
  8
Defpoints
 62
     0
100
AcDbPoint
 10
75.93765139121664
 20
73.60144588498609
 30
0.0
  0
POINT
  5
34E0
330
1F37
100
AcDbEntity
  8
Defpoints
 62
     0
100
AcDbPoint
 10
75.93765139121664
 20
97.04232214251669
 30
0.0
  0
ENDBLK
  5
1F39
330
1F37
100
AcDbEntity
  8
0
100
AcDbBlockEnd
  0
BLOCK
  5
1F4E
330
1F4D
100
AcDbEntity
  8
0
100
AcDbBlockBegin
  2
*D3
 70
     1
 10
0.0
 20
0.0
 30
0.0
  3
*D3
  1

  0
LINE
  5
34E1
330
1F4D
100
AcDbEntity
  8
0
 62
     0
370
    -2
100
AcDbLine
 10
68.43765139121659
 20
79.67644588498611
 30
0.0
 11
54.23617730396427
 21
79.67644588498611
 31
0.0
  0
LINE
  5
34E2
330
1F4D
100
AcDbEntity
  8
0
 62
     0
370
    -2
100
AcDbLine
 10
68.43765139121659
 20
65.77644588498611
 30
0.0
 11
54.23617730396427
 21
65.77644588498611
 31
0.0
  0
LINE
  5
34E3
330
1F4D
100
AcDbEntity
  8
0
 62
     0
370
    -2
100
AcDbLine
 10
55.48617730396427
 20
77.17644588498611
 30
0.0
 11
55.48617730396427
 21
68.27644588498611
 31
0.0
  0
INSERT
  5
34E4
330
1F4D
100
AcDbEntity
  8
0
 62
     0
370
    -2
100
AcDbBlockReference
  2
_Open30
 10
55.48617730396427
 20
79.67644588498611
 30
0.0
 41
2.5
 42
2.5
 43
2.5
 50
90.0
  0
INSERT
  5
34E5
330
1F4D
100
AcDbEntity
  8
0
 62
     0
370
    -2
100
AcDbBlockReference
  2
_Open30
 10
55.48617730396427
 20
65.77644588498611
 30
0.0
 41
2.5
 42
2.5
 43
2.5
 50
270.0
  0
MTEXT
  5
34E6
330
1F4D
100
AcDbEntity
  8
0
 62
     4
100
AcDbMText
 10
53.36117730396427
 20
72.76394588498613
 30
0.0
 40
3.0
 41
0.0
 71
     5
 72
     1
  1
%%C27.8
 11
0.0000000000000001
 21
1.0
 31
0.0
 73
     1
 44
1.0
1001
ACAD
1000
MTEXTBEGIN
1070
    73
1070
     1
1070
    44
1040
1.0
1070
    74
1070
     0
1000
MTEXTEND
  0
POINT
  5
34E7
330
1F4D
100
AcDbEntity
  8
Defpoints
 62
     0
100
AcDbPoint
 10
68.68765139121659
 20
79.67644588498611
 30
0.0
  0
POINT
  5
34E8
330
1F4D
100
AcDbEntity
  8
Defpoints
 62
     0
100
AcDbPoint
 10
68.68765139121659
 20
65.77644588498611
 30
0.0
  0
POINT
  5
34E9
330
1F4D
100
AcDbEntity
  8
Defpoints
 62
     0
100
AcDbPoint
 10
55.48617730396427
 20
65.77644588498611
 30
0.0
  0
ENDBLK
  5
1F4F
330
1F4D
100
AcDbEntity
  8
0
100
AcDbBlockEnd
  0
BLOCK
  5
1F6D
330
1F6C
100
AcDbEntity
  8
0
100
AcDbBlockBegin
  2
*D4
 70
     1
 10
0.0
 20
0.0
 30
0.0
  3
*D4
  1

  0
LINE
  5
34EA
330
1F6C
100
AcDbEntity
  8
0
 62
     0
370
    -2
100
AcDbLine
 10
35.1164283769142
 20
79.47644588498609
 30
0.0
 11
35.1164283769142
 21
98.31633973020712
 31
0.0
  0
LINE
  5
34EB
330
1F6C
100
AcDbEntity
  8
0
 62
     0
370
    -2
100
AcDbLine
 10
-78.93161670140376
 20
79.47644588498609
 30
0.0
 11
-78.93161670140376
 21
98.31633973020712
 31
0.0
  0
LINE
  5
34EC
330
1F6C
100
AcDbEntity
  8
0
 62
     0
370
    -2
100
AcDbLine
 10
32.6164283769142
 20
97.06633973020712
 30
0.0
 11
-76.43161670140376
 21
97.06633973020712
 31
0.0
  0
INSERT
  5
34ED
330
1F6C
100
AcDbEntity
  8
0
 62
     0
370
    -2
100
AcDbBlockReference
  2
_Open30
 10
35.1164283769142
 20
97.06633973020712
 30
0.0
 41
2.5
 42
2.5
 43
2.5
  0
INSERT
  5
34EE
330
1F6C
100
AcDbEntity
  8
0
 62
     0
370
    -2
100
AcDbBlockReference
  2
_Open30
 10
-78.93161670140376
 20
97.06633973020712
 30
0.0
 41
2.5
 42
2.5
 43
2.5
 50
180.0
  0
MTEXT
  5
34EF
330
1F6C
100
AcDbEntity
  8
0
 62
     4
100
AcDbMText
 10
-21.90759416224478
 20
99.19133973020713
 30
0.0
 40
3.0
 41
0.0
 71
     5
 72
     1
  1
581
 73
     1
 44
1.0
1001
ACAD
1000
MTEXTBEGIN
1070
    73
1070
     1
1070
    44
1040
1.0
1070
    74
1070
     0
1000
MTEXTEND
  0
POINT
  5
34F0
330
1F6C
100
AcDbEntity
  8
Defpoints
 62
     0
100
AcDbPoint
 10
35.1164283769142
 20
79.22644588498609
 30
0.0
  0
POINT
  5
34F1
330
1F6C
100
AcDbEntity
  8
Defpoints
 62
     0
100
AcDbPoint
 10
-78.93161670140376
 20
79.22644588498609
 30
0.0
  0
POINT
  5
34F2
330
1F6C
100
AcDbEntity
  8
Defpoints
 62
     0
100
AcDbPoint
 10
-78.93161670140376
 20
97.06633973020712
 30
0.0
  0
ENDBLK
  5
1F6E
330
1F6C
100
AcDbEntity
  8
0
100
AcDbBlockEnd
  0
BLOCK
  5
1F84
330
1F83
100
AcDbEntity
  8
0
100
AcDbBlockBegin
  2
*D5
 70
     1
 10
0.0
 20
0.0
 30
0.0
  3
*D5
  1

  0
LINE
  5
34F3
330
1F83
100
AcDbEntity
  8
0
 62
     0
370
    -2
100
AcDbLine
 10
38.8664283769142
 20
73.35144588498609
 30
0.0
 11
38.8664283769142
 21
104.3531517358026
 31
0.0
  0
LINE
  5
34F4
330
1F83
100
AcDbEntity
  8
0
 62
     0
370
    -2
100
AcDbLine
 10
-82.68161670140376
 20
73.35144588498609
 30
0.0
 11
-82.68161670140376
 21
104.3531517358026
 31
0.0
  0
LINE
  5
34F5
330
1F83
100
AcDbEntity
  8
0
 62
     0
370
    -2
100
AcDbLine
 10
36.3664283769142
 20
103.1031517358026
 30
0.0
 11
-80.18161670140376
 21
103.1031517358026
 31
0.0
  0
INSERT
  5
34F6
330
1F83
100
AcDbEntity
  8
0
 62
     0
370
    -2
100
AcDbBlockReference
  2
_Open30
 10
38.8664283769142
 20
103.1031517358026
 30
0.0
 41
2.5
 42
2.5
 43
2.5
  0
INSERT
  5
34F7
330
1F83
100
AcDbEntity
  8
0
 62
     0
370
    -2
100
AcDbBlockReference
  2
_Open30
 10
-82.68161670140376
 20
103.1031517358026
 30
0.0
 41
2.5
 42
2.5
 43
2.5
 50
180.0
  0
MTEXT
  5
34F8
330
1F83
100
AcDbEntity
  8
0
 62
     4
100
AcDbMText
 10
-21.90759416224478
 20
105.2281517358026
 30
0.0
 40
3.0
 41
0.0
 71
     5
 72
     1
  1
596
 73
     1
 44
1.0
1001
ACAD
1000
MTEXTBEGIN
1070
    73
1070
     1
1070
    44
1040
1.0
1070
    74
1070
     0
1000
MTEXTEND
  0
POINT
  5
34F9
330
1F83
100
AcDbEntity
  8
Defpoints
 62
     0
100
AcDbPoint
 10
38.8664283769142
 20
73.10144588498609
 30
0.0
  0
POINT
  5
34FA
330
1F83
100
AcDbEntity
  8
Defpoints
 62
     0
100
AcDbPoint
 10
-82.68161670140376
 20
73.10144588498609
 30
0.0
  0
POINT
  5
34FB
330
1F83
100
AcDbEntity
  8
Defpoints
 62
     0
100
AcDbPoint
 10
-82.68161670140376
 20
103.1031517358026
 30
0.0
  0
ENDBLK
  5
1F85
330
1F83
100
AcDbEntity
  8
0
100
AcDbBlockEnd
  0
BLOCK
  5
1FBE
330
1FBD
100
AcDbEntity
  8
0
100
AcDbBlockBegin
  2
*D6
 70
     1
 10
0.0
 20
0.0
 30
0.0
  3
*D6
  1

  0
LINE
  5
34FC
330
1FBD
100
AcDbEntity
  8
0
 62
     0
370
    -2
100
AcDbLine
 10
-41.35918016248346
 20
80.1014458849861
 30
0.0
 11
-45.18582235712755
 21
80.1014458849861
 31
0.0
  0
LINE
  5
34FD
330
1FBD
100
AcDbEntity
  8
0
 62
     0
370
    -2
100
AcDbLine
 10
-41.35918016248346
 20
65.3514458849861
 30
0.0
 11
-45.18582235712755
 21
65.3514458849861
 31
0.0
  0
LINE
  5
34FE
330
1FBD
100
AcDbEntity
  8
0
 62
     0
370
    -2
100
AcDbLine
 10
-43.93582235712755
 20
62.8514458849861
 30
0.0
 11
-43.93582235712755
 21
60.3514458849861
 31
0.0
  0
LINE
  5
34FF
330
1FBD
100
AcDbEntity
  8
0
 62
     0
370
    -2
100
AcDbLine
 10
-43.93582235712755
 20
82.6014458849861
 30
0.0
 11
-43.93582235712755
 21
95.35144588498608
 31
0.0
  0
LINE
  5
3500
330
1FBD
100
AcDbEntity
  8
0
 62
     0
370
    -2
100
AcDbLine
 10
-43.93582235712755
 20
65.3514458849861
 30
0.0
 11
-43.93582235712755
 21
80.1014458849861
 31
0.0
  0
INSERT
  5
3501
330
1FBD
100
AcDbEntity
  8
0
 62
     0
370
    -2
100
AcDbBlockReference
  2
_Open30
 10
-43.93582235712755
 20
65.3514458849861
 30
0.0
 41
2.5
 42
2.5
 43
2.5
 50
90.0
  0
INSERT
  5
3502
330
1FBD
100
AcDbEntity
  8
0
 62
     0
370
    -2
100
AcDbBlockReference
  2
_Open30
 10
-43.93582235712755
 20
80.1014458849861
 30
0.0
 41
2.5
 42
2.5
 43
2.5
 50
270.0
  0
MTEXT
  5
3503
330
1FBD
100
AcDbEntity
  8
0
 62
     4
100
AcDbMText
 10
-46.06082235712756
 20
90.22644588498607
 30
0.0
 40
3.0
 41
0.0
 71
     5
 72
     1
  1
29.5
 11
0.0000000000000001
 21
1.0
 31
0.0
 73
     1
 44
1.0
1001
ACAD
1000
MTEXTBEGIN
1070
    73
1070
     1
1070
    44
1040
1.0
1070
    74
1070
     0
1000
MTEXTEND
  0
POINT
  5
3504
330
1FBD
100
AcDbEntity
  8
Defpoints
 62
     0
100
AcDbPoint
 10
-41.10918016248347
 20
80.1014458849861
 30
0.0
  0
POINT
  5
3505
330
1FBD
100
AcDbEntity
  8
Defpoints
 62
     0
100
AcDbPoint
 10
-41.10918016248347
 20
65.3514458849861
 30
0.0
  0
POINT
  5
3506
330
1FBD
100
AcDbEntity
  8
Defpoints
 62
     0
100
AcDbPoint
 10
-43.93582235712755
 20
65.3514458849861
 30
0.0
  0
ENDBLK
  5
1FBF
330
1FBD
100
AcDbEntity
  8
0
100
AcDbBlockEnd
  0
BLOCK
  5
1FD1
330
1FD0
100
AcDbEntity
  8
0
100
AcDbBlockBegin
  2
*D7
 70
     1
 10
0.0
 20
0.0
 30
0.0
  3
*D7
  1

  0
LINE
  5
3507
330
1FD0
100
AcDbEntity
  8
0
 62
     0
370
    -2
100
AcDbLine
 10
-43.72756784919115
 20
44.81732579885988
 30
0.0
 11
-49.48497997696723
 21
44.81732579885989
 31
0.0
  0
LINE
  5
3508
330
1FD0
100
AcDbEntity
  8
0
 62
     0
370
    -2
100
AcDbLine
 10
-43.72756784919115
 20
31.81732579885988
 30
0.0
 11
-49.48497997696723
 21
31.81732579885988
 31
0.0
  0
LINE
  5
3509
330
1FD0
100
AcDbEntity
  8
0
 62
     0
370
    -2
100
AcDbLine
 10
-48.23497997696723
 20
29.31732579885988
 30
0.0
 11
-48.23497997696723
 21
26.81732579885988
 31
0.0
  0
LINE
  5
350A
330
1FD0
100
AcDbEntity
  8
0
 62
     0
370
    -2
100
AcDbLine
 10
-48.23497997696723
 20
47.31732579885989
 30
0.0
 11
-48.23497997696722
 21
56.0673257988599
 31
0.0
  0
LINE
  5
350B
330
1FD0
100
AcDbEntity
  8
0
 62
     0
370
    -2
100
AcDbLine
 10
-48.23497997696723
 20
31.81732579885988
 30
0.0
 11
-48.23497997696723
 21
44.81732579885989
 31
0.0
  0
INSERT
  5
350C
330
1FD0
100
AcDbEntity
  8
0
 62
     0
370
    -2
100
AcDbBlockReference
  2
_Open30
 10
-48.23497997696723
 20
31.81732579885988
 30
0.0
 41
2.5
 42
2.5
 43
2.5
 50
90.0
  0
INSERT
  5
350D
330
1FD0
100
AcDbEntity
  8
0
 62
     0
370
    -2
100
AcDbBlockReference
  2
_Open30
 10
-48.23497997696723
 20
44.81732579885989
 30
0.0
 41
2.5
 42
2.5
 43
2.5
 50
270.0
  0
MTEXT
  5
350E
330
1FD0
100
AcDbEntity
  8
0
 62
     4
100
AcDbMText
 10
-50.35997997696723
 20
52.94232579885989
 30
0.0
 40
3.0
 41
0.0
 71
     5
 72
     1
  1
26
 11
0.0000000000000001
 21
1.0
 31
0.0
 73
     1
 44
1.0
1001
ACAD
1000
MTEXTBEGIN
1070
    73
1070
     1
1070
    44
1040
1.0
1070
    74
1070
     0
1000
MTEXTEND
  0
POINT
  5
350F
330
1FD0
100
AcDbEntity
  8
Defpoints
 62
     0
100
AcDbPoint
 10
-43.47756784919115
 20
44.81732579885988
 30
0.0
  0
POINT
  5
3510
330
1FD0
100
AcDbEntity
  8
Defpoints
 62
     0
100
AcDbPoint
 10
-43.47756784919115
 20
31.81732579885988
 30
0.0
  0
POINT
  5
3511
330
1FD0
100
AcDbEntity
  8
Defpoints
 62
     0
100
AcDbPoint
 10
-48.23497997696723
 20
31.81732579885988
 30
0.0
  0
ENDBLK
  5
1FD2
330
1FD0
100
AcDbEntity
  8
0
100
AcDbBlockEnd
  0
ENDSEC
  0
SECTION
  2
ENTITIES
  0
LINE
  5
88
330
36
100
AcDbEntity
  8
0
 62
     3
100
AcDbLine
 10
-101.512073
 20
0.0
 30
0.0
 11
-102.0
 21
0.0
 31
0.0
  0
LINE
  5
161
330
36
100
AcDbEntity
  8
0
 62
     3
100
AcDbLine
 10
64.257701
 20
-121.834277
 30
0.0
 11
64.25770100000001
 21
-98.834277
 31
0.0
  0
LINE
  5
163
330
36
100
AcDbEntity
  8
0
 62
     3
100
AcDbLine
 10
11.204092
 20
-128.834277
 30
0.0
 11
11.204092
 21
-114.834277
 31
0.0
  0
TEXT
  5
165
330
36
100
AcDbEntity
  8
0
 62
     3
100
AcDbText
 10
40.268019
 20
-102.629161
 30
0.0
 40
2.0
  1
A
 41
0.7
100
AcDbText
  0
TEXT
  5
166
330
36
100
AcDbEntity
  8
0
 62
     3
100
AcDbText
 10
42.803306
 20
-102.629161
 30
0.0
 40
2.0
  1
P
 41
0.7
100
AcDbText
  0
TEXT
  5
167
330
36
100
AcDbEntity
  8
0
 62
     3
100
AcDbText
 10
45.338592
 20
-102.629161
 30
0.0
 40
2.0
  1
P
 41
0.7
100
AcDbText
  0
TEXT
  5
168
330
36
100
AcDbEntity
  8
0
 62
     3
100
AcDbText
 10
47.873878
 20
-102.629161
 30
0.0
 40
2.0
  1
D
 41
0.7
100
AcDbText
  0
TEXT
  5
169
330
36
100
AcDbEntity
  8
0
 62
     3
100
AcDbText
 10
53.242561
 20
-102.629161
 30
0.0
 40
2.0
  1
C
 41
0.7
100
AcDbText
  0
TEXT
  5
16A
330
36
100
AcDbEntity
  8
0
 62
     3
100
AcDbText
 10
55.77784699999998
 20
-102.629161
 30
0.0
 40
2.0
  1
H
 41
0.7
100
AcDbText
  0
TEXT
  5
16B
330
36
100
AcDbEntity
  8
0
 62
     3
100
AcDbText
 10
58.31313399999999
 20
-102.629161
 30
0.0
 40
2.0
  1
C
 41
0.7
100
AcDbText
  0
TEXT
  5
16C
330
36
100
AcDbEntity
  8
0
 62
     3
100
AcDbText
 10
60.84842
 20
-102.629161
 30
0.0
 40
2.0
  1
K
 41
0.7
100
AcDbText
  0
TEXT
  5
16D
330
36
100
AcDbEntity
  8
0
 62
     3
100
AcDbText
 10
66.522386
 20
-102.629161
 30
0.0
 40
2.0
  1
DESN
 41
1.216762999999998
100
AcDbText
  0
TEXT
  5
16E
330
36
100
AcDbEntity
  8
0
 62
     3
100
AcDbText
 10
-18.483972
 20
-131.975659
 30
0.0
 40
2.0
  1
NICHIDO IND.CO.LTD
 41
1.274876
100
AcDbText
  0
LINE
  5
16F
330
36
100
AcDbEntity
  8
0
 62
     3
100
AcDbLine
 10
-8.100942999999999
 20
-98.83427699999998
 30
0.0
 11
-8.100942999999999
 21
-121.834277
 31
0.0
  0
LINE
  5
170
330
36
100
AcDbEntity
  8
0
 62
     3
100
AcDbLine
 10
38.25770100000001
 20
-98.83427699999998
 30
0.0
 11
38.25770100000001
 21
-138.5
 31
0.0
  0
LINE
  5
175
330
36
100
AcDbEntity
  8
0
 62
     3
100
AcDbLine
 10
51.257701
 20
-98.83427699999998
 30
0.0
 11
51.257701
 21
-128.834277
 31
0.0
  0
TEXT
  5
176
330
36
100
AcDbEntity
  8
0
 62
     3
100
AcDbText
 10
39.37014600000001
 20
-127.96959
 30
0.0
 40
3.2
  1
作成日
 41
1.017225999999997
100
AcDbText
  0
LINE
  5
177
330
36
100
AcDbEntity
  8
0
 62
     3
100
AcDbLine
 10
90.0
 20
-98.834277
 30
0.0
 11
-21.346378
 21
-98.83427699999998
 31
0.0
  0
LINE
  5
178
330
36
100
AcDbEntity
  8
0
 62
     3
100
AcDbLine
 10
77.257701
 20
-121.834277
 30
0.0
 11
77.257701
 21
-98.83427699999998
 31
0.0
  0
TEXT
  5
179
330
36
100
AcDbEntity
  8
0
 62
     3
100
AcDbText
 10
80.58150500000001
 20
-102.543343
 30
0.0
 40
1.8
  1
D
 41
0.666667
100
AcDbText
  0
TEXT
  5
17A
330
36
100
AcDbEntity
  8
0
 62
     3
100
AcDbText
 10
83.39813300000001
 20
-102.543343
 30
0.0
 40
1.8
  1
E
 41
0.666667
100
AcDbText
  0
TEXT
  5
17B
330
36
100
AcDbEntity
  8
0
 62
     3
100
AcDbText
 10
86.214761
 20
-102.543343
 30
0.0
 40
1.8
  1
F
 41
0.666667
100
AcDbText
  0
TEXT
  5
17C
330
36
100
AcDbEntity
  8
0
 62
     3
100
AcDbText
 10
80.58150500000001
 20
-106.5358959999999
 30
0.0
 40
3.2
  1
製図
 41
1.076369
100
AcDbText
  0
LINE
  5
17D
330
36
100
AcDbEntity
  8
0
 62
     3
100
AcDbLine
 10
-21.346378
 20
-98.83427699999998
 30
0.0
 11
-21.346378
 21
-138.5
 31
0.0
  0
TEXT
  5
17E
330
36
100
AcDbEntity
  8
0
 62
     3
100
AcDbText
 10
-19.969725
 20
-138.167534
 30
0.0
 40
5.0
  1
日動工業株式会社
 41
0.833333
100
AcDbText
  0
LINE
  5
17F
330
36
100
AcDbEntity
  8
0
 62
     3
100
AcDbLine
 10
21.536026
 20
-114.834277
 30
0.0
 11
21.536026
 21
-138.5
 31
0.0
  0
LINE
  5
180
330
36
100
AcDbEntity
  8
0
 62
     3
100
AcDbLine
 10
21.536026
 20
-133.6671379999999
 30
0.0
 11
38.25770100000001
 21
-133.6671379999999
 31
0.0
  0
TEXT
  5
181
330
36
100
AcDbEntity
  8
0
 62
     3
100
AcDbText
 10
22.122628
 20
-132.850708
 30
0.0
 40
3.2
  1
出図コード
 41
0.8356860000000001
100
AcDbText
  0
LINE
  5
182
330
36
100
AcDbEntity
  8
0
 62
     3
100
AcDbLine
 10
90.0
 20
-128.834277
 30
0.0
 11
-21.34637800000001
 21
-128.834277
 31
0.0
  0
LINE
  5
183
330
36
100
AcDbEntity
  8
0
 62
     3
100
AcDbLine
 10
86.32079799999997
 20
-128.834277
 30
0.0
 11
90.0
 21
-128.8342769999999
 31
0.0
  0
LINE
  5
185
330
36
100
AcDbEntity
  8
0
 62
     3
100
AcDbLine
 10
-21.346378
 20
-107.834277
 30
0.0
 11
90.0
 21
-107.834277
 31
0.0
  0
LINE
  5
18B
330
36
100
AcDbEntity
  8
0
 62
     3
100
AcDbLine
 10
-21.34637800000001
 20
-114.834277
 30
0.0
 11
38.25770100000001
 21
-114.834277
 31
0.0
  0
LINE
  5
191
330
36
100
AcDbEntity
  8
0
 62
     3
100
AcDbLine
 10
-21.34637800000001
 20
-121.834277
 30
0.0
 11
90.0
 21
-121.834277
 31
0.0
  0
TEXT
  5
192
330
36
100
AcDbEntity
  8
0
 62
     3
100
AcDbText
 10
21.99008
 20
-137.897805
 30
0.0
 40
3.2
  1
ZK-A4Y
 41
0.8112849999999999
100
AcDbText
  0
LINE
  5
193
330
36
100
AcDbEntity
  8
0
 62
     3
100
AcDbLine
 10
-90.0
 20
138.5
 30
0.0
 11
-90.0
 21
-138.5
 31
0.0
  0
LINE
  5
194
330
36
100
AcDbEntity
  8
0
 62
     3
100
AcDbLine
 10
90.0
 20
-138.5
 30
0.0
 11
90.0
 21
138.5
 31
0.0
  0
LINE
  5
195
330
36
100
AcDbEntity
  8
0
 62
     3
100
AcDbLine
 10
90.0
 20
-138.5
 30
0.0
 11
-90.0
 21
-138.5
 31
0.0
  0
TEXT
  5
19A
330
36
100
AcDbEntity
  8
0
 62
     3
100
AcDbText
 10
-19.528981
 20
-102.664751
 30
0.0
 40
2.0
  1
CONPONENTS
 41
0.5331600000000001
100
AcDbText
  0
TEXT
  5
19B
330
36
100
AcDbEntity
  8
0
 62
     3
100
AcDbText
 10
-19.878707
 20
-121.596928
 30
0.0
 40
3.0
  1
材
 41
0.833333
100
AcDbText
  0
TEXT
  5
19C
330
36
100
AcDbEntity
  8
0
 62
     3
100
AcDbText
 10
-12.343065
 20
-121.596928
 30
0.0
 40
3.0
  1
質
 41
0.833333
100
AcDbText
  0
TEXT
  5
19D
330
36
100
AcDbEntity
  8
0
 62
     3
100
AcDbText
 10
-19.790637
 20
-110.972404
 30
0.0
 40
2.0
  1
MODEL
 41
1.031072999999999
100
AcDbText
  0
TEXT
  5
19E
330
36
100
AcDbEntity
  8
0
 62
     3
100
AcDbText
 10
-19.878707
 20
-117.91462
 30
0.0
 40
2.0
  1
MATERIAL
 41
0.659278
100
AcDbText
  0
TEXT
  5
19F
330
36
100
AcDbEntity
  8
0
 62
     3
100
AcDbText
 10
11.428573
 20
-121.596928
 30
0.0
 40
3.0
  1
備
 41
0.833333
100
AcDbText
  0
TEXT
  5
1A0
330
36
100
AcDbEntity
  8
0
 62
     3
100
AcDbText
 10
18.161575
 20
-121.596928
 30
0.0
 40
3.0
  1
考
 41
0.833333
100
AcDbText
  0
TEXT
  5
1A1
330
36
100
AcDbEntity
  8
0
 62
     3
100
AcDbText
 10
11.74797475442096
 20
-117.91462
 30
0.0
 40
2.0
  1
REMARKS
 41
0.675794
100
AcDbText
  0
TEXT
  5
1A2
330
36
100
AcDbEntity
  8
0
 62
     3
100
AcDbText
 10
-18.288978
 20
-124.834741
 30
0.0
 40
2.0
  1
3AD
 41
1.42614
100
AcDbText
  0
TEXT
  5
1A3
330
36
100
AcDbEntity
  8
0
 62
     3
100
AcDbText
 10
-8.977999
 20
-124.669007
 30
0.0
 40
2.0
  1
ANGLE
 41
1.669883999999995
100
AcDbText
  0
TEXT
  5
1A4
330
36
100
AcDbEntity
  8
0
 62
     3
100
AcDbText
 10
11.955888
 20
-125.045848
 30
0.0
 40
2.0
  1
SCALE
 41
0.7719630000000001
100
AcDbText
  0
TEXT
  5
1A5
330
36
100
AcDbEntity
  8
0
 62
     3
100
AcDbText
 10
-18.602849
 20
-128.834277
 30
0.0
 40
3.0
  1
第
 41
0.833333
100
AcDbText
  0
TEXT
  5
1A6
330
36
100
AcDbEntity
  8
0
 62
     3
100
AcDbText
 10
-10.815999
 20
-128.834277
 30
0.0
 40
3.0
  1
三
 41
0.833333
100
AcDbText
  0
TEXT
  5
1A7
330
36
100
AcDbEntity
  8
0
 62
     3
100
AcDbText
 10
-3.029149
 20
-128.834277
 30
0.0
 40
3.0
  1
角
 41
0.833333
100
AcDbText
  0
TEXT
  5
1A8
330
36
100
AcDbEntity
  8
0
 62
     3
100
AcDbText
 10
4.757700999999999
 20
-128.834277
 30
0.0
 40
3.0
  1
法
 41
0.833333
100
AcDbText
  0
TEXT
  5
1A9
330
36
100
AcDbEntity
  8
0
 62
     3
100
AcDbText
 10
11.819093
 20
-128.5458479999999
 30
0.0
 40
3.0
  1
尺
 41
0.833333
100
AcDbText
  0
TEXT
  5
1AA
330
36
100
AcDbEntity
  8
0
 62
     3
100
AcDbText
 10
18.552095
 20
-128.5458479999999
 30
0.0
 40
3.0
  1
度
 41
0.833333
100
AcDbText
  0
TEXT
  5
1AB
330
36
100
AcDbEntity
  8
0
 62
     3
100
AcDbText
 10
41.13536599999997
 20
-106.376548
 30
0.0
 40
3.0
  1
承認
 41
1.089472999999999
100
AcDbText
  0
TEXT
  5
1AC
330
36
100
AcDbEntity
  8
0
 62
     3
100
AcDbText
 10
54.37824599999999
 20
-106.434277
 30
0.0
 40
3.0
  1
検図
 41
0.931761
100
AcDbText
  0
TEXT
  5
1AD
330
36
100
AcDbEntity
  8
0
 62
     3
100
AcDbText
 10
67.37864300000001
 20
-106.434277
 30
0.0
 40
3.0
  1
設
 41
0.833333
100
AcDbText
  0
TEXT
  5
1AE
330
36
100
AcDbEntity
  8
0
 62
     3
100
AcDbText
 10
71.868511
 20
-106.434277
 30
0.0
 40
3.0
  1
計
 41
0.833333
100
AcDbText
  0
TEXT
  5
1AF
330
36
100
AcDbEntity
  8
0
 62
     3
100
AcDbText
 10
-19.597509
 20
-107.145521
 30
0.0
 40
3.0
  1
品
 41
0.833333
100
AcDbText
  0
TEXT
  5
1B0
330
36
100
AcDbEntity
  8
0
 62
     3
100
AcDbText
 10
-12.061867
 20
-107.145521
 30
0.0
 40
3.0
  1
名
 41
0.833333
100
AcDbText
  0
TEXT
  5
1B1
330
36
100
AcDbEntity
  8
0
 62
     3
100
AcDbText
 10
-19.790637
 20
-114.604664
 30
0.0
 40
3.0
  1
型
 41
0.833333
100
AcDbText
  0
TEXT
  5
1B2
330
36
100
AcDbEntity
  8
0
 62
     3
100
AcDbText
 10
-12.242546
 20
-114.604664
 30
0.0
 40
3.0
  1
式
 41
0.833333
100
AcDbText
  0
LINE
  5
219
330
36
100
AcDbEntity
  8
0
 62
     3
100
AcDbLine
 10
64.257701
 20
-98.83427699999998
 30
0.0
 11
64.257701
 21
-92.83427699999998
 31
0.0
  0
LINE
  5
21A
330
36
100
AcDbEntity
  8
0
 62
     3
100
AcDbLine
 10
38.25770100000001
 20
-98.83427699999998
 30
0.0
 11
38.25770100000001
 21
-92.83427699999998
 31
0.0
  0
LINE
  5
21B
330
36
100
AcDbEntity
  8
0
 62
     3
100
AcDbLine
 10
90.0
 20
-92.834277
 30
0.0
 11
38.25770100000001
 21
-92.83427699999998
 31
0.0
  0
TEXT
  5
21C
330
36
100
AcDbEntity
  8
0
 62
     3
100
AcDbText
 10
44.253299
 20
-98.03792800000001
 30
0.0
 40
4.5
  1
コード
  7
高4.5
100
AcDbText
  0
TEXT
  5
21D
330
36
100
AcDbEntity
  8
0
 62
     3
100
AcDbText
 10
-4.989368308776643
 20
-106.662986
 30
0.0
 40
4.5
  1
LEDチューブライト20形　片側給電
 41
0.45
  7
高4.5
100
AcDbText
  0
TEXT
  5
25F
330
36
100
AcDbEntity
  8
0
 62
     3
100
AcDbText
 10
25.04916102999141
 20
-128.386584
 30
0.0
 40
3.2
  1
1/2
  7
高3.2
100
AcDbText
  0
TEXT
  5
260
330
36
100
AcDbEntity
  8
0
 62
     3
100
AcDbText
 10
55.28894399999999
 20
-128.272057
 30
0.0
 40
3.2
  1
2021.11.25
  7
高3.2
100
AcDbText
  0
TEXT
  5
2A5
330
36
100
AcDbEntity
  8
0
 62
     3
100
AcDbText
 10
-6.086263030737427
 20
-113.8974032392477
 30
0.0
 40
4.5
  1
LCL-2010W-HI
 41
0.8
  7
高4.5
100
AcDbText
  0
TEXT
  5
2A6
330
36
100
AcDbEntity
  8
0
 62
     3
100
AcDbText
 10
40.79756493353443
 20
-137.3016748436918
 30
0.0
 40
6.299999999999998
  1
LCL-2010W-HI
 41
0.65
  7
高6.3
100
AcDbText
  0
TEXT
  5
2A7
330
36
100
AcDbEntity
  8
0
 62
     3
100
AcDbText
 10
66.244847
 20
-98.19014000000001
 30
0.0
 40
4.5
  1
9590
  7
高4.5
100
AcDbText
  0
TEXT
  5
2BF
330
36
100
AcDbEntity
  8
0
 62
     3
100
AcDbText
 10
23.46953264338866
 20
-120.1386778328505
 30
0.0
 40
2.5
  1
オーバルタイプ
 41
0.6
  7
高2.5
100
AcDbText
  0
TEXT
  5
FC4
330
36
100
AcDbEntity
  8
0
100
AcDbText
 10
82.29316131646214
 20
-117.3182101945936
 30
0.0
 40
3.2
  1
I
  7
高3.2
100
AcDbText
  0
TEXT
  5
1160
330
36
100
AcDbEntity
  8
0
 62
     3
100
AcDbText
 10
-6.821035387507888
 20
-120.1386778328505
 30
0.0
 40
2.5
  1
PC／アルミ
  7
高2.5
100
AcDbText
  0
LINE
  5
17C3
330
36
100
AcDbEntity
  8
0
 62
     3
100
AcDbLine
 10
-52.91564798000013
 20
140.2874440999999
 30
0.0
 11
-52.47990006999998
 21
140.0599759599999
 31
0.0
  0
LINE
  5
17C4
330
36
100
AcDbEntity
  8
0
 62
     3
100
AcDbLine
 10
-52.91564798000013
 20
136.5568136199999
 30
0.0
 11
-52.47990006999998
 21
136.78428176
 31
0.0
  0
LINE
  5
17C5
330
36
100
AcDbEntity
  8
0
 62
     3
100
AcDbLine
 10
-52.47990006999998
 20
140.0599759599999
 30
0.0
 11
-52.47990006999998
 21
136.78428176
 31
0.0
  0
LINE
  5
17C6
330
36
100
AcDbEntity
  8
0
 62
     3
100
AcDbLine
 10
-51.3763826500001
 20
136.5568136199999
 30
0.0
 11
-51.81213056000024
 21
136.78428176
 31
0.0
  0
LINE
  5
17C7
330
36
100
AcDbEntity
  8
0
 62
     3
100
AcDbLine
 10
-51.81213056000024
 20
138.7811405699999
 30
0.0
 11
-51.81213056000024
 21
136.78428176
 31
0.0
  0
LINE
  5
17C8
330
36
100
AcDbEntity
  8
0
 62
     3
100
AcDbLine
 10
-48.83451987000011
 20
140.2874440999999
 30
0.0
 11
-49.27026778000004
 21
140.0599759599999
 31
0.0
  0
LINE
  5
17C9
330
36
100
AcDbEntity
  8
0
 62
     3
100
AcDbLine
 10
-50.37378520000014
 20
140.2874440999999
 30
0.0
 11
-49.93803729000001
 21
140.0599759599999
 31
0.0
  0
LINE
  5
17CA
330
36
100
AcDbEntity
  8
0
 62
     3
100
AcDbLine
 10
-49.93803729000001
 20
140.0599759599999
 30
0.0
 11
-49.93803729000001
 21
138.6176389
 31
0.0
  0
LINE
  5
17CB
330
36
100
AcDbEntity
  8
0
 62
     3
100
AcDbLine
 10
-49.27026778000004
 20
140.0599759599999
 30
0.0
 11
-49.27026778000004
 21
136.34525248
 31
0.0
  0
LINE
  5
17CC
330
36
100
AcDbEntity
  8
0
 62
     3
100
AcDbLine
 10
-48.61922267
 20
140.28744147
 30
0.0
 11
-48.18347633000008
 21
140.0599703299999
 31
0.0
  0
LINE
  5
17CD
330
36
100
AcDbEntity
  8
0
 62
     3
100
AcDbLine
 10
-48.6193006400001
 20
136.5568636
 30
0.0
 11
-48.18354479000003
 21
136.7843165199999
 31
0.0
  0
LINE
  5
17CE
330
36
100
AcDbEntity
  8
0
 62
     3
100
AcDbLine
 10
-48.18347633000008
 20
140.0599703299999
 30
0.0
 11
-48.18347633000008
 21
136.7843165199999
 31
0.0
  0
LINE
  5
17CF
330
36
100
AcDbEntity
  8
0
 62
     3
100
AcDbLine
 10
-46.68968627000004
 20
140.2874177999999
 30
0.0
 11
-47.12543735999997
 21
140.05995577
 31
0.0
  0
LINE
  5
17D0
330
36
100
AcDbEntity
  8
0
 62
     3
100
AcDbLine
 10
-47.12543735999997
 20
140.05995577
 30
0.0
 11
-47.12543735999997
 21
136.78430195
 31
0.0
  0
LINE
  5
17D1
330
36
100
AcDbEntity
  8
0
 62
     3
100
AcDbLine
 10
-46.68968627000004
 20
136.55683992
 30
0.0
 11
-47.12543735999997
 21
136.78430195
 31
0.0
  0
LINE
  5
17D2
330
36
100
AcDbEntity
  8
0
 62
     3
100
AcDbLine
 10
-42.99943283000015
 20
140.2873767999999
 30
0.0
 11
-42.56368571000007
 21
140.0599071599999
 31
0.0
  0
LINE
  5
17D3
330
36
100
AcDbEntity
  8
0
 62
     3
100
AcDbLine
 10
-42.56368571000007
 20
140.0599071599999
 30
0.0
 11
-42.56374288000006
 21
136.7842533499999
 31
0.0
  0
LINE
  5
17D4
330
36
100
AcDbEntity
  8
0
 62
     3
100
AcDbLine
 10
-42.99949794000006
 20
136.55679892
 30
0.0
 11
-42.56374288000006
 21
136.7842533499999
 31
0.0
  0
LINE
  5
17D5
330
36
100
AcDbEntity
  8
0
 62
     3
100
AcDbLine
 10
-41.04717187000003
 20
140.2873767999999
 30
0.0
 11
-41.48291899000013
 21
140.0599071599999
 31
0.0
  0
LINE
  5
17D6
330
36
100
AcDbEntity
  8
0
 62
     3
100
AcDbLine
 10
-41.04710676000013
 20
136.55679892
 30
0.0
 11
-41.48286182000012
 21
136.7842533499999
 31
0.0
  0
LINE
  5
17D7
330
36
100
AcDbEntity
  8
0
 62
     3
100
AcDbLine
 10
-40.84344400999998
 20
140.2873767999999
 30
0.0
 11
-40.40769688
 21
140.0599071599999
 31
0.0
  0
LINE
  5
17D8
330
36
100
AcDbEntity
  8
0
 62
     3
100
AcDbLine
 10
-40.84350912000013
 20
136.55679892
 30
0.0
 11
-40.40775406000011
 21
136.7842533499999
 31
0.0
  0
LINE
  5
17D9
330
36
100
AcDbEntity
  8
0
 62
     3
100
AcDbLine
 10
-38.89118304000021
 20
140.2873767999999
 30
0.0
 11
-39.32693016000007
 21
140.0599071599999
 31
0.0
  0
LINE
  5
17DA
330
36
100
AcDbEntity
  8
0
 62
     3
100
AcDbLine
 10
-39.32693016000007
 20
140.0599071599999
 30
0.0
 11
-39.32687299000008
 21
136.7842533499999
 31
0.0
  0
LINE
  5
17DB
330
36
100
AcDbEntity
  8
0
 62
     3
100
AcDbLine
 10
-38.89111793000007
 20
136.55679892
 30
0.0
 11
-39.32687299000008
 21
136.7842533499999
 31
0.0
  0
LINE
  5
17DC
330
36
100
AcDbEntity
  8
0
 62
     3
100
AcDbLine
 10
-40.40772179000009
 20
138.6327740399999
 30
0.0
 11
-41.48289408000005
 21
138.6327740399999
 31
0.0
  0
LINE
  5
17DD
330
36
100
AcDbEntity
  8
0
 62
     3
100
AcDbLine
 10
-40.40772915000025
 20
138.21148368
 30
0.0
 11
-41.48288673000024
 21
138.21148368
 31
0.0
  0
LINE
  5
17DE
330
36
100
AcDbEntity
  8
0
 62
     3
100
AcDbLine
 10
-40.40769688
 20
140.0599071599999
 30
0.0
 11
-40.40772179000009
 21
138.6327740399999
 31
0.0
  0
LINE
  5
17DF
330
36
100
AcDbEntity
  8
0
 62
     3
100
AcDbLine
 10
-40.40772915000025
 20
138.21148368
 30
0.0
 11
-40.40775406000011
 21
136.7842533499999
 31
0.0
  0
LINE
  5
17E0
330
36
100
AcDbEntity
  8
0
 62
     3
100
AcDbLine
 10
-41.48291899000013
 20
140.0599071599999
 30
0.0
 11
-41.48289408000005
 21
138.6327740399999
 31
0.0
  0
LINE
  5
17E1
330
36
100
AcDbEntity
  8
0
 62
     3
100
AcDbLine
 10
-41.48288673000024
 20
138.21148368
 30
0.0
 11
-41.48286182000012
 21
136.7842533499999
 31
0.0
  0
LINE
  5
17E2
330
36
100
AcDbEntity
  8
0
 62
     3
100
AcDbLine
 10
-38.68422392000002
 20
140.2873767999999
 30
0.0
 11
-38.24847680000015
 21
140.0599071599999
 31
0.0
  0
LINE
  5
17E3
330
36
100
AcDbEntity
  8
0
 62
     3
100
AcDbLine
 10
-38.24847680000015
 20
140.0599071599999
 30
0.0
 11
-38.24853397000016
 21
136.7842533499999
 31
0.0
  0
LINE
  5
17E4
330
36
100
AcDbEntity
  8
0
 62
     3
100
AcDbLine
 10
-38.68428903000017
 20
136.55679892
 30
0.0
 11
-38.24853397000016
 21
136.7842533499999
 31
0.0
  0
LINE
  5
17E5
330
36
100
AcDbEntity
  8
0
 62
     3
100
AcDbLine
 10
-36.75471365000021
 20
140.2873767999999
 30
0.0
 11
-37.19046077000007
 21
140.0599071599999
 31
0.0
  0
LINE
  5
17E6
330
36
100
AcDbEntity
  8
0
 62
     3
100
AcDbLine
 10
-37.19046077000007
 20
140.0599071599999
 30
0.0
 11
-37.19040360000008
 21
136.7842533499999
 31
0.0
  0
LINE
  5
17E7
330
36
100
AcDbEntity
  8
0
 62
     3
100
AcDbLine
 10
-36.75464854000006
 20
136.55679892
 30
0.0
 11
-37.19040360000008
 21
136.7842533499999
 31
0.0
  0
LINE
  5
17E8
330
36
100
AcDbEntity
  8
0
 62
     3
100
AcDbLine
 10
-36.54035408000004
 20
140.2873767999999
 30
0.0
 11
-36.10460696000018
 21
140.0599071599999
 31
0.0
  0
LINE
  5
17E9
330
36
100
AcDbEntity
  8
0
 62
     3
100
AcDbLine
 10
-36.10460696000018
 20
140.0599071599999
 30
0.0
 11
-36.10466413000017
 21
136.7842533499999
 31
0.0
  0
LINE
  5
17EA
330
36
100
AcDbEntity
  8
0
 62
     3
100
AcDbLine
 10
-36.54041919000019
 20
136.55679892
 30
0.0
 11
-36.10466413000017
 21
136.7842533499999
 31
0.0
  0
ARC
  5
17EB
330
36
100
AcDbEntity
  8
0
 62
     3
100
AcDbCircle
 10
-44.39134409999996
 20
138.43151862
 30
0.0
 40
2.086285909999999
100
AcDbArc
 50
97.70152350999763
 51
270.0
  0
ARC
  5
17EC
330
36
100
AcDbEntity
  8
0
 62
     3
100
AcDbCircle
 10
-31.51074326000026
 20
138.41056199
 30
0.0
 40
2.108943379999999
100
AcDbArc
 50
0.3142502700074235
 51
69.00558244999094
  0
ARC
  5
17ED
330
36
100
AcDbEntity
  8
0
 62
     3
100
AcDbCircle
 10
-31.05006794000019
 20
138.41056199
 30
0.0
 40
2.108943379999999
100
AcDbArc
 50
110.9944175499969
 51
148.1166110200025
  0
ARC
  5
17EE
330
36
100
AcDbEntity
  8
0
 62
     3
100
AcDbCircle
 10
-31.51074326000026
 20
138.4336957299999
 30
0.0
 40
2.108943379999999
100
AcDbArc
 50
290.9944175499969
 51
359.6857497299926
  0
ARC
  5
17EF
330
36
100
AcDbEntity
  8
0
 62
     3
100
AcDbCircle
 10
-31.05006794000019
 20
138.4336957299999
 30
0.0
 40
2.108943379999999
100
AcDbArc
 50
211.8833889799973
 51
249.0055824499891
  0
ARC
  5
17F0
330
36
100
AcDbEntity
  8
0
 62
     3
100
AcDbCircle
 10
-31.2804056
 20
139.28493425
 30
0.0
 40
1.214070989999997
100
AcDbArc
 50
64.36517190000066
 51
115.6348280999993
  0
ARC
  5
17F1
330
36
100
AcDbEntity
  8
0
 62
     3
100
AcDbCircle
 10
-31.2804056
 20
137.55932347
 30
0.0
 40
1.214070989999997
100
AcDbArc
 50
244.3651719000007
 51
295.6348280999993
  0
ARC
  5
17F2
330
36
100
AcDbEntity
  8
0
 62
     3
100
AcDbCircle
 10
-31.2804056
 20
139.30799593
 30
0.0
 40
0.59585563
100
AcDbArc
 50
19.48660554000628
 51
160.5133944599935
  0
ARC
  5
17F3
330
36
100
AcDbEntity
  8
0
 62
     3
100
AcDbCircle
 10
-31.2804056
 20
137.55932347
 30
0.0
 40
1.214070989999997
100
AcDbArc
 50
244.3651719000007
 51
295.6348280999993
  0
ARC
  5
17F4
330
36
100
AcDbEntity
  8
0
 62
     3
100
AcDbCircle
 10
-31.2804056
 20
137.53626179
 30
0.0
 40
0.59585563
100
AcDbArc
 50
199.4866055400053
 51
340.5133944599937
  0
ARC
  5
17F5
330
36
100
AcDbEntity
  8
0
 62
     3
100
AcDbCircle
 10
-36.02287810000007
 20
116.19406902
 30
0.0
 40
26.04
100
AcDbArc
 50
69.50571480000886
 51
81.68998806999658
  0
ARC
  5
17F6
330
36
100
AcDbEntity
  8
0
 62
     3
100
AcDbCircle
 10
-36.02287810000007
 20
160.6501886999999
 30
0.0
 40
26.04
100
AcDbArc
 50
278.3100119300026
 51
290.4942851999912
  0
ARC
  5
17F7
330
36
100
AcDbEntity
  8
0
 62
     3
100
AcDbCircle
 10
-27.71467397000015
 20
138.4221288599999
 30
0.0
 40
2.31
100
AcDbArc
 50
290.4942851999912
 51
69.50571480000886
  0
ARC
  5
17F8
330
36
100
AcDbEntity
  8
0
 62
     3
100
AcDbCircle
 10
-55.0146739700001
 20
138.4221288599999
 30
0.0
 40
2.31
100
AcDbArc
 50
110.4942851999907
 51
249.5057147999946
  0
ARC
  5
17F9
330
36
100
AcDbEntity
  8
0
 62
     3
100
AcDbCircle
 10
-46.70646985000007
 20
116.19406902
 30
0.0
 40
26.04
100
AcDbArc
 50
98.31001192998868
 51
110.4942851999907
  0
ARC
  5
17FA
330
36
100
AcDbEntity
  8
0
 62
     3
100
AcDbCircle
 10
-46.70646985000007
 20
160.6501886999999
 30
0.0
 40
26.04
100
AcDbArc
 50
249.5057147999946
 51
261.6899880699974
  0
ARC
  5
17FB
330
36
100
AcDbEntity
  8
0
 62
     3
100
AcDbCircle
 10
-41.36467397000024
 20
79.62212885999997
 30
0.0
 40
62.99999987
100
AcDbArc
 50
81.68998806999658
 51
98.31001192998868
  0
ARC
  5
17FC
330
36
100
AcDbEntity
  8
0
 62
     3
100
AcDbCircle
 10
-41.36467397000024
 20
197.22212886
 30
0.0
 40
62.99999987
100
AcDbArc
 50
261.6899880699974
 51
278.3100119300026
  0
ARC
  5
17FD
330
36
100
AcDbEntity
  8
0
 62
     3
100
AcDbCircle
 10
-41.36467397000024
 20
79.62212885999997
 30
0.0
 40
62.36999987
100
AcDbArc
 50
81.68998806999658
 51
98.31001192998868
  0
ARC
  5
17FE
330
36
100
AcDbEntity
  8
0
 62
     3
100
AcDbCircle
 10
-41.36467397000024
 20
197.22212886
 30
0.0
 40
62.36999987
100
AcDbArc
 50
261.6899880699974
 51
278.3100119300026
  0
ARC
  5
17FF
330
36
100
AcDbEntity
  8
0
 62
     3
100
AcDbCircle
 10
-36.02287810000007
 20
160.6501886999999
 30
0.0
 40
25.41
100
AcDbArc
 50
278.3100119300026
 51
290.4942851999912
  0
ARC
  5
1800
330
36
100
AcDbEntity
  8
0
 62
     3
100
AcDbCircle
 10
-36.02287810000007
 20
116.19406902
 30
0.0
 40
25.41
100
AcDbArc
 50
69.50571480000886
 51
81.68998806999658
  0
ARC
  5
1801
330
36
100
AcDbEntity
  8
0
 62
     3
100
AcDbCircle
 10
-27.71467397000015
 20
138.4221288599999
 30
0.0
 40
1.679999999999999
100
AcDbArc
 50
290.4942851999912
 51
69.50571480000886
  0
ARC
  5
1802
330
36
100
AcDbEntity
  8
0
 62
     3
100
AcDbCircle
 10
-55.0146739700001
 20
138.4221288599999
 30
0.0
 40
1.679999999999999
100
AcDbArc
 50
110.4942851999907
 51
249.5057147999946
  0
ARC
  5
1803
330
36
100
AcDbEntity
  8
0
 62
     3
100
AcDbCircle
 10
-46.70646985000007
 20
116.19406902
 30
0.0
 40
25.41
100
AcDbArc
 50
98.31001192998868
 51
110.4942851999907
  0
ARC
  5
1804
330
36
100
AcDbEntity
  8
0
 62
     3
100
AcDbCircle
 10
-46.70646985000007
 20
160.6501886999999
 30
0.0
 40
25.41
100
AcDbArc
 50
249.5057147999946
 51
261.6899880699974
  0
LINE
  5
1805
330
36
100
AcDbEntity
  8
0
 62
     3
100
AcDbLine
 10
-36.75471287000005
 20
136.34525248
 30
0.0
 11
-38.68422470000019
 21
136.34525248
 31
0.0
  0
LINE
  5
1806
330
36
100
AcDbEntity
  8
0
 62
     3
100
AcDbLine
 10
-36.75471287000005
 20
136.5568136199999
 30
0.0
 11
-36.75471287000005
 21
136.34525248
 31
0.0
  0
LINE
  5
1807
330
36
100
AcDbEntity
  8
0
 62
     3
100
AcDbLine
 10
-38.89118226000005
 20
140.49890652
 30
0.0
 11
-40.84344479000015
 21
140.49890652
 31
0.0
  0
LINE
  5
1808
330
36
100
AcDbEntity
  8
0
 62
     3
100
AcDbLine
 10
-38.89118226000005
 20
140.49890652
 30
0.0
 11
-38.89118226000005
 21
140.2874440999999
 31
0.0
  0
LINE
  5
1809
330
36
100
AcDbEntity
  8
0
 62
     3
100
AcDbLine
 10
-38.89118226000005
 20
136.5568136199999
 30
0.0
 11
-38.89118226000005
 21
136.34515377
 31
0.0
  0
LINE
  5
180A
330
36
100
AcDbEntity
  8
0
 62
     3
100
AcDbLine
 10
-38.89118226000005
 20
136.34515377
 30
0.0
 11
-40.84344479000015
 21
136.34515377
 31
0.0
  0
LINE
  5
180B
330
36
100
AcDbEntity
  8
0
 62
     3
100
AcDbLine
 10
-36.75471287000005
 20
140.49900524
 30
0.0
 11
-36.75471287000005
 21
140.2874440999999
 31
0.0
  0
LINE
  5
180C
330
36
100
AcDbEntity
  8
0
 62
     3
100
AcDbLine
 10
-36.75471287000005
 20
140.49900524
 30
0.0
 11
-38.68422470000019
 21
140.49900524
 31
0.0
  0
LINE
  5
180D
330
36
100
AcDbEntity
  8
0
 62
     3
100
AcDbLine
 10
-38.68422470000019
 20
140.49900524
 30
0.0
 11
-38.68422470000019
 21
140.2874440999999
 31
0.0
  0
LINE
  5
180E
330
36
100
AcDbEntity
  8
0
 62
     3
100
AcDbLine
 10
-36.5403548700001
 20
136.5568136199999
 30
0.0
 11
-36.5403548700001
 21
136.34525248
 31
0.0
  0
LINE
  5
180F
330
36
100
AcDbEntity
  8
0
 62
     3
100
AcDbLine
 10
-34.55605431000004
 20
136.34525248
 30
0.0
 11
-36.5403548700001
 21
136.34525248
 31
0.0
  0
LINE
  5
1810
330
36
100
AcDbEntity
  8
0
 62
     3
100
AcDbLine
 10
-35.04659093999999
 20
139.83123572
 30
0.0
 11
-35.04659093999999
 21
137.013022
 31
0.0
  0
LINE
  5
1811
330
36
100
AcDbEntity
  8
0
 62
     3
100
AcDbLine
 10
-35.04659093999999
 20
137.013022
 30
0.0
 11
-34.85654197000008
 21
137.013022
 31
0.0
  0
ARC
  5
1812
330
36
100
AcDbEntity
  8
0
 62
     3
100
AcDbCircle
 10
-35.82832771000017
 20
138.4221288599999
 30
0.0
 40
1.71170957
100
AcDbArc
 50
304.5919552700034
 51
55.40804472999656
  0
LINE
  5
1813
330
36
100
AcDbEntity
  8
0
 62
     3
100
AcDbLine
 10
-34.55605431000004
 20
140.49900524
 30
0.0
 11
-36.5403548700001
 21
140.49900524
 31
0.0
  0
LINE
  5
1814
330
36
100
AcDbEntity
  8
0
 62
     3
100
AcDbLine
 10
-36.5403548700001
 20
140.49900524
 30
0.0
 11
-36.5403548700001
 21
140.2874440999999
 31
0.0
  0
LINE
  5
1815
330
36
100
AcDbEntity
  8
0
 62
     3
100
AcDbLine
 10
-38.68422470000019
 20
136.5568136199999
 30
0.0
 11
-38.68422470000019
 21
136.34525248
 31
0.0
  0
LINE
  5
1816
330
36
100
AcDbEntity
  8
0
 62
     3
100
AcDbLine
 10
-35.04659093999999
 20
139.83123572
 30
0.0
 11
-34.85654197000008
 21
139.83123572
 31
0.0
  0
LINE
  5
1817
330
36
100
AcDbEntity
  8
0
 62
     3
100
AcDbLine
 10
-46.68975060000001
 20
136.5568136199999
 30
0.0
 11
-46.6897542900001
 21
136.34523271
 31
0.0
  0
LINE
  5
1818
330
36
100
AcDbEntity
  8
0
 62
     3
100
AcDbLine
 10
-48.61926613000014
 20
136.34527225
 30
0.0
 11
-46.6897542900001
 21
136.34523858
 31
0.0
  0
LINE
  5
1819
330
36
100
AcDbEntity
  8
0
 62
     3
100
AcDbLine
 10
-52.91564798000013
 20
136.34525248
 30
0.0
 11
-51.3763826500001
 21
136.34525248
 31
0.0
  0
ARC
  5
181A
330
36
100
AcDbEntity
  8
0
 62
     3
100
AcDbCircle
 10
-57.8975906600001
 20
138.4710354799999
 30
0.0
 40
14.71356563
100
AcDbArc
 50
353.8660061899952
 51
357.6940342600066
  0
LINE
  5
181B
330
36
100
AcDbEntity
  8
0
 62
     3
100
AcDbLine
 10
-44.18101079999996
 20
137.8826678299999
 30
0.0
 11
-43.19593991000011
 21
137.87902295
 31
0.0
  0
LINE
  5
181D
330
36
100
AcDbEntity
  8
0
 62
     3
100
AcDbLine
 10
-44.17703238000011
 20
138.95788257
 30
0.0
 11
-43.19196150000015
 21
138.9542377
 31
0.0
  0
ARC
  5
181E
330
36
100
AcDbEntity
  8
0
 62
     3
100
AcDbCircle
 10
-57.8975906600001
 20
138.4710354799999
 30
0.0
 40
14.71356563
100
AcDbArc
 50
1.881965739991514
 51
5.709993809994633
  0
LINE
  5
181F
330
36
100
AcDbEntity
  8
0
 62
     3
100
AcDbLine
 10
-46.68968180000002
 20
140.49898547
 30
0.0
 11
-46.6896854900001
 21
140.2874440999999
 31
0.0
  0
LINE
  5
1820
330
36
100
AcDbEntity
  8
0
 62
     3
100
AcDbLine
 10
-48.61919363000016
 20
140.49902501
 30
0.0
 11
-46.68968180000002
 21
140.4989913299999
 31
0.0
  0
LINE
  5
1821
330
36
100
AcDbEntity
  8
0
 62
     3
100
AcDbLine
 10
-48.61926244000006
 20
136.5568136199999
 30
0.0
 11
-48.61926613000014
 21
136.34527225
 31
0.0
  0
LINE
  5
1822
330
36
100
AcDbEntity
  8
0
 62
     3
100
AcDbLine
 10
-48.61919363000016
 20
140.49902501
 30
0.0
 11
-48.61919732000024
 21
140.2874440999999
 31
0.0
  0
LINE
  5
1823
330
36
100
AcDbEntity
  8
0
 62
     3
100
AcDbLine
 10
-51.3763826500001
 20
136.5568136199999
 30
0.0
 11
-51.3763826500001
 21
136.34525248
 31
0.0
  0
LINE
  5
1824
330
36
100
AcDbEntity
  8
0
 62
     3
100
AcDbLine
 10
-51.81213056000024
 20
138.7811405699999
 30
0.0
 11
-50.28970049999998
 21
136.34525248
 31
0.0
  0
LINE
  5
1825
330
36
100
AcDbEntity
  8
0
 62
     3
100
AcDbLine
 10
-50.28970049999998
 20
136.34525248
 30
0.0
 11
-49.27026778000004
 21
136.34525248
 31
0.0
  0
LINE
  5
1826
330
36
100
AcDbEntity
  8
0
 62
     3
100
AcDbLine
 10
-48.83451987000011
 20
140.49900524
 30
0.0
 11
-48.83451987000011
 21
140.2874440999999
 31
0.0
  0
LINE
  5
1827
330
36
100
AcDbEntity
  8
0
 62
     3
100
AcDbLine
 10
-50.37378520000014
 20
140.49900524
 30
0.0
 11
-48.83451987000011
 21
140.49900524
 31
0.0
  0
LINE
  5
1828
330
36
100
AcDbEntity
  8
0
 62
     3
100
AcDbLine
 10
-50.37378520000014
 20
140.49900524
 30
0.0
 11
-50.37378520000014
 21
140.2874440999999
 31
0.0
  0
LINE
  5
1829
330
36
100
AcDbEntity
  8
0
 62
     3
100
AcDbLine
 10
-49.93803729000001
 20
138.6176389
 30
0.0
 11
-51.17268396000008
 21
140.49900524
 31
0.0
  0
LINE
  5
182A
330
36
100
AcDbEntity
  8
0
 62
     3
100
AcDbLine
 10
-52.91564798000013
 20
140.49900524
 30
0.0
 11
-51.17268396000008
 21
140.49900524
 31
0.0
  0
LINE
  5
182B
330
36
100
AcDbEntity
  8
0
 62
     3
100
AcDbLine
 10
-42.9994336200002
 20
140.49890652
 30
0.0
 11
-41.04717108000023
 21
140.49890652
 31
0.0
  0
LINE
  5
182C
330
36
100
AcDbEntity
  8
0
 62
     3
100
AcDbLine
 10
-42.9994336200002
 20
140.2874440999999
 30
0.0
 11
-42.9994336200002
 21
140.49890652
 31
0.0
  0
LINE
  5
182D
330
36
100
AcDbEntity
  8
0
 62
     3
100
AcDbLine
 10
-42.9994336200002
 20
136.34515377
 30
0.0
 11
-42.9994336200002
 21
136.5568136199999
 31
0.0
  0
LINE
  5
182E
330
36
100
AcDbEntity
  8
0
 62
     3
100
AcDbLine
 10
-42.9994336200002
 20
136.34515377
 30
0.0
 11
-41.04717108000023
 21
136.34515377
 31
0.0
  0
LINE
  5
182F
330
36
100
AcDbEntity
  8
0
 62
     3
100
AcDbLine
 10
-40.84344479000015
 20
136.5568136199999
 30
0.0
 11
-40.84344479000015
 21
136.34515377
 31
0.0
  0
LINE
  5
1830
330
36
100
AcDbEntity
  8
0
 62
     3
100
AcDbLine
 10
-41.04717108000023
 20
136.5568136199999
 30
0.0
 11
-41.04717108000023
 21
136.34515377
 31
0.0
  0
LINE
  5
1831
330
36
100
AcDbEntity
  8
0
 62
     3
100
AcDbLine
 10
-41.04717108000023
 20
140.2874440999999
 30
0.0
 11
-41.04717108000023
 21
140.49890652
 31
0.0
  0
LINE
  5
1832
330
36
100
AcDbEntity
  8
0
 62
     3
100
AcDbLine
 10
-40.84344479000015
 20
140.2874440999999
 30
0.0
 11
-40.84344479000015
 21
140.49890652
 31
0.0
  0
LINE
  5
1833
330
36
100
AcDbEntity
  8
0
 62
     3
100
AcDbLine
 10
-52.91564798000013
 20
136.5568136199999
 30
0.0
 11
-52.91564798000013
 21
136.34525248
 31
0.0
  0
LINE
  5
1834
330
36
100
AcDbEntity
  8
0
 62
     3
100
AcDbLine
 10
-52.91564798000013
 20
140.49900524
 30
0.0
 11
-52.91564798000013
 21
140.2874440999999
 31
0.0
  0
ARC
  5
1835
330
36
100
AcDbEntity
  8
0
 62
     3
100
AcDbCircle
 10
-34.34605431
 20
138.8578767699999
 30
0.0
 40
1.641128469999999
100
AcDbArc
 50
17.30874897999775
 51
23.76507095999313
  0
ARC
  5
1836
330
36
100
AcDbEntity
  8
0
 62
     3
100
AcDbCircle
 10
-35.74432771000011
 20
138.4221288599999
 30
0.0
 40
3.105725599999998
100
AcDbArc
 50
342.6912510200022
 51
17.30856643999535
  0
ARC
  5
1837
330
36
100
AcDbEntity
  8
0
 62
     3
100
AcDbCircle
 10
-34.34605431
 20
137.98638096
 30
0.0
 40
1.641128469999999
100
AcDbArc
 50
336.2349290400069
 51
342.6912510200022
  0
ARC
  5
1838
330
36
100
AcDbEntity
  8
0
 62
     3
100
AcDbCircle
 10
-34.55605431000004
 20
138.8578767699999
 30
0.0
 40
1.641128469999999
100
AcDbArc
 50
17.30874897999775
 51
90.0
  0
ARC
  5
1839
330
36
100
AcDbEntity
  8
0
 62
     3
100
AcDbCircle
 10
-35.95432771000015
 20
138.4221288599999
 30
0.0
 40
3.105725599999998
100
AcDbArc
 50
342.6912510200022
 51
17.30856643999535
  0
ARC
  5
183A
330
36
100
AcDbEntity
  8
0
 62
     3
100
AcDbCircle
 10
-34.55605431000004
 20
137.98638096
 30
0.0
 40
1.641128469999999
100
AcDbArc
 50
270.0
 51
342.6912510200022
  0
ARC
  5
183B
330
36
100
AcDbEntity
  8
0
 62
     3
100
AcDbCircle
 10
-44.67999468000015
 20
138.4221288599999
 30
0.0
 40
2.076876379999998
100
AcDbArc
 50
46.75287960999258
 51
89.74999828999569
  0
ARC
  5
183C
330
36
100
AcDbEntity
  8
0
 62
     3
100
AcDbCircle
 10
-44.67999468000015
 20
138.4221288599999
 30
0.0
 40
2.076876379999998
100
AcDbArc
 50
273.976333149997
 51
312.8231203899972
  0
ARC
  5
183D
330
36
100
AcDbEntity
  8
0
 62
     3
100
AcDbCircle
 10
-33.23818674000018
 20
138.3900673299999
 30
0.0
 40
2.755888999999998
100
AcDbArc
 50
0.6665840599916574
 51
23.90392827000086
  0
ARC
  5
183E
330
36
100
AcDbEntity
  8
0
 62
     3
100
AcDbCircle
 10
-29.32262446000004
 20
138.3900673299999
 30
0.0
 40
2.755888999999998
100
AcDbArc
 50
156.096071729999
 51
179.3334159400083
  0
ARC
  5
183F
330
36
100
AcDbEntity
  8
0
 62
     3
100
AcDbCircle
 10
-33.23818674000018
 20
138.45419039
 30
0.0
 40
2.755888999999998
100
AcDbArc
 50
336.0960717299992
 51
359.3334159400084
  0
ARC
  5
1840
330
36
100
AcDbEntity
  8
0
 62
     3
100
AcDbCircle
 10
-29.32262446000004
 20
138.45419039
 30
0.0
 40
2.755888999999998
100
AcDbArc
 50
180.6665840599917
 51
203.903928270001
  0
LINE
  5
1841
330
36
100
AcDbEntity
  8
0
 62
     3
100
AcDbLine
 10
-24.67233737000015
 20
138.5
 30
0.0
 11
90.0
 21
138.5
 31
0.0
  0
LINE
  5
1842
330
36
100
AcDbEntity
  8
0
 62
     3
100
AcDbLine
 10
-58.08508389000007
 20
138.5
 30
0.0
 11
-90.0
 21
138.5
 31
0.0
  0
TEXT
  5
1843
330
36
100
AcDbEntity
  8
0
 62
     3
100
AcDbText
 10
77.5
 20
129.0
 30
0.0
 40
3.2
  1
担　当
  7
高3.2
100
AcDbText
  0
TEXT
  5
1844
330
36
100
AcDbEntity
  8
0
 62
     3
100
AcDbText
 10
33.5
 20
129.0
 30
0.0
 40
3.2
  1
変更・追記内容
  7
高3.2
100
AcDbText
  0
TEXT
  5
1845
330
36
100
AcDbEntity
  8
0
 62
     3
100
AcDbText
 10
8.613515000339246
 20
124.3294614900917
 30
0.0
 40
2.0
  1
1
  7
高2
100
AcDbText
  0
TEXT
  5
1846
330
36
100
AcDbEntity
  8
0
 62
     3
100
AcDbText
 10
8.305003523581945
 20
119.1596447778188
 30
0.0
 40
2.0
  1
2
  7
高2
100
AcDbText
  0
TEXT
  5
1847
330
36
100
AcDbEntity
  8
0
 62
     3
100
AcDbText
 10
15.5
 20
129.0
 30
0.0
 40
3.2
  1
日　付
  7
高3.2
100
AcDbText
  0
TEXT
  5
1848
330
36
100
AcDbEntity
  8
0
 62
     3
100
AcDbText
 10
15.5
 20
134.0
 30
0.0
 40
3.2
  1
図　　　　面　　　　略　　　　歴
  7
高3.2
100
AcDbText
  0
TEXT
  5
1849
330
36
100
AcDbEntity
  8
0
 62
     3
100
AcDbText
 10
5.5
 20
129.0
 30
0.0
 40
3.2
  1
記号
  7
高3.2
100
AcDbText
  0
LINE
  5
184A
330
36
100
AcDbEntity
  8
0
 62
     7
100
AcDbLine
 10
9.0
 20
122.2908960000001
 30
0.0
 11
7.099999999999909
 21
119.0
 31
0.0
  0
LINE
  5
184B
330
36
100
AcDbEntity
  8
0
 62
     7
100
AcDbLine
 10
9.0
 20
122.2908960000001
 30
0.0
 11
10.89999999999986
 21
119.0
 31
0.0
  0
LINE
  5
184C
330
36
100
AcDbEntity
  8
0
 62
     7
100
AcDbLine
 10
7.099999999999909
 20
119.0
 30
0.0
 11
10.89999999999986
 21
119.0
 31
0.0
  0
LINE
  5
184D
330
36
100
AcDbEntity
  8
0
 62
     7
100
AcDbLine
 10
9.0
 20
127.2908970000001
 30
0.0
 11
7.099999999999909
 21
124.0
 31
0.0
  0
LINE
  5
184E
330
36
100
AcDbEntity
  8
0
 62
     7
100
AcDbLine
 10
9.0
 20
127.2908970000001
 30
0.0
 11
10.89999999999986
 21
124.0
 31
0.0
  0
LINE
  5
184F
330
36
100
AcDbEntity
  8
0
 62
     7
100
AcDbLine
 10
7.099999999999909
 20
124.0
 30
0.0
 11
10.89999999999986
 21
124.0
 31
0.0
  0
LINE
  5
1850
330
36
100
AcDbEntity
  8
0
 62
     3
100
AcDbLine
 10
4.0
 20
133.5
 30
0.0
 11
90.0
 21
133.5
 31
0.0
  0
LINE
  5
1851
330
36
100
AcDbEntity
  8
0
 62
     3
100
AcDbLine
 10
4.0
 20
128.5
 30
0.0
 11
90.0
 21
128.5
 31
0.0
  0
LINE
  5
1852
330
36
100
AcDbEntity
  8
0
 62
     7
100
AcDbLine
 10
4.0
 20
123.5
 30
0.0
 11
90.0
 21
123.5
 31
0.0
  0
LINE
  5
1853
330
36
100
AcDbEntity
  8
0
 62
     3
100
AcDbLine
 10
4.0
 20
118.5
 30
0.0
 11
90.0
 21
118.5
 31
0.0
  0
LINE
  5
1854
330
36
100
AcDbEntity
  8
0
 62
     7
100
AcDbLine
 10
76.0
 20
118.5
 30
0.0
 11
76.0
 21
133.5
 31
0.0
  0
LINE
  5
1855
330
36
100
AcDbEntity
  8
0
 62
     7
100
AcDbLine
 10
32.0
 20
118.5
 30
0.0
 11
32.0
 21
133.5
 31
0.0
  0
LINE
  5
1856
330
36
100
AcDbEntity
  8
0
 62
     7
100
AcDbLine
 10
14.0
 20
118.5
 30
0.0
 11
14.0
 21
133.5
 31
0.0
  0
LINE
  5
1857
330
36
100
AcDbEntity
  8
0
 62
     3
100
AcDbLine
 10
4.0
 20
118.5
 30
0.0
 11
4.0
 21
138.5
 31
0.0
  0
LINE
  5
1BBC
330
36
100
AcDbEntity
  8
0
 62
     7
100
AcDbLine
 10
34.6164283769142
 20
72.72644588498611
 30
0.0
 11
30.8664283769142
 21
72.72644588498611
 31
0.0
  0
LINE
  5
1BBE
330
36
100
AcDbEntity
  8
0
 62
     3
100
AcDbLine
 10
35.1164283769142
 20
66.2264458849861
 30
0.0
 11
35.1164283769142
 21
79.22644588498609
 31
0.0
  0
LINE
  5
1BBF
330
36
100
AcDbEntity
  8
0
 62
     3
100
AcDbLine
 10
12.8664283769142
 20
80.1014458849861
 30
0.0
 11
-21.03597015646605
 21
80.1014458849861
 31
0.0
  0
LINE
  5
1BC0
330
36
100
AcDbEntity
  8
0
 62
     3
100
AcDbLine
 10
24.8664283769142
 20
65.3514458849861
 30
0.0
 11
-19.01848292832219
 21
65.3514458849861
 31
0.0
  0
LINE
  5
1BC1
330
36
100
AcDbEntity
  8
0
 62
     3
100
AcDbLine
 10
18.49582722992989
 20
73.22644588498611
 30
0.0
 11
-20.70643797631158
 21
73.22644588498611
 31
0.0
  0
LINE
  5
1BC2
330
36
100
AcDbEntity
  8
0
 62
     7
100
AcDbLine
 10
15.71087990290596
 20
74.72644588498609
 30
0.0
 11
-20.97783115505179
 21
74.72644588498609
 31
0.0
  0
LINE
  5
1BC3
330
36
100
AcDbEntity
  8
0
 62
     3
100
AcDbLine
 10
29.8664283769142
 20
80.85144588498611
 30
0.0
 11
12.8664283769142
 21
80.85144588498611
 31
0.0
  0
LINE
  5
1BC4
330
36
100
AcDbEntity
  8
0
 62
     3
100
AcDbLine
 10
29.8664283769142
 20
64.60144588498611
 30
0.0
 11
24.8664283769142
 21
64.60144588498611
 31
0.0
  0
LINE
  5
1BC5
330
36
100
AcDbEntity
  8
0
 62
     3
100
AcDbLine
 10
34.6164283769142
 20
79.67644588498611
 30
0.0
 11
29.8664283769142
 21
79.67644588498611
 31
0.0
  0
LINE
  5
1BC6
330
36
100
AcDbEntity
  8
0
 62
     3
100
AcDbLine
 10
34.6164283769142
 20
65.77644588498611
 30
0.0
 11
29.8664283769142
 21
65.77644588498611
 31
0.0
  0
LINE
  5
1BC7
330
36
100
AcDbEntity
  8
0
 62
     3
100
AcDbLine
 10
35.1164283769142
 20
79.22644588498609
 30
0.0
 11
34.6164283769142
 21
79.22644588498609
 31
0.0
  0
LINE
  5
1BC8
330
36
100
AcDbEntity
  8
0
 62
     3
100
AcDbLine
 10
34.6164283769142
 20
66.2264458849861
 30
0.0
 11
35.1164283769142
 21
66.2264458849861
 31
0.0
  0
LINE
  5
1BC9
330
36
100
AcDbEntity
  8
0
 62
     3
100
AcDbLine
 10
34.6164283769142
 20
65.77644588498611
 30
0.0
 11
34.6164283769142
 21
79.67644588498611
 31
0.0
  0
LINE
  5
1BCA
330
36
100
AcDbEntity
  8
0
 62
     3
100
AcDbLine
 10
29.8664283769142
 20
64.60144588498611
 30
0.0
 11
29.8664283769142
 21
80.85144588498611
 31
0.0
  0
LINE
  5
1BD3
330
36
100
AcDbEntity
  8
0
 62
     3
100
AcDbLine
 10
24.8664283769142
 20
64.60144588498611
 30
0.0
 11
24.8664283769142
 21
65.3514458849861
 31
0.0
  0
LINE
  5
1BD4
330
36
100
AcDbEntity
  8
0
 62
     3
100
AcDbLine
 10
12.8664283769142
 20
80.1014458849861
 30
0.0
 11
12.8664283769142
 21
80.85144588498611
 31
0.0
  0
ARC
  5
1BD7
330
36
100
AcDbEntity
  8
0
 62
     3
100
AcDbCircle
 10
12.79632067234081
 20
62.10144588498611
 30
0.0
 40
12.5
100
AcDbArc
 50
15.07006214488819
 51
67.81457302772182
  0
ARC
  5
1BE1
330
36
100
AcDbEntity
  8
0
 62
     3
100
AcDbCircle
 10
20.34842631036668
 20
80.62077903799405
 30
0.0
 40
7.500000000000017
100
AcDbArc
 50
183.9705903894493
 51
247.8145730277219
  0
CIRCLE
  5
1BE5
330
36
100
AcDbEntity
  8
0
 62
     7
100
AcDbCircle
 10
68.68765139121659
 20
72.72644588498611
 30
0.0
 40
6.5
  0
CIRCLE
  5
1BE6
330
36
100
AcDbEntity
  8
0
 62
     3
100
AcDbCircle
 10
68.68765139121659
 20
72.72644588498611
 30
0.0
 40
6.95
  0
CIRCLE
  5
1CBC
330
36
100
AcDbEntity
  8
0
 62
     7
100
AcDbCircle
 10
71.86265139121676
 20
72.72644588498611
 30
0.0
 40
0.5875
  0
CIRCLE
  5
1CBF
330
36
100
AcDbEntity
  8
0
 62
     7
100
AcDbCircle
 10
65.51265139121674
 20
72.72644588498611
 30
0.0
 40
0.5875
  0
LINE
  5
1CC0
330
36
100
AcDbEntity
  8
0
 62
     7
100
AcDbLine
 10
38.3664283769142
 20
73.31394588498614
 30
0.0
 11
35.1164283769142
 21
73.31394588498614
 31
0.0
  0
LINE
  5
1CC1
330
36
100
AcDbEntity
  8
0
 62
     7
100
AcDbLine
 10
38.3664283769142
 20
72.13894588498613
 30
0.0
 11
35.1164283769142
 21
72.13894588498613
 31
0.0
  0
LINE
  5
1CC7
330
36
100
AcDbEntity
  8
0
 62
     7
100
AcDbLine
 10
38.3664283769142
 20
73.31394588498614
 30
0.0
 11
38.8664283769142
 21
73.10144588498609
 31
0.0
  0
LINE
  5
1CC8
330
36
100
AcDbEntity
  8
0
 62
     7
100
AcDbLine
 10
38.8664283769142
 20
73.10144588498609
 30
0.0
 11
38.8664283769142
 21
72.35144588498609
 31
0.0
  0
LINE
  5
1CC9
330
36
100
AcDbEntity
  8
0
 62
     7
100
AcDbLine
 10
38.8664283769142
 20
72.35144588498609
 30
0.0
 11
38.3664283769142
 21
72.13894588498613
 31
0.0
  0
LINE
  5
1CCA
330
36
100
AcDbEntity
  8
0
 62
     7
100
AcDbLine
 10
38.3664283769142
 20
72.13894588498613
 30
0.0
 11
38.3664283769142
 21
73.31394588498614
 31
0.0
  0
ARC
  5
1CCB
330
36
100
AcDbEntity
  8
0
 62
     7
100
AcDbCircle
 10
68.68765139121659
 20
72.72644588498611
 30
0.0
 40
2.0
100
AcDbArc
 50
30.00000000000024
 51
149.9999999999997
  0
ARC
  5
1CCC
330
36
100
AcDbEntity
  8
0
 62
     7
100
AcDbCircle
 10
68.68765139121659
 20
72.72644588498611
 30
0.0
 40
2.75
100
AcDbArc
 50
30.00000000000024
 51
149.9999999999997
  0
LINE
  5
1CCD
330
36
100
AcDbEntity
  8
0
 62
     7
100
AcDbLine
 10
66.30608153080935
 20
71.35144588498611
 30
0.0
 11
66.95560058364764
 21
71.72644588498609
 31
0.0
  0
LINE
  5
1CCE
330
36
100
AcDbEntity
  8
0
 62
     7
100
AcDbLine
 10
71.06922125162383
 20
71.35144588498611
 30
0.0
 11
70.41970219878554
 21
71.72644588498609
 31
0.0
  0
ARC
  5
1CCF
330
36
100
AcDbEntity
  8
0
 62
     7
100
AcDbCircle
 10
68.68765139121659
 20
72.72644588498611
 30
0.0
 40
2.75
100
AcDbArc
 50
210.0000000000003
 51
329.9999999999998
  0
ARC
  5
1CD0
330
36
100
AcDbEntity
  8
0
 62
     7
100
AcDbCircle
 10
68.68765139121659
 20
72.72644588498611
 30
0.0
 40
2.0
100
AcDbArc
 50
210.0000000000003
 51
329.9999999999998
  0
LINE
  5
1CD1
330
36
100
AcDbEntity
  8
0
 62
     7
100
AcDbLine
 10
66.95560058364764
 20
73.72644588498609
 30
0.0
 11
66.30608153080935
 21
74.10144588498609
 31
0.0
  0
LINE
  5
1CD2
330
36
100
AcDbEntity
  8
0
 62
     7
100
AcDbLine
 10
70.41970219878554
 20
73.72644588498609
 30
0.0
 11
71.06922125162383
 21
74.10144588498609
 31
0.0
  0
ARC
  5
1CD7
330
36
100
AcDbEntity
  8
0
 62
     7
100
AcDbCircle
 10
68.6876513912166
 20
72.72644588498612
 30
0.0
 40
4.5
100
AcDbArc
 50
235.6660549148104
 51
265.2198081527986
  0
ARC
  5
1CDC
330
36
100
AcDbEntity
  8
0
 62
     7
100
AcDbCircle
 10
68.68765139121649
 20
76.15870994852237
 30
0.0
 40
7.307264063536227
100
AcDbArc
 50
250.9973143905484
 51
267.0583573717932
  0
LINE
  5
1CDD
330
36
100
AcDbEntity
  8
0
 62
     7
100
AcDbLine
 10
68.31265139121661
 20
68.86107450310245
 30
0.0
 11
68.31265139121661
 21
68.24209810632307
 31
0.0
  0
LINE
  5
1CDE
330
36
100
AcDbEntity
  8
0
 62
     7
100
AcDbLine
 10
69.06265139121662
 20
68.86107450310245
 30
0.0
 11
69.06265139121662
 21
68.24209810632307
 31
0.0
  0
ARC
  5
1CE6
330
36
100
AcDbEntity
  8
0
 62
     7
100
AcDbCircle
 10
68.6876513912166
 20
83.04835792322581
 30
0.0
 40
13.82191203823974
100
AcDbArc
 50
256.4004845047559
 51
260.5466751936782
  0
ARC
  5
1CE7
330
36
100
AcDbEntity
  8
0
 62
     7
100
AcDbCircle
 10
68.68765139121649
 20
71.23189930802709
 30
0.0
 40
3.63045342304106
100
AcDbArc
 50
206.4652284522168
 51
222.2975409023833
  0
LINE
  5
1CEC
330
36
100
AcDbEntity
  8
0
 62
     7
100
AcDbLine
 10
71.37295249588591
 20
68.78867397373388
 30
0.0
 11
71.22572057798254
 21
69.0105065954943
 31
0.0
  0
LINE
  5
1CED
330
36
100
AcDbEntity
  8
0
 62
     7
100
AcDbLine
 10
66.00235028654731
 20
68.78867397373371
 30
0.0
 11
66.14958220445068
 21
69.01050659549418
 31
0.0
  0
ARC
  5
1CEE
330
36
100
AcDbEntity
  8
0
 62
     7
100
AcDbCircle
 10
68.6876513912166
 20
83.04835792322581
 30
0.0
 40
13.82191203823974
100
AcDbArc
 50
279.4533248063217
 51
283.5995154952442
  0
ARC
  5
1CEF
330
36
100
AcDbEntity
  8
0
 62
     7
100
AcDbCircle
 10
68.68765139121649
 20
71.23189930802709
 30
0.0
 40
3.63045342304106
100
AcDbArc
 50
317.7024590976167
 51
333.5347715477832
  0
LINE
  5
1CF0
330
36
100
AcDbEntity
  8
0
 62
     7
100
AcDbLine
 10
66.30831506764582
 20
69.24966755803258
 30
0.0
 11
66.4174840593929
 21
69.41415121075603
 31
0.0
  0
LINE
  5
1CF1
330
36
100
AcDbEntity
  8
0
 62
     7
100
AcDbLine
 10
71.06698771478737
 20
69.24966755803258
 30
0.0
 11
70.95781872304029
 21
69.41415121075603
 31
0.0
  0
ARC
  5
1CF2
330
36
100
AcDbEntity
  8
0
 62
     7
100
AcDbCircle
 10
68.68765139121649
 20
76.15870994852237
 30
0.0
 40
7.307264063536227
100
AcDbArc
 50
272.9416426282067
 51
289.0026856094516
  0
ARC
  5
1CF3
330
36
100
AcDbEntity
  8
0
 62
     7
100
AcDbCircle
 10
68.6876513912166
 20
72.72644588498612
 30
0.0
 40
4.5
100
AcDbArc
 50
274.7801918472013
 51
304.3339450851896
  0
LINE
  5
1CF4
330
36
100
AcDbEntity
  8
0
 62
     7
100
AcDbLine
 10
62.9376513912166
 20
72.72644588498612
 30
0.0
 11
62.4376513912166
 21
72.72644588498612
 31
0.0
  0
LINE
  5
1CF5
330
36
100
AcDbEntity
  8
0
 62
     7
100
AcDbLine
 10
63.13357789005443
 20
71.23823637564659
 30
0.0
 11
62.65061497690989
 21
71.10882685309538
 31
0.0
  0
LINE
  5
1CF6
330
36
100
AcDbEntity
  8
0
 62
     7
100
AcDbLine
 10
63.70800531945599
 20
69.85144588498613
 30
0.0
 11
63.27499261756384
 21
69.60144588498612
 31
0.0
  0
LINE
  5
1CF7
330
36
100
AcDbEntity
  8
0
 62
     7
100
AcDbLine
 10
64.62178739939395
 20
68.66058189316345
 30
0.0
 11
64.26823400880076
 21
68.30702850257019
 31
0.0
  0
LINE
  5
1CF8
330
36
100
AcDbEntity
  8
0
 62
     7
100
AcDbLine
 10
65.81265139121661
 20
67.74679981322556
 30
0.0
 11
65.5626513912166
 21
67.31378711133335
 31
0.0
  0
LINE
  5
1CF9
330
36
100
AcDbEntity
  8
0
 62
     7
100
AcDbLine
 10
67.19944188187708
 20
67.17237238382394
 30
0.0
 11
67.07003235932585
 21
66.68940947067946
 31
0.0
  0
LINE
  5
1CFA
330
36
100
AcDbEntity
  8
0
 62
     7
100
AcDbLine
 10
68.6876513912166
 20
66.97644588498613
 30
0.0
 11
68.6876513912166
 21
66.47644588498612
 31
0.0
  0
LINE
  5
1CFB
330
36
100
AcDbEntity
  8
0
 62
     7
100
AcDbLine
 10
70.17586090055613
 20
67.17237238382394
 30
0.0
 11
70.30527042310734
 21
66.68940947067939
 31
0.0
  0
LINE
  5
1CFC
330
36
100
AcDbEntity
  8
0
 62
     7
100
AcDbLine
 10
71.56265139121662
 20
67.74679981322556
 30
0.0
 11
71.81265139121649
 21
67.31378711133335
 31
0.0
  0
LINE
  5
1CFD
330
36
100
AcDbEntity
  8
0
 62
     7
100
AcDbLine
 10
72.75351538303927
 20
68.66058189316345
 30
0.0
 11
73.10706877363249
 21
68.30702850257019
 31
0.0
  0
LINE
  5
1CFE
330
36
100
AcDbEntity
  8
0
 62
     7
100
AcDbLine
 10
73.66729746297711
 20
69.85144588498613
 30
0.0
 11
74.10031016486927
 21
69.60144588498606
 31
0.0
  0
LINE
  5
1CFF
330
36
100
AcDbEntity
  8
0
 62
     7
100
AcDbLine
 10
74.24172489237881
 20
71.23823637564666
 30
0.0
 11
74.72468780552334
 21
71.10882685309538
 31
0.0
  0
LINE
  5
1D00
330
36
100
AcDbEntity
  8
0
 62
     7
100
AcDbLine
 10
74.43765139121659
 20
72.72644588498612
 30
0.0
 11
74.93765139121659
 21
72.72644588498612
 31
0.0
  0
LINE
  5
1D22
330
36
100
AcDbEntity
  8
0
 62
     3
100
AcDbLine
 10
75.93765139121659
 20
71.85144588498609
 30
0.0
 11
75.93765139121659
 21
73.60144588498609
 31
0.0
  0
LINE
  5
1D23
330
36
100
AcDbEntity
  8
0
 62
     3
100
AcDbLine
 10
61.43765139121659
 20
73.60144588498609
 30
0.0
 11
61.43765139121659
 21
71.85144588498609
 31
0.0
  0
ARC
  5
1D24
330
36
100
AcDbEntity
  8
0
 62
     3
100
AcDbCircle
 10
68.6876513912167
 20
73.60144588498609
 30
0.0
 40
7.249999999999943
100
AcDbArc
 50
0.0
 51
180.0
  0
ARC
  5
1D25
330
36
100
AcDbEntity
  8
0
 62
     3
100
AcDbCircle
 10
68.68765139121659
 20
71.85144588498609
 30
0.0
 40
7.25
100
AcDbArc
 50
180.0
 51
0.0
  0
LINE
  5
1D26
330
36
100
AcDbEntity
  8
0
 62
     7
100
AcDbLine
 10
26.8664283769142
 20
72.60144588498611
 30
0.0
 11
26.8664283769142
 21
72.85144588498615
 31
0.0
  0
LINE
  5
1D27
330
36
100
AcDbEntity
  8
0
 62
     7
100
AcDbLine
 10
28.3664283769142
 20
74.52388013356227
 30
0.0
 11
28.3664283769142
 21
74.77295763880409
 31
0.0
  0
LINE
  5
1D28
330
36
100
AcDbEntity
  8
0
 62
     7
100
AcDbLine
 10
61.58765139121658
 20
72.85144588498609
 30
0.0
 11
61.43765139121659
 21
72.85144588498609
 31
0.0
  0
LINE
  5
1D29
330
36
100
AcDbEntity
  8
0
 62
     7
100
AcDbLine
 10
61.58765139121658
 20
72.60144588498611
 30
0.0
 11
61.43765139121659
 21
72.60144588498611
 31
0.0
  0
LINE
  5
1D2B
330
36
100
AcDbEntity
  8
0
 62
     7
100
AcDbLine
 10
61.58765139121658
 20
72.85144588498609
 30
0.0
 11
61.58765139121658
 21
72.60144588498611
 31
0.0
  0
LINE
  5
1D42
330
36
100
AcDbEntity
  8
0
 62
     7
100
AcDbLine
 10
61.64280456560877
 20
74.4846973801574
 30
0.0
 11
61.49657253912128
 21
74.52388013356227
 31
0.0
  0
LINE
  5
1D43
330
36
100
AcDbEntity
  8
0
 62
     7
100
AcDbLine
 10
61.67855285509834
 20
74.73393769996039
 30
0.0
 11
61.53292846082546
 21
74.77295763880409
 31
0.0
  0
LINE
  5
1D44
330
36
100
AcDbEntity
  8
0
 62
     7
100
AcDbLine
 10
62.14519693662325
 20
76.35939615820905
 30
0.0
 11
62.01429850125963
 21
76.43497040510272
 31
0.0
  0
LINE
  5
1D45
330
36
100
AcDbEntity
  8
0
 62
     7
100
AcDbLine
 10
62.24695311320872
 20
76.58932233686051
 30
0.0
 11
62.11654110406119
 21
76.6646157454474
 31
0.0
  0
LINE
  5
1D46
330
36
100
AcDbEntity
  8
0
 62
     7
100
AcDbLine
 10
63.16892402695575
 20
78.06839655395015
 30
0.0
 11
63.0622835166158
 21
78.17503706429022
 31
0.0
  0
LINE
  5
1D47
330
36
100
AcDbEntity
  8
0
 62
     7
100
AcDbLine
 10
63.33023453109341
 20
78.26063944040602
 30
0.0
 11
63.22391648253493
 21
78.36695748896443
 31
0.0
  0
LINE
  5
1D48
330
36
100
AcDbEntity
  8
0
 62
     7
100
AcDbLine
 10
64.66167070396918
 20
79.44964898558976
 30
0.0
 11
64.58643913089405
 21
79.57995389248925
 31
0.0
  0
LINE
  5
1D49
330
36
100
AcDbEntity
  8
0
 62
     7
100
AcDbLine
 10
64.87045871984935
 20
79.58801753407373
 30
0.0
 11
64.79538747499089
 21
79.71804474435606
 31
0.0
  0
LINE
  5
1D4A
330
36
100
AcDbEntity
  8
0
 62
     7
100
AcDbLine
 10
66.51279834557304
 20
80.36014503717911
 30
0.0
 11
66.47392882157451
 21
80.5052080756077
 31
0.0
  0
LINE
  5
1D4B
330
36
100
AcDbEntity
  8
0
 62
     7
100
AcDbLine
 10
66.75221456148652
 20
80.43255738152339
 30
0.0
 11
66.71338782167037
 21
80.57746074720951
 31
0.0
  0
LINE
  5
1D4C
330
36
100
AcDbEntity
  8
0
 62
     7
100
AcDbLine
 10
68.56265139121648
 20
80.70034544759437
 30
0.0
 11
68.56265139121659
 21
80.85036821868504
 31
0.0
  0
LINE
  5
1D4D
330
36
100
AcDbEntity
  8
0
 62
     7
100
AcDbLine
 10
68.81265139121648
 20
80.70034544759437
 30
0.0
 11
68.81265139121659
 21
80.85036821868504
 31
0.0
  0
ARC
  5
1D4E
330
36
100
AcDbEntity
  8
0
 62
     7
100
AcDbCircle
 10
68.6876513912167
 20
73.60144588498609
 30
0.0
 40
7.099999999999942
100
AcDbArc
 50
88.99121936954307
 51
91.00878063046335
  0
ARC
  5
1D4F
330
36
100
AcDbEntity
  8
0
 62
     7
100
AcDbCircle
 10
68.6876513912167
 20
73.60144588498609
 30
0.0
 40
7.099999999999942
100
AcDbArc
 50
105.8188464146111
 51
107.8374352183631
  0
ARC
  5
1D50
330
36
100
AcDbEntity
  8
0
 62
     7
100
AcDbCircle
 10
68.6876513912167
 20
73.60144588498609
 30
0.0
 40
7.099999999999942
100
AcDbArc
 50
122.522636220707
 51
124.5440403508848
  0
ARC
  5
1D51
330
36
100
AcDbEntity
  8
0
 62
     7
100
AcDbCircle
 10
68.6876513912167
 20
73.60144588498609
 30
0.0
 40
7.099999999999942
100
AcDbArc
 50
138.9874408518802
 51
141.0127099031925
  0
ARC
  5
1D52
330
36
100
AcDbEntity
  8
0
 62
     7
100
AcDbCircle
 10
68.6876513912167
 20
73.60144588498609
 30
0.0
 40
7.099999999999942
100
AcDbArc
 50
155.1131472593117
 51
157.1423034954314
  0
ARC
  5
1D53
330
36
100
AcDbEntity
  8
0
 62
     7
100
AcDbCircle
 10
68.6876513912167
 20
73.60144588498609
 30
0.0
 40
7.099999999999942
100
AcDbArc
 50
170.8217825497487
 51
172.853798641073
  0
LINE
  5
1D58
330
36
100
AcDbEntity
  8
0
 62
     7
100
AcDbLine
 10
75.78765139121661
 20
72.85144588498609
 30
0.0
 11
75.78765139121661
 21
72.60144588498611
 31
0.0
  0
LINE
  5
1D59
330
36
100
AcDbEntity
  8
0
 62
     7
100
AcDbLine
 10
75.78765139121661
 20
72.60144588498611
 30
0.0
 11
75.93765139121659
 21
72.60144588498611
 31
0.0
  0
LINE
  5
1D5A
330
36
100
AcDbEntity
  8
0
 62
     7
100
AcDbLine
 10
75.78765139121661
 20
72.85144588498609
 30
0.0
 11
75.93765139121659
 21
72.85144588498609
 31
0.0
  0
ARC
  5
1D5B
330
36
100
AcDbEntity
  8
0
 62
     7
100
AcDbCircle
 10
68.68765139121648
 20
73.60144588498609
 30
0.0
 40
7.099999999999942
100
AcDbArc
 50
7.146201358926992
 51
9.178217450251286
  0
ARC
  5
1D5C
330
36
100
AcDbEntity
  8
0
 62
     7
100
AcDbCircle
 10
68.68765139121648
 20
73.60144588498609
 30
0.0
 40
7.099999999999942
100
AcDbArc
 50
22.85769650456179
 51
24.88685274068141
  0
ARC
  5
1D5D
330
36
100
AcDbEntity
  8
0
 62
     7
100
AcDbCircle
 10
68.68765139121648
 20
73.60144588498609
 30
0.0
 40
7.099999999999942
100
AcDbArc
 50
38.98729009680806
 51
41.01255914811971
  0
ARC
  5
1D5E
330
36
100
AcDbEntity
  8
0
 62
     7
100
AcDbCircle
 10
68.68765139121648
 20
73.60144588498609
 30
0.0
 40
7.099999999999942
100
AcDbArc
 50
55.45595964910625
 51
57.477363779293
  0
ARC
  5
1D5F
330
36
100
AcDbEntity
  8
0
 62
     7
100
AcDbCircle
 10
68.68765139121648
 20
73.60144588498609
 30
0.0
 40
7.099999999999942
100
AcDbArc
 50
72.16256478163057
 51
74.1811535853825
  0
LINE
  5
1D60
330
36
100
AcDbEntity
  8
0
 62
     7
100
AcDbLine
 10
70.62308822094665
 20
80.43255738152339
 30
0.0
 11
70.66191496076282
 21
80.57746074720951
 31
0.0
  0
LINE
  5
1D61
330
36
100
AcDbEntity
  8
0
 62
     7
100
AcDbLine
 10
70.86250443686012
 20
80.36014503717911
 30
0.0
 11
70.90137396085866
 21
80.5052080756077
 31
0.0
  0
LINE
  5
1D62
330
36
100
AcDbEntity
  8
0
 62
     7
100
AcDbLine
 10
72.50484406258384
 20
79.58801753407373
 30
0.0
 11
72.57991530744231
 21
79.71804474435606
 31
0.0
  0
LINE
  5
1D63
330
36
100
AcDbEntity
  8
0
 62
     7
100
AcDbLine
 10
72.71363207846398
 20
79.44964898558976
 30
0.0
 11
72.78886365153913
 21
79.57995389248925
 31
0.0
  0
LINE
  5
1D64
330
36
100
AcDbEntity
  8
0
 62
     7
100
AcDbLine
 10
74.04506825133977
 20
78.26063944040602
 30
0.0
 11
74.15138629989825
 21
78.36695748896443
 31
0.0
  0
LINE
  5
1D65
330
36
100
AcDbEntity
  8
0
 62
     7
100
AcDbLine
 10
74.20637875547742
 20
78.06839655395015
 30
0.0
 11
74.31301926581737
 21
78.17503706429022
 31
0.0
  0
LINE
  5
1D66
330
36
100
AcDbEntity
  8
0
 62
     7
100
AcDbLine
 10
75.12834966922445
 20
76.58932233686051
 30
0.0
 11
75.25876167837201
 21
76.6646157454474
 31
0.0
  0
LINE
  5
1D67
330
36
100
AcDbEntity
  8
0
 62
     7
100
AcDbLine
 10
75.2301058458099
 20
76.35939615820905
 30
0.0
 11
75.36100428117355
 21
76.43497040510272
 31
0.0
  0
LINE
  5
1D68
330
36
100
AcDbEntity
  8
0
 62
     7
100
AcDbLine
 10
75.69674992733482
 20
74.73393769996039
 30
0.0
 11
75.84237432160772
 21
74.77295763880409
 31
0.0
  0
LINE
  5
1D69
330
36
100
AcDbEntity
  8
0
 62
     7
100
AcDbLine
 10
75.73249821682438
 20
74.4846973801574
 30
0.0
 11
75.87873024331189
 21
74.52388013356227
 31
0.0
  0
LINE
  5
1D6A
330
36
100
AcDbEntity
  8
0
 62
     7
100
AcDbLine
 10
26.8664283769142
 20
72.85144588498609
 30
0.0
 11
29.8664283769142
 21
72.85144588498609
 31
0.0
  0
LINE
  5
1D6B
330
36
100
AcDbEntity
  8
0
 62
     7
100
AcDbLine
 10
26.8664283769142
 20
72.60144588498611
 30
0.0
 11
29.8664283769142
 21
72.60144588498611
 31
0.0
  0
LINE
  5
1D6C
330
36
100
AcDbEntity
  8
0
 62
     7
100
AcDbLine
 10
28.3664283769142
 20
74.52388013356227
 30
0.0
 11
29.8664283769142
 21
74.52388013356227
 31
0.0
  0
LINE
  5
1D6D
330
36
100
AcDbEntity
  8
0
 62
     7
100
AcDbLine
 10
28.3664283769142
 20
74.77295763880409
 30
0.0
 11
29.8664283769142
 21
74.77295763880409
 31
0.0
  0
LINE
  5
1D6F
330
36
100
AcDbEntity
  8
0
 62
     7
100
AcDbLine
 10
26.8664283769142
 20
76.43497040510272
 30
0.0
 11
29.8664283769142
 21
76.43497040510272
 31
0.0
  0
LINE
  5
1D70
330
36
100
AcDbEntity
  8
0
 62
     7
100
AcDbLine
 10
26.8664283769142
 20
76.6646157454474
 30
0.0
 11
29.8664283769142
 21
76.6646157454474
 31
0.0
  0
LINE
  5
1D72
330
36
100
AcDbEntity
  8
0
 62
     7
100
AcDbLine
 10
28.3664283769142
 20
78.17503706429022
 30
0.0
 11
29.8664283769142
 21
78.17503706429022
 31
0.0
  0
LINE
  5
1D73
330
36
100
AcDbEntity
  8
0
 62
     7
100
AcDbLine
 10
28.3664283769142
 20
78.36695748896443
 30
0.0
 11
29.8664283769142
 21
78.36695748896443
 31
0.0
  0
LINE
  5
1D74
330
36
100
AcDbEntity
  8
0
 62
     7
100
AcDbLine
 10
26.8664283769142
 20
79.57995389248925
 30
0.0
 11
29.8664283769142
 21
79.57995389248925
 31
0.0
  0
LINE
  5
1D75
330
36
100
AcDbEntity
  8
0
 62
     7
100
AcDbLine
 10
26.8664283769142
 20
79.71804474435612
 30
0.0
 11
29.8664283769142
 21
79.71804474435612
 31
0.0
  0
LINE
  5
1D76
330
36
100
AcDbEntity
  8
0
 62
     7
100
AcDbLine
 10
28.3664283769142
 20
80.5052080756077
 30
0.0
 11
29.8664283769142
 21
80.5052080756077
 31
0.0
  0
LINE
  5
1D77
330
36
100
AcDbEntity
  8
0
 62
     7
100
AcDbLine
 10
28.3664283769142
 20
80.56991283688336
 30
0.0
 11
29.8664283769142
 21
80.56991283688336
 31
0.0
  0
LINE
  5
1D78
330
36
100
AcDbEntity
  8
0
 62
     7
100
AcDbLine
 10
29.8664283769142
 20
80.85036821868504
 30
0.0
 11
26.8664283769142
 21
80.85036821868504
 31
0.0
  0
LINE
  5
1D79
330
36
100
AcDbEntity
  8
0
 62
     7
100
AcDbLine
 10
26.8664283769142
 20
76.43497040510272
 30
0.0
 11
26.8664283769142
 21
76.6646157454474
 31
0.0
  0
LINE
  5
1D7A
330
36
100
AcDbEntity
  8
0
 62
     7
100
AcDbLine
 10
28.3664283769142
 20
78.17503706429022
 30
0.0
 11
28.3664283769142
 21
78.36695748896443
 31
0.0
  0
LINE
  5
1D7B
330
36
100
AcDbEntity
  8
0
 62
     7
100
AcDbLine
 10
26.8664283769142
 20
79.57995389248925
 30
0.0
 11
26.8664283769142
 21
79.71804474435612
 31
0.0
  0
LINE
  5
1D7C
330
36
100
AcDbEntity
  8
0
 62
     7
100
AcDbLine
 10
28.3664283769142
 20
80.5052080756077
 30
0.0
 11
28.3664283769142
 21
80.56991283688336
 31
0.0
  0
LINE
  5
1D7D
330
36
100
AcDbEntity
  8
0
 62
     7
100
AcDbLine
 10
26.8664283769142
 20
80.85036821868504
 30
0.0
 11
26.8664283769142
 21
80.85144588498611
 31
0.0
  0
LINE
  5
1D9D
330
36
100
AcDbEntity
  8
0
 62
     7
100
AcDbLine
 10
34.6164283769142
 20
73.56429762089645
 30
0.0
 11
30.8664283769142
 21
73.56429762089645
 31
0.0
  0
LINE
  5
1D9E
330
36
100
AcDbEntity
  8
0
 62
     7
100
AcDbLine
 10
34.6164283769142
 20
73.14537175294129
 30
0.0
 11
30.8664283769142
 21
73.14537175294129
 31
0.0
  0
LINE
  5
1D9F
330
36
100
AcDbEntity
  8
0
 62
     7
100
AcDbLine
 10
34.6164283769142
 20
72.30673717568402
 30
0.0
 11
30.8664283769142
 21
72.30673717568402
 31
0.0
  0
LINE
  5
1DA0
330
36
100
AcDbEntity
  8
0
 62
     7
100
AcDbLine
 10
34.6164283769142
 20
71.88859414907574
 30
0.0
 11
30.8664283769142
 21
71.88859414907574
 31
0.0
  0
LINE
  5
1DA1
330
36
100
AcDbEntity
  8
0
 62
     7
100
AcDbLine
 10
34.6164283769142
 20
78.2170650165612
 30
0.0
 11
30.8664283769142
 21
78.2170650165612
 31
0.0
  0
LINE
  5
1DA2
330
36
100
AcDbEntity
  8
0
 62
     7
100
AcDbLine
 10
34.6164283769142
 20
78.44871777628259
 30
0.0
 11
30.8664283769142
 21
78.44871777628259
 31
0.0
  0
LINE
  5
1DA3
330
36
100
AcDbEntity
  8
0
 62
     7
100
AcDbLine
 10
34.6164283769142
 20
78.65818071026019
 30
0.0
 11
30.8664283769142
 21
78.65818071026019
 31
0.0
  0
LINE
  5
1DA4
330
36
100
AcDbEntity
  8
0
 62
     7
100
AcDbLine
 10
34.6164283769142
 20
78.87911962099997
 30
0.0
 11
30.8664283769142
 21
78.87911962099997
 31
0.0
  0
LINE
  5
1DA5
330
36
100
AcDbEntity
  8
0
 62
     7
100
AcDbLine
 10
34.6164283769142
 20
79.04311287862238
 30
0.0
 11
30.8664283769142
 21
79.04311287862238
 31
0.0
  0
LINE
  5
1DA6
330
36
100
AcDbEntity
  8
0
 62
     7
100
AcDbLine
 10
34.6164283769142
 20
67.23582675341106
 30
0.0
 11
30.8664283769142
 21
67.23582675341106
 31
0.0
  0
LINE
  5
1DA7
330
36
100
AcDbEntity
  8
0
 62
     7
100
AcDbLine
 10
34.6164283769142
 20
66.99348085827444
 30
0.0
 11
30.8664283769142
 21
66.99348085827444
 31
0.0
  0
LINE
  5
1DA8
330
36
100
AcDbEntity
  8
0
 62
     7
100
AcDbLine
 10
34.6164283769142
 20
66.77252123396818
 30
0.0
 11
30.8664283769142
 21
66.77252123396818
 31
0.0
  0
LINE
  5
1DA9
330
36
100
AcDbEntity
  8
0
 62
     7
100
AcDbLine
 10
34.6164283769142
 20
66.58524812573443
 30
0.0
 11
30.8664283769142
 21
66.58524812573443
 31
0.0
  0
LINE
  5
1DAA
330
36
100
AcDbEntity
  8
0
 62
     7
100
AcDbLine
 10
34.6164283769142
 20
66.39797501750071
 30
0.0
 11
30.8664283769142
 21
66.39797501750071
 31
0.0
  0
LINE
  5
1E19
330
36
100
AcDbEntity
  8
0
 62
     3
100
AcDbLine
 10
17.51638669610702
 20
45.56732579885988
 30
0.0
 11
29.8664283769142
 21
45.56732579885988
 31
0.0
  0
LINE
  5
1E1A
330
36
100
AcDbEntity
  8
0
 62
     3
100
AcDbLine
 10
17.51638669610702
 20
31.06732579885989
 30
0.0
 11
29.8664283769142
 21
31.06732579885989
 31
0.0
  0
LINE
  5
1E1B
330
36
100
AcDbEntity
  8
0
 62
     3
100
AcDbLine
 10
29.8664283769142
 20
45.56732579885988
 30
0.0
 11
29.8664283769142
 21
31.06732579885989
 31
0.0
  0
LINE
  5
1E1D
330
36
100
AcDbEntity
  8
0
 62
     3
100
AcDbLine
 10
34.6164283769142
 20
31.81732579885988
 30
0.0
 11
35.1164283769142
 21
31.81732579885988
 31
0.0
  0
LINE
  5
1E1E
330
36
100
AcDbEntity
  8
0
 62
     3
100
AcDbLine
 10
35.1164283769142
 20
44.81732579885988
 30
0.0
 11
34.6164283769142
 21
44.81732579885988
 31
0.0
  0
LINE
  5
1E1F
330
36
100
AcDbEntity
  8
0
 62
     3
100
AcDbLine
 10
34.6164283769142
 20
31.36732579885988
 30
0.0
 11
29.8664283769142
 21
31.36732579885988
 31
0.0
  0
LINE
  5
1E20
330
36
100
AcDbEntity
  8
0
 62
     3
100
AcDbLine
 10
34.6164283769142
 20
45.26732579885988
 30
0.0
 11
29.8664283769142
 21
45.26732579885988
 31
0.0
  0
LINE
  5
1E21
330
36
100
AcDbEntity
  8
0
 62
     3
100
AcDbLine
 10
35.1164283769142
 20
31.81732579885988
 30
0.0
 11
35.1164283769142
 21
44.81732579885988
 31
0.0
  0
LINE
  5
1E22
330
36
100
AcDbEntity
  8
0
 62
     3
100
AcDbLine
 10
34.6164283769142
 20
31.36732579885988
 30
0.0
 11
34.6164283769142
 21
45.26732579885988
 31
0.0
  0
LINE
  5
1E23
330
36
100
AcDbEntity
  8
0
 62
     7
100
AcDbLine
 10
38.3664283769142
 20
42.07982579885981
 30
0.0
 11
35.1164283769142
 21
42.07982579885981
 31
0.0
  0
LINE
  5
1E24
330
36
100
AcDbEntity
  8
0
 62
     7
100
AcDbLine
 10
38.3664283769142
 20
40.90482579885978
 30
0.0
 11
35.1164283769142
 21
40.90482579885978
 31
0.0
  0
LINE
  5
1E25
330
36
100
AcDbEntity
  8
0
 62
     7
100
AcDbLine
 10
38.3664283769142
 20
42.07982579885981
 30
0.0
 11
38.8664283769142
 21
41.86732579885978
 31
0.0
  0
LINE
  5
1E26
330
36
100
AcDbEntity
  8
0
 62
     7
100
AcDbLine
 10
38.8664283769142
 20
41.86732579885978
 30
0.0
 11
38.8664283769142
 21
41.11732579885978
 31
0.0
  0
LINE
  5
1E27
330
36
100
AcDbEntity
  8
0
 62
     7
100
AcDbLine
 10
38.8664283769142
 20
41.11732579885978
 30
0.0
 11
38.3664283769142
 21
40.90482579885978
 31
0.0
  0
LINE
  5
1E28
330
36
100
AcDbEntity
  8
0
 62
     7
100
AcDbLine
 10
38.3664283769142
 20
40.90482579885978
 30
0.0
 11
38.3664283769142
 21
42.07982579885981
 31
0.0
  0
LINE
  5
1E39
330
36
100
AcDbEntity
  8
0
 62
     7
100
AcDbLine
 10
38.3664283769142
 20
35.72982579885974
 30
0.0
 11
35.1164283769142
 21
35.72982579885974
 31
0.0
  0
LINE
  5
1E3A
330
36
100
AcDbEntity
  8
0
 62
     7
100
AcDbLine
 10
38.3664283769142
 20
34.55482579885972
 30
0.0
 11
35.1164283769142
 21
34.55482579885972
 31
0.0
  0
LINE
  5
1E3B
330
36
100
AcDbEntity
  8
0
 62
     7
100
AcDbLine
 10
38.3664283769142
 20
35.72982579885974
 30
0.0
 11
38.8664283769142
 21
35.5173257988597
 31
0.0
  0
LINE
  5
1E3C
330
36
100
AcDbEntity
  8
0
 62
     7
100
AcDbLine
 10
38.8664283769142
 20
35.5173257988597
 30
0.0
 11
38.8664283769142
 21
34.7673257988597
 31
0.0
  0
LINE
  5
1E3D
330
36
100
AcDbEntity
  8
0
 62
     7
100
AcDbLine
 10
38.8664283769142
 20
34.7673257988597
 30
0.0
 11
38.3664283769142
 21
34.55482579885972
 31
0.0
  0
LINE
  5
1E3E
330
36
100
AcDbEntity
  8
0
 62
     7
100
AcDbLine
 10
38.3664283769142
 20
34.55482579885972
 30
0.0
 11
38.3664283769142
 21
35.72982579885974
 31
0.0
  0
LINE
  5
1E42
330
36
100
AcDbEntity
  8
0
 62
     3
100
AcDbLine
 10
17.51638669610702
 20
44.81732579885988
 30
0.0
 11
-21.1227872106886
 21
44.81732579885988
 31
0.0
  0
LINE
  5
1E43
330
36
100
AcDbEntity
  8
0
 62
     3
100
AcDbLine
 10
17.51638669610702
 20
31.81732579885988
 30
0.0
 11
-19.03134155418007
 21
31.81732579885988
 31
0.0
  0
ELLIPSE
  5
1E45
330
36
100
AcDbEntity
  8
0
 62
     3
100
AcDbEllipse
 10
17.51638669610702
 20
38.31732579885989
 30
0.0
 11
0.0
 21
7.25
 31
0.0
210
0.0
220
0.0
230
1.0
 40
0.641373561267983
 41
0.0
 42
0.4588742050138878
  0
ELLIPSE
  5
1E46
330
36
100
AcDbEntity
  8
0
 62
     3
100
AcDbEllipse
 10
17.51638669610702
 20
38.31732579885989
 30
0.0
 11
0.0
 21
7.25
 31
0.0
210
0.0
220
0.0
230
1.0
 40
0.641373561267983
 41
2.682718448575904
 42
3.141592653589792
  0
ELLIPSE
  5
1E47
330
36
100
AcDbEntity
  8
0
 62
     3
100
AcDbEllipse
 10
17.51638669610702
 20
38.31732579885989
 30
0.0
 11
-7.350041680807179
 21
0.0
 31
0.0
210
0.0
220
0.0
230
1.0
 40
0.8843487264804423
 41
1.570796326794896
 42
4.712388980384688
  0
ELLIPSE
  5
1E4C
330
36
100
AcDbEntity
  8
0
 62
     3
100
AcDbEllipse
 10
17.51638669610702
 20
38.31732579885989
 30
0.0
 11
-7.350041680807179
 21
-0.0000000506899252
 31
0.0
210
0.0
220
0.0
230
1.0
 40
0.9863889641512628
 41
1.570796319992215
 42
4.712388973582009
  0
LINE
  5
1E6C
330
36
100
AcDbEntity
  8
0
 62
     7
100
AcDbLine
 10
34.6164283769142
 20
42.45480408303018
 30
0.0
 11
30.8664283769142
 21
42.45480408303018
 31
0.0
  0
LINE
  5
1E6D
330
36
100
AcDbEntity
  8
0
 62
     7
100
AcDbLine
 10
34.6164283769142
 20
42.11189257288025
 30
0.0
 11
30.8664283769142
 21
42.11189257288025
 31
0.0
  0
LINE
  5
1E6E
330
36
100
AcDbEntity
  8
0
 62
     7
100
AcDbLine
 10
34.6164283769142
 20
41.75482579885988
 30
0.0
 11
30.8664283769142
 21
41.75482579885988
 31
0.0
  0
LINE
  5
1E6F
330
36
100
AcDbEntity
  8
0
 62
     7
100
AcDbLine
 10
34.6164283769142
 20
41.38493576398977
 30
0.0
 11
30.8664283769142
 21
41.38493576398977
 31
0.0
  0
LINE
  5
1E70
330
36
100
AcDbEntity
  8
0
 62
     7
100
AcDbLine
 10
34.6164283769142
 20
41.00360230722367
 30
0.0
 11
30.8664283769142
 21
41.00360230722367
 31
0.0
  0
LINE
  5
1E71
330
36
100
AcDbEntity
  8
0
 62
     7
100
AcDbLine
 10
34.6164283769142
 20
35.63104929049615
 30
0.0
 11
30.8664283769142
 21
35.63104929049615
 31
0.0
  0
LINE
  5
1E72
330
36
100
AcDbEntity
  8
0
 62
     7
100
AcDbLine
 10
34.6164283769142
 20
35.25543754467804
 30
0.0
 11
30.8664283769142
 21
35.25543754467804
 31
0.0
  0
LINE
  5
1E73
330
36
100
AcDbEntity
  8
0
 62
     7
100
AcDbLine
 10
34.6164283769142
 20
34.87982579885989
 30
0.0
 11
30.8664283769142
 21
34.87982579885989
 31
0.0
  0
LINE
  5
1E74
330
36
100
AcDbEntity
  8
0
 62
     7
100
AcDbLine
 10
34.6164283769142
 20
34.5227590248395
 30
0.0
 11
30.8664283769142
 21
34.5227590248395
 31
0.0
  0
LINE
  5
1E75
330
36
100
AcDbEntity
  8
0
 62
     7
100
AcDbLine
 10
34.6164283769142
 20
34.18756474571472
 30
0.0
 11
30.8664283769142
 21
34.18756474571472
 31
0.0
  0
LINE
  5
1E76
330
36
100
AcDbEntity
  8
0
100
AcDbLine
 10
68.6876513912166
 20
72.72644588498612
 30
0.0
 11
68.6876513912166
 21
58.0200258608079
 31
0.0
  0
LINE
  5
1E7B
330
36
100
AcDbEntity
  8
0
 62
     7
100
AcDbLine
 10
-78.43161670140375
 20
72.72644588498611
 30
0.0
 11
-74.68161670140375
 21
72.72644588498611
 31
0.0
  0
LINE
  5
1E7C
330
36
100
AcDbEntity
  8
0
 62
     3
100
AcDbLine
 10
-78.43161670140375
 20
66.2264458849861
 30
0.0
 11
-78.93161670140376
 21
66.2264458849861
 31
0.0
  0
LINE
  5
1E7D
330
36
100
AcDbEntity
  8
0
 62
     3
100
AcDbLine
 10
-78.93161670140376
 20
79.22644588498609
 30
0.0
 11
-78.43161670140375
 21
79.22644588498609
 31
0.0
  0
LINE
  5
1E7E
330
36
100
AcDbEntity
  8
0
 62
     3
100
AcDbLine
 10
-78.43161670140375
 20
65.77644588498611
 30
0.0
 11
-73.68161670140375
 21
65.77644588498611
 31
0.0
  0
LINE
  5
1E7F
330
36
100
AcDbEntity
  8
0
 62
     3
100
AcDbLine
 10
-78.43161670140375
 20
79.67644588498611
 30
0.0
 11
-73.68161670140375
 21
79.67644588498611
 31
0.0
  0
LINE
  5
1E80
330
36
100
AcDbEntity
  8
0
 62
     3
100
AcDbLine
 10
-73.68161670140375
 20
64.60144588498611
 30
0.0
 11
-68.68161670140375
 21
64.60144588498611
 31
0.0
  0
LINE
  5
1E81
330
36
100
AcDbEntity
  8
0
 62
     3
100
AcDbLine
 10
-73.68161670140375
 20
80.85144588498611
 30
0.0
 11
-56.68161670140375
 21
80.85144588498611
 31
0.0
  0
LINE
  5
1E82
330
36
100
AcDbEntity
  8
0
 62
     3
100
AcDbLine
 10
-78.93161670140376
 20
66.2264458849861
 30
0.0
 11
-78.93161670140376
 21
79.22644588498609
 31
0.0
  0
LINE
  5
1E83
330
36
100
AcDbEntity
  8
0
 62
     3
100
AcDbLine
 10
-73.68161670140375
 20
64.60144588498611
 30
0.0
 11
-73.68161670140375
 21
80.85144588498611
 31
0.0
  0
LINE
  5
1E84
330
36
100
AcDbEntity
  8
0
 62
     7
100
AcDbLine
 10
-72.18161670140375
 20
74.52388013356227
 30
0.0
 11
-72.18161670140375
 21
74.77295763880409
 31
0.0
  0
LINE
  5
1E85
330
36
100
AcDbEntity
  8
0
 62
     7
100
AcDbLine
 10
-72.18161670140375
 20
78.17503706429022
 30
0.0
 11
-72.18161670140375
 21
78.36695748896443
 31
0.0
  0
LINE
  5
1E86
330
36
100
AcDbEntity
  8
0
 62
     7
100
AcDbLine
 10
-72.18161670140375
 20
80.5052080756077
 30
0.0
 11
-72.18161670140375
 21
80.56991283688336
 31
0.0
  0
LINE
  5
1E87
330
36
100
AcDbEntity
  8
0
 62
     7
100
AcDbLine
 10
-70.68161670140375
 20
72.60144588498611
 30
0.0
 11
-70.68161670140375
 21
72.85144588498615
 31
0.0
  0
LINE
  5
1E88
330
36
100
AcDbEntity
  8
0
 62
     7
100
AcDbLine
 10
-70.68161670140375
 20
76.43497040510272
 30
0.0
 11
-70.68161670140375
 21
76.6646157454474
 31
0.0
  0
LINE
  5
1E89
330
36
100
AcDbEntity
  8
0
 62
     7
100
AcDbLine
 10
-70.68161670140375
 20
79.57995389248925
 30
0.0
 11
-70.68161670140375
 21
79.71804474435612
 31
0.0
  0
LINE
  5
1E8A
330
36
100
AcDbEntity
  8
0
 62
     7
100
AcDbLine
 10
-70.68161670140375
 20
80.85036821868504
 30
0.0
 11
-70.68161670140375
 21
80.85144588498611
 31
0.0
  0
LINE
  5
1E8B
330
36
100
AcDbEntity
  8
0
 62
     3
100
AcDbLine
 10
-56.68161670140375
 20
80.1014458849861
 30
0.0
 11
-56.68161670140375
 21
80.85144588498611
 31
0.0
  0
LINE
  5
1E8C
330
36
100
AcDbEntity
  8
0
 62
     3
100
AcDbLine
 10
-68.68161670140375
 20
64.60144588498611
 30
0.0
 11
-68.68161670140375
 21
65.3514458849861
 31
0.0
  0
LINE
  5
1E8D
330
36
100
AcDbEntity
  8
0
 62
     3
100
AcDbLine
 10
-78.43161670140375
 20
65.77644588498611
 30
0.0
 11
-78.43161670140375
 21
79.67644588498611
 31
0.0
  0
ARC
  5
1E8E
330
36
100
AcDbEntity
  8
0
 62
     3
100
AcDbCircle
 10
-56.61150899683036
 20
62.10144588498611
 30
0.0
 40
12.5
100
AcDbArc
 50
112.1854269722782
 51
164.9299378551118
  0
ARC
  5
1E8F
330
36
100
AcDbEntity
  8
0
 62
     3
100
AcDbCircle
 10
-64.16361463485623
 20
80.62077903799405
 30
0.0
 40
7.500000000000017
100
AcDbArc
 50
292.1854269722782
 51
356.0294096105507
  0
LINE
  5
1E90
330
36
100
AcDbEntity
  8
0
 62
     7
100
AcDbLine
 10
-82.18161670140375
 20
73.31394588498614
 30
0.0
 11
-78.93161670140376
 21
73.31394588498614
 31
0.0
  0
LINE
  5
1E91
330
36
100
AcDbEntity
  8
0
 62
     7
100
AcDbLine
 10
-82.18161670140375
 20
72.13894588498613
 30
0.0
 11
-78.93161670140376
 21
72.13894588498613
 31
0.0
  0
LINE
  5
1E92
330
36
100
AcDbEntity
  8
0
 62
     7
100
AcDbLine
 10
-82.18161670140375
 20
73.31394588498614
 30
0.0
 11
-82.68161670140376
 21
73.10144588498609
 31
0.0
  0
LINE
  5
1E93
330
36
100
AcDbEntity
  8
0
 62
     7
100
AcDbLine
 10
-82.68161670140376
 20
73.10144588498609
 30
0.0
 11
-82.68161670140376
 21
72.35144588498609
 31
0.0
  0
LINE
  5
1E94
330
36
100
AcDbEntity
  8
0
 62
     7
100
AcDbLine
 10
-82.68161670140376
 20
72.35144588498609
 30
0.0
 11
-82.18161670140375
 21
72.13894588498613
 31
0.0
  0
LINE
  5
1E95
330
36
100
AcDbEntity
  8
0
 62
     7
100
AcDbLine
 10
-82.18161670140375
 20
72.13894588498613
 30
0.0
 11
-82.18161670140375
 21
73.31394588498614
 31
0.0
  0
LINE
  5
1E96
330
36
100
AcDbEntity
  8
0
 62
     7
100
AcDbLine
 10
-70.68161670140375
 20
72.85144588498609
 30
0.0
 11
-73.68161670140375
 21
72.85144588498609
 31
0.0
  0
LINE
  5
1E97
330
36
100
AcDbEntity
  8
0
 62
     7
100
AcDbLine
 10
-70.68161670140375
 20
72.60144588498611
 30
0.0
 11
-73.68161670140375
 21
72.60144588498611
 31
0.0
  0
LINE
  5
1E98
330
36
100
AcDbEntity
  8
0
 62
     7
100
AcDbLine
 10
-72.18161670140375
 20
74.52388013356227
 30
0.0
 11
-73.68161670140375
 21
74.52388013356227
 31
0.0
  0
LINE
  5
1E99
330
36
100
AcDbEntity
  8
0
 62
     7
100
AcDbLine
 10
-72.18161670140375
 20
74.77295763880409
 30
0.0
 11
-73.68161670140375
 21
74.77295763880409
 31
0.0
  0
LINE
  5
1E9A
330
36
100
AcDbEntity
  8
0
 62
     7
100
AcDbLine
 10
-70.68161670140375
 20
76.43497040510272
 30
0.0
 11
-73.68161670140375
 21
76.43497040510272
 31
0.0
  0
LINE
  5
1E9B
330
36
100
AcDbEntity
  8
0
 62
     7
100
AcDbLine
 10
-70.68161670140375
 20
76.6646157454474
 30
0.0
 11
-73.68161670140375
 21
76.6646157454474
 31
0.0
  0
LINE
  5
1E9C
330
36
100
AcDbEntity
  8
0
 62
     7
100
AcDbLine
 10
-72.18161670140375
 20
78.17503706429022
 30
0.0
 11
-73.68161670140375
 21
78.17503706429022
 31
0.0
  0
LINE
  5
1E9D
330
36
100
AcDbEntity
  8
0
 62
     7
100
AcDbLine
 10
-72.18161670140375
 20
78.36695748896443
 30
0.0
 11
-73.68161670140375
 21
78.36695748896443
 31
0.0
  0
LINE
  5
1E9E
330
36
100
AcDbEntity
  8
0
 62
     7
100
AcDbLine
 10
-70.68161670140375
 20
79.57995389248925
 30
0.0
 11
-73.68161670140375
 21
79.57995389248925
 31
0.0
  0
LINE
  5
1E9F
330
36
100
AcDbEntity
  8
0
 62
     7
100
AcDbLine
 10
-70.68161670140375
 20
79.71804474435612
 30
0.0
 11
-73.68161670140375
 21
79.71804474435612
 31
0.0
  0
LINE
  5
1EA0
330
36
100
AcDbEntity
  8
0
 62
     7
100
AcDbLine
 10
-72.18161670140375
 20
80.5052080756077
 30
0.0
 11
-73.68161670140375
 21
80.5052080756077
 31
0.0
  0
LINE
  5
1EA1
330
36
100
AcDbEntity
  8
0
 62
     7
100
AcDbLine
 10
-72.18161670140375
 20
80.56991283688336
 30
0.0
 11
-73.68161670140375
 21
80.56991283688336
 31
0.0
  0
LINE
  5
1EA2
330
36
100
AcDbEntity
  8
0
 62
     7
100
AcDbLine
 10
-73.68161670140375
 20
80.85036821868504
 30
0.0
 11
-70.68161670140375
 21
80.85036821868504
 31
0.0
  0
LINE
  5
1EA3
330
36
100
AcDbEntity
  8
0
 62
     7
100
AcDbLine
 10
-78.43161670140375
 20
73.56429762089645
 30
0.0
 11
-74.68161670140375
 21
73.56429762089645
 31
0.0
  0
LINE
  5
1EA4
330
36
100
AcDbEntity
  8
0
 62
     7
100
AcDbLine
 10
-78.43161670140375
 20
73.14537175294129
 30
0.0
 11
-74.68161670140375
 21
73.14537175294129
 31
0.0
  0
LINE
  5
1EA5
330
36
100
AcDbEntity
  8
0
 62
     7
100
AcDbLine
 10
-78.43161670140375
 20
72.30673717568402
 30
0.0
 11
-74.68161670140375
 21
72.30673717568402
 31
0.0
  0
LINE
  5
1EA6
330
36
100
AcDbEntity
  8
0
 62
     7
100
AcDbLine
 10
-78.43161670140375
 20
71.88859414907574
 30
0.0
 11
-74.68161670140375
 21
71.88859414907574
 31
0.0
  0
LINE
  5
1EA7
330
36
100
AcDbEntity
  8
0
 62
     7
100
AcDbLine
 10
-78.43161670140375
 20
78.2170650165612
 30
0.0
 11
-74.68161670140375
 21
78.2170650165612
 31
0.0
  0
LINE
  5
1EA8
330
36
100
AcDbEntity
  8
0
 62
     7
100
AcDbLine
 10
-78.43161670140375
 20
78.44871777628259
 30
0.0
 11
-74.68161670140375
 21
78.44871777628259
 31
0.0
  0
LINE
  5
1EA9
330
36
100
AcDbEntity
  8
0
 62
     7
100
AcDbLine
 10
-78.43161670140375
 20
78.65818071026019
 30
0.0
 11
-74.68161670140375
 21
78.65818071026019
 31
0.0
  0
LINE
  5
1EAA
330
36
100
AcDbEntity
  8
0
 62
     7
100
AcDbLine
 10
-78.43161670140375
 20
78.87911962099997
 30
0.0
 11
-74.68161670140375
 21
78.87911962099997
 31
0.0
  0
LINE
  5
1EAB
330
36
100
AcDbEntity
  8
0
 62
     7
100
AcDbLine
 10
-78.43161670140375
 20
79.04311287862238
 30
0.0
 11
-74.68161670140375
 21
79.04311287862238
 31
0.0
  0
LINE
  5
1EAC
330
36
100
AcDbEntity
  8
0
 62
     7
100
AcDbLine
 10
-78.43161670140375
 20
67.23582675341106
 30
0.0
 11
-74.68161670140375
 21
67.23582675341106
 31
0.0
  0
LINE
  5
1EAD
330
36
100
AcDbEntity
  8
0
 62
     7
100
AcDbLine
 10
-78.43161670140375
 20
66.99348085827444
 30
0.0
 11
-74.68161670140375
 21
66.99348085827444
 31
0.0
  0
LINE
  5
1EAE
330
36
100
AcDbEntity
  8
0
 62
     7
100
AcDbLine
 10
-78.43161670140375
 20
66.77252123396818
 30
0.0
 11
-74.68161670140375
 21
66.77252123396818
 31
0.0
  0
LINE
  5
1EAF
330
36
100
AcDbEntity
  8
0
 62
     7
100
AcDbLine
 10
-78.43161670140375
 20
66.58524812573443
 30
0.0
 11
-74.68161670140375
 21
66.58524812573443
 31
0.0
  0
LINE
  5
1EB0
330
36
100
AcDbEntity
  8
0
 62
     7
100
AcDbLine
 10
-78.43161670140375
 20
66.39797501750071
 30
0.0
 11
-74.68161670140375
 21
66.39797501750071
 31
0.0
  0
LINE
  5
1EB1
330
36
100
AcDbEntity
  8
0
 62
     3
100
AcDbLine
 10
-61.33157502059657
 20
45.56732579885988
 30
0.0
 11
-73.68161670140375
 21
45.56732579885988
 31
0.0
  0
LINE
  5
1EB2
330
36
100
AcDbEntity
  8
0
 62
     3
100
AcDbLine
 10
-61.33157502059657
 20
31.06732579885989
 30
0.0
 11
-73.68161670140375
 21
31.06732579885989
 31
0.0
  0
LINE
  5
1EB3
330
36
100
AcDbEntity
  8
0
 62
     3
100
AcDbLine
 10
-73.68161670140375
 20
45.56732579885988
 30
0.0
 11
-73.68161670140375
 21
31.06732579885989
 31
0.0
  0
LINE
  5
1EB4
330
36
100
AcDbEntity
  8
0
 62
     3
100
AcDbLine
 10
-78.43161670140375
 20
31.81732579885988
 30
0.0
 11
-78.93161670140376
 21
31.81732579885988
 31
0.0
  0
LINE
  5
1EB5
330
36
100
AcDbEntity
  8
0
 62
     3
100
AcDbLine
 10
-78.93161670140376
 20
44.81732579885988
 30
0.0
 11
-78.43161670140375
 21
44.81732579885988
 31
0.0
  0
LINE
  5
1EB6
330
36
100
AcDbEntity
  8
0
 62
     3
100
AcDbLine
 10
-78.43161670140375
 20
31.36732579885988
 30
0.0
 11
-73.68161670140375
 21
31.36732579885988
 31
0.0
  0
LINE
  5
1EB7
330
36
100
AcDbEntity
  8
0
 62
     3
100
AcDbLine
 10
-78.43161670140375
 20
45.26732579885988
 30
0.0
 11
-73.68161670140375
 21
45.26732579885988
 31
0.0
  0
LINE
  5
1EB8
330
36
100
AcDbEntity
  8
0
 62
     3
100
AcDbLine
 10
-78.93161670140376
 20
31.81732579885988
 30
0.0
 11
-78.93161670140376
 21
44.81732579885988
 31
0.0
  0
LINE
  5
1EB9
330
36
100
AcDbEntity
  8
0
 62
     3
100
AcDbLine
 10
-78.43161670140375
 20
31.36732579885988
 30
0.0
 11
-78.43161670140375
 21
45.26732579885988
 31
0.0
  0
LINE
  5
1EBA
330
36
100
AcDbEntity
  8
0
 62
     7
100
AcDbLine
 10
-82.18161670140375
 20
42.07982579885981
 30
0.0
 11
-78.93161670140376
 21
42.07982579885981
 31
0.0
  0
LINE
  5
1EBB
330
36
100
AcDbEntity
  8
0
 62
     7
100
AcDbLine
 10
-82.18161670140375
 20
40.90482579885978
 30
0.0
 11
-78.93161670140376
 21
40.90482579885978
 31
0.0
  0
LINE
  5
1EBC
330
36
100
AcDbEntity
  8
0
 62
     7
100
AcDbLine
 10
-82.18161670140375
 20
42.07982579885981
 30
0.0
 11
-82.68161670140376
 21
41.86732579885978
 31
0.0
  0
LINE
  5
1EBD
330
36
100
AcDbEntity
  8
0
 62
     7
100
AcDbLine
 10
-82.68161670140376
 20
41.86732579885978
 30
0.0
 11
-82.68161670140376
 21
41.11732579885978
 31
0.0
  0
LINE
  5
1EBE
330
36
100
AcDbEntity
  8
0
 62
     7
100
AcDbLine
 10
-82.68161670140376
 20
41.11732579885978
 30
0.0
 11
-82.18161670140375
 21
40.90482579885978
 31
0.0
  0
LINE
  5
1EBF
330
36
100
AcDbEntity
  8
0
 62
     7
100
AcDbLine
 10
-82.18161670140375
 20
40.90482579885978
 30
0.0
 11
-82.18161670140375
 21
42.07982579885981
 31
0.0
  0
LINE
  5
1EC0
330
36
100
AcDbEntity
  8
0
 62
     7
100
AcDbLine
 10
-82.18161670140375
 20
35.72982579885974
 30
0.0
 11
-78.93161670140376
 21
35.72982579885974
 31
0.0
  0
LINE
  5
1EC1
330
36
100
AcDbEntity
  8
0
 62
     7
100
AcDbLine
 10
-82.18161670140375
 20
34.55482579885972
 30
0.0
 11
-78.93161670140376
 21
34.55482579885972
 31
0.0
  0
LINE
  5
1EC2
330
36
100
AcDbEntity
  8
0
 62
     7
100
AcDbLine
 10
-82.18161670140375
 20
35.72982579885974
 30
0.0
 11
-82.68161670140376
 21
35.5173257988597
 31
0.0
  0
LINE
  5
1EC3
330
36
100
AcDbEntity
  8
0
 62
     7
100
AcDbLine
 10
-82.68161670140376
 20
35.5173257988597
 30
0.0
 11
-82.68161670140376
 21
34.7673257988597
 31
0.0
  0
LINE
  5
1EC4
330
36
100
AcDbEntity
  8
0
 62
     7
100
AcDbLine
 10
-82.68161670140376
 20
34.7673257988597
 30
0.0
 11
-82.18161670140375
 21
34.55482579885972
 31
0.0
  0
LINE
  5
1EC5
330
36
100
AcDbEntity
  8
0
 62
     7
100
AcDbLine
 10
-82.18161670140375
 20
34.55482579885972
 30
0.0
 11
-82.18161670140375
 21
35.72982579885974
 31
0.0
  0
ELLIPSE
  5
1EC6
330
36
100
AcDbEntity
  8
0
 62
     3
100
AcDbEllipse
 10
-61.33157502059657
 20
38.31732579885989
 30
0.0
 11
0.0
 21
7.25
 31
0.0
210
0.0
220
0.0
230
-1.0
 40
0.641373561267983
 41
0.0
 42
0.4588742050138878
  0
ELLIPSE
  5
1EC7
330
36
100
AcDbEntity
  8
0
 62
     3
100
AcDbEllipse
 10
-61.33157502059657
 20
38.31732579885989
 30
0.0
 11
0.0
 21
7.25
 31
0.0
210
0.0
220
0.0
230
-1.0
 40
0.641373561267983
 41
2.682718448575904
 42
3.141592653589792
  0
ELLIPSE
  5
1EC8
330
36
100
AcDbEntity
  8
0
 62
     3
100
AcDbEllipse
 10
-61.33157502059657
 20
38.31732579885989
 30
0.0
 11
7.350041680807179
 21
0.0
 31
0.0
210
0.0
220
0.0
230
-1.0
 40
0.8843487264804423
 41
1.570796326794896
 42
4.712388980384688
  0
ELLIPSE
  5
1EC9
330
36
100
AcDbEntity
  8
0
 62
     3
100
AcDbEllipse
 10
-61.33157502059657
 20
38.31732579885989
 30
0.0
 11
7.350041680807179
 21
-0.0000000506899252
 31
0.0
210
0.0
220
0.0
230
-1.0
 40
0.9863889641512628
 41
1.570796319992215
 42
4.712388973582009
  0
LINE
  5
1ECA
330
36
100
AcDbEntity
  8
0
 62
     7
100
AcDbLine
 10
-78.43161670140375
 20
42.45480408303018
 30
0.0
 11
-74.68161670140375
 21
42.45480408303018
 31
0.0
  0
LINE
  5
1ECB
330
36
100
AcDbEntity
  8
0
 62
     7
100
AcDbLine
 10
-78.43161670140375
 20
42.11189257288025
 30
0.0
 11
-74.68161670140375
 21
42.11189257288025
 31
0.0
  0
LINE
  5
1ECC
330
36
100
AcDbEntity
  8
0
 62
     7
100
AcDbLine
 10
-78.43161670140375
 20
41.75482579885988
 30
0.0
 11
-74.68161670140375
 21
41.75482579885988
 31
0.0
  0
LINE
  5
1ECD
330
36
100
AcDbEntity
  8
0
 62
     7
100
AcDbLine
 10
-78.43161670140375
 20
41.38493576398977
 30
0.0
 11
-74.68161670140375
 21
41.38493576398977
 31
0.0
  0
LINE
  5
1ECE
330
36
100
AcDbEntity
  8
0
 62
     7
100
AcDbLine
 10
-78.43161670140375
 20
41.00360230722367
 30
0.0
 11
-74.68161670140375
 21
41.00360230722367
 31
0.0
  0
LINE
  5
1ECF
330
36
100
AcDbEntity
  8
0
 62
     7
100
AcDbLine
 10
-78.43161670140375
 20
35.63104929049615
 30
0.0
 11
-74.68161670140375
 21
35.63104929049615
 31
0.0
  0
LINE
  5
1ED0
330
36
100
AcDbEntity
  8
0
 62
     7
100
AcDbLine
 10
-78.43161670140375
 20
35.25543754467804
 30
0.0
 11
-74.68161670140375
 21
35.25543754467804
 31
0.0
  0
LINE
  5
1ED1
330
36
100
AcDbEntity
  8
0
 62
     7
100
AcDbLine
 10
-78.43161670140375
 20
34.87982579885989
 30
0.0
 11
-74.68161670140375
 21
34.87982579885989
 31
0.0
  0
LINE
  5
1ED2
330
36
100
AcDbEntity
  8
0
 62
     7
100
AcDbLine
 10
-78.43161670140375
 20
34.5227590248395
 30
0.0
 11
-74.68161670140375
 21
34.5227590248395
 31
0.0
  0
LINE
  5
1ED3
330
36
100
AcDbEntity
  8
0
 62
     7
100
AcDbLine
 10
-78.43161670140375
 20
34.18756474571472
 30
0.0
 11
-74.68161670140375
 21
34.18756474571472
 31
0.0
  0
LINE
  5
1ED4
330
36
100
AcDbEntity
  8
0
  6
CENTER
 62
     7
100
AcDbLine
 10
-84.76816441825167
 20
38.31732579885989
 30
0.0
 11
42.6012486996808
 21
38.31732579885989
 31
0.0
  0
LINE
  5
1ED5
330
36
100
AcDbEntity
  8
0
  6
CENTER
 62
     7
100
AcDbLine
 10
-84.76816441825167
 20
72.72644588498611
 30
0.0
 11
42.60124869968078
 21
72.72644588498611
 31
0.0
  0
ARC
  5
1ED8
330
36
100
AcDbEntity
  8
0
100
AcDbCircle
 10
-0.6244097488713101
 20
43.22529420214578
 30
0.0
 40
20.56010805351166
100
AcDbArc
 50
162.1331383693704
 51
197.8668616306296
  0
ARC
  5
1ED9
330
36
100
AcDbEntity
  8
0
100
AcDbCircle
 10
-33.67386937825252
 20
31.16455098853669
 30
0.0
 40
14.65707119556047
100
AcDbArc
 50
336.8903875550897
 51
23.1096124449137
  0
ARC
  5
1EDA
330
36
100
AcDbEntity
  8
0
100
AcDbCircle
 10
-5.125183215968441
 20
43.22529420214578
 30
0.0
 40
20.56010805351166
100
AcDbArc
 50
162.1331383693704
 51
197.8668616306296
  0
ARC
  5
1EDB
330
36
100
AcDbEntity
  8
0
100
AcDbCircle
 10
-38.17464284534965
 20
31.16455098853669
 30
0.0
 40
14.65707119556047
100
AcDbArc
 50
336.8903875550897
 51
23.1096124449137
  0
ARC
  5
1EDC
330
36
100
AcDbEntity
  8
0
100
AcDbCircle
 10
-0.6244097488713101
 20
77.63441428827201
 30
0.0
 40
20.56010805351166
100
AcDbArc
 50
162.1331383693704
 51
197.8668616306296
  0
ARC
  5
1EDD
330
36
100
AcDbEntity
  8
0
100
AcDbCircle
 10
-33.67386937825252
 20
65.57367107466291
 30
0.0
 40
14.65707119556047
100
AcDbArc
 50
336.8903875550897
 51
23.1096124449137
  0
ARC
  5
1EDE
330
36
100
AcDbEntity
  8
0
100
AcDbCircle
 10
-5.125183215968441
 20
77.63441428827201
 30
0.0
 40
20.56010805351166
100
AcDbArc
 50
162.1331383693704
 51
197.8668616306296
  0
ARC
  5
1EDF
330
36
100
AcDbEntity
  8
0
100
AcDbCircle
 10
-38.17464284534965
 20
65.57367107466291
 30
0.0
 40
14.65707119556047
100
AcDbArc
 50
336.8903875550897
 51
23.1096124449137
  0
LINE
  5
1EE0
330
36
100
AcDbEntity
  8
0
 62
     3
100
AcDbLine
 10
-25.53674362356318
 20
80.1014458849861
 30
0.0
 11
-56.68161670140375
 21
80.1014458849861
 31
0.0
  0
LINE
  5
1EE1
330
36
100
AcDbEntity
  8
0
 62
     7
100
AcDbLine
 10
-25.47860462214893
 20
74.72644588498609
 30
0.0
 11
-59.52606822739554
 21
74.72644588498609
 31
0.0
  0
LINE
  5
1EE2
330
36
100
AcDbEntity
  8
0
 62
     3
100
AcDbLine
 10
-25.20721144340872
 20
73.22644588498611
 30
0.0
 11
-62.31101555441935
 21
73.22644588498611
 31
0.0
  0
LINE
  5
1EE3
330
36
100
AcDbEntity
  8
0
 62
     3
100
AcDbLine
 10
-25.62356067778573
 20
44.81732579885988
 30
0.0
 11
-61.33157502059657
 21
44.81732579885988
 31
0.0
  0
LINE
  5
1EE4
330
36
100
AcDbEntity
  8
0
 62
     3
100
AcDbLine
 10
-23.5321150212772
 20
31.81732579885988
 30
0.0
 11
-61.33157502059657
 21
31.81732579885988
 31
0.0
  0
LINE
  5
1EE5
330
36
100
AcDbEntity
  8
0
 62
     3
100
AcDbLine
 10
-23.51925639541932
 20
65.3514458849861
 30
0.0
 11
-68.68161670140366
 21
65.3514458849861
 31
0.0
  0
ARC
  5
1FEC
330
36
100
AcDbEntity
  8
0
100
AcDbCircle
 10
68.6876513912166
 20
77.48507559257726
 30
0.0
 40
19.46504973176934
100
AcDbArc
 50
234.2815347599874
 51
305.7184652400126
  0
LINE
  5
1FEE
330
36
100
AcDbEntity
  8
0
100
AcDbLine
 10
59.42202493966259
 20
61.13725717150055
 30
0.0
 11
57.32389893436746
 21
61.6814908359561
 31
0.0
  0
LINE
  5
1FEF
330
36
100
AcDbEntity
  8
0
100
AcDbLine
 10
57.32389893436746
 20
61.6814908359561
 30
0.0
 11
58.51045391348725
 21
60.13511630304154
 31
0.0
  0
LINE
  5
1FF0
330
36
100
AcDbEntity
  8
0
100
AcDbLine
 10
77.95327784277062
 20
61.13725717150055
 30
0.0
 11
80.05140384806578
 21
61.68149083595608
 31
0.0
  0
LINE
  5
1FF1
330
36
100
AcDbEntity
  8
0
100
AcDbLine
 10
80.05140384806578
 20
61.68149083595608
 30
0.0
 11
78.86484886894598
 21
60.13511630304154
 31
0.0
  0
TEXT
  5
2016
330
36
100
AcDbEntity
  8
0
 62
     4
100
AcDbText
 10
53.85500520514461
 20
55.14704070920652
 30
0.0
 40
3.2
  1
90\U+00B0
  7
高3.2
100
AcDbText
  0
TEXT
  5
2017
330
36
100
AcDbEntity
  8
0
 62
     4
100
AcDbText
 10
77.67255531263526
 20
55.14704070920652
 30
0.0
 40
3.2
  1
90\U+00B0
  7
高3.2
100
AcDbText
  0
TEXT
  5
2057
330
36
100
AcDbEntity
  8
0
100
AcDbText
 10
57.94607407251169
 20
50.57177835118569
 30
0.0
 40
2.5
  1
(9\U+00B0刻みクリック)
 41
0.8
  7
高2.5
100
AcDbText
  0
LINE
  5
2102
330
36
100
AcDbEntity
  8
0
 62
     7
100
AcDbLine
 10
-41.1731242083587
 20
-67.16467238725977
 30
0.0
 11
18.41131908252416
 21
-67.16467238725977
 31
0.0
  0
LINE
  5
2103
330
36
100
AcDbEntity
  8
0
 62
     7
100
AcDbLine
 10
-41.17312420835872
 20
-63.16467238725977
 30
0.0
 11
18.41131908252415
 21
-63.16467238725977
 31
0.0
  0
LINE
  5
2105
330
36
100
AcDbEntity
  8
0
 62
     7
100
AcDbLine
 10
-41.17312420835875
 20
-59.16467238725977
 30
0.0
 11
18.41131908252412
 21
-59.16467238725977
 31
0.0
  0
LINE
  5
2106
330
36
100
AcDbEntity
  8
0
 62
     7
100
AcDbLine
 10
-33.61604023041811
 20
-55.16467238725977
 30
0.0
 11
18.41131908252412
 21
-55.16467238725977
 31
0.0
  0
LINE
  5
2107
330
36
100
AcDbEntity
  8
0
 62
     7
100
AcDbLine
 10
-33.61604023041811
 20
-51.16467238725977
 30
0.0
 11
18.41131908252412
 21
-51.16467238725977
 31
0.0
  0
LINE
  5
2108
330
36
100
AcDbEntity
  8
0
 62
     7
100
AcDbLine
 10
-33.61604023041811
 20
-47.16467238725977
 30
0.0
 11
18.41131908252412
 21
-47.16467238725977
 31
0.0
  0
LINE
  5
2109
330
36
100
AcDbEntity
  8
0
 62
     7
100
AcDbLine
 10
-33.61604023041811
 20
-43.16467238725977
 30
0.0
 11
18.41131908252412
 21
-43.16467238725977
 31
0.0
  0
LINE
  5
210A
330
36
100
AcDbEntity
  8
0
 62
     7
100
AcDbLine
 10
-41.17312420835875
 20
-39.16467238725978
 30
0.0
 11
18.41131908252412
 21
-39.16467238725978
 31
0.0
  0
LINE
  5
210B
330
36
100
AcDbEntity
  8
0
 62
     7
100
AcDbLine
 10
-41.17312420835875
 20
-35.16467238725977
 30
0.0
 11
18.41131908252412
 21
-35.16467238725977
 31
0.0
  0
LINE
  5
210C
330
36
100
AcDbEntity
  8
0
 62
     7
100
AcDbLine
 10
-41.17312420835875
 20
-31.16467238725977
 30
0.0
 11
18.41131908252412
 21
-31.16467238725977
 31
0.0
  0
LINE
  5
210D
330
36
100
AcDbEntity
  8
0
 62
     7
100
AcDbLine
 10
-41.17312420835875
 20
-27.16467238725977
 30
0.0
 11
18.41131908252412
 21
-27.16467238725977
 31
0.0
  0
LINE
  5
210E
330
36
100
AcDbEntity
  8
0
 62
     7
100
AcDbLine
 10
-41.17312420835875
 20
-23.16467238725977
 30
0.0
 11
18.41131908252412
 21
-23.16467238725977
 31
0.0
  0
LINE
  5
210F
330
36
100
AcDbEntity
  8
0
 62
     7
100
AcDbLine
 10
-41.17312420835875
 20
-19.16467238725976
 30
0.0
 11
18.41131908252412
 21
-19.16467238725976
 31
0.0
  0
LINE
  5
2110
330
36
100
AcDbEntity
  8
0
 62
     7
100
AcDbLine
 10
-41.17312420835875
 20
-15.16467238725977
 30
0.0
 11
18.41131908252412
 21
-15.16467238725977
 31
0.0
  0
LINE
  5
2111
330
36
100
AcDbEntity
  8
0
 62
     7
100
AcDbLine
 10
-41.17312420835875
 20
-7.164672387259766
 30
0.0
 11
18.41131908252412
 21
-7.164672387259766
 31
0.0
  0
TEXT
  5
2112
330
36
100
AcDbEntity
  8
0
 62
     3
100
AcDbText
 10
-21.95269106453065
 20
-70.43739965998705
 30
0.0
 40
2.5
  1
175g
 41
0.8
  7
高2.5
100
AcDbText
  0
TEXT
  5
2113
330
36
100
AcDbEntity
  8
0
 62
     3
100
AcDbText
 10
-40.08221511744959
 20
-70.43739965998705
 30
0.0
 40
2.5
  1
質　　　量
 41
0.8
  7
高2.5
100
AcDbText
  0
TEXT
  5
2114
330
36
100
AcDbEntity
  8
0
 62
     3
100
AcDbText
 10
-40.08221511744959
 20
-62.43739965998705
 30
0.0
 40
2.5
  1
球　寿　命
 41
0.8
  7
高2.5
100
AcDbText
  0
TEXT
  5
2115
330
36
100
AcDbEntity
  8
0
 62
     3
100
AcDbText
 10
-40.08221511744959
 20
-66.43739965998702
 30
0.0
 40
2.5
  1
使用環境温度
 41
0.8
  7
高2.5
100
AcDbText
  0
TEXT
  5
2117
330
36
100
AcDbEntity
  8
0
 62
     3
100
AcDbText
 10
-40.08221511744966
 20
-38.43739965998704
 30
0.0
 40
2.5
  1
固有エネルギー消費効率
 41
0.5
  7
高2.5
100
AcDbText
  0
TEXT
  5
2118
330
36
100
AcDbEntity
  8
0
 62
     3
100
AcDbText
 10
-40.08221511744966
 20
-34.43739965998704
 30
0.0
 40
2.5
  1
定格消費電力
 41
0.8
  7
高2.5
100
AcDbText
  0
TEXT
  5
2119
330
36
100
AcDbEntity
  8
0
 62
     3
100
AcDbText
 10
-40.08221511744966
 20
-30.43739965998704
 30
0.0
 40
2.5
  1
定格　電流
 41
0.8
  7
高2.5
100
AcDbText
  0
TEXT
  5
211A
330
36
100
AcDbEntity
  8
0
 62
     3
100
AcDbText
 10
-40.08221511744966
 20
-26.43739965998704
 30
0.0
 40
2.5
  1
入力電圧範囲
 41
0.8
  7
高2.5
100
AcDbText
  0
TEXT
  5
211B
330
36
100
AcDbEntity
  8
0
 62
     3
100
AcDbText
 10
-40.08221511744966
 20
-22.43739965998704
 30
0.0
 40
2.5
  1
周　波　数
 41
0.8
  7
高2.5
100
AcDbText
  0
TEXT
  5
211C
330
36
100
AcDbEntity
  8
0
 62
     3
100
AcDbText
 10
-40.08221511744966
 20
-18.43739965998704
 30
0.0
 40
2.5
  1
定格　電圧
 41
0.8
  7
高2.5
100
AcDbText
  0
TEXT
  5
211E
330
36
100
AcDbEntity
  8
0
 62
     3
100
AcDbText
 10
-40.08221511744966
 20
-2.437399659987041
 30
0.0
 40
2.5
  1
光源色　[色温度]
 41
0.7
  7
高2.5
100
AcDbText
  0
TEXT
  5
211F
330
36
100
AcDbEntity
  8
0
 62
     3
100
AcDbText
 10
-40.08221511744966
 20
1.562600340012958
 30
0.0
 40
2.5
  1
定格　光束
 41
0.8
  7
高2.5
100
AcDbText
  0
TEXT
  5
2120
330
36
100
AcDbEntity
  8
0
 62
     3
100
AcDbText
 10
-40.08221511744966
 20
5.562600340012958
 30
0.0
 40
2.5
  1
光　　　源
 41
0.8
  7
高2.5
100
AcDbText
  0
TEXT
  5
2122
330
36
100
AcDbEntity
  8
0
 62
     3
100
AcDbText
 10
-40.08221511744966
 20
-6.437399659987042
 30
0.0
 40
2.5
  1
平均演色評価数
 41
0.8
  7
高2.5
100
AcDbText
  0
TEXT
  5
2123
330
36
100
AcDbEntity
  8
0
 62
     3
100
AcDbText
 10
-40.08221511744966
 20
-42.43739965998702
 30
0.0
 40
2.5
  1
照度
 41
0.8
  7
高2.5
100
AcDbText
  0
LINE
  5
2124
330
36
100
AcDbEntity
  8
0
 62
     7
100
AcDbLine
 10
-41.17312420835875
 20
-3.164672387259768
 30
0.0
 11
18.41131908252412
 21
-3.164672387259768
 31
0.0
  0
LINE
  5
2125
330
36
100
AcDbEntity
  8
0
 62
     7
100
AcDbLine
 10
-41.17312420835875
 20
0.8353276127402311
 30
0.0
 11
18.41131908252412
 21
0.8353276127402311
 31
0.0
  0
LINE
  5
2126
330
36
100
AcDbEntity
  8
0
 62
     7
100
AcDbLine
 10
-41.17312420835875
 20
4.835327612740231
 30
0.0
 11
18.41131908252412
 21
4.835327612740231
 31
0.0
  0
LINE
  5
212A
330
36
100
AcDbEntity
  8
0
 62
     7
100
AcDbLine
 10
-41.17312420835879
 20
12.83532761274023
 30
0.0
 11
18.41131908252409
 21
12.83532761274023
 31
0.0
  0
LINE
  5
212B
330
36
100
AcDbEntity
  8
0
100
AcDbLine
 10
-33.61604023041811
 20
-39.16467238725978
 30
0.0
 11
-33.61604023041811
 21
-59.16467238725977
 31
0.0
  0
TEXT
  5
212C
330
36
100
AcDbEntity
  8
0
 62
     3
100
AcDbText
 10
-32.52513113950902
 20
-42.43739965998702
 30
0.0
 40
2.5
  1
1m
 41
0.8
  7
高2.5
100
AcDbText
  0
TEXT
  5
212D
330
36
100
AcDbEntity
  8
0
 62
     3
100
AcDbText
 10
-32.52513113950902
 20
-46.43739965998702
 30
0.0
 40
2.5
  1
2m
 41
0.8
  7
高2.5
100
AcDbText
  0
TEXT
  5
212E
330
36
100
AcDbEntity
  8
0
 62
     3
100
AcDbText
 10
-32.52513113950902
 20
-50.43739965998703
 30
0.0
 40
2.5
  1
3m
 41
0.8
  7
高2.5
100
AcDbText
  0
TEXT
  5
212F
330
36
100
AcDbEntity
  8
0
 62
     3
100
AcDbText
 10
-32.52513113950902
 20
-54.43739965998705
 30
0.0
 40
2.5
  1
4m
 41
0.8
  7
高2.5
100
AcDbText
  0
TEXT
  5
2130
330
36
100
AcDbEntity
  8
0
 62
     3
100
AcDbText
 10
-32.52513113950902
 20
-58.43739965998705
 30
0.0
 40
2.5
  1
5m
 41
0.8
  7
高2.5
100
AcDbText
  0
LINE
  5
2131
330
36
100
AcDbEntity
  8
0
 62
     3
100
AcDbLine
 10
-41.1731242083587
 20
-71.16467238725977
 30
0.0
 11
18.41131908252416
 21
-71.16467238725977
 31
0.0
  0
TEXT
  5
2134
330
36
100
AcDbEntity
  8
0
 62
     3
100
AcDbText
 10
-21.95269106453068
 20
5.562600340012958
 30
0.0
 40
2.5
  1
LED
 41
0.8
  7
高2.5
100
AcDbText
  0
TEXT
  5
2135
330
36
100
AcDbEntity
  8
0
 62
     3
100
AcDbText
 10
-21.95269106453068
 20
1.562600340012958
 30
0.0
 40
2.5
  1
1550Lm
 41
0.8
  7
高2.5
100
AcDbText
  0
TEXT
  5
2136
330
36
100
AcDbEntity
  8
0
 62
     3
100
AcDbText
 10
-21.95269106453068
 20
-2.437399659987041
 30
0.0
 40
2.5
  1
昼白色　[5000K]
 41
0.8
  7
高2.5
100
AcDbText
  0
TEXT
  5
2137
330
36
100
AcDbEntity
  8
0
 62
     3
100
AcDbText
 10
-21.95269106453068
 20
-6.437399659987042
 30
0.0
 40
2.5
  1
Ra75
 41
0.8
  7
高2.5
100
AcDbText
  0
TEXT
  5
2138
330
36
100
AcDbEntity
  8
0
 62
     3
100
AcDbText
 10
-21.95269106453068
 20
-14.43739965998704
 30
0.0
 40
2.5
  1
H:160\U+00B0 V:255\U+00B0[1/10ビーム角]
 41
0.8
  7
高2.5
100
AcDbText
  0
TEXT
  5
2139
330
36
100
AcDbEntity
  8
0
 62
     3
100
AcDbText
 10
-21.95269106453068
 20
-18.43739965998704
 30
0.0
 40
2.5
  1
AC100V (200V)
 41
0.8
  7
高2.5
100
AcDbText
  0
TEXT
  5
213A
330
36
100
AcDbEntity
  8
0
 62
     3
100
AcDbText
 10
-21.95269106453068
 20
-22.43739965998704
 30
0.0
 40
2.5
  1
50/60Hz
 41
0.8
  7
高2.5
100
AcDbText
  0
TEXT
  5
213B
330
36
100
AcDbEntity
  8
0
 62
     3
100
AcDbText
 10
-21.95269106453068
 20
-26.43739965998704
 30
0.0
 40
2.5
  1
AC85～240V
 41
0.8
  7
高2.5
100
AcDbText
  0
TEXT
  5
213C
330
36
100
AcDbEntity
  8
0
 62
     3
100
AcDbText
 10
-21.95269106453068
 20
-30.43739965998704
 30
0.0
 40
2.5
  1
0.10A (0.06A)
 41
0.8
  7
高2.5
100
AcDbText
  0
TEXT
  5
213D
330
36
100
AcDbEntity
  8
0
 62
     3
100
AcDbText
 10
-21.95269106453068
 20
-34.43739965998704
 30
0.0
 40
2.5
  1
10W (11W)
 41
0.8
  7
高2.5
100
AcDbText
  0
TEXT
  5
213E
330
36
100
AcDbEntity
  8
0
 62
     3
100
AcDbText
 10
-21.95269106453068
 20
-38.43739965998704
 30
0.0
 40
2.5
  1
155Lm/W (140.9Lm/W)
 41
0.8
  7
高2.5
100
AcDbText
  0
TEXT
  5
213F
330
36
100
AcDbEntity
  8
0
 62
     3
100
AcDbText
 10
-21.95269106453068
 20
-42.43739965998702
 30
0.0
 40
2.5
  1
380Lx
 41
0.8
  7
高2.5
100
AcDbText
  0
TEXT
  5
2140
330
36
100
AcDbEntity
  8
0
 62
     3
100
AcDbText
 10
-21.95269106453068
 20
-46.43739965998702
 30
0.0
 40
2.5
  1
105Lx
 41
0.8
  7
高2.5
100
AcDbText
  0
TEXT
  5
2141
330
36
100
AcDbEntity
  8
0
 62
     3
100
AcDbText
 10
-21.95269106453068
 20
-50.43739965998703
 30
0.0
 40
2.5
  1
50Lx
 41
0.8
  7
高2.5
100
AcDbText
  0
TEXT
  5
2142
330
36
100
AcDbEntity
  8
0
 62
     3
100
AcDbText
 10
-21.95269106453068
 20
-54.43739965998705
 30
0.0
 40
2.5
  1
30Lx
 41
0.8
  7
高2.5
100
AcDbText
  0
TEXT
  5
2143
330
36
100
AcDbEntity
  8
0
 62
     3
100
AcDbText
 10
-21.95269106453068
 20
-58.43739965998705
 30
0.0
 40
2.5
  1
20Lx
 41
0.8
  7
高2.5
100
AcDbText
  0
TEXT
  5
2145
330
36
100
AcDbEntity
  8
0
 62
     3
100
AcDbText
 10
-21.95269106453066
 20
-62.43739965998705
 30
0.0
 40
2.5
  1
50000時間
 41
0.8
  7
高2.5
100
AcDbText
  0
TEXT
  5
2146
330
36
100
AcDbEntity
  8
0
 62
     3
100
AcDbText
 10
-21.95269106453065
 20
-66.43739965998702
 30
0.0
 40
2.5
  1
-20～40℃
 41
0.8
  7
高2.5
100
AcDbText
  0
LINE
  5
2147
330
36
100
AcDbEntity
  8
0
 62
     3
100
AcDbLine
 10
-41.17312420835879
 20
16.83532761274023
 30
0.0
 11
-41.1731242083587
 21
-71.16467238725977
 31
0.0
  0
LINE
  5
2148
330
36
100
AcDbEntity
  8
0
 62
     7
100
AcDbLine
 10
-23.04360015543974
 20
-71.16467238725977
 30
0.0
 11
-23.04360015543981
 21
16.83532761274023
 31
0.0
  0
LINE
  5
2149
330
36
100
AcDbEntity
  8
0
 62
     3
100
AcDbLine
 10
18.41131908252416
 20
-71.16467238725977
 30
0.0
 11
18.41131908252441
 21
16.83532761274023
 31
0.0
  0
TEXT
  5
214A
330
36
100
AcDbEntity
  8
0
 62
     3
100
AcDbText
 10
-27.23248603953668
 20
18.89348205295403
 30
0.0
 40
3.2
  1
主　　仕　　様
  7
高3.2
100
AcDbText
  0
LINE
  5
214B
330
36
100
AcDbEntity
  8
0
100
AcDbLine
 10
-28.03315103426808
 20
18.26384344652297
 30
0.0
 11
0.033918260050001
 21
18.26384344652297
 31
0.0
  0
TEXT
  5
214C
330
36
100
AcDbEntity
  8
0
 62
     7
100
AcDbText
 10
-41.02930883930244
 20
-82.90939817996655
 30
0.0
 40
2.0
  1
注４）照度は当社実測値の為、使用環境下により異なります。
 41
0.8
  7
高2
100
AcDbText
  0
TEXT
  5
214D
330
36
100
AcDbEntity
  8
0
 62
     7
100
AcDbText
 10
-41.02930883930244
 20
-85.59121636178472
 30
0.0
 40
2.0
  1
注５）球寿命は光束が70%%%に低下するまでの時間です。
 41
0.8
  7
高2
100
AcDbText
  0
TEXT
  5
214E
330
36
100
AcDbEntity
  8
0
 62
     7
100
AcDbText
 10
-41.02930883930244
 20
-88.2730345436029
 30
0.0
 40
2.0
  1
　　　表示は設計値であり、製品の寿命を保証するものではありません。
 41
0.8
  7
高2
100
AcDbText
  0
TEXT
  5
214F
330
36
100
AcDbEntity
  8
0
 62
     7
100
AcDbText
 10
-41.02930883930244
 20
-80.22757999814833
 30
0.0
 40
2.0
  1
注３）()内数値は入力200Vでの値です。
 41
0.8
  7
高2
100
AcDbText
  0
TEXT
  5
2150
330
36
100
AcDbEntity
  8
0
 62
     7
100
AcDbText
 10
-41.02930883930244
 20
-77.54576181633018
 30
0.0
 40
2.0
  1
注２）LEDの光源色、明るさにはバラツキがあります。
 41
0.8
  7
高2
100
AcDbText
  0
TEXT
  5
2151
330
36
100
AcDbEntity
  8
0
 62
     7
100
AcDbText
 10
-41.02930883930244
 20
-74.863943634512
 30
0.0
 40
2.0
  1
注１）当器具のLED素子交換はできません。
 41
0.8
  7
高2
100
AcDbText
  0
TEXT
  5
2152
330
36
100
AcDbEntity
  8
0
 62
     7
100
AcDbText
 10
-41.02930883930244
 20
-90.95485272542109
 30
0.0
 40
2.0
  1
注６）安全にご使用いただくため、取扱説明書をご参照ください。
 41
0.8
  7
高2
100
AcDbText
  0
TEXT
  5
2154
330
36
100
AcDbEntity
  8
0
 62
     3
100
AcDbText
 10
-40.08221511744969
 20
13.56260034001296
 30
0.0
 40
2.5
  1
型　　　式
 41
0.8
  7
高2.5
100
AcDbText
  0
LINE
  5
2155
330
36
100
AcDbEntity
  8
0
 62
     3
100
AcDbLine
 10
-41.17312420835879
 20
16.83532761274023
 30
0.0
 11
18.41131908252409
 21
16.83532761274023
 31
0.0
  0
TEXT
  5
2156
330
36
100
AcDbEntity
  8
0
 62
     3
100
AcDbText
 10
-21.95269106453071
 20
13.56260034001296
 30
0.0
 40
2.5
  1
LCL-2010W-HI
 41
0.8
  7
高2.5
100
AcDbText
  0
TEXT
  5
2157
330
36
100
AcDbEntity
  8
0
 62
     7
100
AcDbText
 10
-41.02930883930244
 20
-93.63667090723927
 30
0.0
 40
2.0
  1
注７）仕様変更は予告なく行う場合があります。予めご了承ください。
 41
0.8
  7
高2
100
AcDbText
  0
TEXT
  5
2158
330
36
100
AcDbEntity
  8
0
 62
     3
100
AcDbText
 10
-40.08221511744966
 20
9.562600340012956
 30
0.0
 40
2.5
  1
口金サイズ
 41
0.8
  7
高2.5
100
AcDbText
  0
LINE
  5
2159
330
36
100
AcDbEntity
  8
0
 62
     7
100
AcDbLine
 10
-41.17312420835875
 20
8.835327612740231
 30
0.0
 11
18.41131908252412
 21
8.835327612740231
 31
0.0
  0
TEXT
  5
215A
330
36
100
AcDbEntity
  8
0
 62
     3
100
AcDbText
 10
-21.95269106453068
 20
9.562600340012956
 30
0.0
 40
2.5
  1
G13
 41
0.8
  7
高2.5
100
AcDbText
  0
TEXT
  5
2686
330
36
100
AcDbEntity
  8
0
100
AcDbText
 10
62.3077672175923
 20
37.06045809064517
 30
0.0
 40
3.2
  1
H
  7
高3.2
100
AcDbText
  0
TEXT
  5
2687
330
36
100
AcDbEntity
  8
0
100
AcDbText
 10
51.64700500605203
 20
47.71581631323761
 30
0.0
 40
3.2
  1
V
  7
高3.2
100
AcDbText
  0
TEXT
  5
2AF6
330
36
100
AcDbEntity
  8
0
 62
     3
100
AcDbText
 10
-40.08221511744965
 20
-10.43739965998704
 30
0.0
 40
2.5
  1
照射　角度
 41
0.8
  7
高2.5
100
AcDbText
  0
TEXT
  5
2AF7
330
36
100
AcDbEntity
  8
0
 62
     3
100
AcDbText
 10
-21.95269106453067
 20
-10.43739965998704
 30
0.0
 40
2.5
  1
H:105\U+00B0 V:140\U+00B0[1/2ビーム角]
 41
0.8
  7
高2.5
100
AcDbText
  0
TEXT
  5
2F3F
330
36
100
AcDbEntity
  8
0
 62
     4
100
AcDbText
 10
72.70573159015064
 20
75.4281400715056
 30
0.0
 40
1.5
  1
L
 50
180.0
100
AcDbText
  0
TEXT
  5
2F44
330
36
100
AcDbEntity
  8
0
 62
     4
100
AcDbText
 10
65.58327142446796
 20
75.4281400715056
 30
0.0
 40
1.5
  1
N
 50
180.0
100
AcDbText
  0
TEXT
  5
3512
330
36
100
AcDbEntity
  8
0
100
AcDbText
 10
15.5
 20
124.0
 30
0.0
 40
2.5
  1
'22.01.17
  7
高2.5
100
AcDbText
  0
TEXT
  5
3513
330
36
100
AcDbEntity
  8
0
100
AcDbText
 10
33.5
 20
124.0
 30
0.0
 40
2.5
  1
仕様修正
  7
高2.5
100
AcDbText
  0
TEXT
  5
3514
330
36
100
AcDbEntity
  8
0
100
AcDbText
 10
77.5
 20
124.0
 30
0.0
 40
2.5
  1
今村
  7
高2.5
100
AcDbText
  0
TEXT
  5
355A
330
36
100
AcDbEntity
  8
0
 62
     4
100
AcDbText
 10
49.14987330779218
 20
21.07614018766458
 30
0.0
 40
3.0
  1
片側給電
100
AcDbText
1001
ACAD
1000
MTEXTBEGIN
1070
    73
1070
     1
1070
    44
1040
1.0
1070
    74
1070
     0
1000
MTEXTEND
  0
TEXT
  5
3565
330
36
100
AcDbEntity
  8
0
 62
     4
100
AcDbText
 10
3.074575201172411
 20
87.47602290223426
 30
0.0
 40
3.0
  1
アルミ
100
AcDbText
1001
ACAD
1000
MTEXTBEGIN
1070
    73
1070
     1
1070
    44
1040
1.0
1070
    74
1070
     0
1000
MTEXTEND
  0
TEXT
  5
3568
330
36
100
AcDbEntity
  8
0
 62
     4
100
AcDbText
 10
10.01252311154572
 20
54.08889083140707
 30
0.0
 40
3.0
  1
PC(乳白色)
100
AcDbText
1001
ACAD
1000
MTEXTBEGIN
1070
    73
1070
     1
1070
    44
1040
1.0
1070
    74
1070
     0
1000
MTEXTEND
  0
LINE
  5
356B
330
36
100
AcDbEntity
  8
0
100
AcDbLine
 10
-43.72756784919115
 20
44.81732579885988
 30
0.0
 11
-49.48497997696723
 21
44.81732579885989
 31
0.0
  0
LINE
  5
356C
330
36
100
AcDbEntity
  8
0
100
AcDbLine
 10
-43.72756784919115
 20
31.81732579885988
 30
0.0
 11
-49.48497997696723
 21
31.81732579885988
 31
0.0
  0
LINE
  5
356D
330
36
100
AcDbEntity
  8
0
100
AcDbLine
 10
-48.23497997696723
 20
29.31732579885988
 30
0.0
 11
-48.23497997696723
 21
26.81732579885988
 31
0.0
  0
LINE
  5
356E
330
36
100
AcDbEntity
  8
0
100
AcDbLine
 10
-48.23497997696723
 20
47.31732579885989
 30
0.0
 11
-48.23497997696722
 21
56.0673257988599
 31
0.0
  0
LINE
  5
356F
330
36
100
AcDbEntity
  8
0
100
AcDbLine
 10
-48.23497997696723
 20
31.81732579885988
 30
0.0
 11
-48.23497997696723
 21
44.81732579885989
 31
0.0
  0
LINE
  5
3573
330
36
100
AcDbEntity
  8
0
100
AcDbLine
 10
-41.35918016248346
 20
80.1014458849861
 30
0.0
 11
-45.18582235712755
 21
80.1014458849861
 31
0.0
  0
LINE
  5
3574
330
36
100
AcDbEntity
  8
0
100
AcDbLine
 10
-41.35918016248346
 20
65.3514458849861
 30
0.0
 11
-45.18582235712755
 21
65.3514458849861
 31
0.0
  0
LINE
  5
3575
330
36
100
AcDbEntity
  8
0
100
AcDbLine
 10
-43.93582235712755
 20
62.8514458849861
 30
0.0
 11
-43.93582235712755
 21
60.3514458849861
 31
0.0
  0
LINE
  5
3576
330
36
100
AcDbEntity
  8
0
100
AcDbLine
 10
-43.93582235712755
 20
82.6014458849861
 30
0.0
 11
-43.93582235712755
 21
95.35144588498608
 31
0.0
  0
LINE
  5
3577
330
36
100
AcDbEntity
  8
0
100
AcDbLine
 10
-43.93582235712755
 20
65.3514458849861
 30
0.0
 11
-43.93582235712755
 21
80.1014458849861
 31
0.0
  0
LINE
  5
357B
330
36
100
AcDbEntity
  8
0
100
AcDbLine
 10
38.8664283769142
 20
73.35144588498609
 30
0.0
 11
38.8664283769142
 21
104.3531517358026
 31
0.0
  0
LINE
  5
357C
330
36
100
AcDbEntity
  8
0
100
AcDbLine
 10
-82.68161670140376
 20
73.35144588498609
 30
0.0
 11
-82.68161670140376
 21
104.3531517358026
 31
0.0
  0
LINE
  5
357D
330
36
100
AcDbEntity
  8
0
100
AcDbLine
 10
36.3664283769142
 20
103.1031517358026
 30
0.0
 11
-80.18161670140376
 21
103.1031517358026
 31
0.0
  0
LINE
  5
3581
330
36
100
AcDbEntity
  8
0
100
AcDbLine
 10
35.1164283769142
 20
79.47644588498609
 30
0.0
 11
35.1164283769142
 21
98.31633973020712
 31
0.0
  0
LINE
  5
3582
330
36
100
AcDbEntity
  8
0
100
AcDbLine
 10
-78.93161670140376
 20
79.47644588498609
 30
0.0
 11
-78.93161670140376
 21
98.31633973020712
 31
0.0
  0
LINE
  5
3583
330
36
100
AcDbEntity
  8
0
100
AcDbLine
 10
32.6164283769142
 20
97.06633973020712
 30
0.0
 11
-76.43161670140376
 21
97.06633973020712
 31
0.0
  0
LINE
  5
3587
330
36
100
AcDbEntity
  8
0
100
AcDbLine
 10
68.43765139121659
 20
79.67644588498611
 30
0.0
 11
54.23617730396427
 21
79.67644588498611
 31
0.0
  0
LINE
  5
3588
330
36
100
AcDbEntity
  8
0
100
AcDbLine
 10
68.43765139121659
 20
65.77644588498611
 30
0.0
 11
54.23617730396427
 21
65.77644588498611
 31
0.0
  0
LINE
  5
3589
330
36
100
AcDbEntity
  8
0
100
AcDbLine
 10
55.48617730396427
 20
77.17644588498611
 30
0.0
 11
55.48617730396427
 21
68.27644588498611
 31
0.0
  0
LINE
  5
358D
330
36
100
AcDbEntity
  8
0
100
AcDbLine
 10
61.43765139121659
 20
73.85144588498609
 30
0.0
 11
61.43765139121659
 21
98.29232214251669
 31
0.0
  0
LINE
  5
358E
330
36
100
AcDbEntity
  8
0
100
AcDbLine
 10
75.93765139121664
 20
73.85144588498609
 30
0.0
 11
75.93765139121664
 21
98.29232214251669
 31
0.0
  0
LINE
  5
358F
330
36
100
AcDbEntity
  8
0
100
AcDbLine
 10
63.93765139121659
 20
97.04232214251669
 30
0.0
 11
73.43765139121664
 21
97.04232214251669
 31
0.0
  0
LINE
  5
3593
330
36
100
AcDbEntity
  8
0
100
AcDbLine
 10
68.4376513912167
 20
80.85144588498605
 30
0.0
 11
48.21436893811323
 21
80.85144588498605
 31
0.0
  0
LINE
  5
3594
330
36
100
AcDbEntity
  8
0
100
AcDbLine
 10
68.43765139121659
 20
64.60144588498611
 30
0.0
 11
48.21436893811323
 21
64.60144588498611
 31
0.0
  0
LINE
  5
3595
330
36
100
AcDbEntity
  8
0
100
AcDbLine
 10
49.46436893811323
 20
78.35144588498605
 30
0.0
 11
49.46436893811323
 21
67.10144588498611
 31
0.0
  0
LINE
  5
3599
330
36
100
AcDbEntity
  8
0
 62
     3
100
AcDbLine
 10
-44.17703238000011
 20
138.95788257
 30
0.0
 11
-44.19565991000013
 21
139.07715034
 31
0.0
  0
LINE
  5
359A
330
36
100
AcDbEntity
  8
0
 62
     3
100
AcDbLine
 10
-44.19565991000013
 20
139.07715034
 30
0.0
 11
-44.21803109000006
 21
139.19135512
 31
0.0
  0
LINE
  5
359B
330
36
100
AcDbEntity
  8
0
 62
     3
100
AcDbLine
 10
-44.21803109000006
 20
139.19135512
 30
0.0
 11
-44.2439730200001
 21
139.2996141799999
 31
0.0
  0
LINE
  5
359C
330
36
100
AcDbEntity
  8
0
 62
     3
100
AcDbLine
 10
-44.2439730200001
 20
139.2996141799999
 30
0.0
 11
-44.2732851600001
 21
139.4010907299999
 31
0.0
  0
LINE
  5
359D
330
36
100
AcDbEntity
  8
0
 62
     3
100
AcDbLine
 10
-44.2732851600001
 20
139.4010907299999
 30
0.0
 11
-44.30574096999999
 21
139.49500041
 31
0.0
  0
LINE
  5
359E
330
36
100
AcDbEntity
  8
0
 62
     3
100
AcDbLine
 10
-44.30574096999999
 20
139.49500041
 30
0.0
 11
-44.34108956
 21
139.58061735
 31
0.0
  0
LINE
  5
359F
330
36
100
AcDbEntity
  8
0
 62
     3
100
AcDbLine
 10
-44.34108956
 20
139.58061735
 30
0.0
 11
-44.3790577100001
 21
139.6572797599999
 31
0.0
  0
LINE
  5
35A0
330
36
100
AcDbEntity
  8
0
 62
     3
100
AcDbLine
 10
-44.3790577100001
 20
139.6572797599999
 30
0.0
 11
-44.41935196000009
 21
139.7243951
 31
0.0
  0
LINE
  5
35A1
330
36
100
AcDbEntity
  8
0
 62
     3
100
AcDbLine
 10
-44.41935196000009
 20
139.7243951
 30
0.0
 11
-44.46166083000025
 21
139.7814445899999
 31
0.0
  0
LINE
  5
35A2
330
36
100
AcDbEntity
  8
0
 62
     3
100
AcDbLine
 10
-44.46166083000025
 20
139.7814445899999
 30
0.0
 11
-44.50565732000018
 21
139.82798726
 31
0.0
  0
LINE
  5
35A3
330
36
100
AcDbEntity
  8
0
 62
     3
100
AcDbLine
 10
-44.50565732000018
 20
139.82798726
 30
0.0
 11
-44.55100134000008
 21
139.8636633799999
 31
0.0
  0
LINE
  5
35A4
330
36
100
AcDbEntity
  8
0
 62
     3
100
AcDbLine
 10
-44.55100134000008
 20
139.8636633799999
 30
0.0
 11
-44.59734241000023
 21
139.88819717
 31
0.0
  0
LINE
  5
35A5
330
36
100
AcDbEntity
  8
0
 62
     3
100
AcDbLine
 10
-44.59734241000023
 20
139.88819717
 30
0.0
 11
-44.64432235000002
 21
139.90139902
 31
0.0
  0
LINE
  5
35A6
330
36
100
AcDbEntity
  8
0
 62
     3
100
AcDbLine
 10
-44.64432235000002
 20
139.90139902
 30
0.0
 11
-44.69157801000005
 21
139.90316686
 31
0.0
  0
LINE
  5
35A7
330
36
100
AcDbEntity
  8
0
 62
     3
100
AcDbLine
 10
-44.69157801000005
 20
139.90316686
 30
0.0
 11
-44.7387441400001
 21
139.8934870499999
 31
0.0
  0
LINE
  5
35A8
330
36
100
AcDbEntity
  8
0
 62
     3
100
AcDbLine
 10
-44.7387441400001
 20
139.8934870499999
 30
0.0
 11
-44.78545617000007
 21
139.8724343899999
 31
0.0
  0
LINE
  5
35A9
330
36
100
AcDbEntity
  8
0
 62
     3
100
AcDbLine
 10
-44.78545617000007
 20
139.8724343899999
 30
0.0
 11
-44.83135303000017
 21
139.8401716199999
 31
0.0
  0
LINE
  5
35AA
330
36
100
AcDbEntity
  8
0
 62
     3
100
AcDbLine
 10
-44.83135303000017
 20
139.8401716199999
 30
0.0
 11
-44.87607997000011
 21
139.79694811
 31
0.0
  0
LINE
  5
35AB
330
36
100
AcDbEntity
  8
0
 62
     3
100
AcDbLine
 10
-44.87607997000011
 20
139.79694811
 30
0.0
 11
-44.91929128000015
 21
139.74309795
 31
0.0
  0
LINE
  5
35AC
330
36
100
AcDbEntity
  8
0
 62
     3
100
AcDbLine
 10
-44.91929128000015
 20
139.74309795
 30
0.0
 11
-44.96065294000003
 21
139.6790373799999
 31
0.0
  0
LINE
  5
35AD
330
36
100
AcDbEntity
  8
0
 62
     3
100
AcDbLine
 10
-44.96065294000003
 20
139.6790373799999
 30
0.0
 11
-44.99984526000026
 21
139.60526156
 31
0.0
  0
LINE
  5
35AE
330
36
100
AcDbEntity
  8
0
 62
     3
100
AcDbLine
 10
-44.99984526000026
 20
139.60526156
 30
0.0
 11
-45.0365653000001
 21
139.52234073
 31
0.0
  0
LINE
  5
35AF
330
36
100
AcDbEntity
  8
0
 62
     3
100
AcDbLine
 10
-45.0365653000001
 20
139.52234073
 30
0.0
 11
-45.07052923000014
 21
139.43091582
 31
0.0
  0
LINE
  5
35B0
330
36
100
AcDbEntity
  8
0
 62
     3
100
AcDbLine
 10
-45.07052923000014
 20
139.43091582
 30
0.0
 11
-45.10147453000013
 21
139.33169352
 31
0.0
  0
LINE
  5
35B1
330
36
100
AcDbEntity
  8
0
 62
     3
100
AcDbLine
 10
-45.10147453000013
 20
139.33169352
 30
0.0
 11
-45.12916201000006
 21
139.2254407499999
 31
0.0
  0
LINE
  5
35B2
330
36
100
AcDbEntity
  8
0
 62
     3
100
AcDbLine
 10
-45.12916201000006
 20
139.2254407499999
 30
0.0
 11
-45.15337766000015
 21
139.1129787899999
 31
0.0
  0
LINE
  5
35B3
330
36
100
AcDbEntity
  8
0
 62
     3
100
AcDbLine
 10
-45.15337766000015
 20
139.1129787899999
 30
0.0
 11
-45.17393430000015
 21
138.99517691
 31
0.0
  0
LINE
  5
35B4
330
36
100
AcDbEntity
  8
0
 62
     3
100
AcDbLine
 10
-45.17393430000015
 20
138.99517691
 30
0.0
 11
-45.19067304000009
 21
138.87294567
 31
0.0
  0
LINE
  5
35B5
330
36
100
AcDbEntity
  8
0
 62
     3
100
AcDbLine
 10
-45.19067304000009
 20
138.87294567
 30
0.0
 11
-45.2034645000001
 21
138.7472298499999
 31
0.0
  0
LINE
  5
35B6
330
36
100
AcDbEntity
  8
0
 62
     3
100
AcDbLine
 10
-45.2034645000001
 20
138.7472298499999
 30
0.0
 11
-45.2122098100001
 21
138.61900117
 31
0.0
  0
LINE
  5
35B7
330
36
100
AcDbEntity
  8
0
 62
     3
100
AcDbLine
 10
-45.2122098100001
 20
138.61900117
 30
0.0
 11
-45.2168413700001
 21
138.48925076
 31
0.0
  0
LINE
  5
35B8
330
36
100
AcDbEntity
  8
0
 62
     3
100
AcDbLine
 10
-45.2168413700001
 20
138.48925076
 30
0.0
 11
-45.21732338000015
 21
138.3589815299999
 31
0.0
  0
LINE
  5
35B9
330
36
100
AcDbEntity
  8
0
 62
     3
100
AcDbLine
 10
-45.21732338000015
 20
138.3589815299999
 30
0.0
 11
-45.21365212
 21
138.2292004099999
 31
0.0
  0
LINE
  5
35BA
330
36
100
AcDbEntity
  8
0
 62
     3
100
AcDbLine
 10
-45.21365212
 20
138.2292004099999
 30
0.0
 11
-45.20585596
 21
138.10091052
 31
0.0
  0
LINE
  5
35BB
330
36
100
AcDbEntity
  8
0
 62
     3
100
AcDbLine
 10
-45.20585596
 20
138.10091052
 30
0.0
 11
-45.19399516000021
 21
137.97510348
 31
0.0
  0
LINE
  5
35BC
330
36
100
AcDbEntity
  8
0
 62
     3
100
AcDbLine
 10
-45.19399516000021
 20
137.97510348
 30
0.0
 11
-45.17816140000014
 21
137.85275171
 31
0.0
  0
LINE
  5
35BD
330
36
100
AcDbEntity
  8
0
 62
     3
100
AcDbLine
 10
-45.17816140000014
 20
137.85275171
 30
0.0
 11
-45.15847708000001
 21
137.73480094
 31
0.0
  0
LINE
  5
35BE
330
36
100
AcDbEntity
  8
0
 62
     3
100
AcDbLine
 10
-45.15847708000001
 20
137.73480094
 30
0.0
 11
-45.13509432000001
 21
137.62216287
 31
0.0
  0
LINE
  5
35BF
330
36
100
AcDbEntity
  8
0
 62
     3
100
AcDbLine
 10
-45.13509432000001
 20
137.62216287
 30
0.0
 11
-45.10819389000015
 21
137.51570811
 31
0.0
  0
LINE
  5
35C0
330
36
100
AcDbEntity
  8
0
 62
     3
100
AcDbLine
 10
-45.10819389000015
 20
137.51570811
 30
0.0
 11
-45.0779836900001
 21
137.41625952
 31
0.0
  0
LINE
  5
35C1
330
36
100
AcDbEntity
  8
0
 62
     3
100
AcDbLine
 10
-45.0779836900001
 20
137.41625952
 30
0.0
 11
-45.04469723999998
 21
137.32458579
 31
0.0
  0
LINE
  5
35C2
330
36
100
AcDbEntity
  8
0
 62
     3
100
AcDbLine
 10
-45.04469723999998
 20
137.32458579
 30
0.0
 11
-45.00859184000001
 21
137.24139549
 31
0.0
  0
LINE
  5
35C3
330
36
100
AcDbEntity
  8
0
 62
     3
100
AcDbLine
 10
-45.00859184000001
 20
137.24139549
 30
0.0
 11
-44.96994654000014
 21
137.1673316599999
 31
0.0
  0
LINE
  5
35C4
330
36
100
AcDbEntity
  8
0
 62
     3
100
AcDbLine
 10
-44.96994654000014
 20
137.1673316599999
 30
0.0
 11
-44.92906006000021
 21
137.10296677
 31
0.0
  0
LINE
  5
35C5
330
36
100
AcDbEntity
  8
0
 62
     3
100
AcDbLine
 10
-44.92906006000021
 20
137.10296677
 30
0.0
 11
-44.88624844000014
 21
137.04879832
 31
0.0
  0
LINE
  5
35C6
330
36
100
AcDbEntity
  8
0
 62
     3
100
AcDbLine
 10
-44.88624844000014
 20
137.04879832
 30
0.0
 11
-44.84184258000005
 21
137.005245
 31
0.0
  0
LINE
  5
35C7
330
36
100
AcDbEntity
  8
0
 62
     3
100
AcDbLine
 10
-44.84184258000005
 20
137.005245
 30
0.0
 11
-44.79618573000015
 21
136.9726434699999
 31
0.0
  0
LINE
  5
35C8
330
36
100
AcDbEntity
  8
0
 62
     3
100
AcDbLine
 10
-44.79618573000015
 20
136.9726434699999
 30
0.0
 11
-44.74963077000007
 21
136.9512457099999
 31
0.0
  0
LINE
  5
35C9
330
36
100
AcDbEntity
  8
0
 62
     3
100
AcDbLine
 10
-44.74963077000007
 20
136.9512457099999
 30
0.0
 11
-44.7025375600001
 21
136.94121713
 31
0.0
  0
LINE
  5
35CA
330
36
100
AcDbEntity
  8
0
 62
     3
100
AcDbLine
 10
-44.7025375600001
 20
136.94121713
 30
0.0
 11
-44.65527011000017
 21
136.9426352299999
 31
0.0
  0
LINE
  5
35CB
330
36
100
AcDbEntity
  8
0
 62
     3
100
AcDbLine
 10
-44.65527011000017
 20
136.9426352299999
 30
0.0
 11
-44.60819377000006
 21
136.95548905
 31
0.0
  0
LINE
  5
35CC
330
36
100
AcDbEntity
  8
0
 62
     3
100
AcDbLine
 10
-44.60819377000006
 20
136.95548905
 30
0.0
 11
-44.56167241000001
 21
136.97967925
 31
0.0
  0
LINE
  5
35CD
330
36
100
AcDbEntity
  8
0
 62
     3
100
AcDbLine
 10
-44.56167241000001
 20
136.97967925
 30
0.0
 11
-44.51606562000007
 21
137.01501883
 31
0.0
  0
LINE
  5
35CE
330
36
100
AcDbEntity
  8
0
 62
     3
100
AcDbLine
 10
-44.51606562000007
 20
137.01501883
 30
0.0
 11
-44.47172592000015
 21
137.0612346499999
 31
0.0
  0
LINE
  5
35CF
330
36
100
AcDbEntity
  8
0
 62
     3
100
AcDbLine
 10
-44.47172592000015
 20
137.0612346499999
 30
0.0
 11
-44.42899603000022
 21
137.1179694899999
 31
0.0
  0
LINE
  5
35D0
330
36
100
AcDbEntity
  8
0
 62
     3
100
AcDbLine
 10
-44.42899603000022
 20
137.1179694899999
 30
0.0
 11
-44.38820623000014
 21
137.1847848
 31
0.0
  0
LINE
  5
35D1
330
36
100
AcDbEntity
  8
0
 62
     3
100
AcDbLine
 10
-44.38820623000014
 20
137.1847848
 30
0.0
 11
-44.3496718000001
 21
137.26116415
 31
0.0
  0
LINE
  5
35D2
330
36
100
AcDbEntity
  8
0
 62
     3
100
AcDbLine
 10
-44.3496718000001
 20
137.26116415
 30
0.0
 11
-44.31369059999997
 21
137.3465171599999
 31
0.0
  0
LINE
  5
35D3
330
36
100
AcDbEntity
  8
0
 62
     3
100
AcDbLine
 10
-44.31369059999997
 20
137.3465171599999
 30
0.0
 11
-44.2805407400001
 21
137.44018409
 31
0.0
  0
LINE
  5
35D4
330
36
100
AcDbEntity
  8
0
 62
     3
100
AcDbLine
 10
-44.2805407400001
 20
137.44018409
 30
0.0
 11
-44.25047846000007
 21
137.54144095
 31
0.0
  0
LINE
  5
35D5
330
36
100
AcDbEntity
  8
0
 62
     3
100
AcDbLine
 10
-44.25047846000007
 20
137.54144095
 30
0.0
 11
-44.2237361100001
 21
137.64950507
 31
0.0
  0
LINE
  5
35D6
330
36
100
AcDbEntity
  8
0
 62
     3
100
AcDbLine
 10
-44.2237361100001
 20
137.64950507
 30
0.0
 11
-44.20052041000007
 21
137.7635411799999
 31
0.0
  0
LINE
  5
35D7
330
36
100
AcDbEntity
  8
0
 62
     3
100
AcDbLine
 10
-44.20052041000007
 20
137.7635411799999
 30
0.0
 11
-44.18101079999996
 21
137.8826678299999
 31
0.0
  0
LINE
  5
35D8
330
36
100
AcDbEntity
  8
0
100
AcDbLine
 10
38.27285378722263
 20
32.57878525963445
 30
0.0
 11
46.02487330779218
 21
22.57614018766458
 31
0.0
1001
ACAD
1000
DSTYLE
1002
{
1070
   147
1040
0.625
1070
    77
1070
     0
1002
}
  0
LINE
  5
35D9
330
36
100
AcDbEntity
  8
0
  6
ByBlock
 62
     0
370
    -2
100
AcDbLine
 10
37.74337570077776
 20
32.16844135236772
 30
0.0
 11
36.7414283769142
 21
34.55482579885972
 31
0.0
  0
LINE
  5
35DA
330
36
100
AcDbEntity
  8
0
  6
ByBlock
 62
     0
370
    -2
100
AcDbLine
 10
36.7414283769142
 20
34.55482579885972
 30
0.0
 11
38.8023318736675
 21
32.98912916690119
 31
0.0
  0
LINE
  5
35DB
330
36
100
AcDbEntity
  8
0
  6
ByBlock
 62
     0
370
    -2
100
AcDbLine
 10
36.7414283769142
 20
34.55482579885972
 30
0.0
 11
38.27285378722262
 21
32.57878525963445
 31
0.0
  0
LINE
  5
35DC
330
36
100
AcDbEntity
  8
0
100
AcDbLine
 10
37.87104124815897
 20
38.67458483404945
 30
0.0
 11
46.02487330779218
 21
22.57614018766458
 31
0.0
1001
ACAD
1000
DSTYLE
1002
{
1070
   147
1040
0.625
1070
    77
1070
     0
1002
}
  0
LINE
  5
35DD
330
36
100
AcDbEntity
  8
0
100
AcDbLine
 10
46.02487330779218
 20
22.57614018766458
 30
0.0
 11
48.52487330779218
 21
22.57614018766458
 31
0.0
1001
ACAD
1000
DSTYLE
1002
{
1070
   147
1040
0.625
1070
    77
1070
     0
1002
}
  0
LINE
  5
35DE
330
36
100
AcDbEntity
  8
0
  6
ByBlock
 62
     0
370
    -2
100
AcDbLine
 10
37.27345041187901
 20
38.37190619481228
 30
0.0
 11
36.7414283769142
 21
40.90482579885978
 31
0.0
  0
LINE
  5
35DF
330
36
100
AcDbEntity
  8
0
  6
ByBlock
 62
     0
370
    -2
100
AcDbLine
 10
36.7414283769142
 20
40.90482579885978
 30
0.0
 11
38.46863208443894
 21
38.97726347328661
 31
0.0
  0
LINE
  5
35E0
330
36
100
AcDbEntity
  8
0
  6
ByBlock
 62
     0
370
    -2
100
AcDbLine
 10
36.7414283769142
 20
40.90482579885978
 30
0.0
 11
37.87104124815897
 21
38.67458483404945
 31
0.0
  0
LINE
  5
35E1
330
36
100
AcDbEntity
  8
0
100
AcDbLine
 10
53.00312384200609
 20
33.4086754886373
 30
0.0
 11
53.00312384200609
 21
38.31732579885989
 31
0.0
1001
ACAD
1000
DSTYLE
1002
{
1070
   147
1040
0.625
1070
    77
1070
     0
1002
}
  0
LINE
  5
35E2
330
36
100
AcDbEntity
  8
0
  6
ByBlock
 62
     0
370
    -2
100
AcDbLine
 10
53.67299634200609
 20
33.4086754886373
 30
0.0
 11
53.00312384200609
 21
30.9086754886373
 31
0.0
  0
LINE
  5
35E3
330
36
100
AcDbEntity
  8
0
  6
ByBlock
 62
     0
370
    -2
100
AcDbLine
 10
53.00312384200609
 20
30.9086754886373
 30
0.0
 11
52.33325134200609
 21
33.4086754886373
 31
0.0
  0
LINE
  5
35E4
330
36
100
AcDbEntity
  8
0
  6
ByBlock
 62
     0
370
    -2
100
AcDbLine
 10
53.00312384200609
 20
30.9086754886373
 30
0.0
 11
53.00312384200609
 21
33.4086754886373
 31
0.0
  0
LINE
  5
35E5
330
36
100
AcDbEntity
  8
0
100
AcDbLine
 10
48.09447353178348
 20
38.31732579885989
 30
0.0
 11
53.00312384200609
 21
38.31732579885989
 31
0.0
1001
ACAD
1000
DSTYLE
1002
{
1070
   147
1040
0.625
1070
    77
1070
     0
1002
}
  0
LINE
  5
35E6
330
36
100
AcDbEntity
  8
0
  6
ByBlock
 62
     0
370
    -2
100
AcDbLine
 10
48.09447353178348
 20
37.64745329885989
 30
0.0
 11
45.59447353178348
 21
38.31732579885989
 31
0.0
  0
LINE
  5
35E7
330
36
100
AcDbEntity
  8
0
  6
ByBlock
 62
     0
370
    -2
100
AcDbLine
 10
45.59447353178348
 20
38.31732579885989
 30
0.0
 11
48.09447353178348
 21
38.98719829885989
 31
0.0
  0
LINE
  5
35E8
330
36
100
AcDbEntity
  8
0
  6
ByBlock
 62
     0
370
    -2
100
AcDbLine
 10
45.59447353178348
 20
38.31732579885989
 30
0.0
 11
48.09447353178348
 21
38.31732579885989
 31
0.0
  0
LINE
  5
35E9
330
36
100
AcDbEntity
  8
0
100
AcDbLine
 10
53.00312384200609
 20
43.2259761090824
 30
0.0
 11
53.00312384200609
 21
38.31732579885989
 31
0.0
1001
ACAD
1000
DSTYLE
1002
{
1070
   147
1040
0.625
1070
    77
1070
     0
1002
}
  0
LINE
  5
35EA
330
36
100
AcDbEntity
  8
0
  6
ByBlock
 62
     0
370
    -2
100
AcDbLine
 10
52.33325134200609
 20
43.2259761090824
 30
0.0
 11
53.00312384200609
 21
45.7259761090824
 31
0.0
  0
LINE
  5
35EB
330
36
100
AcDbEntity
  8
0
  6
ByBlock
 62
     0
370
    -2
100
AcDbLine
 10
53.00312384200609
 20
45.7259761090824
 30
0.0
 11
53.67299634200609
 21
43.2259761090824
 31
0.0
  0
LINE
  5
35EC
330
36
100
AcDbEntity
  8
0
  6
ByBlock
 62
     0
370
    -2
100
AcDbLine
 10
53.00312384200609
 20
45.7259761090824
 30
0.0
 11
53.00312384200609
 21
43.2259761090824
 31
0.0
  0
LINE
  5
35ED
330
36
100
AcDbEntity
  8
0
100
AcDbLine
 10
57.91177415222865
 20
38.31732579885989
 30
0.0
 11
53.00312384200609
 21
38.31732579885989
 31
0.0
1001
ACAD
1000
DSTYLE
1002
{
1070
   147
1040
0.625
1070
    77
1070
     0
1002
}
  0
LINE
  5
35EE
330
36
100
AcDbEntity
  8
0
  6
ByBlock
 62
     0
370
    -2
100
AcDbLine
 10
57.91177415222865
 20
38.98719829885989
 30
0.0
 11
60.41177415222865
 21
38.31732579885989
 31
0.0
  0
LINE
  5
35EF
330
36
100
AcDbEntity
  8
0
  6
ByBlock
 62
     0
370
    -2
100
AcDbLine
 10
60.41177415222865
 20
38.31732579885989
 30
0.0
 11
57.91177415222865
 21
37.6474532988599
 31
0.0
  0
LINE
  5
35F0
330
36
100
AcDbEntity
  8
0
  6
ByBlock
 62
     0
370
    -2
100
AcDbLine
 10
60.41177415222865
 20
38.31732579885989
 30
0.0
 11
57.91177415222865
 21
38.31732579885989
 31
0.0
  0
LINE
  5
35F1
330
36
100
AcDbEntity
  8
0
100
AcDbLine
 10
-3.050168431304626
 20
82.37731885000966
 30
0.0
 11
-0.050424798827589
 21
88.97602290223426
 31
0.0
1001
ACAD
1000
DSTYLE
1002
{
1070
   147
1040
0.625
1070
    77
1070
     0
1002
}
  0
LINE
  5
35F2
330
36
100
AcDbEntity
  8
0
100
AcDbLine
 10
-0.050424798827589
 20
88.97602290223426
 30
0.0
 11
2.449575201172411
 21
88.97602290223426
 31
0.0
1001
ACAD
1000
DSTYLE
1002
{
1070
   147
1040
0.625
1070
    77
1070
     0
1002
}
  0
LINE
  5
35F3
330
36
100
AcDbEntity
  8
0
  6
ByBlock
 62
     0
370
    -2
100
AcDbLine
 10
-2.440350546199527
 20
82.10009815586472
 30
0.0
 11
-4.084770889775922
 21
80.1014458849861
 31
0.0
  0
LINE
  5
35F4
330
36
100
AcDbEntity
  8
0
  6
ByBlock
 62
     0
370
    -2
100
AcDbLine
 10
-4.084770889775922
 20
80.1014458849861
 30
0.0
 11
-3.659986316409725
 21
82.65453954415459
 31
0.0
  0
LINE
  5
35F5
330
36
100
AcDbEntity
  8
0
  6
ByBlock
 62
     0
370
    -2
100
AcDbLine
 10
-4.084770889775922
 20
80.1014458849861
 30
0.0
 11
-3.050168431304626
 21
82.37731885000966
 31
0.0
  0
LINE
  5
35F6
330
36
100
AcDbEntity
  8
0
100
AcDbLine
 10
3.864408695502306
 20
63.03507368172057
 30
0.0
 11
6.887523111545721
 21
55.58889083140707
 31
0.0
1001
ACAD
1000
DSTYLE
1002
{
1070
   147
1040
0.625
1070
    77
1070
     0
1002
}
  0
LINE
  5
35F7
330
36
100
AcDbEntity
  8
0
100
AcDbLine
 10
6.887523111545721
 20
55.58889083140707
 30
0.0
 11
9.387523111545721
 21
55.58889083140707
 31
0.0
1001
ACAD
1000
DSTYLE
1002
{
1070
   147
1040
0.625
1070
    77
1070
     0
1002
}
  0
LINE
  5
35F8
330
36
100
AcDbEntity
  8
0
  6
ByBlock
 62
     0
370
    -2
100
AcDbLine
 10
3.243739080009507
 20
62.7830848036718
 30
0.0
 11
2.923972724296001
 21
65.3514458849861
 31
0.0
  0
LINE
  5
35F9
330
36
100
AcDbEntity
  8
0
  6
ByBlock
 62
     0
370
    -2
100
AcDbLine
 10
2.923972724296001
 20
65.3514458849861
 30
0.0
 11
4.485078310995104
 21
63.28706255976932
 31
0.0
  0
LINE
  5
35FA
330
36
100
AcDbEntity
  8
0
  6
ByBlock
 62
     0
370
    -2
100
AcDbLine
 10
2.923972724296001
 20
65.3514458849861
 30
0.0
 11
3.864408695502305
 21
63.03507368172056
 31
0.0
  0
TEXT
  5
35FB
330
36
100
AcDbEntity
  8
0
 62
     4
100
AcDbText
 10
-48.85997997696723
 20
50.44232579885989
 30
0.0
 40
3.0
  1
26
 50
90.0
100
AcDbText
  0
LINE
  5
35FC
330
36
100
AcDbEntity
  8
0
  6
ByBlock
 62
     0
370
    -2
100
AcDbLine
 10
-47.56510747696721
 20
47.31732579885989
 30
0.0
 11
-48.23497997696723
 21
44.81732579885989
 31
0.0
  0
LINE
  5
35FD
330
36
100
AcDbEntity
  8
0
  6
ByBlock
 62
     0
370
    -2
100
AcDbLine
 10
-48.23497997696723
 20
44.81732579885989
 30
0.0
 11
-48.90485247696722
 21
47.31732579885989
 31
0.0
  0
LINE
  5
35FE
330
36
100
AcDbEntity
  8
0
  6
ByBlock
 62
     0
370
    -2
100
AcDbLine
 10
-48.23497997696723
 20
44.81732579885989
 30
0.0
 11
-48.23497997696723
 21
47.31732579885989
 31
0.0
  0
LINE
  5
35FF
330
36
100
AcDbEntity
  8
0
  6
ByBlock
 62
     0
370
    -2
100
AcDbLine
 10
-48.90485247696722
 20
29.31732579885988
 30
0.0
 11
-48.23497997696723
 21
31.81732579885988
 31
0.0
  0
LINE
  5
3600
330
36
100
AcDbEntity
  8
0
  6
ByBlock
 62
     0
370
    -2
100
AcDbLine
 10
-48.23497997696723
 20
31.81732579885988
 30
0.0
 11
-47.56510747696722
 21
29.31732579885988
 31
0.0
  0
LINE
  5
3601
330
36
100
AcDbEntity
  8
0
  6
ByBlock
 62
     0
370
    -2
100
AcDbLine
 10
-48.23497997696723
 20
31.81732579885988
 30
0.0
 11
-48.23497997696723
 21
29.31732579885988
 31
0.0
  0
TEXT
  5
3602
330
36
100
AcDbEntity
  8
0
 62
     4
100
AcDbText
 10
-44.56082235712756
 20
85.72644588498608
 30
0.0
 40
3.0
  1
29.5
 50
90.0
100
AcDbText
  0
LINE
  5
3603
330
36
100
AcDbEntity
  8
0
  6
ByBlock
 62
     0
370
    -2
100
AcDbLine
 10
-43.26594985712755
 20
82.6014458849861
 30
0.0
 11
-43.93582235712755
 21
80.1014458849861
 31
0.0
  0
LINE
  5
3604
330
36
100
AcDbEntity
  8
0
  6
ByBlock
 62
     0
370
    -2
100
AcDbLine
 10
-43.93582235712755
 20
80.1014458849861
 30
0.0
 11
-44.60569485712754
 21
82.6014458849861
 31
0.0
  0
LINE
  5
3605
330
36
100
AcDbEntity
  8
0
  6
ByBlock
 62
     0
370
    -2
100
AcDbLine
 10
-43.93582235712755
 20
80.1014458849861
 30
0.0
 11
-43.93582235712755
 21
82.6014458849861
 31
0.0
  0
LINE
  5
3606
330
36
100
AcDbEntity
  8
0
  6
ByBlock
 62
     0
370
    -2
100
AcDbLine
 10
-44.60569485712755
 20
62.8514458849861
 30
0.0
 11
-43.93582235712755
 21
65.3514458849861
 31
0.0
  0
LINE
  5
3607
330
36
100
AcDbEntity
  8
0
  6
ByBlock
 62
     0
370
    -2
100
AcDbLine
 10
-43.93582235712755
 20
65.3514458849861
 30
0.0
 11
-43.26594985712755
 21
62.8514458849861
 31
0.0
  0
LINE
  5
3608
330
36
100
AcDbEntity
  8
0
  6
ByBlock
 62
     0
370
    -2
100
AcDbLine
 10
-43.93582235712755
 20
65.3514458849861
 30
0.0
 11
-43.93582235712755
 21
62.8514458849861
 31
0.0
  0
TEXT
  5
3609
330
36
100
AcDbEntity
  8
0
 62
     4
100
AcDbText
 10
-25.90759416224478
 20
103.7281517358026
 30
0.0
 40
3.0
  1
596
100
AcDbText
  0
LINE
  5
360A
330
36
100
AcDbEntity
  8
0
  6
ByBlock
 62
     0
370
    -2
100
AcDbLine
 10
-80.18161670140376
 20
102.4332792358026
 30
0.0
 11
-82.68161670140376
 21
103.1031517358026
 31
0.0
  0
LINE
  5
360B
330
36
100
AcDbEntity
  8
0
  6
ByBlock
 62
     0
370
    -2
100
AcDbLine
 10
-82.68161670140376
 20
103.1031517358026
 30
0.0
 11
-80.18161670140376
 21
103.7730242358026
 31
0.0
  0
LINE
  5
360C
330
36
100
AcDbEntity
  8
0
  6
ByBlock
 62
     0
370
    -2
100
AcDbLine
 10
-82.68161670140376
 20
103.1031517358026
 30
0.0
 11
-80.18161670140376
 21
103.1031517358026
 31
0.0
  0
LINE
  5
360D
330
36
100
AcDbEntity
  8
0
  6
ByBlock
 62
     0
370
    -2
100
AcDbLine
 10
36.3664283769142
 20
103.7730242358026
 30
0.0
 11
38.8664283769142
 21
103.1031517358026
 31
0.0
  0
LINE
  5
360E
330
36
100
AcDbEntity
  8
0
  6
ByBlock
 62
     0
370
    -2
100
AcDbLine
 10
38.8664283769142
 20
103.1031517358026
 30
0.0
 11
36.3664283769142
 21
102.4332792358026
 31
0.0
  0
LINE
  5
360F
330
36
100
AcDbEntity
  8
0
  6
ByBlock
 62
     0
370
    -2
100
AcDbLine
 10
38.8664283769142
 20
103.1031517358026
 30
0.0
 11
36.3664283769142
 21
103.1031517358026
 31
0.0
  0
TEXT
  5
3610
330
36
100
AcDbEntity
  8
0
 62
     4
100
AcDbText
 10
-25.40759416224478
 20
97.69133973020712
 30
0.0
 40
3.0
  1
581
100
AcDbText
  0
LINE
  5
3611
330
36
100
AcDbEntity
  8
0
  6
ByBlock
 62
     0
370
    -2
100
AcDbLine
 10
-76.43161670140376
 20
96.39646723020712
 30
0.0
 11
-78.93161670140376
 21
97.06633973020712
 31
0.0
  0
LINE
  5
3612
330
36
100
AcDbEntity
  8
0
  6
ByBlock
 62
     0
370
    -2
100
AcDbLine
 10
-78.93161670140376
 20
97.06633973020712
 30
0.0
 11
-76.43161670140376
 21
97.73621223020711
 31
0.0
  0
LINE
  5
3613
330
36
100
AcDbEntity
  8
0
  6
ByBlock
 62
     0
370
    -2
100
AcDbLine
 10
-78.93161670140376
 20
97.06633973020712
 30
0.0
 11
-76.43161670140376
 21
97.06633973020712
 31
0.0
  0
LINE
  5
3614
330
36
100
AcDbEntity
  8
0
  6
ByBlock
 62
     0
370
    -2
100
AcDbLine
 10
32.6164283769142
 20
97.73621223020711
 30
0.0
 11
35.1164283769142
 21
97.06633973020712
 31
0.0
  0
LINE
  5
3615
330
36
100
AcDbEntity
  8
0
  6
ByBlock
 62
     0
370
    -2
100
AcDbLine
 10
35.1164283769142
 20
97.06633973020712
 30
0.0
 11
32.6164283769142
 21
96.39646723020712
 31
0.0
  0
LINE
  5
3616
330
36
100
AcDbEntity
  8
0
  6
ByBlock
 62
     0
370
    -2
100
AcDbLine
 10
35.1164283769142
 20
97.06633973020712
 30
0.0
 11
32.6164283769142
 21
97.06633973020712
 31
0.0
  0
TEXT
  5
3617
330
36
100
AcDbEntity
  8
0
 62
     4
100
AcDbText
 10
54.86117730396427
 20
66.76394588498613
 30
0.0
 40
3.0
  1
\U+220527.8
 50
90.0
100
AcDbText
  0
LINE
  5
3618
330
36
100
AcDbEntity
  8
0
  6
ByBlock
 62
     0
370
    -2
100
AcDbLine
 10
56.15604980396428
 20
68.27644588498611
 30
0.0
 11
55.48617730396427
 21
65.77644588498611
 31
0.0
  0
LINE
  5
3619
330
36
100
AcDbEntity
  8
0
  6
ByBlock
 62
     0
370
    -2
100
AcDbLine
 10
55.48617730396427
 20
65.77644588498611
 30
0.0
 11
54.81630480396428
 21
68.27644588498611
 31
0.0
  0
LINE
  5
361A
330
36
100
AcDbEntity
  8
0
  6
ByBlock
 62
     0
370
    -2
100
AcDbLine
 10
55.48617730396427
 20
65.77644588498611
 30
0.0
 11
55.48617730396427
 21
68.27644588498611
 31
0.0
  0
LINE
  5
361B
330
36
100
AcDbEntity
  8
0
  6
ByBlock
 62
     0
370
    -2
100
AcDbLine
 10
54.81630480396428
 20
77.17644588498611
 30
0.0
 11
55.48617730396427
 21
79.67644588498611
 31
0.0
  0
LINE
  5
361C
330
36
100
AcDbEntity
  8
0
  6
ByBlock
 62
     0
370
    -2
100
AcDbLine
 10
55.48617730396427
 20
79.67644588498611
 30
0.0
 11
56.15604980396427
 21
77.17644588498611
 31
0.0
  0
LINE
  5
361D
330
36
100
AcDbEntity
  8
0
  6
ByBlock
 62
     0
370
    -2
100
AcDbLine
 10
55.48617730396427
 20
79.67644588498611
 30
0.0
 11
55.48617730396427
 21
77.17644588498611
 31
0.0
  0
TEXT
  5
361E
330
36
100
AcDbEntity
  8
0
 62
     4
100
AcDbText
 10
66.18765139121659
 20
97.66732214251669
 30
0.0
 40
3.0
  1
29
100
AcDbText
  0
LINE
  5
361F
330
36
100
AcDbEntity
  8
0
  6
ByBlock
 62
     0
370
    -2
100
AcDbLine
 10
73.43765139121664
 20
97.7121946425167
 30
0.0
 11
75.93765139121664
 21
97.04232214251669
 31
0.0
  0
LINE
  5
3620
330
36
100
AcDbEntity
  8
0
  6
ByBlock
 62
     0
370
    -2
100
AcDbLine
 10
75.93765139121664
 20
97.04232214251669
 30
0.0
 11
73.43765139121664
 21
96.37244964251671
 31
0.0
  0
LINE
  5
3621
330
36
100
AcDbEntity
  8
0
  6
ByBlock
 62
     0
370
    -2
100
AcDbLine
 10
75.93765139121664
 20
97.04232214251669
 30
0.0
 11
73.43765139121664
 21
97.04232214251669
 31
0.0
  0
LINE
  5
3622
330
36
100
AcDbEntity
  8
0
  6
ByBlock
 62
     0
370
    -2
100
AcDbLine
 10
63.93765139121659
 20
96.37244964251671
 30
0.0
 11
61.43765139121659
 21
97.04232214251669
 31
0.0
  0
LINE
  5
3623
330
36
100
AcDbEntity
  8
0
  6
ByBlock
 62
     0
370
    -2
100
AcDbLine
 10
61.43765139121659
 20
97.04232214251669
 30
0.0
 11
63.93765139121659
 21
97.7121946425167
 31
0.0
  0
LINE
  5
3624
330
36
100
AcDbEntity
  8
0
  6
ByBlock
 62
     0
370
    -2
100
AcDbLine
 10
61.43765139121659
 20
97.04232214251669
 30
0.0
 11
63.93765139121659
 21
97.04232214251669
 31
0.0
  0
TEXT
  5
3625
330
36
100
AcDbEntity
  8
0
 62
     4
100
AcDbText
 10
48.83936893811323
 20
68.06611283784469
 30
0.0
 40
3.0
  1
32.5
 50
90.0
100
AcDbText
  0
LINE
  5
3626
330
36
100
AcDbEntity
  8
0
  6
ByBlock
 62
     0
370
    -2
100
AcDbLine
 10
50.13424143811324
 20
67.10144588498611
 30
0.0
 11
49.46436893811323
 21
64.60144588498611
 31
0.0
  0
LINE
  5
3627
330
36
100
AcDbEntity
  8
0
  6
ByBlock
 62
     0
370
    -2
100
AcDbLine
 10
49.46436893811323
 20
64.60144588498611
 30
0.0
 11
48.79449643811323
 21
67.10144588498611
 31
0.0
  0
LINE
  5
3628
330
36
100
AcDbEntity
  8
0
  6
ByBlock
 62
     0
370
    -2
100
AcDbLine
 10
49.46436893811323
 20
64.60144588498611
 30
0.0
 11
49.46436893811323
 21
67.10144588498611
 31
0.0
  0
LINE
  5
3629
330
36
100
AcDbEntity
  8
0
  6
ByBlock
 62
     0
370
    -2
100
AcDbLine
 10
48.79449643811324
 20
78.35144588498605
 30
0.0
 11
49.46436893811323
 21
80.85144588498605
 31
0.0
  0
LINE
  5
362A
330
36
100
AcDbEntity
  8
0
  6
ByBlock
 62
     0
370
    -2
100
AcDbLine
 10
49.46436893811323
 20
80.85144588498605
 30
0.0
 11
50.13424143811324
 21
78.35144588498605
 31
0.0
  0
LINE
  5
362B
330
36
100
AcDbEntity
  8
0
  6
ByBlock
 62
     0
370
    -2
100
AcDbLine
 10
49.46436893811323
 20
80.85144588498605
 30
0.0
 11
49.46436893811323
 21
78.35144588498605
 31
0.0
  0
ENDSEC
  0
SECTION
  2
OBJECTS
  0
DICTIONARY
  5
C
330
0
100
AcDbDictionary
281
     1
  3
ACAD_2007HEADERVARS_RT
350
362F
  3
ACAD_COLOR
350
2F
  3
ACAD_GROUP
350
D
  3
ACAD_LAYOUT
350
2E
  3
ACAD_MATERIAL
350
10
  3
ACAD_MLEADERSTYLE
350
B6E
  3
ACAD_MLINESTYLE
350
2B
  3
ACAD_PLOTSETTINGS
350
2D
  3
ACAD_PLOTSTYLENAME
350
E
  3
ACAD_SCALELIST
350
B5C
  3
ACAD_TABLESTYLE
350
30
  3
ACAD_VISUALSTYLE
350
14
  3
AcadDim
350
10D8
  3
ACDB_RECOMPOSE_DATA
350
362D
  3
AcDbVariableDictionary
350
2BD
  3
AEC_PROPERTY_SET_DEFS
350
2100
  3
DWGPROPS
350
362E
  0
DICTIONARY
  5
2FE
330
2
100
AcDbDictionary
280
     1
281
     1
  3
ACAD_LAYERSTATES
360
2FF
  0
DICTIONARY
  5
DA4
330
25
100
AcDbDictionary
280
     1
281
     1
  3
ADSK_XREC_LAYER_RECONCILED
360
DA5
  0
DICTIONARY
  5
5D9
330
36
100
AcDbDictionary
280
     1
281
     1
  3
ACAD_SORTENTS
360
5DA
  0
DICTIONARY
  5
362F
102
{ACAD_REACTORS
330
C
102
}
330
C
100
AcDbDictionary
281
     1
  3
DIMARCSYM
350
3631
  3
DIMFXL
350
3630
  3
DIMJOGANG
350
3632
  0
DICTIONARY
  5
2F
102
{ACAD_REACTORS
330
C
102
}
330
C
100
AcDbDictionary
281
     1
  0
DICTIONARY
  5
D
102
{ACAD_REACTORS
330
C
102
}
330
C
100
AcDbDictionary
281
     1
  0
DICTIONARY
  5
2E
102
{ACAD_REACTORS
330
C
102
}
330
C
100
AcDbDictionary
281
     1
  3
Model
350
39
  3
レイアウト1
350
35
  0
DICTIONARY
  5
10
102
{ACAD_REACTORS
330
C
102
}
330
C
100
AcDbDictionary
281
     1
  3
ByBlock
350
12
  3
ByLayer
350
11
  3
Global
350
13
  0
DICTIONARY
  5
B6E
102
{ACAD_REACTORS
330
C
102
}
330
C
100
AcDbDictionary
281
     1
  3
Standard
350
B6F
  0
DICTIONARY
  5
2B
102
{ACAD_REACTORS
330
C
102
}
330
C
100
AcDbDictionary
281
     1
  3
Standard
350
2C
  0
DICTIONARY
  5
2D
102
{ACAD_REACTORS
330
C
102
}
330
C
100
AcDbDictionary
281
     1
  0
ACDBDICTIONARYWDFLT
  5
E
102
{ACAD_REACTORS
330
C
102
}
330
C
100
AcDbDictionary
281
     1
  3
Normal
350
F
100
AcDbDictionaryWithDefault
340
F
  0
DICTIONARY
  5
B5C
102
{ACAD_REACTORS
330
C
102
}
330
C
100
AcDbDictionary
281
     1
  3
A0
350
B5D
  3
A1
350
B5E
  3
A2
350
B5F
  3
A3
350
B60
  3
A4
350
B61
  3
A5
350
B62
  3
A6
350
B63
  3
A7
350
B64
  3
A8
350
B65
  3
A9
350
B66
  3
B0
350
B67
  3
B1
350
B68
  3
B2
350
B69
  3
B3
350
B6A
  3
B4
350
B6B
  3
B5
350
B6C
  3
B6
350
B6D
  0
DICTIONARY
  5
30
102
{ACAD_REACTORS
330
C
102
}
330
C
100
AcDbDictionary
281
     1
  3
Standard
350
31
  0
DICTIONARY
  5
14
102
{ACAD_REACTORS
330
C
102
}
330
C
100
AcDbDictionary
281
     1
  3
2dWireframe
350
1A
  3
3D Hidden
350
1C
  3
3dWireframe
350
1B
  3
Basic
350
19
  3
Brighten
350
20
  3
ColorChange
350
24
  3
Conceptual
350
1D
  3
Dim
350
1F
  3
EdgeColorOff
350
B5B
  3
Facepattern
350
23
  3
Flat
350
15
  3
FlatWithEdges
350
16
  3
Gouraud
350
17
  3
GouraudWithEdges
350
18
  3
Hidden
350
B53
  3
JitterOff
350
B59
  3
Linepattern
350
22
  3
OverhangOff
350
B5A
  3
Realistic
350
1E
  3
Shaded
350
B58
  3
Shaded with edges
350
B57
  3
Shades of Gray
350
B54
  3
Sketchy
350
B55
  3
Thicken
350
21
  3
Wireframe
350
B52
  3
X-Ray
350
B56
  0
XRECORD
  5
10D8
102
{ACAD_REACTORS
330
C
102
}
330
C
100
AcDbXrecord
280
     1
 90
   990106
  3

 60
     0
 61
     0
 62
     1
 63
     3
 64
     0
 65
     0
 66
     0
 67
     3
 68
     1
 69
     0
 70
     0
 71
     0
 72
     0
 40
0.0
170
     0
340
30AC
  0
XRECORD
  5
362D
102
{ACAD_REACTORS
330
C
102
}
330
C
100
AcDbXrecord
280
     1
 90
        1
330
31
  0
DICTIONARY
  5
2BD
102
{ACAD_REACTORS
330
C
102
}
330
C
100
AcDbDictionary
281
     1
  3
CANNOSCALE
350
DA9
  3
CMLEADERSTYLE
350
DA8
  3
CTABLESTYLE
350
2BE
  3
DIMASSOC
350
2C7
  3
INDEXCTL
350
2C6
  3
SORTENTS
350
2C5
  3
XCLIPFRAME
350
3515
  0
DICTIONARY
  5
2100
102
{ACAD_REACTORS
330
C
102
}
330
C
100
AcDbDictionary
281
     1
  0
XRECORD
  5
362E
102
{ACAD_REACTORS
330
C
102
}
330
C
100
AcDbXrecord
280
     1
  1
DWGPROPS COOKIE
  2

  3

  4

  6

  7

  8
imamura
  9

300
=
301
=
302
=
303
=
304
=
305
=
306
=
307
=
308
=
309
=
 40
1.364755752314814
 41
2455442.601448206
 42
2459598.645435915
  1

 90
        0
  0
DICTIONARY
  5
2FF
102
{ACAD_REACTORS
330
2FE
102
}
330
2FE
100
AcDbDictionary
281
     1
  0
XRECORD
  5
DA5
102
{ACAD_REACTORS
330
DA4
102
}
330
DA4
100
AcDbXrecord
280
     1
290
     1
  0
SORTENTSTABLE
  5
5DA
102
{ACAD_REACTORS
330
5D9
102
}
330
5D9
100
AcDbSortentsTable
330
36
331
1E76
  5
1EBF
331
1D60
  5
1E6F
331
212F
  5
35E1
331
1CF9
  5
1DA4
331
1E72
  5
1EBB
331
1D5C
  5
1E4C
331
212B
  5
35DD
331
182
  5
182
331
1CF5
  5
1DA0
331
1D58
  5
1E40
331
1CF1
  5
1D7D
331
1FF0
  5
35AA
331
17E
  5
17E
331
21D
  5
21D
331
2123
  5
35D8
331
17A
  5
17A
331
219
  5
219
331
1CC7
  5
1D66
331
184C
  5
1CFB
331
17D6
  5
17D6
331
1815
  5
1815
331
1CBF
  5
1D63
331
1848
  5
1CF7
331
17D2
  5
17D2
331
1811
  5
1811
331
1844
  5
1CF3
331
17CE
  5
17CE
331
180D
  5
180D
331
1840
  5
1CEF
331
1809
  5
1809
331
17CA
  5
17CA
331
361F
  5
3514
331
35E7
  5
3612
331
361B
  5
3561
331
35E3
  5
3616
331
3617
  5
356E
331
1EE3
  5
1E9B
331
356D
  5
3591
331
1EA4
  5
2016
331
35A4
  5
1828
331
35DF
  5
3620
331
3613
  5
3577
331
1EDF
  5
2141
331
1EA0
  5
1FEE
331
35A0
  5
1824
331
35DB
  5
3627
331
1EDB
  5
213D
331
3565
  5
35A6
331
1E9C
  5
1EE3
331
359C
  5
1820
331
1E98
  5
1EDF
331
214D
  5
35FC
331
2149
  5
35F8
331
2145
  5
35F4
331
2141
  5
35F1
331
1E6E
  5
1EB7
331
1DA7
  5
1E94
331
1DA3
  5
1E90
331
1CED
  5
1D7E
331
1D9F
  5
1E8C
331
1D50
  5
1E20
331
211F
  5
35D5
331
176
  5
176
331
1D4C
  5
1E25
331
211B
  5
35CE
331
1B1
  5
1B1
331
1D48
  5
1E29
331
2117
  5
35CA
331
16E
  5
16E
331
1AD
  5
1AD
331
2113
  5
35BF
331
16A
  5
16A
331
1A9
  5
1A9
331
183C
  5
1CE9
331
17C6
  5
17C6
331
1805
  5
1805
331
1BD7
  5
1D59
331
1838
  5
1CDC
331
1801
  5
1801
331
1BD3
  5
1D52
331
1834
  5
1CD0
331
17FD
  5
17FD
331
1830
  5
1CCB
331
17F9
  5
17F9
331
360F
  5
357E
331
360B
  5
3580
331
35D7
  5
1BC3
331
3607
  5
3589
331
3594
  5
2143
331
1ED3
  5
2137
331
35D3
  5
1857
331
1E94
  5
1EDB
331
3603
  5
358B
331
1ECF
  5
2131
331
35CF
  5
1853
331
1E90
  5
1ED5
331
1ECB
  5
212D
331
35CB
  5
184F
331
1E8C
  5
1ED1
331
3588
  5
355F
331
3512
  5
3629
331
1E88
  5
1ECD
331
2F44
  5
361E
331
213D
  5
35ED
331
2139
  5
35E9
331
1E46
  5
1EB2
331
1E42
  5
1E9A
331
1D44
  5
1E3D
331
1D7B
  5
1D4E
331
1CDD
  5
1D5F
331
1E3E
  5
1EB0
331
1D77
  5
1E88
331
210F
  5
35BB
331
166
  5
166
331
1A5
  5
1A5
331
1E3A
  5
1EAC
331
1D73
  5
1E84
331
210B
  5
35B7
331
1A1
  5
1A1
331
1D28
  5
1DC8
331
1CD1
  5
1D73
331
2107
  5
35B3
331
19D
  5
19D
331
2103
  5
35B0
331
182C
  5
1CC0
331
17F5
  5
17F5
331
1BC7
  5
1D18
331
1828
  5
1BE7
331
17F1
  5
17F1
331
1BC3
  5
1D32
331
1824
  5
1BD4
331
2A6
  5
2A6
331
17ED
  5
17ED
331
1820
  5
1BC8
331
17E9
  5
17E9
331
1EC7
  5
2126
331
35C7
  5
184B
331
1EC3
  5
2122
331
35C3
  5
1847
331
1FEE
  5
35A8
331
35FE
  5
3599
331
1EBF
  5
211C
331
35BF
  5
1843
331
35FA
  5
359D
331
1EBB
  5
2118
331
35BB
  5
183F
331
1D24
  5
1E1B
331
1E85
  5
1ECA
331
1E26
  5
1EA8
331
1D6F
  5
1E81
331
2057
  5
35AE
331
195
  5
195
331
1E81
  5
1EC6
331
1E22
  5
1EA4
331
1D6B
  5
1E7D
331
191
  5
191
331
2136
  5
35E6
331
2017
  5
35AD
331
1D00
  5
1DAB
331
260
  5
260
331
1BBF
  5
1D35
331
17E5
  5
17E5
331
1CCE
  5
1D72
331
1857
  5
1D15
331
17E1
  5
17E1
331
1CCA
  5
1D69
331
1853
  5
1D02
331
17DD
  5
17DD
331
1818
  5
1818
331
17D9
  5
17D9
331
35F6
  5
359E
331
362A
  5
214A
331
1EB7
  5
2113
331
35B7
  5
183B
331
35F2
  5
35A5
331
3626
  5
214F
331
357C
  5
357A
331
1EB3
  5
210F
331
35B3
  5
1837
331
35EE
  5
3609
331
3622
  5
2AF6
331
1EAF
  5
210B
331
35AF
  5
1833
331
35EA
  5
360D
331
3574
  5
3584
331
1EAB
  5
2107
331
35AB
  5
182F
331
2158
  5
3606
331
2154
  5
3602
331
2150
  5
35FF
331
1E7D
  5
1EC2
331
1E1E
  5
1EA0
331
1D67
  5
1E76
331
1E1A
  5
1E9D
331
1D63
  5
1E72
331
1CFC
  5
1DA7
331
1E75
  5
1EBE
331
1D5F
  5
1E6E
331
1CF8
  5
1DA3
331
212E
  5
35E0
331
185
  5
185
331
1E71
  5
1EBA
331
1DAA
  5
1E97
331
1D5B
  5
1E47
331
212A
  5
35DC
331
181
  5
181
331
1CF4
  5
1D9F
331
1CF0
  5
1D9E
331
2126
  5
35DB
331
17D
  5
17D
331
21C
  5
21C
331
2122
  5
35D7
331
179
  5
179
331
184F
  5
1CFE
331
184B
  5
1CFA
331
17D5
  5
17D5
331
1814
  5
1814
331
1847
  5
1CF6
331
17D1
  5
17D1
331
1810
  5
1810
331
1843
  5
1CF2
331
17CD
  5
17CD
331
180C
  5
180C
331
1808
  5
1808
331
17C9
  5
17C9
331
361E
  5
355A
331
35E6
  5
3611
331
361A
  5
356D
331
1EA7
  5
2102
331
35A7
  5
182B
331
35E2
  5
3615
331
3616
  5
3574
331
1EE2
  5
1D3A
331
356C
  5
3590
331
1EA3
  5
1FF1
331
35A3
  5
1827
331
35DE
  5
361F
331
3612
  5
3576
331
1EDE
  5
2140
331
3568
  5
35A0
331
1E9F
  5
1FEC
331
359F
  5
1823
331
35DA
  5
3626
331
1EDA
  5
213C
331
1E9B
  5
1EE2
331
359B
  5
181F
331
214C
  5
35FB
331
2148
  5
35F7
331
2140
  5
35F0
331
1E6D
  5
1EB6
331
1DA6
  5
1E93
331
1DA2
  5
1E8F
331
1D53
  5
1E1C
331
1CEC
  5
1D7C
331
1D9E
  5
1E8B
331
1D4F
  5
1E21
331
211E
  5
35D2
331
175
  5
175
331
1D4B
  5
1E26
331
211A
  5
35CD
331
1B0
  5
1B0
331
16D
  5
16D
331
1AC
  5
1AC
331
2112
  5
35BE
331
169
  5
169
331
1A8
  5
1A8
331
1BE6
  5
1D61
331
183F
  5
1CEE
331
183B
  5
1CE8
331
17C5
  5
17C5
331
1804
  5
1804
331
1837
  5
1CD9
331
1800
  5
1800
331
1833
  5
1CCF
331
17FC
  5
17FC
331
17F8
  5
17F8
331
360E
  5
357D
331
360A
  5
357F
331
35D6
  5
1BC1
331
1E97
  5
1EDE
331
3606
  5
3588
331
3593
  5
2142
331
1ED2
  5
2136
331
35D2
  5
1856
331
1E93
  5
1EDA
331
3602
  5
358E
331
358F
  5
2687
331
1ECE
  5
2130
331
35CE
  5
1852
331
1E8F
  5
1ED4
331
1ECA
  5
212C
331
35CA
  5
184E
331
1E8B
  5
1ED0
331
213C
  5
35EC
331
2F3F
  5
361D
331
2138
  5
35E8
331
1E45
  5
1EB1
331
1D47
  5
1E2A
331
1D43
  5
1E3E
331
1D7A
  5
1D48
331
1CDC
  5
1D76
331
1E3D
  5
1EAF
331
1D76
  5
1E87
331
1A4
  5
1A4
331
210E
  5
35BA
331
165
  5
165
331
1E39
  5
1EAB
331
1D72
  5
1E83
331
1A0
  5
1A0
331
1D2B
  5
1D5C
331
210A
  5
35B6
331
161
  5
161
331
1CD0
  5
1D6B
331
2106
  5
35B2
331
19C
  5
19C
331
2102
  5
35AF
331
182F
  5
1CCA
331
1BCA
  5
1D45
331
182B
  5
1CBF
331
17F4
  5
17F4
331
1BC6
  5
1D19
331
1827
  5
1BE5
331
17F0
  5
17F0
331
1BC2
  5
1D3B
331
1823
  5
1BD3
331
2A5
  5
2A5
331
17EC
  5
17EC
331
17E8
  5
17E8
331
1EC6
  5
2125
331
35C6
  5
184A
331
1EC2
  5
2120
331
35C2
  5
1846
331
35FD
  5
3598
331
3587
  5
355E
331
1EBE
  5
211B
331
35BE
  5
1842
331
35F9
  5
359C
331
3583
  5
3571
331
1EBA
  5
2117
331
35BA
  5
183E
331
2AF7
  5
361C
331
2687
  5
361A
331
1D27
  5
1D46
331
1D23
  5
1D5B
331
1E84
  5
1EC9
331
1E25
  5
1EA7
331
194
  5
194
331
1E80
  5
1EC5
331
1E21
  5
1EA3
331
1D6A
  5
1E7C
331
2135
  5
35E5
331
2016
  5
35AC
331
2131
  5
35E3
331
1BBE
  5
1D43
331
17E4
  5
17E4
331
1CCD
  5
1D6F
331
1856
  5
1D14
331
181F
  5
1BC7
331
17E0
  5
17E0
331
1CC9
  5
1D68
331
1852
  5
1D01
331
181B
  5
181B
331
17DC
  5
17DC
331
17D8
  5
17D8
331
35F5
  5
35A3
331
3629
  5
2149
331
1EB6
  5
2112
331
35B6
  5
183A
331
35F1
  5
35A4
331
3625
  5
2156
331
357B
  5
3579
331
1EB2
  5
210E
331
35B2
  5
1836
331
35ED
  5
360C
331
3621
  5
3559
331
3577
  5
3587
331
1EAE
  5
210A
331
35AE
  5
1832
331
35E9
  5
3610
331
3573
  5
3583
331
1EAA
  5
2106
331
35AA
  5
182E
331
2157
  5
3605
331
1E7C
  5
1EC1
331
1E1D
  5
1E9F
331
1D66
  5
1E75
331
1CFF
  5
1DAA
331
1E19
  5
1E9C
331
1D62
  5
1E71
331
1CFB
  5
1DA6
331
25F
  5
25F
331
1E74
  5
1EBD
331
1D5E
  5
1E6D
331
212D
  5
35DF
331
1CF7
  5
1DA2
331
1E70
  5
1EB9
331
1DA9
  5
1E96
331
1D5A
  5
1E46
331
180
  5
180
331
1CF3
  5
1D75
331
2125
  5
35DA
331
17C
  5
17C
331
21B
  5
21B
331
178
  5
178
331
184E
  5
1CFD
331
1817
  5
1817
331
1CC1
  5
1D65
331
184A
  5
1CF9
331
17D4
  5
17D4
331
1813
  5
1813
331
1846
  5
1CF5
331
17D0
  5
17D0
331
180F
  5
180F
331
1842
  5
1CF1
331
180B
  5
180B
331
17CC
  5
17CC
331
17C8
  5
17C8
331
361D
  5
3568
331
35E5
  5
3614
331
3619
  5
356C
331
1EE5
  5
1D34
331
356F
  5
3593
331
1EA6
  5
2057
331
35A6
  5
182A
331
35E1
  5
3618
331
3615
  5
3573
331
1EE1
  5
1D42
331
356B
  5
358F
331
1EA2
  5
1FF0
331
35A2
  5
1826
331
35DD
  5
3623
331
3611
  5
3575
331
1EDD
  5
213F
331
1E9E
  5
1EE5
331
359E
  5
1822
331
35D9
  5
3625
331
1ED9
  5
213B
331
1E9A
  5
1EE1
331
359A
  5
181E
331
214F
  5
35FE
331
214B
  5
35FA
331
2147
  5
35F6
331
2143
  5
35F3
331
1E6C
  5
1EB5
331
1DA5
  5
1E92
331
1CEF
  5
1D7B
331
1DA1
  5
1E8E
331
1D52
  5
1E1D
331
1E4C
  5
1EB4
331
1D9D
  5
1E8A
331
1CE7
  5
1D7A
331
1D4E
  5
1E22
331
1D4A
  5
1E27
331
2119
  5
35CC
331
170
  5
170
331
1AF
  5
1AF
331
2115
  5
35C1
331
16C
  5
16C
331
1AB
  5
1AB
331
2111
  5
35BD
331
168
  5
168
331
1BE5
  5
1D60
331
183E
  5
1CED
331
1807
  5
1807
331
1BE1
  5
1D5A
331
183A
  5
1CE7
331
17C4
  5
17C4
331
1803
  5
1803
331
1836
  5
1CD2
331
17FF
  5
17FF
331
1832
  5
1CCE
331
17FB
  5
17FB
331
1160
  5
1160
331
360D
  5
357C
331
3609
  5
3582
331
1ED5
  5
2139
331
35D5
  5
1BC0
331
1E96
  5
1EDD
331
3605
  5
358D
331
1ED1
  5
2135
331
35D1
  5
1855
331
1E92
  5
1ED9
331
3601
  5
3596
331
358E
  5
2158
331
1ECD
  5
212F
331
35CD
  5
1851
331
1E8E
  5
1ED3
331
1EC9
  5
212B
331
35C9
  5
184D
331
3514
  5
362B
331
1E8A
  5
1ECF
331
213F
  5
35EF
331
213B
  5
35EB
331
1D46
  5
1E3B
331
1D7D
  5
1D4F
331
1D42
  5
1E3F
331
1D79
  5
1D4C
331
1A7
  5
1A7
331
1E3C
  5
1EAE
331
1D75
  5
1E86
331
210D
  5
35B9
331
1A3
  5
1A3
331
1CD7
  5
1D74
331
2109
  5
35B5
331
19F
  5
19F
331
2105
  5
35B1
331
19B
  5
19B
331
88
  5
88
331
182E
  5
1CC4
331
17F7
  5
17F7
331
1BC9
  5
1D58
331
182A
  5
1CBC
331
FC4
  5
10B3
331
17F3
  5
17F3
331
1BC5
  5
1D30
331
1826
  5
1BE1
331
17EF
  5
17EF
331
1BC1
  5
1D38
331
1822
  5
1BCA
331
17EB
  5
17EB
331
1EC5
  5
2124
331
35C5
  5
1849
331
1EC1
  5
211F
331
35C1
  5
1845
331
1FEC
  5
35A7
331
35FC
  5
3597
331
1EBD
  5
211A
331
35BD
  5
1841
331
35F8
  5
359B
331
3582
  5
3570
331
1EB9
  5
2115
331
35B9
  5
183D
331
2AF6
  5
361B
331
2686
  5
3619
331
1D26
  5
1D4B
331
1E87
  5
1ECC
331
1E28
  5
1EAA
331
1D22
  5
1D5D
331
1E83
  5
1EC8
331
1E24
  5
1EA6
331
193
  5
193
331
1D6D
  5
1E7F
331
1E20
  5
1EA2
331
1D69
  5
1E7B
331
2134
  5
35E4
331
18B
  5
18B
331
2130
  5
35E2
331
17E7
  5
17E7
331
17E3
  5
17E3
331
1CCC
  5
1D6C
331
1855
  5
1D04
331
181E
  5
1BC6
331
17DF
  5
17DF
331
1CC8
  5
1D67
331
1851
  5
1D00
331
181A
  5
181A
331
17DB
  5
17DB
331
35F4
  5
35A2
331
3628
  5
2151
331
1EB5
  5
2111
331
35B5
  5
1839
331
35F0
  5
360B
331
3624
  5
3513
331
1EB1
  5
210D
331
35B1
  5
1835
331
35EC
  5
360F
331
3620
  5
3556
331
3576
  5
3586
331
1EAD
  5
2109
331
35AD
  5
1831
331
35E8
  5
3613
331
1EA9
  5
2105
331
35A9
  5
182D
331
215A
  5
3608
331
2156
  5
3604
331
2152
  5
3601
331
1E7F
  5
1EC4
331
1E7B
  5
1EC0
331
1D65
  5
1E74
331
1CFE
  5
1DA9
331
2BF
  5
2BF
331
1D61
  5
1E70
331
1CFA
  5
1DA5
331
1E73
  5
1EBC
331
1D5D
  5
1E6C
331
1CF6
  5
1DA1
331
212C
  5
35DE
331
183
  5
183
331
1DA8
  5
1E95
331
1D59
  5
1E45
331
1FF1
  5
35AB
331
17F
  5
17F
331
1CF2
  5
1D77
331
2124
  5
35D9
331
17B
  5
17B
331
21A
  5
21A
331
2120
  5
35D6
331
184D
  5
1CFC
331
17D7
  5
17D7
331
1816
  5
1816
331
1CC0
  5
1D64
331
1849
  5
1CF8
331
17D3
  5
17D3
331
1812
  5
1812
331
1CBC
  5
1D62
331
1845
  5
1CF4
331
17CF
  5
17CF
331
180E
  5
180E
331
1841
  5
1CF0
331
180A
  5
180A
331
17CB
  5
17CB
331
361C
  5
3562
331
35E4
  5
3617
331
3618
  5
356B
331
1EE4
  5
1E99
331
356E
  5
3592
331
1EA5
  5
2017
331
35A5
  5
1829
331
35E0
  5
3621
331
3614
  5
3572
331
1EE0
  5
1D36
331
1EA1
  5
1FEF
331
35A1
  5
1825
331
35DC
  5
3622
331
3610
  5
3578
331
1EDC
  5
213E
331
1E9D
  5
1EE4
331
359D
  5
1821
331
35D8
  5
3628
331
1ED8
  5
213A
331
1E99
  5
1EE0
331
3599
  5
181D
331
214E
  5
35FD
331
214A
  5
35F9
331
2146
  5
35F5
331
2142
  5
35F2
331
1E6F
  5
1EB8
331
1DA4
  5
1E91
331
1CEE
  5
1D79
331
1DA0
  5
1E8D
331
1D51
  5
1E1F
331
177
  5
177
331
1D4D
  5
1E24
331
1CE6
  5
1D78
331
211C
  5
35CF
331
1B2
  5
1B2
331
1D49
  5
1E28
331
2118
  5
35CB
331
16F
  5
16F
331
1AE
  5
1AE
331
2114
  5
35C0
331
16B
  5
16B
331
1AA
  5
1AA
331
2110
  5
35BC
331
183D
  5
1CEC
331
17C7
  5
17C7
331
1806
  5
1806
331
1839
  5
1CDD
331
17C3
  5
17C3
331
1802
  5
1802
331
1BD4
  5
1D51
331
1835
  5
1CD1
331
17FE
  5
17FE
331
1831
  5
1CCC
331
17FA
  5
17FA
331
360C
  5
3581
331
3608
  5
358A
331
3595
  5
2145
331
1ED4
  5
2138
331
35D4
  5
1BBC
331
1E95
  5
1EDC
331
3604
  5
358C
331
1ED0
  5
2134
331
35D0
  5
1854
331
355A
  5
3624
331
1E91
  5
1ED8
331
3600
  5
3595
331
358D
  5
2157
331
1ECC
  5
212E
331
35CC
  5
1850
331
1E8D
  5
1ED2
331
3589
  5
3560
331
1EC8
  5
212A
331
35C8
  5
184C
331
3513
  5
362A
331
1E89
  5
1ECE
331
213E
  5
35EE
331
213A
  5
35EA
331
1E47
  5
1EB3
331
1E43
  5
1E98
331
1D45
  5
1E3C
331
1D7C
  5
1D49
331
1CDE
  5
1D5E
331
1D78
  5
1E89
331
167
  5
167
331
1A6
  5
1A6
331
1E3B
  5
1EAD
331
1D74
  5
1E85
331
1A2
  5
1A2
331
210C
  5
35B8
331
163
  5
163
331
1D70
  5
1E82
331
1D29
  5
1DC7
331
2108
  5
35B4
331
19E
  5
19E
331
1CD2
  5
1D70
331
19A
  5
19A
331
182D
  5
1CC3
331
17F6
  5
17F6
331
1BC8
  5
1D17
331
1829
  5
1BE8
331
17F2
  5
17F2
331
1BC4
  5
1D31
331
1825
  5
1BD6
331
2A7
  5
2A7
331
17EE
  5
17EE
331
1BC0
  5
1D33
331
1821
  5
1BC9
331
17EA
  5
17EA
331
1EC4
  5
2123
331
35C4
  5
1848
331
1FEF
  5
35A9
331
35FF
  5
3594
331
1EC0
  5
211E
331
35C0
  5
1844
331
35FB
  5
359A
331
1EBC
  5
2119
331
35BC
  5
1840
331
3581
  5
356F
331
1EB8
  5
2114
331
35B8
  5
183C
331
1D25
  5
1E23
331
1E86
  5
1ECB
331
1E27
  5
1EA9
331
1E82
  5
1EC7
331
1E23
  5
1EA5
331
1D6C
  5
1E7E
331
192
  5
192
331
2137
  5
35E7
331
1D68
  5
1E79
331
1BBC
  5
1D16
331
17E6
  5
17E6
331
1CCF
  5
1D6D
331
17E2
  5
17E2
331
1CCB
  5
1D6A
331
1854
  5
1D03
331
181D
  5
1BC4
331
17DE
  5
17DE
331
1850
  5
1CFF
331
1819
  5
1819
331
17DA
  5
17DA
331
35F7
  5
359F
331
362B
  5
214B
331
35F3
  5
35A1
331
3627
  5
2150
331
357D
  5
357B
331
1EB4
  5
2110
331
35B4
  5
1838
331
35EF
  5
360A
331
3623
  5
2AF7
331
1EB0
  5
210C
331
35B0
  5
1834
331
35EB
  5
360E
331
3575
  5
3585
331
1EAC
  5
2108
331
35AC
  5
1830
331
1EA8
  5
2103
331
35A8
  5
182C
331
2159
  5
3607
331
2155
  5
3603
331
2151
  5
3600
331
1E7E
  5
1EC3
331
1E1F
  5
1EA1
331
1E1B
  5
1E9E
331
1D64
  5
1E73
331
1CFD
  5
1DA8
  0
XRECORD
  5
3631
102
{ACAD_REACTORS
330
362F
102
}
330
362F
100
AcDbXrecord
280
     1
 70
     2
  0
XRECORD
  5
3630
102
{ACAD_REACTORS
330
362F
102
}
330
362F
100
AcDbXrecord
280
     1
 40
1.25
  0
XRECORD
  5
3632
102
{ACAD_REACTORS
330
362F
102
}
330
362F
100
AcDbXrecord
280
     1
 40
1.570796326794896
  0
LAYOUT
  5
39
102
{ACAD_XDICTIONARY
360
3656
102
}
102
{ACAD_REACTORS
330
2E
102
}
330
2E
100
AcDbPlotSettings
  1

  2
PDF Complete
  4
A4
  6

 40
3.174999952316281
 41
3.174999952316281
 42
3.175003051757812
 43
3.17498779296875
 44
209.9733276367186
 45
297.0106506347656
 46
0.0
 47
0.0
 48
0.0
 49
0.0
140
0.0
141
0.0
142
1.0
143
41.55432757113839
 70
 11952
 72
     0
 73
     1
 74
     0
  7

 75
     0
147
0.0240648822505445
148
6191.45587034033
149
3548.573645552828
100
AcDbLayout
  1
Model
 70
     1
 71
     0
 10
0.0
 20
0.0
 11
12.0
 21
9.0
 12
0.0
 22
0.0
 32
0.0
 14
0.0
 24
0.0
 34
0.0
 15
0.0
 25
0.0
 35
0.0
146
0.0
 13
0.0
 23
0.0
 33
0.0
 16
1.0
 26
0.0
 36
0.0
 17
0.0
 27
1.0
 37
0.0
 76
     0
330
36
331
56
1001
ACAD_PSEXT
1000
PDF Complete
1000
PDF Complete Converter
1000
PDFC
1000
PDF Document Creator
1070
     0
  0
LAYOUT
  5
35
102
{ACAD_XDICTIONARY
360
3654
102
}
102
{ACAD_REACTORS
330
2E
102
}
330
2E
100
AcDbPlotSettings
  1

  2
PDF Complete
  4

  6

 40
0.0
 41
0.0
 42
0.0
 43
0.0
 44
0.0
 45
0.0
 46
0.0
 47
0.0
 48
0.0
 49
0.0
140
0.0
141
0.0
142
1.0
143
1.0
 70
   688
 72
     0
 73
     0
 74
     5
  7

 75
    16
147
1.0
148
0.0
149
0.0
100
AcDbLayout
  1
レイアウト1
 70
     1
 71
     1
 10
0.0
 20
0.0
 11
12.0
 21
9.0
 12
0.0
 22
0.0
 32
0.0
 14
1.000000000000000E+20
 24
1.000000000000000E+20
 34
1.000000000000000E+20
 15
-1.000000000000000E+20
 25
-1.000000000000000E+20
 35
-1.000000000000000E+20
146
0.0
 13
0.0
 23
0.0
 33
0.0
 16
1.0
 26
0.0
 36
0.0
 17
0.0
 27
1.0
 37
0.0
 76
     0
330
32
  0
MATERIAL
  5
12
102
{ACAD_XDICTIONARY
360
2CB
102
}
102
{ACAD_REACTORS
330
10
102
}
330
10
100
AcDbMaterial
  1
ByBlock
  0
MATERIAL
  5
11
102
{ACAD_XDICTIONARY
360
2C9
102
}
102
{ACAD_REACTORS
330
10
102
}
330
10
100
AcDbMaterial
  1
ByLayer
  0
MATERIAL
  5
13
102
{ACAD_XDICTIONARY
360
2CD
102
}
102
{ACAD_REACTORS
330
10
102
}
330
10
100
AcDbMaterial
  1
Global
  0
MLEADERSTYLE
  5
B6F
102
{ACAD_REACTORS
330
B6E
102
}
330
B6E
100
AcDbMLeaderStyle
170
     2
171
     1
172
     0
 90
        2
 40
0.0
 41
0.0
173
     1
 91
-1056964608
340
28
 92
       -2
290
     1
 42
0.09
291
     1
 43
0.36
  3
Standard
 44
0.18
300

342
26
174
     1
178
     6
175
     1
176
     0
 93
-1056964608
 45
0.18
292
     0
297
     0
 46
0.18
 94
-1056964608
 47
1.0
 49
1.0
140
1.0
293
     1
141
0.0
294
     1
177
     0
142
1.0
295
     0
296
     0
143
0.125
1001
ACAD_MLEADERVER
1070
     2
  0
MLINESTYLE
  5
2C
102
{ACAD_REACTORS
330
2B
102
}
330
2B
100
AcDbMlineStyle
  2
STANDARD
 70
     0
  3

 62
   256
 51
90.0
 52
90.0
 71
     2
 49
0.5
 62
   256
  6
BYLAYER
 49
-0.5
 62
   256
  6
BYLAYER
  0
ACDBPLACEHOLDER
  5
F
102
{ACAD_REACTORS
330
E
102
}
330
E
  0
SCALE
  5
B5D
102
{ACAD_REACTORS
330
B5C
102
}
330
B5C
100
AcDbScale
 70
     0
300
1:1
140
1.0
141
1.0
290
     1
  0
SCALE
  5
B5E
102
{ACAD_REACTORS
330
B5C
102
}
330
B5C
100
AcDbScale
 70
     0
300
1/128" = 1'-0"
140
0.0078125
141
12.0
290
     0
  0
SCALE
  5
B5F
102
{ACAD_REACTORS
330
B5C
102
}
330
B5C
100
AcDbScale
 70
     0
300
1/64" = 1'-0"
140
0.015625
141
12.0
290
     0
  0
SCALE
  5
B60
102
{ACAD_REACTORS
330
B5C
102
}
330
B5C
100
AcDbScale
 70
     0
300
1/32" = 1'-0"
140
0.03125
141
12.0
290
     0
  0
SCALE
  5
B61
102
{ACAD_REACTORS
330
B5C
102
}
330
B5C
100
AcDbScale
 70
     0
300
1/16" = 1'-0"
140
0.0625
141
12.0
290
     0
  0
SCALE
  5
B62
102
{ACAD_REACTORS
330
B5C
102
}
330
B5C
100
AcDbScale
 70
     0
300
3/32" = 1'-0"
140
0.09375
141
12.0
290
     0
  0
SCALE
  5
B63
102
{ACAD_REACTORS
330
B5C
102
}
330
B5C
100
AcDbScale
 70
     0
300
1/8" = 1'-0"
140
0.125
141
12.0
290
     0
  0
SCALE
  5
B64
102
{ACAD_REACTORS
330
B5C
102
}
330
B5C
100
AcDbScale
 70
     0
300
3/16" = 1'-0"
140
0.1875
141
12.0
290
     0
  0
SCALE
  5
B65
102
{ACAD_REACTORS
330
B5C
102
}
330
B5C
100
AcDbScale
 70
     0
300
1/4" = 1'-0"
140
0.25
141
12.0
290
     0
  0
SCALE
  5
B66
102
{ACAD_REACTORS
330
B5C
102
}
330
B5C
100
AcDbScale
 70
     0
300
3/8" = 1'-0"
140
0.375
141
12.0
290
     0
  0
SCALE
  5
B67
102
{ACAD_REACTORS
330
B5C
102
}
330
B5C
100
AcDbScale
 70
     0
300
1/2" = 1'-0"
140
0.5
141
12.0
290
     0
  0
SCALE
  5
B68
102
{ACAD_REACTORS
330
B5C
102
}
330
B5C
100
AcDbScale
 70
     0
300
3/4" = 1'-0"
140
0.75
141
12.0
290
     0
  0
SCALE
  5
B69
102
{ACAD_REACTORS
330
B5C
102
}
330
B5C
100
AcDbScale
 70
     0
300
1" = 1'-0"
140
1.0
141
12.0
290
     0
  0
SCALE
  5
B6A
102
{ACAD_REACTORS
330
B5C
102
}
330
B5C
100
AcDbScale
 70
     0
300
1-1/2" = 1'-0"
140
1.5
141
12.0
290
     0
  0
SCALE
  5
B6B
102
{ACAD_REACTORS
330
B5C
102
}
330
B5C
100
AcDbScale
 70
     0
300
3" = 1'-0"
140
3.0
141
12.0
290
     0
  0
SCALE
  5
B6C
102
{ACAD_REACTORS
330
B5C
102
}
330
B5C
100
AcDbScale
 70
     0
300
6" = 1'-0"
140
6.0
141
12.0
290
     0
  0
SCALE
  5
B6D
102
{ACAD_REACTORS
330
B5C
102
}
330
B5C
100
AcDbScale
 70
     0
300
1'-0" = 1'-0"
140
12.0
141
12.0
290
     0
  0
TABLESTYLE
  5
31
102
{ACAD_XDICTIONARY
360
DAB
102
}
102
{ACAD_REACTORS
330
30
102
}
330
30
100
AcDbTableStyle
  3
Standard
 70
     0
 71
     0
 40
0.06
 41
0.06
280
     0
281
     0
  7
STANDARD
140
0.18
170
     2
 62
     0
 63
     7
283
     0
274
    -2
284
     1
 64
     0
275
    -2
285
     1
 65
     0
276
    -2
286
     1
 66
     0
277
    -2
287
     1
 67
     0
278
    -2
288
     1
 68
     0
279
    -2
289
     1
 69
     0
  7
STANDARD
140
0.25
170
     5
 62
     0
 63
     7
283
     0
274
    -2
284
     1
 64
     0
275
    -2
285
     1
 65
     0
276
    -2
286
     1
 66
     0
277
    -2
287
     1
 67
     0
278
    -2
288
     1
 68
     0
279
    -2
289
     1
 69
     0
  7
STANDARD
140
0.18
170
     5
 62
     0
 63
     7
283
     0
274
    -2
284
     1
 64
     0
275
    -2
285
     1
 65
     0
276
    -2
286
     1
 66
     0
277
    -2
287
     1
 67
     0
278
    -2
288
     1
 68
     0
279
    -2
289
     1
 69
     0
  0
VISUALSTYLE
  5
1A
102
{ACAD_XDICTIONARY
360
363D
102
}
102
{ACAD_REACTORS
330
14
102
}
330
14
100
AcDbVisualStyle
  2

 70
     4
 71
     0
 72
     2
 73
     0
 90
        0
 40
-0.6
 41
-30.0
 62
     5
 63
     7
 74
     1
 91
        4
 64
     7
 65
   257
 75
     1
175
     1
 42
1.0
 92
        0
 66
   257
 43
1.0
 76
     1
 77
     6
 78
     2
 67
     7
 79
     5
170
     0
171
     0
290
     0
174
     0
 93
        1
 44
0.0
173
     0
291
     0
 45
0.0
1001
ACAD
1000
AcDbSavedByObjectVersion
1070
     0
  0
VISUALSTYLE
  5
1C
102
{ACAD_XDICTIONARY
360
3641
102
}
102
{ACAD_REACTORS
330
14
102
}
330
14
100
AcDbVisualStyle
  2

 70
     6
 71
     1
 72
     2
 73
     2
 90
        0
 40
-0.6
 41
-30.0
 62
     5
 63
     7
 74
     2
 91
        2
 64
     7
 65
   257
 75
     2
175
     1
 42
40.0
 92
        0
 66
   257
 43
1.0
 76
     1
 77
     6
 78
     2
 67
     7
 79
     3
170
     0
171
     0
290
     0
174
     0
 93
        1
 44
0.0
173
     0
291
     0
 45
0.0
1001
ACAD
1000
AcDbSavedByObjectVersion
1070
     0
  0
VISUALSTYLE
  5
1B
102
{ACAD_XDICTIONARY
360
363F
102
}
102
{ACAD_REACTORS
330
14
102
}
330
14
100
AcDbVisualStyle
  2

 70
     5
 71
     0
 72
     2
 73
     0
 90
        0
 40
-0.6
 41
-30.0
 62
     5
 63
     7
 74
     1
 91
        4
 64
     7
 65
   257
 75
     1
175
     1
 42
1.0
 92
        0
 66
   257
 43
1.0
 76
     1
 77
     6
 78
     2
 67
     7
 79
     5
170
     0
171
     0
290
     0
174
     0
 93
        1
 44
0.0
173
     0
291
     0
 45
0.0
1001
ACAD
1000
AcDbSavedByObjectVersion
1070
     0
  0
VISUALSTYLE
  5
19
102
{ACAD_XDICTIONARY
360
363B
102
}
102
{ACAD_REACTORS
330
14
102
}
330
14
100
AcDbVisualStyle
  2

 70
     7
 71
     1
 72
     0
 73
     1
 90
        0
 40
-0.6
 41
-30.0
 62
     5
 63
     7
 74
     0
 91
        4
 64
     7
 65
   257
 75
     1
175
     1
 42
1.0
 92
        8
 66
     7
 43
1.0
 76
     1
 77
     6
 78
     2
 67
     7
 79
     5
170
     0
171
     0
290
     0
174
     0
 93
        1
 44
0.0
173
     0
291
     1
 45
0.0
1001
ACAD
1000
AcDbSavedByObjectVersion
1070
     0
  0
VISUALSTYLE
  5
20
102
{ACAD_XDICTIONARY
360
3649
102
}
102
{ACAD_REACTORS
330
14
102
}
330
14
100
AcDbVisualStyle
  2

 70
    12
 71
     2
 72
     2
 73
     0
 90
        0
 40
-0.6
 41
-30.0
 62
     5
 63
     7
 74
     1
 91
        4
 64
     7
 65
   257
 75
     1
175
     1
 42
1.0
 92
        8
 66
     7
 43
1.0
 76
     1
 77
     6
 78
     2
 67
     7
 79
     5
170
     0
171
     0
290
     0
174
     0
 93
        1
 44
50.0
173
     0
291
     1
 45
0.0
1001
ACAD
1000
AcDbSavedByObjectVersion
1070
     0
  0
VISUALSTYLE
  5
24
102
{ACAD_XDICTIONARY
360
3651
102
}
102
{ACAD_REACTORS
330
14
102
}
330
14
100
AcDbVisualStyle
  2

 70
    16
 71
     2
 72
     2
 73
     3
 90
        0
 40
-0.6
 41
-30.0
 62
     5
 63
     8
 74
     1
 91
        4
 64
     7
 65
   257
 75
     1
175
     1
 42
1.0
 92
        8
 66
     8
 43
1.0
 76
     1
 77
     6
 78
     2
 67
     7
 79
     5
170
     0
171
     0
290
     0
174
     0
 93
        1
 44
0.0
173
     0
291
     1
 45
0.0
1001
ACAD
1000
AcDbSavedByObjectVersion
1070
     0
  0
VISUALSTYLE
  5
1D
102
{ACAD_XDICTIONARY
360
3643
102
}
102
{ACAD_REACTORS
330
14
102
}
330
14
100
AcDbVisualStyle
  2

 70
     9
 71
     3
 72
     2
 73
     0
 90
        0
 40
-0.6
 41
-30.0
 62
     5
 63
     7
 74
     2
 91
        2
 64
     7
 65
   257
 75
     1
175
     1
 42
40.0
 92
        8
 66
     7
 43
1.0
 76
     1
 77
     6
 78
     2
 67
     7
 79
     3
170
     0
171
     0
290
     0
174
     0
 93
        1
 44
0.0
173
     0
291
     0
 45
0.0
1001
ACAD
1000
AcDbSavedByObjectVersion
1070
     0
  0
VISUALSTYLE
  5
1F
102
{ACAD_XDICTIONARY
360
3647
102
}
102
{ACAD_REACTORS
330
14
102
}
330
14
100
AcDbVisualStyle
  2

 70
    11
 71
     2
 72
     2
 73
     0
 90
        0
 40
-0.6
 41
-30.0
 62
     5
 63
     7
 74
     1
 91
        4
 64
     7
 65
   257
 75
     1
175
     1
 42
1.0
 92
        8
 66
     7
 43
1.0
 76
     1
 77
     6
 78
     2
 67
     7
 79
     5
170
     0
171
     0
290
     0
174
     0
 93
        1
 44
-50.0
173
     0
291
     1
 45
0.0
1001
ACAD
1000
AcDbSavedByObjectVersion
1070
     0
  0
VISUALSTYLE
  5
B5B
102
{ACAD_XDICTIONARY
360
366A
102
}
102
{ACAD_REACTORS
330
14
102
}
330
14
100
AcDbVisualStyle
  2

 70
    22
 71
     2
 72
     2
 73
     0
 90
        0
 40
-0.6
 41
-30.0
 62
     5
 63
     7
 74
     1
 91
        4
 64
     7
 65
   257
 75
     1
175
     1
 42
1.0
 92
        8
 66
     7
 43
1.0
 76
     1
 77
     6
 78
     2
 67
     7
 79
     5
170
     0
171
     0
290
     0
174
     0
 93
        1
 44
0.0
173
     0
291
     1
 45
0.0
1001
ACAD
1000
AcDbSavedByObjectVersion
1070
     0
  0
VISUALSTYLE
  5
23
102
{ACAD_XDICTIONARY
360
364F
102
}
102
{ACAD_REACTORS
330
14
102
}
330
14
100
AcDbVisualStyle
  2

 70
    15
 71
     2
 72
     2
 73
     0
 90
        0
 40
-0.6
 41
-30.0
 62
     5
 63
     7
 74
     1
 91
        4
 64
     7
 65
   257
 75
     1
175
     1
 42
1.0
 92
        8
 66
     7
 43
1.0
 76
     1
 77
     6
 78
     2
 67
     7
 79
     5
170
     0
171
     0
290
     0
174
     0
 93
        1
 44
0.0
173
     0
291
     1
 45
0.0
1001
ACAD
1000
AcDbSavedByObjectVersion
1070
     0
  0
VISUALSTYLE
  5
15
102
{ACAD_XDICTIONARY
360
3633
102
}
102
{ACAD_REACTORS
330
14
102
}
330
14
100
AcDbVisualStyle
  2

 70
     0
 71
     2
 72
     1
 73
     1
 90
        2
 40
-0.6
 41
30.0
 62
     5
 63
     7
 74
     0
 91
        4
 64
     7
 65
   257
 75
     1
175
     1
 42
1.0
 92
        8
 66
     7
 43
1.0
 76
     1
 77
     6
 78
     2
 67
     7
 79
     5
170
     0
171
     0
290
     0
174
     0
 93
       13
 44
0.0
173
     0
291
     1
 45
0.0
1001
ACAD
1000
AcDbSavedByObjectVersion
1070
     0
  0
VISUALSTYLE
  5
16
102
{ACAD_XDICTIONARY
360
3635
102
}
102
{ACAD_REACTORS
330
14
102
}
330
14
100
AcDbVisualStyle
  2

 70
     1
 71
     2
 72
     1
 73
     1
 90
        2
 40
-0.6
 41
30.0
 62
     5
 63
     7
 74
     1
 91
        4
 64
     7
 65
   257
 75
     1
175
     1
 42
1.0
 92
        0
 66
   257
 43
1.0
 76
     1
 77
     6
 78
     2
 67
     7
 79
     5
170
     0
171
     0
290
     0
174
     0
 93
       13
 44
0.0
173
     0
291
     1
 45
0.0
1001
ACAD
1000
AcDbSavedByObjectVersion
1070
     0
  0
VISUALSTYLE
  5
17
102
{ACAD_XDICTIONARY
360
3637
102
}
102
{ACAD_REACTORS
330
14
102
}
330
14
100
AcDbVisualStyle
  2

 70
     2
 71
     2
 72
     2
 73
     1
 90
        2
 40
-0.6
 41
30.0
 62
     5
 63
     7
 74
     0
 91
        4
 64
     7
 65
   257
 75
     1
175
     1
 42
1.0
 92
        0
 66
     7
 43
1.0
 76
     1
 77
     6
 78
     2
 67
     7
 79
     5
170
     0
171
     0
290
     0
174
     0
 93
       13
 44
0.0
173
     0
291
     1
 45
0.0
1001
ACAD
1000
AcDbSavedByObjectVersion
1070
     0
  0
VISUALSTYLE
  5
18
102
{ACAD_XDICTIONARY
360
3639
102
}
102
{ACAD_REACTORS
330
14
102
}
330
14
100
AcDbVisualStyle
  2

 70
     3
 71
     2
 72
     2
 73
     1
 90
        2
 40
-0.6
 41
30.0
 62
     5
 63
     7
 74
     1
 91
        4
 64
     7
 65
   257
 75
     1
175
     1
 42
1.0
 92
        0
 66
   257
 43
1.0
 76
     1
 77
     6
 78
     2
 67
     7
 79
     5
170
     0
171
     0
290
     0
174
     0
 93
       13
 44
0.0
173
     0
291
     1
 45
0.0
1001
ACAD
1000
AcDbSavedByObjectVersion
1070
     0
  0
VISUALSTYLE
  5
B53
102
{ACAD_XDICTIONARY
360
365A
102
}
102
{ACAD_REACTORS
330
14
102
}
330
14
100
AcDbVisualStyle
  2

 70
     6
 71
     1
 72
     2
 73
     2
 90
        0
 40
-0.6
 41
-30.0
 62
     5
 63
     7
 74
     2
 91
        2
 64
     7
 65
   257
 75
     2
175
     1
 42
40.0
 92
        0
 66
   257
 43
1.0
 76
     1
 77
     6
 78
     2
 67
     7
 79
     3
170
     0
171
     0
290
     0
174
     0
 93
        1
 44
0.0
173
     0
291
     0
 45
0.0
1001
ACAD
1000
AcDbSavedByObjectVersion
1070
     0
  0
VISUALSTYLE
  5
B59
102
{ACAD_XDICTIONARY
360
3666
102
}
102
{ACAD_REACTORS
330
14
102
}
330
14
100
AcDbVisualStyle
  2

 70
    20
 71
     2
 72
     2
 73
     0
 90
        0
 40
-0.6
 41
-30.0
 62
     5
 63
     7
 74
     1
 91
        4
 64
     7
 65
   257
 75
     1
175
     1
 42
1.0
 92
       10
 66
     7
 43
1.0
 76
     1
 77
     6
 78
     2
 67
     7
 79
     5
170
     0
171
     0
290
     0
174
     0
 93
        1
 44
0.0
173
     0
291
     1
 45
0.0
1001
ACAD
1000
AcDbSavedByObjectVersion
1070
     0
  0
VISUALSTYLE
  5
22
102
{ACAD_XDICTIONARY
360
364D
102
}
102
{ACAD_REACTORS
330
14
102
}
330
14
100
AcDbVisualStyle
  2

 70
    14
 71
     2
 72
     2
 73
     0
 90
        0
 40
-0.6
 41
-30.0
 62
     5
 63
     7
 74
     1
 91
        4
 64
     7
 65
   257
 75
     7
175
     7
 42
1.0
 92
        8
 66
     7
 43
1.0
 76
     1
 77
     6
 78
     2
 67
     7
 79
     5
170
     0
171
     0
290
     0
174
     0
 93
        1
 44
0.0
173
     0
291
     1
 45
0.0
1001
ACAD
1000
AcDbSavedByObjectVersion
1070
     0
  0
VISUALSTYLE
  5
B5A
102
{ACAD_XDICTIONARY
360
3668
102
}
102
{ACAD_REACTORS
330
14
102
}
330
14
100
AcDbVisualStyle
  2

 70
    21
 71
     2
 72
     2
 73
     0
 90
        0
 40
-0.6
 41
-30.0
 62
     5
 63
     7
 74
     1
 91
        4
 64
     7
 65
   257
 75
     1
175
     1
 42
1.0
 92
        9
 66
     7
 43
1.0
 76
     1
 77
     6
 78
     2
 67
     7
 79
     5
170
     0
171
     0
290
     0
174
     0
 93
        1
 44
0.0
173
     0
291
     1
 45
0.0
1001
ACAD
1000
AcDbSavedByObjectVersion
1070
     0
  0
VISUALSTYLE
  5
1E
102
{ACAD_XDICTIONARY
360
3645
102
}
102
{ACAD_REACTORS
330
14
102
}
330
14
100
AcDbVisualStyle
  2

 70
     8
 71
     2
 72
     2
 73
     0
 90
        0
 40
-0.6
 41
-30.0
 62
     5
 63
     7
 74
     1
 91
        0
 64
     7
 65
   257
 75
     1
175
     1
 42
1.0
 92
        8
 66
     8
 43
1.0
 76
     1
 77
     6
 78
     2
 67
     7
 79
     5
170
     0
171
     0
290
     0
174
     0
 93
       13
 44
0.0
173
     0
291
     0
 45
0.0
1001
ACAD
1000
AcDbSavedByObjectVersion
1070
     0
  0
VISUALSTYLE
  5
B58
102
{ACAD_XDICTIONARY
360
3664
102
}
102
{ACAD_REACTORS
330
14
102
}
330
14
100
AcDbVisualStyle
  2

 70
    27
 71
     2
 72
     2
 73
     1
 90
        2
 40
-0.6
 41
30.0
 62
     5
 63
     7
 74
     0
 91
        4
 64
     7
 65
   257
 75
     1
175
     1
 42
1.0
 92
        8
 66
   257
 43
1.0
 76
     1
 77
     6
 78
     2
 67
     8
 79
     3
170
     0
171
     0
290
     0
174
     0
 93
        5
 44
0.0
173
     0
291
     0
 45
0.0
1001
ACAD
1000
AcDbSavedByObjectVersion
1070
     0
  0
VISUALSTYLE
  5
B57
102
{ACAD_XDICTIONARY
360
3662
102
}
102
{ACAD_REACTORS
330
14
102
}
330
14
100
AcDbVisualStyle
  2

 70
    26
 71
     2
 72
     2
 73
     1
 90
        2
 40
-0.6
 41
30.0
 62
     5
 63
     7
 74
     1
 91
       10
 64
     7
 65
   257
 75
     2
175
     1
 42
1.0
 92
        8
 66
   257
 43
1.0
 76
     1
 77
     6
 78
     2
 67
     7
 79
     3
170
     0
171
     0
290
     0
174
     0
 93
        5
 44
0.0
173
     0
291
     0
 45
0.0
1001
ACAD
1000
AcDbSavedByObjectVersion
1070
     0
  0
VISUALSTYLE
  5
B54
102
{ACAD_XDICTIONARY
360
365C
102
}
102
{ACAD_REACTORS
330
14
102
}
330
14
100
AcDbVisualStyle
  2

 70
    23
 71
     2
 72
     2
 73
     3
 90
        0
 40
-0.6
 41
-30.0
 62
     5
 63
     7
 74
     2
 91
        2
 64
     7
 65
     7
 75
     1
175
     1
 42
40.0
 92
        8
 66
     7
 43
1.0
 76
     1
 77
     6
 78
     2
 67
     7
 79
     3
170
     0
171
     0
290
     0
174
     0
 93
        1
 44
0.0
173
     0
291
     0
 45
0.0
1001
ACAD
1000
AcDbSavedByObjectVersion
1070
     0
  0
VISUALSTYLE
  5
B55
102
{ACAD_XDICTIONARY
360
365E
102
}
102
{ACAD_REACTORS
330
14
102
}
330
14
100
AcDbVisualStyle
  2

 70
    24
 71
     1
 72
     2
 73
     2
 90
        0
 40
-0.6
 41
-30.0
 62
     5
 63
     7
 74
     2
 91
        2
 64
     7
 65
     7
 75
     1
175
     1
 42
40.0
 92
       11
 66
     7
 43
1.0
 76
     1
 77
     6
 78
     2
 67
     7
 79
     6
170
     0
171
     0
290
     0
174
     0
 93
        1
 44
0.0
173
     0
291
     0
 45
0.0
1001
ACAD
1000
AcDbSavedByObjectVersion
1070
     0
  0
VISUALSTYLE
  5
21
102
{ACAD_XDICTIONARY
360
364B
102
}
102
{ACAD_REACTORS
330
14
102
}
330
14
100
AcDbVisualStyle
  2

 70
    13
 71
     2
 72
     2
 73
     0
 90
        0
 40
-0.6
 41
-30.0
 62
     5
 63
     7
 74
     1
 91
        4
 64
     7
 65
   257
 75
     1
175
     1
 42
1.0
 92
       12
 66
     7
 43
1.0
 76
     1
 77
     6
 78
     2
 67
     7
 79
     5
170
     0
171
     0
290
     0
174
     0
 93
        1
 44
0.0
173
     0
291
     1
 45
0.0
1001
ACAD
1000
AcDbSavedByObjectVersion
1070
     0
  0
VISUALSTYLE
  5
B52
102
{ACAD_XDICTIONARY
360
3658
102
}
102
{ACAD_REACTORS
330
14
102
}
330
14
100
AcDbVisualStyle
  2

 70
     5
 71
     0
 72
     2
 73
     0
 90
        0
 40
-0.6
 41
-30.0
 62
     5
 63
     7
 74
     1
 91
        4
 64
     7
 65
   257
 75
     1
175
     1
 42
1.0
 92
        0
 66
   257
 43
1.0
 76
     1
 77
     6
 78
     2
 67
     7
 79
     3
170
     0
171
     0
290
     0
174
     0
 93
        1
 44
0.0
173
     0
291
     0
 45
0.0
1001
ACAD
1000
AcDbSavedByObjectVersion
1070
     0
  0
VISUALSTYLE
  5
B56
102
{ACAD_XDICTIONARY
360
3660
102
}
102
{ACAD_REACTORS
330
14
102
}
330
14
100
AcDbVisualStyle
  2

 70
    25
 71
     2
 72
     2
 73
     1
 90
        1
 40
0.5
 41
-30.0
 62
     5
 63
     7
 74
     1
 91
        0
 64
     7
 65
   257
 75
     1
175
     1
 42
1.0
 92
        8
 66
     7
 43
1.0
 76
     1
 77
     6
 78
     2
 67
     7
 79
     3
170
     0
171
     0
290
     0
174
     0
 93
       13
 44
0.0
173
     0
291
     0
 45
0.0
1001
ACAD
1000
AcDbSavedByObjectVersion
1070
     0
  0
DICTIONARYVAR
  5
DA9
102
{ACAD_REACTORS
330
2BD
102
}
330
2BD
100
DictionaryVariables
280
     0
  1
1:1
  0
DICTIONARYVAR
  5
DA8
102
{ACAD_REACTORS
330
2BD
102
}
330
2BD
100
DictionaryVariables
280
     0
  1
STANDARD
  0
DICTIONARYVAR
  5
2BE
102
{ACAD_REACTORS
330
2BD
102
}
330
2BD
100
DictionaryVariables
280
     0
  1
STANDARD
  0
DICTIONARYVAR
  5
2C7
102
{ACAD_REACTORS
330
2BD
102
}
330
2BD
100
DictionaryVariables
280
     0
  1
1
  0
DICTIONARYVAR
  5
2C6
102
{ACAD_REACTORS
330
2BD
102
}
330
2BD
100
DictionaryVariables
280
     0
  1
0
  0
DICTIONARYVAR
  5
2C5
102
{ACAD_REACTORS
330
2BD
102
}
330
2BD
100
DictionaryVariables
280
     0
  1
127
  0
DICTIONARYVAR
  5
3515
102
{ACAD_REACTORS
330
2BD
102
}
330
2BD
100
DictionaryVariables
280
     0
  1
2
  0
DICTIONARY
  5
3656
330
39
100
AcDbDictionary
280
     1
281
     1
  3
ACAD_XREC_ROUNDTRIP
360
3657
  0
DICTIONARY
  5
3654
330
35
100
AcDbDictionary
280
     1
281
     1
  3
ACAD_XREC_ROUNDTRIP
360
3655
  0
DICTIONARY
  5
2CB
330
12
100
AcDbDictionary
280
     1
281
     1
  3
ACAD_XREC_ROUNDTRIP
360
2CC
  0
DICTIONARY
  5
2C9
330
11
100
AcDbDictionary
280
     1
281
     1
  3
ACAD_XREC_ROUNDTRIP
360
2CA
  0
DICTIONARY
  5
2CD
330
13
100
AcDbDictionary
280
     1
281
     1
  3
ACAD_XREC_ROUNDTRIP
360
2CE
  0
DICTIONARY
  5
DAB
330
31
100
AcDbDictionary
280
     1
281
     1
  3
ACAD_ROUNDTRIP_2008_TABLESTYLE_CELLSTYLEMAP
360
362C
  3
ACAD_XREC_ROUNDTRIP
360
3653
  0
DICTIONARY
  5
363D
330
1A
100
AcDbDictionary
280
     1
281
     1
  3
ACAD_XREC_ROUNDTRIP
360
363E
  0
DICTIONARY
  5
3641
330
1C
100
AcDbDictionary
280
     1
281
     1
  3
ACAD_XREC_ROUNDTRIP
360
3642
  0
DICTIONARY
  5
363F
330
1B
100
AcDbDictionary
280
     1
281
     1
  3
ACAD_XREC_ROUNDTRIP
360
3640
  0
DICTIONARY
  5
363B
330
19
100
AcDbDictionary
280
     1
281
     1
  3
ACAD_XREC_ROUNDTRIP
360
363C
  0
DICTIONARY
  5
3649
330
20
100
AcDbDictionary
280
     1
281
     1
  3
ACAD_XREC_ROUNDTRIP
360
364A
  0
DICTIONARY
  5
3651
330
24
100
AcDbDictionary
280
     1
281
     1
  3
ACAD_XREC_ROUNDTRIP
360
3652
  0
DICTIONARY
  5
3643
330
1D
100
AcDbDictionary
280
     1
281
     1
  3
ACAD_XREC_ROUNDTRIP
360
3644
  0
DICTIONARY
  5
3647
330
1F
100
AcDbDictionary
280
     1
281
     1
  3
ACAD_XREC_ROUNDTRIP
360
3648
  0
DICTIONARY
  5
366A
330
B5B
100
AcDbDictionary
280
     1
281
     1
  3
ACAD_XREC_ROUNDTRIP
360
366B
  0
DICTIONARY
  5
364F
330
23
100
AcDbDictionary
280
     1
281
     1
  3
ACAD_XREC_ROUNDTRIP
360
3650
  0
DICTIONARY
  5
3633
330
15
100
AcDbDictionary
280
     1
281
     1
  3
ACAD_XREC_ROUNDTRIP
360
3634
  0
DICTIONARY
  5
3635
330
16
100
AcDbDictionary
280
     1
281
     1
  3
ACAD_XREC_ROUNDTRIP
360
3636
  0
DICTIONARY
  5
3637
330
17
100
AcDbDictionary
280
     1
281
     1
  3
ACAD_XREC_ROUNDTRIP
360
3638
  0
DICTIONARY
  5
3639
330
18
100
AcDbDictionary
280
     1
281
     1
  3
ACAD_XREC_ROUNDTRIP
360
363A
  0
DICTIONARY
  5
365A
330
B53
100
AcDbDictionary
280
     1
281
     1
  3
ACAD_XREC_ROUNDTRIP
360
365B
  0
DICTIONARY
  5
3666
330
B59
100
AcDbDictionary
280
     1
281
     1
  3
ACAD_XREC_ROUNDTRIP
360
3667
  0
DICTIONARY
  5
364D
330
22
100
AcDbDictionary
280
     1
281
     1
  3
ACAD_XREC_ROUNDTRIP
360
364E
  0
DICTIONARY
  5
3668
330
B5A
100
AcDbDictionary
280
     1
281
     1
  3
ACAD_XREC_ROUNDTRIP
360
3669
  0
DICTIONARY
  5
3645
330
1E
100
AcDbDictionary
280
     1
281
     1
  3
ACAD_XREC_ROUNDTRIP
360
3646
  0
DICTIONARY
  5
3664
330
B58
100
AcDbDictionary
280
     1
281
     1
  3
ACAD_XREC_ROUNDTRIP
360
3665
  0
DICTIONARY
  5
3662
330
B57
100
AcDbDictionary
280
     1
281
     1
  3
ACAD_XREC_ROUNDTRIP
360
3663
  0
DICTIONARY
  5
365C
330
B54
100
AcDbDictionary
280
     1
281
     1
  3
ACAD_XREC_ROUNDTRIP
360
365D
  0
DICTIONARY
  5
365E
330
B55
100
AcDbDictionary
280
     1
281
     1
  3
ACAD_XREC_ROUNDTRIP
360
365F
  0
DICTIONARY
  5
364B
330
21
100
AcDbDictionary
280
     1
281
     1
  3
ACAD_XREC_ROUNDTRIP
360
364C
  0
DICTIONARY
  5
3658
330
B52
100
AcDbDictionary
280
     1
281
     1
  3
ACAD_XREC_ROUNDTRIP
360
3659
  0
DICTIONARY
  5
3660
330
B56
100
AcDbDictionary
280
     1
281
     1
  3
ACAD_XREC_ROUNDTRIP
360
3661
  0
XRECORD
  5
3657
102
{ACAD_REACTORS
330
3656
102
}
330
3656
100
AcDbXrecord
280
     1
102
SHADEPLOT
 70
     0
102
SHADEPLOTRESLEVEL
 70
     2
102
SHADEPLOTCUSTOMDPI
 70
   300
  0
XRECORD
  5
3655
102
{ACAD_REACTORS
330
3654
102
}
330
3654
100
AcDbXrecord
280
     1
102
SHADEPLOT
 70
     0
102
SHADEPLOTRESLEVEL
 70
     2
102
SHADEPLOTCUSTOMDPI
 70
   300
  0
XRECORD
  5
2CC
102
{ACAD_REACTORS
330
2CB
102
}
330
2CB
100
AcDbXrecord
280
     1
102
MATERIAL
148
0.0
149
0.0
149
0.0
 93
        0
 94
      127
282
     0
 72
     1
 77
     1
171
     1
175
     1
179
     1
273
     0
  0
XRECORD
  5
2CA
102
{ACAD_REACTORS
330
2C9
102
}
330
2C9
100
AcDbXrecord
280
     1
102
MATERIAL
148
0.0
149
0.0
149
0.0
 93
        0
 94
      127
282
     0
 72
     1
 77
     1
171
     1
175
     1
179
     1
273
     0
  0
XRECORD
  5
2CE
102
{ACAD_REACTORS
330
2CD
102
}
330
2CD
100
AcDbXrecord
280
     1
102
MATERIAL
148
0.0
149
0.0
149
0.0
 93
        0
 94
      127
282
     0
 72
     1
 77
     1
171
     1
175
     1
179
     1
273
     0
  0
CELLSTYLEMAP
  5
362C
102
{ACAD_REACTORS
330
DAB
102
}
330
DAB
100
AcDbCellStyleMap
 90
        3
300
CELLSTYLE
  1
TABLEFORMAT_BEGIN
 90
        5
170
     1
 91
        0
 92
    32768
 62
   257
 93
        1
300
CONTENTFORMAT
  1
CONTENTFORMAT_BEGIN
 90
        0
 91
        0
 92
      512
 93
        0
300

 40
0.0
140
1.0
 94
        5
 62
     0
340
26
144
0.25
309
CONTENTFORMAT_END
171
     1
301
MARGIN
  1
CELLMARGIN_BEGIN
 40
0.06
 40
0.06
 40
0.06
 40
0.06
 40
0.18
 40
0.18
309
CELLMARGIN_END
 94
        6
 95
        1
302
GRIDFORMAT
  1
GRIDFORMAT_BEGIN
 90
        0
 91
        1
 62
     0
 92
       -2
340
0
 93
        0
 40
0.045
309
GRIDFORMAT_END
 95
        2
302
GRIDFORMAT
  1
GRIDFORMAT_BEGIN
 90
        0
 91
        1
 62
     0
 92
       -2
340
0
 93
        0
 40
0.045
309
GRIDFORMAT_END
 95
        4
302
GRIDFORMAT
  1
GRIDFORMAT_BEGIN
 90
        0
 91
        1
 62
     0
 92
       -2
340
0
 93
        0
 40
0.045
309
GRIDFORMAT_END
 95
        8
302
GRIDFORMAT
  1
GRIDFORMAT_BEGIN
 90
        0
 91
        1
 62
     0
 92
       -2
340
0
 93
        0
 40
0.045
309
GRIDFORMAT_END
 95
       16
302
GRIDFORMAT
  1
GRIDFORMAT_BEGIN
 90
        0
 91
        1
 62
     0
 92
       -2
340
0
 93
        0
 40
0.045
309
GRIDFORMAT_END
 95
       32
302
GRIDFORMAT
  1
GRIDFORMAT_BEGIN
 90
        0
 91
        1
 62
     0
 92
       -2
340
0
 93
        0
 40
0.045
309
GRIDFORMAT_END
309
TABLEFORMAT_END
  1
CELLSTYLE_BEGIN
 90
        1
 91
        1
300
_TITLE
309
CELLSTYLE_END
300
CELLSTYLE
  1
TABLEFORMAT_BEGIN
 90
        5
170
     1
 91
        0
 92
        0
 62
   257
 93
        1
300
CONTENTFORMAT
  1
CONTENTFORMAT_BEGIN
 90
        0
 91
        0
 92
      512
 93
        0
300

 40
0.0
140
1.0
 94
        5
 62
     0
340
26
144
0.18
309
CONTENTFORMAT_END
171
     1
301
MARGIN
  1
CELLMARGIN_BEGIN
 40
0.06
 40
0.06
 40
0.06
 40
0.06
 40
0.18
 40
0.18
309
CELLMARGIN_END
 94
        6
 95
        1
302
GRIDFORMAT
  1
GRIDFORMAT_BEGIN
 90
        0
 91
        1
 62
     0
 92
       -2
340
0
 93
        0
 40
0.045
309
GRIDFORMAT_END
 95
        2
302
GRIDFORMAT
  1
GRIDFORMAT_BEGIN
 90
        0
 91
        1
 62
     0
 92
       -2
340
0
 93
        0
 40
0.045
309
GRIDFORMAT_END
 95
        4
302
GRIDFORMAT
  1
GRIDFORMAT_BEGIN
 90
        0
 91
        1
 62
     0
 92
       -2
340
0
 93
        0
 40
0.045
309
GRIDFORMAT_END
 95
        8
302
GRIDFORMAT
  1
GRIDFORMAT_BEGIN
 90
        0
 91
        1
 62
     0
 92
       -2
340
0
 93
        0
 40
0.045
309
GRIDFORMAT_END
 95
       16
302
GRIDFORMAT
  1
GRIDFORMAT_BEGIN
 90
        0
 91
        1
 62
     0
 92
       -2
340
0
 93
        0
 40
0.045
309
GRIDFORMAT_END
 95
       32
302
GRIDFORMAT
  1
GRIDFORMAT_BEGIN
 90
        0
 91
        1
 62
     0
 92
       -2
340
0
 93
        0
 40
0.045
309
GRIDFORMAT_END
309
TABLEFORMAT_END
  1
CELLSTYLE_BEGIN
 90
        2
 91
        1
300
_HEADER
309
CELLSTYLE_END
300
CELLSTYLE
  1
TABLEFORMAT_BEGIN
 90
        5
170
     1
 91
        0
 92
        0
 62
   257
 93
        1
300
CONTENTFORMAT
  1
CONTENTFORMAT_BEGIN
 90
        0
 91
        0
 92
      512
 93
        0
300

 40
0.0
140
1.0
 94
        2
 62
     0
340
26
144
0.18
309
CONTENTFORMAT_END
171
     1
301
MARGIN
  1
CELLMARGIN_BEGIN
 40
0.06
 40
0.06
 40
0.06
 40
0.06
 40
0.18
 40
0.18
309
CELLMARGIN_END
 94
        6
 95
        1
302
GRIDFORMAT
  1
GRIDFORMAT_BEGIN
 90
        0
 91
        1
 62
     0
 92
       -2
340
0
 93
        0
 40
0.045
309
GRIDFORMAT_END
 95
        2
302
GRIDFORMAT
  1
GRIDFORMAT_BEGIN
 90
        0
 91
        1
 62
     0
 92
       -2
340
0
 93
        0
 40
0.045
309
GRIDFORMAT_END
 95
        4
302
GRIDFORMAT
  1
GRIDFORMAT_BEGIN
 90
        0
 91
        1
 62
     0
 92
       -2
340
0
 93
        0
 40
0.045
309
GRIDFORMAT_END
 95
        8
302
GRIDFORMAT
  1
GRIDFORMAT_BEGIN
 90
        0
 91
        1
 62
     0
 92
       -2
340
0
 93
        0
 40
0.045
309
GRIDFORMAT_END
 95
       16
302
GRIDFORMAT
  1
GRIDFORMAT_BEGIN
 90
        0
 91
        1
 62
     0
 92
       -2
340
0
 93
        0
 40
0.045
309
GRIDFORMAT_END
 95
       32
302
GRIDFORMAT
  1
GRIDFORMAT_BEGIN
 90
        0
 91
        1
 62
     0
 92
       -2
340
0
 93
        0
 40
0.045
309
GRIDFORMAT_END
309
TABLEFORMAT_END
  1
CELLSTYLE_BEGIN
 90
        3
 91
        2
300
_DATA
309
CELLSTYLE_END
  0
XRECORD
  5
3653
102
{ACAD_REACTORS
330
DAB
102
}
330
DAB
100
AcDbXrecord
280
     1
102
ACAD_ROUNDTRIP_PRE2007_TABLESTYLE
 90
      512
 91
        0
  1

 92
      512
 93
        0
  2

 94
      512
 95
        0
  3

  0
XRECORD
  5
363E
102
{ACAD_REACTORS
330
363D
102
}
330
363D
100
AcDbXrecord
280
     1
102
RTVSPropertyOp0
 70
     1
102
RTVSPropertyOp1
 70
     1
102
RTVSPropertyOp2
 70
     1
102
RTVSPropertyOp3
 70
     1
102
RTVSPropertyOp4
 70
     1
102
RTVSPropertyOp5
 70
     1
102
RTVSPropertyOp6
 70
     1
102
RTVSPropertyOp7
 70
     1
102
RTVSPropertyOp8
 70
     1
102
RTVSPropertyOp9
 70
     1
102
RTVSPropertyOp10
 70
     1
102
RTVSPropertyOp11
 70
     1
102
RTVSPropertyOp12
 70
     1
102
RTVSPropertyOp13
 70
     1
102
RTVSPropertyOp14
 70
     1
102
RTVSPropertyOp15
 70
     1
102
RTVSPropertyOp16
 70
     1
102
RTVSPropertyOp17
 70
     1
102
RTVSPropertyOp18
 70
     1
102
RTVSPropertyOp19
 70
     1
102
RTVSPropertyOp20
 70
     1
102
RTVSPropertyOp21
 70
     1
102
RTVSPropertyOp22
 70
     1
102
RTVSPropertyOp23
 70
     1
102
RTVSPropertyOp24
 70
     1
102
RTVSPropertyOp25
 70
     1
102
RTVSPropertyOp26
 70
     1
102
RTVSPropertyOp27
 70
     1
102
RTVSPropertyOp28
 70
     1
102
RTVSPropertyOp29
 70
     1
102
RTVSPropertyOp30
 70
     1
102
RTVSPropertyOp31
 70
     1
102
RTVSPropertyOp32
 70
     1
  0
XRECORD
  5
3642
102
{ACAD_REACTORS
330
3641
102
}
330
3641
100
AcDbXrecord
280
     1
102
RTVSPropertyOp0
 70
     1
102
RTVSPropertyOp1
 70
     1
102
RTVSPropertyOp2
 70
     1
102
RTVSPropertyOp3
 70
     1
102
RTVSPropertyOp4
 70
     1
102
RTVSPropertyOp5
 70
     1
102
RTVSPropertyOp6
 70
     1
102
RTVSPropertyOp7
 70
     1
102
RTVSPropertyOp8
 70
     1
102
RTVSPropertyOp9
 70
     1
102
RTVSPropertyOp10
 70
     1
102
RTVSPropertyOp11
 70
     1
102
RTVSPropertyOp12
 70
     1
102
RTVSPropertyOp13
 70
     1
102
RTVSPropertyOp14
 70
     1
102
RTVSPropertyOp15
 70
     1
102
RTVSPropertyOp16
 70
     1
102
RTVSPropertyOp17
 70
     1
102
RTVSPropertyOp18
 70
     1
102
RTVSPropertyOp19
 70
     1
102
RTVSPropertyOp20
 70
     1
102
RTVSPropertyOp21
 70
     1
102
RTVSPropertyOp22
 70
     1
102
RTVSPropertyOp23
 70
     1
102
RTVSPropertyOp24
 70
     1
102
RTVSPropertyOp25
 70
     1
102
RTVSPropertyOp26
 70
     1
102
RTVSPropertyOp27
 70
     1
102
RTVSPropertyOp28
 70
     1
102
RTVSPropertyOp29
 70
     1
102
RTVSPropertyOp30
 70
     1
102
RTVSPropertyOp31
 70
     1
102
RTVSPropertyOp32
 70
     1
  0
XRECORD
  5
3640
102
{ACAD_REACTORS
330
363F
102
}
330
363F
100
AcDbXrecord
280
     1
102
RTVSPropertyOp0
 70
     1
102
RTVSPropertyOp1
 70
     1
102
RTVSPropertyOp2
 70
     1
102
RTVSPropertyOp3
 70
     1
102
RTVSPropertyOp4
 70
     1
102
RTVSPropertyOp5
 70
     1
102
RTVSPropertyOp6
 70
     1
102
RTVSPropertyOp7
 70
     1
102
RTVSPropertyOp8
 70
     1
102
RTVSPropertyOp9
 70
     1
102
RTVSPropertyOp10
 70
     1
102
RTVSPropertyOp11
 70
     1
102
RTVSPropertyOp12
 70
     1
102
RTVSPropertyOp13
 70
     1
102
RTVSPropertyOp14
 70
     1
102
RTVSPropertyOp15
 70
     1
102
RTVSPropertyOp16
 70
     1
102
RTVSPropertyOp17
 70
     1
102
RTVSPropertyOp18
 70
     1
102
RTVSPropertyOp19
 70
     1
102
RTVSPropertyOp20
 70
     1
102
RTVSPropertyOp21
 70
     1
102
RTVSPropertyOp22
 70
     1
102
RTVSPropertyOp23
 70
     1
102
RTVSPropertyOp24
 70
     1
102
RTVSPropertyOp25
 70
     1
102
RTVSPropertyOp26
 70
     1
102
RTVSPropertyOp27
 70
     1
102
RTVSPropertyOp28
 70
     1
102
RTVSPropertyOp29
 70
     1
102
RTVSPropertyOp30
 70
     1
102
RTVSPropertyOp31
 70
     1
102
RTVSPropertyOp32
 70
     1
  0
XRECORD
  5
363C
102
{ACAD_REACTORS
330
363B
102
}
330
363B
100
AcDbXrecord
280
     1
102
RTVSPropertyOp0
 70
     1
102
RTVSPropertyOp1
 70
     1
102
RTVSPropertyOp2
 70
     1
102
RTVSPropertyOp3
 70
     1
102
RTVSPropertyOp4
 70
     1
102
RTVSPropertyOp5
 70
     1
102
RTVSPropertyOp6
 70
     1
102
RTVSPropertyOp7
 70
     1
102
RTVSPropertyOp8
 70
     1
102
RTVSPropertyOp9
 70
     1
102
RTVSPropertyOp10
 70
     1
102
RTVSPropertyOp11
 70
     1
102
RTVSPropertyOp12
 70
     1
102
RTVSPropertyOp13
 70
     1
102
RTVSPropertyOp14
 70
     1
102
RTVSPropertyOp15
 70
     1
102
RTVSPropertyOp16
 70
     1
102
RTVSPropertyOp17
 70
     1
102
RTVSPropertyOp18
 70
     1
102
RTVSPropertyOp19
 70
     1
102
RTVSPropertyOp20
 70
     1
102
RTVSPropertyOp21
 70
     1
102
RTVSPropertyOp22
 70
     1
102
RTVSPropertyOp23
 70
     1
102
RTVSPropertyOp24
 70
     1
102
RTVSPropertyOp25
 70
     1
102
RTVSPropertyOp26
 70
     1
102
RTVSPropertyOp27
 70
     1
102
RTVSPropertyOp28
 70
     1
102
RTVSPropertyOp29
 70
     1
102
RTVSPropertyOp30
 70
     1
102
RTVSPropertyOp31
 70
     1
102
RTVSPropertyOp32
 70
     1
  0
XRECORD
  5
364A
102
{ACAD_REACTORS
330
3649
102
}
330
3649
100
AcDbXrecord
280
     1
102
RTVSPropertyOp0
 70
     1
102
RTVSPropertyOp1
 70
     1
102
RTVSPropertyOp2
 70
     1
102
RTVSPropertyOp3
 70
     1
102
RTVSPropertyOp4
 70
     1
102
RTVSPropertyOp5
 70
     1
102
RTVSPropertyOp6
 70
     1
102
RTVSPropertyOp7
 70
     1
102
RTVSPropertyOp8
 70
     1
102
RTVSPropertyOp9
 70
     1
102
RTVSPropertyOp10
 70
     1
102
RTVSPropertyOp11
 70
     1
102
RTVSPropertyOp12
 70
     1
102
RTVSPropertyOp13
 70
     1
102
RTVSPropertyOp14
 70
     1
102
RTVSPropertyOp15
 70
     1
102
RTVSPropertyOp16
 70
     1
102
RTVSPropertyOp17
 70
     1
102
RTVSPropertyOp18
 70
     1
102
RTVSPropertyOp19
 70
     1
102
RTVSPropertyOp20
 70
     1
102
RTVSPropertyOp21
 70
     1
102
RTVSPropertyOp22
 70
     1
102
RTVSPropertyOp23
 70
     1
102
RTVSPropertyOp24
 70
     1
102
RTVSPropertyOp25
 70
     1
102
RTVSPropertyOp26
 70
     1
102
RTVSPropertyOp27
 70
     1
102
RTVSPropertyOp28
 70
     1
102
RTVSPropertyOp29
 70
     1
102
RTVSPropertyOp30
 70
     1
102
RTVSPropertyOp31
 70
     1
102
RTVSPropertyOp32
 70
     1
  0
XRECORD
  5
3652
102
{ACAD_REACTORS
330
3651
102
}
330
3651
100
AcDbXrecord
280
     1
102
RTVSPropertyOp0
 70
     1
102
RTVSPropertyOp1
 70
     1
102
RTVSPropertyOp2
 70
     1
102
RTVSPropertyOp3
 70
     1
102
RTVSPropertyOp4
 70
     1
102
RTVSPropertyOp5
 70
     1
102
RTVSPropertyOp6
 70
     1
102
RTVSPropertyOp7
 70
     1
102
RTVSPropertyOp8
 70
     1
102
RTVSPropertyOp9
 70
     1
102
RTVSPropertyOp10
 70
     1
102
RTVSPropertyOp11
 70
     1
102
RTVSPropertyOp12
 70
     1
102
RTVSPropertyOp13
 70
     1
102
RTVSPropertyOp14
 70
     1
102
RTVSPropertyOp15
 70
     1
102
RTVSPropertyOp16
 70
     1
102
RTVSPropertyOp17
 70
     1
102
RTVSPropertyOp18
 70
     1
102
RTVSPropertyOp19
 70
     1
102
RTVSPropertyOp20
 70
     1
102
RTVSPropertyOp21
 70
     1
102
RTVSPropertyOp22
 70
     1
102
RTVSPropertyOp23
 70
     1
102
RTVSPropertyOp24
 70
     1
102
RTVSPropertyOp25
 70
     1
102
RTVSPropertyOp26
 70
     1
102
RTVSPropertyOp27
 70
     1
102
RTVSPropertyOp28
 70
     1
102
RTVSPropertyOp29
 70
     1
102
RTVSPropertyOp30
 70
     1
102
RTVSPropertyOp31
 70
     1
102
RTVSPropertyOp32
 70
     1
  0
XRECORD
  5
3644
102
{ACAD_REACTORS
330
3643
102
}
330
3643
100
AcDbXrecord
280
     1
102
RTVSPropertyOp0
 70
     1
102
RTVSPropertyOp1
 70
     1
102
RTVSPropertyOp2
 70
     1
102
RTVSPropertyOp3
 70
     1
102
RTVSPropertyOp4
 70
     1
102
RTVSPropertyOp5
 70
     1
102
RTVSPropertyOp6
 70
     1
102
RTVSPropertyOp7
 70
     1
102
RTVSPropertyOp8
 70
     1
102
RTVSPropertyOp9
 70
     1
102
RTVSPropertyOp10
 70
     1
102
RTVSPropertyOp11
 70
     1
102
RTVSPropertyOp12
 70
     1
102
RTVSPropertyOp13
 70
     1
102
RTVSPropertyOp14
 70
     1
102
RTVSPropertyOp15
 70
     1
102
RTVSPropertyOp16
 70
     1
102
RTVSPropertyOp17
 70
     1
102
RTVSPropertyOp18
 70
     1
102
RTVSPropertyOp19
 70
     1
102
RTVSPropertyOp20
 70
     1
102
RTVSPropertyOp21
 70
     1
102
RTVSPropertyOp22
 70
     1
102
RTVSPropertyOp23
 70
     1
102
RTVSPropertyOp24
 70
     1
102
RTVSPropertyOp25
 70
     1
102
RTVSPropertyOp26
 70
     1
102
RTVSPropertyOp27
 70
     1
102
RTVSPropertyOp28
 70
     1
102
RTVSPropertyOp29
 70
     1
102
RTVSPropertyOp30
 70
     1
102
RTVSPropertyOp31
 70
     1
102
RTVSPropertyOp32
 70
     1
  0
XRECORD
  5
3648
102
{ACAD_REACTORS
330
3647
102
}
330
3647
100
AcDbXrecord
280
     1
102
RTVSPropertyOp0
 70
     1
102
RTVSPropertyOp1
 70
     1
102
RTVSPropertyOp2
 70
     1
102
RTVSPropertyOp3
 70
     1
102
RTVSPropertyOp4
 70
     1
102
RTVSPropertyOp5
 70
     1
102
RTVSPropertyOp6
 70
     1
102
RTVSPropertyOp7
 70
     1
102
RTVSPropertyOp8
 70
     1
102
RTVSPropertyOp9
 70
     1
102
RTVSPropertyOp10
 70
     1
102
RTVSPropertyOp11
 70
     1
102
RTVSPropertyOp12
 70
     1
102
RTVSPropertyOp13
 70
     1
102
RTVSPropertyOp14
 70
     1
102
RTVSPropertyOp15
 70
     1
102
RTVSPropertyOp16
 70
     1
102
RTVSPropertyOp17
 70
     1
102
RTVSPropertyOp18
 70
     1
102
RTVSPropertyOp19
 70
     1
102
RTVSPropertyOp20
 70
     1
102
RTVSPropertyOp21
 70
     1
102
RTVSPropertyOp22
 70
     1
102
RTVSPropertyOp23
 70
     1
102
RTVSPropertyOp24
 70
     1
102
RTVSPropertyOp25
 70
     1
102
RTVSPropertyOp26
 70
     1
102
RTVSPropertyOp27
 70
     1
102
RTVSPropertyOp28
 70
     1
102
RTVSPropertyOp29
 70
     1
102
RTVSPropertyOp30
 70
     1
102
RTVSPropertyOp31
 70
     1
102
RTVSPropertyOp32
 70
     1
  0
XRECORD
  5
366B
102
{ACAD_REACTORS
330
366A
102
}
330
366A
100
AcDbXrecord
280
     1
102
RTVSPropertyOp0
 70
     0
102
RTVSPropertyOp1
 70
     0
102
RTVSPropertyOp2
 70
     0
102
RTVSPropertyOp3
 70
     0
102
RTVSPropertyOp4
 70
     0
102
RTVSPropertyOp5
 70
     0
102
RTVSPropertyOp6
 70
     0
102
RTVSPropertyOp7
 70
     0
102
RTVSPropertyOp8
 70
     0
102
RTVSPropertyOp9
 70
     0
102
RTVSPropertyOp10
 70
     0
102
RTVSPropertyOp11
 70
     0
102
RTVSPropertyOp12
 70
     0
102
RTVSPropertyOp13
 70
     0
102
RTVSPropertyOp14
 70
     2
102
RTVSPropertyOp15
 70
     0
102
RTVSPropertyOp16
 70
     0
102
RTVSPropertyOp17
 70
     0
102
RTVSPropertyOp18
 70
     0
102
RTVSPropertyOp19
 70
     0
102
RTVSPropertyOp20
 70
     0
102
RTVSPropertyOp21
 70
     0
102
RTVSPropertyOp22
 70
     0
102
RTVSPropertyOp23
 70
     0
102
RTVSPropertyOp24
 70
     0
102
RTVSPropertyOp25
 70
     0
102
RTVSPropertyOp26
 70
     0
102
RTVSPropertyOp27
 70
     0
102
RTVSPropertyOp28
 70
     0
102
RTVSPropertyOp29
 70
     0
102
RTVSPropertyOp30
 70
     0
102
RTVSPropertyOp31
 70
     0
102
RTVSPropertyOp32
 70
     0
  0
XRECORD
  5
3650
102
{ACAD_REACTORS
330
364F
102
}
330
364F
100
AcDbXrecord
280
     1
102
RTVSPropertyOp0
 70
     1
102
RTVSPropertyOp1
 70
     1
102
RTVSPropertyOp2
 70
     1
102
RTVSPropertyOp3
 70
     1
102
RTVSPropertyOp4
 70
     1
102
RTVSPropertyOp5
 70
     1
102
RTVSPropertyOp6
 70
     1
102
RTVSPropertyOp7
 70
     1
102
RTVSPropertyOp8
 70
     1
102
RTVSPropertyOp9
 70
     1
102
RTVSPropertyOp10
 70
     1
102
RTVSPropertyOp11
 70
     1
102
RTVSPropertyOp12
 70
     1
102
RTVSPropertyOp13
 70
     1
102
RTVSPropertyOp14
 70
     1
102
RTVSPropertyOp15
 70
     1
102
RTVSPropertyOp16
 70
     1
102
RTVSPropertyOp17
 70
     1
102
RTVSPropertyOp18
 70
     1
102
RTVSPropertyOp19
 70
     1
102
RTVSPropertyOp20
 70
     1
102
RTVSPropertyOp21
 70
     1
102
RTVSPropertyOp22
 70
     1
102
RTVSPropertyOp23
 70
     1
102
RTVSPropertyOp24
 70
     1
102
RTVSPropertyOp25
 70
     1
102
RTVSPropertyOp26
 70
     1
102
RTVSPropertyOp27
 70
     1
102
RTVSPropertyOp28
 70
     1
102
RTVSPropertyOp29
 70
     1
102
RTVSPropertyOp30
 70
     1
102
RTVSPropertyOp31
 70
     1
102
RTVSPropertyOp32
 70
     1
  0
XRECORD
  5
3634
102
{ACAD_REACTORS
330
3633
102
}
330
3633
100
AcDbXrecord
280
     1
102
RTVSPropertyOp0
 70
     1
102
RTVSPropertyOp1
 70
     1
102
RTVSPropertyOp2
 70
     1
102
RTVSPropertyOp3
 70
     1
102
RTVSPropertyOp4
 70
     1
102
RTVSPropertyOp5
 70
     1
102
RTVSPropertyOp6
 70
     1
102
RTVSPropertyOp7
 70
     1
102
RTVSPropertyOp8
 70
     1
102
RTVSPropertyOp9
 70
     1
102
RTVSPropertyOp10
 70
     1
102
RTVSPropertyOp11
 70
     1
102
RTVSPropertyOp12
 70
     1
102
RTVSPropertyOp13
 70
     1
102
RTVSPropertyOp14
 70
     1
102
RTVSPropertyOp15
 70
     1
102
RTVSPropertyOp16
 70
     1
102
RTVSPropertyOp17
 70
     1
102
RTVSPropertyOp18
 70
     1
102
RTVSPropertyOp19
 70
     1
102
RTVSPropertyOp20
 70
     1
102
RTVSPropertyOp21
 70
     1
102
RTVSPropertyOp22
 70
     1
102
RTVSPropertyOp23
 70
     1
102
RTVSPropertyOp24
 70
     1
102
RTVSPropertyOp25
 70
     1
102
RTVSPropertyOp26
 70
     1
102
RTVSPropertyOp27
 70
     1
102
RTVSPropertyOp28
 70
     1
102
RTVSPropertyOp29
 70
     1
102
RTVSPropertyOp30
 70
     1
102
RTVSPropertyOp31
 70
     1
102
RTVSPropertyOp32
 70
     1
  0
XRECORD
  5
3636
102
{ACAD_REACTORS
330
3635
102
}
330
3635
100
AcDbXrecord
280
     1
102
RTVSPropertyOp0
 70
     1
102
RTVSPropertyOp1
 70
     1
102
RTVSPropertyOp2
 70
     1
102
RTVSPropertyOp3
 70
     1
102
RTVSPropertyOp4
 70
     1
102
RTVSPropertyOp5
 70
     1
102
RTVSPropertyOp6
 70
     1
102
RTVSPropertyOp7
 70
     1
102
RTVSPropertyOp8
 70
     1
102
RTVSPropertyOp9
 70
     1
102
RTVSPropertyOp10
 70
     1
102
RTVSPropertyOp11
 70
     1
102
RTVSPropertyOp12
 70
     1
102
RTVSPropertyOp13
 70
     1
102
RTVSPropertyOp14
 70
     1
102
RTVSPropertyOp15
 70
     1
102
RTVSPropertyOp16
 70
     1
102
RTVSPropertyOp17
 70
     1
102
RTVSPropertyOp18
 70
     1
102
RTVSPropertyOp19
 70
     1
102
RTVSPropertyOp20
 70
     1
102
RTVSPropertyOp21
 70
     1
102
RTVSPropertyOp22
 70
     1
102
RTVSPropertyOp23
 70
     1
102
RTVSPropertyOp24
 70
     1
102
RTVSPropertyOp25
 70
     1
102
RTVSPropertyOp26
 70
     1
102
RTVSPropertyOp27
 70
     1
102
RTVSPropertyOp28
 70
     1
102
RTVSPropertyOp29
 70
     1
102
RTVSPropertyOp30
 70
     1
102
RTVSPropertyOp31
 70
     1
102
RTVSPropertyOp32
 70
     1
  0
XRECORD
  5
3638
102
{ACAD_REACTORS
330
3637
102
}
330
3637
100
AcDbXrecord
280
     1
102
RTVSPropertyOp0
 70
     1
102
RTVSPropertyOp1
 70
     1
102
RTVSPropertyOp2
 70
     1
102
RTVSPropertyOp3
 70
     1
102
RTVSPropertyOp4
 70
     1
102
RTVSPropertyOp5
 70
     1
102
RTVSPropertyOp6
 70
     1
102
RTVSPropertyOp7
 70
     1
102
RTVSPropertyOp8
 70
     1
102
RTVSPropertyOp9
 70
     1
102
RTVSPropertyOp10
 70
     1
102
RTVSPropertyOp11
 70
     1
102
RTVSPropertyOp12
 70
     1
102
RTVSPropertyOp13
 70
     1
102
RTVSPropertyOp14
 70
     1
102
RTVSPropertyOp15
 70
     1
102
RTVSPropertyOp16
 70
     1
102
RTVSPropertyOp17
 70
     1
102
RTVSPropertyOp18
 70
     1
102
RTVSPropertyOp19
 70
     1
102
RTVSPropertyOp20
 70
     1
102
RTVSPropertyOp21
 70
     1
102
RTVSPropertyOp22
 70
     1
102
RTVSPropertyOp23
 70
     1
102
RTVSPropertyOp24
 70
     1
102
RTVSPropertyOp25
 70
     1
102
RTVSPropertyOp26
 70
     1
102
RTVSPropertyOp27
 70
     1
102
RTVSPropertyOp28
 70
     1
102
RTVSPropertyOp29
 70
     1
102
RTVSPropertyOp30
 70
     1
102
RTVSPropertyOp31
 70
     1
102
RTVSPropertyOp32
 70
     1
  0
XRECORD
  5
363A
102
{ACAD_REACTORS
330
3639
102
}
330
3639
100
AcDbXrecord
280
     1
102
RTVSPropertyOp0
 70
     1
102
RTVSPropertyOp1
 70
     1
102
RTVSPropertyOp2
 70
     1
102
RTVSPropertyOp3
 70
     1
102
RTVSPropertyOp4
 70
     1
102
RTVSPropertyOp5
 70
     1
102
RTVSPropertyOp6
 70
     1
102
RTVSPropertyOp7
 70
     1
102
RTVSPropertyOp8
 70
     1
102
RTVSPropertyOp9
 70
     1
102
RTVSPropertyOp10
 70
     1
102
RTVSPropertyOp11
 70
     1
102
RTVSPropertyOp12
 70
     1
102
RTVSPropertyOp13
 70
     1
102
RTVSPropertyOp14
 70
     1
102
RTVSPropertyOp15
 70
     1
102
RTVSPropertyOp16
 70
     1
102
RTVSPropertyOp17
 70
     1
102
RTVSPropertyOp18
 70
     1
102
RTVSPropertyOp19
 70
     1
102
RTVSPropertyOp20
 70
     1
102
RTVSPropertyOp21
 70
     1
102
RTVSPropertyOp22
 70
     1
102
RTVSPropertyOp23
 70
     1
102
RTVSPropertyOp24
 70
     1
102
RTVSPropertyOp25
 70
     1
102
RTVSPropertyOp26
 70
     1
102
RTVSPropertyOp27
 70
     1
102
RTVSPropertyOp28
 70
     1
102
RTVSPropertyOp29
 70
     1
102
RTVSPropertyOp30
 70
     1
102
RTVSPropertyOp31
 70
     1
102
RTVSPropertyOp32
 70
     1
  0
XRECORD
  5
365B
102
{ACAD_REACTORS
330
365A
102
}
330
365A
100
AcDbXrecord
280
     1
102
RTVSPropertyOp0
 70
     1
102
RTVSPropertyOp1
 70
     1
102
RTVSPropertyOp2
 70
     1
102
RTVSPropertyOp3
 70
     1
102
RTVSPropertyOp4
 70
     1
102
RTVSPropertyOp5
 70
     1
102
RTVSPropertyOp6
 70
     1
102
RTVSPropertyOp7
 70
     1
102
RTVSPropertyOp8
 70
     1
102
RTVSPropertyOp9
 70
     1
102
RTVSPropertyOp10
 70
     1
102
RTVSPropertyOp11
 70
     1
102
RTVSPropertyOp12
 70
     1
102
RTVSPropertyOp13
 70
     1
102
RTVSPropertyOp14
 70
     1
102
RTVSPropertyOp15
 70
     1
102
RTVSPropertyOp16
 70
     1
102
RTVSPropertyOp17
 70
     1
102
RTVSPropertyOp18
 70
     1
102
RTVSPropertyOp19
 70
     1
102
RTVSPropertyOp20
 70
     1
102
RTVSPropertyOp21
 70
     1
102
RTVSPropertyOp22
 70
     1
102
RTVSPropertyOp23
 70
     1
102
RTVSPropertyOp24
 70
     1
102
RTVSPropertyOp25
 70
     1
102
RTVSPropertyOp26
 70
     1
102
RTVSPropertyOp27
 70
     1
102
RTVSPropertyOp28
 70
     1
102
RTVSPropertyOp29
 70
     1
102
RTVSPropertyOp30
 70
     1
102
RTVSPropertyOp31
 70
     1
102
RTVSPropertyOp32
 70
     1
  0
XRECORD
  5
3667
102
{ACAD_REACTORS
330
3666
102
}
330
3666
100
AcDbXrecord
280
     1
102
RTVSPropertyOp0
 70
     0
102
RTVSPropertyOp1
 70
     0
102
RTVSPropertyOp2
 70
     0
102
RTVSPropertyOp3
 70
     0
102
RTVSPropertyOp4
 70
     0
102
RTVSPropertyOp5
 70
     0
102
RTVSPropertyOp6
 70
     0
102
RTVSPropertyOp7
 70
     0
102
RTVSPropertyOp8
 70
     0
102
RTVSPropertyOp9
 70
     0
102
RTVSPropertyOp10
 70
     0
102
RTVSPropertyOp11
 70
     0
102
RTVSPropertyOp12
 70
     0
102
RTVSPropertyOp13
 70
     0
102
RTVSPropertyOp14
 70
     2
102
RTVSPropertyOp15
 70
     0
102
RTVSPropertyOp16
 70
     0
102
RTVSPropertyOp17
 70
     0
102
RTVSPropertyOp18
 70
     0
102
RTVSPropertyOp19
 70
     0
102
RTVSPropertyOp20
 70
     0
102
RTVSPropertyOp21
 70
     0
102
RTVSPropertyOp22
 70
     0
102
RTVSPropertyOp23
 70
     0
102
RTVSPropertyOp24
 70
     0
102
RTVSPropertyOp25
 70
     0
102
RTVSPropertyOp26
 70
     0
102
RTVSPropertyOp27
 70
     0
102
RTVSPropertyOp28
 70
     0
102
RTVSPropertyOp29
 70
     0
102
RTVSPropertyOp30
 70
     0
102
RTVSPropertyOp31
 70
     0
102
RTVSPropertyOp32
 70
     0
  0
XRECORD
  5
364E
102
{ACAD_REACTORS
330
364D
102
}
330
364D
100
AcDbXrecord
280
     1
102
RTVSPropertyOp0
 70
     1
102
RTVSPropertyOp1
 70
     1
102
RTVSPropertyOp2
 70
     1
102
RTVSPropertyOp3
 70
     1
102
RTVSPropertyOp4
 70
     1
102
RTVSPropertyOp5
 70
     1
102
RTVSPropertyOp6
 70
     1
102
RTVSPropertyOp7
 70
     1
102
RTVSPropertyOp8
 70
     1
102
RTVSPropertyOp9
 70
     1
102
RTVSPropertyOp10
 70
     1
102
RTVSPropertyOp11
 70
     1
102
RTVSPropertyOp12
 70
     1
102
RTVSPropertyOp13
 70
     1
102
RTVSPropertyOp14
 70
     1
102
RTVSPropertyOp15
 70
     1
102
RTVSPropertyOp16
 70
     1
102
RTVSPropertyOp17
 70
     1
102
RTVSPropertyOp18
 70
     1
102
RTVSPropertyOp19
 70
     1
102
RTVSPropertyOp20
 70
     1
102
RTVSPropertyOp21
 70
     1
102
RTVSPropertyOp22
 70
     1
102
RTVSPropertyOp23
 70
     1
102
RTVSPropertyOp24
 70
     1
102
RTVSPropertyOp25
 70
     1
102
RTVSPropertyOp26
 70
     1
102
RTVSPropertyOp27
 70
     1
102
RTVSPropertyOp28
 70
     1
102
RTVSPropertyOp29
 70
     1
102
RTVSPropertyOp30
 70
     1
102
RTVSPropertyOp31
 70
     1
102
RTVSPropertyOp32
 70
     1
  0
XRECORD
  5
3669
102
{ACAD_REACTORS
330
3668
102
}
330
3668
100
AcDbXrecord
280
     1
102
RTVSPropertyOp0
 70
     0
102
RTVSPropertyOp1
 70
     0
102
RTVSPropertyOp2
 70
     0
102
RTVSPropertyOp3
 70
     0
102
RTVSPropertyOp4
 70
     0
102
RTVSPropertyOp5
 70
     0
102
RTVSPropertyOp6
 70
     0
102
RTVSPropertyOp7
 70
     0
102
RTVSPropertyOp8
 70
     0
102
RTVSPropertyOp9
 70
     0
102
RTVSPropertyOp10
 70
     0
102
RTVSPropertyOp11
 70
     0
102
RTVSPropertyOp12
 70
     0
102
RTVSPropertyOp13
 70
     0
102
RTVSPropertyOp14
 70
     2
102
RTVSPropertyOp15
 70
     0
102
RTVSPropertyOp16
 70
     0
102
RTVSPropertyOp17
 70
     0
102
RTVSPropertyOp18
 70
     0
102
RTVSPropertyOp19
 70
     0
102
RTVSPropertyOp20
 70
     0
102
RTVSPropertyOp21
 70
     0
102
RTVSPropertyOp22
 70
     0
102
RTVSPropertyOp23
 70
     0
102
RTVSPropertyOp24
 70
     0
102
RTVSPropertyOp25
 70
     0
102
RTVSPropertyOp26
 70
     0
102
RTVSPropertyOp27
 70
     0
102
RTVSPropertyOp28
 70
     0
102
RTVSPropertyOp29
 70
     0
102
RTVSPropertyOp30
 70
     0
102
RTVSPropertyOp31
 70
     0
102
RTVSPropertyOp32
 70
     0
  0
XRECORD
  5
3646
102
{ACAD_REACTORS
330
3645
102
}
330
3645
100
AcDbXrecord
280
     1
102
RTVSPropertyOp0
 70
     1
102
RTVSPropertyOp1
 70
     1
102
RTVSPropertyOp2
 70
     1
102
RTVSPropertyOp3
 70
     1
102
RTVSPropertyOp4
 70
     1
102
RTVSPropertyOp5
 70
     1
102
RTVSPropertyOp6
 70
     1
102
RTVSPropertyOp7
 70
     1
102
RTVSPropertyOp8
 70
     1
102
RTVSPropertyOp9
 70
     1
102
RTVSPropertyOp10
 70
     1
102
RTVSPropertyOp11
 70
     1
102
RTVSPropertyOp12
 70
     1
102
RTVSPropertyOp13
 70
     1
102
RTVSPropertyOp14
 70
     1
102
RTVSPropertyOp15
 70
     1
102
RTVSPropertyOp16
 70
     1
102
RTVSPropertyOp17
 70
     1
102
RTVSPropertyOp18
 70
     1
102
RTVSPropertyOp19
 70
     1
102
RTVSPropertyOp20
 70
     1
102
RTVSPropertyOp21
 70
     1
102
RTVSPropertyOp22
 70
     1
102
RTVSPropertyOp23
 70
     1
102
RTVSPropertyOp24
 70
     1
102
RTVSPropertyOp25
 70
     1
102
RTVSPropertyOp26
 70
     1
102
RTVSPropertyOp27
 70
     1
102
RTVSPropertyOp28
 70
     1
102
RTVSPropertyOp29
 70
     1
102
RTVSPropertyOp30
 70
     1
102
RTVSPropertyOp31
 70
     1
102
RTVSPropertyOp32
 70
     1
  0
XRECORD
  5
3665
102
{ACAD_REACTORS
330
3664
102
}
330
3664
100
AcDbXrecord
280
     1
102
RTVSPropertyOp0
 70
     1
102
RTVSPropertyOp1
 70
     1
102
RTVSPropertyOp2
 70
     1
102
RTVSPropertyOp3
 70
     1
102
RTVSPropertyOp4
 70
     1
102
RTVSPropertyOp5
 70
     1
102
RTVSPropertyOp6
 70
     1
102
RTVSPropertyOp7
 70
     1
102
RTVSPropertyOp8
 70
     1
102
RTVSPropertyOp9
 70
     1
102
RTVSPropertyOp10
 70
     1
102
RTVSPropertyOp11
 70
     1
102
RTVSPropertyOp12
 70
     1
102
RTVSPropertyOp13
 70
     1
102
RTVSPropertyOp14
 70
     1
102
RTVSPropertyOp15
 70
     1
102
RTVSPropertyOp16
 70
     1
102
RTVSPropertyOp17
 70
     1
102
RTVSPropertyOp18
 70
     1
102
RTVSPropertyOp19
 70
     1
102
RTVSPropertyOp20
 70
     1
102
RTVSPropertyOp21
 70
     1
102
RTVSPropertyOp22
 70
     1
102
RTVSPropertyOp23
 70
     1
102
RTVSPropertyOp24
 70
     1
102
RTVSPropertyOp25
 70
     1
102
RTVSPropertyOp26
 70
     1
102
RTVSPropertyOp27
 70
     1
102
RTVSPropertyOp28
 70
     1
102
RTVSPropertyOp29
 70
     1
102
RTVSPropertyOp30
 70
     1
102
RTVSPropertyOp31
 70
     1
102
RTVSPropertyOp32
 70
     1
  0
XRECORD
  5
3663
102
{ACAD_REACTORS
330
3662
102
}
330
3662
100
AcDbXrecord
280
     1
102
RTVSPropertyOp0
 70
     1
102
RTVSPropertyOp1
 70
     1
102
RTVSPropertyOp2
 70
     1
102
RTVSPropertyOp3
 70
     1
102
RTVSPropertyOp4
 70
     1
102
RTVSPropertyOp5
 70
     1
102
RTVSPropertyOp6
 70
     1
102
RTVSPropertyOp7
 70
     1
102
RTVSPropertyOp8
 70
     1
102
RTVSPropertyOp9
 70
     1
102
RTVSPropertyOp10
 70
     1
102
RTVSPropertyOp11
 70
     1
102
RTVSPropertyOp12
 70
     1
102
RTVSPropertyOp13
 70
     1
102
RTVSPropertyOp14
 70
     1
102
RTVSPropertyOp15
 70
     1
102
RTVSPropertyOp16
 70
     1
102
RTVSPropertyOp17
 70
     1
102
RTVSPropertyOp18
 70
     1
102
RTVSPropertyOp19
 70
     1
102
RTVSPropertyOp20
 70
     1
102
RTVSPropertyOp21
 70
     1
102
RTVSPropertyOp22
 70
     1
102
RTVSPropertyOp23
 70
     1
102
RTVSPropertyOp24
 70
     1
102
RTVSPropertyOp25
 70
     1
102
RTVSPropertyOp26
 70
     1
102
RTVSPropertyOp27
 70
     1
102
RTVSPropertyOp28
 70
     1
102
RTVSPropertyOp29
 70
     1
102
RTVSPropertyOp30
 70
     1
102
RTVSPropertyOp31
 70
     1
102
RTVSPropertyOp32
 70
     1
  0
XRECORD
  5
365D
102
{ACAD_REACTORS
330
365C
102
}
330
365C
100
AcDbXrecord
280
     1
102
RTVSPropertyOp0
 70
     1
102
RTVSPropertyOp1
 70
     1
102
RTVSPropertyOp2
 70
     1
102
RTVSPropertyOp3
 70
     1
102
RTVSPropertyOp4
 70
     1
102
RTVSPropertyOp5
 70
     1
102
RTVSPropertyOp6
 70
     1
102
RTVSPropertyOp7
 70
     1
102
RTVSPropertyOp8
 70
     1
102
RTVSPropertyOp9
 70
     1
102
RTVSPropertyOp10
 70
     1
102
RTVSPropertyOp11
 70
     1
102
RTVSPropertyOp12
 70
     1
102
RTVSPropertyOp13
 70
     1
102
RTVSPropertyOp14
 70
     1
102
RTVSPropertyOp15
 70
     1
102
RTVSPropertyOp16
 70
     1
102
RTVSPropertyOp17
 70
     1
102
RTVSPropertyOp18
 70
     1
102
RTVSPropertyOp19
 70
     1
102
RTVSPropertyOp20
 70
     1
102
RTVSPropertyOp21
 70
     1
102
RTVSPropertyOp22
 70
     1
102
RTVSPropertyOp23
 70
     1
102
RTVSPropertyOp24
 70
     1
102
RTVSPropertyOp25
 70
     1
102
RTVSPropertyOp26
 70
     1
102
RTVSPropertyOp27
 70
     1
102
RTVSPropertyOp28
 70
     1
102
RTVSPropertyOp29
 70
     1
102
RTVSPropertyOp30
 70
     1
102
RTVSPropertyOp31
 70
     1
102
RTVSPropertyOp32
 70
     1
  0
XRECORD
  5
365F
102
{ACAD_REACTORS
330
365E
102
}
330
365E
100
AcDbXrecord
280
     1
102
RTVSPropertyOp0
 70
     1
102
RTVSPropertyOp1
 70
     1
102
RTVSPropertyOp2
 70
     1
102
RTVSPropertyOp3
 70
     1
102
RTVSPropertyOp4
 70
     1
102
RTVSPropertyOp5
 70
     1
102
RTVSPropertyOp6
 70
     1
102
RTVSPropertyOp7
 70
     1
102
RTVSPropertyOp8
 70
     1
102
RTVSPropertyOp9
 70
     1
102
RTVSPropertyOp10
 70
     1
102
RTVSPropertyOp11
 70
     1
102
RTVSPropertyOp12
 70
     1
102
RTVSPropertyOp13
 70
     1
102
RTVSPropertyOp14
 70
     1
102
RTVSPropertyOp15
 70
     1
102
RTVSPropertyOp16
 70
     1
102
RTVSPropertyOp17
 70
     1
102
RTVSPropertyOp18
 70
     1
102
RTVSPropertyOp19
 70
     1
102
RTVSPropertyOp20
 70
     1
102
RTVSPropertyOp21
 70
     1
102
RTVSPropertyOp22
 70
     1
102
RTVSPropertyOp23
 70
     1
102
RTVSPropertyOp24
 70
     1
102
RTVSPropertyOp25
 70
     1
102
RTVSPropertyOp26
 70
     1
102
RTVSPropertyOp27
 70
     1
102
RTVSPropertyOp28
 70
     1
102
RTVSPropertyOp29
 70
     1
102
RTVSPropertyOp30
 70
     1
102
RTVSPropertyOp31
 70
     1
102
RTVSPropertyOp32
 70
     1
  0
XRECORD
  5
364C
102
{ACAD_REACTORS
330
364B
102
}
330
364B
100
AcDbXrecord
280
     1
102
RTVSPropertyOp0
 70
     1
102
RTVSPropertyOp1
 70
     1
102
RTVSPropertyOp2
 70
     1
102
RTVSPropertyOp3
 70
     1
102
RTVSPropertyOp4
 70
     1
102
RTVSPropertyOp5
 70
     1
102
RTVSPropertyOp6
 70
     1
102
RTVSPropertyOp7
 70
     1
102
RTVSPropertyOp8
 70
     1
102
RTVSPropertyOp9
 70
     1
102
RTVSPropertyOp10
 70
     1
102
RTVSPropertyOp11
 70
     1
102
RTVSPropertyOp12
 70
     1
102
RTVSPropertyOp13
 70
     1
102
RTVSPropertyOp14
 70
     1
102
RTVSPropertyOp15
 70
     1
102
RTVSPropertyOp16
 70
     1
102
RTVSPropertyOp17
 70
     1
102
RTVSPropertyOp18
 70
     1
102
RTVSPropertyOp19
 70
     1
102
RTVSPropertyOp20
 70
     1
102
RTVSPropertyOp21
 70
     1
102
RTVSPropertyOp22
 70
     1
102
RTVSPropertyOp23
 70
     1
102
RTVSPropertyOp24
 70
     1
102
RTVSPropertyOp25
 70
     1
102
RTVSPropertyOp26
 70
     1
102
RTVSPropertyOp27
 70
     1
102
RTVSPropertyOp28
 70
     1
102
RTVSPropertyOp29
 70
     1
102
RTVSPropertyOp30
 70
     1
102
RTVSPropertyOp31
 70
     1
102
RTVSPropertyOp32
 70
     1
  0
XRECORD
  5
3659
102
{ACAD_REACTORS
330
3658
102
}
330
3658
100
AcDbXrecord
280
     1
102
RTVSPropertyOp0
 70
     1
102
RTVSPropertyOp1
 70
     1
102
RTVSPropertyOp2
 70
     1
102
RTVSPropertyOp3
 70
     1
102
RTVSPropertyOp4
 70
     1
102
RTVSPropertyOp5
 70
     1
102
RTVSPropertyOp6
 70
     1
102
RTVSPropertyOp7
 70
     1
102
RTVSPropertyOp8
 70
     1
102
RTVSPropertyOp9
 70
     1
102
RTVSPropertyOp10
 70
     1
102
RTVSPropertyOp11
 70
     1
102
RTVSPropertyOp12
 70
     1
102
RTVSPropertyOp13
 70
     1
102
RTVSPropertyOp14
 70
     1
102
RTVSPropertyOp15
 70
     1
102
RTVSPropertyOp16
 70
     1
102
RTVSPropertyOp17
 70
     1
102
RTVSPropertyOp18
 70
     1
102
RTVSPropertyOp19
 70
     1
102
RTVSPropertyOp20
 70
     1
102
RTVSPropertyOp21
 70
     1
102
RTVSPropertyOp22
 70
     1
102
RTVSPropertyOp23
 70
     1
102
RTVSPropertyOp24
 70
     1
102
RTVSPropertyOp25
 70
     1
102
RTVSPropertyOp26
 70
     1
102
RTVSPropertyOp27
 70
     1
102
RTVSPropertyOp28
 70
     1
102
RTVSPropertyOp29
 70
     1
102
RTVSPropertyOp30
 70
     1
102
RTVSPropertyOp31
 70
     1
102
RTVSPropertyOp32
 70
     1
  0
XRECORD
  5
3661
102
{ACAD_REACTORS
330
3660
102
}
330
3660
100
AcDbXrecord
280
     1
102
RTVSPropertyOp0
 70
     1
102
RTVSPropertyOp1
 70
     1
102
RTVSPropertyOp2
 70
     1
102
RTVSPropertyOp3
 70
     1
102
RTVSPropertyOp4
 70
     1
102
RTVSPropertyOp5
 70
     1
102
RTVSPropertyOp6
 70
     1
102
RTVSPropertyOp7
 70
     1
102
RTVSPropertyOp8
 70
     1
102
RTVSPropertyOp9
 70
     1
102
RTVSPropertyOp10
 70
     1
102
RTVSPropertyOp11
 70
     1
102
RTVSPropertyOp12
 70
     1
102
RTVSPropertyOp13
 70
     1
102
RTVSPropertyOp14
 70
     1
102
RTVSPropertyOp15
 70
     1
102
RTVSPropertyOp16
 70
     1
102
RTVSPropertyOp17
 70
     1
102
RTVSPropertyOp18
 70
     1
102
RTVSPropertyOp19
 70
     1
102
RTVSPropertyOp20
 70
     1
102
RTVSPropertyOp21
 70
     1
102
RTVSPropertyOp22
 70
     1
102
RTVSPropertyOp23
 70
     1
102
RTVSPropertyOp24
 70
     1
102
RTVSPropertyOp25
 70
     1
102
RTVSPropertyOp26
 70
     1
102
RTVSPropertyOp27
 70
     1
102
RTVSPropertyOp28
 70
     1
102
RTVSPropertyOp29
 70
     1
102
RTVSPropertyOp30
 70
     1
102
RTVSPropertyOp31
 70
     1
102
RTVSPropertyOp32
 70
     1
  0
ENDSEC
  0
EOF
