  0
SECTION
  2
HEADER
  9
$ACADVER
  1
AC1015
  9
$ACADMAINTVER
 70
    20
  9
$DWGCODEPAGE
  3
ANSI_932
  9
$INSBASE
 10
0.0
 20
0.0
 30
0.0
  9
$EXTMIN
 10
-102.0
 20
-138.5
 30
0.0
  9
$EXTMAX
 10
90.0
 20
142.62212873
 30
0.0
  9
$LIMMIN
 10
-102.001
 20
-138.501
  9
$LIMMAX
 10
90.00100000000001
 20
142.623131
  9
$ORTHOMODE
 70
     0
  9
$REGENMODE
 70
     1
  9
$FILLMODE
 70
     1
  9
$QTEXTMODE
 70
     0
  9
$MIRRTEXT
 70
     0
  9
$LTSCALE
 40
4.685369
  9
$ATTMODE
 70
     1
  9
$TEXTSIZE
 40
3.2
  9
$TRACEWID
 40
0.05
  9
$TEXTSTYLE
  7
高3.2
  9
$CLAYER
  8
0
  9
$CELTYPE
  6
CONTINUOUS
  9
$CECOLOR
 62
   256
  9
$CELTSCALE
 40
1.0
  9
$DISPSILH
 70
     0
  9
$DIMSCALE
 40
1.0
  9
$DIMASZ
 40
2.5
  9
$DIMEXO
 40
0.25
  9
$DIMDLI
 40
0.2
  9
$DIMRND
 40
0.0
  9
$DIMDLE
 40
0.0
  9
$DIMEXE
 40
1.25
  9
$DIMTP
 40
0.0
  9
$DIMTM
 40
0.0
  9
$DIMTXT
 40
3.0
  9
$DIMCEN
 40
0.0
  9
$DIMTSZ
 40
0.0
  9
$DIMTOL
 70
     0
  9
$DIMLIM
 70
     0
  9
$DIMTIH
 70
     0
  9
$DIMTOH
 70
     0
  9
$DIMSE1
 70
     0
  9
$DIMSE2
 70
     0
  9
$DIMTAD
 70
     3
  9
$DIMZIN
 70
     8
  9
$DIMBLK
  1
Open30
  9
$DIMASO
 70
     1
  9
$DIMSHO
 70
     1
  9
$DIMPOST
  1

  9
$DIMAPOST
  1

  9
$DIMALT
 70
     0
  9
$DIMALTD
 70
     3
  9
$DIMALTF
 40
0.03937007874016
  9
$DIMLFAC
 40
2.0
  9
$DIMTOFL
 70
     1
  9
$DIMTVP
 40
0.0
  9
$DIMTIX
 70
     0
  9
$DIMSOXD
 70
     0
  9
$DIMSAH
 70
     0
  9
$DIMBLK1
  1

  9
$DIMBLK2
  1

  9
$DIMSTYLE
  2
1／2
  9
$DIMCLRD
 70
     0
  9
$DIMCLRE
 70
     0
  9
$DIMCLRT
 70
     4
  9
$DIMTFAC
 40
1.0
  9
$DIMGAP
 40
0.625
  9
$DIMJUST
 70
     0
  9
$DIMSD1
 70
     0
  9
$DIMSD2
 70
     0
  9
$DIMTOLJ
 70
     0
  9
$DIMTZIN
 70
     8
  9
$DIMALTZ
 70
     0
  9
$DIMALTTZ
 70
     0
  9
$DIMUPT
 70
     1
  9
$DIMDEC
 70
     2
  9
$DIMTDEC
 70
     2
  9
$DIMALTU
 70
     2
  9
$DIMALTTD
 70
     3
  9
$DIMTXSTY
  7
STANDARD
  9
$DIMAUNIT
 70
     0
  9
$DIMADEC
 70
     1
  9
$DIMALTRND
 40
0.0
  9
$DIMAZIN
 70
     2
  9
$DIMDSEP
 70
    46
  9
$DIMATFIT
 70
     0
  9
$DIMFRAC
 70
     0
  9
$DIMLDRBLK
  1
Open30
  9
$DIMLUNIT
 70
     2
  9
$DIMLWD
 70
    -2
  9
$DIMLWE
 70
    -2
  9
$DIMTMOVE
 70
     0
  9
$LUNITS
 70
     2
  9
$LUPREC
 70
     4
  9
$SKETCHINC
 40
0.1
  9
$FILLETRAD
 40
0.0
  9
$AUNITS
 70
     0
  9
$AUPREC
 70
     0
  9
$MENU
  1
.
  9
$ELEVATION
 40
0.0
  9
$PELEVATION
 40
0.0
  9
$THICKNESS
 40
0.0
  9
$LIMCHECK
 70
     0
  9
$CHAMFERA
 40
0.5
  9
$CHAMFERB
 40
0.5
  9
$CHAMFERC
 40
0.0
  9
$CHAMFERD
 40
0.0
  9
$SKPOLY
 70
     0
  9
$TDCREATE
 40
2455442.601448206
  9
$TDUCREATE
 40
2455442.226448206
  9
$TDUPDATE
 40
2458099.580589294
  9
$TDUUPDATE
 40
2458099.205589294
  9
$TDINDWG
 40
1.3036718519
  9
$TDUSRTIMER
 40
1.3036569097
  9
$USRTIMER
 70
     1
  9
$ANGBASE
 50
0.0
  9
$ANGDIR
 70
     0
  9
$PDMODE
 70
     0
  9
$PDSIZE
 40
0.0
  9
$PLINEWID
 40
0.0
  9
$SPLFRAME
 70
     0
  9
$SPLINETYPE
 70
     6
  9
$SPLINESEGS
 70
     8
  9
$HANDSEED
  5
34F3
  9
$SURFTAB1
 70
     6
  9
$SURFTAB2
 70
     6
  9
$SURFTYPE
 70
     6
  9
$SURFU
 70
     6
  9
$SURFV
 70
     6
  9
$UCSBASE
  2

  9
$UCSNAME
  2

  9
$UCSORG
 10
0.0
 20
0.0
 30
0.0
  9
$UCSXDIR
 10
1.0
 20
0.0
 30
0.0
  9
$UCSYDIR
 10
0.0
 20
1.0
 30
0.0
  9
$UCSORTHOREF
  2

  9
$UCSORTHOVIEW
 70
     0
  9
$UCSORGTOP
 10
0.0
 20
0.0
 30
0.0
  9
$UCSORGBOTTOM
 10
0.0
 20
0.0
 30
0.0
  9
$UCSORGLEFT
 10
0.0
 20
0.0
 30
0.0
  9
$UCSORGRIGHT
 10
0.0
 20
0.0
 30
0.0
  9
$UCSORGFRONT
 10
0.0
 20
0.0
 30
0.0
  9
$UCSORGBACK
 10
0.0
 20
0.0
 30
0.0
  9
$PUCSBASE
  2

  9
$PUCSNAME
  2

  9
$PUCSORG
 10
0.0
 20
0.0
 30
0.0
  9
$PUCSXDIR
 10
1.0
 20
0.0
 30
0.0
  9
$PUCSYDIR
 10
0.0
 20
1.0
 30
0.0
  9
$PUCSORTHOREF
  2

  9
$PUCSORTHOVIEW
 70
     0
  9
$PUCSORGTOP
 10
0.0
 20
0.0
 30
0.0
  9
$PUCSORGBOTTOM
 10
0.0
 20
0.0
 30
0.0
  9
$PUCSORGLEFT
 10
0.0
 20
0.0
 30
0.0
  9
$PUCSORGRIGHT
 10
0.0
 20
0.0
 30
0.0
  9
$PUCSORGFRONT
 10
0.0
 20
0.0
 30
0.0
  9
$PUCSORGBACK
 10
0.0
 20
0.0
 30
0.0
  9
$USERI1
 70
     0
  9
$USERI2
 70
     0
  9
$USERI3
 70
     0
  9
$USERI4
 70
     0
  9
$USERI5
 70
     0
  9
$USERR1
 40
0.0
  9
$USERR2
 40
0.0
  9
$USERR3
 40
0.0
  9
$USERR4
 40
0.0
  9
$USERR5
 40
0.0
  9
$WORLDVIEW
 70
     1
  9
$SHADEDGE
 70
     3
  9
$SHADEDIF
 70
    70
  9
$TILEMODE
 70
     1
  9
$MAXACTVP
 70
    64
  9
$PINSBASE
 10
0.0
 20
0.0
 30
0.0
  9
$PLIMCHECK
 70
     0
  9
$PEXTMIN
 10
1.000000000000000E+20
 20
1.000000000000000E+20
 30
1.000000000000000E+20
  9
$PEXTMAX
 10
-1.000000000000000E+20
 20
-1.000000000000000E+20
 30
-1.000000000000000E+20
  9
$PLIMMIN
 10
0.0
 20
0.0
  9
$PLIMMAX
 10
12.0
 20
9.0
  9
$UNITMODE
 70
     0
  9
$VISRETAIN
 70
     1
  9
$PLINEGEN
 70
     0
  9
$PSLTSCALE
 70
     1
  9
$TREEDEPTH
 70
  3020
  9
$CMLSTYLE
  2
Standard
  9
$CMLJUST
 70
     0
  9
$CMLSCALE
 40
1.0
  9
$PROXYGRAPHICS
 70
     1
  9
$MEASUREMENT
 70
     0
  9
$CELWEIGHT
370
    -1
  9
$ENDCAPS
280
     0
  9
$JOINSTYLE
280
     0
  9
$LWDISPLAY
290
     0
  9
$INSUNITS
 70
     0
  9
$HYPERLINKBASE
  1

  9
$STYLESHEET
  1
N-PLOT.CTB
  9
$XEDIT
290
     1
  9
$CEPSNTYPE
380
     0
  9
$PSTYLEMODE
290
     1
  9
$FINGERPRINTGUID
  2
{A40AFDDE-27A6-4300-BB85-D69376388927}
  9
$VERSIONGUID
  2
{33CD5DDE-A640-4673-8F3C-05D6F03E4C06}
  9
$EXTNAMES
290
     1
  9
$PSVPSCALE
 40
0.0
  9
$OLESTARTUP
290
     0
  0
ENDSEC
  0
SECTION
  2
CLASSES
  0
CLASS
  1
ACDBDICTIONARYWDFLT
  2
AcDbDictionaryWithDefault
  3
ObjectDBX Classes
 90
        0
280
     0
281
     0
  0
CLASS
  1
MATERIAL
  2
AcDbMaterial
  3
ObjectDBX Classes
 90
     1153
280
     0
281
     0
  0
CLASS
  1
VISUALSTYLE
  2
AcDbVisualStyle
  3
ObjectDBX Classes
 90
     4095
280
     0
281
     0
  0
CLASS
  1
TABLESTYLE
  2
AcDbTableStyle
  3
ObjectDBX Classes
 90
     4095
280
     0
281
     0
  0
CLASS
  1
DICTIONARYVAR
  2
AcDbDictionaryVar
  3
ObjectDBX Classes
 90
        0
280
     0
281
     0
  0
CLASS
  1
ACDBPLACEHOLDER
  2
AcDbPlaceHolder
  3
ObjectDBX Classes
 90
        0
280
     0
281
     0
  0
CLASS
  1
LAYOUT
  2
AcDbLayout
  3
ObjectDBX Classes
 90
        0
280
     0
281
     0
  0
CLASS
  1
SORTENTSTABLE
  2
AcDbSortentsTable
  3
ObjectDBX Classes
 90
        0
280
     0
281
     0
  0
CLASS
  1
SCALE
  2
AcDbScale
  3
ObjectDBX Classes
 90
     1153
280
     0
281
     0
  0
CLASS
  1
MLEADERSTYLE
  2
AcDbMLeaderStyle
  3
ACDB_MLEADERSTYLE_CLASS
 90
     4095
280
     0
281
     0
  0
CLASS
  1
CELLSTYLEMAP
  2
AcDbCellStyleMap
  3
ObjectDBX Classes
 90
     1152
280
     0
281
     0
  0
CLASS
  1
AEC_REFEDIT_STATUS_TRACKER
  2
AecDbRefEditStatusTracker
  3
AecArchBase60|Product Desc: Autodesk Architectural Desktop 2007 |Company: Autodesk,Inc. |WEB Address: www.autodesk.com
 90
    32897
280
     0
281
     0
  0
CLASS
  1
NPOCOLLECTION
  2
AcDbImpNonPersistentObjectsCollection
  3
ObjectDBX Classes
 90
    33921
280
     0
281
     0
  0
ENDSEC
  0
SECTION
  2
TABLES
  0
TABLE
  2
VPORT
  5
8
330
0
100
AcDbSymbolTable
 70
     1
  0
VPORT
  5
56
330
8
100
AcDbSymbolTableRecord
100
AcDbViewportTableRecord
  2
*Active
 70
     0
 10
0.0
 20
0.0
 11
1.0
 21
1.0
 12
152.8513753758794
 22
-7.467084121588129
 13
0.0
 23
0.0
 14
1.0
 24
1.0
 15
0.0
 25
0.0
 16
0.0
 26
0.0
 36
1.0
 17
0.0
 27
0.0
 37
0.0
 40
517.4094991997268
 41
1.412820512820512
 42
50.0
 43
0.0
 44
0.0
 50
0.0
 51
0.0
 71
     0
 72
  1000
 73
     1
 74
     1
 75
     0
 76
     0
 77
     0
 78
     0
281
     0
 65
     1
110
0.0
120
0.0
130
0.0
111
1.0
121
0.0
131
0.0
112
0.0
122
1.0
132
0.0
 79
     0
146
0.0
  0
ENDTAB
  0
TABLE
  2
LTYPE
  5
5
330
0
100
AcDbSymbolTable
 70
     2
  0
LTYPE
  5
28
330
5
100
AcDbSymbolTableRecord
100
AcDbLinetypeTableRecord
  2
ByBlock
 70
     0
  3

 72
    65
 73
     0
 40
0.0
  0
LTYPE
  5
29
330
5
100
AcDbSymbolTableRecord
100
AcDbLinetypeTableRecord
  2
ByLayer
 70
     0
  3

 72
    65
 73
     0
 40
0.0
  0
LTYPE
  5
2A
330
5
100
AcDbSymbolTableRecord
100
AcDbLinetypeTableRecord
  2
CONTINUOUS
 70
     0
  3
Solid-line
 72
    65
 73
     0
 40
0.0
  0
LTYPE
  5
1582
330
5
100
AcDbSymbolTableRecord
100
AcDbLinetypeTableRecord
  2
CENTER
 70
     0
  3
Center ____ _ ____ _ ____ _ ____ _ ____ _ ____
 72
    65
 73
     4
 40
2.0
 49
1.25
 74
     0
 49
-0.25
 74
     0
 49
0.25
 74
     0
 49
-0.25
 74
     0
  0
ENDTAB
  0
TABLE
  2
LAYER
  5
2
102
{ACAD_XDICTIONARY
360
2FE
102
}
330
0
100
AcDbSymbolTable
 70
     2
  0
LAYER
  5
25
102
{ACAD_XDICTIONARY
360
DA4
102
}
330
2
100
AcDbSymbolTableRecord
100
AcDbLayerTableRecord
  2
0
 70
     0
 62
     7
  6
CONTINUOUS
370
    -3
390
F
  0
LAYER
  5
2FA
330
2
100
AcDbSymbolTableRecord
100
AcDbLayerTableRecord
  2
Defpoints
 70
     0
 62
     7
  6
CONTINUOUS
290
     0
370
    -3
390
F
  0
ENDTAB
  0
TABLE
  2
STYLE
  5
3
330
0
100
AcDbSymbolTable
 70
     7
  0
STYLE
  5
26
330
3
100
AcDbSymbolTableRecord
100
AcDbTextStyleTableRecord
  2
STANDARD
 70
     0
 40
0.0
 41
1.0
 50
0.0
 71
     0
 42
0.2
  3
TXT
  4
BIGFONT
  0
STYLE
  5
9E3
330
3
100
AcDbSymbolTableRecord
100
AcDbTextStyleTableRecord
  2
高3.2
 70
     0
 40
3.2
 41
1.0
 50
0.0
 71
     0
 42
3.2
  3
txt.shx
  4
bigfont.shx
  0
STYLE
  5
9E4
330
3
100
AcDbSymbolTableRecord
100
AcDbTextStyleTableRecord
  2
高6.3
 70
     0
 40
6.299999999999998
 41
1.0
 50
0.0
 71
     0
 42
6.299999999999998
  3
txt.shx
  4
bigfont.shx
  0
STYLE
  5
9E5
330
3
100
AcDbSymbolTableRecord
100
AcDbTextStyleTableRecord
  2
高2.5
 70
     0
 40
2.5
 41
1.0
 50
0.0
 71
     0
 42
0.2
  3
txt.shx
  4
bigfont.shx
  0
STYLE
  5
9E6
330
3
100
AcDbSymbolTableRecord
100
AcDbTextStyleTableRecord
  2
高4.5
 70
     0
 40
4.5
 41
1.0
 50
0.0
 71
     0
 42
6.299999999999998
  3
txt.shx
  4
bigfont.shx
  0
STYLE
  5
9E7
330
3
100
AcDbSymbolTableRecord
100
AcDbTextStyleTableRecord
  2
高2
 70
     0
 40
2.0
 41
1.0
 50
0.0
 71
     0
 42
6.299999999999998
  3
txt.shx
  4
bigfont.shx
  0
STYLE
  5
1581
330
3
100
AcDbSymbolTableRecord
100
AcDbTextStyleTableRecord
  2

 70
     1
 40
0.0
 41
1.0
 50
0.0
 71
     0
 42
3.2
  3
ltypeshp.shx
  4

  0
ENDTAB
  0
TABLE
  2
VIEW
  5
6
330
0
100
AcDbSymbolTable
 70
     0
  0
ENDTAB
  0
TABLE
  2
UCS
  5
7
330
0
100
AcDbSymbolTable
 70
     0
  0
ENDTAB
  0
TABLE
  2
APPID
  5
9
330
0
100
AcDbSymbolTable
 70
    11
  0
APPID
  5
27
330
9
100
AcDbSymbolTableRecord
100
AcDbRegAppTableRecord
  2
ACAD
 70
     0
  0
APPID
  5
2FC
330
9
100
AcDbSymbolTableRecord
100
AcDbRegAppTableRecord
  2
ACAD_DSTYLE_DIMJOGGED_JOGANGLE_SYMBOL
 70
     0
  0
APPID
  5
2FD
330
9
100
AcDbSymbolTableRecord
100
AcDbRegAppTableRecord
  2
ACAD_PSEXT
 70
     0
  0
APPID
  5
529
330
9
100
AcDbSymbolTableRecord
100
AcDbRegAppTableRecord
  2
ACAD_EXEMPT_FROM_CAD_STANDARDS
 70
     0
  0
APPID
  5
796
330
9
100
AcDbSymbolTableRecord
100
AcDbRegAppTableRecord
  2
ACAD_DSTYLE_DIMARC_LENGTH_SYMBOL
 70
     0
  0
APPID
  5
797
330
9
100
AcDbSymbolTableRecord
100
AcDbRegAppTableRecord
  2
ACAD_DSTYLE_DIMEXT_LENGTH
 70
     0
  0
APPID
  5
C84
330
9
100
AcDbSymbolTableRecord
100
AcDbRegAppTableRecord
  2
ACAD_DSTYLE_DIMJAG
 70
     0
  0
APPID
  5
C85
330
9
100
AcDbSymbolTableRecord
100
AcDbRegAppTableRecord
  2
ACAD_DSTYLE_DIMBREAK
 70
     0
  0
APPID
  5
C86
330
9
100
AcDbSymbolTableRecord
100
AcDbRegAppTableRecord
  2
ACAD_DSTYLE_DIMTALN
 70
     0
  0
APPID
  5
DEC
330
9
100
AcDbSymbolTableRecord
100
AcDbRegAppTableRecord
  2
ACAD_MLEADERVER
 70
     0
  0
APPID
  5
2F92
330
9
100
AcDbSymbolTableRecord
100
AcDbRegAppTableRecord
  2
ACAD_DSTYLE_DIMRADIAL_EXTENSION
 70
     0
  0
ENDTAB
  0
TABLE
  2
DIMSTYLE
  5
A
330
0
100
AcDbSymbolTable
 70
    11
100
AcDbDimStyleTable
 71
     3
340
2FB
340
16D9
340
2BB
  0
DIMSTYLE
105
2BB
330
A
100
AcDbSymbolTableRecord
100
AcDbDimStyleTableRecord
  2
Standard
 70
     0
340
26
  0
DIMSTYLE
105
2FB
330
A
100
AcDbSymbolTableRecord
100
AcDbDimStyleTableRecord
  2
1／2
 70
     0
 41
2.5
 42
0.25
 43
0.2
 44
1.25
 73
     0
 74
     0
 77
     3
 78
     8
 79
     2
140
3.0
141
0.0
143
0.03937007874016
144
2.0
147
0.625
171
     3
172
     1
178
     4
179
     1
271
     2
272
     2
274
     3
283
     0
284
     8
288
     1
289
     0
340
26
341
2DA
342
2DA
1001
ACAD_DSTYLE_DIMARC_LENGTH_SYMBOL
1070
   379
1070
     2
1001
ACAD_DSTYLE_DIMEXT_LENGTH
1070
   378
1040
1.25
1001
ACAD_DSTYLE_DIMJOGGED_JOGANGLE_SYMBOL
1070
   384
1040
1.570796326794896
  0
DIMSTYLE
105
16D9
330
A
100
AcDbSymbolTableRecord
100
AcDbDimStyleTableRecord
  2
1：1
 70
     0
 41
2.5
 42
0.25
 43
0.2
 44
1.25
 73
     0
 74
     0
 77
     3
 78
     8
 79
     2
140
3.0
141
0.0
143
0.03937007874016
147
0.625
171
     3
172
     1
178
     4
179
     1
271
     2
272
     2
274
     3
283
     0
284
     8
288
     1
289
     0
340
26
341
2DA
342
2DA
1001
ACAD_DSTYLE_DIMARC_LENGTH_SYMBOL
1070
   379
1070
     2
1001
ACAD_DSTYLE_DIMEXT_LENGTH
1070
   378
1040
1.25
1001
ACAD_DSTYLE_DIMJOGGED_JOGANGLE_SYMBOL
1070
   384
1040
1.570796326794896
  0
DIMSTYLE
105
16DA
330
A
100
AcDbSymbolTableRecord
100
AcDbDimStyleTableRecord
  2
2：1
 70
     0
 41
2.5
 42
0.25
 43
0.2
 44
1.25
 73
     0
 74
     0
 77
     3
 78
     8
 79
     2
140
3.0
141
0.0
143
0.03937007874016
144
0.5
147
0.625
171
     3
172
     1
178
     4
179
     1
271
     2
272
     2
274
     3
283
     0
284
     8
288
     1
289
     0
340
26
341
2DA
342
2DA
1001
ACAD_DSTYLE_DIMARC_LENGTH_SYMBOL
1070
   379
1070
     2
1001
ACAD_DSTYLE_DIMEXT_LENGTH
1070
   378
1040
1.25
1001
ACAD_DSTYLE_DIMJOGGED_JOGANGLE_SYMBOL
1070
   384
1040
1.570796326794896
  0
DIMSTYLE
105
16DB
330
A
100
AcDbSymbolTableRecord
100
AcDbDimStyleTableRecord
  2
5：1
 70
     0
 41
2.5
 42
0.25
 43
0.2
 44
1.25
 73
     0
 74
     0
 77
     3
 78
     8
 79
     2
140
3.0
141
0.0
143
0.03937007874016
144
0.2
147
0.625
171
     3
172
     1
178
     4
179
     1
271
     2
272
     2
274
     3
283
     0
284
     8
288
     1
289
     0
340
26
341
2DA
342
2DA
1001
ACAD_DSTYLE_DIMARC_LENGTH_SYMBOL
1070
   379
1070
     2
1001
ACAD_DSTYLE_DIMEXT_LENGTH
1070
   378
1040
1.25
1001
ACAD_DSTYLE_DIMJOGGED_JOGANGLE_SYMBOL
1070
   384
1040
1.570796326794896
  0
DIMSTYLE
105
16DC
330
A
100
AcDbSymbolTableRecord
100
AcDbDimStyleTableRecord
  2
10：1
 70
     0
 41
2.5
 42
0.25
 43
0.2
 44
1.25
 73
     0
 74
     0
 77
     3
 78
     8
 79
     2
140
3.0
141
0.0
143
0.03937007874016
144
0.1
147
0.625
171
     3
172
     1
178
     4
179
     1
271
     2
272
     2
274
     3
283
     0
284
     8
288
     1
289
     0
340
26
341
2DA
342
2DA
1001
ACAD_DSTYLE_DIMARC_LENGTH_SYMBOL
1070
   379
1070
     2
1001
ACAD_DSTYLE_DIMEXT_LENGTH
1070
   378
1040
1.25
1001
ACAD_DSTYLE_DIMJOGGED_JOGANGLE_SYMBOL
1070
   384
1040
1.570796326794896
  0
DIMSTYLE
105
16DD
330
A
100
AcDbSymbolTableRecord
100
AcDbDimStyleTableRecord
  2
1／5
 70
     0
 41
2.5
 42
0.25
 43
0.2
 44
1.25
 73
     0
 74
     0
 77
     3
 78
     8
 79
     2
140
3.0
141
0.0
143
0.03937007874016
144
5.0
147
0.625
171
     3
172
     1
178
     4
179
     1
271
     2
272
     2
274
     3
283
     0
284
     8
288
     1
289
     0
340
26
341
2DA
342
2DA
1001
ACAD_DSTYLE_DIMARC_LENGTH_SYMBOL
1070
   379
1070
     2
1001
ACAD_DSTYLE_DIMEXT_LENGTH
1070
   378
1040
1.25
1001
ACAD_DSTYLE_DIMJOGGED_JOGANGLE_SYMBOL
1070
   384
1040
1.570796326794896
  0
DIMSTYLE
105
16DE
330
A
100
AcDbSymbolTableRecord
100
AcDbDimStyleTableRecord
  2
1／10
 70
     0
 41
2.5
 42
0.25
 43
0.2
 44
1.25
 73
     0
 74
     0
 77
     3
 78
     8
 79
     2
140
3.0
141
0.0
143
0.03937007874016
144
10.0
147
0.625
171
     3
172
     1
178
     4
179
     1
271
     2
272
     2
274
     3
283
     0
284
     8
288
     1
289
     0
340
26
341
2DA
342
2DA
1001
ACAD_DSTYLE_DIMARC_LENGTH_SYMBOL
1070
   379
1070
     2
1001
ACAD_DSTYLE_DIMEXT_LENGTH
1070
   378
1040
1.25
1001
ACAD_DSTYLE_DIMJOGGED_JOGANGLE_SYMBOL
1070
   384
1040
1.570796326794896
  0
DIMSTYLE
105
16DF
330
A
100
AcDbSymbolTableRecord
100
AcDbDimStyleTableRecord
  2
1／4
 70
     0
 41
2.5
 42
0.25
 43
0.2
 44
1.25
 73
     0
 74
     0
 77
     3
 78
     8
 79
     2
140
3.0
141
0.0
143
0.03937007874016
144
4.0
147
0.625
171
     3
172
     1
178
     4
179
     1
271
     2
272
     2
274
     3
283
     0
284
     8
288
     1
289
     0
340
26
341
2DA
342
2DA
1001
ACAD_DSTYLE_DIMARC_LENGTH_SYMBOL
1070
   379
1070
     2
1001
ACAD_DSTYLE_DIMEXT_LENGTH
1070
   378
1040
1.25
1001
ACAD_DSTYLE_DIMJOGGED_JOGANGLE_SYMBOL
1070
   384
1040
1.570796326794896
  0
DIMSTYLE
105
16E0
330
A
100
AcDbSymbolTableRecord
100
AcDbDimStyleTableRecord
  2
1／3
 70
     0
 41
2.5
 42
0.25
 43
0.2
 44
1.25
 73
     0
 74
     0
 77
     3
 78
     8
 79
     2
140
3.0
141
0.0
143
0.03937007874016
144
3.0
147
0.625
171
     3
172
     1
178
     4
179
     1
271
     2
272
     2
274
     3
283
     0
284
     8
288
     1
289
     0
340
26
341
2DA
342
2DA
1001
ACAD_DSTYLE_DIMARC_LENGTH_SYMBOL
1070
   379
1070
     2
1001
ACAD_DSTYLE_DIMEXT_LENGTH
1070
   378
1040
1.25
1001
ACAD_DSTYLE_DIMJOGGED_JOGANGLE_SYMBOL
1070
   384
1040
1.570796326794896
  0
DIMSTYLE
105
16E1
330
A
100
AcDbSymbolTableRecord
100
AcDbDimStyleTableRecord
  2
FREE
 70
     0
 41
2.5
 42
0.25
 43
0.2
 44
1.25
 73
     0
 74
     0
 77
     3
 78
     8
 79
     2
140
3.0
141
0.0
143
0.03937007874016
147
0.625
171
     3
172
     1
178
     4
179
     1
271
     2
272
     2
274
     3
283
     0
284
     8
288
     1
289
     0
340
26
341
2DA
342
2DA
1001
ACAD_DSTYLE_DIMBREAK
1070
   391
1040
3.75
1001
ACAD_DSTYLE_DIMJAG
1070
   388
1040
1.5
1001
ACAD_DSTYLE_DIMTALN
1070
   392
1070
     0
1001
ACAD_DSTYLE_DIMARC_LENGTH_SYMBOL
1070
   379
1070
     2
1001
ACAD_DSTYLE_DIMEXT_LENGTH
1070
   378
1040
1.25
1001
ACAD_DSTYLE_DIMJOGGED_JOGANGLE_SYMBOL
1070
   384
1040
1.570796326794896
  0
ENDTAB
  0
TABLE
  2
BLOCK_RECORD
  5
1
330
0
100
AcDbSymbolTable
 70
    41
  0
BLOCK_RECORD
  5
36
102
{ACAD_XDICTIONARY
360
5D9
102
}
330
1
100
AcDbSymbolTableRecord
100
AcDbBlockTableRecord
  2
*Model_Space
340
39
  0
BLOCK_RECORD
  5
32
330
1
100
AcDbSymbolTableRecord
100
AcDbBlockTableRecord
  2
*Paper_Space
340
35
  0
BLOCK_RECORD
  5
2DA
330
1
100
AcDbSymbolTableRecord
100
AcDbBlockTableRecord
  2
_Open30
340
0
102
{BLKREFS
331
1665
331
1672
331
1673
331
1680
331
1681
331
168E
331
168F
331
169C
331
169D
331
16AA
331
16AB
331
16B8
331
16B9
331
16C6
331
16C7
331
16D2
331
16D3
331
1656
331
1657
331
1664
331
18E7
331
18E8
331
18F2
331
18F3
331
18FD
331
18FE
331
1908
331
1909
331
1913
331
1914
331
191E
331
191F
331
1929
331
192A
331
1934
331
1935
331
193F
331
1940
331
1948
331
1949
331
1DC0
331
1DC1
331
25FB
331
25FC
331
2604
331
2605
331
260D
331
260E
331
2616
331
2617
331
261F
331
2620
331
262A
331
262B
331
2635
331
2636
331
2BC1
331
2BC2
331
2BF2
331
2BF3
331
331F
331
3320
331
332A
331
332B
331
3333
331
3334
331
333C
331
333D
331
3347
331
3348
331
3352
331
3353
331
335B
331
335C
331
3363
331
3364
331
336C
331
336D
331
3375
331
3376
102
}
  0
BLOCK_RECORD
  5
FC6
330
1
100
AcDbSymbolTableRecord
100
AcDbBlockTableRecord
  2
*D1
340
0
  0
BLOCK_RECORD
  5
FDC
330
1
100
AcDbSymbolTableRecord
100
AcDbBlockTableRecord
  2
*D2
340
0
  0
BLOCK_RECORD
  5
1010
330
1
100
AcDbSymbolTableRecord
100
AcDbBlockTableRecord
  2
*D3
340
0
  0
BLOCK_RECORD
  5
101D
330
1
100
AcDbSymbolTableRecord
100
AcDbBlockTableRecord
  2
*D4
340
0
  0
BLOCK_RECORD
  5
102A
330
1
100
AcDbSymbolTableRecord
100
AcDbBlockTableRecord
  2
*D5
340
0
  0
BLOCK_RECORD
  5
1100
330
1
100
AcDbSymbolTableRecord
100
AcDbBlockTableRecord
  2
*D6
340
0
  0
BLOCK_RECORD
  5
110F
330
1
100
AcDbSymbolTableRecord
100
AcDbBlockTableRecord
  2
*D7
340
0
  0
BLOCK_RECORD
  5
164F
330
1
100
AcDbSymbolTableRecord
100
AcDbBlockTableRecord
  2
*D8
340
0
  0
BLOCK_RECORD
  5
165D
330
1
100
AcDbSymbolTableRecord
100
AcDbBlockTableRecord
  2
*D9
340
0
  0
BLOCK_RECORD
  5
166B
330
1
100
AcDbSymbolTableRecord
100
AcDbBlockTableRecord
  2
*D10
340
0
  0
BLOCK_RECORD
  5
1679
330
1
100
AcDbSymbolTableRecord
100
AcDbBlockTableRecord
  2
*D11
340
0
  0
BLOCK_RECORD
  5
1687
330
1
100
AcDbSymbolTableRecord
100
AcDbBlockTableRecord
  2
*D12
340
0
  0
BLOCK_RECORD
  5
1695
330
1
100
AcDbSymbolTableRecord
100
AcDbBlockTableRecord
  2
*D13
340
0
  0
BLOCK_RECORD
  5
16A3
330
1
100
AcDbSymbolTableRecord
100
AcDbBlockTableRecord
  2
*D14
340
0
  0
BLOCK_RECORD
  5
16B1
330
1
100
AcDbSymbolTableRecord
100
AcDbBlockTableRecord
  2
*D15
340
0
  0
BLOCK_RECORD
  5
16BF
330
1
100
AcDbSymbolTableRecord
100
AcDbBlockTableRecord
  2
*D16
340
0
  0
BLOCK_RECORD
  5
16CD
330
1
100
AcDbSymbolTableRecord
100
AcDbBlockTableRecord
  2
*D17
340
0
  0
BLOCK_RECORD
  5
1858
330
1
100
AcDbSymbolTableRecord
100
AcDbBlockTableRecord
  2
*D18
340
0
  0
BLOCK_RECORD
  5
1866
330
1
100
AcDbSymbolTableRecord
100
AcDbBlockTableRecord
  2
*D19
340
0
  0
BLOCK_RECORD
  5
1874
330
1
100
AcDbSymbolTableRecord
100
AcDbBlockTableRecord
  2
*D20
340
0
  0
BLOCK_RECORD
  5
1882
330
1
100
AcDbSymbolTableRecord
100
AcDbBlockTableRecord
  2
*D21
340
0
  0
BLOCK_RECORD
  5
1890
330
1
100
AcDbSymbolTableRecord
100
AcDbBlockTableRecord
  2
*D22
340
0
  0
BLOCK_RECORD
  5
189E
330
1
100
AcDbSymbolTableRecord
100
AcDbBlockTableRecord
  2
*D23
340
0
  0
BLOCK_RECORD
  5
18AC
330
1
100
AcDbSymbolTableRecord
100
AcDbBlockTableRecord
  2
*D24
340
0
  0
BLOCK_RECORD
  5
18BA
330
1
100
AcDbSymbolTableRecord
100
AcDbBlockTableRecord
  2
*D25
340
0
  0
BLOCK_RECORD
  5
18C8
330
1
100
AcDbSymbolTableRecord
100
AcDbBlockTableRecord
  2
*D26
340
0
  0
BLOCK_RECORD
  5
18D6
330
1
100
AcDbSymbolTableRecord
100
AcDbBlockTableRecord
  2
*D27
340
0
  0
BLOCK_RECORD
  5
1DB1
330
1
100
AcDbSymbolTableRecord
100
AcDbBlockTableRecord
  2
*D28
340
0
  0
BLOCK_RECORD
  5
1F2A
330
1
100
AcDbSymbolTableRecord
100
AcDbBlockTableRecord
  2
*D29
340
0
  0
BLOCK_RECORD
  5
1F37
330
1
100
AcDbSymbolTableRecord
100
AcDbBlockTableRecord
  2
*D30
340
0
  0
BLOCK_RECORD
  5
1F4D
330
1
100
AcDbSymbolTableRecord
100
AcDbBlockTableRecord
  2
*D31
340
0
  0
BLOCK_RECORD
  5
1F6C
330
1
100
AcDbSymbolTableRecord
100
AcDbBlockTableRecord
  2
*D32
340
0
  0
BLOCK_RECORD
  5
1F83
330
1
100
AcDbSymbolTableRecord
100
AcDbBlockTableRecord
  2
*D33
340
0
  0
BLOCK_RECORD
  5
1FBD
330
1
100
AcDbSymbolTableRecord
100
AcDbBlockTableRecord
  2
*D34
340
0
  0
BLOCK_RECORD
  5
1FD0
330
1
100
AcDbSymbolTableRecord
100
AcDbBlockTableRecord
  2
*D35
340
0
  0
BLOCK_RECORD
  5
2F82
330
1
100
AcDbSymbolTableRecord
100
AcDbBlockTableRecord
  2
*D36
340
0
  0
BLOCK_RECORD
  5
2F94
330
1
100
AcDbSymbolTableRecord
100
AcDbBlockTableRecord
  2
*D37
340
0
  0
BLOCK_RECORD
  5
2FA0
330
1
100
AcDbSymbolTableRecord
100
AcDbBlockTableRecord
  2
*D38
340
0
  0
BLOCK_RECORD
  5
2FAD
330
1
100
AcDbSymbolTableRecord
100
AcDbBlockTableRecord
  2
*D39
340
0
  0
BLOCK_RECORD
  5
2FBA
330
1
100
AcDbSymbolTableRecord
100
AcDbBlockTableRecord
  2
*D40
340
0
  0
ENDTAB
  0
ENDSEC
  0
SECTION
  2
BLOCKS
  0
BLOCK
  5
37
330
36
100
AcDbEntity
  8
0
100
AcDbBlockBegin
  2
*Model_Space
 70
     0
 10
0.0
 20
0.0
 30
0.0
  3
*Model_Space
  1

  0
ENDBLK
  5
38
330
36
100
AcDbEntity
  8
0
100
AcDbBlockEnd
  0
BLOCK
  5
33
330
32
100
AcDbEntity
 67
     1
  8
0
100
AcDbBlockBegin
  2
*Paper_Space
 70
     0
 10
0.0
 20
0.0
 30
0.0
  3
*Paper_Space
  1

  0
ENDBLK
  5
34
330
32
100
AcDbEntity
 67
     1
  8
0
100
AcDbBlockEnd
  0
BLOCK
  5
2DB
330
2DA
100
AcDbEntity
  8
0
100
AcDbBlockBegin
  2
_Open30
 70
     0
 10
0.0
 20
0.0
 30
0.0
  3
_Open30
  1

  0
LINE
  5
2DC
330
2DA
100
AcDbEntity
  8
0
  6
ByBlock
 62
     0
370
    -2
100
AcDbLine
 10
-1.0
 20
0.267949
 30
0.0
 11
0.0
 21
0.0
 31
0.0
  0
LINE
  5
2DD
330
2DA
100
AcDbEntity
  8
0
  6
ByBlock
 62
     0
370
    -2
100
AcDbLine
 10
0.0
 20
0.0
 30
0.0
 11
-1.0
 21
-0.267949
 31
0.0
  0
LINE
  5
2DE
330
2DA
100
AcDbEntity
  8
0
  6
ByBlock
 62
     0
370
    -2
100
AcDbLine
 10
0.0
 20
0.0
 30
0.0
 11
-1.0
 21
0.0
 31
0.0
  0
ENDBLK
  5
2DF
330
2DA
100
AcDbEntity
  8
0
100
AcDbBlockEnd
  0
BLOCK
  5
FC7
330
FC6
100
AcDbEntity
  8
0
100
AcDbBlockBegin
  2
*D1
 70
     1
 10
0.0
 20
0.0
 30
0.0
  3
*D1
  1

  0
LINE
  5
25F8
330
FC6
100
AcDbEntity
  8
0
  6
Continuous
 62
     0
370
    -2
100
AcDbLine
 10
35.1164283769142
 20
239.6305072617532
 30
0.0
 11
35.1164283769142
 21
260.0446128077956
 31
0.0
  0
LINE
  5
25F9
330
FC6
100
AcDbEntity
  8
0
  6
Continuous
 62
     0
370
    -2
100
AcDbLine
 10
-78.93161670140376
 20
239.6305072617527
 30
0.0
 11
-78.93161670140376
 21
260.0446128077956
 31
0.0
  0
LINE
  5
25FA
330
FC6
100
AcDbEntity
  8
0
  6
Continuous
 62
     0
370
    -2
100
AcDbLine
 10
32.6164283769142
 20
258.7946128077956
 30
0.0
 11
-76.43161670140376
 21
258.7946128077956
 31
0.0
  0
INSERT
  5
25FB
330
FC6
100
AcDbEntity
  8
0
  6
Continuous
 62
     0
370
    -2
100
AcDbBlockReference
  2
_Open30
 10
35.1164283769142
 20
258.7946128077956
 30
0.0
 41
2.5
 42
2.5
 43
2.5
  0
INSERT
  5
25FC
330
FC6
100
AcDbEntity
  8
0
  6
Continuous
 62
     0
370
    -2
100
AcDbBlockReference
  2
_Open30
 10
-78.93161670140376
 20
258.7946128077956
 30
0.0
 41
2.5
 42
2.5
 43
2.5
 50
180.0
  0
MTEXT
  5
25FD
330
FC6
100
AcDbEntity
  8
0
  6
Continuous
 62
     4
100
AcDbMText
 10
-24.64414001749503
 20
260.9196128077956
 30
0.0
 40
3.0
 41
0.0
 71
     5
 72
     1
  1
1198
 73
     1
 44
1.0
1001
ACAD
1000
MTEXTBEGIN
1070
    73
1070
     1
1070
    44
1040
1.0
1070
    74
1070
     0
1000
MTEXTEND
  0
POINT
  5
25FE
330
FC6
100
AcDbEntity
  8
Defpoints
  6
Continuous
 62
     0
100
AcDbPoint
 10
35.1164283769142
 20
239.3805072617532
 30
0.0
  0
POINT
  5
25FF
330
FC6
100
AcDbEntity
  8
Defpoints
  6
Continuous
 62
     0
100
AcDbPoint
 10
-78.93161670140376
 20
239.3805072617527
 30
0.0
  0
POINT
  5
2600
330
FC6
100
AcDbEntity
  8
Defpoints
  6
Continuous
 62
     0
100
AcDbPoint
 10
-78.93161670140376
 20
258.7946128077956
 30
0.0
  0
ENDBLK
  5
FC8
330
FC6
100
AcDbEntity
  8
0
100
AcDbBlockEnd
  0
BLOCK
  5
FDD
330
FDC
100
AcDbEntity
  8
0
100
AcDbBlockBegin
  2
*D2
 70
     1
 10
0.0
 20
0.0
 30
0.0
  3
*D2
  1

  0
LINE
  5
2601
330
FDC
100
AcDbEntity
  8
0
  6
Continuous
 62
     0
370
    -2
100
AcDbLine
 10
38.8664283769142
 20
234.0805072617533
 30
0.0
 11
38.8664283769142
 21
265.4828771916057
 31
0.0
  0
LINE
  5
2602
330
FDC
100
AcDbEntity
  8
0
  6
Continuous
 62
     0
370
    -2
100
AcDbLine
 10
-82.6816167014037
 20
234.0805072617527
 30
0.0
 11
-82.6816167014037
 21
265.4828771916057
 31
0.0
  0
LINE
  5
2603
330
FDC
100
AcDbEntity
  8
0
  6
Continuous
 62
     0
370
    -2
100
AcDbLine
 10
36.3664283769142
 20
264.2328771916057
 30
0.0
 11
-80.1816167014037
 21
264.2328771916057
 31
0.0
  0
INSERT
  5
2604
330
FDC
100
AcDbEntity
  8
0
  6
Continuous
 62
     0
370
    -2
100
AcDbBlockReference
  2
_Open30
 10
38.8664283769142
 20
264.2328771916057
 30
0.0
 41
2.5
 42
2.5
 43
2.5
  0
INSERT
  5
2605
330
FDC
100
AcDbEntity
  8
0
  6
Continuous
 62
     0
370
    -2
100
AcDbBlockReference
  2
_Open30
 10
-82.6816167014037
 20
264.2328771916057
 30
0.0
 41
2.5
 42
2.5
 43
2.5
 50
180.0
  0
MTEXT
  5
2606
330
FDC
100
AcDbEntity
  8
0
  6
Continuous
 62
     4
100
AcDbMText
 10
-24.64414001749503
 20
266.3578771916057
 30
0.0
 40
3.0
 41
0.0
 71
     5
 72
     1
  1
1213
 73
     1
 44
1.0
1001
ACAD
1000
MTEXTBEGIN
1070
    73
1070
     1
1070
    44
1040
1.0
1070
    74
1070
     0
1000
MTEXTEND
  0
POINT
  5
2607
330
FDC
100
AcDbEntity
  8
Defpoints
  6
Continuous
 62
     0
100
AcDbPoint
 10
38.8664283769142
 20
233.8305072617533
 30
0.0
  0
POINT
  5
2608
330
FDC
100
AcDbEntity
  8
Defpoints
  6
Continuous
 62
     0
100
AcDbPoint
 10
-82.6816167014037
 20
233.8305072617527
 30
0.0
  0
POINT
  5
2609
330
FDC
100
AcDbEntity
  8
Defpoints
  6
Continuous
 62
     0
100
AcDbPoint
 10
-82.6816167014037
 20
264.2328771916057
 30
0.0
  0
ENDBLK
  5
FDE
330
FDC
100
AcDbEntity
  8
0
100
AcDbBlockEnd
  0
BLOCK
  5
1011
330
1010
100
AcDbEntity
  8
0
100
AcDbBlockBegin
  2
*D3
 70
     1
 10
0.0
 20
0.0
 30
0.0
  3
*D3
  1

  0
LINE
  5
260A
330
1010
100
AcDbEntity
  8
0
  6
Continuous
 62
     0
370
    -2
100
AcDbLine
 10
72.60803746726195
 20
241.5305072617532
 30
0.0
 11
57.54803024279164
 21
241.5305072617532
 31
0.0
  0
LINE
  5
260B
330
1010
100
AcDbEntity
  8
0
  6
Continuous
 62
     0
370
    -2
100
AcDbLine
 10
72.60803746726195
 20
225.4305072617532
 30
0.0
 11
57.54803024279163
 21
225.4305072617532
 31
0.0
  0
LINE
  5
260C
330
1010
100
AcDbEntity
  8
0
  6
Continuous
 62
     0
370
    -2
100
AcDbLine
 10
58.79803024279163
 20
239.0305072617532
 30
0.0
 11
58.79803024279163
 21
227.9305072617532
 31
0.0
  0
INSERT
  5
260D
330
1010
100
AcDbEntity
  8
0
  6
Continuous
 62
     0
370
    -2
100
AcDbBlockReference
  2
_Open30
 10
58.79803024279164
 20
241.5305072617532
 30
0.0
 41
2.5
 42
2.5
 43
2.5
 50
90.0
  0
INSERT
  5
260E
330
1010
100
AcDbEntity
  8
0
  6
Continuous
 62
     0
370
    -2
100
AcDbBlockReference
  2
_Open30
 10
58.79803024279163
 20
225.4305072617532
 30
0.0
 41
2.5
 42
2.5
 43
2.5
 50
270.0
  0
MTEXT
  5
260F
330
1010
100
AcDbEntity
  8
0
  6
Continuous
 62
     4
100
AcDbMText
 10
56.6730302427916
 20
233.4952296939118
 30
0.0
 40
3.0
 41
0.0
 71
     5
 72
     1
  1
32.2
 11
0.0000000000000001
 21
1.0
 31
0.0
 73
     1
 44
1.0
1001
ACAD
1000
MTEXTBEGIN
1070
    73
1070
     1
1070
    44
1040
1.0
1070
    74
1070
     0
1000
MTEXTEND
  0
POINT
  5
2610
330
1010
100
AcDbEntity
  8
Defpoints
  6
Continuous
 62
     0
100
AcDbPoint
 10
72.85803746726195
 20
241.5305072617532
 30
0.0
  0
POINT
  5
2611
330
1010
100
AcDbEntity
  8
Defpoints
  6
Continuous
 62
     0
100
AcDbPoint
 10
72.85803746726195
 20
225.4305072617532
 30
0.0
  0
POINT
  5
2612
330
1010
100
AcDbEntity
  8
Defpoints
  6
Continuous
 62
     0
100
AcDbPoint
 10
58.79803024279163
 20
225.4305072617532
 30
0.0
  0
ENDBLK
  5
1012
330
1010
100
AcDbEntity
  8
0
100
AcDbBlockEnd
  0
BLOCK
  5
101E
330
101D
100
AcDbEntity
  8
0
100
AcDbBlockBegin
  2
*D4
 70
     1
 10
0.0
 20
0.0
 30
0.0
  3
*D4
  1

  0
LINE
  5
2613
330
101D
100
AcDbEntity
  8
0
  6
Continuous
 62
     0
370
    -2
100
AcDbLine
 10
72.60803746726195
 20
239.3805072617532
 30
0.0
 11
62.35558842760865
 21
239.3805072617532
 31
0.0
  0
LINE
  5
2614
330
101D
100
AcDbEntity
  8
0
  6
Continuous
 62
     0
370
    -2
100
AcDbLine
 10
72.60803746726195
 20
227.5805072617533
 30
0.0
 11
62.35558842760865
 21
227.5805072617533
 31
0.0
  0
LINE
  5
2615
330
101D
100
AcDbEntity
  8
0
  6
Continuous
 62
     0
370
    -2
100
AcDbLine
 10
63.60558842760865
 20
236.8805072617532
 30
0.0
 11
63.60558842760865
 21
230.0805072617533
 31
0.0
  0
INSERT
  5
2616
330
101D
100
AcDbEntity
  8
0
  6
Continuous
 62
     0
370
    -2
100
AcDbBlockReference
  2
_Open30
 10
63.60558842760865
 20
239.3805072617532
 30
0.0
 41
2.5
 42
2.5
 43
2.5
 50
90.0
  0
INSERT
  5
2617
330
101D
100
AcDbEntity
  8
0
  6
Continuous
 62
     0
370
    -2
100
AcDbBlockReference
  2
_Open30
 10
63.60558842760865
 20
227.5805072617533
 30
0.0
 41
2.5
 42
2.5
 43
2.5
 50
270.0
  0
MTEXT
  5
2618
330
101D
100
AcDbEntity
  8
0
  6
Continuous
 62
     4
100
AcDbMText
 10
61.48058842760861
 20
233.8611918657175
 30
0.0
 40
3.0
 41
0.0
 71
     5
 72
     1
  1
23.6
 11
0.0000000000000001
 21
1.0
 31
0.0
 73
     1
 44
1.0
1001
ACAD
1000
MTEXTBEGIN
1070
    73
1070
     1
1070
    44
1040
1.0
1070
    74
1070
     0
1000
MTEXTEND
  0
POINT
  5
2619
330
101D
100
AcDbEntity
  8
Defpoints
  6
Continuous
 62
     0
100
AcDbPoint
 10
72.85803746726195
 20
239.3805072617532
 30
0.0
  0
POINT
  5
261A
330
101D
100
AcDbEntity
  8
Defpoints
  6
Continuous
 62
     0
100
AcDbPoint
 10
72.85803746726195
 20
227.5805072617533
 30
0.0
  0
POINT
  5
261B
330
101D
100
AcDbEntity
  8
Defpoints
  6
Continuous
 62
     0
100
AcDbPoint
 10
63.60558842760865
 20
227.5805072617533
 30
0.0
  0
ENDBLK
  5
101F
330
101D
100
AcDbEntity
  8
0
100
AcDbBlockEnd
  0
BLOCK
  5
102B
330
102A
100
AcDbEntity
  8
0
100
AcDbBlockBegin
  2
*D5
 70
     1
 10
0.0
 20
0.0
 30
0.0
  3
*D5
  1

  0
LINE
  5
261C
330
102A
100
AcDbEntity
  8
0
  6
Continuous
 62
     0
370
    -2
100
AcDbLine
 10
80.00803746726203
 20
235.7305072617533
 30
0.0
 11
80.00803746726203
 21
250.5730959179846
 31
0.0
  0
LINE
  5
261D
330
102A
100
AcDbEntity
  8
0
  6
Continuous
 62
     0
370
    -2
100
AcDbLine
 10
65.70803746726197
 20
235.7305072617533
 30
0.0
 11
65.70803746726197
 21
250.5730959179846
 31
0.0
  0
LINE
  5
261E
330
102A
100
AcDbEntity
  8
0
  6
Continuous
 62
     0
370
    -2
100
AcDbLine
 10
77.50803746726202
 20
249.3230959179846
 30
0.0
 11
68.20803746726197
 21
249.3230959179846
 31
0.0
  0
INSERT
  5
261F
330
102A
100
AcDbEntity
  8
0
  6
Continuous
 62
     0
370
    -2
100
AcDbBlockReference
  2
_Open30
 10
80.00803746726203
 20
249.3230959179846
 30
0.0
 41
2.5
 42
2.5
 43
2.5
  0
INSERT
  5
2620
330
102A
100
AcDbEntity
  8
0
  6
Continuous
 62
     0
370
    -2
100
AcDbBlockReference
  2
_Open30
 10
65.70803746726197
 20
249.3230959179846
 30
0.0
 41
2.5
 42
2.5
 43
2.5
 50
180.0
  0
MTEXT
  5
2621
330
102A
100
AcDbEntity
  8
0
  6
Continuous
 62
     4
100
AcDbMText
 10
73.13767650999285
 20
251.4480959179846
 30
0.0
 40
3.0
 41
0.0
 71
     5
 72
     1
  1
28.6
 73
     1
 44
1.0
1001
ACAD
1000
MTEXTBEGIN
1070
    73
1070
     1
1070
    44
1040
1.0
1070
    74
1070
     0
1000
MTEXTEND
  0
POINT
  5
2622
330
102A
100
AcDbEntity
  8
Defpoints
  6
Continuous
 62
     0
100
AcDbPoint
 10
80.00803746726203
 20
235.4805072617533
 30
0.0
  0
POINT
  5
2623
330
102A
100
AcDbEntity
  8
Defpoints
  6
Continuous
 62
     0
100
AcDbPoint
 10
65.70803746726197
 20
235.4805072617533
 30
0.0
  0
POINT
  5
2624
330
102A
100
AcDbEntity
  8
Defpoints
  6
Continuous
 62
     0
100
AcDbPoint
 10
65.70803746726197
 20
249.3230959179846
 30
0.0
  0
ENDBLK
  5
102C
330
102A
100
AcDbEntity
  8
0
100
AcDbBlockEnd
  0
BLOCK
  5
1101
330
1100
100
AcDbEntity
  8
0
100
AcDbBlockBegin
  2
*D6
 70
     1
 10
0.0
 20
0.0
 30
0.0
  3
*D6
  1

  0
LINE
  5
2625
330
1100
100
AcDbEntity
  8
0
  6
Continuous
 62
     0
370
    -2
100
AcDbLine
 10
-41.6411615734331
 20
240.9805072617532
 30
0.0
 11
-42.86004094708093
 21
240.9805072617532
 31
0.0
  0
LINE
  5
2626
330
1100
100
AcDbEntity
  8
0
  6
Continuous
 62
     0
370
    -2
100
AcDbLine
 10
-41.6411615734331
 20
225.9805072617532
 30
0.0
 11
-42.86004094708093
 21
225.9805072617532
 31
0.0
  0
LINE
  5
2627
330
1100
100
AcDbEntity
  8
0
  6
Continuous
 62
     0
370
    -2
100
AcDbLine
 10
-41.61004094708093
 20
223.4805072617532
 30
0.0
 11
-41.61004094708093
 21
220.9805072617532
 31
0.0
  0
LINE
  5
2628
330
1100
100
AcDbEntity
  8
0
  6
Continuous
 62
     0
370
    -2
100
AcDbLine
 10
-41.61004094708093
 20
243.4805072617532
 30
0.0
 11
-41.61004094708093
 21
251.7305072617533
 31
0.0
  0
LINE
  5
2629
330
1100
100
AcDbEntity
  8
0
  6
Continuous
 62
     0
370
    -2
100
AcDbLine
 10
-41.61004094708093
 20
225.9805072617532
 30
0.0
 11
-41.61004094708093
 21
240.9805072617532
 31
0.0
  0
INSERT
  5
262A
330
1100
100
AcDbEntity
  8
0
  6
Continuous
 62
     0
370
    -2
100
AcDbBlockReference
  2
_Open30
 10
-41.61004094708093
 20
225.9805072617532
 30
0.0
 41
2.5
 42
2.5
 43
2.5
 50
90.0
  0
INSERT
  5
262B
330
1100
100
AcDbEntity
  8
0
  6
Continuous
 62
     0
370
    -2
100
AcDbBlockReference
  2
_Open30
 10
-41.61004094708093
 20
240.9805072617532
 30
0.0
 41
2.5
 42
2.5
 43
2.5
 50
270.0
  0
MTEXT
  5
262C
330
1100
100
AcDbEntity
  8
0
  6
Continuous
 62
     4
100
AcDbMText
 10
-43.73504094708096
 20
248.8555072617533
 30
0.0
 40
3.0
 41
0.0
 71
     5
 72
     1
  1
30
 11
0.0000000000000001
 21
1.0
 31
0.0
 73
     1
 44
1.0
1001
ACAD
1000
MTEXTBEGIN
1070
    73
1070
     1
1070
    44
1040
1.0
1070
    74
1070
     0
1000
MTEXTEND
  0
POINT
  5
262D
330
1100
100
AcDbEntity
  8
Defpoints
  6
Continuous
 62
     0
100
AcDbPoint
 10
-41.39116157343311
 20
240.9805072617532
 30
0.0
  0
POINT
  5
262E
330
1100
100
AcDbEntity
  8
Defpoints
  6
Continuous
 62
     0
100
AcDbPoint
 10
-41.39116157343311
 20
225.9805072617532
 30
0.0
  0
POINT
  5
262F
330
1100
100
AcDbEntity
  8
Defpoints
  6
Continuous
 62
     0
100
AcDbPoint
 10
-41.61004094708093
 20
225.9805072617532
 30
0.0
  0
ENDBLK
  5
1102
330
1100
100
AcDbEntity
  8
0
100
AcDbBlockEnd
  0
BLOCK
  5
1110
330
110F
100
AcDbEntity
  8
0
100
AcDbBlockBegin
  2
*D7
 70
     1
 10
0.0
 20
0.0
 30
0.0
  3
*D7
  1

  0
LINE
  5
2630
330
110F
100
AcDbEntity
  8
0
  6
Continuous
 62
     0
370
    -2
100
AcDbLine
 10
-45.8150886895946
 20
198.974280016225
 30
0.0
 11
-41.80570161051305
 21
198.974280016225
 31
0.0
  0
LINE
  5
2631
330
110F
100
AcDbEntity
  8
0
  6
Continuous
 62
     0
370
    -2
100
AcDbLine
 10
-44.76936586134033
 20
185.974280016225
 30
0.0
 11
-41.80570161051305
 21
185.974280016225
 31
0.0
  0
LINE
  5
2632
330
110F
100
AcDbEntity
  8
0
  6
Continuous
 62
     0
370
    -2
100
AcDbLine
 10
-43.05570161051306
 20
183.474280016225
 30
0.0
 11
-43.05570161051306
 21
180.974280016225
 31
0.0
  0
LINE
  5
2633
330
110F
100
AcDbEntity
  8
0
  6
Continuous
 62
     0
370
    -2
100
AcDbLine
 10
-43.05570161051306
 20
201.474280016225
 30
0.0
 11
-43.05570161051305
 21
210.224280016225
 31
0.0
  0
LINE
  5
2634
330
110F
100
AcDbEntity
  8
0
  6
Continuous
 62
     0
370
    -2
100
AcDbLine
 10
-43.05570161051306
 20
185.974280016225
 30
0.0
 11
-43.05570161051306
 21
198.974280016225
 31
0.0
  0
INSERT
  5
2635
330
110F
100
AcDbEntity
  8
0
  6
Continuous
 62
     0
370
    -2
100
AcDbBlockReference
  2
_Open30
 10
-43.05570161051306
 20
185.974280016225
 30
0.0
 41
2.5
 42
2.5
 43
2.5
 50
90.0
  0
INSERT
  5
2636
330
110F
100
AcDbEntity
  8
0
  6
Continuous
 62
     0
370
    -2
100
AcDbBlockReference
  2
_Open30
 10
-43.05570161051306
 20
198.974280016225
 30
0.0
 41
2.5
 42
2.5
 43
2.5
 50
270.0
  0
MTEXT
  5
2637
330
110F
100
AcDbEntity
  8
0
  6
Continuous
 62
     4
100
AcDbMText
 10
-45.18070161051309
 20
207.099280016225
 30
0.0
 40
3.0
 41
0.0
 71
     5
 72
     1
  1
26
 11
0.0000000000000001
 21
1.0
 31
0.0
 73
     1
 44
1.0
1001
ACAD
1000
MTEXTBEGIN
1070
    73
1070
     1
1070
    44
1040
1.0
1070
    74
1070
     0
1000
MTEXTEND
  0
POINT
  5
2638
330
110F
100
AcDbEntity
  8
Defpoints
  6
Continuous
 62
     0
100
AcDbPoint
 10
-46.0650886895946
 20
198.974280016225
 30
0.0
  0
POINT
  5
2639
330
110F
100
AcDbEntity
  8
Defpoints
  6
Continuous
 62
     0
100
AcDbPoint
 10
-45.01936586134032
 20
185.974280016225
 30
0.0
  0
POINT
  5
263A
330
110F
100
AcDbEntity
  8
Defpoints
  6
Continuous
 62
     0
100
AcDbPoint
 10
-43.05570161051306
 20
185.974280016225
 30
0.0
  0
ENDBLK
  5
1111
330
110F
100
AcDbEntity
  8
0
100
AcDbBlockEnd
  0
BLOCK
  5
1650
330
164F
100
AcDbEntity
  8
0
100
AcDbBlockBegin
  2
*D8
 70
     1
 10
0.0
 20
0.0
 30
0.0
  3
*D8
  1

  0
LINE
  5
1651
330
164F
100
AcDbEntity
  8
0
 62
     0
370
    -2
100
AcDbLine
 10
-178.2339678749101
 20
-812.0370112307897
 30
0.0
 11
-178.2339678749101
 21
-814.9466426527986
 31
0.0
  0
LINE
  5
1652
330
164F
100
AcDbEntity
  8
0
 62
     0
370
    -2
100
AcDbLine
 10
-180.6911549290304
 20
-812.0370112307897
 30
0.0
 11
-180.6911549290304
 21
-814.9466426527986
 31
0.0
  0
LINE
  5
1653
330
164F
100
AcDbEntity
  8
0
 62
     0
370
    -2
100
AcDbLine
 10
-175.7339678749101
 20
-813.6966426527985
 30
0.0
 11
-173.2339678749101
 21
-813.6966426527985
 31
0.0
  0
LINE
  5
1654
330
164F
100
AcDbEntity
  8
0
 62
     0
370
    -2
100
AcDbLine
 10
-183.1911549290304
 20
-813.6966426527985
 30
0.0
 11
-195.9411549290304
 21
-813.6966426527985
 31
0.0
  0
LINE
  5
1655
330
164F
100
AcDbEntity
  8
0
 62
     0
370
    -2
100
AcDbLine
 10
-178.2339678749101
 20
-813.6966426527985
 30
0.0
 11
-180.6911549290304
 21
-813.6966426527985
 31
0.0
  0
INSERT
  5
1656
330
164F
100
AcDbEntity
  8
0
 62
     0
370
    -2
100
AcDbBlockReference
  2
_Open30
 10
-178.2339678749101
 20
-813.6966426527985
 30
0.0
 41
2.5
 42
2.5
 43
2.5
 50
180.0
  0
INSERT
  5
1657
330
164F
100
AcDbEntity
  8
0
 62
     0
370
    -2
100
AcDbBlockReference
  2
_Open30
 10
-180.6911549290304
 20
-813.6966426527985
 30
0.0
 41
2.5
 42
2.5
 43
2.5
  0
MTEXT
  5
1658
330
164F
100
AcDbEntity
  8
0
 62
     4
100
AcDbMText
 10
-190.8161549290304
 20
-811.5716426527985
 30
0.0
 40
3.0
 41
0.0
 71
     5
 72
     1
  1
2.46
 73
     1
 44
1.0
1001
ACAD
1000
MTEXTBEGIN
1070
    73
1070
     1
1070
    44
1040
1.0
1070
    74
1070
     0
1000
MTEXTEND
  0
POINT
  5
1659
330
164F
100
AcDbEntity
  8
Defpoints
 62
     0
100
AcDbPoint
 10
-178.2339678749101
 20
-811.7870112307898
 30
0.0
  0
POINT
  5
165A
330
164F
100
AcDbEntity
  8
Defpoints
 62
     0
100
AcDbPoint
 10
-180.6911549290304
 20
-811.7870112307898
 30
0.0
  0
POINT
  5
165B
330
164F
100
AcDbEntity
  8
Defpoints
 62
     0
100
AcDbPoint
 10
-180.6911549290304
 20
-813.6966426527985
 30
0.0
  0
ENDBLK
  5
165C
330
164F
100
AcDbEntity
  8
0
100
AcDbBlockEnd
  0
BLOCK
  5
165E
330
165D
100
AcDbEntity
  8
0
100
AcDbBlockBegin
  2
*D9
 70
     1
 10
0.0
 20
0.0
 30
0.0
  3
*D9
  1

  0
LINE
  5
165F
330
165D
100
AcDbEntity
  8
0
 62
     0
370
    -2
100
AcDbLine
 10
-176.5958429688369
 20
-817.4931008035521
 30
0.0
 11
-176.5958429688369
 21
-820.0389928730155
 31
0.0
  0
LINE
  5
1660
330
165D
100
AcDbEntity
  8
0
 62
     0
370
    -2
100
AcDbLine
 10
-179.6900787669798
 20
-817.4931008035521
 30
0.0
 11
-179.6900787669798
 21
-820.0389928730155
 31
0.0
  0
LINE
  5
1661
330
165D
100
AcDbEntity
  8
0
 62
     0
370
    -2
100
AcDbLine
 10
-174.0958429688369
 20
-818.7889928730154
 30
0.0
 11
-171.5958429688369
 21
-818.7889928730154
 31
0.0
  0
LINE
  5
1662
330
165D
100
AcDbEntity
  8
0
 62
     0
370
    -2
100
AcDbLine
 10
-182.1900787669798
 20
-818.7889928730154
 30
0.0
 11
-196.0234121003131
 21
-818.7889928730154
 31
0.0
  0
LINE
  5
1663
330
165D
100
AcDbEntity
  8
0
 62
     0
370
    -2
100
AcDbLine
 10
-176.5958429688369
 20
-818.7889928730154
 30
0.0
 11
-179.6900787669798
 21
-818.7889928730154
 31
0.0
  0
INSERT
  5
1664
330
165D
100
AcDbEntity
  8
0
 62
     0
370
    -2
100
AcDbBlockReference
  2
_Open30
 10
-176.5958429688369
 20
-818.7889928730154
 30
0.0
 41
2.5
 42
2.5
 43
2.5
 50
180.0
  0
INSERT
  5
1665
330
165D
100
AcDbEntity
  8
0
 62
     0
370
    -2
100
AcDbBlockReference
  2
_Open30
 10
-179.6900787669798
 20
-818.7889928730154
 30
0.0
 41
2.5
 42
2.5
 43
2.5
  0
MTEXT
  5
1666
330
165D
100
AcDbEntity
  8
0
 62
     4
100
AcDbMText
 10
-190.8150787669798
 20
-816.9139928730155
 30
0.0
 40
2.5
 41
0.0
 71
     5
 72
     1
  1
15.47
  7
高2.5
 73
     1
 44
1.0
1001
ACAD
1000
MTEXTBEGIN
1070
    73
1070
     1
1070
    44
1040
1.0
1070
    74
1070
     0
1000
MTEXTEND
  0
POINT
  5
1667
330
165D
100
AcDbEntity
  8
Defpoints
 62
     0
100
AcDbPoint
 10
-176.5958429688369
 20
-817.2431008035522
 30
0.0
  0
POINT
  5
1668
330
165D
100
AcDbEntity
  8
Defpoints
 62
     0
100
AcDbPoint
 10
-179.6900787669798
 20
-817.2431008035522
 30
0.0
  0
POINT
  5
1669
330
165D
100
AcDbEntity
  8
Defpoints
 62
     0
100
AcDbPoint
 10
-179.6900787669798
 20
-818.7889928730154
 30
0.0
  0
ENDBLK
  5
166A
330
165D
100
AcDbEntity
  8
0
100
AcDbBlockEnd
  0
BLOCK
  5
166C
330
166B
100
AcDbEntity
  8
0
100
AcDbBlockBegin
  2
*D10
 70
     1
 10
0.0
 20
0.0
 30
0.0
  3
*D10
  1

  0
LINE
  5
166D
330
166B
100
AcDbEntity
  8
0
 62
     0
370
    -2
100
AcDbLine
 10
-174.8667113607514
 20
-822.9491905193986
 30
0.0
 11
-174.8667113607514
 21
-825.2222781817659
 31
0.0
  0
LINE
  5
166E
330
166B
100
AcDbEntity
  8
0
 62
     0
370
    -2
100
AcDbLine
 10
-178.8710163139432
 20
-822.9491905193986
 30
0.0
 11
-178.8710163139432
 21
-825.2222781817659
 31
0.0
  0
LINE
  5
166F
330
166B
100
AcDbEntity
  8
0
 62
     0
370
    -2
100
AcDbLine
 10
-172.3667113607514
 20
-823.9722781817658
 30
0.0
 11
-169.8667113607514
 21
-823.9722781817658
 31
0.0
  0
LINE
  5
1670
330
166B
100
AcDbEntity
  8
0
 62
     0
370
    -2
100
AcDbLine
 10
-181.3710163139432
 20
-823.9722781817658
 30
0.0
 11
-193.1210163139432
 21
-823.9722781817658
 31
0.0
  0
LINE
  5
1671
330
166B
100
AcDbEntity
  8
0
 62
     0
370
    -2
100
AcDbLine
 10
-174.8667113607514
 20
-823.9722781817658
 30
0.0
 11
-178.8710163139432
 21
-823.9722781817658
 31
0.0
  0
INSERT
  5
1672
330
166B
100
AcDbEntity
  8
0
 62
     0
370
    -2
100
AcDbBlockReference
  2
_Open30
 10
-174.8667113607514
 20
-823.9722781817658
 30
0.0
 41
2.5
 42
2.5
 43
2.5
 50
180.0
  0
INSERT
  5
1673
330
166B
100
AcDbEntity
  8
0
 62
     0
370
    -2
100
AcDbBlockReference
  2
_Open30
 10
-178.8710163139432
 20
-823.9722781817658
 30
0.0
 41
2.5
 42
2.5
 43
2.5
  0
MTEXT
  5
1674
330
166B
100
AcDbEntity
  8
0
 62
     4
100
AcDbMText
 10
-188.4960163139432
 20
-821.7472781817658
 30
0.0
 40
3.2
 41
0.0
 71
     5
 72
     1
  1
8.01
  7
高3.2
 73
     1
 44
1.0
1001
ACAD
1000
MTEXTBEGIN
1070
    73
1070
     1
1070
    44
1040
1.0
1070
    74
1070
     0
1000
MTEXTEND
  0
POINT
  5
1675
330
166B
100
AcDbEntity
  8
Defpoints
 62
     0
100
AcDbPoint
 10
-174.8667113607514
 20
-822.6991905193985
 30
0.0
  0
POINT
  5
1676
330
166B
100
AcDbEntity
  8
Defpoints
 62
     0
100
AcDbPoint
 10
-178.8710163139432
 20
-822.6991905193985
 30
0.0
  0
POINT
  5
1677
330
166B
100
AcDbEntity
  8
Defpoints
 62
     0
100
AcDbPoint
 10
-178.8710163139432
 20
-823.9722781817658
 30
0.0
  0
ENDBLK
  5
1678
330
166B
100
AcDbEntity
  8
0
100
AcDbBlockEnd
  0
BLOCK
  5
167A
330
1679
100
AcDbEntity
  8
0
100
AcDbBlockBegin
  2
*D11
 70
     1
 10
0.0
 20
0.0
 30
0.0
  3
*D11
  1

  0
LINE
  5
167B
330
1679
100
AcDbEntity
  8
0
 62
     0
370
    -2
100
AcDbLine
 10
-174.9577180627636
 20
-828.2234104874302
 30
0.0
 11
-174.9577180627636
 21
-830.0418239948866
 31
0.0
  0
LINE
  5
167C
330
1679
100
AcDbEntity
  8
0
 62
     0
370
    -2
100
AcDbLine
 10
-179.6900787669798
 20
-828.2234104874302
 30
0.0
 11
-179.6900787669798
 21
-830.0418239948866
 31
0.0
  0
LINE
  5
167D
330
1679
100
AcDbEntity
  8
0
 62
     0
370
    -2
100
AcDbLine
 10
-172.4577180627636
 20
-828.7918239948865
 30
0.0
 11
-169.9577180627637
 21
-828.7918239948865
 31
0.0
  0
LINE
  5
167E
330
1679
100
AcDbEntity
  8
0
 62
     0
370
    -2
100
AcDbLine
 10
-182.1900787669798
 20
-828.7918239948865
 30
0.0
 11
-203.9400787669798
 21
-828.7918239948865
 31
0.0
  0
LINE
  5
167F
330
1679
100
AcDbEntity
  8
0
 62
     0
370
    -2
100
AcDbLine
 10
-174.9577180627636
 20
-828.7918239948865
 30
0.0
 11
-179.6900787669798
 21
-828.7918239948865
 31
0.0
  0
INSERT
  5
1680
330
1679
100
AcDbEntity
  8
0
 62
     0
370
    -2
100
AcDbBlockReference
  2
_Open30
 10
-174.9577180627636
 20
-828.7918239948865
 30
0.0
 41
2.5
 42
2.5
 43
2.5
 50
180.0
  0
INSERT
  5
1681
330
1679
100
AcDbEntity
  8
0
 62
     0
370
    -2
100
AcDbBlockReference
  2
_Open30
 10
-179.6900787669798
 20
-828.7918239948865
 30
0.0
 41
2.5
 42
2.5
 43
2.5
  0
MTEXT
  5
1682
330
1679
100
AcDbEntity
  8
0
 62
     4
100
AcDbMText
 10
-194.3150787669798
 20
-825.9168239948866
 30
0.0
 40
4.5
 41
0.0
 71
     5
 72
     1
  1
47.32
  7
高4.5
 73
     1
 44
1.0
1001
ACAD
1000
MTEXTBEGIN
1070
    73
1070
     1
1070
    44
1040
1.0
1070
    74
1070
     0
1000
MTEXTEND
  0
POINT
  5
1683
330
1679
100
AcDbEntity
  8
Defpoints
 62
     0
100
AcDbPoint
 10
-174.9577180627636
 20
-827.9734104874302
 30
0.0
  0
POINT
  5
1684
330
1679
100
AcDbEntity
  8
Defpoints
 62
     0
100
AcDbPoint
 10
-179.6900787669798
 20
-827.9734104874302
 30
0.0
  0
POINT
  5
1685
330
1679
100
AcDbEntity
  8
Defpoints
 62
     0
100
AcDbPoint
 10
-179.6900787669798
 20
-828.7918239948865
 30
0.0
  0
ENDBLK
  5
1686
330
1679
100
AcDbEntity
  8
0
100
AcDbBlockEnd
  0
BLOCK
  5
1688
330
1687
100
AcDbEntity
  8
0
100
AcDbBlockBegin
  2
*D12
 70
     1
 10
0.0
 20
0.0
 30
0.0
  3
*D12
  1

  0
LINE
  5
1689
330
1687
100
AcDbEntity
  8
0
 62
     0
370
    -2
100
AcDbLine
 10
-153.4800817947562
 20
-812.0370112307897
 30
0.0
 11
-153.4800817947562
 21
-814.9466426527986
 31
0.0
  0
LINE
  5
168A
330
1687
100
AcDbEntity
  8
0
 62
     0
370
    -2
100
AcDbLine
 10
-155.9372688488765
 20
-812.0370112307897
 30
0.0
 11
-155.9372688488765
 21
-814.9466426527986
 31
0.0
  0
LINE
  5
168B
330
1687
100
AcDbEntity
  8
0
 62
     0
370
    -2
100
AcDbLine
 10
-150.9800817947562
 20
-813.6966426527985
 30
0.0
 11
-148.4800817947562
 21
-813.6966426527985
 31
0.0
  0
LINE
  5
168C
330
1687
100
AcDbEntity
  8
0
 62
     0
370
    -2
100
AcDbLine
 10
-158.4372688488765
 20
-813.6966426527985
 30
0.0
 11
-180.0372688488765
 21
-813.6966426527985
 31
0.0
  0
LINE
  5
168D
330
1687
100
AcDbEntity
  8
0
 62
     0
370
    -2
100
AcDbLine
 10
-153.4800817947562
 20
-813.6966426527985
 30
0.0
 11
-155.9372688488765
 21
-813.6966426527985
 31
0.0
  0
INSERT
  5
168E
330
1687
100
AcDbEntity
  8
0
 62
     0
370
    -2
100
AcDbBlockReference
  2
_Open30
 10
-153.4800817947562
 20
-813.6966426527985
 30
0.0
 41
2.5
 42
2.5
 43
2.5
 50
180.0
  0
INSERT
  5
168F
330
1687
100
AcDbEntity
  8
0
 62
     0
370
    -2
100
AcDbBlockReference
  2
_Open30
 10
-155.9372688488765
 20
-813.6966426527985
 30
0.0
 41
2.5
 42
2.5
 43
2.5
  0
MTEXT
  5
1690
330
1687
100
AcDbEntity
  8
0
 62
     4
100
AcDbMText
 10
-170.4872688488765
 20
-809.9216426527986
 30
0.0
 40
6.299999999999998
 41
0.0
 71
     5
 72
     1
  1
0.25
  7
高6.3
 73
     1
 44
1.0
1001
ACAD
1000
MTEXTBEGIN
1070
    73
1070
     1
1070
    44
1040
1.0
1070
    74
1070
     0
1000
MTEXTEND
  0
POINT
  5
1691
330
1687
100
AcDbEntity
  8
Defpoints
 62
     0
100
AcDbPoint
 10
-153.4800817947562
 20
-811.7870112307898
 30
0.0
  0
POINT
  5
1692
330
1687
100
AcDbEntity
  8
Defpoints
 62
     0
100
AcDbPoint
 10
-155.9372688488765
 20
-811.7870112307898
 30
0.0
  0
POINT
  5
1693
330
1687
100
AcDbEntity
  8
Defpoints
 62
     0
100
AcDbPoint
 10
-155.9372688488765
 20
-813.6966426527985
 30
0.0
  0
ENDBLK
  5
1694
330
1687
100
AcDbEntity
  8
0
100
AcDbBlockEnd
  0
BLOCK
  5
1696
330
1695
100
AcDbEntity
  8
0
100
AcDbBlockBegin
  2
*D13
 70
     1
 10
0.0
 20
0.0
 30
0.0
  3
*D13
  1

  0
LINE
  5
1697
330
1695
100
AcDbEntity
  8
0
 62
     0
370
    -2
100
AcDbLine
 10
-151.841956888683
 20
-817.4931008035521
 30
0.0
 11
-151.841956888683
 21
-820.0389928730155
 31
0.0
  0
LINE
  5
1698
330
1695
100
AcDbEntity
  8
0
 62
     0
370
    -2
100
AcDbLine
 10
-154.9361926868259
 20
-817.4931008035521
 30
0.0
 11
-154.9361926868259
 21
-820.0389928730155
 31
0.0
  0
LINE
  5
1699
330
1695
100
AcDbEntity
  8
0
 62
     0
370
    -2
100
AcDbLine
 10
-149.341956888683
 20
-818.7889928730154
 30
0.0
 11
-146.841956888683
 21
-818.7889928730154
 31
0.0
  0
LINE
  5
169A
330
1695
100
AcDbEntity
  8
0
 62
     0
370
    -2
100
AcDbLine
 10
-157.4361926868259
 20
-818.7889928730154
 30
0.0
 11
-169.4361926868259
 21
-818.7889928730154
 31
0.0
  0
LINE
  5
169B
330
1695
100
AcDbEntity
  8
0
 62
     0
370
    -2
100
AcDbLine
 10
-151.841956888683
 20
-818.7889928730154
 30
0.0
 11
-154.9361926868259
 21
-818.7889928730154
 31
0.0
  0
INSERT
  5
169C
330
1695
100
AcDbEntity
  8
0
 62
     0
370
    -2
100
AcDbBlockReference
  2
_Open30
 10
-151.841956888683
 20
-818.7889928730154
 30
0.0
 41
2.5
 42
2.5
 43
2.5
 50
180.0
  0
INSERT
  5
169D
330
1695
100
AcDbEntity
  8
0
 62
     0
370
    -2
100
AcDbBlockReference
  2
_Open30
 10
-154.9361926868259
 20
-818.7889928730154
 30
0.0
 41
2.5
 42
2.5
 43
2.5
  0
MTEXT
  5
169E
330
1695
100
AcDbEntity
  8
0
 62
     4
100
AcDbMText
 10
-164.8111926868259
 20
-816.6639928730154
 30
0.0
 40
3.0
 41
0.0
 71
     5
 72
     1
  1
1.55
 73
     1
 44
1.0
1001
ACAD
1000
MTEXTBEGIN
1070
    73
1070
     1
1070
    44
1040
1.0
1070
    74
1070
     0
1000
MTEXTEND
  0
POINT
  5
169F
330
1695
100
AcDbEntity
  8
Defpoints
 62
     0
100
AcDbPoint
 10
-151.841956888683
 20
-817.2431008035522
 30
0.0
  0
POINT
  5
16A0
330
1695
100
AcDbEntity
  8
Defpoints
 62
     0
100
AcDbPoint
 10
-154.9361926868259
 20
-817.2431008035522
 30
0.0
  0
POINT
  5
16A1
330
1695
100
AcDbEntity
  8
Defpoints
 62
     0
100
AcDbPoint
 10
-154.9361926868259
 20
-818.7889928730154
 30
0.0
  0
ENDBLK
  5
16A2
330
1695
100
AcDbEntity
  8
0
100
AcDbBlockEnd
  0
BLOCK
  5
16A4
330
16A3
100
AcDbEntity
  8
0
100
AcDbBlockBegin
  2
*D14
 70
     1
 10
0.0
 20
0.0
 30
0.0
  3
*D14
  1

  0
LINE
  5
16A5
330
16A3
100
AcDbEntity
  8
0
 62
     0
370
    -2
100
AcDbLine
 10
-150.1128252805975
 20
-822.9491905193986
 30
0.0
 11
-150.1128252805975
 21
-825.2222781817659
 31
0.0
  0
LINE
  5
16A6
330
16A3
100
AcDbEntity
  8
0
 62
     0
370
    -2
100
AcDbLine
 10
-154.1171302337894
 20
-822.9491905193986
 30
0.0
 11
-154.1171302337894
 21
-825.2222781817659
 31
0.0
  0
LINE
  5
16A7
330
16A3
100
AcDbEntity
  8
0
 62
     0
370
    -2
100
AcDbLine
 10
-147.6128252805976
 20
-823.9722781817658
 30
0.0
 11
-145.1128252805975
 21
-823.9722781817658
 31
0.0
  0
LINE
  5
16A8
330
16A3
100
AcDbEntity
  8
0
 62
     0
370
    -2
100
AcDbLine
 10
-156.6171302337894
 20
-823.9722781817658
 30
0.0
 11
-164.9504635671227
 21
-823.9722781817658
 31
0.0
  0
LINE
  5
16A9
330
16A3
100
AcDbEntity
  8
0
 62
     0
370
    -2
100
AcDbLine
 10
-150.1128252805975
 20
-823.9722781817658
 30
0.0
 11
-154.1171302337894
 21
-823.9722781817658
 31
0.0
  0
INSERT
  5
16AA
330
16A3
100
AcDbEntity
  8
0
 62
     0
370
    -2
100
AcDbBlockReference
  2
_Open30
 10
-150.1128252805975
 20
-823.9722781817658
 30
0.0
 41
2.5
 42
2.5
 43
2.5
 50
180.0
  0
INSERT
  5
16AB
330
16A3
100
AcDbEntity
  8
0
 62
     0
370
    -2
100
AcDbBlockReference
  2
_Open30
 10
-154.1171302337894
 20
-823.9722781817658
 30
0.0
 41
2.5
 42
2.5
 43
2.5
  0
MTEXT
  5
16AC
330
16A3
100
AcDbEntity
  8
0
 62
     4
100
AcDbMText
 10
-162.4921302337894
 20
-822.3472781817658
 30
0.0
 40
2.0
 41
0.0
 71
     5
 72
     1
  1
0.8
  7
高2
 73
     1
 44
1.0
1001
ACAD
1000
MTEXTBEGIN
1070
    73
1070
     1
1070
    44
1040
1.0
1070
    74
1070
     0
1000
MTEXTEND
  0
POINT
  5
16AD
330
16A3
100
AcDbEntity
  8
Defpoints
 62
     0
100
AcDbPoint
 10
-150.1128252805975
 20
-822.6991905193985
 30
0.0
  0
POINT
  5
16AE
330
16A3
100
AcDbEntity
  8
Defpoints
 62
     0
100
AcDbPoint
 10
-154.1171302337894
 20
-822.6991905193985
 30
0.0
  0
POINT
  5
16AF
330
16A3
100
AcDbEntity
  8
Defpoints
 62
     0
100
AcDbPoint
 10
-154.1171302337894
 20
-823.9722781817658
 30
0.0
  0
ENDBLK
  5
16B0
330
16A3
100
AcDbEntity
  8
0
100
AcDbBlockEnd
  0
BLOCK
  5
16B2
330
16B1
100
AcDbEntity
  8
0
100
AcDbBlockBegin
  2
*D15
 70
     1
 10
0.0
 20
0.0
 30
0.0
  3
*D15
  1

  0
LINE
  5
16B3
330
16B1
100
AcDbEntity
  8
0
 62
     0
370
    -2
100
AcDbLine
 10
-150.2038319826098
 20
-828.2234104874302
 30
0.0
 11
-150.2038319826098
 21
-830.0418239948866
 31
0.0
  0
LINE
  5
16B4
330
16B1
100
AcDbEntity
  8
0
 62
     0
370
    -2
100
AcDbLine
 10
-154.9361926868259
 20
-828.2234104874302
 30
0.0
 11
-154.9361926868259
 21
-830.0418239948866
 31
0.0
  0
LINE
  5
16B5
330
16B1
100
AcDbEntity
  8
0
 62
     0
370
    -2
100
AcDbLine
 10
-147.7038319826099
 20
-828.7918239948865
 30
0.0
 11
-145.2038319826098
 21
-828.7918239948865
 31
0.0
  0
LINE
  5
16B6
330
16B1
100
AcDbEntity
  8
0
 62
     0
370
    -2
100
AcDbLine
 10
-157.4361926868259
 20
-828.7918239948865
 30
0.0
 11
-172.1861926868259
 21
-828.7918239948865
 31
0.0
  0
LINE
  5
16B7
330
16B1
100
AcDbEntity
  8
0
 62
     0
370
    -2
100
AcDbLine
 10
-150.2038319826098
 20
-828.7918239948865
 30
0.0
 11
-154.9361926868259
 21
-828.7918239948865
 31
0.0
  0
INSERT
  5
16B8
330
16B1
100
AcDbEntity
  8
0
 62
     0
370
    -2
100
AcDbBlockReference
  2
_Open30
 10
-150.2038319826098
 20
-828.7918239948865
 30
0.0
 41
2.5
 42
2.5
 43
2.5
 50
180.0
  0
INSERT
  5
16B9
330
16B1
100
AcDbEntity
  8
0
 62
     0
370
    -2
100
AcDbBlockReference
  2
_Open30
 10
-154.9361926868259
 20
-828.7918239948865
 30
0.0
 41
2.5
 42
2.5
 43
2.5
  0
MTEXT
  5
16BA
330
16B1
100
AcDbEntity
  8
0
 62
     4
100
AcDbMText
 10
-166.0611926868259
 20
-826.6668239948867
 30
0.0
 40
3.0
 41
0.0
 71
     5
 72
     1
  1
18.93
 73
     1
 44
1.0
1001
ACAD
1000
MTEXTBEGIN
1070
    73
1070
     1
1070
    44
1040
1.0
1070
    74
1070
     0
1000
MTEXTEND
  0
POINT
  5
16BB
330
16B1
100
AcDbEntity
  8
Defpoints
 62
     0
100
AcDbPoint
 10
-150.2038319826098
 20
-827.9734104874302
 30
0.0
  0
POINT
  5
16BC
330
16B1
100
AcDbEntity
  8
Defpoints
 62
     0
100
AcDbPoint
 10
-154.9361926868259
 20
-827.9734104874302
 30
0.0
  0
POINT
  5
16BD
330
16B1
100
AcDbEntity
  8
Defpoints
 62
     0
100
AcDbPoint
 10
-154.9361926868259
 20
-828.7918239948865
 30
0.0
  0
ENDBLK
  5
16BE
330
16B1
100
AcDbEntity
  8
0
100
AcDbBlockEnd
  0
BLOCK
  5
16C0
330
16BF
100
AcDbEntity
  8
0
100
AcDbBlockBegin
  2
*D16
 70
     1
 10
0.0
 20
0.0
 30
0.0
  3
*D16
  1

  0
LINE
  5
16C1
330
16BF
100
AcDbEntity
  8
0
 62
     0
370
    -2
100
AcDbLine
 10
-153.0082588337482
 20
-833.2792506940199
 30
0.0
 11
-153.0082588337482
 21
-835.5891717708955
 31
0.0
  0
LINE
  5
16C2
330
16BF
100
AcDbEntity
  8
0
 62
     0
370
    -2
100
AcDbLine
 10
-157.5969340358961
 20
-833.2792506940199
 30
0.0
 11
-157.5969340358961
 21
-835.5891717708955
 31
0.0
  0
LINE
  5
16C3
330
16BF
100
AcDbEntity
  8
0
 62
     0
370
    -2
100
AcDbLine
 10
-150.5082588337482
 20
-834.3391717708955
 30
0.0
 11
-148.0082588337482
 21
-834.3391717708955
 31
0.0
  0
LINE
  5
16C4
330
16BF
100
AcDbEntity
  8
0
 62
     0
370
    -2
100
AcDbLine
 10
-160.0969340358961
 20
-834.3391717708955
 30
0.0
 11
-174.8469340358961
 21
-834.3391717708955
 31
0.0
  0
LINE
  5
16C5
330
16BF
100
AcDbEntity
  8
0
 62
     0
370
    -2
100
AcDbLine
 10
-153.0082588337482
 20
-834.3391717708955
 30
0.0
 11
-157.5969340358961
 21
-834.3391717708955
 31
0.0
  0
INSERT
  5
16C6
330
16BF
100
AcDbEntity
  8
0
 62
     0
370
    -2
100
AcDbBlockReference
  2
_Open30
 10
-153.0082588337482
 20
-834.3391717708955
 30
0.0
 41
2.5
 42
2.5
 43
2.5
 50
180.0
  0
INSERT
  5
16C7
330
16BF
100
AcDbEntity
  8
0
 62
     0
370
    -2
100
AcDbBlockReference
  2
_Open30
 10
-157.5969340358961
 20
-834.3391717708955
 30
0.0
 41
2.5
 42
2.5
 43
2.5
  0
MTEXT
  5
16C8
330
16BF
100
AcDbEntity
  8
0
 62
     4
100
AcDbMText
 10
-168.7219340358961
 20
-832.2141717708955
 30
0.0
 40
3.0
 41
0.0
 71
     5
 72
     1
  1
13.77
 73
     1
 44
1.0
1001
ACAD
1000
MTEXTBEGIN
1070
    73
1070
     1
1070
    44
1040
1.0
1070
    74
1070
     0
1000
MTEXTEND
  0
POINT
  5
16C9
330
16BF
100
AcDbEntity
  8
Defpoints
 62
     0
100
AcDbPoint
 10
-153.0082588337482
 20
-833.0292506940201
 30
0.0
  0
POINT
  5
16CA
330
16BF
100
AcDbEntity
  8
Defpoints
 62
     0
100
AcDbPoint
 10
-157.5969340358961
 20
-833.0292506940201
 30
0.0
  0
POINT
  5
16CB
330
16BF
100
AcDbEntity
  8
Defpoints
 62
     0
100
AcDbPoint
 10
-157.5969340358961
 20
-834.3391717708955
 30
0.0
  0
ENDBLK
  5
16CC
330
16BF
100
AcDbEntity
  8
0
100
AcDbBlockEnd
  0
BLOCK
  5
16CE
330
16CD
100
AcDbEntity
  8
0
100
AcDbBlockBegin
  2
*D17
 70
     1
 10
0.0
 20
0.0
 30
0.0
  3
*D17
  1

  0
LINE
  5
16CF
330
16CD
100
AcDbEntity
  8
0
 62
     0
370
    -2
100
AcDbLine
 10
-160.1045416668985
 20
-802.3497593757458
 30
0.0
 11
-160.1045416668985
 21
-794.9532258978079
 31
0.0
  0
LINE
  5
16D0
330
16CD
100
AcDbEntity
  8
0
 62
     0
370
    -2
100
AcDbLine
 10
-170.0430160363884
 20
-802.3497593757458
 30
0.0
 11
-170.0430160363884
 21
-794.9532258978079
 31
0.0
  0
LINE
  5
16D1
330
16CD
100
AcDbEntity
  8
0
 62
     0
370
    -2
100
AcDbLine
 10
-162.6045416668985
 20
-796.2032258978077
 30
0.0
 11
-167.5430160363885
 21
-796.2032258978077
 31
0.0
  0
INSERT
  5
16D2
330
16CD
100
AcDbEntity
  8
0
 62
     0
370
    -2
100
AcDbBlockReference
  2
_Open30
 10
-160.1045416668985
 20
-796.2032258978077
 30
0.0
 41
2.5
 42
2.5
 43
2.5
  0
INSERT
  5
16D3
330
16CD
100
AcDbEntity
  8
0
 62
     0
370
    -2
100
AcDbBlockReference
  2
_Open30
 10
-170.0430160363884
 20
-796.2032258978077
 30
0.0
 41
2.5
 42
2.5
 43
2.5
 50
180.0
  0
MTEXT
  5
16D4
330
16CD
100
AcDbEntity
  8
0
 62
     4
100
AcDbMText
 10
-165.0737788516435
 20
-793.1282258978077
 30
0.0
 40
3.0
 41
0.0
 71
     5
 72
     1
  1
9.94\H0.7X;\S+0^ -0.02;
 73
     1
 44
1.0
1001
ACAD
1000
MTEXTBEGIN
1070
    73
1070
     1
1070
    44
1040
1.0
1070
    74
1070
     0
1000
MTEXTEND
  0
POINT
  5
16D5
330
16CD
100
AcDbEntity
  8
Defpoints
 62
     0
100
AcDbPoint
 10
-160.1045416668985
 20
-802.5997593757455
 30
0.0
  0
POINT
  5
16D6
330
16CD
100
AcDbEntity
  8
Defpoints
 62
     0
100
AcDbPoint
 10
-170.0430160363884
 20
-802.5997593757455
 30
0.0
  0
POINT
  5
16D7
330
16CD
100
AcDbEntity
  8
Defpoints
 62
     0
100
AcDbPoint
 10
-170.0430160363884
 20
-796.2032258978077
 30
0.0
  0
ENDBLK
  5
16D8
330
16CD
100
AcDbEntity
  8
0
100
AcDbBlockEnd
  0
BLOCK
  5
1859
330
1858
100
AcDbEntity
  8
0
100
AcDbBlockBegin
  2
*D18
 70
     1
 10
0.0
 20
0.0
 30
0.0
  3
*D18
  1

  0
LINE
  5
18E2
330
1858
100
AcDbEntity
  8
0
 62
     0
370
    -2
100
AcDbLine
 10
386.0370243172054
 20
109.2209822403458
 30
0.0
 11
386.0370243172054
 21
106.311350818337
 31
0.0
  0
LINE
  5
18E3
330
1858
100
AcDbEntity
  8
0
 62
     0
370
    -2
100
AcDbLine
 10
383.5798372630851
 20
109.2209822403458
 30
0.0
 11
383.5798372630851
 21
106.311350818337
 31
0.0
  0
LINE
  5
18E4
330
1858
100
AcDbEntity
  8
0
 62
     0
370
    -2
100
AcDbLine
 10
388.5370243172054
 20
107.561350818337
 30
0.0
 11
391.0370243172053
 21
107.561350818337
 31
0.0
  0
LINE
  5
18E5
330
1858
100
AcDbEntity
  8
0
 62
     0
370
    -2
100
AcDbLine
 10
381.0798372630851
 20
107.561350818337
 30
0.0
 11
368.3298372630851
 21
107.561350818337
 31
0.0
  0
LINE
  5
18E6
330
1858
100
AcDbEntity
  8
0
 62
     0
370
    -2
100
AcDbLine
 10
386.0370243172054
 20
107.561350818337
 30
0.0
 11
383.5798372630851
 21
107.561350818337
 31
0.0
  0
INSERT
  5
18E7
330
1858
100
AcDbEntity
  8
0
 62
     0
370
    -2
100
AcDbBlockReference
  2
_Open30
 10
386.0370243172054
 20
107.561350818337
 30
0.0
 41
2.5
 42
2.5
 43
2.5
 50
180.0
  0
INSERT
  5
18E8
330
1858
100
AcDbEntity
  8
0
 62
     0
370
    -2
100
AcDbBlockReference
  2
_Open30
 10
383.5798372630851
 20
107.561350818337
 30
0.0
 41
2.5
 42
2.5
 43
2.5
  0
MTEXT
  5
18E9
330
1858
100
AcDbEntity
  8
0
 62
     4
100
AcDbMText
 10
373.4548372630851
 20
109.686350818337
 30
0.0
 40
3.0
 41
0.0
 71
     5
 72
     1
  1
2.46
 73
     1
 44
1.0
1001
ACAD
1000
MTEXTBEGIN
1070
    73
1070
     1
1070
    44
1040
1.0
1070
    74
1070
     0
1000
MTEXTEND
  0
POINT
  5
18EA
330
1858
100
AcDbEntity
  8
Defpoints
 62
     0
100
AcDbPoint
 10
386.0370243172054
 20
109.4709822403458
 30
0.0
  0
POINT
  5
18EB
330
1858
100
AcDbEntity
  8
Defpoints
 62
     0
100
AcDbPoint
 10
383.5798372630851
 20
109.4709822403458
 30
0.0
  0
POINT
  5
18EC
330
1858
100
AcDbEntity
  8
Defpoints
 62
     0
100
AcDbPoint
 10
383.5798372630851
 20
107.561350818337
 30
0.0
  0
ENDBLK
  5
185A
330
1858
100
AcDbEntity
  8
0
100
AcDbBlockEnd
  0
BLOCK
  5
1867
330
1866
100
AcDbEntity
  8
0
100
AcDbBlockBegin
  2
*D19
 70
     1
 10
0.0
 20
0.0
 30
0.0
  3
*D19
  1

  0
LINE
  5
18ED
330
1866
100
AcDbEntity
  8
0
 62
     0
370
    -2
100
AcDbLine
 10
387.6751492232786
 20
103.7648926675834
 30
0.0
 11
387.6751492232786
 21
101.2190005981201
 31
0.0
  0
LINE
  5
18EE
330
1866
100
AcDbEntity
  8
0
 62
     0
370
    -2
100
AcDbLine
 10
384.5809134251356
 20
103.7648926675834
 30
0.0
 11
384.5809134251356
 21
101.2190005981201
 31
0.0
  0
LINE
  5
18EF
330
1866
100
AcDbEntity
  8
0
 62
     0
370
    -2
100
AcDbLine
 10
390.1751492232786
 20
102.4690005981201
 30
0.0
 11
392.6751492232786
 21
102.4690005981201
 31
0.0
  0
LINE
  5
18F0
330
1866
100
AcDbEntity
  8
0
 62
     0
370
    -2
100
AcDbLine
 10
382.0809134251356
 20
102.4690005981201
 30
0.0
 11
368.2475800918023
 21
102.4690005981201
 31
0.0
  0
LINE
  5
18F1
330
1866
100
AcDbEntity
  8
0
 62
     0
370
    -2
100
AcDbLine
 10
387.6751492232786
 20
102.4690005981201
 30
0.0
 11
384.5809134251356
 21
102.4690005981201
 31
0.0
  0
INSERT
  5
18F2
330
1866
100
AcDbEntity
  8
0
 62
     0
370
    -2
100
AcDbBlockReference
  2
_Open30
 10
387.6751492232786
 20
102.4690005981201
 30
0.0
 41
2.5
 42
2.5
 43
2.5
 50
180.0
  0
INSERT
  5
18F3
330
1866
100
AcDbEntity
  8
0
 62
     0
370
    -2
100
AcDbBlockReference
  2
_Open30
 10
384.5809134251356
 20
102.4690005981201
 30
0.0
 41
2.5
 42
2.5
 43
2.5
  0
MTEXT
  5
18F4
330
1866
100
AcDbEntity
  8
0
 62
     4
100
AcDbMText
 10
373.4559134251356
 20
104.3440005981201
 30
0.0
 40
2.5
 41
0.0
 71
     5
 72
     1
  1
15.47
  7
高2.5
 73
     1
 44
1.0
1001
ACAD
1000
MTEXTBEGIN
1070
    73
1070
     1
1070
    44
1040
1.0
1070
    74
1070
     0
1000
MTEXTEND
  0
POINT
  5
18F5
330
1866
100
AcDbEntity
  8
Defpoints
 62
     0
100
AcDbPoint
 10
387.6751492232786
 20
104.0148926675834
 30
0.0
  0
POINT
  5
18F6
330
1866
100
AcDbEntity
  8
Defpoints
 62
     0
100
AcDbPoint
 10
384.5809134251356
 20
104.0148926675834
 30
0.0
  0
POINT
  5
18F7
330
1866
100
AcDbEntity
  8
Defpoints
 62
     0
100
AcDbPoint
 10
384.5809134251356
 20
102.4690005981201
 30
0.0
  0
ENDBLK
  5
1868
330
1866
100
AcDbEntity
  8
0
100
AcDbBlockEnd
  0
BLOCK
  5
1875
330
1874
100
AcDbEntity
  8
0
100
AcDbBlockBegin
  2
*D20
 70
     1
 10
0.0
 20
0.0
 30
0.0
  3
*D20
  1

  0
LINE
  5
18F8
330
1874
100
AcDbEntity
  8
0
 62
     0
370
    -2
100
AcDbLine
 10
389.4042808313642
 20
98.30880295173701
 30
0.0
 11
389.4042808313642
 21
96.03571528936972
 31
0.0
  0
LINE
  5
18F9
330
1874
100
AcDbEntity
  8
0
 62
     0
370
    -2
100
AcDbLine
 10
385.3999758781723
 20
98.30880295173701
 30
0.0
 11
385.3999758781723
 21
96.03571528936972
 31
0.0
  0
LINE
  5
18FA
330
1874
100
AcDbEntity
  8
0
 62
     0
370
    -2
100
AcDbLine
 10
391.9042808313641
 20
97.28571528936972
 30
0.0
 11
394.4042808313641
 21
97.28571528936972
 31
0.0
  0
LINE
  5
18FB
330
1874
100
AcDbEntity
  8
0
 62
     0
370
    -2
100
AcDbLine
 10
382.8999758781723
 20
97.28571528936972
 30
0.0
 11
371.1499758781723
 21
97.28571528936972
 31
0.0
  0
LINE
  5
18FC
330
1874
100
AcDbEntity
  8
0
 62
     0
370
    -2
100
AcDbLine
 10
389.4042808313642
 20
97.28571528936972
 30
0.0
 11
385.3999758781723
 21
97.28571528936972
 31
0.0
  0
INSERT
  5
18FD
330
1874
100
AcDbEntity
  8
0
 62
     0
370
    -2
100
AcDbBlockReference
  2
_Open30
 10
389.4042808313642
 20
97.28571528936972
 30
0.0
 41
2.5
 42
2.5
 43
2.5
 50
180.0
  0
INSERT
  5
18FE
330
1874
100
AcDbEntity
  8
0
 62
     0
370
    -2
100
AcDbBlockReference
  2
_Open30
 10
385.3999758781723
 20
97.28571528936972
 30
0.0
 41
2.5
 42
2.5
 43
2.5
  0
MTEXT
  5
18FF
330
1874
100
AcDbEntity
  8
0
 62
     4
100
AcDbMText
 10
375.7749758781723
 20
99.51071528936971
 30
0.0
 40
3.2
 41
0.0
 71
     5
 72
     1
  1
8.01
  7
高3.2
 73
     1
 44
1.0
1001
ACAD
1000
MTEXTBEGIN
1070
    73
1070
     1
1070
    44
1040
1.0
1070
    74
1070
     0
1000
MTEXTEND
  0
POINT
  5
1900
330
1874
100
AcDbEntity
  8
Defpoints
 62
     0
100
AcDbPoint
 10
389.4042808313642
 20
98.55880295173701
 30
0.0
  0
POINT
  5
1901
330
1874
100
AcDbEntity
  8
Defpoints
 62
     0
100
AcDbPoint
 10
385.3999758781723
 20
98.55880295173701
 30
0.0
  0
POINT
  5
1902
330
1874
100
AcDbEntity
  8
Defpoints
 62
     0
100
AcDbPoint
 10
385.3999758781723
 20
97.28571528936972
 30
0.0
  0
ENDBLK
  5
1876
330
1874
100
AcDbEntity
  8
0
100
AcDbBlockEnd
  0
BLOCK
  5
1883
330
1882
100
AcDbEntity
  8
0
100
AcDbBlockBegin
  2
*D21
 70
     1
 10
0.0
 20
0.0
 30
0.0
  3
*D21
  1

  0
LINE
  5
1903
330
1882
100
AcDbEntity
  8
0
 62
     0
370
    -2
100
AcDbLine
 10
389.3132741293518
 20
93.03458298370536
 30
0.0
 11
389.3132741293518
 21
91.21616947624898
 31
0.0
  0
LINE
  5
1904
330
1882
100
AcDbEntity
  8
0
 62
     0
370
    -2
100
AcDbLine
 10
384.5809134251356
 20
93.03458298370536
 30
0.0
 11
384.5809134251356
 21
91.21616947624898
 31
0.0
  0
LINE
  5
1905
330
1882
100
AcDbEntity
  8
0
 62
     0
370
    -2
100
AcDbLine
 10
391.8132741293518
 20
92.46616947624898
 30
0.0
 11
394.3132741293518
 21
92.46616947624898
 31
0.0
  0
LINE
  5
1906
330
1882
100
AcDbEntity
  8
0
 62
     0
370
    -2
100
AcDbLine
 10
382.0809134251356
 20
92.46616947624898
 30
0.0
 11
360.3309134251357
 21
92.46616947624898
 31
0.0
  0
LINE
  5
1907
330
1882
100
AcDbEntity
  8
0
 62
     0
370
    -2
100
AcDbLine
 10
389.3132741293518
 20
92.46616947624898
 30
0.0
 11
384.5809134251356
 21
92.46616947624898
 31
0.0
  0
INSERT
  5
1908
330
1882
100
AcDbEntity
  8
0
 62
     0
370
    -2
100
AcDbBlockReference
  2
_Open30
 10
389.3132741293518
 20
92.46616947624898
 30
0.0
 41
2.5
 42
2.5
 43
2.5
 50
180.0
  0
INSERT
  5
1909
330
1882
100
AcDbEntity
  8
0
 62
     0
370
    -2
100
AcDbBlockReference
  2
_Open30
 10
384.5809134251356
 20
92.46616947624898
 30
0.0
 41
2.5
 42
2.5
 43
2.5
  0
MTEXT
  5
190A
330
1882
100
AcDbEntity
  8
0
 62
     4
100
AcDbMText
 10
369.9559134251356
 20
95.341169476249
 30
0.0
 40
4.5
 41
0.0
 71
     5
 72
     1
  1
47.32
  7
高4.5
 73
     1
 44
1.0
1001
ACAD
1000
MTEXTBEGIN
1070
    73
1070
     1
1070
    44
1040
1.0
1070
    74
1070
     0
1000
MTEXTEND
  0
POINT
  5
190B
330
1882
100
AcDbEntity
  8
Defpoints
 62
     0
100
AcDbPoint
 10
389.3132741293518
 20
93.28458298370536
 30
0.0
  0
POINT
  5
190C
330
1882
100
AcDbEntity
  8
Defpoints
 62
     0
100
AcDbPoint
 10
384.5809134251356
 20
93.28458298370536
 30
0.0
  0
POINT
  5
190D
330
1882
100
AcDbEntity
  8
Defpoints
 62
     0
100
AcDbPoint
 10
384.5809134251356
 20
92.46616947624898
 30
0.0
  0
ENDBLK
  5
1884
330
1882
100
AcDbEntity
  8
0
100
AcDbBlockEnd
  0
BLOCK
  5
1891
330
1890
100
AcDbEntity
  8
0
100
AcDbBlockBegin
  2
*D22
 70
     1
 10
0.0
 20
0.0
 30
0.0
  3
*D22
  1

  0
LINE
  5
190E
330
1890
100
AcDbEntity
  8
0
 62
     0
370
    -2
100
AcDbLine
 10
410.7909103973591
 20
109.2209822403458
 30
0.0
 11
410.7909103973591
 21
106.311350818337
 31
0.0
  0
LINE
  5
190F
330
1890
100
AcDbEntity
  8
0
 62
     0
370
    -2
100
AcDbLine
 10
408.3337233432389
 20
109.2209822403458
 30
0.0
 11
408.3337233432389
 21
106.311350818337
 31
0.0
  0
LINE
  5
1910
330
1890
100
AcDbEntity
  8
0
 62
     0
370
    -2
100
AcDbLine
 10
413.2909103973593
 20
107.561350818337
 30
0.0
 11
415.7909103973591
 21
107.561350818337
 31
0.0
  0
LINE
  5
1911
330
1890
100
AcDbEntity
  8
0
 62
     0
370
    -2
100
AcDbLine
 10
405.8337233432387
 20
107.561350818337
 30
0.0
 11
384.233723343239
 21
107.561350818337
 31
0.0
  0
LINE
  5
1912
330
1890
100
AcDbEntity
  8
0
 62
     0
370
    -2
100
AcDbLine
 10
410.7909103973591
 20
107.561350818337
 30
0.0
 11
408.3337233432389
 21
107.561350818337
 31
0.0
  0
INSERT
  5
1913
330
1890
100
AcDbEntity
  8
0
 62
     0
370
    -2
100
AcDbBlockReference
  2
_Open30
 10
410.7909103973591
 20
107.561350818337
 30
0.0
 41
2.5
 42
2.5
 43
2.5
 50
180.0
  0
INSERT
  5
1914
330
1890
100
AcDbEntity
  8
0
 62
     0
370
    -2
100
AcDbBlockReference
  2
_Open30
 10
408.3337233432389
 20
107.561350818337
 30
0.0
 41
2.5
 42
2.5
 43
2.5
  0
MTEXT
  5
1915
330
1890
100
AcDbEntity
  8
0
 62
     4
100
AcDbMText
 10
393.7837233432389
 20
111.336350818337
 30
0.0
 40
6.299999999999998
 41
0.0
 71
     5
 72
     1
  1
0.25
  7
高6.3
 73
     1
 44
1.0
1001
ACAD
1000
MTEXTBEGIN
1070
    73
1070
     1
1070
    44
1040
1.0
1070
    74
1070
     0
1000
MTEXTEND
  0
POINT
  5
1916
330
1890
100
AcDbEntity
  8
Defpoints
 62
     0
100
AcDbPoint
 10
410.7909103973591
 20
109.4709822403458
 30
0.0
  0
POINT
  5
1917
330
1890
100
AcDbEntity
  8
Defpoints
 62
     0
100
AcDbPoint
 10
408.3337233432389
 20
109.4709822403458
 30
0.0
  0
POINT
  5
1918
330
1890
100
AcDbEntity
  8
Defpoints
 62
     0
100
AcDbPoint
 10
408.3337233432389
 20
107.561350818337
 30
0.0
  0
ENDBLK
  5
1892
330
1890
100
AcDbEntity
  8
0
100
AcDbBlockEnd
  0
BLOCK
  5
189F
330
189E
100
AcDbEntity
  8
0
100
AcDbBlockBegin
  2
*D23
 70
     1
 10
0.0
 20
0.0
 30
0.0
  3
*D23
  1

  0
LINE
  5
1919
330
189E
100
AcDbEntity
  8
0
 62
     0
370
    -2
100
AcDbLine
 10
412.4290353034323
 20
103.7648926675834
 30
0.0
 11
412.4290353034323
 21
101.2190005981201
 31
0.0
  0
LINE
  5
191A
330
189E
100
AcDbEntity
  8
0
 62
     0
370
    -2
100
AcDbLine
 10
409.3347995052895
 20
103.7648926675834
 30
0.0
 11
409.3347995052895
 21
101.2190005981201
 31
0.0
  0
LINE
  5
191B
330
189E
100
AcDbEntity
  8
0
 62
     0
370
    -2
100
AcDbLine
 10
414.9290353034324
 20
102.4690005981201
 30
0.0
 11
417.4290353034323
 21
102.4690005981201
 31
0.0
  0
LINE
  5
191C
330
189E
100
AcDbEntity
  8
0
 62
     0
370
    -2
100
AcDbLine
 10
406.8347995052895
 20
102.4690005981201
 30
0.0
 11
394.8347995052896
 21
102.4690005981201
 31
0.0
  0
LINE
  5
191D
330
189E
100
AcDbEntity
  8
0
 62
     0
370
    -2
100
AcDbLine
 10
412.4290353034323
 20
102.4690005981201
 30
0.0
 11
409.3347995052895
 21
102.4690005981201
 31
0.0
  0
INSERT
  5
191E
330
189E
100
AcDbEntity
  8
0
 62
     0
370
    -2
100
AcDbBlockReference
  2
_Open30
 10
412.4290353034323
 20
102.4690005981201
 30
0.0
 41
2.5
 42
2.5
 43
2.5
 50
180.0
  0
INSERT
  5
191F
330
189E
100
AcDbEntity
  8
0
 62
     0
370
    -2
100
AcDbBlockReference
  2
_Open30
 10
409.3347995052895
 20
102.4690005981201
 30
0.0
 41
2.5
 42
2.5
 43
2.5
  0
MTEXT
  5
1920
330
189E
100
AcDbEntity
  8
0
 62
     4
100
AcDbMText
 10
399.4597995052895
 20
104.5940005981201
 30
0.0
 40
3.0
 41
0.0
 71
     5
 72
     1
  1
1.55
 73
     1
 44
1.0
1001
ACAD
1000
MTEXTBEGIN
1070
    73
1070
     1
1070
    44
1040
1.0
1070
    74
1070
     0
1000
MTEXTEND
  0
POINT
  5
1921
330
189E
100
AcDbEntity
  8
Defpoints
 62
     0
100
AcDbPoint
 10
412.4290353034323
 20
104.0148926675834
 30
0.0
  0
POINT
  5
1922
330
189E
100
AcDbEntity
  8
Defpoints
 62
     0
100
AcDbPoint
 10
409.3347995052895
 20
104.0148926675834
 30
0.0
  0
POINT
  5
1923
330
189E
100
AcDbEntity
  8
Defpoints
 62
     0
100
AcDbPoint
 10
409.3347995052895
 20
102.4690005981201
 30
0.0
  0
ENDBLK
  5
18A0
330
189E
100
AcDbEntity
  8
0
100
AcDbBlockEnd
  0
BLOCK
  5
18AD
330
18AC
100
AcDbEntity
  8
0
100
AcDbBlockBegin
  2
*D24
 70
     1
 10
0.0
 20
0.0
 30
0.0
  3
*D24
  1

  0
LINE
  5
1924
330
18AC
100
AcDbEntity
  8
0
 62
     0
370
    -2
100
AcDbLine
 10
414.1581669115177
 20
98.30880295173701
 30
0.0
 11
414.1581669115177
 21
96.03571528936972
 31
0.0
  0
LINE
  5
1925
330
18AC
100
AcDbEntity
  8
0
 62
     0
370
    -2
100
AcDbLine
 10
410.153861958326
 20
98.30880295173701
 30
0.0
 11
410.153861958326
 21
96.03571528936972
 31
0.0
  0
LINE
  5
1926
330
18AC
100
AcDbEntity
  8
0
 62
     0
370
    -2
100
AcDbLine
 10
416.6581669115179
 20
97.28571528936972
 30
0.0
 11
419.1581669115178
 21
97.28571528936972
 31
0.0
  0
LINE
  5
1927
330
18AC
100
AcDbEntity
  8
0
 62
     0
370
    -2
100
AcDbLine
 10
407.6538619583261
 20
97.28571528936972
 30
0.0
 11
399.3205286249927
 21
97.28571528936972
 31
0.0
  0
LINE
  5
1928
330
18AC
100
AcDbEntity
  8
0
 62
     0
370
    -2
100
AcDbLine
 10
414.1581669115177
 20
97.28571528936972
 30
0.0
 11
410.153861958326
 21
97.28571528936972
 31
0.0
  0
INSERT
  5
1929
330
18AC
100
AcDbEntity
  8
0
 62
     0
370
    -2
100
AcDbBlockReference
  2
_Open30
 10
414.1581669115177
 20
97.28571528936972
 30
0.0
 41
2.5
 42
2.5
 43
2.5
 50
180.0
  0
INSERT
  5
192A
330
18AC
100
AcDbEntity
  8
0
 62
     0
370
    -2
100
AcDbBlockReference
  2
_Open30
 10
410.153861958326
 20
97.28571528936972
 30
0.0
 41
2.5
 42
2.5
 43
2.5
  0
MTEXT
  5
192B
330
18AC
100
AcDbEntity
  8
0
 62
     4
100
AcDbMText
 10
401.7788619583261
 20
98.91071528936969
 30
0.0
 40
2.0
 41
0.0
 71
     5
 72
     1
  1
0.8
  7
高2
 73
     1
 44
1.0
1001
ACAD
1000
MTEXTBEGIN
1070
    73
1070
     1
1070
    44
1040
1.0
1070
    74
1070
     0
1000
MTEXTEND
  0
POINT
  5
192C
330
18AC
100
AcDbEntity
  8
Defpoints
 62
     0
100
AcDbPoint
 10
414.1581669115177
 20
98.55880295173701
 30
0.0
  0
POINT
  5
192D
330
18AC
100
AcDbEntity
  8
Defpoints
 62
     0
100
AcDbPoint
 10
410.153861958326
 20
98.55880295173701
 30
0.0
  0
POINT
  5
192E
330
18AC
100
AcDbEntity
  8
Defpoints
 62
     0
100
AcDbPoint
 10
410.153861958326
 20
97.28571528936972
 30
0.0
  0
ENDBLK
  5
18AE
330
18AC
100
AcDbEntity
  8
0
100
AcDbBlockEnd
  0
BLOCK
  5
18BB
330
18BA
100
AcDbEntity
  8
0
100
AcDbBlockBegin
  2
*D25
 70
     1
 10
0.0
 20
0.0
 30
0.0
  3
*D25
  1

  0
LINE
  5
192F
330
18BA
100
AcDbEntity
  8
0
 62
     0
370
    -2
100
AcDbLine
 10
414.0671602095056
 20
93.03458298370536
 30
0.0
 11
414.0671602095056
 21
91.21616947624898
 31
0.0
  0
LINE
  5
1930
330
18BA
100
AcDbEntity
  8
0
 62
     0
370
    -2
100
AcDbLine
 10
409.3347995052895
 20
93.03458298370536
 30
0.0
 11
409.3347995052895
 21
91.21616947624898
 31
0.0
  0
LINE
  5
1931
330
18BA
100
AcDbEntity
  8
0
 62
     0
370
    -2
100
AcDbLine
 10
416.5671602095056
 20
92.46616947624898
 30
0.0
 11
419.0671602095056
 21
92.46616947624898
 31
0.0
  0
LINE
  5
1932
330
18BA
100
AcDbEntity
  8
0
 62
     0
370
    -2
100
AcDbLine
 10
406.8347995052895
 20
92.46616947624898
 30
0.0
 11
392.0847995052895
 21
92.46616947624898
 31
0.0
  0
LINE
  5
1933
330
18BA
100
AcDbEntity
  8
0
 62
     0
370
    -2
100
AcDbLine
 10
414.0671602095056
 20
92.46616947624898
 30
0.0
 11
409.3347995052895
 21
92.46616947624898
 31
0.0
  0
INSERT
  5
1934
330
18BA
100
AcDbEntity
  8
0
 62
     0
370
    -2
100
AcDbBlockReference
  2
_Open30
 10
414.0671602095056
 20
92.46616947624898
 30
0.0
 41
2.5
 42
2.5
 43
2.5
 50
180.0
  0
INSERT
  5
1935
330
18BA
100
AcDbEntity
  8
0
 62
     0
370
    -2
100
AcDbBlockReference
  2
_Open30
 10
409.3347995052895
 20
92.46616947624898
 30
0.0
 41
2.5
 42
2.5
 43
2.5
  0
MTEXT
  5
1936
330
18BA
100
AcDbEntity
  8
0
 62
     4
100
AcDbMText
 10
398.2097995052896
 20
94.59116947624895
 30
0.0
 40
3.0
 41
0.0
 71
     5
 72
     1
  1
18.93
 73
     1
 44
1.0
1001
ACAD
1000
MTEXTBEGIN
1070
    73
1070
     1
1070
    44
1040
1.0
1070
    74
1070
     0
1000
MTEXTEND
  0
POINT
  5
1937
330
18BA
100
AcDbEntity
  8
Defpoints
 62
     0
100
AcDbPoint
 10
414.0671602095056
 20
93.28458298370536
 30
0.0
  0
POINT
  5
1938
330
18BA
100
AcDbEntity
  8
Defpoints
 62
     0
100
AcDbPoint
 10
409.3347995052895
 20
93.28458298370536
 30
0.0
  0
POINT
  5
1939
330
18BA
100
AcDbEntity
  8
Defpoints
 62
     0
100
AcDbPoint
 10
409.3347995052895
 20
92.46616947624898
 30
0.0
  0
ENDBLK
  5
18BC
330
18BA
100
AcDbEntity
  8
0
100
AcDbBlockEnd
  0
BLOCK
  5
18C9
330
18C8
100
AcDbEntity
  8
0
100
AcDbBlockBegin
  2
*D26
 70
     1
 10
0.0
 20
0.0
 30
0.0
  3
*D26
  1

  0
LINE
  5
193A
330
18C8
100
AcDbEntity
  8
0
 62
     0
370
    -2
100
AcDbLine
 10
411.2627333583673
 20
87.9787427771156
 30
0.0
 11
411.2627333583673
 21
85.66882170024006
 31
0.0
  0
LINE
  5
193B
330
18C8
100
AcDbEntity
  8
0
 62
     0
370
    -2
100
AcDbLine
 10
406.6740581562194
 20
87.9787427771156
 30
0.0
 11
406.6740581562194
 21
85.66882170024006
 31
0.0
  0
LINE
  5
193C
330
18C8
100
AcDbEntity
  8
0
 62
     0
370
    -2
100
AcDbLine
 10
413.7627333583671
 20
86.91882170024006
 30
0.0
 11
416.2627333583673
 21
86.91882170024006
 31
0.0
  0
LINE
  5
193D
330
18C8
100
AcDbEntity
  8
0
 62
     0
370
    -2
100
AcDbLine
 10
404.1740581562192
 20
86.91882170024006
 30
0.0
 11
389.4240581562194
 21
86.91882170024006
 31
0.0
  0
LINE
  5
193E
330
18C8
100
AcDbEntity
  8
0
 62
     0
370
    -2
100
AcDbLine
 10
411.2627333583673
 20
86.91882170024006
 30
0.0
 11
406.6740581562194
 21
86.91882170024006
 31
0.0
  0
INSERT
  5
193F
330
18C8
100
AcDbEntity
  8
0
 62
     0
370
    -2
100
AcDbBlockReference
  2
_Open30
 10
411.2627333583673
 20
86.91882170024006
 30
0.0
 41
2.5
 42
2.5
 43
2.5
 50
180.0
  0
INSERT
  5
1940
330
18C8
100
AcDbEntity
  8
0
 62
     0
370
    -2
100
AcDbBlockReference
  2
_Open30
 10
406.6740581562194
 20
86.91882170024006
 30
0.0
 41
2.5
 42
2.5
 43
2.5
  0
MTEXT
  5
1941
330
18C8
100
AcDbEntity
  8
0
 62
     4
100
AcDbMText
 10
395.5490581562194
 20
89.04382170024005
 30
0.0
 40
3.0
 41
0.0
 71
     5
 72
     1
  1
13.77
 73
     1
 44
1.0
1001
ACAD
1000
MTEXTBEGIN
1070
    73
1070
     1
1070
    44
1040
1.0
1070
    74
1070
     0
1000
MTEXTEND
  0
POINT
  5
1942
330
18C8
100
AcDbEntity
  8
Defpoints
 62
     0
100
AcDbPoint
 10
411.2627333583673
 20
88.2287427771156
 30
0.0
  0
POINT
  5
1943
330
18C8
100
AcDbEntity
  8
Defpoints
 62
     0
100
AcDbPoint
 10
406.6740581562194
 20
88.2287427771156
 30
0.0
  0
POINT
  5
1944
330
18C8
100
AcDbEntity
  8
Defpoints
 62
     0
100
AcDbPoint
 10
406.6740581562194
 20
86.91882170024006
 30
0.0
  0
ENDBLK
  5
18CA
330
18C8
100
AcDbEntity
  8
0
100
AcDbBlockEnd
  0
BLOCK
  5
18D7
330
18D6
100
AcDbEntity
  8
0
100
AcDbBlockBegin
  2
*D27
 70
     1
 10
0.0
 20
0.0
 30
0.0
  3
*D27
  1

  0
LINE
  5
1945
330
18D6
100
AcDbEntity
  8
0
 62
     0
370
    -2
100
AcDbLine
 10
404.1664505252169
 20
118.9082340953899
 30
0.0
 11
404.1664505252169
 21
126.3047675733277
 31
0.0
  0
LINE
  5
1946
330
18D6
100
AcDbEntity
  8
0
 62
     0
370
    -2
100
AcDbLine
 10
394.227976155727
 20
118.9082340953899
 30
0.0
 11
394.227976155727
 21
126.3047675733277
 31
0.0
  0
LINE
  5
1947
330
18D6
100
AcDbEntity
  8
0
 62
     0
370
    -2
100
AcDbLine
 10
401.666450525217
 20
125.0547675733277
 30
0.0
 11
396.727976155727
 21
125.0547675733277
 31
0.0
  0
INSERT
  5
1948
330
18D6
100
AcDbEntity
  8
0
 62
     0
370
    -2
100
AcDbBlockReference
  2
_Open30
 10
404.1664505252169
 20
125.0547675733277
 30
0.0
 41
2.5
 42
2.5
 43
2.5
  0
INSERT
  5
1949
330
18D6
100
AcDbEntity
  8
0
 62
     0
370
    -2
100
AcDbBlockReference
  2
_Open30
 10
394.227976155727
 20
125.0547675733277
 30
0.0
 41
2.5
 42
2.5
 43
2.5
 50
180.0
  0
MTEXT
  5
194A
330
18D6
100
AcDbEntity
  8
0
 62
     4
100
AcDbMText
 10
399.1972133404721
 20
128.1297675733277
 30
0.0
 40
3.0
 41
0.0
 71
     5
 72
     1
  1
9.94\H0.7X;\S+0^ -0.02;
 73
     1
 44
1.0
1001
ACAD
1000
MTEXTBEGIN
1070
    73
1070
     1
1070
    44
1040
1.0
1070
    74
1070
     0
1000
MTEXTEND
  0
POINT
  5
194B
330
18D6
100
AcDbEntity
  8
Defpoints
 62
     0
100
AcDbPoint
 10
404.1664505252169
 20
118.6582340953899
 30
0.0
  0
POINT
  5
194C
330
18D6
100
AcDbEntity
  8
Defpoints
 62
     0
100
AcDbPoint
 10
394.227976155727
 20
118.6582340953899
 30
0.0
  0
POINT
  5
194D
330
18D6
100
AcDbEntity
  8
Defpoints
 62
     0
100
AcDbPoint
 10
394.227976155727
 20
125.0547675733277
 30
0.0
  0
ENDBLK
  5
18D8
330
18D6
100
AcDbEntity
  8
0
100
AcDbBlockEnd
  0
BLOCK
  5
1DB2
330
1DB1
100
AcDbEntity
  8
0
100
AcDbBlockBegin
  2
*D28
 70
     1
 10
0.0
 20
0.0
 30
0.0
  3
*D28
  1

  0
LINE
  5
1DBD
330
1DB1
100
AcDbEntity
  8
0
  6
Continuous
 62
     0
370
    -2
100
AcDbLine
 10
774.8587182142096
 20
-233.2051299164104
 30
0.0
 11
774.8587182142096
 21
-226.8421201258222
 31
0.0
  0
LINE
  5
1DBE
330
1DB1
100
AcDbEntity
  8
0
  6
Continuous
 62
     0
370
    -2
100
AcDbLine
 10
785.3587182142096
 20
-236.4551299164105
 30
0.0
 11
785.3587182142096
 21
-226.8421201258222
 31
0.0
  0
LINE
  5
1DBF
330
1DB1
100
AcDbEntity
  8
0
  6
Continuous
 62
     0
370
    -2
100
AcDbLine
 10
777.3587182142096
 20
-228.0921201258223
 30
0.0
 11
782.8587182142094
 21
-228.0921201258223
 31
0.0
  0
INSERT
  5
1DC0
330
1DB1
100
AcDbEntity
  8
0
  6
Continuous
 62
     0
370
    -2
100
AcDbBlockReference
  2
_Open30
 10
774.8587182142096
 20
-228.0921201258223
 30
0.0
 41
2.5
 42
2.5
 43
2.5
 50
180.0
  0
INSERT
  5
1DC1
330
1DB1
100
AcDbEntity
  8
0
  6
Continuous
 62
     0
370
    -2
100
AcDbBlockReference
  2
_Open30
 10
785.3587182142096
 20
-228.0921201258223
 30
0.0
 41
2.5
 42
2.5
 43
2.5
  0
MTEXT
  5
1DC2
330
1DB1
100
AcDbEntity
  8
0
  6
Continuous
 62
     4
100
AcDbMText
 10
779.5429574260952
 20
-225.9671201258222
 30
0.0
 40
3.0
 41
0.0
 71
     5
 72
     1
  1
10.5
 73
     1
 44
1.0
1001
ACAD
1000
MTEXTBEGIN
1070
    73
1070
     1
1070
    44
1040
1.0
1070
    74
1070
     0
1000
MTEXTEND
  0
POINT
  5
1DC3
330
1DB1
100
AcDbEntity
  8
Defpoints
  6
Continuous
 62
     0
100
AcDbPoint
 10
774.8587182142096
 20
-233.4551299164104
 30
0.0
  0
POINT
  5
1DC4
330
1DB1
100
AcDbEntity
  8
Defpoints
  6
Continuous
 62
     0
100
AcDbPoint
 10
785.3587182142096
 20
-236.7051299164105
 30
0.0
  0
POINT
  5
1DC5
330
1DB1
100
AcDbEntity
  8
Defpoints
  6
Continuous
 62
     0
100
AcDbPoint
 10
785.3587182142096
 20
-228.0921201258223
 30
0.0
  0
ENDBLK
  5
1DB3
330
1DB1
100
AcDbEntity
  8
0
100
AcDbBlockEnd
  0
BLOCK
  5
1F2B
330
1F2A
100
AcDbEntity
  8
0
100
AcDbBlockBegin
  2
*D29
 70
     1
 10
0.0
 20
0.0
 30
0.0
  3
*D29
  1

  0
LINE
  5
331A
330
1F2A
100
AcDbEntity
  8
0
  6
Continuous
 62
     0
370
    -2
100
AcDbLine
 10
68.43765139121669
 20
79.62644588498611
 30
0.0
 11
48.21436893811323
 21
79.62644588498611
 31
0.0
  0
LINE
  5
331B
330
1F2A
100
AcDbEntity
  8
0
  6
Continuous
 62
     0
370
    -2
100
AcDbLine
 10
68.43765139121659
 20
65.8264458849861
 30
0.0
 11
48.21436893811323
 21
65.8264458849861
 31
0.0
  0
LINE
  5
331C
330
1F2A
100
AcDbEntity
  8
0
  6
Continuous
 62
     0
370
    -2
100
AcDbLine
 10
49.46436893811323
 20
63.3264458849861
 30
0.0
 11
49.46436893811323
 21
60.8264458849861
 31
0.0
  0
LINE
  5
331D
330
1F2A
100
AcDbEntity
  8
0
  6
Continuous
 62
     0
370
    -2
100
AcDbLine
 10
49.46436893811323
 20
82.1264458849861
 30
0.0
 11
49.46436893811323
 21
97.87644588498613
 31
0.0
  0
LINE
  5
331E
330
1F2A
100
AcDbEntity
  8
0
  6
Continuous
 62
     0
370
    -2
100
AcDbLine
 10
49.46436893811323
 20
65.8264458849861
 30
0.0
 11
49.46436893811323
 21
79.62644588498611
 31
0.0
  0
INSERT
  5
331F
330
1F2A
100
AcDbEntity
  8
0
  6
Continuous
 62
     0
370
    -2
100
AcDbBlockReference
  2
_Open30
 10
49.46436893811323
 20
65.8264458849861
 30
0.0
 41
2.5
 42
2.5
 43
2.5
 50
90.0
  0
INSERT
  5
3320
330
1F2A
100
AcDbEntity
  8
0
  6
Continuous
 62
     0
370
    -2
100
AcDbBlockReference
  2
_Open30
 10
49.46436893811323
 20
79.62644588498611
 30
0.0
 41
2.5
 42
2.5
 43
2.5
 50
270.0
  0
MTEXT
  5
3321
330
1F2A
100
AcDbEntity
  8
0
  6
Continuous
 62
     4
100
AcDbMText
 10
47.33936893811322
 20
91.25144588498613
 30
0.0
 40
3.0
 41
0.0
 71
     5
 72
     1
  1
%%C27.6
 11
0.0000000000000001
 21
1.0
 31
0.0
 73
     1
 44
1.0
1001
ACAD
1000
MTEXTBEGIN
1070
    73
1070
     1
1070
    44
1040
1.0
1070
    74
1070
     0
1000
MTEXTEND
  0
POINT
  5
3322
330
1F2A
100
AcDbEntity
  8
Defpoints
  6
Continuous
 62
     0
100
AcDbPoint
 10
68.68765139121669
 20
79.62644588498611
 30
0.0
  0
POINT
  5
3323
330
1F2A
100
AcDbEntity
  8
Defpoints
  6
Continuous
 62
     0
100
AcDbPoint
 10
68.68765139121659
 20
65.8264458849861
 30
0.0
  0
POINT
  5
3324
330
1F2A
100
AcDbEntity
  8
Defpoints
  6
Continuous
 62
     0
100
AcDbPoint
 10
49.46436893811323
 20
65.8264458849861
 30
0.0
  0
ENDBLK
  5
1F2C
330
1F2A
100
AcDbEntity
  8
0
100
AcDbBlockEnd
  0
BLOCK
  5
1F38
330
1F37
100
AcDbEntity
  8
0
100
AcDbBlockBegin
  2
*D30
 70
     1
 10
0.0
 20
0.0
 30
0.0
  3
*D30
  1

  0
LINE
  5
2BBE
330
1F37
100
AcDbEntity
  8
0
  6
Continuous
 62
     0
370
    -2
100
AcDbLine
 10
61.43765139121659
 20
71.60144588498609
 30
0.0
 11
61.43765139121659
 21
55.55619906074138
 31
0.0
  0
LINE
  5
2BBF
330
1F37
100
AcDbEntity
  8
0
  6
Continuous
 62
     0
370
    -2
100
AcDbLine
 10
75.93765139121659
 20
71.60144588498609
 30
0.0
 11
75.93765139121659
 21
55.55619906074138
 31
0.0
  0
LINE
  5
2BC0
330
1F37
100
AcDbEntity
  8
0
  6
Continuous
 62
     0
370
    -2
100
AcDbLine
 10
63.93765139121659
 20
56.80619906074138
 30
0.0
 11
73.43765139121659
 21
56.80619906074138
 31
0.0
  0
INSERT
  5
2BC1
330
1F37
100
AcDbEntity
  8
0
  6
Continuous
 62
     0
370
    -2
100
AcDbBlockReference
  2
_Open30
 10
61.43765139121659
 20
56.80619906074138
 30
0.0
 41
2.5
 42
2.5
 43
2.5
 50
180.0
  0
INSERT
  5
2BC2
330
1F37
100
AcDbEntity
  8
0
  6
Continuous
 62
     0
370
    -2
100
AcDbBlockReference
  2
_Open30
 10
75.93765139121659
 20
56.80619906074138
 30
0.0
 41
2.5
 42
2.5
 43
2.5
  0
MTEXT
  5
2BC3
330
1F37
100
AcDbEntity
  8
0
  6
Continuous
 62
     4
100
AcDbMText
 10
68.68765139121659
 20
58.93119906074138
 30
0.0
 40
3.0
 41
0.0
 71
     5
 72
     1
  1
29
 73
     1
 44
1.0
1001
ACAD
1000
MTEXTBEGIN
1070
    73
1070
     1
1070
    44
1040
1.0
1070
    74
1070
     0
1000
MTEXTEND
  0
POINT
  5
2BC4
330
1F37
100
AcDbEntity
  8
Defpoints
  6
Continuous
 62
     0
100
AcDbPoint
 10
61.43765139121659
 20
71.85144588498609
 30
0.0
  0
POINT
  5
2BC5
330
1F37
100
AcDbEntity
  8
Defpoints
  6
Continuous
 62
     0
100
AcDbPoint
 10
75.93765139121659
 20
71.85144588498609
 30
0.0
  0
POINT
  5
2BC6
330
1F37
100
AcDbEntity
  8
Defpoints
  6
Continuous
 62
     0
100
AcDbPoint
 10
75.93765139121659
 20
56.80619906074138
 30
0.0
  0
ENDBLK
  5
1F39
330
1F37
100
AcDbEntity
  8
0
100
AcDbBlockEnd
  0
BLOCK
  5
1F4E
330
1F4D
100
AcDbEntity
  8
0
100
AcDbBlockBegin
  2
*D31
 70
     1
 10
0.0
 20
0.0
 30
0.0
  3
*D31
  1

  0
LINE
  5
3325
330
1F4D
100
AcDbEntity
  8
0
  6
Continuous
 62
     0
370
    -2
100
AcDbLine
 10
68.43765139121659
 20
79.12644588498611
 30
0.0
 11
54.23617730396427
 21
79.12644588498611
 31
0.0
  0
LINE
  5
3326
330
1F4D
100
AcDbEntity
  8
0
  6
Continuous
 62
     0
370
    -2
100
AcDbLine
 10
68.43765139121659
 20
66.3264458849861
 30
0.0
 11
54.23617730396427
 21
66.3264458849861
 31
0.0
  0
LINE
  5
3327
330
1F4D
100
AcDbEntity
  8
0
  6
Continuous
 62
     0
370
    -2
100
AcDbLine
 10
55.48617730396427
 20
63.8264458849861
 30
0.0
 11
55.48617730396427
 21
61.3264458849861
 31
0.0
  0
LINE
  5
3328
330
1F4D
100
AcDbEntity
  8
0
  6
Continuous
 62
     0
370
    -2
100
AcDbLine
 10
55.48617730396428
 20
81.62644588498611
 30
0.0
 11
55.48617730396428
 21
97.37644588498614
 31
0.0
  0
LINE
  5
3329
330
1F4D
100
AcDbEntity
  8
0
  6
Continuous
 62
     0
370
    -2
100
AcDbLine
 10
55.48617730396427
 20
66.3264458849861
 30
0.0
 11
55.48617730396427
 21
79.12644588498611
 31
0.0
  0
INSERT
  5
332A
330
1F4D
100
AcDbEntity
  8
0
  6
Continuous
 62
     0
370
    -2
100
AcDbBlockReference
  2
_Open30
 10
55.48617730396427
 20
66.3264458849861
 30
0.0
 41
2.5
 42
2.5
 43
2.5
 50
90.0
  0
INSERT
  5
332B
330
1F4D
100
AcDbEntity
  8
0
  6
Continuous
 62
     0
370
    -2
100
AcDbBlockReference
  2
_Open30
 10
55.48617730396427
 20
79.12644588498611
 30
0.0
 41
2.5
 42
2.5
 43
2.5
 50
270.0
  0
MTEXT
  5
332C
330
1F4D
100
AcDbEntity
  8
0
  6
Continuous
 62
     4
100
AcDbMText
 10
53.36117730396427
 20
90.75144588498615
 30
0.0
 40
3.0
 41
0.0
 71
     5
 72
     1
  1
%%C25.6
 11
0.0000000000000001
 21
1.0
 31
0.0
 73
     1
 44
1.0
1001
ACAD
1000
MTEXTBEGIN
1070
    73
1070
     1
1070
    44
1040
1.0
1070
    74
1070
     0
1000
MTEXTEND
  0
POINT
  5
332D
330
1F4D
100
AcDbEntity
  8
Defpoints
  6
Continuous
 62
     0
100
AcDbPoint
 10
68.68765139121659
 20
79.12644588498611
 30
0.0
  0
POINT
  5
332E
330
1F4D
100
AcDbEntity
  8
Defpoints
  6
Continuous
 62
     0
100
AcDbPoint
 10
68.68765139121659
 20
66.3264458849861
 30
0.0
  0
POINT
  5
332F
330
1F4D
100
AcDbEntity
  8
Defpoints
  6
Continuous
 62
     0
100
AcDbPoint
 10
55.48617730396427
 20
66.3264458849861
 30
0.0
  0
ENDBLK
  5
1F4F
330
1F4D
100
AcDbEntity
  8
0
100
AcDbBlockEnd
  0
BLOCK
  5
1F6D
330
1F6C
100
AcDbEntity
  8
0
100
AcDbBlockBegin
  2
*D32
 70
     1
 10
0.0
 20
0.0
 30
0.0
  3
*D32
  1

  0
LINE
  5
3330
330
1F6C
100
AcDbEntity
  8
0
  6
Continuous
 62
     0
370
    -2
100
AcDbLine
 10
35.1164283769142
 20
79.37644588498611
 30
0.0
 11
35.1164283769142
 21
98.31633973020712
 31
0.0
  0
LINE
  5
3331
330
1F6C
100
AcDbEntity
  8
0
  6
Continuous
 62
     0
370
    -2
100
AcDbLine
 10
-78.93161670140376
 20
79.37644588498611
 30
0.0
 11
-78.93161670140376
 21
98.31633973020712
 31
0.0
  0
LINE
  5
3332
330
1F6C
100
AcDbEntity
  8
0
  6
Continuous
 62
     0
370
    -2
100
AcDbLine
 10
32.6164283769142
 20
97.06633973020712
 30
0.0
 11
-76.43161670140376
 21
97.06633973020712
 31
0.0
  0
INSERT
  5
3333
330
1F6C
100
AcDbEntity
  8
0
  6
Continuous
 62
     0
370
    -2
100
AcDbBlockReference
  2
_Open30
 10
35.1164283769142
 20
97.06633973020712
 30
0.0
 41
2.5
 42
2.5
 43
2.5
  0
INSERT
  5
3334
330
1F6C
100
AcDbEntity
  8
0
  6
Continuous
 62
     0
370
    -2
100
AcDbBlockReference
  2
_Open30
 10
-78.93161670140376
 20
97.06633973020712
 30
0.0
 41
2.5
 42
2.5
 43
2.5
 50
180.0
  0
MTEXT
  5
3335
330
1F6C
100
AcDbEntity
  8
0
  6
Continuous
 62
     4
100
AcDbMText
 10
-21.90759416224478
 20
99.19133973020713
 30
0.0
 40
3.0
 41
0.0
 71
     5
 72
     1
  1
2367
 73
     1
 44
1.0
1001
ACAD
1000
MTEXTBEGIN
1070
    73
1070
     1
1070
    44
1040
1.0
1070
    74
1070
     0
1000
MTEXTEND
  0
POINT
  5
3336
330
1F6C
100
AcDbEntity
  8
Defpoints
  6
Continuous
 62
     0
100
AcDbPoint
 10
35.1164283769142
 20
79.12644588498611
 30
0.0
  0
POINT
  5
3337
330
1F6C
100
AcDbEntity
  8
Defpoints
  6
Continuous
 62
     0
100
AcDbPoint
 10
-78.93161670140376
 20
79.12644588498611
 30
0.0
  0
POINT
  5
3338
330
1F6C
100
AcDbEntity
  8
Defpoints
  6
Continuous
 62
     0
100
AcDbPoint
 10
-78.93161670140376
 20
97.06633973020712
 30
0.0
  0
ENDBLK
  5
1F6E
330
1F6C
100
AcDbEntity
  8
0
100
AcDbBlockEnd
  0
BLOCK
  5
1F84
330
1F83
100
AcDbEntity
  8
0
100
AcDbBlockBegin
  2
*D33
 70
     1
 10
0.0
 20
0.0
 30
0.0
  3
*D33
  1

  0
LINE
  5
3339
330
1F83
100
AcDbEntity
  8
0
  6
Continuous
 62
     0
370
    -2
100
AcDbLine
 10
38.6164283769142
 20
73.35144588498609
 30
0.0
 11
38.6164283769142
 21
104.3531517358026
 31
0.0
  0
LINE
  5
333A
330
1F83
100
AcDbEntity
  8
0
  6
Continuous
 62
     0
370
    -2
100
AcDbLine
 10
-82.43161670140375
 20
73.35144588498609
 30
0.0
 11
-82.43161670140375
 21
104.3531517358026
 31
0.0
  0
LINE
  5
333B
330
1F83
100
AcDbEntity
  8
0
  6
Continuous
 62
     0
370
    -2
100
AcDbLine
 10
36.1164283769142
 20
103.1031517358026
 30
0.0
 11
-79.93161670140375
 21
103.1031517358026
 31
0.0
  0
INSERT
  5
333C
330
1F83
100
AcDbEntity
  8
0
  6
Continuous
 62
     0
370
    -2
100
AcDbBlockReference
  2
_Open30
 10
38.6164283769142
 20
103.1031517358026
 30
0.0
 41
2.5
 42
2.5
 43
2.5
  0
INSERT
  5
333D
330
1F83
100
AcDbEntity
  8
0
  6
Continuous
 62
     0
370
    -2
100
AcDbBlockReference
  2
_Open30
 10
-82.43161670140375
 20
103.1031517358026
 30
0.0
 41
2.5
 42
2.5
 43
2.5
 50
180.0
  0
MTEXT
  5
333E
330
1F83
100
AcDbEntity
  8
0
  6
Continuous
 62
     4
100
AcDbMText
 10
-21.90759416224478
 20
105.2281517358026
 30
0.0
 40
3.0
 41
0.0
 71
     5
 72
     1
  1
2381
 73
     1
 44
1.0
1001
ACAD
1000
MTEXTBEGIN
1070
    73
1070
     1
1070
    44
1040
1.0
1070
    74
1070
     0
1000
MTEXTEND
  0
POINT
  5
333F
330
1F83
100
AcDbEntity
  8
Defpoints
  6
Continuous
 62
     0
100
AcDbPoint
 10
38.6164283769142
 20
73.10144588498609
 30
0.0
  0
POINT
  5
3340
330
1F83
100
AcDbEntity
  8
Defpoints
  6
Continuous
 62
     0
100
AcDbPoint
 10
-82.43161670140375
 20
73.10144588498609
 30
0.0
  0
POINT
  5
3341
330
1F83
100
AcDbEntity
  8
Defpoints
  6
Continuous
 62
     0
100
AcDbPoint
 10
-82.43161670140375
 20
103.1031517358026
 30
0.0
  0
ENDBLK
  5
1F85
330
1F83
100
AcDbEntity
  8
0
100
AcDbBlockEnd
  0
BLOCK
  5
1FBE
330
1FBD
100
AcDbEntity
  8
0
100
AcDbBlockBegin
  2
*D34
 70
     1
 10
0.0
 20
0.0
 30
0.0
  3
*D34
  1

  0
LINE
  5
3342
330
1FBD
100
AcDbEntity
  8
0
  6
Continuous
 62
     0
370
    -2
100
AcDbLine
 10
-41.35918016248346
 20
79.12644588498611
 30
0.0
 11
-45.18582235712755
 21
79.12644588498611
 31
0.0
  0
LINE
  5
3343
330
1FBD
100
AcDbEntity
  8
0
  6
Continuous
 62
     0
370
    -2
100
AcDbLine
 10
-41.35918016248346
 20
66.3264458849861
 30
0.0
 11
-45.18582235712755
 21
66.3264458849861
 31
0.0
  0
LINE
  5
3344
330
1FBD
100
AcDbEntity
  8
0
  6
Continuous
 62
     0
370
    -2
100
AcDbLine
 10
-43.93582235712755
 20
81.62644588498611
 30
0.0
 11
-43.93582235712755
 21
84.12644588498611
 31
0.0
  0
LINE
  5
3345
330
1FBD
100
AcDbEntity
  8
0
  6
Continuous
 62
     0
370
    -2
100
AcDbLine
 10
-43.93582235712755
 20
63.82644588498609
 30
0.0
 11
-43.93582235712755
 21
48.07644588498609
 31
0.0
  0
LINE
  5
3346
330
1FBD
100
AcDbEntity
  8
0
  6
Continuous
 62
     0
370
    -2
100
AcDbLine
 10
-43.93582235712755
 20
79.12644588498611
 30
0.0
 11
-43.93582235712755
 21
66.3264458849861
 31
0.0
  0
INSERT
  5
3347
330
1FBD
100
AcDbEntity
  8
0
  6
Continuous
 62
     0
370
    -2
100
AcDbBlockReference
  2
_Open30
 10
-43.93582235712755
 20
79.12644588498611
 30
0.0
 41
2.5
 42
2.5
 43
2.5
 50
270.0
  0
INSERT
  5
3348
330
1FBD
100
AcDbEntity
  8
0
  6
Continuous
 62
     0
370
    -2
100
AcDbBlockReference
  2
_Open30
 10
-43.93582235712755
 20
66.3264458849861
 30
0.0
 41
2.5
 42
2.5
 43
2.5
 50
90.0
  0
MTEXT
  5
3349
330
1FBD
100
AcDbEntity
  8
0
  6
Continuous
 62
     4
100
AcDbMText
 10
-46.06082235712757
 20
54.70144588498609
 30
0.0
 40
3.0
 41
0.0
 71
     5
 72
     1
  1
%%C25.6
 11
0.0000000000000001
 21
1.0
 31
0.0
 73
     1
 44
1.0
1001
ACAD
1000
MTEXTBEGIN
1070
    73
1070
     1
1070
    44
1040
1.0
1070
    74
1070
     0
1000
MTEXTEND
  0
POINT
  5
334A
330
1FBD
100
AcDbEntity
  8
Defpoints
  6
Continuous
 62
     0
100
AcDbPoint
 10
-41.10918016248347
 20
79.12644588498611
 30
0.0
  0
POINT
  5
334B
330
1FBD
100
AcDbEntity
  8
Defpoints
  6
Continuous
 62
     0
100
AcDbPoint
 10
-41.10918016248347
 20
66.3264458849861
 30
0.0
  0
POINT
  5
334C
330
1FBD
100
AcDbEntity
  8
Defpoints
  6
Continuous
 62
     0
100
AcDbPoint
 10
-43.93582235712755
 20
66.3264458849861
 30
0.0
  0
ENDBLK
  5
1FBF
330
1FBD
100
AcDbEntity
  8
0
100
AcDbBlockEnd
  0
BLOCK
  5
1FD1
330
1FD0
100
AcDbEntity
  8
0
100
AcDbBlockBegin
  2
*D35
 70
     1
 10
0.0
 20
0.0
 30
0.0
  3
*D35
  1

  0
LINE
  5
2BED
330
1FD0
100
AcDbEntity
  8
0
  6
Continuous
 62
     0
370
    -2
100
AcDbLine
 10
-43.72756784919115
 20
44.81732579885988
 30
0.0
 11
-49.48497997696723
 21
44.81732579885989
 31
0.0
  0
LINE
  5
2BEE
330
1FD0
100
AcDbEntity
  8
0
  6
Continuous
 62
     0
370
    -2
100
AcDbLine
 10
-43.72756784919115
 20
31.81732579885988
 30
0.0
 11
-49.48497997696723
 21
31.81732579885988
 31
0.0
  0
LINE
  5
2BEF
330
1FD0
100
AcDbEntity
  8
0
  6
Continuous
 62
     0
370
    -2
100
AcDbLine
 10
-48.23497997696723
 20
29.31732579885988
 30
0.0
 11
-48.23497997696723
 21
26.81732579885988
 31
0.0
  0
LINE
  5
2BF0
330
1FD0
100
AcDbEntity
  8
0
  6
Continuous
 62
     0
370
    -2
100
AcDbLine
 10
-48.23497997696723
 20
47.31732579885989
 30
0.0
 11
-48.23497997696722
 21
56.0673257988599
 31
0.0
  0
LINE
  5
2BF1
330
1FD0
100
AcDbEntity
  8
0
  6
Continuous
 62
     0
370
    -2
100
AcDbLine
 10
-48.23497997696723
 20
31.81732579885988
 30
0.0
 11
-48.23497997696723
 21
44.81732579885989
 31
0.0
  0
INSERT
  5
2BF2
330
1FD0
100
AcDbEntity
  8
0
  6
Continuous
 62
     0
370
    -2
100
AcDbBlockReference
  2
_Open30
 10
-48.23497997696723
 20
31.81732579885988
 30
0.0
 41
2.5
 42
2.5
 43
2.5
 50
90.0
  0
INSERT
  5
2BF3
330
1FD0
100
AcDbEntity
  8
0
  6
Continuous
 62
     0
370
    -2
100
AcDbBlockReference
  2
_Open30
 10
-48.23497997696723
 20
44.81732579885989
 30
0.0
 41
2.5
 42
2.5
 43
2.5
 50
270.0
  0
MTEXT
  5
2BF4
330
1FD0
100
AcDbEntity
  8
0
  6
Continuous
 62
     4
100
AcDbMText
 10
-50.35997997696723
 20
52.94232579885989
 30
0.0
 40
3.0
 41
0.0
 71
     5
 72
     1
  1
26
 11
0.0000000000000001
 21
1.0
 31
0.0
 73
     1
 44
1.0
1001
ACAD
1000
MTEXTBEGIN
1070
    73
1070
     1
1070
    44
1040
1.0
1070
    74
1070
     0
1000
MTEXTEND
  0
POINT
  5
2BF5
330
1FD0
100
AcDbEntity
  8
Defpoints
  6
Continuous
 62
     0
100
AcDbPoint
 10
-43.47756784919115
 20
44.81732579885988
 30
0.0
  0
POINT
  5
2BF6
330
1FD0
100
AcDbEntity
  8
Defpoints
  6
Continuous
 62
     0
100
AcDbPoint
 10
-43.47756784919115
 20
31.81732579885988
 30
0.0
  0
POINT
  5
2BF7
330
1FD0
100
AcDbEntity
  8
Defpoints
  6
Continuous
 62
     0
100
AcDbPoint
 10
-48.23497997696723
 20
31.81732579885988
 30
0.0
  0
ENDBLK
  5
1FD2
330
1FD0
100
AcDbEntity
  8
0
100
AcDbBlockEnd
  0
BLOCK
  5
2F83
330
2F82
100
AcDbEntity
  8
0
100
AcDbBlockBegin
  2
*D36
 70
     1
 10
0.0
 20
0.0
 30
0.0
  3
*D36
  1

  0
LINE
  5
334D
330
2F82
100
AcDbEntity
  8
0
  6
Continuous
 62
     0
370
    -2
100
AcDbLine
 10
74.4346158188129
 20
-9.528808523566567
 30
0.0
 11
74.4346158188129
 21
-2.009671029518131
 31
0.0
  0
LINE
  5
334E
330
2F82
100
AcDbEntity
  8
0
  6
Continuous
 62
     0
370
    -2
100
AcDbLine
 10
69.63461581881289
 20
-9.528808523566567
 30
0.0
 11
69.63461581881289
 21
-2.009671029518131
 31
0.0
  0
LINE
  5
334F
330
2F82
100
AcDbEntity
  8
0
  6
Continuous
 62
     0
370
    -2
100
AcDbLine
 10
76.9346158188129
 20
-3.259671029518131
 30
0.0
 11
79.4346158188129
 21
-3.259671029518131
 31
0.0
  0
LINE
  5
3350
330
2F82
100
AcDbEntity
  8
0
  6
Continuous
 62
     0
370
    -2
100
AcDbLine
 10
67.13461581881289
 20
-3.259671029518131
 30
0.0
 11
57.38461581881288
 21
-3.259671029518131
 31
0.0
  0
LINE
  5
3351
330
2F82
100
AcDbEntity
  8
0
  6
Continuous
 62
     0
370
    -2
100
AcDbLine
 10
74.4346158188129
 20
-3.259671029518131
 30
0.0
 11
69.63461581881289
 21
-3.259671029518131
 31
0.0
  0
INSERT
  5
3352
330
2F82
100
AcDbEntity
  8
0
  6
Continuous
 62
     0
370
    -2
100
AcDbBlockReference
  2
_Open30
 10
74.4346158188129
 20
-3.259671029518131
 30
0.0
 41
2.5
 42
2.5
 43
2.5
 50
180.0
  0
INSERT
  5
3353
330
2F82
100
AcDbEntity
  8
0
  6
Continuous
 62
     0
370
    -2
100
AcDbBlockReference
  2
_Open30
 10
69.63461581881289
 20
-3.259671029518131
 30
0.0
 41
2.5
 42
2.5
 43
2.5
  0
MTEXT
  5
3354
330
2F82
100
AcDbEntity
  8
0
  6
Continuous
 62
     4
100
AcDbMText
 10
61.00961581881289
 20
-1.134671029518131
 30
0.0
 40
3.0
 41
0.0
 71
     5
 72
     1
  1
9.6
 73
     1
 44
1.0
1001
ACAD
1000
MTEXTBEGIN
1070
    73
1070
     1
1070
    44
1040
1.0
1070
    74
1070
     0
1000
MTEXTEND
  0
POINT
  5
3355
330
2F82
100
AcDbEntity
  8
Defpoints
  6
Continuous
 62
     0
100
AcDbPoint
 10
74.4346158188129
 20
-9.778808523566567
 30
0.0
  0
POINT
  5
3356
330
2F82
100
AcDbEntity
  8
Defpoints
  6
Continuous
 62
     0
100
AcDbPoint
 10
69.63461581881289
 20
-9.778808523566567
 30
0.0
  0
POINT
  5
3357
330
2F82
100
AcDbEntity
  8
Defpoints
  6
Continuous
 62
     0
100
AcDbPoint
 10
69.63461581881289
 20
-3.259671029518131
 30
0.0
  0
ENDBLK
  5
2F84
330
2F82
100
AcDbEntity
  8
0
100
AcDbBlockEnd
  0
BLOCK
  5
2F95
330
2F94
100
AcDbEntity
  8
0
100
AcDbBlockBegin
  2
*D37
 70
     1
 10
0.0
 20
0.0
 30
0.0
  3
*D37
  1

  0
LINE
  5
3358
330
2F94
100
AcDbEntity
  8
0
  6
Continuous
 62
     0
370
    -2
100
AcDbLine
 10
46.26130193789905
 20
5.860591240508238
 30
0.0
 11
44.43107264841576
 21
4.157576047411751
 31
0.0
  0
LINE
  5
3359
330
2F94
100
AcDbEntity
  8
0
  6
Continuous
 62
     0
370
    -2
100
AcDbLine
 10
51.20292101950401
 20
10.45873226186879
 30
0.0
 11
60.53709039586882
 21
19.14410974666088
 31
0.0
  0
LINE
  5
335A
330
2F94
100
AcDbEntity
  8
0
  6
Continuous
 62
     0
370
    -2
100
AcDbLine
 10
48.09153122738235
 20
7.563606433604725
 30
0.0
 11
49.37269173002071
 21
8.755717068772309
 31
0.0
  0
INSERT
  5
335B
330
2F94
100
AcDbEntity
  8
0
  6
Continuous
 62
     0
370
    -2
100
AcDbBlockReference
  2
_Open30
 10
48.09153122738235
 20
7.563606433604725
 30
0.0
 41
2.5
 42
2.5
 43
2.5
 50
42.9379622129868
  0
INSERT
  5
335C
330
2F94
100
AcDbEntity
  8
0
  6
Continuous
 62
     0
370
    -2
100
AcDbBlockReference
  2
_Open30
 10
49.37269173002071
 20
8.755717068772309
 30
0.0
 41
2.5
 42
2.5
 43
2.5
 50
222.9379622129868
  0
MTEXT
  5
335D
102
{ACAD_XDICTIONARY
360
34F1
102
}
330
2F94
100
AcDbEntity
  8
0
  6
Continuous
 62
     4
100
AcDbMText
 10
55.33755743829603
 20
17.2086234968739
 30
0.0
 40
3.0
 41
0.0
 71
     5
 72
     1
  1
\U+22053.5
 11
0.7320917157933192
 21
0.6812060772385946
 31
0.0
 73
     1
 44
1.0
1001
ACAD
1000
MTEXTBEGIN
1070
    73
1070
     1
1070
    44
1040
1.0
1070
    74
1070
     0
1000
MTEXTEND
  0
POINT
  5
335E
330
2F94
100
AcDbEntity
  8
Defpoints
  6
Continuous
 62
     0
100
AcDbPoint
 10
49.37269173002071
 20
8.755717068772309
 30
0.0
  0
POINT
  5
335F
330
2F94
100
AcDbEntity
  8
Defpoints
  6
Continuous
 62
     0
100
AcDbPoint
 10
48.09153122738235
 20
7.563606433604725
 30
0.0
  0
ENDBLK
  5
2F96
330
2F94
100
AcDbEntity
  8
0
100
AcDbBlockEnd
  0
BLOCK
  5
2FA1
330
2FA0
100
AcDbEntity
  8
0
100
AcDbBlockBegin
  2
*D38
 70
     1
 10
0.0
 20
0.0
 30
0.0
  3
*D38
  1

  0
LINE
  5
3360
330
2FA0
100
AcDbEntity
  8
0
  6
Continuous
 62
     0
370
    -2
100
AcDbLine
 10
52.85711147870134
 20
-10.02880852356656
 30
0.0
 11
52.85711147870134
 21
-2.053325402629296
 31
0.0
  0
LINE
  5
3361
330
2FA0
100
AcDbEntity
  8
0
  6
Continuous
 62
     0
370
    -2
100
AcDbLine
 10
44.60711147870134
 20
-10.02880852356656
 30
0.0
 11
44.60711147870134
 21
-2.053325402629296
 31
0.0
  0
LINE
  5
3362
330
2FA0
100
AcDbEntity
  8
0
  6
Continuous
 62
     0
370
    -2
100
AcDbLine
 10
50.35711147870134
 20
-3.303325402629296
 30
0.0
 11
47.10711147870134
 21
-3.303325402629296
 31
0.0
  0
INSERT
  5
3363
330
2FA0
100
AcDbEntity
  8
0
  6
Continuous
 62
     0
370
    -2
100
AcDbBlockReference
  2
_Open30
 10
52.85711147870134
 20
-3.303325402629296
 30
0.0
 41
2.5
 42
2.5
 43
2.5
  0
INSERT
  5
3364
330
2FA0
100
AcDbEntity
  8
0
  6
Continuous
 62
     0
370
    -2
100
AcDbBlockReference
  2
_Open30
 10
44.60711147870134
 20
-3.303325402629296
 30
0.0
 41
2.5
 42
2.5
 43
2.5
 50
180.0
  0
MTEXT
  5
3365
330
2FA0
100
AcDbEntity
  8
0
  6
Continuous
 62
     4
100
AcDbMText
 10
48.73211147870134
 20
-1.178325402629296
 30
0.0
 40
3.0
 41
0.0
 71
     5
 72
     1
  1
16.5
 73
     1
 44
1.0
1001
ACAD
1000
MTEXTBEGIN
1070
    73
1070
     1
1070
    44
1040
1.0
1070
    74
1070
     0
1000
MTEXTEND
  0
POINT
  5
3366
330
2FA0
100
AcDbEntity
  8
Defpoints
  6
Continuous
 62
     0
100
AcDbPoint
 10
52.85711147870134
 20
-10.27880852356656
 30
0.0
  0
POINT
  5
3367
330
2FA0
100
AcDbEntity
  8
Defpoints
  6
Continuous
 62
     0
100
AcDbPoint
 10
44.60711147870134
 20
-10.27880852356656
 30
0.0
  0
POINT
  5
3368
330
2FA0
100
AcDbEntity
  8
Defpoints
  6
Continuous
 62
     0
100
AcDbPoint
 10
44.60711147870134
 20
-3.303325402629296
 30
0.0
  0
ENDBLK
  5
2FA2
330
2FA0
100
AcDbEntity
  8
0
100
AcDbBlockEnd
  0
BLOCK
  5
2FAE
330
2FAD
100
AcDbEntity
  8
0
100
AcDbBlockBegin
  2
*D39
 70
     1
 10
0.0
 20
0.0
 30
0.0
  3
*D39
  1

  0
LINE
  5
3369
330
2FAD
100
AcDbEntity
  8
0
  6
Continuous
 62
     0
370
    -2
100
AcDbLine
 10
69.38461581881289
 20
-25.27880852356657
 30
0.0
 11
64.85832279427191
 21
-25.27880852356657
 31
0.0
  0
LINE
  5
336A
330
2FAD
100
AcDbEntity
  8
0
  6
Continuous
 62
     0
370
    -2
100
AcDbLine
 10
69.38461581881289
 20
-9.778808523566567
 30
0.0
 11
64.85832279427191
 21
-9.778808523566565
 31
0.0
  0
LINE
  5
336B
330
2FAD
100
AcDbEntity
  8
0
  6
Continuous
 62
     0
370
    -2
100
AcDbLine
 10
66.10832279427191
 20
-22.77880852356657
 30
0.0
 11
66.10832279427191
 21
-12.27880852356656
 31
0.0
  0
INSERT
  5
336C
330
2FAD
100
AcDbEntity
  8
0
  6
Continuous
 62
     0
370
    -2
100
AcDbBlockReference
  2
_Open30
 10
66.10832279427191
 20
-25.27880852356657
 30
0.0
 41
2.5
 42
2.5
 43
2.5
 50
270.0
  0
INSERT
  5
336D
330
2FAD
100
AcDbEntity
  8
0
  6
Continuous
 62
     0
370
    -2
100
AcDbBlockReference
  2
_Open30
 10
66.10832279427191
 20
-9.778808523566565
 30
0.0
 41
2.5
 42
2.5
 43
2.5
 50
90.0
  0
MTEXT
  5
336E
330
2FAD
100
AcDbEntity
  8
0
  6
Continuous
 62
     4
100
AcDbMText
 10
63.98332279427191
 20
-17.25554990043792
 30
0.0
 40
3.0
 41
0.0
 71
     5
 72
     1
  1
31
 11
0.0000000000000001
 21
1.0
 31
0.0
 73
     1
 44
1.0
1001
ACAD
1000
MTEXTBEGIN
1070
    73
1070
     1
1070
    44
1040
1.0
1070
    74
1070
     0
1000
MTEXTEND
  0
POINT
  5
336F
330
2FAD
100
AcDbEntity
  8
Defpoints
  6
Continuous
 62
     0
100
AcDbPoint
 10
69.63461581881289
 20
-25.27880852356657
 30
0.0
  0
POINT
  5
3370
330
2FAD
100
AcDbEntity
  8
Defpoints
  6
Continuous
 62
     0
100
AcDbPoint
 10
69.63461581881289
 20
-9.778808523566567
 30
0.0
  0
POINT
  5
3371
330
2FAD
100
AcDbEntity
  8
Defpoints
  6
Continuous
 62
     0
100
AcDbPoint
 10
66.10832279427191
 20
-9.778808523566565
 30
0.0
  0
ENDBLK
  5
2FAF
330
2FAD
100
AcDbEntity
  8
0
100
AcDbBlockEnd
  0
BLOCK
  5
2FBB
330
2FBA
100
AcDbEntity
  8
0
100
AcDbBlockBegin
  2
*D40
 70
     1
 10
0.0
 20
0.0
 30
0.0
  3
*D40
  1

  0
LINE
  5
3372
330
2FBA
100
AcDbEntity
  8
0
  6
Continuous
 62
     0
370
    -2
100
AcDbLine
 10
41.13211147870134
 20
-18.52880852356656
 30
0.0
 11
41.13211147870134
 21
-31.42367393591724
 31
0.0
  0
LINE
  5
3373
330
2FBA
100
AcDbEntity
  8
0
  6
Continuous
 62
     0
370
    -2
100
AcDbLine
 10
56.33211147870134
 20
-18.52880852356656
 30
0.0
 11
56.33211147870134
 21
-31.42367393591724
 31
0.0
  0
LINE
  5
3374
330
2FBA
100
AcDbEntity
  8
0
  6
Continuous
 62
     0
370
    -2
100
AcDbLine
 10
43.63211147870134
 20
-30.17367393591724
 30
0.0
 11
53.83211147870134
 21
-30.17367393591724
 31
0.0
  0
INSERT
  5
3375
330
2FBA
100
AcDbEntity
  8
0
  6
Continuous
 62
     0
370
    -2
100
AcDbBlockReference
  2
_Open30
 10
41.13211147870134
 20
-30.17367393591724
 30
0.0
 41
2.5
 42
2.5
 43
2.5
 50
180.0
  0
INSERT
  5
3376
330
2FBA
100
AcDbEntity
  8
0
  6
Continuous
 62
     0
370
    -2
100
AcDbBlockReference
  2
_Open30
 10
56.33211147870134
 20
-30.17367393591724
 30
0.0
 41
2.5
 42
2.5
 43
2.5
  0
MTEXT
  5
3377
330
2FBA
100
AcDbEntity
  8
0
  6
Continuous
 62
     4
100
AcDbMText
 10
48.73211147870134
 20
-28.04867393591724
 30
0.0
 40
3.0
 41
0.0
 71
     5
 72
     1
  1
30.4
 73
     1
 44
1.0
1001
ACAD
1000
MTEXTBEGIN
1070
    73
1070
     1
1070
    44
1040
1.0
1070
    74
1070
     0
1000
MTEXTEND
  0
POINT
  5
3378
330
2FBA
100
AcDbEntity
  8
Defpoints
  6
Continuous
 62
     0
100
AcDbPoint
 10
41.13211147870134
 20
-18.27880852356656
 30
0.0
  0
POINT
  5
3379
330
2FBA
100
AcDbEntity
  8
Defpoints
  6
Continuous
 62
     0
100
AcDbPoint
 10
56.33211147870134
 20
-18.27880852356656
 30
0.0
  0
POINT
  5
337A
330
2FBA
100
AcDbEntity
  8
Defpoints
  6
Continuous
 62
     0
100
AcDbPoint
 10
56.33211147870134
 20
-30.17367393591724
 30
0.0
  0
ENDBLK
  5
2FBC
330
2FBA
100
AcDbEntity
  8
0
100
AcDbBlockEnd
  0
ENDSEC
  0
SECTION
  2
ENTITIES
  0
LINE
  5
88
330
36
100
AcDbEntity
  8
0
 62
     3
100
AcDbLine
 10
-101.512073
 20
0.0
 30
0.0
 11
-102.0
 21
0.0
 31
0.0
  0
LINE
  5
161
330
36
100
AcDbEntity
  8
0
 62
     3
100
AcDbLine
 10
64.257701
 20
-121.834277
 30
0.0
 11
64.25770100000001
 21
-98.834277
 31
0.0
  0
LINE
  5
163
330
36
100
AcDbEntity
  8
0
 62
     3
100
AcDbLine
 10
11.204092
 20
-128.834277
 30
0.0
 11
11.204092
 21
-114.834277
 31
0.0
  0
TEXT
  5
165
330
36
100
AcDbEntity
  8
0
 62
     3
100
AcDbText
 10
40.268019
 20
-102.629161
 30
0.0
 40
2.0
  1
A
 41
0.7
100
AcDbText
  0
TEXT
  5
166
330
36
100
AcDbEntity
  8
0
 62
     3
100
AcDbText
 10
42.803306
 20
-102.629161
 30
0.0
 40
2.0
  1
P
 41
0.7
100
AcDbText
  0
TEXT
  5
167
330
36
100
AcDbEntity
  8
0
 62
     3
100
AcDbText
 10
45.338592
 20
-102.629161
 30
0.0
 40
2.0
  1
P
 41
0.7
100
AcDbText
  0
TEXT
  5
168
330
36
100
AcDbEntity
  8
0
 62
     3
100
AcDbText
 10
47.873878
 20
-102.629161
 30
0.0
 40
2.0
  1
D
 41
0.7
100
AcDbText
  0
TEXT
  5
169
330
36
100
AcDbEntity
  8
0
 62
     3
100
AcDbText
 10
53.242561
 20
-102.629161
 30
0.0
 40
2.0
  1
C
 41
0.7
100
AcDbText
  0
TEXT
  5
16A
330
36
100
AcDbEntity
  8
0
 62
     3
100
AcDbText
 10
55.77784699999998
 20
-102.629161
 30
0.0
 40
2.0
  1
H
 41
0.7
100
AcDbText
  0
TEXT
  5
16B
330
36
100
AcDbEntity
  8
0
 62
     3
100
AcDbText
 10
58.31313399999999
 20
-102.629161
 30
0.0
 40
2.0
  1
C
 41
0.7
100
AcDbText
  0
TEXT
  5
16C
330
36
100
AcDbEntity
  8
0
 62
     3
100
AcDbText
 10
60.84842
 20
-102.629161
 30
0.0
 40
2.0
  1
K
 41
0.7
100
AcDbText
  0
TEXT
  5
16D
330
36
100
AcDbEntity
  8
0
 62
     3
100
AcDbText
 10
66.522386
 20
-102.629161
 30
0.0
 40
2.0
  1
DESN
 41
1.216762999999998
100
AcDbText
  0
TEXT
  5
16E
330
36
100
AcDbEntity
  8
0
 62
     3
100
AcDbText
 10
-18.483972
 20
-131.975659
 30
0.0
 40
2.0
  1
NICHIDO IND.CO.LTD
 41
1.274876
100
AcDbText
  0
LINE
  5
16F
330
36
100
AcDbEntity
  8
0
 62
     3
100
AcDbLine
 10
-8.100942999999999
 20
-98.83427699999998
 30
0.0
 11
-8.100942999999999
 21
-121.834277
 31
0.0
  0
LINE
  5
170
330
36
100
AcDbEntity
  8
0
 62
     3
100
AcDbLine
 10
38.25770100000001
 20
-98.83427699999998
 30
0.0
 11
38.25770100000001
 21
-138.5
 31
0.0
  0
LINE
  5
175
330
36
100
AcDbEntity
  8
0
 62
     3
100
AcDbLine
 10
51.257701
 20
-98.83427699999998
 30
0.0
 11
51.257701
 21
-128.834277
 31
0.0
  0
TEXT
  5
176
330
36
100
AcDbEntity
  8
0
 62
     3
100
AcDbText
 10
39.37014600000001
 20
-127.96959
 30
0.0
 40
3.2
  1
作成日
 41
1.017225999999997
100
AcDbText
  0
LINE
  5
177
330
36
100
AcDbEntity
  8
0
 62
     3
100
AcDbLine
 10
90.0
 20
-98.834277
 30
0.0
 11
-21.346378
 21
-98.83427699999998
 31
0.0
  0
LINE
  5
178
330
36
100
AcDbEntity
  8
0
 62
     3
100
AcDbLine
 10
77.257701
 20
-121.834277
 30
0.0
 11
77.257701
 21
-98.83427699999998
 31
0.0
  0
TEXT
  5
179
330
36
100
AcDbEntity
  8
0
 62
     3
100
AcDbText
 10
80.58150500000001
 20
-102.543343
 30
0.0
 40
1.8
  1
D
 41
0.666667
100
AcDbText
  0
TEXT
  5
17A
330
36
100
AcDbEntity
  8
0
 62
     3
100
AcDbText
 10
83.39813300000001
 20
-102.543343
 30
0.0
 40
1.8
  1
E
 41
0.666667
100
AcDbText
  0
TEXT
  5
17B
330
36
100
AcDbEntity
  8
0
 62
     3
100
AcDbText
 10
86.214761
 20
-102.543343
 30
0.0
 40
1.8
  1
F
 41
0.666667
100
AcDbText
  0
TEXT
  5
17C
330
36
100
AcDbEntity
  8
0
 62
     3
100
AcDbText
 10
80.58150500000001
 20
-106.5358959999999
 30
0.0
 40
3.2
  1
製図
 41
1.076369
100
AcDbText
  0
LINE
  5
17D
330
36
100
AcDbEntity
  8
0
 62
     3
100
AcDbLine
 10
-21.346378
 20
-98.83427699999998
 30
0.0
 11
-21.346378
 21
-138.5
 31
0.0
  0
TEXT
  5
17E
330
36
100
AcDbEntity
  8
0
 62
     3
100
AcDbText
 10
-19.969725
 20
-138.167534
 30
0.0
 40
5.0
  1
日動工業株式会社
 41
0.833333
100
AcDbText
  0
LINE
  5
17F
330
36
100
AcDbEntity
  8
0
 62
     3
100
AcDbLine
 10
21.536026
 20
-114.834277
 30
0.0
 11
21.536026
 21
-138.5
 31
0.0
  0
LINE
  5
180
330
36
100
AcDbEntity
  8
0
 62
     3
100
AcDbLine
 10
21.536026
 20
-133.6671379999999
 30
0.0
 11
38.25770100000001
 21
-133.6671379999999
 31
0.0
  0
TEXT
  5
181
330
36
100
AcDbEntity
  8
0
 62
     3
100
AcDbText
 10
22.122628
 20
-132.850708
 30
0.0
 40
3.2
  1
出図コード
 41
0.8356860000000001
100
AcDbText
  0
LINE
  5
182
330
36
100
AcDbEntity
  8
0
 62
     3
100
AcDbLine
 10
90.0
 20
-128.834277
 30
0.0
 11
-21.34637800000001
 21
-128.834277
 31
0.0
  0
LINE
  5
183
330
36
100
AcDbEntity
  8
0
 62
     3
100
AcDbLine
 10
86.32079799999997
 20
-128.834277
 30
0.0
 11
90.0
 21
-128.8342769999999
 31
0.0
  0
LINE
  5
185
330
36
100
AcDbEntity
  8
0
 62
     3
100
AcDbLine
 10
-21.346378
 20
-107.834277
 30
0.0
 11
90.0
 21
-107.834277
 31
0.0
  0
LINE
  5
18B
330
36
100
AcDbEntity
  8
0
 62
     3
100
AcDbLine
 10
-21.34637800000001
 20
-114.834277
 30
0.0
 11
38.25770100000001
 21
-114.834277
 31
0.0
  0
LINE
  5
191
330
36
100
AcDbEntity
  8
0
 62
     3
100
AcDbLine
 10
-21.34637800000001
 20
-121.834277
 30
0.0
 11
90.0
 21
-121.834277
 31
0.0
  0
TEXT
  5
192
330
36
100
AcDbEntity
  8
0
 62
     3
100
AcDbText
 10
21.99008
 20
-137.897805
 30
0.0
 40
3.2
  1
ZK-A4Y
 41
0.8112849999999999
100
AcDbText
  0
LINE
  5
193
330
36
100
AcDbEntity
  8
0
 62
     3
100
AcDbLine
 10
-90.0
 20
138.5
 30
0.0
 11
-90.0
 21
-138.5
 31
0.0
  0
LINE
  5
194
330
36
100
AcDbEntity
  8
0
 62
     3
100
AcDbLine
 10
90.0
 20
-138.5
 30
0.0
 11
90.0
 21
138.5
 31
0.0
  0
LINE
  5
195
330
36
100
AcDbEntity
  8
0
 62
     3
100
AcDbLine
 10
90.0
 20
-138.5
 30
0.0
 11
-90.0
 21
-138.5
 31
0.0
  0
TEXT
  5
19A
330
36
100
AcDbEntity
  8
0
 62
     3
100
AcDbText
 10
-19.528981
 20
-102.664751
 30
0.0
 40
2.0
  1
CONPONENTS
 41
0.5331600000000001
100
AcDbText
  0
TEXT
  5
19B
330
36
100
AcDbEntity
  8
0
 62
     3
100
AcDbText
 10
-19.878707
 20
-121.596928
 30
0.0
 40
3.0
  1
材
 41
0.833333
100
AcDbText
  0
TEXT
  5
19C
330
36
100
AcDbEntity
  8
0
 62
     3
100
AcDbText
 10
-12.343065
 20
-121.596928
 30
0.0
 40
3.0
  1
質
 41
0.833333
100
AcDbText
  0
TEXT
  5
19D
330
36
100
AcDbEntity
  8
0
 62
     3
100
AcDbText
 10
-19.790637
 20
-110.972404
 30
0.0
 40
2.0
  1
MODEL
 41
1.031072999999999
100
AcDbText
  0
TEXT
  5
19E
330
36
100
AcDbEntity
  8
0
 62
     3
100
AcDbText
 10
-19.878707
 20
-117.91462
 30
0.0
 40
2.0
  1
MATERIAL
 41
0.659278
100
AcDbText
  0
TEXT
  5
19F
330
36
100
AcDbEntity
  8
0
 62
     3
100
AcDbText
 10
11.428573
 20
-121.596928
 30
0.0
 40
3.0
  1
備
 41
0.833333
100
AcDbText
  0
TEXT
  5
1A0
330
36
100
AcDbEntity
  8
0
 62
     3
100
AcDbText
 10
18.161575
 20
-121.596928
 30
0.0
 40
3.0
  1
考
 41
0.833333
100
AcDbText
  0
TEXT
  5
1A1
330
36
100
AcDbEntity
  8
0
 62
     3
100
AcDbText
 10
11.74797475442096
 20
-117.91462
 30
0.0
 40
2.0
  1
REMARKS
 41
0.675794
100
AcDbText
  0
TEXT
  5
1A2
330
36
100
AcDbEntity
  8
0
 62
     3
100
AcDbText
 10
-18.288978
 20
-124.834741
 30
0.0
 40
2.0
  1
3AD
 41
1.42614
100
AcDbText
  0
TEXT
  5
1A3
330
36
100
AcDbEntity
  8
0
 62
     3
100
AcDbText
 10
-8.977999
 20
-124.669007
 30
0.0
 40
2.0
  1
ANGLE
 41
1.669883999999995
100
AcDbText
  0
TEXT
  5
1A4
330
36
100
AcDbEntity
  8
0
 62
     3
100
AcDbText
 10
11.955888
 20
-125.045848
 30
0.0
 40
2.0
  1
SCALE
 41
0.7719630000000001
100
AcDbText
  0
TEXT
  5
1A5
330
36
100
AcDbEntity
  8
0
 62
     3
100
AcDbText
 10
-18.602849
 20
-128.834277
 30
0.0
 40
3.0
  1
第
 41
0.833333
100
AcDbText
  0
TEXT
  5
1A6
330
36
100
AcDbEntity
  8
0
 62
     3
100
AcDbText
 10
-10.815999
 20
-128.834277
 30
0.0
 40
3.0
  1
三
 41
0.833333
100
AcDbText
  0
TEXT
  5
1A7
330
36
100
AcDbEntity
  8
0
 62
     3
100
AcDbText
 10
-3.029149
 20
-128.834277
 30
0.0
 40
3.0
  1
角
 41
0.833333
100
AcDbText
  0
TEXT
  5
1A8
330
36
100
AcDbEntity
  8
0
 62
     3
100
AcDbText
 10
4.757700999999999
 20
-128.834277
 30
0.0
 40
3.0
  1
法
 41
0.833333
100
AcDbText
  0
TEXT
  5
1A9
330
36
100
AcDbEntity
  8
0
 62
     3
100
AcDbText
 10
11.819093
 20
-128.5458479999999
 30
0.0
 40
3.0
  1
尺
 41
0.833333
100
AcDbText
  0
TEXT
  5
1AA
330
36
100
AcDbEntity
  8
0
 62
     3
100
AcDbText
 10
18.552095
 20
-128.5458479999999
 30
0.0
 40
3.0
  1
度
 41
0.833333
100
AcDbText
  0
TEXT
  5
1AB
330
36
100
AcDbEntity
  8
0
 62
     3
100
AcDbText
 10
41.13536599999997
 20
-106.376548
 30
0.0
 40
3.0
  1
承認
 41
1.089472999999999
100
AcDbText
  0
TEXT
  5
1AC
330
36
100
AcDbEntity
  8
0
 62
     3
100
AcDbText
 10
54.37824599999999
 20
-106.434277
 30
0.0
 40
3.0
  1
検図
 41
0.931761
100
AcDbText
  0
TEXT
  5
1AD
330
36
100
AcDbEntity
  8
0
 62
     3
100
AcDbText
 10
67.37864300000001
 20
-106.434277
 30
0.0
 40
3.0
  1
設
 41
0.833333
100
AcDbText
  0
TEXT
  5
1AE
330
36
100
AcDbEntity
  8
0
 62
     3
100
AcDbText
 10
71.868511
 20
-106.434277
 30
0.0
 40
3.0
  1
計
 41
0.833333
100
AcDbText
  0
TEXT
  5
1AF
330
36
100
AcDbEntity
  8
0
 62
     3
100
AcDbText
 10
-19.597509
 20
-107.145521
 30
0.0
 40
3.0
  1
品
 41
0.833333
100
AcDbText
  0
TEXT
  5
1B0
330
36
100
AcDbEntity
  8
0
 62
     3
100
AcDbText
 10
-12.061867
 20
-107.145521
 30
0.0
 40
3.0
  1
名
 41
0.833333
100
AcDbText
  0
TEXT
  5
1B1
330
36
100
AcDbEntity
  8
0
 62
     3
100
AcDbText
 10
-19.790637
 20
-114.604664
 30
0.0
 40
3.0
  1
型
 41
0.833333
100
AcDbText
  0
TEXT
  5
1B2
330
36
100
AcDbEntity
  8
0
 62
     3
100
AcDbText
 10
-12.242546
 20
-114.604664
 30
0.0
 40
3.0
  1
式
 41
0.833333
100
AcDbText
  0
LINE
  5
219
330
36
100
AcDbEntity
  8
0
 62
     3
100
AcDbLine
 10
64.257701
 20
-98.83427699999998
 30
0.0
 11
64.257701
 21
-92.83427699999998
 31
0.0
  0
LINE
  5
21A
330
36
100
AcDbEntity
  8
0
 62
     3
100
AcDbLine
 10
38.25770100000001
 20
-98.83427699999998
 30
0.0
 11
38.25770100000001
 21
-92.83427699999998
 31
0.0
  0
LINE
  5
21B
330
36
100
AcDbEntity
  8
0
 62
     3
100
AcDbLine
 10
90.0
 20
-92.834277
 30
0.0
 11
38.25770100000001
 21
-92.83427699999998
 31
0.0
  0
TEXT
  5
21C
330
36
100
AcDbEntity
  8
0
 62
     3
100
AcDbText
 10
44.253299
 20
-98.03792800000001
 30
0.0
 40
4.5
  1
コード
  7
高4.5
100
AcDbText
  0
TEXT
  5
21D
330
36
100
AcDbEntity
  8
0
 62
     3
100
AcDbText
 10
-6.384503936270446
 20
-106.2022924939992
 30
0.0
 40
4.5
  1
LEDチューブライト110W型
 41
0.6
  7
高4.5
100
AcDbText
  0
TEXT
  5
25F
330
36
100
AcDbEntity
  8
0
 62
     3
100
AcDbText
 10
25.04916102999141
 20
-128.386584
 30
0.0
 40
3.2
  1
1/2
  7
高3.2
100
AcDbText
  0
TEXT
  5
260
330
36
100
AcDbEntity
  8
0
 62
     3
100
AcDbText
 10
55.28894399999999
 20
-128.272057
 30
0.0
 40
3.2
  1
2017.06.23
  7
高3.2
100
AcDbText
  0
TEXT
  5
2A5
330
36
100
AcDbEntity
  8
0
 62
     3
100
AcDbText
 10
-6.086263030737427
 20
-113.8974032392477
 30
0.0
 40
4.5
  1
LCL-110W-HI
 41
0.9
  7
高4.5
100
AcDbText
  0
TEXT
  5
2A6
330
36
100
AcDbEntity
  8
0
 62
     3
100
AcDbText
 10
40.79756493353443
 20
-137.3016748436918
 30
0.0
 40
6.299999999999998
  1
LCL-110W-HI
 41
0.7
  7
高6.3
100
AcDbText
  0
TEXT
  5
2A7
330
36
100
AcDbEntity
  8
0
 62
     3
100
AcDbText
 10
66.244847
 20
-98.19014000000001
 30
0.0
 40
4.5
  1
8248
  7
高4.5
100
AcDbText
  0
TEXT
  5
2BF
330
36
100
AcDbEntity
  8
0
 62
     3
100
AcDbText
 10
23.46953264338866
 20
-120.1386778328505
 30
0.0
 40
2.5
  1
-
 41
0.6
  7
高2.5
100
AcDbText
  0
TEXT
  5
FC4
330
36
100
AcDbEntity
  8
0
  6
Continuous
100
AcDbText
 10
82.29316131646214
 20
-117.3182101945936
 30
0.0
 40
4.5
  1
I
  7
高4.5
100
AcDbText
  0
TEXT
  5
1160
330
36
100
AcDbEntity
  8
0
 62
     3
100
AcDbText
 10
-6.821035387507888
 20
-120.1386778328505
 30
0.0
 40
2.5
  1
PC／アルミ
  7
高2.5
100
AcDbText
  0
LINE
  5
17C3
330
36
100
AcDbEntity
  8
0
 62
     3
100
AcDbLine
 10
-52.91564798000013
 20
140.2874440999999
 30
0.0
 11
-52.47990006999998
 21
140.0599759599999
 31
0.0
  0
LINE
  5
17C4
330
36
100
AcDbEntity
  8
0
 62
     3
100
AcDbLine
 10
-52.91564798000013
 20
136.5568136199999
 30
0.0
 11
-52.47990006999998
 21
136.78428176
 31
0.0
  0
LINE
  5
17C5
330
36
100
AcDbEntity
  8
0
 62
     3
100
AcDbLine
 10
-52.47990006999998
 20
140.0599759599999
 30
0.0
 11
-52.47990006999998
 21
136.78428176
 31
0.0
  0
LINE
  5
17C6
330
36
100
AcDbEntity
  8
0
 62
     3
100
AcDbLine
 10
-51.3763826500001
 20
136.5568136199999
 30
0.0
 11
-51.81213056000024
 21
136.78428176
 31
0.0
  0
LINE
  5
17C7
330
36
100
AcDbEntity
  8
0
 62
     3
100
AcDbLine
 10
-51.81213056000024
 20
138.7811405699999
 30
0.0
 11
-51.81213056000024
 21
136.78428176
 31
0.0
  0
LINE
  5
17C8
330
36
100
AcDbEntity
  8
0
 62
     3
100
AcDbLine
 10
-48.83451987000011
 20
140.2874440999999
 30
0.0
 11
-49.27026778000004
 21
140.0599759599999
 31
0.0
  0
LINE
  5
17C9
330
36
100
AcDbEntity
  8
0
 62
     3
100
AcDbLine
 10
-50.37378520000014
 20
140.2874440999999
 30
0.0
 11
-49.93803729000001
 21
140.0599759599999
 31
0.0
  0
LINE
  5
17CA
330
36
100
AcDbEntity
  8
0
 62
     3
100
AcDbLine
 10
-49.93803729000001
 20
140.0599759599999
 30
0.0
 11
-49.93803729000001
 21
138.6176389
 31
0.0
  0
LINE
  5
17CB
330
36
100
AcDbEntity
  8
0
 62
     3
100
AcDbLine
 10
-49.27026778000004
 20
140.0599759599999
 30
0.0
 11
-49.27026778000004
 21
136.34525248
 31
0.0
  0
LINE
  5
17CC
330
36
100
AcDbEntity
  8
0
 62
     3
100
AcDbLine
 10
-48.61922267
 20
140.28744147
 30
0.0
 11
-48.18347633000008
 21
140.0599703299999
 31
0.0
  0
LINE
  5
17CD
330
36
100
AcDbEntity
  8
0
 62
     3
100
AcDbLine
 10
-48.6193006400001
 20
136.5568636
 30
0.0
 11
-48.18354479000003
 21
136.7843165199999
 31
0.0
  0
LINE
  5
17CE
330
36
100
AcDbEntity
  8
0
 62
     3
100
AcDbLine
 10
-48.18347633000008
 20
140.0599703299999
 30
0.0
 11
-48.18347633000008
 21
136.7843165199999
 31
0.0
  0
LINE
  5
17CF
330
36
100
AcDbEntity
  8
0
 62
     3
100
AcDbLine
 10
-46.68968627000004
 20
140.2874177999999
 30
0.0
 11
-47.12543735999997
 21
140.05995577
 31
0.0
  0
LINE
  5
17D0
330
36
100
AcDbEntity
  8
0
 62
     3
100
AcDbLine
 10
-47.12543735999997
 20
140.05995577
 30
0.0
 11
-47.12543735999997
 21
136.78430195
 31
0.0
  0
LINE
  5
17D1
330
36
100
AcDbEntity
  8
0
 62
     3
100
AcDbLine
 10
-46.68968627000004
 20
136.55683992
 30
0.0
 11
-47.12543735999997
 21
136.78430195
 31
0.0
  0
LINE
  5
17D2
330
36
100
AcDbEntity
  8
0
 62
     3
100
AcDbLine
 10
-42.99943283000015
 20
140.2873767999999
 30
0.0
 11
-42.56368571000007
 21
140.0599071599999
 31
0.0
  0
LINE
  5
17D3
330
36
100
AcDbEntity
  8
0
 62
     3
100
AcDbLine
 10
-42.56368571000007
 20
140.0599071599999
 30
0.0
 11
-42.56374288000006
 21
136.7842533499999
 31
0.0
  0
LINE
  5
17D4
330
36
100
AcDbEntity
  8
0
 62
     3
100
AcDbLine
 10
-42.99949794000006
 20
136.55679892
 30
0.0
 11
-42.56374288000006
 21
136.7842533499999
 31
0.0
  0
LINE
  5
17D5
330
36
100
AcDbEntity
  8
0
 62
     3
100
AcDbLine
 10
-41.04717187000003
 20
140.2873767999999
 30
0.0
 11
-41.48291899000013
 21
140.0599071599999
 31
0.0
  0
LINE
  5
17D6
330
36
100
AcDbEntity
  8
0
 62
     3
100
AcDbLine
 10
-41.04710676000013
 20
136.55679892
 30
0.0
 11
-41.48286182000012
 21
136.7842533499999
 31
0.0
  0
LINE
  5
17D7
330
36
100
AcDbEntity
  8
0
 62
     3
100
AcDbLine
 10
-40.84344400999998
 20
140.2873767999999
 30
0.0
 11
-40.40769688
 21
140.0599071599999
 31
0.0
  0
LINE
  5
17D8
330
36
100
AcDbEntity
  8
0
 62
     3
100
AcDbLine
 10
-40.84350912000013
 20
136.55679892
 30
0.0
 11
-40.40775406000011
 21
136.7842533499999
 31
0.0
  0
LINE
  5
17D9
330
36
100
AcDbEntity
  8
0
 62
     3
100
AcDbLine
 10
-38.89118304000021
 20
140.2873767999999
 30
0.0
 11
-39.32693016000007
 21
140.0599071599999
 31
0.0
  0
LINE
  5
17DA
330
36
100
AcDbEntity
  8
0
 62
     3
100
AcDbLine
 10
-39.32693016000007
 20
140.0599071599999
 30
0.0
 11
-39.32687299000008
 21
136.7842533499999
 31
0.0
  0
LINE
  5
17DB
330
36
100
AcDbEntity
  8
0
 62
     3
100
AcDbLine
 10
-38.89111793000007
 20
136.55679892
 30
0.0
 11
-39.32687299000008
 21
136.7842533499999
 31
0.0
  0
LINE
  5
17DC
330
36
100
AcDbEntity
  8
0
 62
     3
100
AcDbLine
 10
-40.40772179000009
 20
138.6327740399999
 30
0.0
 11
-41.48289408000005
 21
138.6327740399999
 31
0.0
  0
LINE
  5
17DD
330
36
100
AcDbEntity
  8
0
 62
     3
100
AcDbLine
 10
-40.40772915000025
 20
138.21148368
 30
0.0
 11
-41.48288673000024
 21
138.21148368
 31
0.0
  0
LINE
  5
17DE
330
36
100
AcDbEntity
  8
0
 62
     3
100
AcDbLine
 10
-40.40769688
 20
140.0599071599999
 30
0.0
 11
-40.40772179000009
 21
138.6327740399999
 31
0.0
  0
LINE
  5
17DF
330
36
100
AcDbEntity
  8
0
 62
     3
100
AcDbLine
 10
-40.40772915000025
 20
138.21148368
 30
0.0
 11
-40.40775406000011
 21
136.7842533499999
 31
0.0
  0
LINE
  5
17E0
330
36
100
AcDbEntity
  8
0
 62
     3
100
AcDbLine
 10
-41.48291899000013
 20
140.0599071599999
 30
0.0
 11
-41.48289408000005
 21
138.6327740399999
 31
0.0
  0
LINE
  5
17E1
330
36
100
AcDbEntity
  8
0
 62
     3
100
AcDbLine
 10
-41.48288673000024
 20
138.21148368
 30
0.0
 11
-41.48286182000012
 21
136.7842533499999
 31
0.0
  0
LINE
  5
17E2
330
36
100
AcDbEntity
  8
0
 62
     3
100
AcDbLine
 10
-38.68422392000002
 20
140.2873767999999
 30
0.0
 11
-38.24847680000015
 21
140.0599071599999
 31
0.0
  0
LINE
  5
17E3
330
36
100
AcDbEntity
  8
0
 62
     3
100
AcDbLine
 10
-38.24847680000015
 20
140.0599071599999
 30
0.0
 11
-38.24853397000016
 21
136.7842533499999
 31
0.0
  0
LINE
  5
17E4
330
36
100
AcDbEntity
  8
0
 62
     3
100
AcDbLine
 10
-38.68428903000017
 20
136.55679892
 30
0.0
 11
-38.24853397000016
 21
136.7842533499999
 31
0.0
  0
LINE
  5
17E5
330
36
100
AcDbEntity
  8
0
 62
     3
100
AcDbLine
 10
-36.75471365000021
 20
140.2873767999999
 30
0.0
 11
-37.19046077000007
 21
140.0599071599999
 31
0.0
  0
LINE
  5
17E6
330
36
100
AcDbEntity
  8
0
 62
     3
100
AcDbLine
 10
-37.19046077000007
 20
140.0599071599999
 30
0.0
 11
-37.19040360000008
 21
136.7842533499999
 31
0.0
  0
LINE
  5
17E7
330
36
100
AcDbEntity
  8
0
 62
     3
100
AcDbLine
 10
-36.75464854000006
 20
136.55679892
 30
0.0
 11
-37.19040360000008
 21
136.7842533499999
 31
0.0
  0
LINE
  5
17E8
330
36
100
AcDbEntity
  8
0
 62
     3
100
AcDbLine
 10
-36.54035408000004
 20
140.2873767999999
 30
0.0
 11
-36.10460696000018
 21
140.0599071599999
 31
0.0
  0
LINE
  5
17E9
330
36
100
AcDbEntity
  8
0
 62
     3
100
AcDbLine
 10
-36.10460696000018
 20
140.0599071599999
 30
0.0
 11
-36.10466413000017
 21
136.7842533499999
 31
0.0
  0
LINE
  5
17EA
330
36
100
AcDbEntity
  8
0
 62
     3
100
AcDbLine
 10
-36.54041919000019
 20
136.55679892
 30
0.0
 11
-36.10466413000017
 21
136.7842533499999
 31
0.0
  0
ARC
  5
17EB
330
36
100
AcDbEntity
  8
0
 62
     3
100
AcDbCircle
 10
-44.39134409999996
 20
138.43151862
 30
0.0
 40
2.086285909999999
100
AcDbArc
 50
97.70152350999763
 51
270.0
  0
ARC
  5
17EC
330
36
100
AcDbEntity
  8
0
 62
     3
100
AcDbCircle
 10
-31.51074326000026
 20
138.41056199
 30
0.0
 40
2.108943379999999
100
AcDbArc
 50
0.3142502700074235
 51
69.00558244999094
  0
ARC
  5
17ED
330
36
100
AcDbEntity
  8
0
 62
     3
100
AcDbCircle
 10
-31.05006794000019
 20
138.41056199
 30
0.0
 40
2.108943379999999
100
AcDbArc
 50
110.9944175499969
 51
148.1166110200025
  0
ARC
  5
17EE
330
36
100
AcDbEntity
  8
0
 62
     3
100
AcDbCircle
 10
-31.51074326000026
 20
138.4336957299999
 30
0.0
 40
2.108943379999999
100
AcDbArc
 50
290.9944175499969
 51
359.6857497299926
  0
ARC
  5
17EF
330
36
100
AcDbEntity
  8
0
 62
     3
100
AcDbCircle
 10
-31.05006794000019
 20
138.4336957299999
 30
0.0
 40
2.108943379999999
100
AcDbArc
 50
211.8833889799973
 51
249.0055824499891
  0
ARC
  5
17F0
330
36
100
AcDbEntity
  8
0
 62
     3
100
AcDbCircle
 10
-31.2804056
 20
139.28493425
 30
0.0
 40
1.214070989999997
100
AcDbArc
 50
64.36517190000066
 51
115.6348280999993
  0
ARC
  5
17F1
330
36
100
AcDbEntity
  8
0
 62
     3
100
AcDbCircle
 10
-31.2804056
 20
137.55932347
 30
0.0
 40
1.214070989999997
100
AcDbArc
 50
244.3651719000007
 51
295.6348280999993
  0
ARC
  5
17F2
330
36
100
AcDbEntity
  8
0
 62
     3
100
AcDbCircle
 10
-31.2804056
 20
139.30799593
 30
0.0
 40
0.59585563
100
AcDbArc
 50
19.48660554000628
 51
160.5133944599935
  0
ARC
  5
17F3
330
36
100
AcDbEntity
  8
0
 62
     3
100
AcDbCircle
 10
-31.2804056
 20
137.55932347
 30
0.0
 40
1.214070989999997
100
AcDbArc
 50
244.3651719000007
 51
295.6348280999993
  0
ARC
  5
17F4
330
36
100
AcDbEntity
  8
0
 62
     3
100
AcDbCircle
 10
-31.2804056
 20
137.53626179
 30
0.0
 40
0.59585563
100
AcDbArc
 50
199.4866055400053
 51
340.5133944599937
  0
ARC
  5
17F5
330
36
100
AcDbEntity
  8
0
 62
     3
100
AcDbCircle
 10
-36.02287810000007
 20
116.19406902
 30
0.0
 40
26.04
100
AcDbArc
 50
69.50571480000886
 51
81.68998806999658
  0
ARC
  5
17F6
330
36
100
AcDbEntity
  8
0
 62
     3
100
AcDbCircle
 10
-36.02287810000007
 20
160.6501886999999
 30
0.0
 40
26.04
100
AcDbArc
 50
278.3100119300026
 51
290.4942851999912
  0
ARC
  5
17F7
330
36
100
AcDbEntity
  8
0
 62
     3
100
AcDbCircle
 10
-27.71467397000015
 20
138.4221288599999
 30
0.0
 40
2.31
100
AcDbArc
 50
290.4942851999912
 51
69.50571480000886
  0
ARC
  5
17F8
330
36
100
AcDbEntity
  8
0
 62
     3
100
AcDbCircle
 10
-55.0146739700001
 20
138.4221288599999
 30
0.0
 40
2.31
100
AcDbArc
 50
110.4942851999907
 51
249.5057147999946
  0
ARC
  5
17F9
330
36
100
AcDbEntity
  8
0
 62
     3
100
AcDbCircle
 10
-46.70646985000007
 20
116.19406902
 30
0.0
 40
26.04
100
AcDbArc
 50
98.31001192998868
 51
110.4942851999907
  0
ARC
  5
17FA
330
36
100
AcDbEntity
  8
0
 62
     3
100
AcDbCircle
 10
-46.70646985000007
 20
160.6501886999999
 30
0.0
 40
26.04
100
AcDbArc
 50
249.5057147999946
 51
261.6899880699974
  0
ARC
  5
17FB
330
36
100
AcDbEntity
  8
0
 62
     3
100
AcDbCircle
 10
-41.36467397000024
 20
79.62212885999997
 30
0.0
 40
62.99999987
100
AcDbArc
 50
81.68998806999658
 51
98.31001192998868
  0
ARC
  5
17FC
330
36
100
AcDbEntity
  8
0
 62
     3
100
AcDbCircle
 10
-41.36467397000024
 20
197.22212886
 30
0.0
 40
62.99999987
100
AcDbArc
 50
261.6899880699974
 51
278.3100119300026
  0
ARC
  5
17FD
330
36
100
AcDbEntity
  8
0
 62
     3
100
AcDbCircle
 10
-41.36467397000024
 20
79.62212885999997
 30
0.0
 40
62.36999987
100
AcDbArc
 50
81.68998806999658
 51
98.31001192998868
  0
ARC
  5
17FE
330
36
100
AcDbEntity
  8
0
 62
     3
100
AcDbCircle
 10
-41.36467397000024
 20
197.22212886
 30
0.0
 40
62.36999987
100
AcDbArc
 50
261.6899880699974
 51
278.3100119300026
  0
ARC
  5
17FF
330
36
100
AcDbEntity
  8
0
 62
     3
100
AcDbCircle
 10
-36.02287810000007
 20
160.6501886999999
 30
0.0
 40
25.41
100
AcDbArc
 50
278.3100119300026
 51
290.4942851999912
  0
ARC
  5
1800
330
36
100
AcDbEntity
  8
0
 62
     3
100
AcDbCircle
 10
-36.02287810000007
 20
116.19406902
 30
0.0
 40
25.41
100
AcDbArc
 50
69.50571480000886
 51
81.68998806999658
  0
ARC
  5
1801
330
36
100
AcDbEntity
  8
0
 62
     3
100
AcDbCircle
 10
-27.71467397000015
 20
138.4221288599999
 30
0.0
 40
1.679999999999999
100
AcDbArc
 50
290.4942851999912
 51
69.50571480000886
  0
ARC
  5
1802
330
36
100
AcDbEntity
  8
0
 62
     3
100
AcDbCircle
 10
-55.0146739700001
 20
138.4221288599999
 30
0.0
 40
1.679999999999999
100
AcDbArc
 50
110.4942851999907
 51
249.5057147999946
  0
ARC
  5
1803
330
36
100
AcDbEntity
  8
0
 62
     3
100
AcDbCircle
 10
-46.70646985000007
 20
116.19406902
 30
0.0
 40
25.41
100
AcDbArc
 50
98.31001192998868
 51
110.4942851999907
  0
ARC
  5
1804
330
36
100
AcDbEntity
  8
0
 62
     3
100
AcDbCircle
 10
-46.70646985000007
 20
160.6501886999999
 30
0.0
 40
25.41
100
AcDbArc
 50
249.5057147999946
 51
261.6899880699974
  0
LINE
  5
1805
330
36
100
AcDbEntity
  8
0
 62
     3
100
AcDbLine
 10
-36.75471287000005
 20
136.34525248
 30
0.0
 11
-38.68422470000019
 21
136.34525248
 31
0.0
  0
LINE
  5
1806
330
36
100
AcDbEntity
  8
0
 62
     3
100
AcDbLine
 10
-36.75471287000005
 20
136.5568136199999
 30
0.0
 11
-36.75471287000005
 21
136.34525248
 31
0.0
  0
LINE
  5
1807
330
36
100
AcDbEntity
  8
0
 62
     3
100
AcDbLine
 10
-38.89118226000005
 20
140.49890652
 30
0.0
 11
-40.84344479000015
 21
140.49890652
 31
0.0
  0
LINE
  5
1808
330
36
100
AcDbEntity
  8
0
 62
     3
100
AcDbLine
 10
-38.89118226000005
 20
140.49890652
 30
0.0
 11
-38.89118226000005
 21
140.2874440999999
 31
0.0
  0
LINE
  5
1809
330
36
100
AcDbEntity
  8
0
 62
     3
100
AcDbLine
 10
-38.89118226000005
 20
136.5568136199999
 30
0.0
 11
-38.89118226000005
 21
136.34515377
 31
0.0
  0
LINE
  5
180A
330
36
100
AcDbEntity
  8
0
 62
     3
100
AcDbLine
 10
-38.89118226000005
 20
136.34515377
 30
0.0
 11
-40.84344479000015
 21
136.34515377
 31
0.0
  0
LINE
  5
180B
330
36
100
AcDbEntity
  8
0
 62
     3
100
AcDbLine
 10
-36.75471287000005
 20
140.49900524
 30
0.0
 11
-36.75471287000005
 21
140.2874440999999
 31
0.0
  0
LINE
  5
180C
330
36
100
AcDbEntity
  8
0
 62
     3
100
AcDbLine
 10
-36.75471287000005
 20
140.49900524
 30
0.0
 11
-38.68422470000019
 21
140.49900524
 31
0.0
  0
LINE
  5
180D
330
36
100
AcDbEntity
  8
0
 62
     3
100
AcDbLine
 10
-38.68422470000019
 20
140.49900524
 30
0.0
 11
-38.68422470000019
 21
140.2874440999999
 31
0.0
  0
LINE
  5
180E
330
36
100
AcDbEntity
  8
0
 62
     3
100
AcDbLine
 10
-36.5403548700001
 20
136.5568136199999
 30
0.0
 11
-36.5403548700001
 21
136.34525248
 31
0.0
  0
LINE
  5
180F
330
36
100
AcDbEntity
  8
0
 62
     3
100
AcDbLine
 10
-34.55605431000004
 20
136.34525248
 30
0.0
 11
-36.5403548700001
 21
136.34525248
 31
0.0
  0
LINE
  5
1810
330
36
100
AcDbEntity
  8
0
 62
     3
100
AcDbLine
 10
-35.04659093999999
 20
139.83123572
 30
0.0
 11
-35.04659093999999
 21
137.013022
 31
0.0
  0
LINE
  5
1811
330
36
100
AcDbEntity
  8
0
 62
     3
100
AcDbLine
 10
-35.04659093999999
 20
137.013022
 30
0.0
 11
-34.85654197000008
 21
137.013022
 31
0.0
  0
ARC
  5
1812
330
36
100
AcDbEntity
  8
0
 62
     3
100
AcDbCircle
 10
-35.82832771000017
 20
138.4221288599999
 30
0.0
 40
1.71170957
100
AcDbArc
 50
304.5919552700034
 51
55.40804472999656
  0
LINE
  5
1813
330
36
100
AcDbEntity
  8
0
 62
     3
100
AcDbLine
 10
-34.55605431000004
 20
140.49900524
 30
0.0
 11
-36.5403548700001
 21
140.49900524
 31
0.0
  0
LINE
  5
1814
330
36
100
AcDbEntity
  8
0
 62
     3
100
AcDbLine
 10
-36.5403548700001
 20
140.49900524
 30
0.0
 11
-36.5403548700001
 21
140.2874440999999
 31
0.0
  0
LINE
  5
1815
330
36
100
AcDbEntity
  8
0
 62
     3
100
AcDbLine
 10
-38.68422470000019
 20
136.5568136199999
 30
0.0
 11
-38.68422470000019
 21
136.34525248
 31
0.0
  0
LINE
  5
1816
330
36
100
AcDbEntity
  8
0
 62
     3
100
AcDbLine
 10
-35.04659093999999
 20
139.83123572
 30
0.0
 11
-34.85654197000008
 21
139.83123572
 31
0.0
  0
LINE
  5
1817
330
36
100
AcDbEntity
  8
0
 62
     3
100
AcDbLine
 10
-46.68975060000001
 20
136.5568136199999
 30
0.0
 11
-46.6897542900001
 21
136.34523271
 31
0.0
  0
LINE
  5
1818
330
36
100
AcDbEntity
  8
0
 62
     3
100
AcDbLine
 10
-48.61926613000014
 20
136.34527225
 30
0.0
 11
-46.6897542900001
 21
136.34523858
 31
0.0
  0
LINE
  5
1819
330
36
100
AcDbEntity
  8
0
 62
     3
100
AcDbLine
 10
-52.91564798000013
 20
136.34525248
 30
0.0
 11
-51.3763826500001
 21
136.34525248
 31
0.0
  0
ARC
  5
181A
330
36
100
AcDbEntity
  8
0
 62
     3
100
AcDbCircle
 10
-57.8975906600001
 20
138.4710354799999
 30
0.0
 40
14.71356563
100
AcDbArc
 50
353.8660061899952
 51
357.6940342600066
  0
LINE
  5
181B
330
36
100
AcDbEntity
  8
0
 62
     3
100
AcDbLine
 10
-44.18101079999996
 20
137.8826678299999
 30
0.0
 11
-43.19593991000011
 21
137.87902295
 31
0.0
  0
LINE
  5
181D
330
36
100
AcDbEntity
  8
0
 62
     3
100
AcDbLine
 10
-44.17703238000011
 20
138.95788257
 30
0.0
 11
-43.19196150000015
 21
138.9542377
 31
0.0
  0
ARC
  5
181E
330
36
100
AcDbEntity
  8
0
 62
     3
100
AcDbCircle
 10
-57.8975906600001
 20
138.4710354799999
 30
0.0
 40
14.71356563
100
AcDbArc
 50
1.881965739991514
 51
5.709993809994633
  0
LINE
  5
181F
330
36
100
AcDbEntity
  8
0
 62
     3
100
AcDbLine
 10
-46.68968180000002
 20
140.49898547
 30
0.0
 11
-46.6896854900001
 21
140.2874440999999
 31
0.0
  0
LINE
  5
1820
330
36
100
AcDbEntity
  8
0
 62
     3
100
AcDbLine
 10
-48.61919363000016
 20
140.49902501
 30
0.0
 11
-46.68968180000002
 21
140.4989913299999
 31
0.0
  0
LINE
  5
1821
330
36
100
AcDbEntity
  8
0
 62
     3
100
AcDbLine
 10
-48.61926244000006
 20
136.5568136199999
 30
0.0
 11
-48.61926613000014
 21
136.34527225
 31
0.0
  0
LINE
  5
1822
330
36
100
AcDbEntity
  8
0
 62
     3
100
AcDbLine
 10
-48.61919363000016
 20
140.49902501
 30
0.0
 11
-48.61919732000024
 21
140.2874440999999
 31
0.0
  0
LINE
  5
1823
330
36
100
AcDbEntity
  8
0
 62
     3
100
AcDbLine
 10
-51.3763826500001
 20
136.5568136199999
 30
0.0
 11
-51.3763826500001
 21
136.34525248
 31
0.0
  0
LINE
  5
1824
330
36
100
AcDbEntity
  8
0
 62
     3
100
AcDbLine
 10
-51.81213056000024
 20
138.7811405699999
 30
0.0
 11
-50.28970049999998
 21
136.34525248
 31
0.0
  0
LINE
  5
1825
330
36
100
AcDbEntity
  8
0
 62
     3
100
AcDbLine
 10
-50.28970049999998
 20
136.34525248
 30
0.0
 11
-49.27026778000004
 21
136.34525248
 31
0.0
  0
LINE
  5
1826
330
36
100
AcDbEntity
  8
0
 62
     3
100
AcDbLine
 10
-48.83451987000011
 20
140.49900524
 30
0.0
 11
-48.83451987000011
 21
140.2874440999999
 31
0.0
  0
LINE
  5
1827
330
36
100
AcDbEntity
  8
0
 62
     3
100
AcDbLine
 10
-50.37378520000014
 20
140.49900524
 30
0.0
 11
-48.83451987000011
 21
140.49900524
 31
0.0
  0
LINE
  5
1828
330
36
100
AcDbEntity
  8
0
 62
     3
100
AcDbLine
 10
-50.37378520000014
 20
140.49900524
 30
0.0
 11
-50.37378520000014
 21
140.2874440999999
 31
0.0
  0
LINE
  5
1829
330
36
100
AcDbEntity
  8
0
 62
     3
100
AcDbLine
 10
-49.93803729000001
 20
138.6176389
 30
0.0
 11
-51.17268396000008
 21
140.49900524
 31
0.0
  0
LINE
  5
182A
330
36
100
AcDbEntity
  8
0
 62
     3
100
AcDbLine
 10
-52.91564798000013
 20
140.49900524
 30
0.0
 11
-51.17268396000008
 21
140.49900524
 31
0.0
  0
LINE
  5
182B
330
36
100
AcDbEntity
  8
0
 62
     3
100
AcDbLine
 10
-42.9994336200002
 20
140.49890652
 30
0.0
 11
-41.04717108000023
 21
140.49890652
 31
0.0
  0
LINE
  5
182C
330
36
100
AcDbEntity
  8
0
 62
     3
100
AcDbLine
 10
-42.9994336200002
 20
140.2874440999999
 30
0.0
 11
-42.9994336200002
 21
140.49890652
 31
0.0
  0
LINE
  5
182D
330
36
100
AcDbEntity
  8
0
 62
     3
100
AcDbLine
 10
-42.9994336200002
 20
136.34515377
 30
0.0
 11
-42.9994336200002
 21
136.5568136199999
 31
0.0
  0
LINE
  5
182E
330
36
100
AcDbEntity
  8
0
 62
     3
100
AcDbLine
 10
-42.9994336200002
 20
136.34515377
 30
0.0
 11
-41.04717108000023
 21
136.34515377
 31
0.0
  0
LINE
  5
182F
330
36
100
AcDbEntity
  8
0
 62
     3
100
AcDbLine
 10
-40.84344479000015
 20
136.5568136199999
 30
0.0
 11
-40.84344479000015
 21
136.34515377
 31
0.0
  0
LINE
  5
1830
330
36
100
AcDbEntity
  8
0
 62
     3
100
AcDbLine
 10
-41.04717108000023
 20
136.5568136199999
 30
0.0
 11
-41.04717108000023
 21
136.34515377
 31
0.0
  0
LINE
  5
1831
330
36
100
AcDbEntity
  8
0
 62
     3
100
AcDbLine
 10
-41.04717108000023
 20
140.2874440999999
 30
0.0
 11
-41.04717108000023
 21
140.49890652
 31
0.0
  0
LINE
  5
1832
330
36
100
AcDbEntity
  8
0
 62
     3
100
AcDbLine
 10
-40.84344479000015
 20
140.2874440999999
 30
0.0
 11
-40.84344479000015
 21
140.49890652
 31
0.0
  0
LINE
  5
1833
330
36
100
AcDbEntity
  8
0
 62
     3
100
AcDbLine
 10
-52.91564798000013
 20
136.5568136199999
 30
0.0
 11
-52.91564798000013
 21
136.34525248
 31
0.0
  0
LINE
  5
1834
330
36
100
AcDbEntity
  8
0
 62
     3
100
AcDbLine
 10
-52.91564798000013
 20
140.49900524
 30
0.0
 11
-52.91564798000013
 21
140.2874440999999
 31
0.0
  0
ARC
  5
1835
330
36
100
AcDbEntity
  8
0
 62
     3
100
AcDbCircle
 10
-34.34605431
 20
138.8578767699999
 30
0.0
 40
1.641128469999999
100
AcDbArc
 50
17.30874897999775
 51
23.76507095999313
  0
ARC
  5
1836
330
36
100
AcDbEntity
  8
0
 62
     3
100
AcDbCircle
 10
-35.74432771000011
 20
138.4221288599999
 30
0.0
 40
3.105725599999998
100
AcDbArc
 50
342.6912510200022
 51
17.30856643999535
  0
ARC
  5
1837
330
36
100
AcDbEntity
  8
0
 62
     3
100
AcDbCircle
 10
-34.34605431
 20
137.98638096
 30
0.0
 40
1.641128469999999
100
AcDbArc
 50
336.2349290400069
 51
342.6912510200022
  0
ARC
  5
1838
330
36
100
AcDbEntity
  8
0
 62
     3
100
AcDbCircle
 10
-34.55605431000004
 20
138.8578767699999
 30
0.0
 40
1.641128469999999
100
AcDbArc
 50
17.30874897999775
 51
90.0
  0
ARC
  5
1839
330
36
100
AcDbEntity
  8
0
 62
     3
100
AcDbCircle
 10
-35.95432771000015
 20
138.4221288599999
 30
0.0
 40
3.105725599999998
100
AcDbArc
 50
342.6912510200022
 51
17.30856643999535
  0
ARC
  5
183A
330
36
100
AcDbEntity
  8
0
 62
     3
100
AcDbCircle
 10
-34.55605431000004
 20
137.98638096
 30
0.0
 40
1.641128469999999
100
AcDbArc
 50
270.0
 51
342.6912510200022
  0
ARC
  5
183B
330
36
100
AcDbEntity
  8
0
 62
     3
100
AcDbCircle
 10
-44.67999468000015
 20
138.4221288599999
 30
0.0
 40
2.076876379999998
100
AcDbArc
 50
46.75287960999258
 51
89.74999828999569
  0
ARC
  5
183C
330
36
100
AcDbEntity
  8
0
 62
     3
100
AcDbCircle
 10
-44.67999468000015
 20
138.4221288599999
 30
0.0
 40
2.076876379999998
100
AcDbArc
 50
273.976333149997
 51
312.8231203899972
  0
ARC
  5
183D
330
36
100
AcDbEntity
  8
0
 62
     3
100
AcDbCircle
 10
-33.23818674000018
 20
138.3900673299999
 30
0.0
 40
2.755888999999998
100
AcDbArc
 50
0.6665840599916574
 51
23.90392827000086
  0
ARC
  5
183E
330
36
100
AcDbEntity
  8
0
 62
     3
100
AcDbCircle
 10
-29.32262446000004
 20
138.3900673299999
 30
0.0
 40
2.755888999999998
100
AcDbArc
 50
156.096071729999
 51
179.3334159400083
  0
ARC
  5
183F
330
36
100
AcDbEntity
  8
0
 62
     3
100
AcDbCircle
 10
-33.23818674000018
 20
138.45419039
 30
0.0
 40
2.755888999999998
100
AcDbArc
 50
336.0960717299992
 51
359.3334159400084
  0
ARC
  5
1840
330
36
100
AcDbEntity
  8
0
 62
     3
100
AcDbCircle
 10
-29.32262446000004
 20
138.45419039
 30
0.0
 40
2.755888999999998
100
AcDbArc
 50
180.6665840599917
 51
203.903928270001
  0
LINE
  5
1841
330
36
100
AcDbEntity
  8
0
 62
     3
100
AcDbLine
 10
-24.67233737000015
 20
138.5
 30
0.0
 11
90.0
 21
138.5
 31
0.0
  0
LINE
  5
1842
330
36
100
AcDbEntity
  8
0
 62
     3
100
AcDbLine
 10
-58.08508389000007
 20
138.5
 30
0.0
 11
-90.0
 21
138.5
 31
0.0
  0
TEXT
  5
1843
330
36
100
AcDbEntity
  8
0
 62
     3
100
AcDbText
 10
77.5
 20
129.0
 30
0.0
 40
3.2
  1
担　当
  7
高3.2
100
AcDbText
  0
TEXT
  5
1844
330
36
100
AcDbEntity
  8
0
 62
     3
100
AcDbText
 10
33.5
 20
129.0
 30
0.0
 40
3.2
  1
変更・追記内容
  7
高3.2
100
AcDbText
  0
TEXT
  5
1845
330
36
100
AcDbEntity
  8
0
 62
     3
100
AcDbText
 10
8.613515000339246
 20
124.3294614900917
 30
0.0
 40
2.0
  1
1
  7
高2
100
AcDbText
  0
TEXT
  5
1846
330
36
100
AcDbEntity
  8
0
 62
     3
100
AcDbText
 10
8.305003523581945
 20
119.1596447778188
 30
0.0
 40
2.0
  1
2
  7
高2
100
AcDbText
  0
TEXT
  5
1847
330
36
100
AcDbEntity
  8
0
 62
     3
100
AcDbText
 10
15.5
 20
129.0
 30
0.0
 40
3.2
  1
日　付
  7
高3.2
100
AcDbText
  0
TEXT
  5
1848
330
36
100
AcDbEntity
  8
0
 62
     3
100
AcDbText
 10
15.5
 20
134.0
 30
0.0
 40
3.2
  1
図　　　　面　　　　略　　　　歴
  7
高3.2
100
AcDbText
  0
TEXT
  5
1849
330
36
100
AcDbEntity
  8
0
 62
     3
100
AcDbText
 10
5.5
 20
129.0
 30
0.0
 40
3.2
  1
記号
  7
高3.2
100
AcDbText
  0
LINE
  5
184A
330
36
100
AcDbEntity
  8
0
 62
     7
100
AcDbLine
 10
9.0
 20
122.2908960000001
 30
0.0
 11
7.099999999999909
 21
119.0
 31
0.0
  0
LINE
  5
184B
330
36
100
AcDbEntity
  8
0
 62
     7
100
AcDbLine
 10
9.0
 20
122.2908960000001
 30
0.0
 11
10.89999999999986
 21
119.0
 31
0.0
  0
LINE
  5
184C
330
36
100
AcDbEntity
  8
0
 62
     7
100
AcDbLine
 10
7.099999999999909
 20
119.0
 30
0.0
 11
10.89999999999986
 21
119.0
 31
0.0
  0
LINE
  5
184D
330
36
100
AcDbEntity
  8
0
 62
     7
100
AcDbLine
 10
9.0
 20
127.2908970000001
 30
0.0
 11
7.099999999999909
 21
124.0
 31
0.0
  0
LINE
  5
184E
330
36
100
AcDbEntity
  8
0
 62
     7
100
AcDbLine
 10
9.0
 20
127.2908970000001
 30
0.0
 11
10.89999999999986
 21
124.0
 31
0.0
  0
LINE
  5
184F
330
36
100
AcDbEntity
  8
0
 62
     7
100
AcDbLine
 10
7.099999999999909
 20
124.0
 30
0.0
 11
10.89999999999986
 21
124.0
 31
0.0
  0
LINE
  5
1850
330
36
100
AcDbEntity
  8
0
 62
     3
100
AcDbLine
 10
4.0
 20
133.5
 30
0.0
 11
90.0
 21
133.5
 31
0.0
  0
LINE
  5
1851
330
36
100
AcDbEntity
  8
0
 62
     3
100
AcDbLine
 10
4.0
 20
128.5
 30
0.0
 11
90.0
 21
128.5
 31
0.0
  0
LINE
  5
1852
330
36
100
AcDbEntity
  8
0
 62
     7
100
AcDbLine
 10
4.0
 20
123.5
 30
0.0
 11
90.0
 21
123.5
 31
0.0
  0
LINE
  5
1853
330
36
100
AcDbEntity
  8
0
 62
     3
100
AcDbLine
 10
4.0
 20
118.5
 30
0.0
 11
90.0
 21
118.5
 31
0.0
  0
LINE
  5
1854
330
36
100
AcDbEntity
  8
0
 62
     7
100
AcDbLine
 10
76.0
 20
118.5
 30
0.0
 11
76.0
 21
133.5
 31
0.0
  0
LINE
  5
1855
330
36
100
AcDbEntity
  8
0
 62
     7
100
AcDbLine
 10
32.0
 20
118.5
 30
0.0
 11
32.0
 21
133.5
 31
0.0
  0
LINE
  5
1856
330
36
100
AcDbEntity
  8
0
 62
     7
100
AcDbLine
 10
14.0
 20
118.5
 30
0.0
 11
14.0
 21
133.5
 31
0.0
  0
LINE
  5
1857
330
36
100
AcDbEntity
  8
0
 62
     3
100
AcDbLine
 10
4.0
 20
118.5
 30
0.0
 11
4.0
 21
138.5
 31
0.0
  0
LINE
  5
1ED4
330
36
100
AcDbEntity
  8
0
  6
CENTER
 62
     7
100
AcDbLine
 10
-84.76816441825167
 20
38.31732579885989
 30
0.0
 11
42.6012486996808
 21
38.31732579885989
 31
0.0
  0
LINE
  5
1ED5
330
36
100
AcDbEntity
  8
0
  6
CENTER
 62
     7
100
AcDbLine
 10
-84.76816441825167
 20
72.72644588498611
 30
0.0
 11
42.60124869968078
 21
72.72644588498611
 31
0.0
  0
ARC
  5
1ED8
330
36
100
AcDbEntity
  8
0
  6
Continuous
100
AcDbCircle
 10
-0.6244097488713101
 20
43.22529420214578
 30
0.0
 40
20.56010805351166
100
AcDbArc
 50
162.1331383693704
 51
197.8668616306296
  0
ARC
  5
1ED9
330
36
100
AcDbEntity
  8
0
  6
Continuous
100
AcDbCircle
 10
-33.67386937825252
 20
31.16455098853669
 30
0.0
 40
14.65707119556047
100
AcDbArc
 50
336.8903875550897
 51
23.1096124449137
  0
ARC
  5
1EDA
330
36
100
AcDbEntity
  8
0
  6
Continuous
100
AcDbCircle
 10
-5.125183215968441
 20
43.22529420214578
 30
0.0
 40
20.56010805351166
100
AcDbArc
 50
162.1331383693704
 51
197.8668616306296
  0
ARC
  5
1EDB
330
36
100
AcDbEntity
  8
0
  6
Continuous
100
AcDbCircle
 10
-38.17464284534965
 20
31.16455098853669
 30
0.0
 40
14.65707119556047
100
AcDbArc
 50
336.8903875550897
 51
23.1096124449137
  0
ARC
  5
1EDC
330
36
100
AcDbEntity
  8
0
  6
Continuous
100
AcDbCircle
 10
-0.6244097488713101
 20
77.63441428827201
 30
0.0
 40
20.56010805351166
100
AcDbArc
 50
162.1331383693704
 51
197.8668616306296
  0
ARC
  5
1EDD
330
36
100
AcDbEntity
  8
0
  6
Continuous
100
AcDbCircle
 10
-33.67386937825252
 20
65.57367107466291
 30
0.0
 40
14.65707119556047
100
AcDbArc
 50
336.8903875550897
 51
23.1096124449137
  0
ARC
  5
1EDE
330
36
100
AcDbEntity
  8
0
  6
Continuous
100
AcDbCircle
 10
-5.125183215968441
 20
77.63441428827201
 30
0.0
 40
20.56010805351166
100
AcDbArc
 50
162.1331383693704
 51
197.8668616306296
  0
ARC
  5
1EDF
330
36
100
AcDbEntity
  8
0
  6
Continuous
100
AcDbCircle
 10
-38.17464284534965
 20
65.57367107466291
 30
0.0
 40
14.65707119556047
100
AcDbArc
 50
336.8903875550897
 51
23.1096124449137
  0
LINE
  5
2102
330
36
100
AcDbEntity
  8
0
 62
     7
100
AcDbLine
 10
-41.17312420835892
 20
-67.16467238725977
 30
0.0
 11
17.62604696377796
 21
-67.16467238725977
 31
0.0
  0
LINE
  5
2103
330
36
100
AcDbEntity
  8
0
 62
     7
100
AcDbLine
 10
-41.17312420835893
 20
-63.16467238725977
 30
0.0
 11
17.62604696377795
 21
-63.16467238725977
 31
0.0
  0
LINE
  5
2105
330
36
100
AcDbEntity
  8
0
 62
     7
100
AcDbLine
 10
-41.17312420835896
 20
-59.16467238725977
 30
0.0
 11
17.62604696377792
 21
-59.16467238725977
 31
0.0
  0
LINE
  5
2106
330
36
100
AcDbEntity
  8
0
 62
     7
100
AcDbLine
 10
-33.61604023041833
 20
-55.16467238725977
 30
0.0
 11
17.62604696377792
 21
-55.16467238725977
 31
0.0
  0
LINE
  5
2107
330
36
100
AcDbEntity
  8
0
 62
     7
100
AcDbLine
 10
-33.61604023041833
 20
-51.16467238725977
 30
0.0
 11
17.62604696377792
 21
-51.16467238725977
 31
0.0
  0
LINE
  5
2108
330
36
100
AcDbEntity
  8
0
 62
     7
100
AcDbLine
 10
-33.61604023041833
 20
-47.16467238725977
 30
0.0
 11
17.62604696377792
 21
-47.16467238725977
 31
0.0
  0
LINE
  5
2109
330
36
100
AcDbEntity
  8
0
 62
     7
100
AcDbLine
 10
-33.61604023041833
 20
-43.16467238725977
 30
0.0
 11
17.62604696377792
 21
-43.16467238725977
 31
0.0
  0
LINE
  5
210A
330
36
100
AcDbEntity
  8
0
 62
     7
100
AcDbLine
 10
-41.17312420835896
 20
-39.16467238725978
 30
0.0
 11
17.62604696377792
 21
-39.16467238725978
 31
0.0
  0
LINE
  5
210B
330
36
100
AcDbEntity
  8
0
 62
     7
100
AcDbLine
 10
-41.17312420835896
 20
-35.16467238725977
 30
0.0
 11
17.62604696377792
 21
-35.16467238725977
 31
0.0
  0
LINE
  5
210C
330
36
100
AcDbEntity
  8
0
 62
     7
100
AcDbLine
 10
-41.17312420835896
 20
-31.16467238725977
 30
0.0
 11
17.62604696377792
 21
-31.16467238725977
 31
0.0
  0
LINE
  5
210D
330
36
100
AcDbEntity
  8
0
 62
     7
100
AcDbLine
 10
-41.17312420835896
 20
-27.16467238725977
 30
0.0
 11
17.62604696377792
 21
-27.16467238725977
 31
0.0
  0
LINE
  5
210E
330
36
100
AcDbEntity
  8
0
 62
     7
100
AcDbLine
 10
-41.17312420835896
 20
-23.16467238725977
 30
0.0
 11
17.62604696377792
 21
-23.16467238725977
 31
0.0
  0
LINE
  5
210F
330
36
100
AcDbEntity
  8
0
 62
     7
100
AcDbLine
 10
-41.17312420835896
 20
-19.16467238725976
 30
0.0
 11
17.62604696377792
 21
-19.16467238725976
 31
0.0
  0
LINE
  5
2110
330
36
100
AcDbEntity
  8
0
 62
     7
100
AcDbLine
 10
-41.17312420835896
 20
-15.16467238725977
 30
0.0
 11
17.62604696377792
 21
-15.16467238725977
 31
0.0
  0
LINE
  5
2111
330
36
100
AcDbEntity
  8
0
 62
     7
100
AcDbLine
 10
-41.17312420835875
 20
-7.164672387259766
 30
0.0
 11
17.62604696377814
 21
-7.164672387259766
 31
0.0
  0
TEXT
  5
2112
330
36
100
AcDbEntity
  8
0
 62
     3
100
AcDbText
 10
-21.95269106453087
 20
-70.43739965998705
 30
0.0
 40
2.5
  1
530g
 41
0.8
  7
高2.5
100
AcDbText
  0
TEXT
  5
2113
330
36
100
AcDbEntity
  8
0
 62
     3
100
AcDbText
 10
-40.08221511744981
 20
-70.43739965998705
 30
0.0
 40
2.5
  1
質　　　量
 41
0.8
  7
高2.5
100
AcDbText
  0
TEXT
  5
2114
330
36
100
AcDbEntity
  8
0
 62
     3
100
AcDbText
 10
-40.08221511744981
 20
-62.43739965998705
 30
0.0
 40
2.5
  1
球　寿　命
 41
0.8
  7
高2.5
100
AcDbText
  0
TEXT
  5
2115
330
36
100
AcDbEntity
  8
0
 62
     3
100
AcDbText
 10
-40.08221511744981
 20
-66.43739965998702
 30
0.0
 40
2.5
  1
使用環境温度
 41
0.8
  7
高2.5
100
AcDbText
  0
TEXT
  5
2117
330
36
100
AcDbEntity
  8
0
 62
     3
100
AcDbText
 10
-40.08221511744986
 20
-38.43739965998704
 30
0.0
 40
2.5
  1
固有エネルギー消費効率
 41
0.5
  7
高2.5
100
AcDbText
  0
TEXT
  5
2118
330
36
100
AcDbEntity
  8
0
 62
     3
100
AcDbText
 10
-40.08221511744986
 20
-34.43739965998704
 30
0.0
 40
2.5
  1
定格消費電力
 41
0.8
  7
高2.5
100
AcDbText
  0
TEXT
  5
2119
330
36
100
AcDbEntity
  8
0
 62
     3
100
AcDbText
 10
-40.08221511744986
 20
-30.43739965998704
 30
0.0
 40
2.5
  1
定格　電流
 41
0.8
  7
高2.5
100
AcDbText
  0
TEXT
  5
211A
330
36
100
AcDbEntity
  8
0
 62
     3
100
AcDbText
 10
-40.08221511744986
 20
-26.43739965998704
 30
0.0
 40
2.5
  1
入力電圧範囲
 41
0.8
  7
高2.5
100
AcDbText
  0
TEXT
  5
211B
330
36
100
AcDbEntity
  8
0
 62
     3
100
AcDbText
 10
-40.08221511744986
 20
-22.43739965998704
 30
0.0
 40
2.5
  1
周　波　数
 41
0.8
  7
高2.5
100
AcDbText
  0
TEXT
  5
211C
330
36
100
AcDbEntity
  8
0
 62
     3
100
AcDbText
 10
-40.08221511744986
 20
-18.43739965998704
 30
0.0
 40
2.5
  1
定格　電圧
 41
0.8
  7
高2.5
100
AcDbText
  0
TEXT
  5
211E
330
36
100
AcDbEntity
  8
0
 62
     3
100
AcDbText
 10
-40.08221511744966
 20
-2.437399659987041
 30
0.0
 40
2.5
  1
色　温　度
 41
0.8
  7
高2.5
100
AcDbText
  0
TEXT
  5
211F
330
36
100
AcDbEntity
  8
0
 62
     3
100
AcDbText
 10
-40.08221511744966
 20
1.562600340012958
 30
0.0
 40
2.5
  1
定格　光束
 41
0.8
  7
高2.5
100
AcDbText
  0
TEXT
  5
2120
330
36
100
AcDbEntity
  8
0
 62
     3
100
AcDbText
 10
-40.08221511744966
 20
5.562600340012958
 30
0.0
 40
2.5
  1
光　　　源
 41
0.8
  7
高2.5
100
AcDbText
  0
TEXT
  5
2122
330
36
100
AcDbEntity
  8
0
 62
     3
100
AcDbText
 10
-40.08221511744966
 20
-6.437399659987042
 30
0.0
 40
2.5
  1
平均演色評価数
 41
0.8
  7
高2.5
100
AcDbText
  0
TEXT
  5
2123
330
36
100
AcDbEntity
  8
0
 62
     3
100
AcDbText
 10
-40.08221511744986
 20
-42.43739965998702
 30
0.0
 40
2.5
  1
照度
 41
0.8
  7
高2.5
100
AcDbText
  0
LINE
  5
2124
330
36
100
AcDbEntity
  8
0
 62
     7
100
AcDbLine
 10
-41.17312420835875
 20
-3.164672387259768
 30
0.0
 11
17.62604696377814
 21
-3.164672387259768
 31
0.0
  0
LINE
  5
2125
330
36
100
AcDbEntity
  8
0
 62
     7
100
AcDbLine
 10
-41.17312420835875
 20
0.8353276127402311
 30
0.0
 11
17.62604696377814
 21
0.8353276127402311
 31
0.0
  0
LINE
  5
2126
330
36
100
AcDbEntity
  8
0
 62
     7
100
AcDbLine
 10
-41.17312420835875
 20
4.835327612740231
 30
0.0
 11
17.62604696377814
 21
4.835327612740231
 31
0.0
  0
LINE
  5
212A
330
36
100
AcDbEntity
  8
0
 62
     7
100
AcDbLine
 10
-41.17312420835879
 20
12.83532761274023
 30
0.0
 11
17.62604696377811
 21
12.83532761274023
 31
0.0
  0
LINE
  5
212B
330
36
100
AcDbEntity
  8
0
100
AcDbLine
 10
-33.61604023041833
 20
-39.16467238725978
 30
0.0
 11
-33.61604023041833
 21
-59.16467238725977
 31
0.0
  0
TEXT
  5
212C
330
36
100
AcDbEntity
  8
0
 62
     3
100
AcDbText
 10
-32.52513113950924
 20
-42.43739965998702
 30
0.0
 40
2.5
  1
1m
 41
0.8
  7
高2.5
100
AcDbText
  0
TEXT
  5
212D
330
36
100
AcDbEntity
  8
0
 62
     3
100
AcDbText
 10
-32.52513113950924
 20
-46.43739965998702
 30
0.0
 40
2.5
  1
2m
 41
0.8
  7
高2.5
100
AcDbText
  0
TEXT
  5
212E
330
36
100
AcDbEntity
  8
0
 62
     3
100
AcDbText
 10
-32.52513113950924
 20
-50.43739965998703
 30
0.0
 40
2.5
  1
3m
 41
0.8
  7
高2.5
100
AcDbText
  0
TEXT
  5
212F
330
36
100
AcDbEntity
  8
0
 62
     3
100
AcDbText
 10
-32.52513113950924
 20
-54.43739965998705
 30
0.0
 40
2.5
  1
4m
 41
0.8
  7
高2.5
100
AcDbText
  0
TEXT
  5
2130
330
36
100
AcDbEntity
  8
0
 62
     3
100
AcDbText
 10
-32.52513113950924
 20
-58.43739965998705
 30
0.0
 40
2.5
  1
5m
 41
0.8
  7
高2.5
100
AcDbText
  0
LINE
  5
2131
330
36
100
AcDbEntity
  8
0
 62
     3
100
AcDbLine
 10
-41.17312420835892
 20
-71.16467238725977
 30
0.0
 11
17.62604696377796
 21
-71.16467238725977
 31
0.0
  0
TEXT
  5
2134
330
36
100
AcDbEntity
  8
0
 62
     3
100
AcDbText
 10
-21.95269106453068
 20
5.562600340012958
 30
0.0
 40
2.5
  1
LED
 41
0.8
  7
高2.5
100
AcDbText
  0
TEXT
  5
2135
330
36
100
AcDbEntity
  8
0
 62
     3
100
AcDbText
 10
-21.95269106453068
 20
1.562600340012958
 30
0.0
 40
2.5
  1
5400Lm
 41
0.8
  7
高2.5
100
AcDbText
  0
TEXT
  5
2136
330
36
100
AcDbEntity
  8
0
 62
     3
100
AcDbText
 10
-21.95269106453068
 20
-2.437399659987041
 30
0.0
 40
2.5
  1
5000K
 41
0.8
  7
高2.5
100
AcDbText
  0
TEXT
  5
2137
330
36
100
AcDbEntity
  8
0
 62
     3
100
AcDbText
 10
-21.95269106453068
 20
-6.437399659987042
 30
0.0
 40
2.5
  1
Ra82
 41
0.8
  7
高2.5
100
AcDbText
  0
TEXT
  5
2138
330
36
100
AcDbEntity
  8
0
 62
     3
100
AcDbText
 10
-21.9526910645309
 20
-14.43739965998704
 30
0.0
 40
2.5
  1
H:160\U+00B0 V:260\U+00B0[1/10ビーム角]
 41
0.8
  7
高2.5
100
AcDbText
  0
TEXT
  5
2139
330
36
100
AcDbEntity
  8
0
 62
     3
100
AcDbText
 10
-21.9526910645309
 20
-18.43739965998704
 30
0.0
 40
2.5
  1
AC100V (200V)
 41
0.8
  7
高2.5
100
AcDbText
  0
TEXT
  5
213A
330
36
100
AcDbEntity
  8
0
 62
     3
100
AcDbText
 10
-21.9526910645309
 20
-22.43739965998704
 30
0.0
 40
2.5
  1
50/60Hz
 41
0.8
  7
高2.5
100
AcDbText
  0
TEXT
  5
213B
330
36
100
AcDbEntity
  8
0
 62
     3
100
AcDbText
 10
-21.9526910645309
 20
-26.43739965998704
 30
0.0
 40
2.5
  1
AC85～240V
 41
0.8
  7
高2.5
100
AcDbText
  0
TEXT
  5
213C
330
36
100
AcDbEntity
  8
0
 62
     3
100
AcDbText
 10
-21.9526910645309
 20
-30.43739965998704
 30
0.0
 40
2.5
  1
0.53A (0.29A)
 41
0.8
  7
高2.5
100
AcDbText
  0
TEXT
  5
213D
330
36
100
AcDbEntity
  8
0
 62
     3
100
AcDbText
 10
-21.9526910645309
 20
-34.43739965998704
 30
0.0
 40
2.5
  1
34W (35W)
 41
0.8
  7
高2.5
100
AcDbText
  0
TEXT
  5
213E
330
36
100
AcDbEntity
  8
0
 62
     3
100
AcDbText
 10
-21.9526910645309
 20
-38.43739965998704
 30
0.0
 40
2.5
  1
158.8Lm/W (154.2Lm/W)
 41
0.8
  7
高2.5
100
AcDbText
  0
TEXT
  5
213F
330
36
100
AcDbEntity
  8
0
 62
     3
100
AcDbText
 10
-21.9526910645309
 20
-42.43739965998702
 30
0.0
 40
2.5
  1
630Lx
 41
0.8
  7
高2.5
100
AcDbText
  0
TEXT
  5
2140
330
36
100
AcDbEntity
  8
0
 62
     3
100
AcDbText
 10
-21.9526910645309
 20
-46.43739965998702
 30
0.0
 40
2.5
  1
240Lx
 41
0.8
  7
高2.5
100
AcDbText
  0
TEXT
  5
2141
330
36
100
AcDbEntity
  8
0
 62
     3
100
AcDbText
 10
-21.9526910645309
 20
-50.43739965998703
 30
0.0
 40
2.5
  1
130Lx
 41
0.8
  7
高2.5
100
AcDbText
  0
TEXT
  5
2142
330
36
100
AcDbEntity
  8
0
 62
     3
100
AcDbText
 10
-21.9526910645309
 20
-54.43739965998705
 30
0.0
 40
2.5
  1
75Lx
 41
0.8
  7
高2.5
100
AcDbText
  0
TEXT
  5
2143
330
36
100
AcDbEntity
  8
0
 62
     3
100
AcDbText
 10
-21.9526910645309
 20
-58.43739965998705
 30
0.0
 40
2.5
  1
55Lx
 41
0.8
  7
高2.5
100
AcDbText
  0
TEXT
  5
2145
330
36
100
AcDbEntity
  8
0
 62
     3
100
AcDbText
 10
-21.95269106453087
 20
-62.43739965998705
 30
0.0
 40
2.5
  1
50000H
 41
0.8
  7
高2.5
100
AcDbText
  0
TEXT
  5
2146
330
36
100
AcDbEntity
  8
0
 62
     3
100
AcDbText
 10
-21.95269106453087
 20
-66.43739965998702
 30
0.0
 40
2.5
  1
-20～45℃
 41
0.8
  7
高2.5
100
AcDbText
  0
LINE
  5
2147
330
36
100
AcDbEntity
  8
0
 62
     3
100
AcDbLine
 10
-41.17312420835879
 20
16.83532761274023
 30
0.0
 11
-41.17312420835892
 21
-71.16467238725977
 31
0.0
  0
LINE
  5
2148
330
36
100
AcDbEntity
  8
0
 62
     7
100
AcDbLine
 10
-23.04360015543996
 20
-71.16467238725977
 30
0.0
 11
-23.04360015543981
 21
16.83532761274023
 31
0.0
  0
LINE
  5
2149
330
36
100
AcDbEntity
  8
0
 62
     3
100
AcDbLine
 10
17.62604696377796
 20
-71.16467238725977
 30
0.0
 11
17.62604696377843
 21
16.83532761274023
 31
0.0
  0
TEXT
  5
214A
330
36
100
AcDbEntity
  8
0
 62
     3
100
AcDbText
 10
-27.23248603953668
 20
18.89348205295403
 30
0.0
 40
3.2
  1
主　　仕　　様
  7
高3.2
100
AcDbText
  0
LINE
  5
214B
330
36
100
AcDbEntity
  8
0
100
AcDbLine
 10
-28.03315103426808
 20
18.26384344652297
 30
0.0
 11
0.033918260050001
 21
18.26384344652297
 31
0.0
  0
TEXT
  5
214C
330
36
100
AcDbEntity
  8
0
 62
     7
100
AcDbText
 10
-40.07234639438197
 20
-82.90939817996655
 30
0.0
 40
2.0
  1
注４）照度は当社実測値の為、使用環境下により異なります。
 41
0.8
  7
高2
100
AcDbText
  0
TEXT
  5
214D
330
36
100
AcDbEntity
  8
0
 62
     7
100
AcDbText
 10
-40.07234639438197
 20
-85.59121636178472
 30
0.0
 40
2.0
  1
注５）球寿命は光束が70%%%に低下するまでの時間です。
 41
0.8
  7
高2
100
AcDbText
  0
TEXT
  5
214E
330
36
100
AcDbEntity
  8
0
 62
     7
100
AcDbText
 10
-40.07234639438197
 20
-88.2730345436029
 30
0.0
 40
2.0
  1
　　　表示は設計値であり、製品の寿命を保証するものではありません。
 41
0.8
  7
高2
100
AcDbText
  0
TEXT
  5
214F
330
36
100
AcDbEntity
  8
0
 62
     7
100
AcDbText
 10
-40.07234639438197
 20
-80.22757999814833
 30
0.0
 40
2.0
  1
注３）()内数値は入力200Vでの値です。
 41
0.8
  7
高2
100
AcDbText
  0
TEXT
  5
2150
330
36
100
AcDbEntity
  8
0
 62
     7
100
AcDbText
 10
-40.07234639438197
 20
-77.54576181633018
 30
0.0
 40
2.0
  1
注２）LEDの光色、明るさにはバラツキがあります。
 41
0.8
  7
高2
100
AcDbText
  0
TEXT
  5
2151
330
36
100
AcDbEntity
  8
0
 62
     7
100
AcDbText
 10
-40.07234639438197
 20
-74.863943634512
 30
0.0
 40
2.0
  1
注１）当器具のLED素子交換はできません。
 41
0.8
  7
高2
100
AcDbText
  0
TEXT
  5
2152
330
36
100
AcDbEntity
  8
0
 62
     7
100
AcDbText
 10
-40.07234639438197
 20
-90.95485272542109
 30
0.0
 40
2.0
  1
注６）安全にご使用いただくため、取扱説明書をご参照ください。
 41
0.8
  7
高2
100
AcDbText
  0
TEXT
  5
2154
330
36
100
AcDbEntity
  8
0
 62
     3
100
AcDbText
 10
-40.08221511744969
 20
13.56260034001296
 30
0.0
 40
2.5
  1
型　　　式
 41
0.8
  7
高2.5
100
AcDbText
  0
LINE
  5
2155
330
36
100
AcDbEntity
  8
0
 62
     3
100
AcDbLine
 10
-41.17312420835879
 20
16.83532761274023
 30
0.0
 11
17.62604696377811
 21
16.83532761274023
 31
0.0
  0
TEXT
  5
2156
330
36
100
AcDbEntity
  8
0
 62
     3
100
AcDbText
 10
-21.95269106453071
 20
13.56260034001296
 30
0.0
 40
2.5
  1
LCL-110W-HI
 41
0.8
  7
高2.5
100
AcDbText
  0
TEXT
  5
2157
330
36
100
AcDbEntity
  8
0
 62
     7
100
AcDbText
 10
-40.07234639438197
 20
-93.63667090723927
 30
0.0
 40
2.0
  1
注７）仕様変更は予告なく行う場合があります。予めご了承ください。
 41
0.8
  7
高2
100
AcDbText
  0
TEXT
  5
2158
330
36
100
AcDbEntity
  8
0
 62
     3
100
AcDbText
 10
-40.08221511744966
 20
9.562600340012956
 30
0.0
 40
2.5
  1
口金サイズ
 41
0.8
  7
高2.5
100
AcDbText
  0
LINE
  5
2159
330
36
100
AcDbEntity
  8
0
 62
     7
100
AcDbLine
 10
-41.17312420835875
 20
8.835327612740231
 30
0.0
 11
17.62604696377814
 21
8.835327612740231
 31
0.0
  0
TEXT
  5
215A
330
36
100
AcDbEntity
  8
0
 62
     3
100
AcDbText
 10
-21.95269106453068
 20
9.562600340012956
 30
0.0
 40
2.5
  1
G13　(R17dアダプター付属)
 41
0.8
  7
高2.5
100
AcDbText
  0
TEXT
  5
2686
330
36
100
AcDbEntity
  8
0
  6
Continuous
100
AcDbText
 10
62.3077672175923
 20
37.06045809064517
 30
0.0
 40
3.2
  1
H
  7
高3.2
100
AcDbText
  0
TEXT
  5
2687
330
36
100
AcDbEntity
  8
0
  6
Continuous
100
AcDbText
 10
51.64700500605203
 20
47.71581631323761
 30
0.0
 40
3.2
  1
V
  7
高3.2
100
AcDbText
  0
TEXT
  5
2A98
330
36
100
AcDbEntity
  8
0
 62
     3
100
AcDbText
 10
-40.08221511744986
 20
-10.43739965998704
 30
0.0
 40
2.5
  1
照射　角度
 41
0.8
  7
高2.5
100
AcDbText
  0
TEXT
  5
2A99
330
36
100
AcDbEntity
  8
0
 62
     3
100
AcDbText
 10
-21.9526910645309
 20
-10.43739965998704
 30
0.0
 40
2.5
  1
H:105\U+00B0 V:145\U+00B0[1/2ビーム角]
 41
0.8
  7
高2.5
100
AcDbText
  0
LINE
  5
2BFB
330
36
100
AcDbEntity
  8
0
 62
     3
100
AcDbLine
 10
35.1164283769142
 20
79.12644588498611
 30
0.0
 11
35.1164283769142
 21
66.3264458849861
 31
0.0
  0
LINE
  5
2BFD
330
36
100
AcDbEntity
  8
0
 62
     3
100
AcDbLine
 10
35.1164283769142
 20
79.12644588498611
 30
0.0
 11
30.6164283769142
 21
79.12644588498611
 31
0.0
  0
LINE
  5
2BFE
330
36
100
AcDbEntity
  8
0
 62
     3
100
AcDbLine
 10
35.1164283769142
 20
66.3264458849861
 30
0.0
 11
30.6164283769142
 21
66.3264458849861
 31
0.0
  0
LINE
  5
2BFF
330
36
100
AcDbEntity
  8
0
 62
     3
100
AcDbLine
 10
30.6164283769142
 20
65.8264458849861
 30
0.0
 11
30.6164283769142
 21
79.62644588498611
 31
0.0
  0
LINE
  5
2C00
330
36
100
AcDbEntity
  8
0
 62
     3
100
AcDbLine
 10
30.6164283769142
 20
79.62644588498611
 30
0.0
 11
10.6164283769142
 21
79.62644588498611
 31
0.0
  0
LINE
  5
2C01
330
36
100
AcDbEntity
  8
0
 62
     3
100
AcDbLine
 10
10.6164283769142
 20
65.8264458849861
 30
0.0
 11
30.6164283769142
 21
65.8264458849861
 31
0.0
  0
LINE
  5
2C02
330
36
100
AcDbEntity
  8
0
 62
     3
100
AcDbLine
 10
10.6164283769142
 20
79.62644588498611
 30
0.0
 11
10.6164283769142
 21
65.8264458849861
 31
0.0
  0
LINE
  5
2C08
330
36
100
AcDbEntity
  8
0
 62
     3
100
AcDbLine
 10
10.6164283769142
 20
79.12644588498611
 30
0.0
 11
-21.13030853157483
 21
79.12644588498611
 31
0.0
  0
LINE
  5
2C09
330
36
100
AcDbEntity
  8
0
 62
     3
100
AcDbLine
 10
10.6164283769142
 20
66.3264458849861
 30
0.0
 11
-19.0361418867096
 21
66.3264458849861
 31
0.0
  0
LINE
  5
2C0A
330
36
100
AcDbEntity
  8
0
 62
     7
100
AcDbLine
 10
38.1164283769142
 20
73.31394588498611
 30
0.0
 11
35.1164283769142
 21
73.31394588498611
 31
0.0
  0
LINE
  5
2C0B
330
36
100
AcDbEntity
  8
0
 62
     7
100
AcDbLine
 10
38.1164283769142
 20
72.1389458849861
 30
0.0
 11
35.1164283769142
 21
72.1389458849861
 31
0.0
  0
LINE
  5
2C0E
330
36
100
AcDbEntity
  8
0
 62
     7
100
AcDbLine
 10
38.1164283769142
 20
73.31394588498611
 30
0.0
 11
38.1164283769142
 21
72.1389458849861
 31
0.0
  0
LINE
  5
2C0F
330
36
100
AcDbEntity
  8
0
 62
     7
100
AcDbLine
 10
38.1164283769142
 20
73.31394588498611
 30
0.0
 11
38.6164283769142
 21
73.10144588498609
 31
0.0
  0
LINE
  5
2C12
330
36
100
AcDbEntity
  8
0
 62
     7
100
AcDbLine
 10
38.6164283769142
 20
73.10144588498609
 30
0.0
 11
38.6164283769142
 21
72.35144588498609
 31
0.0
  0
LINE
  5
2C13
330
36
100
AcDbEntity
  8
0
 62
     7
100
AcDbLine
 10
38.6164283769142
 20
72.35144588498609
 30
0.0
 11
38.1164283769142
 21
72.1389458849861
 31
0.0
  0
LINE
  5
2C32
330
36
100
AcDbEntity
  8
0
 62
     7
100
AcDbLine
 10
-81.93161670140375
 20
72.1389458849861
 30
0.0
 11
-78.93161670140376
 21
72.1389458849861
 31
0.0
  0
LINE
  5
2C33
330
36
100
AcDbEntity
  8
0
 62
     7
100
AcDbLine
 10
-81.93161670140375
 20
73.31394588498611
 30
0.0
 11
-78.93161670140376
 21
73.31394588498611
 31
0.0
  0
LINE
  5
2C34
330
36
100
AcDbEntity
  8
0
 62
     3
100
AcDbLine
 10
-54.43161670140375
 20
65.8264458849861
 30
0.0
 11
-74.43161670140375
 21
65.8264458849861
 31
0.0
  0
LINE
  5
2C35
330
36
100
AcDbEntity
  8
0
 62
     3
100
AcDbLine
 10
-74.43161670140375
 20
79.62644588498611
 30
0.0
 11
-54.43161670140375
 21
79.62644588498611
 31
0.0
  0
LINE
  5
2C36
330
36
100
AcDbEntity
  8
0
 62
     3
100
AcDbLine
 10
-78.93161670140376
 20
66.3264458849861
 30
0.0
 11
-74.43161670140375
 21
66.3264458849861
 31
0.0
  0
LINE
  5
2C37
330
36
100
AcDbEntity
  8
0
 62
     3
100
AcDbLine
 10
-78.93161670140376
 20
79.12644588498611
 30
0.0
 11
-74.43161670140375
 21
79.12644588498611
 31
0.0
  0
LINE
  5
2C38
330
36
100
AcDbEntity
  8
0
 62
     3
100
AcDbLine
 10
-78.93161670140376
 20
79.12644588498611
 30
0.0
 11
-78.93161670140376
 21
66.3264458849861
 31
0.0
  0
LINE
  5
2C39
330
36
100
AcDbEntity
  8
0
 62
     7
100
AcDbLine
 10
-81.93161670140375
 20
73.31394588498611
 30
0.0
 11
-81.93161670140375
 21
72.1389458849861
 31
0.0
  0
LINE
  5
2C3A
330
36
100
AcDbEntity
  8
0
 62
     3
100
AcDbLine
 10
-74.43161670140375
 20
65.8264458849861
 30
0.0
 11
-74.43161670140375
 21
79.62644588498611
 31
0.0
  0
LINE
  5
2C3B
330
36
100
AcDbEntity
  8
0
 62
     3
100
AcDbLine
 10
-54.43161670140375
 20
79.62644588498611
 30
0.0
 11
-54.43161670140375
 21
65.8264458849861
 31
0.0
  0
LINE
  5
2C3C
330
36
100
AcDbEntity
  8
0
 62
     7
100
AcDbLine
 10
-81.93161670140375
 20
73.31394588498611
 30
0.0
 11
-82.43161670140375
 21
73.10144588498609
 31
0.0
  0
LINE
  5
2C3D
330
36
100
AcDbEntity
  8
0
 62
     7
100
AcDbLine
 10
-82.43161670140375
 20
73.10144588498609
 30
0.0
 11
-82.43161670140375
 21
72.35144588498609
 31
0.0
  0
LINE
  5
2C3E
330
36
100
AcDbEntity
  8
0
 62
     7
100
AcDbLine
 10
-82.43161670140375
 20
72.35144588498609
 30
0.0
 11
-81.93161670140375
 21
72.1389458849861
 31
0.0
  0
LINE
  5
2C42
330
36
100
AcDbEntity
  8
0
 62
     7
100
AcDbLine
 10
38.1164283769142
 20
40.90482579885992
 30
0.0
 11
35.1164283769142
 21
40.90482579885992
 31
0.0
  0
LINE
  5
2C43
330
36
100
AcDbEntity
  8
0
 62
     7
100
AcDbLine
 10
38.1164283769142
 20
42.07982579885992
 30
0.0
 11
35.1164283769142
 21
42.07982579885992
 31
0.0
  0
LINE
  5
2C44
330
36
100
AcDbEntity
  8
0
 62
     3
100
AcDbLine
 10
10.6164283769142
 20
31.41732579885991
 30
0.0
 11
30.6164283769142
 21
31.41732579885991
 31
0.0
  0
LINE
  5
2C45
330
36
100
AcDbEntity
  8
0
 62
     3
100
AcDbLine
 10
30.6164283769142
 20
45.2173257988599
 30
0.0
 11
10.6164283769142
 21
45.2173257988599
 31
0.0
  0
LINE
  5
2C46
330
36
100
AcDbEntity
  8
0
 62
     3
100
AcDbLine
 10
35.1164283769142
 20
31.91732579885991
 30
0.0
 11
30.6164283769142
 21
31.91732579885991
 31
0.0
  0
LINE
  5
2C47
330
36
100
AcDbEntity
  8
0
 62
     3
100
AcDbLine
 10
35.1164283769142
 20
44.71732579885991
 30
0.0
 11
30.6164283769142
 21
44.71732579885991
 31
0.0
  0
LINE
  5
2C48
330
36
100
AcDbEntity
  8
0
 62
     3
100
AcDbLine
 10
35.1164283769142
 20
44.71732579885991
 30
0.0
 11
35.1164283769142
 21
31.91732579885991
 31
0.0
  0
LINE
  5
2C49
330
36
100
AcDbEntity
  8
0
 62
     7
100
AcDbLine
 10
38.1164283769142
 20
42.07982579885992
 30
0.0
 11
38.1164283769142
 21
40.90482579885992
 31
0.0
  0
LINE
  5
2C4A
330
36
100
AcDbEntity
  8
0
 62
     3
100
AcDbLine
 10
30.6164283769142
 20
31.41732579885991
 30
0.0
 11
30.6164283769142
 21
45.2173257988599
 31
0.0
  0
LINE
  5
2C4B
330
36
100
AcDbEntity
  8
0
 62
     3
100
AcDbLine
 10
10.6164283769142
 20
45.2173257988599
 30
0.0
 11
10.6164283769142
 21
31.41732579885991
 31
0.0
  0
LINE
  5
2C4C
330
36
100
AcDbEntity
  8
0
 62
     3
100
AcDbLine
 10
10.6164283769142
 20
44.71732579885991
 30
0.0
 11
-21.13030853157483
 21
44.71732579885991
 31
0.0
  0
LINE
  5
2C4D
330
36
100
AcDbEntity
  8
0
 62
     3
100
AcDbLine
 10
10.6164283769142
 20
31.91732579885991
 30
0.0
 11
-19.0361418867096
 21
31.9173257988599
 31
0.0
  0
LINE
  5
2C4E
330
36
100
AcDbEntity
  8
0
 62
     7
100
AcDbLine
 10
38.1164283769142
 20
42.07982579885992
 30
0.0
 11
38.6164283769142
 21
41.86732579885992
 31
0.0
  0
LINE
  5
2C4F
330
36
100
AcDbEntity
  8
0
 62
     7
100
AcDbLine
 10
38.6164283769142
 20
41.86732579885992
 30
0.0
 11
38.6164283769142
 21
41.11732579885992
 31
0.0
  0
LINE
  5
2C50
330
36
100
AcDbEntity
  8
0
 62
     7
100
AcDbLine
 10
38.6164283769142
 20
41.11732579885992
 30
0.0
 11
38.1164283769142
 21
40.90482579885992
 31
0.0
  0
LINE
  5
2C51
330
36
100
AcDbEntity
  8
0
 62
     7
100
AcDbLine
 10
-81.93161670140375
 20
40.90482579885992
 30
0.0
 11
-78.93161670140376
 21
40.90482579885992
 31
0.0
  0
LINE
  5
2C52
330
36
100
AcDbEntity
  8
0
 62
     7
100
AcDbLine
 10
-81.93161670140375
 20
42.07982579885992
 30
0.0
 11
-78.93161670140376
 21
42.07982579885992
 31
0.0
  0
LINE
  5
2C53
330
36
100
AcDbEntity
  8
0
 62
     3
100
AcDbLine
 10
-54.43161670140375
 20
31.41732579885991
 30
0.0
 11
-74.43161670140375
 21
31.41732579885991
 31
0.0
  0
LINE
  5
2C54
330
36
100
AcDbEntity
  8
0
 62
     3
100
AcDbLine
 10
-74.43161670140375
 20
45.2173257988599
 30
0.0
 11
-54.43161670140375
 21
45.2173257988599
 31
0.0
  0
LINE
  5
2C55
330
36
100
AcDbEntity
  8
0
 62
     3
100
AcDbLine
 10
-78.93161670140376
 20
31.91732579885991
 30
0.0
 11
-74.43161670140375
 21
31.91732579885991
 31
0.0
  0
LINE
  5
2C56
330
36
100
AcDbEntity
  8
0
 62
     3
100
AcDbLine
 10
-78.93161670140376
 20
44.71732579885991
 30
0.0
 11
-74.43161670140375
 21
44.71732579885991
 31
0.0
  0
LINE
  5
2C57
330
36
100
AcDbEntity
  8
0
 62
     3
100
AcDbLine
 10
-78.93161670140376
 20
44.71732579885991
 30
0.0
 11
-78.93161670140376
 21
31.91732579885991
 31
0.0
  0
LINE
  5
2C58
330
36
100
AcDbEntity
  8
0
 62
     7
100
AcDbLine
 10
-81.93161670140375
 20
42.07982579885992
 30
0.0
 11
-81.93161670140375
 21
40.90482579885992
 31
0.0
  0
LINE
  5
2C59
330
36
100
AcDbEntity
  8
0
 62
     3
100
AcDbLine
 10
-74.43161670140375
 20
31.41732579885991
 30
0.0
 11
-74.43161670140375
 21
45.2173257988599
 31
0.0
  0
LINE
  5
2C5A
330
36
100
AcDbEntity
  8
0
 62
     3
100
AcDbLine
 10
-54.43161670140375
 20
45.2173257988599
 30
0.0
 11
-54.43161670140375
 21
31.41732579885991
 31
0.0
  0
LINE
  5
2C5B
330
36
100
AcDbEntity
  8
0
 62
     7
100
AcDbLine
 10
-81.93161670140375
 20
42.07982579885992
 30
0.0
 11
-82.43161670140375
 21
41.86732579885992
 31
0.0
  0
LINE
  5
2C5C
330
36
100
AcDbEntity
  8
0
 62
     7
100
AcDbLine
 10
-82.43161670140375
 20
41.86732579885992
 30
0.0
 11
-82.43161670140375
 21
41.11732579885992
 31
0.0
  0
LINE
  5
2C5D
330
36
100
AcDbEntity
  8
0
 62
     7
100
AcDbLine
 10
-82.43161670140375
 20
41.11732579885992
 30
0.0
 11
-81.93161670140375
 21
40.90482579885992
 31
0.0
  0
LINE
  5
2C64
330
36
100
AcDbEntity
  8
0
 62
     7
100
AcDbLine
 10
38.1164283769142
 20
34.5548257988599
 30
0.0
 11
35.1164283769142
 21
34.5548257988599
 31
0.0
  0
LINE
  5
2C65
330
36
100
AcDbEntity
  8
0
 62
     7
100
AcDbLine
 10
38.1164283769142
 20
35.72982579885991
 30
0.0
 11
35.1164283769142
 21
35.72982579885991
 31
0.0
  0
LINE
  5
2C66
330
36
100
AcDbEntity
  8
0
 62
     7
100
AcDbLine
 10
38.1164283769142
 20
35.72982579885991
 30
0.0
 11
38.1164283769142
 21
34.5548257988599
 31
0.0
  0
LINE
  5
2C67
330
36
100
AcDbEntity
  8
0
 62
     7
100
AcDbLine
 10
38.1164283769142
 20
35.72982579885991
 30
0.0
 11
38.6164283769142
 21
35.51732579885989
 31
0.0
  0
LINE
  5
2C68
330
36
100
AcDbEntity
  8
0
 62
     7
100
AcDbLine
 10
38.6164283769142
 20
35.51732579885989
 30
0.0
 11
38.6164283769142
 21
34.7673257988599
 31
0.0
  0
LINE
  5
2C69
330
36
100
AcDbEntity
  8
0
 62
     7
100
AcDbLine
 10
38.6164283769142
 20
34.7673257988599
 30
0.0
 11
38.1164283769142
 21
34.5548257988599
 31
0.0
  0
LINE
  5
2C6A
330
36
100
AcDbEntity
  8
0
 62
     7
100
AcDbLine
 10
-81.93161670140375
 20
34.5548257988599
 30
0.0
 11
-78.93161670140376
 21
34.5548257988599
 31
0.0
  0
LINE
  5
2C6B
330
36
100
AcDbEntity
  8
0
 62
     7
100
AcDbLine
 10
-81.93161670140375
 20
35.72982579885991
 30
0.0
 11
-78.93161670140376
 21
35.72982579885991
 31
0.0
  0
LINE
  5
2C6C
330
36
100
AcDbEntity
  8
0
 62
     7
100
AcDbLine
 10
-81.93161670140375
 20
35.72982579885991
 30
0.0
 11
-81.93161670140375
 21
34.5548257988599
 31
0.0
  0
LINE
  5
2C6D
330
36
100
AcDbEntity
  8
0
 62
     7
100
AcDbLine
 10
-81.93161670140375
 20
35.72982579885991
 30
0.0
 11
-82.43161670140375
 21
35.51732579885989
 31
0.0
  0
LINE
  5
2C6E
330
36
100
AcDbEntity
  8
0
 62
     7
100
AcDbLine
 10
-82.43161670140375
 20
35.51732579885989
 30
0.0
 11
-82.43161670140375
 21
34.7673257988599
 31
0.0
  0
LINE
  5
2C6F
330
36
100
AcDbEntity
  8
0
 62
     7
100
AcDbLine
 10
-82.43161670140375
 20
34.7673257988599
 30
0.0
 11
-81.93161670140375
 21
34.5548257988599
 31
0.0
  0
LINE
  5
2C70
330
36
100
AcDbEntity
  8
0
 62
     7
100
AcDbLine
 10
10.6164283769142
 20
75.3264458849861
 30
0.0
 11
-21.05456699304124
 21
75.3264458849861
 31
0.0
  0
CIRCLE
  5
2C76
330
36
100
AcDbEntity
  8
0
 62
     7
100
AcDbCircle
 10
65.5126513912166
 20
72.72644588498611
 30
0.0
 40
0.375
  0
CIRCLE
  5
2C77
330
36
100
AcDbEntity
  8
0
 62
     7
100
AcDbCircle
 10
65.5126513912166
 20
72.72644588498611
 30
0.0
 40
0.5875000000000057
  0
CIRCLE
  5
2C78
330
36
100
AcDbEntity
  8
0
 62
     3
100
AcDbCircle
 10
68.6876513912166
 20
72.72644588498611
 30
0.0
 40
6.400000000000002
  0
CIRCLE
  5
2C79
330
36
100
AcDbEntity
  8
0
 62
     3
100
AcDbCircle
 10
68.6876513912166
 20
72.72644588498611
 30
0.0
 40
6.900000000000002
  0
CIRCLE
  5
2C7C
330
36
100
AcDbEntity
  8
0
 62
     7
100
AcDbCircle
 10
71.86265139121656
 20
72.72644588498611
 30
0.0
 40
0.375
  0
CIRCLE
  5
2C7D
330
36
100
AcDbEntity
  8
0
 62
     7
100
AcDbCircle
 10
71.86265139121656
 20
72.72644588498611
 30
0.0
 40
0.5875000000000057
  0
LINE
  5
2E68
330
36
100
AcDbEntity
  8
0
 62
     3
100
AcDbLine
 10
-23.53691535380674
 20
31.9173257988599
 30
0.0
 11
-54.43161670140375
 21
31.91732579885991
 31
0.0
  0
LINE
  5
2E69
330
36
100
AcDbEntity
  8
0
 62
     3
100
AcDbLine
 10
-25.63108199867196
 20
44.71732579885991
 30
0.0
 11
-54.43161670140375
 21
44.71732579885991
 31
0.0
  0
LINE
  5
2E6A
330
36
100
AcDbEntity
  8
0
 62
     3
100
AcDbLine
 10
-23.53691535380674
 20
66.3264458849861
 30
0.0
 11
-54.43161670140375
 21
66.3264458849861
 31
0.0
  0
LINE
  5
2E6B
330
36
100
AcDbEntity
  8
0
 62
     7
100
AcDbLine
 10
-25.55534046013836
 20
75.3264458849861
 30
0.0
 11
-54.43161670140375
 21
75.3264458849861
 31
0.0
  0
LINE
  5
2E6C
330
36
100
AcDbEntity
  8
0
 62
     3
100
AcDbLine
 10
-25.63108199867196
 20
79.12644588498611
 30
0.0
 11
-54.43161670140375
 21
79.12644588498611
 31
0.0
  0
LINE
  5
2F31
330
36
100
AcDbEntity
  8
0
  6
Continuous
 62
     3
100
AcDbLine
 10
52.35711147870134
 20
-9.778808523566567
 30
0.0
 11
45.10711147870134
 21
-9.778808523566567
 31
0.0
  0
ARC
  5
2F35
330
36
100
AcDbEntity
  8
0
  6
Continuous
 62
     3
100
AcDbCircle
 10
48.73211147870134
 20
-18.27880852356656
 30
0.0
 40
6.599999999999997
100
AcDbArc
 50
128.6821874534894
 51
221.5180554543029
  0
LINE
  5
2F39
330
36
100
AcDbEntity
  8
0
  6
Continuous
 62
     3
100
AcDbLine
 10
74.4346158188129
 20
-25.27880852356657
 30
0.0
 11
69.63461581881289
 21
-25.27880852356657
 31
0.0
  0
LINE
  5
2F3A
330
36
100
AcDbEntity
  8
0
  6
Continuous
 62
     3
100
AcDbLine
 10
52.85711147870134
 20
-13.12668517488794
 30
0.0
 11
52.85711147870134
 21
-10.27880852356656
 31
0.0
  0
LINE
  5
2F3B
330
36
100
AcDbEntity
  8
0
  6
Continuous
 62
     3
100
AcDbLine
 10
44.60711147870134
 20
-13.12668517488794
 30
0.0
 11
44.60711147870134
 21
-10.27880852356656
 31
0.0
  0
ARC
  5
2F3C
330
36
100
AcDbEntity
  8
0
  6
Continuous
 62
     3
100
AcDbCircle
 10
48.73211147870134
 20
-18.27880852356656
 30
0.0
 40
5.899999999999997
100
AcDbArc
 50
116.4179168846656
 51
224.2747871600962
  0
LINE
  5
2F3D
330
36
100
AcDbEntity
  8
0
  6
Continuous
 62
     3
100
AcDbLine
 10
51.35711147870134
 20
-11.37880852356656
 30
0.0
 11
51.35711147870134
 21
-12.99492973994563
 31
0.0
  0
LINE
  5
2F3E
330
36
100
AcDbEntity
  8
0
  6
Continuous
 62
     3
100
AcDbLine
 10
46.10711147870134
 20
-11.37880852356656
 30
0.0
 11
46.10711147870134
 21
-12.99492973994563
 31
0.0
  0
LINE
  5
2F3F
330
36
100
AcDbEntity
  8
0
  6
Continuous
 62
     3
100
AcDbLine
 10
50.85711147870134
 20
-10.87880852356656
 30
0.0
 11
46.60711147870133
 21
-10.87880852356656
 31
0.0
  0
ARC
  5
2F40
330
36
100
AcDbEntity
  8
0
  6
Continuous
 62
     3
100
AcDbCircle
 10
50.85711147870134
 20
-11.37880852356656
 30
0.0
 40
0.5
100
AcDbArc
 50
359.9999999999992
 51
89.99999999999836
  0
ARC
  5
2F41
330
36
100
AcDbEntity
  8
0
  6
Continuous
 62
     3
100
AcDbCircle
 10
46.60711147870133
 20
-11.37880852356656
 30
0.0
 40
0.5
100
AcDbArc
 50
89.99999999999836
 51
180.0000000000016
  0
ARC
  5
2F42
330
36
100
AcDbEntity
  8
0
  6
Continuous
 62
     3
100
AcDbCircle
 10
53.20711147870134
 20
-22.64193526937628
 30
0.0
 40
0.35
100
AcDbArc
 50
135.725212839902
 51
220.0000000000007
  0
ARC
  5
2F43
330
36
100
AcDbEntity
  8
0
  6
Continuous
 62
     3
100
AcDbCircle
 10
44.25711147870134
 20
-22.64193526937628
 30
0.0
 40
0.35
100
AcDbArc
 50
319.9999999999993
 51
44.27478716009793
  0
LINE
  5
2F46
330
36
100
AcDbEntity
  8
0
  6
Continuous
 62
     3
100
AcDbLine
 10
52.93899592360967
 20
-22.86691093276656
 30
0.0
 11
54.85791042774994
 21
-25.15378418695684
 31
0.0
  0
LINE
  5
2F47
330
36
100
AcDbEntity
  8
0
  6
Continuous
 62
     3
100
AcDbLine
 10
44.52522703379297
 20
-22.86691093276656
 30
0.0
 11
42.60631252965274
 21
-25.15378418695684
 31
0.0
  0
LINE
  5
2F48
330
36
100
AcDbEntity
  8
0
  6
Continuous
 62
     3
100
AcDbLine
 10
53.67384084745633
 20
-22.65365833195813
 30
0.0
 11
55.39414153793321
 21
-24.70383286017627
 31
0.0
  0
LINE
  5
2F49
330
36
100
AcDbEntity
  8
0
  6
Continuous
 62
     3
100
AcDbLine
 10
43.79038210994631
 20
-22.65365833195814
 30
0.0
 11
42.07008141946945
 21
-24.70383286017627
 31
0.0
  0
ARC
  5
2F4A
330
36
100
AcDbEntity
  8
0
  6
Continuous
 62
     3
100
AcDbCircle
 10
48.73211147870134
 20
-18.27880852356656
 30
0.0
 40
5.899999999999997
100
AcDbArc
 50
315.7252128399038
 51
63.58208311533444
  0
ARC
  5
2F4B
330
36
100
AcDbEntity
  8
0
  6
Continuous
 62
     3
100
AcDbCircle
 10
48.73211147870134
 20
-18.27880852356656
 30
0.0
 40
6.599999999999997
100
AcDbArc
 50
318.4819445456972
 51
51.31781254651052
  0
ARC
  5
2F50
330
36
100
AcDbEntity
  8
0
  6
Continuous
 62
     3
100
AcDbCircle
 10
55.12602598284157
 20
-24.92880852356656
 30
0.0
 40
0.3499999999999948
100
AcDbArc
 50
219.9999999999985
 51
40.00000000000009
  0
ARC
  5
2F51
330
36
100
AcDbEntity
  8
0
  6
Continuous
 62
     3
100
AcDbCircle
 10
42.3381969745611
 20
-24.92880852356656
 30
0.0
 40
0.3500000000000089
100
AcDbArc
 50
139.9999999999999
 51
320.0000000000017
  0
ARC
  5
2F52
330
36
100
AcDbEntity
  8
0
  6
Continuous
 62
     3
100
AcDbCircle
 10
48.73211147870134
 20
-18.27880852356656
 30
0.0
 40
7.599999999999997
100
AcDbArc
 50
317.3592427735289
 51
57.12806218401122
  0
ARC
  5
2F53
330
36
100
AcDbEntity
  8
0
  6
Continuous
 62
     3
100
AcDbCircle
 10
48.73211147870134
 20
-18.27880852356656
 30
0.0
 40
7.599999999999997
100
AcDbArc
 50
122.8719378159887
 51
222.6407572264711
  0
ARC
  5
2F54
330
36
100
AcDbEntity
  8
0
  6
Continuous
 62
     3
100
AcDbCircle
 10
52.35711147870134
 20
-10.27880852356656
 30
0.0
 40
0.5
100
AcDbArc
 50
359.9999999999992
 51
90.0
  0
ARC
  5
2F55
330
36
100
AcDbEntity
  8
0
  6
Continuous
 62
     3
100
AcDbCircle
 10
45.10711147870134
 20
-10.27880852356656
 30
0.0
 40
0.5
100
AcDbArc
 50
90.0
 51
179.9999999999992
  0
LINE
  5
2F56
330
36
100
AcDbEntity
  8
0
  6
Continuous
 62
     3
100
AcDbLine
 10
69.63461581881289
 20
-9.778808523566567
 30
0.0
 11
74.4346158188129
 21
-9.778808523566567
 31
0.0
  0
LINE
  5
2F58
330
36
100
AcDbEntity
  8
0
  6
Continuous
 62
     3
100
AcDbLine
 10
74.4346158188129
 20
-9.778808523566567
 30
0.0
 11
74.4346158188129
 21
-25.27880852356657
 31
0.0
  0
LINE
  5
2F59
330
36
100
AcDbEntity
  8
0
  6
Continuous
 62
     3
100
AcDbLine
 10
69.63461581881289
 20
-9.778808523566567
 30
0.0
 11
69.63461581881289
 21
-25.27880852356657
 31
0.0
  0
LINE
  5
2F5B
330
36
100
AcDbEntity
  8
0
  6
Continuous
 62
     3
100
AcDbLine
 10
41.98823310920199
 20
5.759661751188417
 30
0.0
 11
55.47602598284161
 21
5.759661751188417
 31
0.0
  0
LINE
  5
2F5C
330
36
100
AcDbEntity
  8
0
  6
Continuous
 62
     3
100
AcDbLine
 10
41.98823310920199
 20
10.55966175118843
 30
0.0
 11
55.47602598284161
 21
10.55966175118843
 31
0.0
  0
LINE
  5
2F5D
330
36
100
AcDbEntity
  8
0
  6
Continuous
 62
     3
100
AcDbLine
 10
72.63461581881291
 20
-11.89567645537309
 30
0.0
 11
72.63461581881291
 21
-23.42704411118955
 31
0.0
  0
LINE
  5
2F5E
330
36
100
AcDbEntity
  8
0
  6
Continuous
 62
     3
100
AcDbLine
 10
71.4346158188129
 20
-11.89567645537309
 30
0.0
 11
71.4346158188129
 21
-23.42704411118955
 31
0.0
  0
LINE
  5
2F5F
330
36
100
AcDbEntity
  8
0
  6
Continuous
 62
     3
100
AcDbLine
 10
72.63461581881291
 20
-11.89567645537309
 30
0.0
 11
71.4346158188129
 21
-11.89567645537309
 31
0.0
  0
LINE
  5
2F60
330
36
100
AcDbEntity
  8
0
  6
Continuous
 62
     3
100
AcDbLine
 10
72.63461581881291
 20
-23.42704411118955
 30
0.0
 11
71.4346158188129
 21
-23.42704411118955
 31
0.0
  0
LINE
  5
2F61
330
36
100
AcDbEntity
  8
0
  6
Continuous
 62
     3
100
AcDbLine
 10
69.63461581881289
 20
-22.65365833195817
 30
0.0
 11
71.4346158188129
 21
-22.65365833195817
 31
0.0
  0
LINE
  5
2F62
330
36
100
AcDbEntity
  8
0
  6
Continuous
 62
     3
100
AcDbLine
 10
72.63461581881287
 20
-22.65365833195817
 30
0.0
 11
74.4346158188129
 21
-22.65365833195817
 31
0.0
  0
LINE
  5
2F63
330
36
100
AcDbEntity
  8
0
  6
Continuous
 62
     3
100
AcDbLine
 10
74.4346158188129
 20
-13.12668517488794
 30
0.0
 11
72.63461581881287
 21
-13.12668517488794
 31
0.0
  0
LINE
  5
2F64
330
36
100
AcDbEntity
  8
0
  6
Continuous
 62
     3
100
AcDbLine
 10
71.4346158188129
 20
-13.12668517488794
 30
0.0
 11
69.63461581881289
 21
-13.12668517488794
 31
0.0
  0
LINE
  5
2F65
330
36
100
AcDbEntity
  8
0
  6
Continuous
 62
     3
100
AcDbLine
 10
56.33211147870134
 20
7.559661751188427
 30
0.0
 11
56.33211147870134
 21
8.759661751188417
 31
0.0
  0
LINE
  5
2F66
330
36
100
AcDbEntity
  8
0
  6
Continuous
 62
     3
100
AcDbLine
 10
41.13211147870134
 20
7.559661751188427
 30
0.0
 11
41.13211147870134
 21
8.759661751188417
 31
0.0
  0
LINE
  5
2F67
330
36
100
AcDbEntity
  8
0
  6
Continuous
 62
     3
100
AcDbLine
 10
52.85711147870134
 20
5.759661751188417
 30
0.0
 11
52.85711147870134
 21
10.55966175118843
 31
0.0
  0
LINE
  5
2F68
330
36
100
AcDbEntity
  8
0
  6
Continuous
 62
     3
100
AcDbLine
 10
44.60711147870134
 20
5.759661751188417
 30
0.0
 11
44.60711147870134
 21
10.55966175118843
 31
0.0
  0
LINE
  5
2F69
330
36
100
AcDbEntity
  8
0
  6
Continuous
 62
     3
100
AcDbLine
 10
55.33211147870132
 20
5.759661751188417
 30
0.0
 11
55.33211147870132
 21
7.559661751188412
 31
0.0
  0
LINE
  5
2F6A
330
36
100
AcDbEntity
  8
0
  6
Continuous
 62
     3
100
AcDbLine
 10
42.13211147870135
 20
10.55966175118843
 30
0.0
 11
42.13211147870132
 21
8.759661751188417
 31
0.0
  0
LINE
  5
2F6B
330
36
100
AcDbEntity
  8
0
  6
Continuous
 62
     3
100
AcDbLine
 10
41.13211147870134
 20
8.759661751188417
 30
0.0
 11
44.60711147870134
 21
8.759661751188431
 31
0.0
  0
LINE
  5
2F6C
330
36
100
AcDbEntity
  8
0
  6
Continuous
 62
     3
100
AcDbLine
 10
41.13211147870134
 20
7.559661751188427
 30
0.0
 11
44.60711147870134
 21
7.559661751188427
 31
0.0
  0
LINE
  5
2F6D
330
36
100
AcDbEntity
  8
0
  6
Continuous
 62
     3
100
AcDbLine
 10
52.85711147870134
 20
8.759661751188431
 30
0.0
 11
56.33211147870134
 21
8.759661751188417
 31
0.0
  0
LINE
  5
2F6E
330
36
100
AcDbEntity
  8
0
  6
Continuous
 62
     3
100
AcDbLine
 10
52.85711147870134
 20
7.559661751188427
 30
0.0
 11
56.33211147870134
 21
7.559661751188427
 31
0.0
  0
LINE
  5
2F76
330
36
100
AcDbEntity
  8
0
  6
Continuous
 62
     3
100
AcDbLine
 10
41.98823310920199
 20
5.759661751188417
 30
0.0
 11
41.98823310920199
 21
7.559661751188412
 31
0.0
  0
LINE
  5
2F77
330
36
100
AcDbEntity
  8
0
  6
Continuous
 62
     3
100
AcDbLine
 10
55.47602598284161
 20
10.55966175118843
 30
0.0
 11
55.47602598284157
 21
8.759661751188417
 31
0.0
  0
LINE
  5
2F78
330
36
100
AcDbEntity
  8
0
  6
Continuous
 62
     3
100
AcDbLine
 10
42.13211147870132
 20
7.559661751188412
 30
0.0
 11
42.13211147870135
 21
5.759661751188417
 31
0.0
  0
LINE
  5
2F79
330
36
100
AcDbEntity
  8
0
  6
Continuous
 62
     3
100
AcDbLine
 10
55.33211147870132
 20
8.759661751188417
 30
0.0
 11
55.33211147870132
 21
10.55966175118843
 31
0.0
  0
LINE
  5
2F7A
330
36
100
AcDbEntity
  8
0
  6
Continuous
 62
     3
100
AcDbLine
 10
41.98823310920199
 20
8.759661751188417
 30
0.0
 11
41.98823310920199
 21
10.55966175118843
 31
0.0
  0
LINE
  5
2F7B
330
36
100
AcDbEntity
  8
0
  6
Continuous
 62
     3
100
AcDbLine
 10
55.47602598284157
 20
7.559661751188412
 30
0.0
 11
55.47602598284161
 21
5.759661751188417
 31
0.0
  0
CIRCLE
  5
2F7C
330
36
100
AcDbEntity
  8
0
  6
Continuous
 62
     3
100
AcDbCircle
 10
48.73211147870134
 20
8.159661751188423
 30
0.0
 40
0.875
  0
LINE
  5
2F90
330
36
100
AcDbEntity
  8
0
  6
CENTER
 62
     7
100
AcDbLine
 10
48.73211147870134
 20
2.575602249783969
 30
0.0
 11
48.73211147870134
 21
13.74372125259287
 31
0.0
  0
LINE
  5
2F91
330
36
100
AcDbEntity
  8
0
  6
CENTER
 62
     7
100
AcDbLine
 10
39.90322225075912
 20
8.159661751188423
 30
0.0
 11
57.56100070664357
 21
8.159661751188423
 31
0.0
  0
LINE
  5
2FE9
330
36
100
AcDbEntity
  8
0
  6
CENTER
 62
     7
100
AcDbLine
 10
48.73211147870122
 20
-16.4628680249711
 30
0.0
 11
48.73211147870122
 21
-5.294749022162193
 31
0.0
  0
TEXT
  5
304C
330
36
100
AcDbEntity
  8
0
  6
Continuous
 62
     4
100
AcDbText
 10
46.05720799723281
 20
-36.79055330885637
 30
0.0
 40
3.2
  1
たわみ防止具
  7
高3.2
100
AcDbText
  0
LINE
  5
33C2
330
36
100
AcDbEntity
  8
0
  6
Continuous
100
AcDbLine
 10
41.13211147870134
 20
-18.52880852356656
 30
0.0
 11
41.13211147870134
 21
-31.42367393591724
 31
0.0
  0
LINE
  5
33C3
330
36
100
AcDbEntity
  8
0
  6
Continuous
100
AcDbLine
 10
56.33211147870134
 20
-18.52880852356656
 30
0.0
 11
56.33211147870134
 21
-31.42367393591724
 31
0.0
  0
LINE
  5
33C4
330
36
100
AcDbEntity
  8
0
  6
Continuous
100
AcDbLine
 10
43.63211147870134
 20
-30.17367393591724
 30
0.0
 11
53.83211147870134
 21
-30.17367393591724
 31
0.0
  0
LINE
  5
33C8
330
36
100
AcDbEntity
  8
0
  6
Continuous
100
AcDbLine
 10
69.38461581881289
 20
-25.27880852356657
 30
0.0
 11
64.85832279427191
 21
-25.27880852356657
 31
0.0
  0
LINE
  5
33C9
330
36
100
AcDbEntity
  8
0
  6
Continuous
100
AcDbLine
 10
69.38461581881289
 20
-9.778808523566567
 30
0.0
 11
64.85832279427191
 21
-9.778808523566565
 31
0.0
  0
LINE
  5
33CA
330
36
100
AcDbEntity
  8
0
  6
Continuous
100
AcDbLine
 10
66.10832279427191
 20
-22.77880852356657
 30
0.0
 11
66.10832279427191
 21
-12.27880852356656
 31
0.0
  0
LINE
  5
33CE
330
36
100
AcDbEntity
  8
0
  6
Continuous
100
AcDbLine
 10
52.85711147870134
 20
-10.02880852356656
 30
0.0
 11
52.85711147870134
 21
-2.053325402629296
 31
0.0
  0
LINE
  5
33CF
330
36
100
AcDbEntity
  8
0
  6
Continuous
100
AcDbLine
 10
44.60711147870134
 20
-10.02880852356656
 30
0.0
 11
44.60711147870134
 21
-2.053325402629296
 31
0.0
  0
LINE
  5
33D0
330
36
100
AcDbEntity
  8
0
  6
Continuous
100
AcDbLine
 10
50.35711147870134
 20
-3.303325402629296
 30
0.0
 11
47.10711147870134
 21
-3.303325402629296
 31
0.0
  0
LINE
  5
33D4
330
36
100
AcDbEntity
  8
0
  6
Continuous
100
AcDbLine
 10
46.26130193789905
 20
5.860591240508238
 30
0.0
 11
44.43107264841576
 21
4.157576047411751
 31
0.0
  0
LINE
  5
33D5
330
36
100
AcDbEntity
  8
0
  6
Continuous
100
AcDbLine
 10
51.20292101950401
 20
10.45873226186879
 30
0.0
 11
60.53709039586882
 21
19.14410974666088
 31
0.0
  0
LINE
  5
33D6
330
36
100
AcDbEntity
  8
0
  6
Continuous
100
AcDbLine
 10
48.09153122738235
 20
7.563606433604725
 30
0.0
 11
49.37269173002071
 21
8.755717068772309
 31
0.0
  0
LINE
  5
33DA
330
36
100
AcDbEntity
  8
0
  6
Continuous
100
AcDbLine
 10
74.4346158188129
 20
-9.528808523566567
 30
0.0
 11
74.4346158188129
 21
-2.009671029518131
 31
0.0
  0
LINE
  5
33DB
330
36
100
AcDbEntity
  8
0
  6
Continuous
100
AcDbLine
 10
69.63461581881289
 20
-9.528808523566567
 30
0.0
 11
69.63461581881289
 21
-2.009671029518131
 31
0.0
  0
LINE
  5
33DC
330
36
100
AcDbEntity
  8
0
  6
Continuous
100
AcDbLine
 10
76.9346158188129
 20
-3.259671029518131
 30
0.0
 11
79.4346158188129
 21
-3.259671029518131
 31
0.0
  0
LINE
  5
33DD
330
36
100
AcDbEntity
  8
0
  6
Continuous
100
AcDbLine
 10
67.13461581881289
 20
-3.259671029518131
 30
0.0
 11
57.38461581881288
 21
-3.259671029518131
 31
0.0
  0
LINE
  5
33DE
330
36
100
AcDbEntity
  8
0
  6
Continuous
100
AcDbLine
 10
74.4346158188129
 20
-3.259671029518131
 30
0.0
 11
69.63461581881289
 21
-3.259671029518131
 31
0.0
  0
TEXT
  5
33EA
330
36
100
AcDbEntity
  8
0
  6
Continuous
 62
     4
100
AcDbText
 10
10.01252311154572
 20
54.08889083140707
 30
0.0
 40
3.0
  1
PC(乳白色)
100
AcDbText
1001
ACAD
1000
MTEXTBEGIN
1070
    73
1070
     1
1070
    44
1040
1.0
1070
    74
1070
     0
1000
MTEXTEND
  0
LINE
  5
33ED
330
36
100
AcDbEntity
  8
0
  6
Continuous
100
AcDbLine
 10
-41.35918016248346
 20
79.12644588498611
 30
0.0
 11
-45.18582235712755
 21
79.12644588498611
 31
0.0
  0
LINE
  5
33EE
330
36
100
AcDbEntity
  8
0
  6
Continuous
100
AcDbLine
 10
-41.35918016248346
 20
66.3264458849861
 30
0.0
 11
-45.18582235712755
 21
66.3264458849861
 31
0.0
  0
LINE
  5
33EF
330
36
100
AcDbEntity
  8
0
  6
Continuous
100
AcDbLine
 10
-43.93582235712755
 20
81.62644588498611
 30
0.0
 11
-43.93582235712755
 21
84.12644588498611
 31
0.0
  0
LINE
  5
33F0
330
36
100
AcDbEntity
  8
0
  6
Continuous
100
AcDbLine
 10
-43.93582235712755
 20
63.82644588498609
 30
0.0
 11
-43.93582235712755
 21
48.07644588498609
 31
0.0
  0
LINE
  5
33F1
330
36
100
AcDbEntity
  8
0
  6
Continuous
100
AcDbLine
 10
-43.93582235712755
 20
79.12644588498611
 30
0.0
 11
-43.93582235712755
 21
66.3264458849861
 31
0.0
  0
LINE
  5
33F5
330
36
100
AcDbEntity
  8
0
  6
Continuous
100
AcDbLine
 10
38.6164283769142
 20
73.35144588498609
 30
0.0
 11
38.6164283769142
 21
104.3531517358026
 31
0.0
  0
LINE
  5
33F6
330
36
100
AcDbEntity
  8
0
  6
Continuous
100
AcDbLine
 10
-82.43161670140375
 20
73.35144588498609
 30
0.0
 11
-82.43161670140375
 21
104.3531517358026
 31
0.0
  0
LINE
  5
33F7
330
36
100
AcDbEntity
  8
0
  6
Continuous
100
AcDbLine
 10
36.1164283769142
 20
103.1031517358026
 30
0.0
 11
-79.93161670140375
 21
103.1031517358026
 31
0.0
  0
LINE
  5
33FB
330
36
100
AcDbEntity
  8
0
  6
Continuous
100
AcDbLine
 10
35.1164283769142
 20
79.37644588498611
 30
0.0
 11
35.1164283769142
 21
98.31633973020712
 31
0.0
  0
LINE
  5
33FC
330
36
100
AcDbEntity
  8
0
  6
Continuous
100
AcDbLine
 10
-78.93161670140376
 20
79.37644588498611
 30
0.0
 11
-78.93161670140376
 21
98.31633973020712
 31
0.0
  0
LINE
  5
33FD
330
36
100
AcDbEntity
  8
0
  6
Continuous
100
AcDbLine
 10
32.6164283769142
 20
97.06633973020712
 30
0.0
 11
-76.43161670140376
 21
97.06633973020712
 31
0.0
  0
LINE
  5
3401
330
36
100
AcDbEntity
  8
0
  6
Continuous
100
AcDbLine
 10
68.43765139121659
 20
79.12644588498611
 30
0.0
 11
54.23617730396427
 21
79.12644588498611
 31
0.0
  0
LINE
  5
3402
330
36
100
AcDbEntity
  8
0
  6
Continuous
100
AcDbLine
 10
68.43765139121659
 20
66.3264458849861
 30
0.0
 11
54.23617730396427
 21
66.3264458849861
 31
0.0
  0
LINE
  5
3403
330
36
100
AcDbEntity
  8
0
  6
Continuous
100
AcDbLine
 10
55.48617730396427
 20
63.8264458849861
 30
0.0
 11
55.48617730396427
 21
61.3264458849861
 31
0.0
  0
LINE
  5
3404
330
36
100
AcDbEntity
  8
0
  6
Continuous
100
AcDbLine
 10
55.48617730396428
 20
81.62644588498611
 30
0.0
 11
55.48617730396428
 21
97.37644588498614
 31
0.0
  0
LINE
  5
3405
330
36
100
AcDbEntity
  8
0
  6
Continuous
100
AcDbLine
 10
55.48617730396427
 20
66.3264458849861
 30
0.0
 11
55.48617730396427
 21
79.12644588498611
 31
0.0
  0
LINE
  5
3409
330
36
100
AcDbEntity
  8
0
  6
Continuous
100
AcDbLine
 10
68.43765139121669
 20
79.62644588498611
 30
0.0
 11
48.21436893811323
 21
79.62644588498611
 31
0.0
  0
LINE
  5
340A
330
36
100
AcDbEntity
  8
0
  6
Continuous
100
AcDbLine
 10
68.43765139121659
 20
65.8264458849861
 30
0.0
 11
48.21436893811323
 21
65.8264458849861
 31
0.0
  0
LINE
  5
340B
330
36
100
AcDbEntity
  8
0
  6
Continuous
100
AcDbLine
 10
49.46436893811323
 20
63.3264458849861
 30
0.0
 11
49.46436893811323
 21
60.8264458849861
 31
0.0
  0
LINE
  5
340C
330
36
100
AcDbEntity
  8
0
  6
Continuous
100
AcDbLine
 10
49.46436893811323
 20
82.1264458849861
 30
0.0
 11
49.46436893811323
 21
97.87644588498613
 31
0.0
  0
LINE
  5
340D
330
36
100
AcDbEntity
  8
0
  6
Continuous
100
AcDbLine
 10
49.46436893811323
 20
65.8264458849861
 30
0.0
 11
49.46436893811323
 21
79.62644588498611
 31
0.0
  0
LINE
  5
3411
330
36
100
AcDbEntity
  8
0
 62
     3
100
AcDbLine
 10
-44.17703238000011
 20
138.95788257
 30
0.0
 11
-44.19565991000013
 21
139.07715034
 31
0.0
  0
LINE
  5
3412
330
36
100
AcDbEntity
  8
0
 62
     3
100
AcDbLine
 10
-44.19565991000013
 20
139.07715034
 30
0.0
 11
-44.21803109000006
 21
139.19135512
 31
0.0
  0
LINE
  5
3413
330
36
100
AcDbEntity
  8
0
 62
     3
100
AcDbLine
 10
-44.21803109000006
 20
139.19135512
 30
0.0
 11
-44.2439730200001
 21
139.2996141799999
 31
0.0
  0
LINE
  5
3414
330
36
100
AcDbEntity
  8
0
 62
     3
100
AcDbLine
 10
-44.2439730200001
 20
139.2996141799999
 30
0.0
 11
-44.2732851600001
 21
139.4010907299999
 31
0.0
  0
LINE
  5
3415
330
36
100
AcDbEntity
  8
0
 62
     3
100
AcDbLine
 10
-44.2732851600001
 20
139.4010907299999
 30
0.0
 11
-44.30574096999999
 21
139.49500041
 31
0.0
  0
LINE
  5
3416
330
36
100
AcDbEntity
  8
0
 62
     3
100
AcDbLine
 10
-44.30574096999999
 20
139.49500041
 30
0.0
 11
-44.34108956
 21
139.58061735
 31
0.0
  0
LINE
  5
3417
330
36
100
AcDbEntity
  8
0
 62
     3
100
AcDbLine
 10
-44.34108956
 20
139.58061735
 30
0.0
 11
-44.3790577100001
 21
139.6572797599999
 31
0.0
  0
LINE
  5
3418
330
36
100
AcDbEntity
  8
0
 62
     3
100
AcDbLine
 10
-44.3790577100001
 20
139.6572797599999
 30
0.0
 11
-44.41935196000009
 21
139.7243951
 31
0.0
  0
LINE
  5
3419
330
36
100
AcDbEntity
  8
0
 62
     3
100
AcDbLine
 10
-44.41935196000009
 20
139.7243951
 30
0.0
 11
-44.46166083000025
 21
139.7814445899999
 31
0.0
  0
LINE
  5
341A
330
36
100
AcDbEntity
  8
0
 62
     3
100
AcDbLine
 10
-44.46166083000025
 20
139.7814445899999
 30
0.0
 11
-44.50565732000018
 21
139.82798726
 31
0.0
  0
LINE
  5
341B
330
36
100
AcDbEntity
  8
0
 62
     3
100
AcDbLine
 10
-44.50565732000018
 20
139.82798726
 30
0.0
 11
-44.55100134000008
 21
139.8636633799999
 31
0.0
  0
LINE
  5
341C
330
36
100
AcDbEntity
  8
0
 62
     3
100
AcDbLine
 10
-44.55100134000008
 20
139.8636633799999
 30
0.0
 11
-44.59734241000023
 21
139.88819717
 31
0.0
  0
LINE
  5
341D
330
36
100
AcDbEntity
  8
0
 62
     3
100
AcDbLine
 10
-44.59734241000023
 20
139.88819717
 30
0.0
 11
-44.64432235000002
 21
139.90139902
 31
0.0
  0
LINE
  5
341E
330
36
100
AcDbEntity
  8
0
 62
     3
100
AcDbLine
 10
-44.64432235000002
 20
139.90139902
 30
0.0
 11
-44.69157801000005
 21
139.90316686
 31
0.0
  0
LINE
  5
341F
330
36
100
AcDbEntity
  8
0
 62
     3
100
AcDbLine
 10
-44.69157801000005
 20
139.90316686
 30
0.0
 11
-44.7387441400001
 21
139.8934870499999
 31
0.0
  0
LINE
  5
3420
330
36
100
AcDbEntity
  8
0
 62
     3
100
AcDbLine
 10
-44.7387441400001
 20
139.8934870499999
 30
0.0
 11
-44.78545617000007
 21
139.8724343899999
 31
0.0
  0
LINE
  5
3421
330
36
100
AcDbEntity
  8
0
 62
     3
100
AcDbLine
 10
-44.78545617000007
 20
139.8724343899999
 30
0.0
 11
-44.83135303000017
 21
139.8401716199999
 31
0.0
  0
LINE
  5
3422
330
36
100
AcDbEntity
  8
0
 62
     3
100
AcDbLine
 10
-44.83135303000017
 20
139.8401716199999
 30
0.0
 11
-44.87607997000011
 21
139.79694811
 31
0.0
  0
LINE
  5
3423
330
36
100
AcDbEntity
  8
0
 62
     3
100
AcDbLine
 10
-44.87607997000011
 20
139.79694811
 30
0.0
 11
-44.91929128000015
 21
139.74309795
 31
0.0
  0
LINE
  5
3424
330
36
100
AcDbEntity
  8
0
 62
     3
100
AcDbLine
 10
-44.91929128000015
 20
139.74309795
 30
0.0
 11
-44.96065294000003
 21
139.6790373799999
 31
0.0
  0
LINE
  5
3425
330
36
100
AcDbEntity
  8
0
 62
     3
100
AcDbLine
 10
-44.96065294000003
 20
139.6790373799999
 30
0.0
 11
-44.99984526000026
 21
139.60526156
 31
0.0
  0
LINE
  5
3426
330
36
100
AcDbEntity
  8
0
 62
     3
100
AcDbLine
 10
-44.99984526000026
 20
139.60526156
 30
0.0
 11
-45.0365653000001
 21
139.52234073
 31
0.0
  0
LINE
  5
3427
330
36
100
AcDbEntity
  8
0
 62
     3
100
AcDbLine
 10
-45.0365653000001
 20
139.52234073
 30
0.0
 11
-45.07052923000014
 21
139.43091582
 31
0.0
  0
LINE
  5
3428
330
36
100
AcDbEntity
  8
0
 62
     3
100
AcDbLine
 10
-45.07052923000014
 20
139.43091582
 30
0.0
 11
-45.10147453000013
 21
139.33169352
 31
0.0
  0
LINE
  5
3429
330
36
100
AcDbEntity
  8
0
 62
     3
100
AcDbLine
 10
-45.10147453000013
 20
139.33169352
 30
0.0
 11
-45.12916201000006
 21
139.2254407499999
 31
0.0
  0
LINE
  5
342A
330
36
100
AcDbEntity
  8
0
 62
     3
100
AcDbLine
 10
-45.12916201000006
 20
139.2254407499999
 30
0.0
 11
-45.15337766000015
 21
139.1129787899999
 31
0.0
  0
LINE
  5
342B
330
36
100
AcDbEntity
  8
0
 62
     3
100
AcDbLine
 10
-45.15337766000015
 20
139.1129787899999
 30
0.0
 11
-45.17393430000015
 21
138.99517691
 31
0.0
  0
LINE
  5
342C
330
36
100
AcDbEntity
  8
0
 62
     3
100
AcDbLine
 10
-45.17393430000015
 20
138.99517691
 30
0.0
 11
-45.19067304000009
 21
138.87294567
 31
0.0
  0
LINE
  5
342D
330
36
100
AcDbEntity
  8
0
 62
     3
100
AcDbLine
 10
-45.19067304000009
 20
138.87294567
 30
0.0
 11
-45.2034645000001
 21
138.7472298499999
 31
0.0
  0
LINE
  5
342E
330
36
100
AcDbEntity
  8
0
 62
     3
100
AcDbLine
 10
-45.2034645000001
 20
138.7472298499999
 30
0.0
 11
-45.2122098100001
 21
138.61900117
 31
0.0
  0
LINE
  5
342F
330
36
100
AcDbEntity
  8
0
 62
     3
100
AcDbLine
 10
-45.2122098100001
 20
138.61900117
 30
0.0
 11
-45.2168413700001
 21
138.48925076
 31
0.0
  0
LINE
  5
3430
330
36
100
AcDbEntity
  8
0
 62
     3
100
AcDbLine
 10
-45.2168413700001
 20
138.48925076
 30
0.0
 11
-45.21732338000015
 21
138.3589815299999
 31
0.0
  0
LINE
  5
3431
330
36
100
AcDbEntity
  8
0
 62
     3
100
AcDbLine
 10
-45.21732338000015
 20
138.3589815299999
 30
0.0
 11
-45.21365212
 21
138.2292004099999
 31
0.0
  0
LINE
  5
3432
330
36
100
AcDbEntity
  8
0
 62
     3
100
AcDbLine
 10
-45.21365212
 20
138.2292004099999
 30
0.0
 11
-45.20585596
 21
138.10091052
 31
0.0
  0
LINE
  5
3433
330
36
100
AcDbEntity
  8
0
 62
     3
100
AcDbLine
 10
-45.20585596
 20
138.10091052
 30
0.0
 11
-45.19399516000021
 21
137.97510348
 31
0.0
  0
LINE
  5
3434
330
36
100
AcDbEntity
  8
0
 62
     3
100
AcDbLine
 10
-45.19399516000021
 20
137.97510348
 30
0.0
 11
-45.17816140000014
 21
137.85275171
 31
0.0
  0
LINE
  5
3435
330
36
100
AcDbEntity
  8
0
 62
     3
100
AcDbLine
 10
-45.17816140000014
 20
137.85275171
 30
0.0
 11
-45.15847708000001
 21
137.73480094
 31
0.0
  0
LINE
  5
3436
330
36
100
AcDbEntity
  8
0
 62
     3
100
AcDbLine
 10
-45.15847708000001
 20
137.73480094
 30
0.0
 11
-45.13509432000001
 21
137.62216287
 31
0.0
  0
LINE
  5
3437
330
36
100
AcDbEntity
  8
0
 62
     3
100
AcDbLine
 10
-45.13509432000001
 20
137.62216287
 30
0.0
 11
-45.10819389000015
 21
137.51570811
 31
0.0
  0
LINE
  5
3438
330
36
100
AcDbEntity
  8
0
 62
     3
100
AcDbLine
 10
-45.10819389000015
 20
137.51570811
 30
0.0
 11
-45.0779836900001
 21
137.41625952
 31
0.0
  0
LINE
  5
3439
330
36
100
AcDbEntity
  8
0
 62
     3
100
AcDbLine
 10
-45.0779836900001
 20
137.41625952
 30
0.0
 11
-45.04469723999998
 21
137.32458579
 31
0.0
  0
LINE
  5
343A
330
36
100
AcDbEntity
  8
0
 62
     3
100
AcDbLine
 10
-45.04469723999998
 20
137.32458579
 30
0.0
 11
-45.00859184000001
 21
137.24139549
 31
0.0
  0
LINE
  5
343B
330
36
100
AcDbEntity
  8
0
 62
     3
100
AcDbLine
 10
-45.00859184000001
 20
137.24139549
 30
0.0
 11
-44.96994654000014
 21
137.1673316599999
 31
0.0
  0
LINE
  5
343C
330
36
100
AcDbEntity
  8
0
 62
     3
100
AcDbLine
 10
-44.96994654000014
 20
137.1673316599999
 30
0.0
 11
-44.92906006000021
 21
137.10296677
 31
0.0
  0
LINE
  5
343D
330
36
100
AcDbEntity
  8
0
 62
     3
100
AcDbLine
 10
-44.92906006000021
 20
137.10296677
 30
0.0
 11
-44.88624844000014
 21
137.04879832
 31
0.0
  0
LINE
  5
343E
330
36
100
AcDbEntity
  8
0
 62
     3
100
AcDbLine
 10
-44.88624844000014
 20
137.04879832
 30
0.0
 11
-44.84184258000005
 21
137.005245
 31
0.0
  0
LINE
  5
343F
330
36
100
AcDbEntity
  8
0
 62
     3
100
AcDbLine
 10
-44.84184258000005
 20
137.005245
 30
0.0
 11
-44.79618573000015
 21
136.9726434699999
 31
0.0
  0
LINE
  5
3440
330
36
100
AcDbEntity
  8
0
 62
     3
100
AcDbLine
 10
-44.79618573000015
 20
136.9726434699999
 30
0.0
 11
-44.74963077000007
 21
136.9512457099999
 31
0.0
  0
LINE
  5
3441
330
36
100
AcDbEntity
  8
0
 62
     3
100
AcDbLine
 10
-44.74963077000007
 20
136.9512457099999
 30
0.0
 11
-44.7025375600001
 21
136.94121713
 31
0.0
  0
LINE
  5
3442
330
36
100
AcDbEntity
  8
0
 62
     3
100
AcDbLine
 10
-44.7025375600001
 20
136.94121713
 30
0.0
 11
-44.65527011000017
 21
136.9426352299999
 31
0.0
  0
LINE
  5
3443
330
36
100
AcDbEntity
  8
0
 62
     3
100
AcDbLine
 10
-44.65527011000017
 20
136.9426352299999
 30
0.0
 11
-44.60819377000006
 21
136.95548905
 31
0.0
  0
LINE
  5
3444
330
36
100
AcDbEntity
  8
0
 62
     3
100
AcDbLine
 10
-44.60819377000006
 20
136.95548905
 30
0.0
 11
-44.56167241000001
 21
136.97967925
 31
0.0
  0
LINE
  5
3445
330
36
100
AcDbEntity
  8
0
 62
     3
100
AcDbLine
 10
-44.56167241000001
 20
136.97967925
 30
0.0
 11
-44.51606562000007
 21
137.01501883
 31
0.0
  0
LINE
  5
3446
330
36
100
AcDbEntity
  8
0
 62
     3
100
AcDbLine
 10
-44.51606562000007
 20
137.01501883
 30
0.0
 11
-44.47172592000015
 21
137.0612346499999
 31
0.0
  0
LINE
  5
3447
330
36
100
AcDbEntity
  8
0
 62
     3
100
AcDbLine
 10
-44.47172592000015
 20
137.0612346499999
 30
0.0
 11
-44.42899603000022
 21
137.1179694899999
 31
0.0
  0
LINE
  5
3448
330
36
100
AcDbEntity
  8
0
 62
     3
100
AcDbLine
 10
-44.42899603000022
 20
137.1179694899999
 30
0.0
 11
-44.38820623000014
 21
137.1847848
 31
0.0
  0
LINE
  5
3449
330
36
100
AcDbEntity
  8
0
 62
     3
100
AcDbLine
 10
-44.38820623000014
 20
137.1847848
 30
0.0
 11
-44.3496718000001
 21
137.26116415
 31
0.0
  0
LINE
  5
344A
330
36
100
AcDbEntity
  8
0
 62
     3
100
AcDbLine
 10
-44.3496718000001
 20
137.26116415
 30
0.0
 11
-44.31369059999997
 21
137.3465171599999
 31
0.0
  0
LINE
  5
344B
330
36
100
AcDbEntity
  8
0
 62
     3
100
AcDbLine
 10
-44.31369059999997
 20
137.3465171599999
 30
0.0
 11
-44.2805407400001
 21
137.44018409
 31
0.0
  0
LINE
  5
344C
330
36
100
AcDbEntity
  8
0
 62
     3
100
AcDbLine
 10
-44.2805407400001
 20
137.44018409
 30
0.0
 11
-44.25047846000007
 21
137.54144095
 31
0.0
  0
LINE
  5
344D
330
36
100
AcDbEntity
  8
0
 62
     3
100
AcDbLine
 10
-44.25047846000007
 20
137.54144095
 30
0.0
 11
-44.2237361100001
 21
137.64950507
 31
0.0
  0
LINE
  5
344E
330
36
100
AcDbEntity
  8
0
 62
     3
100
AcDbLine
 10
-44.2237361100001
 20
137.64950507
 30
0.0
 11
-44.20052041000007
 21
137.7635411799999
 31
0.0
  0
LINE
  5
344F
330
36
100
AcDbEntity
  8
0
 62
     3
100
AcDbLine
 10
-44.20052041000007
 20
137.7635411799999
 30
0.0
 11
-44.18101079999996
 21
137.8826678299999
 31
0.0
  0
TEXT
  5
3450
330
36
100
AcDbEntity
  8
0
  6
Continuous
 62
     4
100
AcDbText
 10
44.48211147870134
 20
-29.54867393591724
 30
0.0
 40
3.0
  1
30.4
100
AcDbText
  0
LINE
  5
3451
330
36
100
AcDbEntity
  8
0
  6
ByBlock
 62
     0
370
    -2
100
AcDbLine
 10
53.83211147870134
 20
-29.50380143591724
 30
0.0
 11
56.33211147870134
 21
-30.17367393591724
 31
0.0
  0
LINE
  5
3452
330
36
100
AcDbEntity
  8
0
  6
ByBlock
 62
     0
370
    -2
100
AcDbLine
 10
56.33211147870134
 20
-30.17367393591724
 30
0.0
 11
53.83211147870134
 21
-30.84354643591724
 31
0.0
  0
LINE
  5
3453
330
36
100
AcDbEntity
  8
0
  6
ByBlock
 62
     0
370
    -2
100
AcDbLine
 10
56.33211147870134
 20
-30.17367393591724
 30
0.0
 11
53.83211147870134
 21
-30.17367393591724
 31
0.0
  0
LINE
  5
3454
330
36
100
AcDbEntity
  8
0
  6
ByBlock
 62
     0
370
    -2
100
AcDbLine
 10
43.63211147870134
 20
-30.84354643591724
 30
0.0
 11
41.13211147870134
 21
-30.17367393591724
 31
0.0
  0
LINE
  5
3455
330
36
100
AcDbEntity
  8
0
  6
ByBlock
 62
     0
370
    -2
100
AcDbLine
 10
41.13211147870134
 20
-30.17367393591724
 30
0.0
 11
43.63211147870134
 21
-29.50380143591724
 31
0.0
  0
LINE
  5
3456
330
36
100
AcDbEntity
  8
0
  6
ByBlock
 62
     0
370
    -2
100
AcDbLine
 10
41.13211147870134
 20
-30.17367393591724
 30
0.0
 11
43.63211147870134
 21
-30.17367393591724
 31
0.0
  0
TEXT
  5
3457
330
36
100
AcDbEntity
  8
0
  6
Continuous
 62
     4
100
AcDbText
 10
65.48332279427191
 20
-19.25554990043792
 30
0.0
 40
3.0
  1
31
 50
90.0
100
AcDbText
  0
LINE
  5
3458
330
36
100
AcDbEntity
  8
0
  6
ByBlock
 62
     0
370
    -2
100
AcDbLine
 10
65.43845029427192
 20
-12.27880852356656
 30
0.0
 11
66.10832279427191
 21
-9.778808523566565
 31
0.0
  0
LINE
  5
3459
330
36
100
AcDbEntity
  8
0
  6
ByBlock
 62
     0
370
    -2
100
AcDbLine
 10
66.10832279427191
 20
-9.778808523566565
 30
0.0
 11
66.77819529427191
 21
-12.27880852356656
 31
0.0
  0
LINE
  5
345A
330
36
100
AcDbEntity
  8
0
  6
ByBlock
 62
     0
370
    -2
100
AcDbLine
 10
66.10832279427191
 20
-9.778808523566565
 30
0.0
 11
66.10832279427191
 21
-12.27880852356656
 31
0.0
  0
LINE
  5
345B
330
36
100
AcDbEntity
  8
0
  6
ByBlock
 62
     0
370
    -2
100
AcDbLine
 10
66.77819529427191
 20
-22.77880852356657
 30
0.0
 11
66.10832279427191
 21
-25.27880852356657
 31
0.0
  0
LINE
  5
345C
330
36
100
AcDbEntity
  8
0
  6
ByBlock
 62
     0
370
    -2
100
AcDbLine
 10
66.10832279427191
 20
-25.27880852356657
 30
0.0
 11
65.43845029427192
 21
-22.77880852356657
 31
0.0
  0
LINE
  5
345D
330
36
100
AcDbEntity
  8
0
  6
ByBlock
 62
     0
370
    -2
100
AcDbLine
 10
66.10832279427191
 20
-25.27880852356657
 30
0.0
 11
66.10832279427191
 21
-22.77880852356657
 31
0.0
  0
TEXT
  5
345E
330
36
100
AcDbEntity
  8
0
  6
Continuous
 62
     4
100
AcDbText
 10
44.73211147870133
 20
-2.678325402629296
 30
0.0
 40
3.0
  1
16.5
100
AcDbText
  0
LINE
  5
345F
330
36
100
AcDbEntity
  8
0
  6
ByBlock
 62
     0
370
    -2
100
AcDbLine
 10
47.10711147870134
 20
-3.973197902629296
 30
0.0
 11
44.60711147870134
 21
-3.303325402629296
 31
0.0
  0
LINE
  5
3460
330
36
100
AcDbEntity
  8
0
  6
ByBlock
 62
     0
370
    -2
100
AcDbLine
 10
44.60711147870134
 20
-3.303325402629296
 30
0.0
 11
47.10711147870134
 21
-2.633452902629296
 31
0.0
  0
LINE
  5
3461
330
36
100
AcDbEntity
  8
0
  6
ByBlock
 62
     0
370
    -2
100
AcDbLine
 10
44.60711147870134
 20
-3.303325402629296
 30
0.0
 11
47.10711147870134
 21
-3.303325402629296
 31
0.0
  0
LINE
  5
3462
330
36
100
AcDbEntity
  8
0
  6
ByBlock
 62
     0
370
    -2
100
AcDbLine
 10
50.35711147870134
 20
-2.633452902629296
 30
0.0
 11
52.85711147870134
 21
-3.303325402629296
 31
0.0
  0
LINE
  5
3463
330
36
100
AcDbEntity
  8
0
  6
ByBlock
 62
     0
370
    -2
100
AcDbLine
 10
52.85711147870134
 20
-3.303325402629296
 30
0.0
 11
50.35711147870134
 21
-3.973197902629296
 31
0.0
  0
LINE
  5
3464
330
36
100
AcDbEntity
  8
0
  6
ByBlock
 62
     0
370
    -2
100
AcDbLine
 10
52.85711147870134
 20
-3.303325402629296
 30
0.0
 11
50.35711147870134
 21
-3.303325402629296
 31
0.0
  0
TEXT
  5
3465
330
36
100
AcDbEntity
  8
0
  6
Continuous
 62
     4
100
AcDbText
 10
53.06495383308398
 20
13.04505857561024
 30
0.0
 40
3.0
  1
\U+22053.5
 50
42.93796221298679
100
AcDbText
  0
LINE
  5
3466
330
36
100
AcDbEntity
  8
0
  6
ByBlock
 62
     0
370
    -2
100
AcDbLine
 10
51.65924223747901
 20
9.968324153981034
 30
0.0
 11
49.37269173002071
 21
8.755717068772309
 31
0.0
  0
LINE
  5
3467
330
36
100
AcDbEntity
  8
0
  6
ByBlock
 62
     0
370
    -2
100
AcDbLine
 10
49.37269173002071
 20
8.755717068772309
 30
0.0
 11
50.74659980152899
 21
10.94914036975655
 31
0.0
  0
LINE
  5
3468
330
36
100
AcDbEntity
  8
0
  6
ByBlock
 62
     0
370
    -2
100
AcDbLine
 10
49.37269173002071
 20
8.755717068772309
 30
0.0
 11
51.20292101950401
 21
10.45873226186879
 31
0.0
  0
LINE
  5
3469
330
36
100
AcDbEntity
  8
0
  6
ByBlock
 62
     0
370
    -2
100
AcDbLine
 10
45.80498071992404
 20
6.350999348395999
 30
0.0
 11
48.09153122738235
 21
7.563606433604725
 31
0.0
  0
LINE
  5
346A
330
36
100
AcDbEntity
  8
0
  6
ByBlock
 62
     0
370
    -2
100
AcDbLine
 10
48.09153122738235
 20
7.563606433604725
 30
0.0
 11
46.71762315587407
 21
5.370183132620478
 31
0.0
  0
LINE
  5
346B
330
36
100
AcDbEntity
  8
0
  6
ByBlock
 62
     0
370
    -2
100
AcDbLine
 10
48.09153122738235
 20
7.563606433604725
 30
0.0
 11
46.26130193789905
 21
5.860591240508238
 31
0.0
  0
TEXT
  5
346C
330
36
100
AcDbEntity
  8
0
  6
Continuous
 62
     4
100
AcDbText
 10
58.00961581881288
 20
-2.634671029518131
 30
0.0
 40
3.0
  1
9.6
100
AcDbText
  0
LINE
  5
346D
330
36
100
AcDbEntity
  8
0
  6
ByBlock
 62
     0
370
    -2
100
AcDbLine
 10
67.13461581881289
 20
-2.589798529518131
 30
0.0
 11
69.63461581881289
 21
-3.259671029518131
 31
0.0
  0
LINE
  5
346E
330
36
100
AcDbEntity
  8
0
  6
ByBlock
 62
     0
370
    -2
100
AcDbLine
 10
69.63461581881289
 20
-3.259671029518131
 30
0.0
 11
67.13461581881289
 21
-3.929543529518131
 31
0.0
  0
LINE
  5
346F
330
36
100
AcDbEntity
  8
0
  6
ByBlock
 62
     0
370
    -2
100
AcDbLine
 10
69.63461581881289
 20
-3.259671029518131
 30
0.0
 11
67.13461581881289
 21
-3.259671029518131
 31
0.0
  0
LINE
  5
3470
330
36
100
AcDbEntity
  8
0
  6
ByBlock
 62
     0
370
    -2
100
AcDbLine
 10
76.9346158188129
 20
-3.929543529518131
 30
0.0
 11
74.4346158188129
 21
-3.259671029518131
 31
0.0
  0
LINE
  5
3471
330
36
100
AcDbEntity
  8
0
  6
ByBlock
 62
     0
370
    -2
100
AcDbLine
 10
74.4346158188129
 20
-3.259671029518131
 30
0.0
 11
76.9346158188129
 21
-2.589798529518131
 31
0.0
  0
LINE
  5
3472
330
36
100
AcDbEntity
  8
0
  6
ByBlock
 62
     0
370
    -2
100
AcDbLine
 10
74.4346158188129
 20
-3.259671029518131
 30
0.0
 11
76.9346158188129
 21
-3.259671029518131
 31
0.0
  0
LINE
  5
3473
330
36
100
AcDbEntity
  8
0
  6
Continuous
100
AcDbLine
 10
53.00312384200609
 20
33.4086754886373
 30
0.0
 11
53.00312384200609
 21
38.31732579885989
 31
0.0
1001
ACAD
1000
DSTYLE
1002
{
1070
   147
1040
0.625
1070
    77
1070
     0
1002
}
  0
LINE
  5
3474
330
36
100
AcDbEntity
  8
0
  6
ByBlock
 62
     0
370
    -2
100
AcDbLine
 10
53.67299634200609
 20
33.4086754886373
 30
0.0
 11
53.00312384200609
 21
30.9086754886373
 31
0.0
  0
LINE
  5
3475
330
36
100
AcDbEntity
  8
0
  6
ByBlock
 62
     0
370
    -2
100
AcDbLine
 10
53.00312384200609
 20
30.9086754886373
 30
0.0
 11
52.33325134200609
 21
33.4086754886373
 31
0.0
  0
LINE
  5
3476
330
36
100
AcDbEntity
  8
0
  6
ByBlock
 62
     0
370
    -2
100
AcDbLine
 10
53.00312384200609
 20
30.9086754886373
 30
0.0
 11
53.00312384200609
 21
33.4086754886373
 31
0.0
  0
LINE
  5
3477
330
36
100
AcDbEntity
  8
0
  6
Continuous
100
AcDbLine
 10
48.09447353178348
 20
38.31732579885989
 30
0.0
 11
53.00312384200609
 21
38.31732579885989
 31
0.0
1001
ACAD
1000
DSTYLE
1002
{
1070
   147
1040
0.625
1070
    77
1070
     0
1002
}
  0
LINE
  5
3478
330
36
100
AcDbEntity
  8
0
  6
ByBlock
 62
     0
370
    -2
100
AcDbLine
 10
48.09447353178348
 20
37.64745329885989
 30
0.0
 11
45.59447353178348
 21
38.31732579885989
 31
0.0
  0
LINE
  5
3479
330
36
100
AcDbEntity
  8
0
  6
ByBlock
 62
     0
370
    -2
100
AcDbLine
 10
45.59447353178348
 20
38.31732579885989
 30
0.0
 11
48.09447353178348
 21
38.98719829885989
 31
0.0
  0
LINE
  5
347A
330
36
100
AcDbEntity
  8
0
  6
ByBlock
 62
     0
370
    -2
100
AcDbLine
 10
45.59447353178348
 20
38.31732579885989
 30
0.0
 11
48.09447353178348
 21
38.31732579885989
 31
0.0
  0
LINE
  5
347B
330
36
100
AcDbEntity
  8
0
  6
Continuous
100
AcDbLine
 10
53.00312384200609
 20
43.2259761090824
 30
0.0
 11
53.00312384200609
 21
38.31732579885989
 31
0.0
1001
ACAD
1000
DSTYLE
1002
{
1070
   147
1040
0.625
1070
    77
1070
     0
1002
}
  0
LINE
  5
347C
330
36
100
AcDbEntity
  8
0
  6
ByBlock
 62
     0
370
    -2
100
AcDbLine
 10
52.33325134200609
 20
43.2259761090824
 30
0.0
 11
53.00312384200609
 21
45.7259761090824
 31
0.0
  0
LINE
  5
347D
330
36
100
AcDbEntity
  8
0
  6
ByBlock
 62
     0
370
    -2
100
AcDbLine
 10
53.00312384200609
 20
45.7259761090824
 30
0.0
 11
53.67299634200609
 21
43.2259761090824
 31
0.0
  0
LINE
  5
347E
330
36
100
AcDbEntity
  8
0
  6
ByBlock
 62
     0
370
    -2
100
AcDbLine
 10
53.00312384200609
 20
45.7259761090824
 30
0.0
 11
53.00312384200609
 21
43.2259761090824
 31
0.0
  0
LINE
  5
347F
330
36
100
AcDbEntity
  8
0
  6
Continuous
100
AcDbLine
 10
57.91177415222865
 20
38.31732579885989
 30
0.0
 11
53.00312384200609
 21
38.31732579885989
 31
0.0
1001
ACAD
1000
DSTYLE
1002
{
1070
   147
1040
0.625
1070
    77
1070
     0
1002
}
  0
LINE
  5
3480
330
36
100
AcDbEntity
  8
0
  6
ByBlock
 62
     0
370
    -2
100
AcDbLine
 10
57.91177415222865
 20
38.98719829885989
 30
0.0
 11
60.41177415222865
 21
38.31732579885989
 31
0.0
  0
LINE
  5
3481
330
36
100
AcDbEntity
  8
0
  6
ByBlock
 62
     0
370
    -2
100
AcDbLine
 10
60.41177415222865
 20
38.31732579885989
 30
0.0
 11
57.91177415222865
 21
37.6474532988599
 31
0.0
  0
LINE
  5
3482
330
36
100
AcDbEntity
  8
0
  6
ByBlock
 62
     0
370
    -2
100
AcDbLine
 10
60.41177415222865
 20
38.31732579885989
 30
0.0
 11
57.91177415222865
 21
38.31732579885989
 31
0.0
  0
LINE
  5
3483
330
36
100
AcDbEntity
  8
0
  6
Continuous
100
AcDbLine
 10
3.789699310083041
 20
63.98112768084801
 30
0.0
 11
6.887523111545721
 21
55.58889083140707
 31
0.0
1001
ACAD
1000
DSTYLE
1002
{
1070
   147
1040
0.625
1070
    77
1070
     0
1002
}
  0
LINE
  5
3484
330
36
100
AcDbEntity
  8
0
  6
Continuous
100
AcDbLine
 10
6.887523111545721
 20
55.58889083140707
 30
0.0
 11
9.387523111545721
 21
55.58889083140707
 31
0.0
1001
ACAD
1000
DSTYLE
1002
{
1070
   147
1040
0.625
1070
    77
1070
     0
1002
}
  0
LINE
  5
3485
330
36
100
AcDbEntity
  8
0
  6
ByBlock
 62
     0
370
    -2
100
AcDbLine
 10
3.161273642602443
 20
63.74915710791295
 30
0.0
 11
2.923972724296001
 21
66.3264458849861
 31
0.0
  0
LINE
  5
3486
330
36
100
AcDbEntity
  8
0
  6
ByBlock
 62
     0
370
    -2
100
AcDbLine
 10
2.923972724296001
 20
66.3264458849861
 30
0.0
 11
4.418124977563637
 21
64.21309825378306
 31
0.0
  0
LINE
  5
3487
330
36
100
AcDbEntity
  8
0
  6
ByBlock
 62
     0
370
    -2
100
AcDbLine
 10
2.923972724296001
 20
66.3264458849861
 30
0.0
 11
3.78969931008304
 21
63.98112768084801
 31
0.0
  0
TEXT
  5
3488
330
36
100
AcDbEntity
  8
0
  6
Continuous
 62
     4
100
AcDbText
 10
-44.56082235712757
 20
48.70144588498608
 30
0.0
 40
3.0
  1
\U+220525.6
 50
90.0
100
AcDbText
  0
LINE
  5
3489
330
36
100
AcDbEntity
  8
0
  6
ByBlock
 62
     0
370
    -2
100
AcDbLine
 10
-44.60569485712755
 20
63.8264458849861
 30
0.0
 11
-43.93582235712755
 21
66.3264458849861
 31
0.0
  0
LINE
  5
348A
330
36
100
AcDbEntity
  8
0
  6
ByBlock
 62
     0
370
    -2
100
AcDbLine
 10
-43.93582235712755
 20
66.3264458849861
 30
0.0
 11
-43.26594985712755
 21
63.8264458849861
 31
0.0
  0
LINE
  5
348B
330
36
100
AcDbEntity
  8
0
  6
ByBlock
 62
     0
370
    -2
100
AcDbLine
 10
-43.93582235712755
 20
66.3264458849861
 30
0.0
 11
-43.93582235712755
 21
63.8264458849861
 31
0.0
  0
LINE
  5
348C
330
36
100
AcDbEntity
  8
0
  6
ByBlock
 62
     0
370
    -2
100
AcDbLine
 10
-43.26594985712755
 20
81.62644588498611
 30
0.0
 11
-43.93582235712755
 21
79.12644588498611
 31
0.0
  0
LINE
  5
348D
330
36
100
AcDbEntity
  8
0
  6
ByBlock
 62
     0
370
    -2
100
AcDbLine
 10
-43.93582235712755
 20
79.12644588498611
 30
0.0
 11
-44.60569485712755
 21
81.62644588498611
 31
0.0
  0
LINE
  5
348E
330
36
100
AcDbEntity
  8
0
  6
ByBlock
 62
     0
370
    -2
100
AcDbLine
 10
-43.93582235712755
 20
79.12644588498611
 30
0.0
 11
-43.93582235712755
 21
81.62644588498611
 31
0.0
  0
TEXT
  5
348F
330
36
100
AcDbEntity
  8
0
  6
Continuous
 62
     4
100
AcDbText
 10
-26.90759416224478
 20
103.7281517358026
 30
0.0
 40
3.0
  1
2381
100
AcDbText
  0
LINE
  5
3490
330
36
100
AcDbEntity
  8
0
  6
ByBlock
 62
     0
370
    -2
100
AcDbLine
 10
-79.93161670140375
 20
102.4332792358026
 30
0.0
 11
-82.43161670140375
 21
103.1031517358026
 31
0.0
  0
LINE
  5
3491
330
36
100
AcDbEntity
  8
0
  6
ByBlock
 62
     0
370
    -2
100
AcDbLine
 10
-82.43161670140375
 20
103.1031517358026
 30
0.0
 11
-79.93161670140375
 21
103.7730242358026
 31
0.0
  0
LINE
  5
3492
330
36
100
AcDbEntity
  8
0
  6
ByBlock
 62
     0
370
    -2
100
AcDbLine
 10
-82.43161670140375
 20
103.1031517358026
 30
0.0
 11
-79.93161670140375
 21
103.1031517358026
 31
0.0
  0
LINE
  5
3493
330
36
100
AcDbEntity
  8
0
  6
ByBlock
 62
     0
370
    -2
100
AcDbLine
 10
36.1164283769142
 20
103.7730242358026
 30
0.0
 11
38.6164283769142
 21
103.1031517358026
 31
0.0
  0
LINE
  5
3494
330
36
100
AcDbEntity
  8
0
  6
ByBlock
 62
     0
370
    -2
100
AcDbLine
 10
38.6164283769142
 20
103.1031517358026
 30
0.0
 11
36.1164283769142
 21
102.4332792358026
 31
0.0
  0
LINE
  5
3495
330
36
100
AcDbEntity
  8
0
  6
ByBlock
 62
     0
370
    -2
100
AcDbLine
 10
38.6164283769142
 20
103.1031517358026
 30
0.0
 11
36.1164283769142
 21
103.1031517358026
 31
0.0
  0
TEXT
  5
3496
330
36
100
AcDbEntity
  8
0
  6
Continuous
 62
     4
100
AcDbText
 10
-27.40759416224478
 20
97.69133973020712
 30
0.0
 40
3.0
  1
2367
100
AcDbText
  0
LINE
  5
3497
330
36
100
AcDbEntity
  8
0
  6
ByBlock
 62
     0
370
    -2
100
AcDbLine
 10
-76.43161670140376
 20
96.39646723020712
 30
0.0
 11
-78.93161670140376
 21
97.06633973020712
 31
0.0
  0
LINE
  5
3498
330
36
100
AcDbEntity
  8
0
  6
ByBlock
 62
     0
370
    -2
100
AcDbLine
 10
-78.93161670140376
 20
97.06633973020712
 30
0.0
 11
-76.43161670140376
 21
97.73621223020711
 31
0.0
  0
LINE
  5
3499
330
36
100
AcDbEntity
  8
0
  6
ByBlock
 62
     0
370
    -2
100
AcDbLine
 10
-78.93161670140376
 20
97.06633973020712
 30
0.0
 11
-76.43161670140376
 21
97.06633973020712
 31
0.0
  0
LINE
  5
349A
330
36
100
AcDbEntity
  8
0
  6
ByBlock
 62
     0
370
    -2
100
AcDbLine
 10
32.6164283769142
 20
97.73621223020711
 30
0.0
 11
35.1164283769142
 21
97.06633973020712
 31
0.0
  0
LINE
  5
349B
330
36
100
AcDbEntity
  8
0
  6
ByBlock
 62
     0
370
    -2
100
AcDbLine
 10
35.1164283769142
 20
97.06633973020712
 30
0.0
 11
32.6164283769142
 21
96.39646723020712
 31
0.0
  0
LINE
  5
349C
330
36
100
AcDbEntity
  8
0
  6
ByBlock
 62
     0
370
    -2
100
AcDbLine
 10
35.1164283769142
 20
97.06633973020712
 30
0.0
 11
32.6164283769142
 21
97.06633973020712
 31
0.0
  0
TEXT
  5
349D
330
36
100
AcDbEntity
  8
0
  6
Continuous
 62
     4
100
AcDbText
 10
54.86117730396427
 20
84.75144588498615
 30
0.0
 40
3.0
  1
\U+220525.6
 50
90.0
100
AcDbText
  0
LINE
  5
349E
330
36
100
AcDbEntity
  8
0
  6
ByBlock
 62
     0
370
    -2
100
AcDbLine
 10
56.15604980396428
 20
81.62644588498611
 30
0.0
 11
55.48617730396427
 21
79.12644588498611
 31
0.0
  0
LINE
  5
349F
330
36
100
AcDbEntity
  8
0
  6
ByBlock
 62
     0
370
    -2
100
AcDbLine
 10
55.48617730396427
 20
79.12644588498611
 30
0.0
 11
54.81630480396428
 21
81.62644588498611
 31
0.0
  0
LINE
  5
34A0
330
36
100
AcDbEntity
  8
0
  6
ByBlock
 62
     0
370
    -2
100
AcDbLine
 10
55.48617730396427
 20
79.12644588498611
 30
0.0
 11
55.48617730396427
 21
81.62644588498611
 31
0.0
  0
LINE
  5
34A1
330
36
100
AcDbEntity
  8
0
  6
ByBlock
 62
     0
370
    -2
100
AcDbLine
 10
54.81630480396428
 20
63.8264458849861
 30
0.0
 11
55.48617730396427
 21
66.3264458849861
 31
0.0
  0
LINE
  5
34A2
330
36
100
AcDbEntity
  8
0
  6
ByBlock
 62
     0
370
    -2
100
AcDbLine
 10
55.48617730396427
 20
66.3264458849861
 30
0.0
 11
56.15604980396427
 21
63.8264458849861
 31
0.0
  0
LINE
  5
34A3
330
36
100
AcDbEntity
  8
0
  6
ByBlock
 62
     0
370
    -2
100
AcDbLine
 10
55.48617730396427
 20
66.3264458849861
 30
0.0
 11
55.48617730396427
 21
63.8264458849861
 31
0.0
  0
TEXT
  5
34A4
330
36
100
AcDbEntity
  8
0
  6
Continuous
 62
     4
100
AcDbText
 10
48.83936893811323
 20
85.25144588498614
 30
0.0
 40
3.0
  1
\U+220527.6
 50
90.0
100
AcDbText
  0
LINE
  5
34A5
330
36
100
AcDbEntity
  8
0
  6
ByBlock
 62
     0
370
    -2
100
AcDbLine
 10
50.13424143811324
 20
82.1264458849861
 30
0.0
 11
49.46436893811323
 21
79.62644588498611
 31
0.0
  0
LINE
  5
34A6
330
36
100
AcDbEntity
  8
0
  6
ByBlock
 62
     0
370
    -2
100
AcDbLine
 10
49.46436893811323
 20
79.62644588498611
 30
0.0
 11
48.79449643811323
 21
82.1264458849861
 31
0.0
  0
LINE
  5
34A7
330
36
100
AcDbEntity
  8
0
  6
ByBlock
 62
     0
370
    -2
100
AcDbLine
 10
49.46436893811323
 20
79.62644588498611
 30
0.0
 11
49.46436893811323
 21
82.1264458849861
 31
0.0
  0
LINE
  5
34A8
330
36
100
AcDbEntity
  8
0
  6
ByBlock
 62
     0
370
    -2
100
AcDbLine
 10
48.79449643811323
 20
63.3264458849861
 30
0.0
 11
49.46436893811323
 21
65.8264458849861
 31
0.0
  0
LINE
  5
34A9
330
36
100
AcDbEntity
  8
0
  6
ByBlock
 62
     0
370
    -2
100
AcDbLine
 10
49.46436893811323
 20
65.8264458849861
 30
0.0
 11
50.13424143811323
 21
63.3264458849861
 31
0.0
  0
LINE
  5
34AA
330
36
100
AcDbEntity
  8
0
  6
ByBlock
 62
     0
370
    -2
100
AcDbLine
 10
49.46436893811323
 20
65.8264458849861
 30
0.0
 11
49.46436893811323
 21
63.3264458849861
 31
0.0
  0
ENDSEC
  0
SECTION
  2
OBJECTS
  0
DICTIONARY
  5
C
330
0
100
AcDbDictionary
281
     1
  3
ACAD_2007HEADERVARS_RT
350
34B3
  3
ACAD_COLOR
350
2F
  3
ACAD_GROUP
350
D
  3
ACAD_LAYOUT
350
2E
  3
ACAD_MATERIAL
350
10
  3
ACAD_MLEADERSTYLE
350
B6E
  3
ACAD_MLINESTYLE
350
2B
  3
ACAD_PLOTSETTINGS
350
2D
  3
ACAD_PLOTSTYLENAME
350
E
  3
ACAD_SCALELIST
350
B5C
  3
ACAD_TABLESTYLE
350
30
  3
ACAD_VISUALSTYLE
350
14
  3
AcadDim
350
10D8
  3
ACDB_RECOMPOSE_DATA
350
34B1
  3
AcDbVariableDictionary
350
2BD
  3
AEC_PROPERTY_SET_DEFS
350
2100
  3
DWGPROPS
350
34B2
  0
DICTIONARY
  5
2FE
330
2
100
AcDbDictionary
280
     1
281
     1
  3
ACAD_LAYERSTATES
360
2FF
  0
DICTIONARY
  5
DA4
330
25
100
AcDbDictionary
280
     1
281
     1
  3
ADSK_XREC_LAYER_RECONCILED
360
DA5
  0
DICTIONARY
  5
5D9
330
36
100
AcDbDictionary
280
     1
281
     1
  3
ACAD_SORTENTS
360
5DA
  0
DICTIONARY
  5
34F1
330
335D
100
AcDbDictionary
280
     1
281
     1
  3
ACAD_MTEXT_RT
360
34F2
  0
DICTIONARY
  5
34B3
102
{ACAD_REACTORS
330
C
102
}
330
C
100
AcDbDictionary
281
     1
  3
DIMARCSYM
350
34B5
  3
DIMFXL
350
34B4
  3
DIMJOGANG
350
34B6
  0
DICTIONARY
  5
2F
102
{ACAD_REACTORS
330
C
102
}
330
C
100
AcDbDictionary
281
     1
  0
DICTIONARY
  5
D
102
{ACAD_REACTORS
330
C
102
}
330
C
100
AcDbDictionary
281
     1
  0
DICTIONARY
  5
2E
102
{ACAD_REACTORS
330
C
102
}
330
C
100
AcDbDictionary
281
     1
  3
Model
350
39
  3
レイアウト1
350
35
  0
DICTIONARY
  5
10
102
{ACAD_REACTORS
330
C
102
}
330
C
100
AcDbDictionary
281
     1
  3
ByBlock
350
12
  3
ByLayer
350
11
  3
Global
350
13
  0
DICTIONARY
  5
B6E
102
{ACAD_REACTORS
330
C
102
}
330
C
100
AcDbDictionary
281
     1
  3
Standard
350
B6F
  0
DICTIONARY
  5
2B
102
{ACAD_REACTORS
330
C
102
}
330
C
100
AcDbDictionary
281
     1
  3
Standard
350
2C
  0
DICTIONARY
  5
2D
102
{ACAD_REACTORS
330
C
102
}
330
C
100
AcDbDictionary
281
     1
  0
ACDBDICTIONARYWDFLT
  5
E
102
{ACAD_REACTORS
330
C
102
}
330
C
100
AcDbDictionary
281
     1
  3
Normal
350
F
100
AcDbDictionaryWithDefault
340
F
  0
DICTIONARY
  5
B5C
102
{ACAD_REACTORS
330
C
102
}
330
C
100
AcDbDictionary
281
     1
  3
A0
350
B5D
  3
A1
350
B5E
  3
A2
350
B5F
  3
A3
350
B60
  3
A4
350
B61
  3
A5
350
B62
  3
A6
350
B63
  3
A7
350
B64
  3
A8
350
B65
  3
A9
350
B66
  3
B0
350
B67
  3
B1
350
B68
  3
B2
350
B69
  3
B3
350
B6A
  3
B4
350
B6B
  3
B5
350
B6C
  3
B6
350
B6D
  0
DICTIONARY
  5
30
102
{ACAD_REACTORS
330
C
102
}
330
C
100
AcDbDictionary
281
     1
  3
Standard
350
31
  3
部品表
350
16E2
  0
DICTIONARY
  5
14
102
{ACAD_REACTORS
330
C
102
}
330
C
100
AcDbDictionary
281
     1
  3
2dWireframe
350
1A
  3
3D Hidden
350
1C
  3
3dWireframe
350
1B
  3
Basic
350
19
  3
Brighten
350
20
  3
ColorChange
350
24
  3
Conceptual
350
1D
  3
Dim
350
1F
  3
EdgeColorOff
350
B5B
  3
Facepattern
350
23
  3
Flat
350
15
  3
FlatWithEdges
350
16
  3
Gouraud
350
17
  3
GouraudWithEdges
350
18
  3
Hidden
350
B53
  3
JitterOff
350
B59
  3
Linepattern
350
22
  3
OverhangOff
350
B5A
  3
Realistic
350
1E
  3
Shaded
350
B58
  3
Shaded with edges
350
B57
  3
Shades of Gray
350
B54
  3
Sketchy
350
B55
  3
Thicken
350
21
  3
Wireframe
350
B52
  3
X-Ray
350
B56
  0
XRECORD
  5
10D8
102
{ACAD_REACTORS
330
C
102
}
330
C
100
AcDbXrecord
280
     1
 90
   990106
  3

 60
     0
 61
     0
 62
     1
 63
     3
 64
     0
 65
     0
 66
     0
 67
     3
 68
     1
 69
     0
 70
     0
 71
     0
 72
     0
 40
0.0
170
     0
340
10FE
  0
XRECORD
  5
34B1
102
{ACAD_REACTORS
330
C
102
}
330
C
100
AcDbXrecord
280
     1
 90
        1
330
31
330
16E2
  0
DICTIONARY
  5
2BD
102
{ACAD_REACTORS
330
C
102
}
330
C
100
AcDbDictionary
281
     1
  3
CANNOSCALE
350
DA9
  3
CMLEADERSTYLE
350
DA8
  3
CTABLESTYLE
350
2BE
  3
DIMASSOC
350
2C7
  3
INDEXCTL
350
2C6
  3
SORTENTS
350
2C5
  3
XCLIPFRAME
350
337D
  0
DICTIONARY
  5
2100
102
{ACAD_REACTORS
330
C
102
}
330
C
100
AcDbDictionary
281
     1
  0
XRECORD
  5
34B2
102
{ACAD_REACTORS
330
C
102
}
330
C
100
AcDbXrecord
280
     1
  1
DWGPROPS COOKIE
  2

  3

  4

  6

  7

  8
imamura
  9

300
=
301
=
302
=
303
=
304
=
305
=
306
=
307
=
308
=
309
=
 40
1.30367162037037
 41
2455442.601448206
 42
2458099.580589294
  1

 90
        0
  0
DICTIONARY
  5
2FF
102
{ACAD_REACTORS
330
2FE
102
}
330
2FE
100
AcDbDictionary
281
     1
  0
XRECORD
  5
DA5
102
{ACAD_REACTORS
330
DA4
102
}
330
DA4
100
AcDbXrecord
280
     1
290
     1
  0
SORTENTSTABLE
  5
5DA
102
{ACAD_REACTORS
330
5D9
102
}
330
5D9
100
AcDbSortentsTable
330
36
331
2BFE
  5
33E1
331
1EDC
  5
2147
331
212F
  5
2F58
331
1ED8
  5
2142
331
212B
  5
2F45
331
2F3C
  5
343C
331
2C4D
  5
3409
331
1ED4
  5
2140
331
2F77
  5
3470
331
2C49
  5
3404
331
348E
  5
2C59
331
3414
  5
1820
331
33D5
  5
3482
331
344F
  5
1EDF
331
348A
  5
2C5B
331
2BF
  5
2BF
331
3486
  5
2C5F
331
340C
  5
214E
331
344B
  5
1857
331
3482
  5
33CB
331
2C55
  5
3412
331
2C51
  5
340E
331
2135
  5
2F5D
331
1827
  5
2107
331
2131
  5
2F5A
331
1823
  5
2102
331
18B
  5
18B
331
17E5
  5
17E5
331
17E1
  5
17E1
331
183
  5
183
331
17DD
  5
17DD
331
17D9
  5
17D9
331
1818
  5
1818
331
2123
  5
2F40
331
2C45
  5
3400
331
2686
  5
33D9
331
1854
  5
213C
331
211F
  5
2F3D
331
1850
  5
2138
331
211B
  5
2F3A
331
2F6B
  5
345C
331
2C3D
  5
33FB
331
2E6C
  5
33E8
331
184C
  5
2134
331
2C39
  5
33F7
331
2F67
  5
3468
331
215A
  5
33C8
331
2E68
  5
340A
331
1848
  5
212E
331
2F63
  5
3464
331
2C7C
  5
342B
331
3447
  5
1853
331
33C9
  5
3496
331
2C78
  5
3429
331
347E
  5
33CF
331
3404
  5
2C02
331
3443
  5
184F
331
347A
  5
33D3
331
343F
  5
184B
331
3476
  5
33D7
331
33FC
  5
2C3A
331
343B
  5
1847
331
3472
  5
347A
331
17F
  5
17F
331
1814
  5
1814
331
17B
  5
17B
331
21A
  5
21A
331
17D5
  5
17D5
331
17D1
  5
17D1
331
1810
  5
1810
331
177
  5
177
331
1B2
  5
1B2
331
17CD
  5
17CD
331
180C
  5
180C
331
17C9
  5
17C9
331
1808
  5
1808
331
2117
  5
2E6C
331
2113
  5
2E69
331
2C35
  5
33F3
331
2156
  5
33C4
331
1844
  5
212A
331
210F
  5
2C7B
331
2F5F
  5
3460
331
2152
  5
304C
331
1840
  5
2123
331
210B
  5
2C70
331
2F5B
  5
345F
331
214E
  5
2F7C
331
183C
  5
211E
331
2C70
  5
33EB
331
214A
  5
2F78
331
1838
  5
2119
331
2F53
  5
343D
331
2C6C
  5
3423
331
3437
  5
1843
331
2C68
  5
341F
331
346E
  5
347C
331
3433
  5
183F
331
33F0
  5
2C55
331
346A
  5
3485
331
34A9
  5
2155
331
342F
  5
183B
331
3466
  5
3487
331
34A5
  5
2157
331
342B
  5
1837
331
3462
  5
348E
331
34A1
  5
2C0D
331
16F
  5
16F
331
1AE
  5
1AE
331
1804
  5
1804
331
16B
  5
16B
331
1AA
  5
1AA
331
17C5
  5
17C5
331
1800
  5
1800
331
1A6
  5
1A6
331
1A2
  5
1A2
331
17FC
  5
17FC
331
17F8
  5
17F8
331
2107
  5
2C6C
331
2103
  5
2C69
331
2146
  5
2F6D
331
1834
  5
2114
331
2C09
  5
33E9
331
2142
  5
2F6A
331
1830
  5
2110
331
2F4B
  5
3438
331
213E
  5
2F66
331
2C64
  5
341B
331
182C
  5
210C
331
2C01
  5
33DF
331
2F47
  5
3450
331
213A
  5
2F62
331
1828
  5
2108
331
2F43
  5
3449
331
2C5C
  5
3419
331
3427
  5
1833
331
2F7A
  5
346F
331
2C58
  5
3415
331
345E
  5
3494
331
349D
  5
2C38
331
3423
  5
182F
331
345A
  5
349D
331
3499
  5
2C46
331
341F
  5
182B
331
33DC
  5
3475
331
3456
  5
34A4
331
3495
  5
2C4D
331
341B
  5
1827
331
3452
  5
34A6
331
3491
  5
2C4F
331
FC4
  5
10B3
331
167
  5
167
331
19E
  5
19E
331
17F4
  5
17F4
331
163
  5
163
331
19A
  5
19A
331
2A5
  5
2A5
331
17F0
  5
17F0
331
192
  5
192
331
17EC
  5
17EC
331
17E8
  5
17E8
331
1EDF
  5
214A
331
2BFD
  5
33E2
331
1EDB
  5
2146
331
2F3F
  5
342E
331
212E
  5
2F49
331
2F3B
  5
3430
331
2C4C
  5
3407
331
212A
  5
2F44
331
2C48
  5
3403
331
2F76
  5
346E
331
2A99
  5
33DC
331
3417
  5
1823
331
348D
  5
2C58
331
3413
  5
181F
331
33D4
  5
3481
331
3489
  5
2C5A
331
344E
  5
1EDE
331
33D0
  5
348D
331
3485
  5
2C5E
331
340B
  5
214D
331
344A
  5
1856
331
3481
  5
33CA
331
2C54
  5
3411
331
2C50
  5
340D
331
2134
  5
2F5B
331
1826
  5
2106
331
2130
  5
2F59
331
1822
  5
1EE5
331
17E4
  5
17E4
331
181F
  5
1EE2
331
17E0
  5
17E0
331
182
  5
182
331
17DC
  5
17DC
331
181B
  5
181B
331
17D8
  5
17D8
331
2126
  5
2F43
331
1857
  5
213F
331
2122
  5
2F3F
331
2C44
  5
33FF
331
1853
  5
213B
331
211E
  5
2F3C
331
2F6E
  5
345B
331
184F
  5
2137
331
211A
  5
2F33
331
2F6A
  5
346C
331
2C3C
  5
33FA
331
2E6B
  5
33EC
331
184B
  5
2131
331
2C38
  5
33F6
331
2F66
  5
3467
331
2159
  5
33C7
331
2F62
  5
3463
331
3446
  5
1852
331
33C8
  5
3495
331
347D
  5
33CE
331
3403
  5
2C01
331
3442
  5
184E
331
33C4
  5
34A1
331
3479
  5
33D2
331
343E
  5
184A
331
3475
  5
33D6
331
33FB
  5
2C39
331
343A
  5
1846
331
3471
  5
3479
331
1817
  5
1817
331
17E
  5
17E
331
21D
  5
21D
331
1813
  5
1813
331
17A
  5
17A
331
219
  5
219
331
17D4
  5
17D4
331
17D0
  5
17D0
331
180F
  5
180F
331
176
  5
176
331
1B1
  5
1B1
331
17CC
  5
17CC
331
180B
  5
180B
331
17C8
  5
17C8
331
1847
  5
212D
331
2112
  5
2E68
331
2C34
  5
33F2
331
2155
  5
33C3
331
1843
  5
2126
331
210E
  5
2C7A
331
2F5E
  5
3456
331
2151
  5
2FE9
331
2C77
  5
3428
331
183F
  5
2122
331
210A
  5
2C6F
331
214D
  5
2F7B
331
183B
  5
211C
331
2F56
  5
3455
331
2149
  5
2F76
331
2C6F
  5
3426
331
2F52
  5
3442
331
2C6B
  5
3422
331
33F7
  5
2C4A
331
3436
  5
1842
331
346D
  5
347B
331
3432
  5
183E
331
33EF
  5
2C54
331
3469
  5
3484
331
34A8
  5
2154
331
342E
  5
183A
331
3465
  5
348A
331
34A4
  5
2A98
331
342A
  5
1836
331
3461
  5
3493
331
34A0
  5
2C37
331
16E
  5
16E
331
1AD
  5
1AD
331
1807
  5
1807
331
1803
  5
1803
331
16A
  5
16A
331
1A9
  5
1A9
331
17C4
  5
17C4
331
1A5
  5
1A5
331
17FF
  5
17FF
331
1A1
  5
1A1
331
17FB
  5
17FB
331
1160
  5
1160
331
2106
  5
2C6B
331
1837
  5
2118
331
2102
  5
2C68
331
2145
  5
2F6C
331
1833
  5
2113
331
2C08
  5
33E7
331
2C67
  5
341E
331
2141
  5
2F69
331
182F
  5
210F
331
2F4A
  5
343E
331
213D
  5
2F65
331
182B
  5
210B
331
2C00
  5
33E0
331
2FE9
  5
34A9
331
2F46
  5
344E
331
2139
  5
2F61
331
2F42
  5
3448
331
2C5B
  5
3418
331
3426
  5
1832
331
2F79
  5
346B
331
345D
  5
349A
331
349C
  5
2C3E
331
3422
  5
182E
331
3459
  5
349C
331
3498
  5
2C45
331
341E
  5
182A
331
33DB
  5
3474
331
3455
  5
34A3
331
3494
  5
2C4C
331
341A
  5
1826
331
3451
  5
34A5
331
3490
  5
2C4E
331
166
  5
166
331
19D
  5
19D
331
17F7
  5
17F7
331
17F3
  5
17F3
331
17EF
  5
17EF
331
195
  5
195
331
191
  5
191
331
17EB
  5
17EB
331
260
  5
260
331
1EDE
  5
2149
331
1EDA
  5
2145
331
2F3E
  5
3434
331
2C4F
  5
340C
331
212D
  5
2F47
331
2F3A
  5
3435
331
2C4B
  5
3406
331
2A98
  5
33DB
331
3416
  5
1822
331
348C
  5
2C57
331
3412
  5
181E
331
3488
  5
2C5D
331
344D
  5
1EDD
331
3484
  5
2C66
331
340A
  5
214C
331
3449
  5
1855
331
2C57
  5
3414
331
3480
  5
33C9
331
2C53
  5
3410
331
2137
  5
2F5F
331
1825
  5
2105
331
1821
  5
1EE4
331
17E7
  5
17E7
331
17E3
  5
17E3
331
181E
  5
1EE1
331
17DF
  5
17DF
331
185
  5
185
331
181
  5
181
331
17DB
  5
17DB
331
181A
  5
181A
331
2125
  5
2F42
331
2C47
  5
3402
331
1856
  5
213E
331
2C43
  5
33FE
331
1852
  5
213A
331
2F6D
  5
345D
331
184E
  5
2136
331
2119
  5
2F32
331
2F69
  5
346A
331
2C3B
  5
33F9
331
2E6A
  5
33EA
331
184A
  5
2130
331
33CF
  5
348C
331
2F65
  5
3466
331
2158
  5
33C6
331
2F61
  5
3462
331
3445
  5
1851
331
347C
  5
33CD
331
3402
  5
2C00
331
3441
  5
184D
331
33C3
  5
34A0
331
3478
  5
33D1
331
343D
  5
1849
331
3474
  5
33D5
331
3439
  5
1845
331
3470
  5
3478
331
1816
  5
1816
331
17D
  5
17D
331
21C
  5
21C
331
17D7
  5
17D7
331
17D3
  5
17D3
331
1812
  5
1812
331
179
  5
179
331
17CF
  5
17CF
331
180E
  5
180E
331
175
  5
175
331
1B0
  5
1B0
331
17CB
  5
17CB
331
180A
  5
180A
331
2115
  5
2E6B
331
2C37
  5
33F5
331
1846
  5
212C
331
2111
  5
2C7D
331
2C33
  5
33F1
331
2154
  5
33C2
331
1842
  5
2125
331
210D
  5
2C79
331
2F5D
  5
3457
331
2150
  5
2F91
331
2C76
  5
3427
331
183E
  5
2120
331
2109
  5
2C6E
331
2C13
  5
33EF
331
2F59
  5
3458
331
214C
  5
2F7A
331
183A
  5
211B
331
2F55
  5
3454
331
2148
  5
2F75
331
2C6E
  5
3425
331
2F51
  5
3452
331
304C
  5
34AA
331
2C6A
  5
3421
331
33F6
  5
2C49
331
3435
  5
1841
331
346C
  5
347E
331
3431
  5
183D
331
33EE
  5
2C53
331
3468
  5
3489
331
34A7
  5
2687
331
342D
  5
1839
331
33EA
  5
2C67
331
3464
  5
3490
331
34A3
  5
2C0F
331
3429
  5
1835
331
3460
  5
3492
331
1806
  5
1806
331
16D
  5
16D
331
1AC
  5
1AC
331
17C7
  5
17C7
331
1802
  5
1802
331
169
  5
169
331
1A8
  5
1A8
331
17C3
  5
17C3
331
1A4
  5
1A4
331
17FE
  5
17FE
331
1A0
  5
1A0
331
17FA
  5
17FA
331
2105
  5
2C6A
331
2C0F
  5
33ED
331
1836
  5
2117
331
2C0B
  5
33DD
331
1832
  5
2112
331
2C66
  5
341D
331
2140
  5
2F68
331
182E
  5
210E
331
2F49
  5
344F
331
213C
  5
2F64
331
182A
  5
210A
331
2138
  5
2F60
331
2F41
  5
3444
331
2F7C
  5
3472
331
2C5A
  5
3417
331
349F
  5
2C36
331
3425
  5
1831
331
2F78
  5
346D
331
345C
  5
3499
331
349B
  5
2C3D
331
3421
  5
182D
331
33DE
  5
3477
331
3458
  5
349B
331
3497
  5
2C3F
331
341D
  5
1829
331
2F91
  5
3480
331
33DA
  5
3473
331
3454
  5
34A2
331
3493
  5
2C4B
331
3419
  5
1825
331
3450
  5
34A8
331
165
  5
165
331
19C
  5
19C
331
2A7
  5
2A7
331
17F6
  5
17F6
331
17F2
  5
17F2
331
161
  5
161
331
194
  5
194
331
17EE
  5
17EE
331
17EA
  5
17EA
331
2BFF
  5
33E5
331
1EDD
  5
2148
331
2BFB
  5
33E3
331
1ED9
  5
2143
331
212C
  5
2F46
331
2F3D
  5
3436
331
2C4E
  5
340B
331
1ED5
  5
2141
331
2F39
  5
342F
331
2C4A
  5
3405
331
2F35
  5
3437
331
2F31
  5
342D
331
348F
  5
2C51
331
3415
  5
1821
331
33D6
  5
3483
331
348B
  5
2C5C
331
3411
  5
181D
331
3487
  5
2C64
331
340D
  5
214F
331
344C
  5
1EDC
331
3483
  5
2C65
331
3409
  5
214B
331
3448
  5
1854
331
2C56
  5
3413
331
2C52
  5
340F
331
2136
  5
2F5E
331
1824
  5
2103
331
1820
  5
1EE3
331
17E6
  5
17E6
331
25F
  5
25F
331
17E2
  5
17E2
331
181D
  5
1EE0
331
17DE
  5
17DE
331
180
  5
180
331
17DA
  5
17DA
331
1819
  5
1819
331
2124
  5
2F41
331
2C46
  5
3401
331
2687
  5
33DA
331
1855
  5
213D
331
2120
  5
2F3E
331
2C42
  5
33FD
331
1851
  5
2139
331
211C
  5
2F3B
331
2F6C
  5
345A
331
2C3E
  5
33FC
331
184D
  5
2135
331
2118
  5
2F31
331
2F68
  5
3469
331
2C3A
  5
33F8
331
2E69
  5
3408
331
1849
  5
212F
331
2F64
  5
3465
331
33CE
  5
348B
331
2C7D
  5
342C
331
2F60
  5
3461
331
33CA
  5
3497
331
2C79
  5
342A
331
347F
  5
33CC
331
3405
  5
2C0B
331
3444
  5
1850
331
347B
  5
33D0
331
3401
  5
2A99
331
3440
  5
184C
331
33C2
  5
349F
331
3477
  5
33D4
331
33FD
  5
2C3B
331
343C
  5
1848
331
3473
  5
33D8
331
3438
  5
1844
331
1815
  5
1815
331
17C
  5
17C
331
21B
  5
21B
331
17D6
  5
17D6
331
17D2
  5
17D2
331
1811
  5
1811
331
178
  5
178
331
17CE
  5
17CE
331
180D
  5
180D
331
170
  5
170
331
17CA
  5
17CA
331
1809
  5
1809
331
2114
  5
2E6A
331
2C36
  5
33F4
331
2157
  5
33C5
331
1845
  5
212B
331
2110
  5
2C7C
331
2C32
  5
33F0
331
1841
  5
2124
331
210C
  5
2C78
331
2F5C
  5
345E
331
214F
  5
2F90
331
183D
  5
211F
331
2108
  5
2C6D
331
2C12
  5
33EE
331
2F58
  5
3459
331
214B
  5
2F79
331
1839
  5
211A
331
2F54
  5
3453
331
2C6D
  5
3424
331
2F50
  5
3451
331
2C69
  5
3420
331
346F
  5
347D
331
33F5
  5
2C48
331
3434
  5
1840
331
33F1
  5
2C56
331
346B
  5
3486
331
34AA
  5
2156
331
3430
  5
183C
331
33ED
  5
2C52
331
3467
  5
3488
331
34A6
  5
2158
331
342C
  5
1838
331
3463
  5
348F
331
34A2
  5
2C0E
331
3428
  5
1834
331
1AF
  5
1AF
331
1805
  5
1805
331
16C
  5
16C
331
1AB
  5
1AB
331
17C6
  5
17C6
331
1801
  5
1801
331
168
  5
168
331
1A7
  5
1A7
331
1A3
  5
1A3
331
17FD
  5
17FD
331
17F9
  5
17F9
331
2C0E
  5
33E4
331
2147
  5
2F6E
331
1835
  5
2115
331
2C0A
  5
33DE
331
2143
  5
2F6B
331
1831
  5
2111
331
2C65
  5
341C
331
213F
  5
2F67
331
182D
  5
210D
331
2C02
  5
33E6
331
2F48
  5
344A
331
213B
  5
2F63
331
1829
  5
2109
331
2C5D
  5
341A
331
2F40
  5
3443
331
2F7B
  5
3471
331
2C59
  5
3416
331
345F
  5
3491
331
349E
  5
2C12
331
3424
  5
1830
331
345B
  5
3498
331
349A
  5
2C3C
331
3420
  5
182C
331
33DD
  5
3476
331
3457
  5
349E
331
3496
  5
2C47
331
341C
  5
1828
331
2F90
  5
347F
331
3453
  5
34A7
331
3492
  5
2C50
331
3418
  5
1824
331
19F
  5
19F
331
17F5
  5
17F5
331
19B
  5
19B
331
2A6
  5
2A6
331
17F1
  5
17F1
331
193
  5
193
331
17ED
  5
17ED
331
88
  5
88
331
17E9
  5
17E9
  0
XRECORD
  5
34F2
102
{ACAD_REACTORS
330
34F1
102
}
330
34F1
100
AcDbXrecord
280
     1
 40
2852.0
  1
\U+22053.5
  0
XRECORD
  5
34B5
102
{ACAD_REACTORS
330
34B3
102
}
330
34B3
100
AcDbXrecord
280
     1
 70
     2
  0
XRECORD
  5
34B4
102
{ACAD_REACTORS
330
34B3
102
}
330
34B3
100
AcDbXrecord
280
     1
 40
1.25
  0
XRECORD
  5
34B6
102
{ACAD_REACTORS
330
34B3
102
}
330
34B3
100
AcDbXrecord
280
     1
 40
1.570796326794896
  0
LAYOUT
  5
39
102
{ACAD_XDICTIONARY
360
34DA
102
}
102
{ACAD_REACTORS
330
2E
102
}
330
2E
100
AcDbPlotSettings
  1

  2
PDF Complete
  4
A4
  6

 40
3.174999952316281
 41
3.174999952316281
 42
3.175003051757812
 43
3.17498779296875
 44
209.9733276367186
 45
297.0106506347656
 46
0.0
 47
0.0
 48
0.0
 49
0.0
140
0.0
141
0.0
142
1.0
143
41.55432757113839
 70
 11952
 72
     0
 73
     1
 74
     0
  7

 75
     0
147
0.0240648822505445
148
6191.45587034033
149
3548.573645552828
100
AcDbLayout
  1
Model
 70
     1
 71
     0
 10
0.0
 20
0.0
 11
12.0
 21
9.0
 12
0.0
 22
0.0
 32
0.0
 14
0.0
 24
0.0
 34
0.0
 15
0.0
 25
0.0
 35
0.0
146
0.0
 13
0.0
 23
0.0
 33
0.0
 16
1.0
 26
0.0
 36
0.0
 17
0.0
 27
1.0
 37
0.0
 76
     0
330
36
331
56
1001
ACAD_PSEXT
1000
PDF Complete
1000
PDF Complete Converter
1000
PDFC
1000
PDF Document Creator
1070
     0
  0
LAYOUT
  5
35
102
{ACAD_XDICTIONARY
360
34D8
102
}
102
{ACAD_REACTORS
330
2E
102
}
330
2E
100
AcDbPlotSettings
  1

  2
PDF Complete
  4

  6

 40
0.0
 41
0.0
 42
0.0
 43
0.0
 44
0.0
 45
0.0
 46
0.0
 47
0.0
 48
0.0
 49
0.0
140
0.0
141
0.0
142
1.0
143
1.0
 70
   688
 72
     0
 73
     0
 74
     5
  7

 75
    16
147
1.0
148
0.0
149
0.0
100
AcDbLayout
  1
レイアウト1
 70
     1
 71
     1
 10
0.0
 20
0.0
 11
12.0
 21
9.0
 12
0.0
 22
0.0
 32
0.0
 14
1.000000000000000E+20
 24
1.000000000000000E+20
 34
1.000000000000000E+20
 15
-1.000000000000000E+20
 25
-1.000000000000000E+20
 35
-1.000000000000000E+20
146
0.0
 13
0.0
 23
0.0
 33
0.0
 16
1.0
 26
0.0
 36
0.0
 17
0.0
 27
1.0
 37
0.0
 76
     0
330
32
  0
MATERIAL
  5
12
102
{ACAD_XDICTIONARY
360
2CB
102
}
102
{ACAD_REACTORS
330
10
102
}
330
10
100
AcDbMaterial
  1
ByBlock
  0
MATERIAL
  5
11
102
{ACAD_XDICTIONARY
360
2C9
102
}
102
{ACAD_REACTORS
330
10
102
}
330
10
100
AcDbMaterial
  1
ByLayer
  0
MATERIAL
  5
13
102
{ACAD_XDICTIONARY
360
2CD
102
}
102
{ACAD_REACTORS
330
10
102
}
330
10
100
AcDbMaterial
  1
Global
  0
MLEADERSTYLE
  5
B6F
102
{ACAD_REACTORS
330
B6E
102
}
330
B6E
100
AcDbMLeaderStyle
170
     2
171
     1
172
     0
 90
        2
 40
0.0
 41
0.0
173
     1
 91
-1056964608
340
28
 92
       -2
290
     1
 42
0.09
291
     1
 43
0.36
  3
Standard
 44
0.18
300

342
26
174
     1
178
     6
175
     1
176
     0
 93
-1056964608
 45
0.18
292
     0
297
     0
 46
0.18
 94
-1056964608
 47
1.0
 49
1.0
140
1.0
293
     1
141
0.0
294
     1
177
     0
142
1.0
295
     0
296
     0
143
0.125
1001
ACAD_MLEADERVER
1070
     2
  0
MLINESTYLE
  5
2C
102
{ACAD_REACTORS
330
2B
102
}
330
2B
100
AcDbMlineStyle
  2
STANDARD
 70
     0
  3

 62
   256
 51
90.0
 52
90.0
 71
     2
 49
0.5
 62
   256
  6
BYLAYER
 49
-0.5
 62
   256
  6
BYLAYER
  0
ACDBPLACEHOLDER
  5
F
102
{ACAD_REACTORS
330
E
102
}
330
E
  0
SCALE
  5
B5D
102
{ACAD_REACTORS
330
B5C
102
}
330
B5C
100
AcDbScale
 70
     0
300
1:1
140
1.0
141
1.0
290
     1
  0
SCALE
  5
B5E
102
{ACAD_REACTORS
330
B5C
102
}
330
B5C
100
AcDbScale
 70
     0
300
1/128" = 1'-0"
140
0.0078125
141
12.0
290
     0
  0
SCALE
  5
B5F
102
{ACAD_REACTORS
330
B5C
102
}
330
B5C
100
AcDbScale
 70
     0
300
1/64" = 1'-0"
140
0.015625
141
12.0
290
     0
  0
SCALE
  5
B60
102
{ACAD_REACTORS
330
B5C
102
}
330
B5C
100
AcDbScale
 70
     0
300
1/32" = 1'-0"
140
0.03125
141
12.0
290
     0
  0
SCALE
  5
B61
102
{ACAD_REACTORS
330
B5C
102
}
330
B5C
100
AcDbScale
 70
     0
300
1/16" = 1'-0"
140
0.0625
141
12.0
290
     0
  0
SCALE
  5
B62
102
{ACAD_REACTORS
330
B5C
102
}
330
B5C
100
AcDbScale
 70
     0
300
3/32" = 1'-0"
140
0.09375
141
12.0
290
     0
  0
SCALE
  5
B63
102
{ACAD_REACTORS
330
B5C
102
}
330
B5C
100
AcDbScale
 70
     0
300
1/8" = 1'-0"
140
0.125
141
12.0
290
     0
  0
SCALE
  5
B64
102
{ACAD_REACTORS
330
B5C
102
}
330
B5C
100
AcDbScale
 70
     0
300
3/16" = 1'-0"
140
0.1875
141
12.0
290
     0
  0
SCALE
  5
B65
102
{ACAD_REACTORS
330
B5C
102
}
330
B5C
100
AcDbScale
 70
     0
300
1/4" = 1'-0"
140
0.25
141
12.0
290
     0
  0
SCALE
  5
B66
102
{ACAD_REACTORS
330
B5C
102
}
330
B5C
100
AcDbScale
 70
     0
300
3/8" = 1'-0"
140
0.375
141
12.0
290
     0
  0
SCALE
  5
B67
102
{ACAD_REACTORS
330
B5C
102
}
330
B5C
100
AcDbScale
 70
     0
300
1/2" = 1'-0"
140
0.5
141
12.0
290
     0
  0
SCALE
  5
B68
102
{ACAD_REACTORS
330
B5C
102
}
330
B5C
100
AcDbScale
 70
     0
300
3/4" = 1'-0"
140
0.75
141
12.0
290
     0
  0
SCALE
  5
B69
102
{ACAD_REACTORS
330
B5C
102
}
330
B5C
100
AcDbScale
 70
     0
300
1" = 1'-0"
140
1.0
141
12.0
290
     0
  0
SCALE
  5
B6A
102
{ACAD_REACTORS
330
B5C
102
}
330
B5C
100
AcDbScale
 70
     0
300
1-1/2" = 1'-0"
140
1.5
141
12.0
290
     0
  0
SCALE
  5
B6B
102
{ACAD_REACTORS
330
B5C
102
}
330
B5C
100
AcDbScale
 70
     0
300
3" = 1'-0"
140
3.0
141
12.0
290
     0
  0
SCALE
  5
B6C
102
{ACAD_REACTORS
330
B5C
102
}
330
B5C
100
AcDbScale
 70
     0
300
6" = 1'-0"
140
6.0
141
12.0
290
     0
  0
SCALE
  5
B6D
102
{ACAD_REACTORS
330
B5C
102
}
330
B5C
100
AcDbScale
 70
     0
300
1'-0" = 1'-0"
140
12.0
141
12.0
290
     0
  0
TABLESTYLE
  5
31
102
{ACAD_XDICTIONARY
360
DAB
102
}
102
{ACAD_REACTORS
330
30
102
}
330
30
100
AcDbTableStyle
  3
Standard
 70
     0
 71
     0
 40
0.06
 41
0.06
280
     0
281
     0
  7
STANDARD
140
0.18
170
     2
 62
     0
 63
     7
283
     0
274
    -2
284
     1
 64
     0
275
    -2
285
     1
 65
     0
276
    -2
286
     1
 66
     0
277
    -2
287
     1
 67
     0
278
    -2
288
     1
 68
     0
279
    -2
289
     1
 69
     0
  7
STANDARD
140
0.25
170
     5
 62
     0
 63
     7
283
     0
274
    -2
284
     1
 64
     0
275
    -2
285
     1
 65
     0
276
    -2
286
     1
 66
     0
277
    -2
287
     1
 67
     0
278
    -2
288
     1
 68
     0
279
    -2
289
     1
 69
     0
  7
STANDARD
140
0.18
170
     5
 62
     0
 63
     7
283
     0
274
    -2
284
     1
 64
     0
275
    -2
285
     1
 65
     0
276
    -2
286
     1
 66
     0
277
    -2
287
     1
 67
     0
278
    -2
288
     1
 68
     0
279
    -2
289
     1
 69
     0
  0
TABLESTYLE
  5
16E2
102
{ACAD_XDICTIONARY
360
16E3
102
}
102
{ACAD_REACTORS
330
30
102
}
330
30
100
AcDbTableStyle
  3
Standard
 70
     1
 71
     0
 40
1.5
 41
0.5
280
     0
281
     0
  7
高3.2
140
0.18
170
     7
 62
     3
 63
     7
283
     0
274
    -2
284
     1
 64
     3
275
    -2
285
     1
 65
     7
276
    -2
286
     1
 66
     3
277
    -2
287
     1
 67
     3
278
    -2
288
     1
 68
     7
279
    -2
289
     1
 69
     3
  7
高3.2
140
0.25
170
     8
 62
     3
 63
     7
283
     0
274
    -2
284
     1
 64
     0
275
    -2
285
     1
 65
     0
276
    -2
286
     1
 66
     0
277
    -2
287
     1
 67
     0
278
    -2
288
     1
 68
     0
279
    -2
289
     1
 69
     0
  7
高3.2
140
0.18
170
     7
 62
     3
 63
     7
283
     0
274
    -2
284
     1
 64
     3
275
    -2
285
     1
 65
     7
276
    -2
286
     1
 66
     3
277
    -2
287
     1
 67
     3
278
    -2
288
     1
 68
     7
279
    -2
289
     1
 69
     3
  0
VISUALSTYLE
  5
1A
102
{ACAD_XDICTIONARY
360
34C1
102
}
102
{ACAD_REACTORS
330
14
102
}
330
14
100
AcDbVisualStyle
  2

 70
     4
 71
     0
 72
     2
 73
     0
 90
        0
 40
-0.6
 41
-30.0
 62
     5
 63
     7
 74
     1
 91
        4
 64
     7
 65
   257
 75
     1
175
     1
 42
1.0
 92
        0
 66
   257
 43
1.0
 76
     1
 77
     6
 78
     2
 67
     7
 79
     5
170
     0
171
     0
290
     0
174
     0
 93
        1
 44
0.0
173
     0
291
     0
 45
0.0
1001
ACAD
1000
AcDbSavedByObjectVersion
1070
     0
  0
VISUALSTYLE
  5
1C
102
{ACAD_XDICTIONARY
360
34C5
102
}
102
{ACAD_REACTORS
330
14
102
}
330
14
100
AcDbVisualStyle
  2

 70
     6
 71
     1
 72
     2
 73
     2
 90
        0
 40
-0.6
 41
-30.0
 62
     5
 63
     7
 74
     2
 91
        2
 64
     7
 65
   257
 75
     2
175
     1
 42
40.0
 92
        0
 66
   257
 43
1.0
 76
     1
 77
     6
 78
     2
 67
     7
 79
     3
170
     0
171
     0
290
     0
174
     0
 93
        1
 44
0.0
173
     0
291
     0
 45
0.0
1001
ACAD
1000
AcDbSavedByObjectVersion
1070
     0
  0
VISUALSTYLE
  5
1B
102
{ACAD_XDICTIONARY
360
34C3
102
}
102
{ACAD_REACTORS
330
14
102
}
330
14
100
AcDbVisualStyle
  2

 70
     5
 71
     0
 72
     2
 73
     0
 90
        0
 40
-0.6
 41
-30.0
 62
     5
 63
     7
 74
     1
 91
        4
 64
     7
 65
   257
 75
     1
175
     1
 42
1.0
 92
        0
 66
   257
 43
1.0
 76
     1
 77
     6
 78
     2
 67
     7
 79
     5
170
     0
171
     0
290
     0
174
     0
 93
        1
 44
0.0
173
     0
291
     0
 45
0.0
1001
ACAD
1000
AcDbSavedByObjectVersion
1070
     0
  0
VISUALSTYLE
  5
19
102
{ACAD_XDICTIONARY
360
34BF
102
}
102
{ACAD_REACTORS
330
14
102
}
330
14
100
AcDbVisualStyle
  2

 70
     7
 71
     1
 72
     0
 73
     1
 90
        0
 40
-0.6
 41
-30.0
 62
     5
 63
     7
 74
     0
 91
        4
 64
     7
 65
   257
 75
     1
175
     1
 42
1.0
 92
        8
 66
     7
 43
1.0
 76
     1
 77
     6
 78
     2
 67
     7
 79
     5
170
     0
171
     0
290
     0
174
     0
 93
        1
 44
0.0
173
     0
291
     1
 45
0.0
1001
ACAD
1000
AcDbSavedByObjectVersion
1070
     0
  0
VISUALSTYLE
  5
20
102
{ACAD_XDICTIONARY
360
34CD
102
}
102
{ACAD_REACTORS
330
14
102
}
330
14
100
AcDbVisualStyle
  2

 70
    12
 71
     2
 72
     2
 73
     0
 90
        0
 40
-0.6
 41
-30.0
 62
     5
 63
     7
 74
     1
 91
        4
 64
     7
 65
   257
 75
     1
175
     1
 42
1.0
 92
        8
 66
     7
 43
1.0
 76
     1
 77
     6
 78
     2
 67
     7
 79
     5
170
     0
171
     0
290
     0
174
     0
 93
        1
 44
50.0
173
     0
291
     1
 45
0.0
1001
ACAD
1000
AcDbSavedByObjectVersion
1070
     0
  0
VISUALSTYLE
  5
24
102
{ACAD_XDICTIONARY
360
34D5
102
}
102
{ACAD_REACTORS
330
14
102
}
330
14
100
AcDbVisualStyle
  2

 70
    16
 71
     2
 72
     2
 73
     3
 90
        0
 40
-0.6
 41
-30.0
 62
     5
 63
     8
 74
     1
 91
        4
 64
     7
 65
   257
 75
     1
175
     1
 42
1.0
 92
        8
 66
     8
 43
1.0
 76
     1
 77
     6
 78
     2
 67
     7
 79
     5
170
     0
171
     0
290
     0
174
     0
 93
        1
 44
0.0
173
     0
291
     1
 45
0.0
1001
ACAD
1000
AcDbSavedByObjectVersion
1070
     0
  0
VISUALSTYLE
  5
1D
102
{ACAD_XDICTIONARY
360
34C7
102
}
102
{ACAD_REACTORS
330
14
102
}
330
14
100
AcDbVisualStyle
  2

 70
     9
 71
     3
 72
     2
 73
     0
 90
        0
 40
-0.6
 41
-30.0
 62
     5
 63
     7
 74
     2
 91
        2
 64
     7
 65
   257
 75
     1
175
     1
 42
40.0
 92
        8
 66
     7
 43
1.0
 76
     1
 77
     6
 78
     2
 67
     7
 79
     3
170
     0
171
     0
290
     0
174
     0
 93
        1
 44
0.0
173
     0
291
     0
 45
0.0
1001
ACAD
1000
AcDbSavedByObjectVersion
1070
     0
  0
VISUALSTYLE
  5
1F
102
{ACAD_XDICTIONARY
360
34CB
102
}
102
{ACAD_REACTORS
330
14
102
}
330
14
100
AcDbVisualStyle
  2

 70
    11
 71
     2
 72
     2
 73
     0
 90
        0
 40
-0.6
 41
-30.0
 62
     5
 63
     7
 74
     1
 91
        4
 64
     7
 65
   257
 75
     1
175
     1
 42
1.0
 92
        8
 66
     7
 43
1.0
 76
     1
 77
     6
 78
     2
 67
     7
 79
     5
170
     0
171
     0
290
     0
174
     0
 93
        1
 44
-50.0
173
     0
291
     1
 45
0.0
1001
ACAD
1000
AcDbSavedByObjectVersion
1070
     0
  0
VISUALSTYLE
  5
B5B
102
{ACAD_XDICTIONARY
360
34EE
102
}
102
{ACAD_REACTORS
330
14
102
}
330
14
100
AcDbVisualStyle
  2

 70
    22
 71
     2
 72
     2
 73
     0
 90
        0
 40
-0.6
 41
-30.0
 62
     5
 63
     7
 74
     1
 91
        4
 64
     7
 65
   257
 75
     1
175
     1
 42
1.0
 92
        8
 66
     7
 43
1.0
 76
     1
 77
     6
 78
     2
 67
     7
 79
     5
170
     0
171
     0
290
     0
174
     0
 93
        1
 44
0.0
173
     0
291
     1
 45
0.0
1001
ACAD
1000
AcDbSavedByObjectVersion
1070
     0
  0
VISUALSTYLE
  5
23
102
{ACAD_XDICTIONARY
360
34D3
102
}
102
{ACAD_REACTORS
330
14
102
}
330
14
100
AcDbVisualStyle
  2

 70
    15
 71
     2
 72
     2
 73
     0
 90
        0
 40
-0.6
 41
-30.0
 62
     5
 63
     7
 74
     1
 91
        4
 64
     7
 65
   257
 75
     1
175
     1
 42
1.0
 92
        8
 66
     7
 43
1.0
 76
     1
 77
     6
 78
     2
 67
     7
 79
     5
170
     0
171
     0
290
     0
174
     0
 93
        1
 44
0.0
173
     0
291
     1
 45
0.0
1001
ACAD
1000
AcDbSavedByObjectVersion
1070
     0
  0
VISUALSTYLE
  5
15
102
{ACAD_XDICTIONARY
360
34B7
102
}
102
{ACAD_REACTORS
330
14
102
}
330
14
100
AcDbVisualStyle
  2

 70
     0
 71
     2
 72
     1
 73
     1
 90
        2
 40
-0.6
 41
30.0
 62
     5
 63
     7
 74
     0
 91
        4
 64
     7
 65
   257
 75
     1
175
     1
 42
1.0
 92
        8
 66
     7
 43
1.0
 76
     1
 77
     6
 78
     2
 67
     7
 79
     5
170
     0
171
     0
290
     0
174
     0
 93
       13
 44
0.0
173
     0
291
     1
 45
0.0
1001
ACAD
1000
AcDbSavedByObjectVersion
1070
     0
  0
VISUALSTYLE
  5
16
102
{ACAD_XDICTIONARY
360
34B9
102
}
102
{ACAD_REACTORS
330
14
102
}
330
14
100
AcDbVisualStyle
  2

 70
     1
 71
     2
 72
     1
 73
     1
 90
        2
 40
-0.6
 41
30.0
 62
     5
 63
     7
 74
     1
 91
        4
 64
     7
 65
   257
 75
     1
175
     1
 42
1.0
 92
        0
 66
   257
 43
1.0
 76
     1
 77
     6
 78
     2
 67
     7
 79
     5
170
     0
171
     0
290
     0
174
     0
 93
       13
 44
0.0
173
     0
291
     1
 45
0.0
1001
ACAD
1000
AcDbSavedByObjectVersion
1070
     0
  0
VISUALSTYLE
  5
17
102
{ACAD_XDICTIONARY
360
34BB
102
}
102
{ACAD_REACTORS
330
14
102
}
330
14
100
AcDbVisualStyle
  2

 70
     2
 71
     2
 72
     2
 73
     1
 90
        2
 40
-0.6
 41
30.0
 62
     5
 63
     7
 74
     0
 91
        4
 64
     7
 65
   257
 75
     1
175
     1
 42
1.0
 92
        0
 66
     7
 43
1.0
 76
     1
 77
     6
 78
     2
 67
     7
 79
     5
170
     0
171
     0
290
     0
174
     0
 93
       13
 44
0.0
173
     0
291
     1
 45
0.0
1001
ACAD
1000
AcDbSavedByObjectVersion
1070
     0
  0
VISUALSTYLE
  5
18
102
{ACAD_XDICTIONARY
360
34BD
102
}
102
{ACAD_REACTORS
330
14
102
}
330
14
100
AcDbVisualStyle
  2

 70
     3
 71
     2
 72
     2
 73
     1
 90
        2
 40
-0.6
 41
30.0
 62
     5
 63
     7
 74
     1
 91
        4
 64
     7
 65
   257
 75
     1
175
     1
 42
1.0
 92
        0
 66
   257
 43
1.0
 76
     1
 77
     6
 78
     2
 67
     7
 79
     5
170
     0
171
     0
290
     0
174
     0
 93
       13
 44
0.0
173
     0
291
     1
 45
0.0
1001
ACAD
1000
AcDbSavedByObjectVersion
1070
     0
  0
VISUALSTYLE
  5
B53
102
{ACAD_XDICTIONARY
360
34DE
102
}
102
{ACAD_REACTORS
330
14
102
}
330
14
100
AcDbVisualStyle
  2

 70
     6
 71
     1
 72
     2
 73
     2
 90
        0
 40
-0.6
 41
-30.0
 62
     5
 63
     7
 74
     2
 91
        2
 64
     7
 65
   257
 75
     2
175
     1
 42
40.0
 92
        0
 66
   257
 43
1.0
 76
     1
 77
     6
 78
     2
 67
     7
 79
     3
170
     0
171
     0
290
     0
174
     0
 93
        1
 44
0.0
173
     0
291
     0
 45
0.0
1001
ACAD
1000
AcDbSavedByObjectVersion
1070
     0
  0
VISUALSTYLE
  5
B59
102
{ACAD_XDICTIONARY
360
34EA
102
}
102
{ACAD_REACTORS
330
14
102
}
330
14
100
AcDbVisualStyle
  2

 70
    20
 71
     2
 72
     2
 73
     0
 90
        0
 40
-0.6
 41
-30.0
 62
     5
 63
     7
 74
     1
 91
        4
 64
     7
 65
   257
 75
     1
175
     1
 42
1.0
 92
       10
 66
     7
 43
1.0
 76
     1
 77
     6
 78
     2
 67
     7
 79
     5
170
     0
171
     0
290
     0
174
     0
 93
        1
 44
0.0
173
     0
291
     1
 45
0.0
1001
ACAD
1000
AcDbSavedByObjectVersion
1070
     0
  0
VISUALSTYLE
  5
22
102
{ACAD_XDICTIONARY
360
34D1
102
}
102
{ACAD_REACTORS
330
14
102
}
330
14
100
AcDbVisualStyle
  2

 70
    14
 71
     2
 72
     2
 73
     0
 90
        0
 40
-0.6
 41
-30.0
 62
     5
 63
     7
 74
     1
 91
        4
 64
     7
 65
   257
 75
     7
175
     7
 42
1.0
 92
        8
 66
     7
 43
1.0
 76
     1
 77
     6
 78
     2
 67
     7
 79
     5
170
     0
171
     0
290
     0
174
     0
 93
        1
 44
0.0
173
     0
291
     1
 45
0.0
1001
ACAD
1000
AcDbSavedByObjectVersion
1070
     0
  0
VISUALSTYLE
  5
B5A
102
{ACAD_XDICTIONARY
360
34EC
102
}
102
{ACAD_REACTORS
330
14
102
}
330
14
100
AcDbVisualStyle
  2

 70
    21
 71
     2
 72
     2
 73
     0
 90
        0
 40
-0.6
 41
-30.0
 62
     5
 63
     7
 74
     1
 91
        4
 64
     7
 65
   257
 75
     1
175
     1
 42
1.0
 92
        9
 66
     7
 43
1.0
 76
     1
 77
     6
 78
     2
 67
     7
 79
     5
170
     0
171
     0
290
     0
174
     0
 93
        1
 44
0.0
173
     0
291
     1
 45
0.0
1001
ACAD
1000
AcDbSavedByObjectVersion
1070
     0
  0
VISUALSTYLE
  5
1E
102
{ACAD_XDICTIONARY
360
34C9
102
}
102
{ACAD_REACTORS
330
14
102
}
330
14
100
AcDbVisualStyle
  2

 70
     8
 71
     2
 72
     2
 73
     0
 90
        0
 40
-0.6
 41
-30.0
 62
     5
 63
     7
 74
     1
 91
        0
 64
     7
 65
   257
 75
     1
175
     1
 42
1.0
 92
        8
 66
     8
 43
1.0
 76
     1
 77
     6
 78
     2
 67
     7
 79
     5
170
     0
171
     0
290
     0
174
     0
 93
       13
 44
0.0
173
     0
291
     0
 45
0.0
1001
ACAD
1000
AcDbSavedByObjectVersion
1070
     0
  0
VISUALSTYLE
  5
B58
102
{ACAD_XDICTIONARY
360
34E8
102
}
102
{ACAD_REACTORS
330
14
102
}
330
14
100
AcDbVisualStyle
  2

 70
    27
 71
     2
 72
     2
 73
     1
 90
        2
 40
-0.6
 41
30.0
 62
     5
 63
     7
 74
     0
 91
        4
 64
     7
 65
   257
 75
     1
175
     1
 42
1.0
 92
        8
 66
   257
 43
1.0
 76
     1
 77
     6
 78
     2
 67
     8
 79
     3
170
     0
171
     0
290
     0
174
     0
 93
        5
 44
0.0
173
     0
291
     0
 45
0.0
1001
ACAD
1000
AcDbSavedByObjectVersion
1070
     0
  0
VISUALSTYLE
  5
B57
102
{ACAD_XDICTIONARY
360
34E6
102
}
102
{ACAD_REACTORS
330
14
102
}
330
14
100
AcDbVisualStyle
  2

 70
    26
 71
     2
 72
     2
 73
     1
 90
        2
 40
-0.6
 41
30.0
 62
     5
 63
     7
 74
     1
 91
       10
 64
     7
 65
   257
 75
     2
175
     1
 42
1.0
 92
        8
 66
   257
 43
1.0
 76
     1
 77
     6
 78
     2
 67
     7
 79
     3
170
     0
171
     0
290
     0
174
     0
 93
        5
 44
0.0
173
     0
291
     0
 45
0.0
1001
ACAD
1000
AcDbSavedByObjectVersion
1070
     0
  0
VISUALSTYLE
  5
B54
102
{ACAD_XDICTIONARY
360
34E0
102
}
102
{ACAD_REACTORS
330
14
102
}
330
14
100
AcDbVisualStyle
  2

 70
    23
 71
     2
 72
     2
 73
     3
 90
        0
 40
-0.6
 41
-30.0
 62
     5
 63
     7
 74
     2
 91
        2
 64
     7
 65
     7
 75
     1
175
     1
 42
40.0
 92
        8
 66
     7
 43
1.0
 76
     1
 77
     6
 78
     2
 67
     7
 79
     3
170
     0
171
     0
290
     0
174
     0
 93
        1
 44
0.0
173
     0
291
     0
 45
0.0
1001
ACAD
1000
AcDbSavedByObjectVersion
1070
     0
  0
VISUALSTYLE
  5
B55
102
{ACAD_XDICTIONARY
360
34E2
102
}
102
{ACAD_REACTORS
330
14
102
}
330
14
100
AcDbVisualStyle
  2

 70
    24
 71
     1
 72
     2
 73
     2
 90
        0
 40
-0.6
 41
-30.0
 62
     5
 63
     7
 74
     2
 91
        2
 64
     7
 65
     7
 75
     1
175
     1
 42
40.0
 92
       11
 66
     7
 43
1.0
 76
     1
 77
     6
 78
     2
 67
     7
 79
     6
170
     0
171
     0
290
     0
174
     0
 93
        1
 44
0.0
173
     0
291
     0
 45
0.0
1001
ACAD
1000
AcDbSavedByObjectVersion
1070
     0
  0
VISUALSTYLE
  5
21
102
{ACAD_XDICTIONARY
360
34CF
102
}
102
{ACAD_REACTORS
330
14
102
}
330
14
100
AcDbVisualStyle
  2

 70
    13
 71
     2
 72
     2
 73
     0
 90
        0
 40
-0.6
 41
-30.0
 62
     5
 63
     7
 74
     1
 91
        4
 64
     7
 65
   257
 75
     1
175
     1
 42
1.0
 92
       12
 66
     7
 43
1.0
 76
     1
 77
     6
 78
     2
 67
     7
 79
     5
170
     0
171
     0
290
     0
174
     0
 93
        1
 44
0.0
173
     0
291
     1
 45
0.0
1001
ACAD
1000
AcDbSavedByObjectVersion
1070
     0
  0
VISUALSTYLE
  5
B52
102
{ACAD_XDICTIONARY
360
34DC
102
}
102
{ACAD_REACTORS
330
14
102
}
330
14
100
AcDbVisualStyle
  2

 70
     5
 71
     0
 72
     2
 73
     0
 90
        0
 40
-0.6
 41
-30.0
 62
     5
 63
     7
 74
     1
 91
        4
 64
     7
 65
   257
 75
     1
175
     1
 42
1.0
 92
        0
 66
   257
 43
1.0
 76
     1
 77
     6
 78
     2
 67
     7
 79
     3
170
     0
171
     0
290
     0
174
     0
 93
        1
 44
0.0
173
     0
291
     0
 45
0.0
1001
ACAD
1000
AcDbSavedByObjectVersion
1070
     0
  0
VISUALSTYLE
  5
B56
102
{ACAD_XDICTIONARY
360
34E4
102
}
102
{ACAD_REACTORS
330
14
102
}
330
14
100
AcDbVisualStyle
  2

 70
    25
 71
     2
 72
     2
 73
     1
 90
        1
 40
0.5
 41
-30.0
 62
     5
 63
     7
 74
     1
 91
        0
 64
     7
 65
   257
 75
     1
175
     1
 42
1.0
 92
        8
 66
     7
 43
1.0
 76
     1
 77
     6
 78
     2
 67
     7
 79
     3
170
     0
171
     0
290
     0
174
     0
 93
       13
 44
0.0
173
     0
291
     0
 45
0.0
1001
ACAD
1000
AcDbSavedByObjectVersion
1070
     0
  0
DICTIONARYVAR
  5
DA9
102
{ACAD_REACTORS
330
2BD
102
}
330
2BD
100
DictionaryVariables
280
     0
  1
1:1
  0
DICTIONARYVAR
  5
DA8
102
{ACAD_REACTORS
330
2BD
102
}
330
2BD
100
DictionaryVariables
280
     0
  1
STANDARD
  0
DICTIONARYVAR
  5
2BE
102
{ACAD_REACTORS
330
2BD
102
}
330
2BD
100
DictionaryVariables
280
     0
  1
STANDARD
  0
DICTIONARYVAR
  5
2C7
102
{ACAD_REACTORS
330
2BD
102
}
330
2BD
100
DictionaryVariables
280
     0
  1
1
  0
DICTIONARYVAR
  5
2C6
102
{ACAD_REACTORS
330
2BD
102
}
330
2BD
100
DictionaryVariables
280
     0
  1
0
  0
DICTIONARYVAR
  5
2C5
102
{ACAD_REACTORS
330
2BD
102
}
330
2BD
100
DictionaryVariables
280
     0
  1
127
  0
DICTIONARYVAR
  5
337D
102
{ACAD_REACTORS
330
2BD
102
}
330
2BD
100
DictionaryVariables
280
     0
  1
2
  0
DICTIONARY
  5
34DA
330
39
100
AcDbDictionary
280
     1
281
     1
  3
ACAD_XREC_ROUNDTRIP
360
34DB
  0
DICTIONARY
  5
34D8
330
35
100
AcDbDictionary
280
     1
281
     1
  3
ACAD_XREC_ROUNDTRIP
360
34D9
  0
DICTIONARY
  5
2CB
330
12
100
AcDbDictionary
280
     1
281
     1
  3
ACAD_XREC_ROUNDTRIP
360
2CC
  0
DICTIONARY
  5
2C9
330
11
100
AcDbDictionary
280
     1
281
     1
  3
ACAD_XREC_ROUNDTRIP
360
2CA
  0
DICTIONARY
  5
2CD
330
13
100
AcDbDictionary
280
     1
281
     1
  3
ACAD_XREC_ROUNDTRIP
360
2CE
  0
DICTIONARY
  5
DAB
330
31
100
AcDbDictionary
280
     1
281
     1
  3
ACAD_ROUNDTRIP_2008_TABLESTYLE_CELLSTYLEMAP
360
34AF
  3
ACAD_XREC_ROUNDTRIP
360
34D7
  0
DICTIONARY
  5
16E3
330
16E2
100
AcDbDictionary
280
     1
281
     1
  3
ACAD_ROUNDTRIP_2008_TABLESTYLE_CELLSTYLEMAP
360
34B0
  3
ACAD_XREC_ROUNDTRIP
360
34F0
  0
DICTIONARY
  5
34C1
330
1A
100
AcDbDictionary
280
     1
281
     1
  3
ACAD_XREC_ROUNDTRIP
360
34C2
  0
DICTIONARY
  5
34C5
330
1C
100
AcDbDictionary
280
     1
281
     1
  3
ACAD_XREC_ROUNDTRIP
360
34C6
  0
DICTIONARY
  5
34C3
330
1B
100
AcDbDictionary
280
     1
281
     1
  3
ACAD_XREC_ROUNDTRIP
360
34C4
  0
DICTIONARY
  5
34BF
330
19
100
AcDbDictionary
280
     1
281
     1
  3
ACAD_XREC_ROUNDTRIP
360
34C0
  0
DICTIONARY
  5
34CD
330
20
100
AcDbDictionary
280
     1
281
     1
  3
ACAD_XREC_ROUNDTRIP
360
34CE
  0
DICTIONARY
  5
34D5
330
24
100
AcDbDictionary
280
     1
281
     1
  3
ACAD_XREC_ROUNDTRIP
360
34D6
  0
DICTIONARY
  5
34C7
330
1D
100
AcDbDictionary
280
     1
281
     1
  3
ACAD_XREC_ROUNDTRIP
360
34C8
  0
DICTIONARY
  5
34CB
330
1F
100
AcDbDictionary
280
     1
281
     1
  3
ACAD_XREC_ROUNDTRIP
360
34CC
  0
DICTIONARY
  5
34EE
330
B5B
100
AcDbDictionary
280
     1
281
     1
  3
ACAD_XREC_ROUNDTRIP
360
34EF
  0
DICTIONARY
  5
34D3
330
23
100
AcDbDictionary
280
     1
281
     1
  3
ACAD_XREC_ROUNDTRIP
360
34D4
  0
DICTIONARY
  5
34B7
330
15
100
AcDbDictionary
280
     1
281
     1
  3
ACAD_XREC_ROUNDTRIP
360
34B8
  0
DICTIONARY
  5
34B9
330
16
100
AcDbDictionary
280
     1
281
     1
  3
ACAD_XREC_ROUNDTRIP
360
34BA
  0
DICTIONARY
  5
34BB
330
17
100
AcDbDictionary
280
     1
281
     1
  3
ACAD_XREC_ROUNDTRIP
360
34BC
  0
DICTIONARY
  5
34BD
330
18
100
AcDbDictionary
280
     1
281
     1
  3
ACAD_XREC_ROUNDTRIP
360
34BE
  0
DICTIONARY
  5
34DE
330
B53
100
AcDbDictionary
280
     1
281
     1
  3
ACAD_XREC_ROUNDTRIP
360
34DF
  0
DICTIONARY
  5
34EA
330
B59
100
AcDbDictionary
280
     1
281
     1
  3
ACAD_XREC_ROUNDTRIP
360
34EB
  0
DICTIONARY
  5
34D1
330
22
100
AcDbDictionary
280
     1
281
     1
  3
ACAD_XREC_ROUNDTRIP
360
34D2
  0
DICTIONARY
  5
34EC
330
B5A
100
AcDbDictionary
280
     1
281
     1
  3
ACAD_XREC_ROUNDTRIP
360
34ED
  0
DICTIONARY
  5
34C9
330
1E
100
AcDbDictionary
280
     1
281
     1
  3
ACAD_XREC_ROUNDTRIP
360
34CA
  0
DICTIONARY
  5
34E8
330
B58
100
AcDbDictionary
280
     1
281
     1
  3
ACAD_XREC_ROUNDTRIP
360
34E9
  0
DICTIONARY
  5
34E6
330
B57
100
AcDbDictionary
280
     1
281
     1
  3
ACAD_XREC_ROUNDTRIP
360
34E7
  0
DICTIONARY
  5
34E0
330
B54
100
AcDbDictionary
280
     1
281
     1
  3
ACAD_XREC_ROUNDTRIP
360
34E1
  0
DICTIONARY
  5
34E2
330
B55
100
AcDbDictionary
280
     1
281
     1
  3
ACAD_XREC_ROUNDTRIP
360
34E3
  0
DICTIONARY
  5
34CF
330
21
100
AcDbDictionary
280
     1
281
     1
  3
ACAD_XREC_ROUNDTRIP
360
34D0
  0
DICTIONARY
  5
34DC
330
B52
100
AcDbDictionary
280
     1
281
     1
  3
ACAD_XREC_ROUNDTRIP
360
34DD
  0
DICTIONARY
  5
34E4
330
B56
100
AcDbDictionary
280
     1
281
     1
  3
ACAD_XREC_ROUNDTRIP
360
34E5
  0
XRECORD
  5
34DB
102
{ACAD_REACTORS
330
34DA
102
}
330
34DA
100
AcDbXrecord
280
     1
102
SHADEPLOT
 70
     0
102
SHADEPLOTRESLEVEL
 70
     2
102
SHADEPLOTCUSTOMDPI
 70
   300
  0
XRECORD
  5
34D9
102
{ACAD_REACTORS
330
34D8
102
}
330
34D8
100
AcDbXrecord
280
     1
102
SHADEPLOT
 70
     0
102
SHADEPLOTRESLEVEL
 70
     2
102
SHADEPLOTCUSTOMDPI
 70
   300
  0
XRECORD
  5
2CC
102
{ACAD_REACTORS
330
2CB
102
}
330
2CB
100
AcDbXrecord
280
     1
102
MATERIAL
148
0.0
149
0.0
149
0.0
 93
        0
 94
      127
282
     0
 72
     1
 77
     1
171
     1
175
     1
179
     1
273
     0
  0
XRECORD
  5
2CA
102
{ACAD_REACTORS
330
2C9
102
}
330
2C9
100
AcDbXrecord
280
     1
102
MATERIAL
148
0.0
149
0.0
149
0.0
 93
        0
 94
      127
282
     0
 72
     1
 77
     1
171
     1
175
     1
179
     1
273
     0
  0
XRECORD
  5
2CE
102
{ACAD_REACTORS
330
2CD
102
}
330
2CD
100
AcDbXrecord
280
     1
102
MATERIAL
148
0.0
149
0.0
149
0.0
 93
        0
 94
      127
282
     0
 72
     1
 77
     1
171
     1
175
     1
179
     1
273
     0
  0
CELLSTYLEMAP
  5
34AF
102
{ACAD_REACTORS
330
DAB
102
}
330
DAB
100
AcDbCellStyleMap
 90
        3
300
CELLSTYLE
  1
TABLEFORMAT_BEGIN
 90
        5
170
     1
 91
        0
 92
    32768
 62
   257
 93
        1
300
CONTENTFORMAT
  1
CONTENTFORMAT_BEGIN
 90
        0
 91
        0
 92
      512
 93
        0
300

 40
0.0
140
1.0
 94
        5
 62
     0
340
26
144
0.25
309
CONTENTFORMAT_END
171
     1
301
MARGIN
  1
CELLMARGIN_BEGIN
 40
0.06
 40
0.06
 40
0.06
 40
0.06
 40
0.18
 40
0.18
309
CELLMARGIN_END
 94
        6
 95
        1
302
GRIDFORMAT
  1
GRIDFORMAT_BEGIN
 90
        0
 91
        1
 62
     0
 92
       -2
340
0
 93
        0
 40
0.045
309
GRIDFORMAT_END
 95
        2
302
GRIDFORMAT
  1
GRIDFORMAT_BEGIN
 90
        0
 91
        1
 62
     0
 92
       -2
340
0
 93
        0
 40
0.045
309
GRIDFORMAT_END
 95
        4
302
GRIDFORMAT
  1
GRIDFORMAT_BEGIN
 90
        0
 91
        1
 62
     0
 92
       -2
340
0
 93
        0
 40
0.045
309
GRIDFORMAT_END
 95
        8
302
GRIDFORMAT
  1
GRIDFORMAT_BEGIN
 90
        0
 91
        1
 62
     0
 92
       -2
340
0
 93
        0
 40
0.045
309
GRIDFORMAT_END
 95
       16
302
GRIDFORMAT
  1
GRIDFORMAT_BEGIN
 90
        0
 91
        1
 62
     0
 92
       -2
340
0
 93
        0
 40
0.045
309
GRIDFORMAT_END
 95
       32
302
GRIDFORMAT
  1
GRIDFORMAT_BEGIN
 90
        0
 91
        1
 62
     0
 92
       -2
340
0
 93
        0
 40
0.045
309
GRIDFORMAT_END
309
TABLEFORMAT_END
  1
CELLSTYLE_BEGIN
 90
        1
 91
        1
300
_TITLE
309
CELLSTYLE_END
300
CELLSTYLE
  1
TABLEFORMAT_BEGIN
 90
        5
170
     1
 91
        0
 92
        0
 62
   257
 93
        1
300
CONTENTFORMAT
  1
CONTENTFORMAT_BEGIN
 90
        0
 91
        0
 92
      512
 93
        0
300

 40
0.0
140
1.0
 94
        5
 62
     0
340
26
144
0.18
309
CONTENTFORMAT_END
171
     1
301
MARGIN
  1
CELLMARGIN_BEGIN
 40
0.06
 40
0.06
 40
0.06
 40
0.06
 40
0.18
 40
0.18
309
CELLMARGIN_END
 94
        6
 95
        1
302
GRIDFORMAT
  1
GRIDFORMAT_BEGIN
 90
        0
 91
        1
 62
     0
 92
       -2
340
0
 93
        0
 40
0.045
309
GRIDFORMAT_END
 95
        2
302
GRIDFORMAT
  1
GRIDFORMAT_BEGIN
 90
        0
 91
        1
 62
     0
 92
       -2
340
0
 93
        0
 40
0.045
309
GRIDFORMAT_END
 95
        4
302
GRIDFORMAT
  1
GRIDFORMAT_BEGIN
 90
        0
 91
        1
 62
     0
 92
       -2
340
0
 93
        0
 40
0.045
309
GRIDFORMAT_END
 95
        8
302
GRIDFORMAT
  1
GRIDFORMAT_BEGIN
 90
        0
 91
        1
 62
     0
 92
       -2
340
0
 93
        0
 40
0.045
309
GRIDFORMAT_END
 95
       16
302
GRIDFORMAT
  1
GRIDFORMAT_BEGIN
 90
        0
 91
        1
 62
     0
 92
       -2
340
0
 93
        0
 40
0.045
309
GRIDFORMAT_END
 95
       32
302
GRIDFORMAT
  1
GRIDFORMAT_BEGIN
 90
        0
 91
        1
 62
     0
 92
       -2
340
0
 93
        0
 40
0.045
309
GRIDFORMAT_END
309
TABLEFORMAT_END
  1
CELLSTYLE_BEGIN
 90
        2
 91
        1
300
_HEADER
309
CELLSTYLE_END
300
CELLSTYLE
  1
TABLEFORMAT_BEGIN
 90
        5
170
     1
 91
        0
 92
        0
 62
   257
 93
        1
300
CONTENTFORMAT
  1
CONTENTFORMAT_BEGIN
 90
        0
 91
        0
 92
      512
 93
        0
300

 40
0.0
140
1.0
 94
        2
 62
     0
340
26
144
0.18
309
CONTENTFORMAT_END
171
     1
301
MARGIN
  1
CELLMARGIN_BEGIN
 40
0.06
 40
0.06
 40
0.06
 40
0.06
 40
0.18
 40
0.18
309
CELLMARGIN_END
 94
        6
 95
        1
302
GRIDFORMAT
  1
GRIDFORMAT_BEGIN
 90
        0
 91
        1
 62
     0
 92
       -2
340
0
 93
        0
 40
0.045
309
GRIDFORMAT_END
 95
        2
302
GRIDFORMAT
  1
GRIDFORMAT_BEGIN
 90
        0
 91
        1
 62
     0
 92
       -2
340
0
 93
        0
 40
0.045
309
GRIDFORMAT_END
 95
        4
302
GRIDFORMAT
  1
GRIDFORMAT_BEGIN
 90
        0
 91
        1
 62
     0
 92
       -2
340
0
 93
        0
 40
0.045
309
GRIDFORMAT_END
 95
        8
302
GRIDFORMAT
  1
GRIDFORMAT_BEGIN
 90
        0
 91
        1
 62
     0
 92
       -2
340
0
 93
        0
 40
0.045
309
GRIDFORMAT_END
 95
       16
302
GRIDFORMAT
  1
GRIDFORMAT_BEGIN
 90
        0
 91
        1
 62
     0
 92
       -2
340
0
 93
        0
 40
0.045
309
GRIDFORMAT_END
 95
       32
302
GRIDFORMAT
  1
GRIDFORMAT_BEGIN
 90
        0
 91
        1
 62
     0
 92
       -2
340
0
 93
        0
 40
0.045
309
GRIDFORMAT_END
309
TABLEFORMAT_END
  1
CELLSTYLE_BEGIN
 90
        3
 91
        2
300
_DATA
309
CELLSTYLE_END
  0
XRECORD
  5
34D7
102
{ACAD_REACTORS
330
DAB
102
}
330
DAB
100
AcDbXrecord
280
     1
102
ACAD_ROUNDTRIP_PRE2007_TABLESTYLE
 90
      512
 91
        0
  1

 92
      512
 93
        0
  2

 94
      512
 95
        0
  3

  0
CELLSTYLEMAP
  5
34B0
102
{ACAD_REACTORS
330
16E3
102
}
330
16E3
100
AcDbCellStyleMap
 90
        3
300
CELLSTYLE
  1
TABLEFORMAT_BEGIN
 90
        5
170
     1
 91
        0
 92
    32768
 62
   257
 93
        1
300
CONTENTFORMAT
  1
CONTENTFORMAT_BEGIN
 90
        0
 91
        0
 92
      512
 93
        0
300

 40
0.0
140
1.0
 94
        8
 62
     3
340
9E3
144
0.25
309
CONTENTFORMAT_END
171
     1
301
MARGIN
  1
CELLMARGIN_BEGIN
 40
0.5
 40
10.0
 40
0.06
 40
0.06
 40
0.18
 40
0.18
309
CELLMARGIN_END
 94
        6
 95
        1
302
GRIDFORMAT
  1
GRIDFORMAT_BEGIN
 90
        0
 91
        1
 62
     0
 92
       -2
340
0
 93
        0
 40
0.045
309
GRIDFORMAT_END
 95
        2
302
GRIDFORMAT
  1
GRIDFORMAT_BEGIN
 90
        0
 91
        1
 62
     0
 92
       -2
340
0
 93
        0
 40
0.045
309
GRIDFORMAT_END
 95
        4
302
GRIDFORMAT
  1
GRIDFORMAT_BEGIN
 90
        0
 91
        1
 62
     0
 92
       -2
340
0
 93
        0
 40
0.045
309
GRIDFORMAT_END
 95
        8
302
GRIDFORMAT
  1
GRIDFORMAT_BEGIN
 90
        0
 91
        1
 62
     0
 92
       -2
340
0
 93
        0
 40
0.045
309
GRIDFORMAT_END
 95
       16
302
GRIDFORMAT
  1
GRIDFORMAT_BEGIN
 90
        0
 91
        1
 62
     0
 92
       -2
340
0
 93
        0
 40
0.045
309
GRIDFORMAT_END
 95
       32
302
GRIDFORMAT
  1
GRIDFORMAT_BEGIN
 90
        0
 91
        1
 62
     0
 92
       -2
340
0
 93
        0
 40
0.045
309
GRIDFORMAT_END
309
TABLEFORMAT_END
  1
CELLSTYLE_BEGIN
 90
        1
 91
        1
300
_TITLE
309
CELLSTYLE_END
300
CELLSTYLE
  1
TABLEFORMAT_BEGIN
 90
        5
170
     1
 91
        0
 92
        0
 62
   257
 93
        1
300
CONTENTFORMAT
  1
CONTENTFORMAT_BEGIN
 90
        0
 91
        0
 92
      512
 93
        0
300

 40
0.0
140
1.0
 94
        7
 62
     3
340
9E3
144
0.18
309
CONTENTFORMAT_END
171
     1
301
MARGIN
  1
CELLMARGIN_BEGIN
 40
0.5
 40
1.5
 40
0.06
 40
0.06
 40
0.18
 40
0.18
309
CELLMARGIN_END
 94
        6
 95
        1
302
GRIDFORMAT
  1
GRIDFORMAT_BEGIN
 90
        0
 91
        1
 62
     3
 92
       -2
340
28
 93
        0
 40
0.045
309
GRIDFORMAT_END
 95
        2
302
GRIDFORMAT
  1
GRIDFORMAT_BEGIN
 90
        0
 91
        1
 62
     7
 92
       -2
340
28
 93
        0
 40
0.045
309
GRIDFORMAT_END
 95
        4
302
GRIDFORMAT
  1
GRIDFORMAT_BEGIN
 90
        0
 91
        1
 62
     3
 92
       -2
340
28
 93
        0
 40
0.045
309
GRIDFORMAT_END
 95
        8
302
GRIDFORMAT
  1
GRIDFORMAT_BEGIN
 90
        0
 91
        1
 62
     3
 92
       -2
340
28
 93
        0
 40
0.045
309
GRIDFORMAT_END
 95
       16
302
GRIDFORMAT
  1
GRIDFORMAT_BEGIN
 90
        0
 91
        1
 62
     7
 92
       -2
340
28
 93
        0
 40
0.045
309
GRIDFORMAT_END
 95
       32
302
GRIDFORMAT
  1
GRIDFORMAT_BEGIN
 90
        0
 91
        1
 62
     3
 92
       -2
340
28
 93
        0
 40
0.045
309
GRIDFORMAT_END
309
TABLEFORMAT_END
  1
CELLSTYLE_BEGIN
 90
        2
 91
        1
300
_HEADER
309
CELLSTYLE_END
300
CELLSTYLE
  1
TABLEFORMAT_BEGIN
 90
        5
170
     1
 91
        0
 92
        0
 62
   257
 93
        1
300
CONTENTFORMAT
  1
CONTENTFORMAT_BEGIN
 90
        0
 91
        0
 92
      512
 93
        0
300

 40
0.0
140
1.0
 94
        7
 62
     3
340
9E3
144
0.18
309
CONTENTFORMAT_END
171
     1
301
MARGIN
  1
CELLMARGIN_BEGIN
 40
0.5
 40
1.5
 40
0.06
 40
0.06
 40
0.18
 40
0.18
309
CELLMARGIN_END
 94
        6
 95
        1
302
GRIDFORMAT
  1
GRIDFORMAT_BEGIN
 90
        0
 91
        1
 62
     3
 92
       -2
340
28
 93
        0
 40
0.045
309
GRIDFORMAT_END
 95
        2
302
GRIDFORMAT
  1
GRIDFORMAT_BEGIN
 90
        0
 91
        1
 62
     7
 92
       -2
340
28
 93
        0
 40
0.045
309
GRIDFORMAT_END
 95
        4
302
GRIDFORMAT
  1
GRIDFORMAT_BEGIN
 90
        0
 91
        1
 62
     3
 92
       -2
340
28
 93
        0
 40
0.045
309
GRIDFORMAT_END
 95
        8
302
GRIDFORMAT
  1
GRIDFORMAT_BEGIN
 90
        0
 91
        1
 62
     3
 92
       -2
340
28
 93
        0
 40
0.045
309
GRIDFORMAT_END
 95
       16
302
GRIDFORMAT
  1
GRIDFORMAT_BEGIN
 90
        0
 91
        1
 62
     7
 92
       -2
340
28
 93
        0
 40
0.045
309
GRIDFORMAT_END
 95
       32
302
GRIDFORMAT
  1
GRIDFORMAT_BEGIN
 90
        0
 91
        1
 62
     3
 92
       -2
340
28
 93
        0
 40
0.045
309
GRIDFORMAT_END
309
TABLEFORMAT_END
  1
CELLSTYLE_BEGIN
 90
        3
 91
        2
300
_DATA
309
CELLSTYLE_END
  0
XRECORD
  5
34F0
102
{ACAD_REACTORS
330
16E3
102
}
330
16E3
100
AcDbXrecord
280
     1
102
ACAD_ROUNDTRIP_PRE2007_TABLESTYLE
 90
      512
 91
        0
  1

 92
      512
 93
        0
  2

 94
      512
 95
        0
  3

  0
XRECORD
  5
34C2
102
{ACAD_REACTORS
330
34C1
102
}
330
34C1
100
AcDbXrecord
280
     1
102
RTVSPropertyOp0
 70
     1
102
RTVSPropertyOp1
 70
     1
102
RTVSPropertyOp2
 70
     1
102
RTVSPropertyOp3
 70
     1
102
RTVSPropertyOp4
 70
     1
102
RTVSPropertyOp5
 70
     1
102
RTVSPropertyOp6
 70
     1
102
RTVSPropertyOp7
 70
     1
102
RTVSPropertyOp8
 70
     1
102
RTVSPropertyOp9
 70
     1
102
RTVSPropertyOp10
 70
     1
102
RTVSPropertyOp11
 70
     1
102
RTVSPropertyOp12
 70
     1
102
RTVSPropertyOp13
 70
     1
102
RTVSPropertyOp14
 70
     1
102
RTVSPropertyOp15
 70
     1
102
RTVSPropertyOp16
 70
     1
102
RTVSPropertyOp17
 70
     1
102
RTVSPropertyOp18
 70
     1
102
RTVSPropertyOp19
 70
     1
102
RTVSPropertyOp20
 70
     1
102
RTVSPropertyOp21
 70
     1
102
RTVSPropertyOp22
 70
     1
102
RTVSPropertyOp23
 70
     1
102
RTVSPropertyOp24
 70
     1
102
RTVSPropertyOp25
 70
     1
102
RTVSPropertyOp26
 70
     1
102
RTVSPropertyOp27
 70
     1
102
RTVSPropertyOp28
 70
     1
102
RTVSPropertyOp29
 70
     1
102
RTVSPropertyOp30
 70
     1
102
RTVSPropertyOp31
 70
     1
102
RTVSPropertyOp32
 70
     1
  0
XRECORD
  5
34C6
102
{ACAD_REACTORS
330
34C5
102
}
330
34C5
100
AcDbXrecord
280
     1
102
RTVSPropertyOp0
 70
     1
102
RTVSPropertyOp1
 70
     1
102
RTVSPropertyOp2
 70
     1
102
RTVSPropertyOp3
 70
     1
102
RTVSPropertyOp4
 70
     1
102
RTVSPropertyOp5
 70
     1
102
RTVSPropertyOp6
 70
     1
102
RTVSPropertyOp7
 70
     1
102
RTVSPropertyOp8
 70
     1
102
RTVSPropertyOp9
 70
     1
102
RTVSPropertyOp10
 70
     1
102
RTVSPropertyOp11
 70
     1
102
RTVSPropertyOp12
 70
     1
102
RTVSPropertyOp13
 70
     1
102
RTVSPropertyOp14
 70
     1
102
RTVSPropertyOp15
 70
     1
102
RTVSPropertyOp16
 70
     1
102
RTVSPropertyOp17
 70
     1
102
RTVSPropertyOp18
 70
     1
102
RTVSPropertyOp19
 70
     1
102
RTVSPropertyOp20
 70
     1
102
RTVSPropertyOp21
 70
     1
102
RTVSPropertyOp22
 70
     1
102
RTVSPropertyOp23
 70
     1
102
RTVSPropertyOp24
 70
     1
102
RTVSPropertyOp25
 70
     1
102
RTVSPropertyOp26
 70
     1
102
RTVSPropertyOp27
 70
     1
102
RTVSPropertyOp28
 70
     1
102
RTVSPropertyOp29
 70
     1
102
RTVSPropertyOp30
 70
     1
102
RTVSPropertyOp31
 70
     1
102
RTVSPropertyOp32
 70
     1
  0
XRECORD
  5
34C4
102
{ACAD_REACTORS
330
34C3
102
}
330
34C3
100
AcDbXrecord
280
     1
102
RTVSPropertyOp0
 70
     1
102
RTVSPropertyOp1
 70
     1
102
RTVSPropertyOp2
 70
     1
102
RTVSPropertyOp3
 70
     1
102
RTVSPropertyOp4
 70
     1
102
RTVSPropertyOp5
 70
     1
102
RTVSPropertyOp6
 70
     1
102
RTVSPropertyOp7
 70
     1
102
RTVSPropertyOp8
 70
     1
102
RTVSPropertyOp9
 70
     1
102
RTVSPropertyOp10
 70
     1
102
RTVSPropertyOp11
 70
     1
102
RTVSPropertyOp12
 70
     1
102
RTVSPropertyOp13
 70
     1
102
RTVSPropertyOp14
 70
     1
102
RTVSPropertyOp15
 70
     1
102
RTVSPropertyOp16
 70
     1
102
RTVSPropertyOp17
 70
     1
102
RTVSPropertyOp18
 70
     1
102
RTVSPropertyOp19
 70
     1
102
RTVSPropertyOp20
 70
     1
102
RTVSPropertyOp21
 70
     1
102
RTVSPropertyOp22
 70
     1
102
RTVSPropertyOp23
 70
     1
102
RTVSPropertyOp24
 70
     1
102
RTVSPropertyOp25
 70
     1
102
RTVSPropertyOp26
 70
     1
102
RTVSPropertyOp27
 70
     1
102
RTVSPropertyOp28
 70
     1
102
RTVSPropertyOp29
 70
     1
102
RTVSPropertyOp30
 70
     1
102
RTVSPropertyOp31
 70
     1
102
RTVSPropertyOp32
 70
     1
  0
XRECORD
  5
34C0
102
{ACAD_REACTORS
330
34BF
102
}
330
34BF
100
AcDbXrecord
280
     1
102
RTVSPropertyOp0
 70
     1
102
RTVSPropertyOp1
 70
     1
102
RTVSPropertyOp2
 70
     1
102
RTVSPropertyOp3
 70
     1
102
RTVSPropertyOp4
 70
     1
102
RTVSPropertyOp5
 70
     1
102
RTVSPropertyOp6
 70
     1
102
RTVSPropertyOp7
 70
     1
102
RTVSPropertyOp8
 70
     1
102
RTVSPropertyOp9
 70
     1
102
RTVSPropertyOp10
 70
     1
102
RTVSPropertyOp11
 70
     1
102
RTVSPropertyOp12
 70
     1
102
RTVSPropertyOp13
 70
     1
102
RTVSPropertyOp14
 70
     1
102
RTVSPropertyOp15
 70
     1
102
RTVSPropertyOp16
 70
     1
102
RTVSPropertyOp17
 70
     1
102
RTVSPropertyOp18
 70
     1
102
RTVSPropertyOp19
 70
     1
102
RTVSPropertyOp20
 70
     1
102
RTVSPropertyOp21
 70
     1
102
RTVSPropertyOp22
 70
     1
102
RTVSPropertyOp23
 70
     1
102
RTVSPropertyOp24
 70
     1
102
RTVSPropertyOp25
 70
     1
102
RTVSPropertyOp26
 70
     1
102
RTVSPropertyOp27
 70
     1
102
RTVSPropertyOp28
 70
     1
102
RTVSPropertyOp29
 70
     1
102
RTVSPropertyOp30
 70
     1
102
RTVSPropertyOp31
 70
     1
102
RTVSPropertyOp32
 70
     1
  0
XRECORD
  5
34CE
102
{ACAD_REACTORS
330
34CD
102
}
330
34CD
100
AcDbXrecord
280
     1
102
RTVSPropertyOp0
 70
     1
102
RTVSPropertyOp1
 70
     1
102
RTVSPropertyOp2
 70
     1
102
RTVSPropertyOp3
 70
     1
102
RTVSPropertyOp4
 70
     1
102
RTVSPropertyOp5
 70
     1
102
RTVSPropertyOp6
 70
     1
102
RTVSPropertyOp7
 70
     1
102
RTVSPropertyOp8
 70
     1
102
RTVSPropertyOp9
 70
     1
102
RTVSPropertyOp10
 70
     1
102
RTVSPropertyOp11
 70
     1
102
RTVSPropertyOp12
 70
     1
102
RTVSPropertyOp13
 70
     1
102
RTVSPropertyOp14
 70
     1
102
RTVSPropertyOp15
 70
     1
102
RTVSPropertyOp16
 70
     1
102
RTVSPropertyOp17
 70
     1
102
RTVSPropertyOp18
 70
     1
102
RTVSPropertyOp19
 70
     1
102
RTVSPropertyOp20
 70
     1
102
RTVSPropertyOp21
 70
     1
102
RTVSPropertyOp22
 70
     1
102
RTVSPropertyOp23
 70
     1
102
RTVSPropertyOp24
 70
     1
102
RTVSPropertyOp25
 70
     1
102
RTVSPropertyOp26
 70
     1
102
RTVSPropertyOp27
 70
     1
102
RTVSPropertyOp28
 70
     1
102
RTVSPropertyOp29
 70
     1
102
RTVSPropertyOp30
 70
     1
102
RTVSPropertyOp31
 70
     1
102
RTVSPropertyOp32
 70
     1
  0
XRECORD
  5
34D6
102
{ACAD_REACTORS
330
34D5
102
}
330
34D5
100
AcDbXrecord
280
     1
102
RTVSPropertyOp0
 70
     1
102
RTVSPropertyOp1
 70
     1
102
RTVSPropertyOp2
 70
     1
102
RTVSPropertyOp3
 70
     1
102
RTVSPropertyOp4
 70
     1
102
RTVSPropertyOp5
 70
     1
102
RTVSPropertyOp6
 70
     1
102
RTVSPropertyOp7
 70
     1
102
RTVSPropertyOp8
 70
     1
102
RTVSPropertyOp9
 70
     1
102
RTVSPropertyOp10
 70
     1
102
RTVSPropertyOp11
 70
     1
102
RTVSPropertyOp12
 70
     1
102
RTVSPropertyOp13
 70
     1
102
RTVSPropertyOp14
 70
     1
102
RTVSPropertyOp15
 70
     1
102
RTVSPropertyOp16
 70
     1
102
RTVSPropertyOp17
 70
     1
102
RTVSPropertyOp18
 70
     1
102
RTVSPropertyOp19
 70
     1
102
RTVSPropertyOp20
 70
     1
102
RTVSPropertyOp21
 70
     1
102
RTVSPropertyOp22
 70
     1
102
RTVSPropertyOp23
 70
     1
102
RTVSPropertyOp24
 70
     1
102
RTVSPropertyOp25
 70
     1
102
RTVSPropertyOp26
 70
     1
102
RTVSPropertyOp27
 70
     1
102
RTVSPropertyOp28
 70
     1
102
RTVSPropertyOp29
 70
     1
102
RTVSPropertyOp30
 70
     1
102
RTVSPropertyOp31
 70
     1
102
RTVSPropertyOp32
 70
     1
  0
XRECORD
  5
34C8
102
{ACAD_REACTORS
330
34C7
102
}
330
34C7
100
AcDbXrecord
280
     1
102
RTVSPropertyOp0
 70
     1
102
RTVSPropertyOp1
 70
     1
102
RTVSPropertyOp2
 70
     1
102
RTVSPropertyOp3
 70
     1
102
RTVSPropertyOp4
 70
     1
102
RTVSPropertyOp5
 70
     1
102
RTVSPropertyOp6
 70
     1
102
RTVSPropertyOp7
 70
     1
102
RTVSPropertyOp8
 70
     1
102
RTVSPropertyOp9
 70
     1
102
RTVSPropertyOp10
 70
     1
102
RTVSPropertyOp11
 70
     1
102
RTVSPropertyOp12
 70
     1
102
RTVSPropertyOp13
 70
     1
102
RTVSPropertyOp14
 70
     1
102
RTVSPropertyOp15
 70
     1
102
RTVSPropertyOp16
 70
     1
102
RTVSPropertyOp17
 70
     1
102
RTVSPropertyOp18
 70
     1
102
RTVSPropertyOp19
 70
     1
102
RTVSPropertyOp20
 70
     1
102
RTVSPropertyOp21
 70
     1
102
RTVSPropertyOp22
 70
     1
102
RTVSPropertyOp23
 70
     1
102
RTVSPropertyOp24
 70
     1
102
RTVSPropertyOp25
 70
     1
102
RTVSPropertyOp26
 70
     1
102
RTVSPropertyOp27
 70
     1
102
RTVSPropertyOp28
 70
     1
102
RTVSPropertyOp29
 70
     1
102
RTVSPropertyOp30
 70
     1
102
RTVSPropertyOp31
 70
     1
102
RTVSPropertyOp32
 70
     1
  0
XRECORD
  5
34CC
102
{ACAD_REACTORS
330
34CB
102
}
330
34CB
100
AcDbXrecord
280
     1
102
RTVSPropertyOp0
 70
     1
102
RTVSPropertyOp1
 70
     1
102
RTVSPropertyOp2
 70
     1
102
RTVSPropertyOp3
 70
     1
102
RTVSPropertyOp4
 70
     1
102
RTVSPropertyOp5
 70
     1
102
RTVSPropertyOp6
 70
     1
102
RTVSPropertyOp7
 70
     1
102
RTVSPropertyOp8
 70
     1
102
RTVSPropertyOp9
 70
     1
102
RTVSPropertyOp10
 70
     1
102
RTVSPropertyOp11
 70
     1
102
RTVSPropertyOp12
 70
     1
102
RTVSPropertyOp13
 70
     1
102
RTVSPropertyOp14
 70
     1
102
RTVSPropertyOp15
 70
     1
102
RTVSPropertyOp16
 70
     1
102
RTVSPropertyOp17
 70
     1
102
RTVSPropertyOp18
 70
     1
102
RTVSPropertyOp19
 70
     1
102
RTVSPropertyOp20
 70
     1
102
RTVSPropertyOp21
 70
     1
102
RTVSPropertyOp22
 70
     1
102
RTVSPropertyOp23
 70
     1
102
RTVSPropertyOp24
 70
     1
102
RTVSPropertyOp25
 70
     1
102
RTVSPropertyOp26
 70
     1
102
RTVSPropertyOp27
 70
     1
102
RTVSPropertyOp28
 70
     1
102
RTVSPropertyOp29
 70
     1
102
RTVSPropertyOp30
 70
     1
102
RTVSPropertyOp31
 70
     1
102
RTVSPropertyOp32
 70
     1
  0
XRECORD
  5
34EF
102
{ACAD_REACTORS
330
34EE
102
}
330
34EE
100
AcDbXrecord
280
     1
102
RTVSPropertyOp0
 70
     0
102
RTVSPropertyOp1
 70
     0
102
RTVSPropertyOp2
 70
     0
102
RTVSPropertyOp3
 70
     0
102
RTVSPropertyOp4
 70
     0
102
RTVSPropertyOp5
 70
     0
102
RTVSPropertyOp6
 70
     0
102
RTVSPropertyOp7
 70
     0
102
RTVSPropertyOp8
 70
     0
102
RTVSPropertyOp9
 70
     0
102
RTVSPropertyOp10
 70
     0
102
RTVSPropertyOp11
 70
     0
102
RTVSPropertyOp12
 70
     0
102
RTVSPropertyOp13
 70
     0
102
RTVSPropertyOp14
 70
     2
102
RTVSPropertyOp15
 70
     0
102
RTVSPropertyOp16
 70
     0
102
RTVSPropertyOp17
 70
     0
102
RTVSPropertyOp18
 70
     0
102
RTVSPropertyOp19
 70
     0
102
RTVSPropertyOp20
 70
     0
102
RTVSPropertyOp21
 70
     0
102
RTVSPropertyOp22
 70
     0
102
RTVSPropertyOp23
 70
     0
102
RTVSPropertyOp24
 70
     0
102
RTVSPropertyOp25
 70
     0
102
RTVSPropertyOp26
 70
     0
102
RTVSPropertyOp27
 70
     0
102
RTVSPropertyOp28
 70
     0
102
RTVSPropertyOp29
 70
     0
102
RTVSPropertyOp30
 70
     0
102
RTVSPropertyOp31
 70
     0
102
RTVSPropertyOp32
 70
     0
  0
XRECORD
  5
34D4
102
{ACAD_REACTORS
330
34D3
102
}
330
34D3
100
AcDbXrecord
280
     1
102
RTVSPropertyOp0
 70
     1
102
RTVSPropertyOp1
 70
     1
102
RTVSPropertyOp2
 70
     1
102
RTVSPropertyOp3
 70
     1
102
RTVSPropertyOp4
 70
     1
102
RTVSPropertyOp5
 70
     1
102
RTVSPropertyOp6
 70
     1
102
RTVSPropertyOp7
 70
     1
102
RTVSPropertyOp8
 70
     1
102
RTVSPropertyOp9
 70
     1
102
RTVSPropertyOp10
 70
     1
102
RTVSPropertyOp11
 70
     1
102
RTVSPropertyOp12
 70
     1
102
RTVSPropertyOp13
 70
     1
102
RTVSPropertyOp14
 70
     1
102
RTVSPropertyOp15
 70
     1
102
RTVSPropertyOp16
 70
     1
102
RTVSPropertyOp17
 70
     1
102
RTVSPropertyOp18
 70
     1
102
RTVSPropertyOp19
 70
     1
102
RTVSPropertyOp20
 70
     1
102
RTVSPropertyOp21
 70
     1
102
RTVSPropertyOp22
 70
     1
102
RTVSPropertyOp23
 70
     1
102
RTVSPropertyOp24
 70
     1
102
RTVSPropertyOp25
 70
     1
102
RTVSPropertyOp26
 70
     1
102
RTVSPropertyOp27
 70
     1
102
RTVSPropertyOp28
 70
     1
102
RTVSPropertyOp29
 70
     1
102
RTVSPropertyOp30
 70
     1
102
RTVSPropertyOp31
 70
     1
102
RTVSPropertyOp32
 70
     1
  0
XRECORD
  5
34B8
102
{ACAD_REACTORS
330
34B7
102
}
330
34B7
100
AcDbXrecord
280
     1
102
RTVSPropertyOp0
 70
     1
102
RTVSPropertyOp1
 70
     1
102
RTVSPropertyOp2
 70
     1
102
RTVSPropertyOp3
 70
     1
102
RTVSPropertyOp4
 70
     1
102
RTVSPropertyOp5
 70
     1
102
RTVSPropertyOp6
 70
     1
102
RTVSPropertyOp7
 70
     1
102
RTVSPropertyOp8
 70
     1
102
RTVSPropertyOp9
 70
     1
102
RTVSPropertyOp10
 70
     1
102
RTVSPropertyOp11
 70
     1
102
RTVSPropertyOp12
 70
     1
102
RTVSPropertyOp13
 70
     1
102
RTVSPropertyOp14
 70
     1
102
RTVSPropertyOp15
 70
     1
102
RTVSPropertyOp16
 70
     1
102
RTVSPropertyOp17
 70
     1
102
RTVSPropertyOp18
 70
     1
102
RTVSPropertyOp19
 70
     1
102
RTVSPropertyOp20
 70
     1
102
RTVSPropertyOp21
 70
     1
102
RTVSPropertyOp22
 70
     1
102
RTVSPropertyOp23
 70
     1
102
RTVSPropertyOp24
 70
     1
102
RTVSPropertyOp25
 70
     1
102
RTVSPropertyOp26
 70
     1
102
RTVSPropertyOp27
 70
     1
102
RTVSPropertyOp28
 70
     1
102
RTVSPropertyOp29
 70
     1
102
RTVSPropertyOp30
 70
     1
102
RTVSPropertyOp31
 70
     1
102
RTVSPropertyOp32
 70
     1
  0
XRECORD
  5
34BA
102
{ACAD_REACTORS
330
34B9
102
}
330
34B9
100
AcDbXrecord
280
     1
102
RTVSPropertyOp0
 70
     1
102
RTVSPropertyOp1
 70
     1
102
RTVSPropertyOp2
 70
     1
102
RTVSPropertyOp3
 70
     1
102
RTVSPropertyOp4
 70
     1
102
RTVSPropertyOp5
 70
     1
102
RTVSPropertyOp6
 70
     1
102
RTVSPropertyOp7
 70
     1
102
RTVSPropertyOp8
 70
     1
102
RTVSPropertyOp9
 70
     1
102
RTVSPropertyOp10
 70
     1
102
RTVSPropertyOp11
 70
     1
102
RTVSPropertyOp12
 70
     1
102
RTVSPropertyOp13
 70
     1
102
RTVSPropertyOp14
 70
     1
102
RTVSPropertyOp15
 70
     1
102
RTVSPropertyOp16
 70
     1
102
RTVSPropertyOp17
 70
     1
102
RTVSPropertyOp18
 70
     1
102
RTVSPropertyOp19
 70
     1
102
RTVSPropertyOp20
 70
     1
102
RTVSPropertyOp21
 70
     1
102
RTVSPropertyOp22
 70
     1
102
RTVSPropertyOp23
 70
     1
102
RTVSPropertyOp24
 70
     1
102
RTVSPropertyOp25
 70
     1
102
RTVSPropertyOp26
 70
     1
102
RTVSPropertyOp27
 70
     1
102
RTVSPropertyOp28
 70
     1
102
RTVSPropertyOp29
 70
     1
102
RTVSPropertyOp30
 70
     1
102
RTVSPropertyOp31
 70
     1
102
RTVSPropertyOp32
 70
     1
  0
XRECORD
  5
34BC
102
{ACAD_REACTORS
330
34BB
102
}
330
34BB
100
AcDbXrecord
280
     1
102
RTVSPropertyOp0
 70
     1
102
RTVSPropertyOp1
 70
     1
102
RTVSPropertyOp2
 70
     1
102
RTVSPropertyOp3
 70
     1
102
RTVSPropertyOp4
 70
     1
102
RTVSPropertyOp5
 70
     1
102
RTVSPropertyOp6
 70
     1
102
RTVSPropertyOp7
 70
     1
102
RTVSPropertyOp8
 70
     1
102
RTVSPropertyOp9
 70
     1
102
RTVSPropertyOp10
 70
     1
102
RTVSPropertyOp11
 70
     1
102
RTVSPropertyOp12
 70
     1
102
RTVSPropertyOp13
 70
     1
102
RTVSPropertyOp14
 70
     1
102
RTVSPropertyOp15
 70
     1
102
RTVSPropertyOp16
 70
     1
102
RTVSPropertyOp17
 70
     1
102
RTVSPropertyOp18
 70
     1
102
RTVSPropertyOp19
 70
     1
102
RTVSPropertyOp20
 70
     1
102
RTVSPropertyOp21
 70
     1
102
RTVSPropertyOp22
 70
     1
102
RTVSPropertyOp23
 70
     1
102
RTVSPropertyOp24
 70
     1
102
RTVSPropertyOp25
 70
     1
102
RTVSPropertyOp26
 70
     1
102
RTVSPropertyOp27
 70
     1
102
RTVSPropertyOp28
 70
     1
102
RTVSPropertyOp29
 70
     1
102
RTVSPropertyOp30
 70
     1
102
RTVSPropertyOp31
 70
     1
102
RTVSPropertyOp32
 70
     1
  0
XRECORD
  5
34BE
102
{ACAD_REACTORS
330
34BD
102
}
330
34BD
100
AcDbXrecord
280
     1
102
RTVSPropertyOp0
 70
     1
102
RTVSPropertyOp1
 70
     1
102
RTVSPropertyOp2
 70
     1
102
RTVSPropertyOp3
 70
     1
102
RTVSPropertyOp4
 70
     1
102
RTVSPropertyOp5
 70
     1
102
RTVSPropertyOp6
 70
     1
102
RTVSPropertyOp7
 70
     1
102
RTVSPropertyOp8
 70
     1
102
RTVSPropertyOp9
 70
     1
102
RTVSPropertyOp10
 70
     1
102
RTVSPropertyOp11
 70
     1
102
RTVSPropertyOp12
 70
     1
102
RTVSPropertyOp13
 70
     1
102
RTVSPropertyOp14
 70
     1
102
RTVSPropertyOp15
 70
     1
102
RTVSPropertyOp16
 70
     1
102
RTVSPropertyOp17
 70
     1
102
RTVSPropertyOp18
 70
     1
102
RTVSPropertyOp19
 70
     1
102
RTVSPropertyOp20
 70
     1
102
RTVSPropertyOp21
 70
     1
102
RTVSPropertyOp22
 70
     1
102
RTVSPropertyOp23
 70
     1
102
RTVSPropertyOp24
 70
     1
102
RTVSPropertyOp25
 70
     1
102
RTVSPropertyOp26
 70
     1
102
RTVSPropertyOp27
 70
     1
102
RTVSPropertyOp28
 70
     1
102
RTVSPropertyOp29
 70
     1
102
RTVSPropertyOp30
 70
     1
102
RTVSPropertyOp31
 70
     1
102
RTVSPropertyOp32
 70
     1
  0
XRECORD
  5
34DF
102
{ACAD_REACTORS
330
34DE
102
}
330
34DE
100
AcDbXrecord
280
     1
102
RTVSPropertyOp0
 70
     1
102
RTVSPropertyOp1
 70
     1
102
RTVSPropertyOp2
 70
     1
102
RTVSPropertyOp3
 70
     1
102
RTVSPropertyOp4
 70
     1
102
RTVSPropertyOp5
 70
     1
102
RTVSPropertyOp6
 70
     1
102
RTVSPropertyOp7
 70
     1
102
RTVSPropertyOp8
 70
     1
102
RTVSPropertyOp9
 70
     1
102
RTVSPropertyOp10
 70
     1
102
RTVSPropertyOp11
 70
     1
102
RTVSPropertyOp12
 70
     1
102
RTVSPropertyOp13
 70
     1
102
RTVSPropertyOp14
 70
     1
102
RTVSPropertyOp15
 70
     1
102
RTVSPropertyOp16
 70
     1
102
RTVSPropertyOp17
 70
     1
102
RTVSPropertyOp18
 70
     1
102
RTVSPropertyOp19
 70
     1
102
RTVSPropertyOp20
 70
     1
102
RTVSPropertyOp21
 70
     1
102
RTVSPropertyOp22
 70
     1
102
RTVSPropertyOp23
 70
     1
102
RTVSPropertyOp24
 70
     1
102
RTVSPropertyOp25
 70
     1
102
RTVSPropertyOp26
 70
     1
102
RTVSPropertyOp27
 70
     1
102
RTVSPropertyOp28
 70
     1
102
RTVSPropertyOp29
 70
     1
102
RTVSPropertyOp30
 70
     1
102
RTVSPropertyOp31
 70
     1
102
RTVSPropertyOp32
 70
     1
  0
XRECORD
  5
34EB
102
{ACAD_REACTORS
330
34EA
102
}
330
34EA
100
AcDbXrecord
280
     1
102
RTVSPropertyOp0
 70
     0
102
RTVSPropertyOp1
 70
     0
102
RTVSPropertyOp2
 70
     0
102
RTVSPropertyOp3
 70
     0
102
RTVSPropertyOp4
 70
     0
102
RTVSPropertyOp5
 70
     0
102
RTVSPropertyOp6
 70
     0
102
RTVSPropertyOp7
 70
     0
102
RTVSPropertyOp8
 70
     0
102
RTVSPropertyOp9
 70
     0
102
RTVSPropertyOp10
 70
     0
102
RTVSPropertyOp11
 70
     0
102
RTVSPropertyOp12
 70
     0
102
RTVSPropertyOp13
 70
     0
102
RTVSPropertyOp14
 70
     2
102
RTVSPropertyOp15
 70
     0
102
RTVSPropertyOp16
 70
     0
102
RTVSPropertyOp17
 70
     0
102
RTVSPropertyOp18
 70
     0
102
RTVSPropertyOp19
 70
     0
102
RTVSPropertyOp20
 70
     0
102
RTVSPropertyOp21
 70
     0
102
RTVSPropertyOp22
 70
     0
102
RTVSPropertyOp23
 70
     0
102
RTVSPropertyOp24
 70
     0
102
RTVSPropertyOp25
 70
     0
102
RTVSPropertyOp26
 70
     0
102
RTVSPropertyOp27
 70
     0
102
RTVSPropertyOp28
 70
     0
102
RTVSPropertyOp29
 70
     0
102
RTVSPropertyOp30
 70
     0
102
RTVSPropertyOp31
 70
     0
102
RTVSPropertyOp32
 70
     0
  0
XRECORD
  5
34D2
102
{ACAD_REACTORS
330
34D1
102
}
330
34D1
100
AcDbXrecord
280
     1
102
RTVSPropertyOp0
 70
     1
102
RTVSPropertyOp1
 70
     1
102
RTVSPropertyOp2
 70
     1
102
RTVSPropertyOp3
 70
     1
102
RTVSPropertyOp4
 70
     1
102
RTVSPropertyOp5
 70
     1
102
RTVSPropertyOp6
 70
     1
102
RTVSPropertyOp7
 70
     1
102
RTVSPropertyOp8
 70
     1
102
RTVSPropertyOp9
 70
     1
102
RTVSPropertyOp10
 70
     1
102
RTVSPropertyOp11
 70
     1
102
RTVSPropertyOp12
 70
     1
102
RTVSPropertyOp13
 70
     1
102
RTVSPropertyOp14
 70
     1
102
RTVSPropertyOp15
 70
     1
102
RTVSPropertyOp16
 70
     1
102
RTVSPropertyOp17
 70
     1
102
RTVSPropertyOp18
 70
     1
102
RTVSPropertyOp19
 70
     1
102
RTVSPropertyOp20
 70
     1
102
RTVSPropertyOp21
 70
     1
102
RTVSPropertyOp22
 70
     1
102
RTVSPropertyOp23
 70
     1
102
RTVSPropertyOp24
 70
     1
102
RTVSPropertyOp25
 70
     1
102
RTVSPropertyOp26
 70
     1
102
RTVSPropertyOp27
 70
     1
102
RTVSPropertyOp28
 70
     1
102
RTVSPropertyOp29
 70
     1
102
RTVSPropertyOp30
 70
     1
102
RTVSPropertyOp31
 70
     1
102
RTVSPropertyOp32
 70
     1
  0
XRECORD
  5
34ED
102
{ACAD_REACTORS
330
34EC
102
}
330
34EC
100
AcDbXrecord
280
     1
102
RTVSPropertyOp0
 70
     0
102
RTVSPropertyOp1
 70
     0
102
RTVSPropertyOp2
 70
     0
102
RTVSPropertyOp3
 70
     0
102
RTVSPropertyOp4
 70
     0
102
RTVSPropertyOp5
 70
     0
102
RTVSPropertyOp6
 70
     0
102
RTVSPropertyOp7
 70
     0
102
RTVSPropertyOp8
 70
     0
102
RTVSPropertyOp9
 70
     0
102
RTVSPropertyOp10
 70
     0
102
RTVSPropertyOp11
 70
     0
102
RTVSPropertyOp12
 70
     0
102
RTVSPropertyOp13
 70
     0
102
RTVSPropertyOp14
 70
     2
102
RTVSPropertyOp15
 70
     0
102
RTVSPropertyOp16
 70
     0
102
RTVSPropertyOp17
 70
     0
102
RTVSPropertyOp18
 70
     0
102
RTVSPropertyOp19
 70
     0
102
RTVSPropertyOp20
 70
     0
102
RTVSPropertyOp21
 70
     0
102
RTVSPropertyOp22
 70
     0
102
RTVSPropertyOp23
 70
     0
102
RTVSPropertyOp24
 70
     0
102
RTVSPropertyOp25
 70
     0
102
RTVSPropertyOp26
 70
     0
102
RTVSPropertyOp27
 70
     0
102
RTVSPropertyOp28
 70
     0
102
RTVSPropertyOp29
 70
     0
102
RTVSPropertyOp30
 70
     0
102
RTVSPropertyOp31
 70
     0
102
RTVSPropertyOp32
 70
     0
  0
XRECORD
  5
34CA
102
{ACAD_REACTORS
330
34C9
102
}
330
34C9
100
AcDbXrecord
280
     1
102
RTVSPropertyOp0
 70
     1
102
RTVSPropertyOp1
 70
     1
102
RTVSPropertyOp2
 70
     1
102
RTVSPropertyOp3
 70
     1
102
RTVSPropertyOp4
 70
     1
102
RTVSPropertyOp5
 70
     1
102
RTVSPropertyOp6
 70
     1
102
RTVSPropertyOp7
 70
     1
102
RTVSPropertyOp8
 70
     1
102
RTVSPropertyOp9
 70
     1
102
RTVSPropertyOp10
 70
     1
102
RTVSPropertyOp11
 70
     1
102
RTVSPropertyOp12
 70
     1
102
RTVSPropertyOp13
 70
     1
102
RTVSPropertyOp14
 70
     1
102
RTVSPropertyOp15
 70
     1
102
RTVSPropertyOp16
 70
     1
102
RTVSPropertyOp17
 70
     1
102
RTVSPropertyOp18
 70
     1
102
RTVSPropertyOp19
 70
     1
102
RTVSPropertyOp20
 70
     1
102
RTVSPropertyOp21
 70
     1
102
RTVSPropertyOp22
 70
     1
102
RTVSPropertyOp23
 70
     1
102
RTVSPropertyOp24
 70
     1
102
RTVSPropertyOp25
 70
     1
102
RTVSPropertyOp26
 70
     1
102
RTVSPropertyOp27
 70
     1
102
RTVSPropertyOp28
 70
     1
102
RTVSPropertyOp29
 70
     1
102
RTVSPropertyOp30
 70
     1
102
RTVSPropertyOp31
 70
     1
102
RTVSPropertyOp32
 70
     1
  0
XRECORD
  5
34E9
102
{ACAD_REACTORS
330
34E8
102
}
330
34E8
100
AcDbXrecord
280
     1
102
RTVSPropertyOp0
 70
     1
102
RTVSPropertyOp1
 70
     1
102
RTVSPropertyOp2
 70
     1
102
RTVSPropertyOp3
 70
     1
102
RTVSPropertyOp4
 70
     1
102
RTVSPropertyOp5
 70
     1
102
RTVSPropertyOp6
 70
     1
102
RTVSPropertyOp7
 70
     1
102
RTVSPropertyOp8
 70
     1
102
RTVSPropertyOp9
 70
     1
102
RTVSPropertyOp10
 70
     1
102
RTVSPropertyOp11
 70
     1
102
RTVSPropertyOp12
 70
     1
102
RTVSPropertyOp13
 70
     1
102
RTVSPropertyOp14
 70
     1
102
RTVSPropertyOp15
 70
     1
102
RTVSPropertyOp16
 70
     1
102
RTVSPropertyOp17
 70
     1
102
RTVSPropertyOp18
 70
     1
102
RTVSPropertyOp19
 70
     1
102
RTVSPropertyOp20
 70
     1
102
RTVSPropertyOp21
 70
     1
102
RTVSPropertyOp22
 70
     1
102
RTVSPropertyOp23
 70
     1
102
RTVSPropertyOp24
 70
     1
102
RTVSPropertyOp25
 70
     1
102
RTVSPropertyOp26
 70
     1
102
RTVSPropertyOp27
 70
     1
102
RTVSPropertyOp28
 70
     1
102
RTVSPropertyOp29
 70
     1
102
RTVSPropertyOp30
 70
     1
102
RTVSPropertyOp31
 70
     1
102
RTVSPropertyOp32
 70
     1
  0
XRECORD
  5
34E7
102
{ACAD_REACTORS
330
34E6
102
}
330
34E6
100
AcDbXrecord
280
     1
102
RTVSPropertyOp0
 70
     1
102
RTVSPropertyOp1
 70
     1
102
RTVSPropertyOp2
 70
     1
102
RTVSPropertyOp3
 70
     1
102
RTVSPropertyOp4
 70
     1
102
RTVSPropertyOp5
 70
     1
102
RTVSPropertyOp6
 70
     1
102
RTVSPropertyOp7
 70
     1
102
RTVSPropertyOp8
 70
     1
102
RTVSPropertyOp9
 70
     1
102
RTVSPropertyOp10
 70
     1
102
RTVSPropertyOp11
 70
     1
102
RTVSPropertyOp12
 70
     1
102
RTVSPropertyOp13
 70
     1
102
RTVSPropertyOp14
 70
     1
102
RTVSPropertyOp15
 70
     1
102
RTVSPropertyOp16
 70
     1
102
RTVSPropertyOp17
 70
     1
102
RTVSPropertyOp18
 70
     1
102
RTVSPropertyOp19
 70
     1
102
RTVSPropertyOp20
 70
     1
102
RTVSPropertyOp21
 70
     1
102
RTVSPropertyOp22
 70
     1
102
RTVSPropertyOp23
 70
     1
102
RTVSPropertyOp24
 70
     1
102
RTVSPropertyOp25
 70
     1
102
RTVSPropertyOp26
 70
     1
102
RTVSPropertyOp27
 70
     1
102
RTVSPropertyOp28
 70
     1
102
RTVSPropertyOp29
 70
     1
102
RTVSPropertyOp30
 70
     1
102
RTVSPropertyOp31
 70
     1
102
RTVSPropertyOp32
 70
     1
  0
XRECORD
  5
34E1
102
{ACAD_REACTORS
330
34E0
102
}
330
34E0
100
AcDbXrecord
280
     1
102
RTVSPropertyOp0
 70
     1
102
RTVSPropertyOp1
 70
     1
102
RTVSPropertyOp2
 70
     1
102
RTVSPropertyOp3
 70
     1
102
RTVSPropertyOp4
 70
     1
102
RTVSPropertyOp5
 70
     1
102
RTVSPropertyOp6
 70
     1
102
RTVSPropertyOp7
 70
     1
102
RTVSPropertyOp8
 70
     1
102
RTVSPropertyOp9
 70
     1
102
RTVSPropertyOp10
 70
     1
102
RTVSPropertyOp11
 70
     1
102
RTVSPropertyOp12
 70
     1
102
RTVSPropertyOp13
 70
     1
102
RTVSPropertyOp14
 70
     1
102
RTVSPropertyOp15
 70
     1
102
RTVSPropertyOp16
 70
     1
102
RTVSPropertyOp17
 70
     1
102
RTVSPropertyOp18
 70
     1
102
RTVSPropertyOp19
 70
     1
102
RTVSPropertyOp20
 70
     1
102
RTVSPropertyOp21
 70
     1
102
RTVSPropertyOp22
 70
     1
102
RTVSPropertyOp23
 70
     1
102
RTVSPropertyOp24
 70
     1
102
RTVSPropertyOp25
 70
     1
102
RTVSPropertyOp26
 70
     1
102
RTVSPropertyOp27
 70
     1
102
RTVSPropertyOp28
 70
     1
102
RTVSPropertyOp29
 70
     1
102
RTVSPropertyOp30
 70
     1
102
RTVSPropertyOp31
 70
     1
102
RTVSPropertyOp32
 70
     1
  0
XRECORD
  5
34E3
102
{ACAD_REACTORS
330
34E2
102
}
330
34E2
100
AcDbXrecord
280
     1
102
RTVSPropertyOp0
 70
     1
102
RTVSPropertyOp1
 70
     1
102
RTVSPropertyOp2
 70
     1
102
RTVSPropertyOp3
 70
     1
102
RTVSPropertyOp4
 70
     1
102
RTVSPropertyOp5
 70
     1
102
RTVSPropertyOp6
 70
     1
102
RTVSPropertyOp7
 70
     1
102
RTVSPropertyOp8
 70
     1
102
RTVSPropertyOp9
 70
     1
102
RTVSPropertyOp10
 70
     1
102
RTVSPropertyOp11
 70
     1
102
RTVSPropertyOp12
 70
     1
102
RTVSPropertyOp13
 70
     1
102
RTVSPropertyOp14
 70
     1
102
RTVSPropertyOp15
 70
     1
102
RTVSPropertyOp16
 70
     1
102
RTVSPropertyOp17
 70
     1
102
RTVSPropertyOp18
 70
     1
102
RTVSPropertyOp19
 70
     1
102
RTVSPropertyOp20
 70
     1
102
RTVSPropertyOp21
 70
     1
102
RTVSPropertyOp22
 70
     1
102
RTVSPropertyOp23
 70
     1
102
RTVSPropertyOp24
 70
     1
102
RTVSPropertyOp25
 70
     1
102
RTVSPropertyOp26
 70
     1
102
RTVSPropertyOp27
 70
     1
102
RTVSPropertyOp28
 70
     1
102
RTVSPropertyOp29
 70
     1
102
RTVSPropertyOp30
 70
     1
102
RTVSPropertyOp31
 70
     1
102
RTVSPropertyOp32
 70
     1
  0
XRECORD
  5
34D0
102
{ACAD_REACTORS
330
34CF
102
}
330
34CF
100
AcDbXrecord
280
     1
102
RTVSPropertyOp0
 70
     1
102
RTVSPropertyOp1
 70
     1
102
RTVSPropertyOp2
 70
     1
102
RTVSPropertyOp3
 70
     1
102
RTVSPropertyOp4
 70
     1
102
RTVSPropertyOp5
 70
     1
102
RTVSPropertyOp6
 70
     1
102
RTVSPropertyOp7
 70
     1
102
RTVSPropertyOp8
 70
     1
102
RTVSPropertyOp9
 70
     1
102
RTVSPropertyOp10
 70
     1
102
RTVSPropertyOp11
 70
     1
102
RTVSPropertyOp12
 70
     1
102
RTVSPropertyOp13
 70
     1
102
RTVSPropertyOp14
 70
     1
102
RTVSPropertyOp15
 70
     1
102
RTVSPropertyOp16
 70
     1
102
RTVSPropertyOp17
 70
     1
102
RTVSPropertyOp18
 70
     1
102
RTVSPropertyOp19
 70
     1
102
RTVSPropertyOp20
 70
     1
102
RTVSPropertyOp21
 70
     1
102
RTVSPropertyOp22
 70
     1
102
RTVSPropertyOp23
 70
     1
102
RTVSPropertyOp24
 70
     1
102
RTVSPropertyOp25
 70
     1
102
RTVSPropertyOp26
 70
     1
102
RTVSPropertyOp27
 70
     1
102
RTVSPropertyOp28
 70
     1
102
RTVSPropertyOp29
 70
     1
102
RTVSPropertyOp30
 70
     1
102
RTVSPropertyOp31
 70
     1
102
RTVSPropertyOp32
 70
     1
  0
XRECORD
  5
34DD
102
{ACAD_REACTORS
330
34DC
102
}
330
34DC
100
AcDbXrecord
280
     1
102
RTVSPropertyOp0
 70
     1
102
RTVSPropertyOp1
 70
     1
102
RTVSPropertyOp2
 70
     1
102
RTVSPropertyOp3
 70
     1
102
RTVSPropertyOp4
 70
     1
102
RTVSPropertyOp5
 70
     1
102
RTVSPropertyOp6
 70
     1
102
RTVSPropertyOp7
 70
     1
102
RTVSPropertyOp8
 70
     1
102
RTVSPropertyOp9
 70
     1
102
RTVSPropertyOp10
 70
     1
102
RTVSPropertyOp11
 70
     1
102
RTVSPropertyOp12
 70
     1
102
RTVSPropertyOp13
 70
     1
102
RTVSPropertyOp14
 70
     1
102
RTVSPropertyOp15
 70
     1
102
RTVSPropertyOp16
 70
     1
102
RTVSPropertyOp17
 70
     1
102
RTVSPropertyOp18
 70
     1
102
RTVSPropertyOp19
 70
     1
102
RTVSPropertyOp20
 70
     1
102
RTVSPropertyOp21
 70
     1
102
RTVSPropertyOp22
 70
     1
102
RTVSPropertyOp23
 70
     1
102
RTVSPropertyOp24
 70
     1
102
RTVSPropertyOp25
 70
     1
102
RTVSPropertyOp26
 70
     1
102
RTVSPropertyOp27
 70
     1
102
RTVSPropertyOp28
 70
     1
102
RTVSPropertyOp29
 70
     1
102
RTVSPropertyOp30
 70
     1
102
RTVSPropertyOp31
 70
     1
102
RTVSPropertyOp32
 70
     1
  0
XRECORD
  5
34E5
102
{ACAD_REACTORS
330
34E4
102
}
330
34E4
100
AcDbXrecord
280
     1
102
RTVSPropertyOp0
 70
     1
102
RTVSPropertyOp1
 70
     1
102
RTVSPropertyOp2
 70
     1
102
RTVSPropertyOp3
 70
     1
102
RTVSPropertyOp4
 70
     1
102
RTVSPropertyOp5
 70
     1
102
RTVSPropertyOp6
 70
     1
102
RTVSPropertyOp7
 70
     1
102
RTVSPropertyOp8
 70
     1
102
RTVSPropertyOp9
 70
     1
102
RTVSPropertyOp10
 70
     1
102
RTVSPropertyOp11
 70
     1
102
RTVSPropertyOp12
 70
     1
102
RTVSPropertyOp13
 70
     1
102
RTVSPropertyOp14
 70
     1
102
RTVSPropertyOp15
 70
     1
102
RTVSPropertyOp16
 70
     1
102
RTVSPropertyOp17
 70
     1
102
RTVSPropertyOp18
 70
     1
102
RTVSPropertyOp19
 70
     1
102
RTVSPropertyOp20
 70
     1
102
RTVSPropertyOp21
 70
     1
102
RTVSPropertyOp22
 70
     1
102
RTVSPropertyOp23
 70
     1
102
RTVSPropertyOp24
 70
     1
102
RTVSPropertyOp25
 70
     1
102
RTVSPropertyOp26
 70
     1
102
RTVSPropertyOp27
 70
     1
102
RTVSPropertyOp28
 70
     1
102
RTVSPropertyOp29
 70
     1
102
RTVSPropertyOp30
 70
     1
102
RTVSPropertyOp31
 70
     1
102
RTVSPropertyOp32
 70
     1
  0
ENDSEC
  0
EOF
