  0
SECTION
  2
HEADER
  9
$ACADVER
  1
AC1015
  9
$ACADMAINTVER
 70
    20
  9
$DWGCODEPAGE
  3
ANSI_932
  9
$INSBASE
 10
0.0
 20
0.0
 30
0.0
  9
$EXTMIN
 10
295.8187830413907
 20
-107.3543355730975
 30
-0.0015258207003583
  9
$EXTMAX
 10
487.8315058526835
 20
173.7869538821837
 30
0.0000000349246037
  9
$LIMMIN
 10
307.823646
 20
-107.345757
  9
$LIMMAX
 10
487.825646
 20
173.778374
  9
$ORTHOMODE
 70
     1
  9
$REGENMODE
 70
     1
  9
$FILLMODE
 70
     1
  9
$QTEXTMODE
 70
     0
  9
$MIRRTEXT
 70
     0
  9
$LTSCALE
 40
4.685369
  9
$ATTMODE
 70
     1
  9
$TEXTSIZE
 40
3.2
  9
$TRACEWID
 40
0.05
  9
$TEXTSTYLE
  7
高3.2
  9
$CLAYER
  8
0
  9
$CELTYPE
  6
ByLayer
  9
$CECOLOR
 62
   256
  9
$CELTSCALE
 40
1.0
  9
$DISPSILH
 70
     0
  9
$DIMSCALE
 40
1.0
  9
$DIMASZ
 40
2.5
  9
$DIMEXO
 40
0.25
  9
$DIMDLI
 40
0.2
  9
$DIMRND
 40
0.0
  9
$DIMDLE
 40
0.0
  9
$DIMEXE
 40
1.25
  9
$DIMTP
 40
0.0
  9
$DIMTM
 40
0.0
  9
$DIMTXT
 40
3.0
  9
$DIMCEN
 40
0.0
  9
$DIMTSZ
 40
0.0
  9
$DIMTOL
 70
     0
  9
$DIMLIM
 70
     0
  9
$DIMTIH
 70
     0
  9
$DIMTOH
 70
     0
  9
$DIMSE1
 70
     0
  9
$DIMSE2
 70
     0
  9
$DIMTAD
 70
     3
  9
$DIMZIN
 70
     8
  9
$DIMBLK
  1
Open30
  9
$DIMASO
 70
     1
  9
$DIMSHO
 70
     1
  9
$DIMPOST
  1

  9
$DIMAPOST
  1

  9
$DIMALT
 70
     0
  9
$DIMALTD
 70
     3
  9
$DIMALTF
 40
0.03937007874016
  9
$DIMLFAC
 40
1.0
  9
$DIMTOFL
 70
     1
  9
$DIMTVP
 40
0.0
  9
$DIMTIX
 70
     0
  9
$DIMSOXD
 70
     0
  9
$DIMSAH
 70
     0
  9
$DIMBLK1
  1

  9
$DIMBLK2
  1

  9
$DIMSTYLE
  2
1：1
  9
$DIMCLRD
 70
     0
  9
$DIMCLRE
 70
     0
  9
$DIMCLRT
 70
     4
  9
$DIMTFAC
 40
1.0
  9
$DIMGAP
 40
0.625
  9
$DIMJUST
 70
     0
  9
$DIMSD1
 70
     0
  9
$DIMSD2
 70
     0
  9
$DIMTOLJ
 70
     0
  9
$DIMTZIN
 70
     8
  9
$DIMALTZ
 70
     0
  9
$DIMALTTZ
 70
     0
  9
$DIMUPT
 70
     1
  9
$DIMDEC
 70
     2
  9
$DIMTDEC
 70
     2
  9
$DIMALTU
 70
     2
  9
$DIMALTTD
 70
     3
  9
$DIMTXSTY
  7
STANDARD
  9
$DIMAUNIT
 70
     0
  9
$DIMADEC
 70
     1
  9
$DIMALTRND
 40
0.0
  9
$DIMAZIN
 70
     2
  9
$DIMDSEP
 70
    46
  9
$DIMATFIT
 70
     0
  9
$DIMFRAC
 70
     0
  9
$DIMLDRBLK
  1
Open30
  9
$DIMLUNIT
 70
     2
  9
$DIMLWD
 70
    -2
  9
$DIMLWE
 70
    -2
  9
$DIMTMOVE
 70
     0
  9
$LUNITS
 70
     2
  9
$LUPREC
 70
     4
  9
$SKETCHINC
 40
0.1
  9
$FILLETRAD
 40
2.0
  9
$AUNITS
 70
     0
  9
$AUPREC
 70
     0
  9
$MENU
  1
.
  9
$ELEVATION
 40
0.0
  9
$PELEVATION
 40
0.0
  9
$THICKNESS
 40
0.0
  9
$LIMCHECK
 70
     0
  9
$CHAMFERA
 40
0.0
  9
$CHAMFERB
 40
0.0
  9
$CHAMFERC
 40
0.0
  9
$CHAMFERD
 40
0.0
  9
$SKPOLY
 70
     0
  9
$TDCREATE
 40
2455467.830795348
  9
$TDUCREATE
 40
2455467.455795347
  9
$TDUPDATE
 40
2455966.700302454
  9
$TDUUPDATE
 40
2455966.325302454
  9
$TDINDWG
 40
1.1734711574
  9
$TDUSRTIMER
 40
1.1734704398
  9
$USRTIMER
 70
     1
  9
$ANGBASE
 50
0.0
  9
$ANGDIR
 70
     0
  9
$PDMODE
 70
     0
  9
$PDSIZE
 40
0.0
  9
$PLINEWID
 40
0.0
  9
$SPLFRAME
 70
     0
  9
$SPLINETYPE
 70
     6
  9
$SPLINESEGS
 70
     8
  9
$HANDSEED
  5
1F3F
  9
$SURFTAB1
 70
     6
  9
$SURFTAB2
 70
     6
  9
$SURFTYPE
 70
     6
  9
$SURFU
 70
     6
  9
$SURFV
 70
     6
  9
$UCSBASE
  2

  9
$UCSNAME
  2

  9
$UCSORG
 10
0.0
 20
0.0
 30
0.0
  9
$UCSXDIR
 10
1.0
 20
0.0
 30
0.0
  9
$UCSYDIR
 10
0.0
 20
1.0
 30
0.0
  9
$UCSORTHOREF
  2

  9
$UCSORTHOVIEW
 70
     0
  9
$UCSORGTOP
 10
0.0
 20
0.0
 30
0.0
  9
$UCSORGBOTTOM
 10
0.0
 20
0.0
 30
0.0
  9
$UCSORGLEFT
 10
0.0
 20
0.0
 30
0.0
  9
$UCSORGRIGHT
 10
0.0
 20
0.0
 30
0.0
  9
$UCSORGFRONT
 10
0.0
 20
0.0
 30
0.0
  9
$UCSORGBACK
 10
0.0
 20
0.0
 30
0.0
  9
$PUCSBASE
  2

  9
$PUCSNAME
  2

  9
$PUCSORG
 10
0.0
 20
0.0
 30
0.0
  9
$PUCSXDIR
 10
1.0
 20
0.0
 30
0.0
  9
$PUCSYDIR
 10
0.0
 20
1.0
 30
0.0
  9
$PUCSORTHOREF
  2

  9
$PUCSORTHOVIEW
 70
     0
  9
$PUCSORGTOP
 10
0.0
 20
0.0
 30
0.0
  9
$PUCSORGBOTTOM
 10
0.0
 20
0.0
 30
0.0
  9
$PUCSORGLEFT
 10
0.0
 20
0.0
 30
0.0
  9
$PUCSORGRIGHT
 10
0.0
 20
0.0
 30
0.0
  9
$PUCSORGFRONT
 10
0.0
 20
0.0
 30
0.0
  9
$PUCSORGBACK
 10
0.0
 20
0.0
 30
0.0
  9
$USERI1
 70
     0
  9
$USERI2
 70
     0
  9
$USERI3
 70
     0
  9
$USERI4
 70
     0
  9
$USERI5
 70
     0
  9
$USERR1
 40
0.0
  9
$USERR2
 40
0.0
  9
$USERR3
 40
0.0
  9
$USERR4
 40
0.0
  9
$USERR5
 40
0.0
  9
$WORLDVIEW
 70
     1
  9
$SHADEDGE
 70
     3
  9
$SHADEDIF
 70
    70
  9
$TILEMODE
 70
     1
  9
$MAXACTVP
 70
    64
  9
$PINSBASE
 10
0.0
 20
0.0
 30
0.0
  9
$PLIMCHECK
 70
     0
  9
$PEXTMIN
 10
1.000000000000000E+20
 20
1.000000000000000E+20
 30
1.000000000000000E+20
  9
$PEXTMAX
 10
-1.000000000000000E+20
 20
-1.000000000000000E+20
 30
-1.000000000000000E+20
  9
$PLIMMIN
 10
0.0
 20
0.0
  9
$PLIMMAX
 10
12.0
 20
9.0
  9
$UNITMODE
 70
     0
  9
$VISRETAIN
 70
     1
  9
$PLINEGEN
 70
     0
  9
$PSLTSCALE
 70
     1
  9
$TREEDEPTH
 70
  3020
  9
$CMLSTYLE
  2
Standard
  9
$CMLJUST
 70
     0
  9
$CMLSCALE
 40
1.0
  9
$PROXYGRAPHICS
 70
     1
  9
$MEASUREMENT
 70
     0
  9
$CELWEIGHT
370
    -1
  9
$ENDCAPS
280
     0
  9
$JOINSTYLE
280
     0
  9
$LWDISPLAY
290
     0
  9
$INSUNITS
 70
     0
  9
$HYPERLINKBASE
  1

  9
$STYLESHEET
  1
n-plot.ctb
  9
$XEDIT
290
     1
  9
$CEPSNTYPE
380
     0
  9
$PSTYLEMODE
290
     1
  9
$FINGERPRINTGUID
  2
{53151568-5408-489F-93F2-A1BDC7ED2DB1}
  9
$VERSIONGUID
  2
{01B8EA5E-2582-46C1-B1B3-CE71EF3DE64A}
  9
$EXTNAMES
290
     1
  9
$PSVPSCALE
 40
0.0
  9
$OLESTARTUP
290
     0
  0
ENDSEC
  0
SECTION
  2
CLASSES
  0
CLASS
  1
ACDBDICTIONARYWDFLT
  2
AcDbDictionaryWithDefault
  3
ObjectDBX Classes
 90
        0
280
     0
281
     0
  0
CLASS
  1
MATERIAL
  2
AcDbMaterial
  3
ObjectDBX Classes
 90
     1153
280
     0
281
     0
  0
CLASS
  1
VISUALSTYLE
  2
AcDbVisualStyle
  3
ObjectDBX Classes
 90
     4095
280
     0
281
     0
  0
CLASS
  1
TABLESTYLE
  2
AcDbTableStyle
  3
ObjectDBX Classes
 90
     4095
280
     0
281
     0
  0
CLASS
  1
DICTIONARYVAR
  2
AcDbDictionaryVar
  3
ObjectDBX Classes
 90
        0
280
     0
281
     0
  0
CLASS
  1
SORTENTSTABLE
  2
AcDbSortentsTable
  3
ObjectDBX Classes
 90
        0
280
     0
281
     0
  0
CLASS
  1
ACDBPLACEHOLDER
  2
AcDbPlaceHolder
  3
ObjectDBX Classes
 90
        0
280
     0
281
     0
  0
CLASS
  1
LAYOUT
  2
AcDbLayout
  3
ObjectDBX Classes
 90
        0
280
     0
281
     0
  0
CLASS
  1
SCALE
  2
AcDbScale
  3
ObjectDBX Classes
 90
     1153
280
     0
281
     0
  0
CLASS
  1
MLEADERSTYLE
  2
AcDbMLeaderStyle
  3
ACDB_MLEADERSTYLE_CLASS
 90
     4095
280
     0
281
     0
  0
CLASS
  1
CELLSTYLEMAP
  2
AcDbCellStyleMap
  3
ObjectDBX Classes
 90
     1152
280
     0
281
     0
  0
ENDSEC
  0
SECTION
  2
TABLES
  0
TABLE
  2
VPORT
  5
8
330
0
100
AcDbSymbolTable
 70
     1
  0
VPORT
  5
56
330
8
100
AcDbSymbolTableRecord
100
AcDbViewportTableRecord
  2
*Active
 70
     0
 10
0.0
 20
0.0
 11
1.0
 21
1.0
 12
363.2662884664322
 22
-28.35150277399652
 13
0.0
 23
0.0
 14
1.0
 24
1.0
 15
0.0
 25
0.0
 16
0.0
 26
0.0
 36
1.0
 17
0.0
 27
0.0
 37
0.0
 40
593.0069845800696
 41
1.763983628922237
 42
50.0
 43
0.0
 44
0.0
 50
0.0
 51
0.0
 71
     0
 72
   100
 73
     1
 74
     1
 75
     0
 76
     0
 77
     0
 78
     0
281
     0
 65
     1
110
0.0
120
0.0
130
0.0
111
1.0
121
0.0
131
0.0
112
0.0
122
1.0
132
0.0
 79
     0
146
0.0
  0
ENDTAB
  0
TABLE
  2
LTYPE
  5
5
330
0
100
AcDbSymbolTable
 70
    27
  0
LTYPE
  5
28
330
5
100
AcDbSymbolTableRecord
100
AcDbLinetypeTableRecord
  2
ByBlock
 70
     0
  3

 72
    65
 73
     0
 40
0.0
  0
LTYPE
  5
29
330
5
100
AcDbSymbolTableRecord
100
AcDbLinetypeTableRecord
  2
ByLayer
 70
     0
  3

 72
    65
 73
     0
 40
0.0
  0
LTYPE
  5
2A
330
5
100
AcDbSymbolTableRecord
100
AcDbLinetypeTableRecord
  2
CONTINUOUS
 70
     0
  3
Solid-line
 72
    65
 73
     0
 40
0.0
  0
LTYPE
  5
3D
330
5
100
AcDbSymbolTableRecord
100
AcDbLinetypeTableRecord
  2
CENTER
 70
     0
  3
CENTER
 72
    65
 73
     4
 40
2.0
 49
1.25
 74
     0
 49
-0.25
 74
     0
 49
0.25
 74
     0
 49
-0.25
 74
     0
  0
LTYPE
  5
3E
330
5
100
AcDbSymbolTableRecord
100
AcDbLinetypeTableRecord
  2
CENTER2
 70
     0
  3
CENTER2
 72
    65
 73
     4
 40
1.125
 49
0.75
 74
     0
 49
-0.125
 74
     0
 49
0.125
 74
     0
 49
-0.125
 74
     0
  0
LTYPE
  5
3F
330
5
100
AcDbSymbolTableRecord
100
AcDbLinetypeTableRecord
  2
CENTERX2
 70
     0
  3
CENTERX2
 72
    65
 73
     4
 40
4.0
 49
2.5
 74
     0
 49
-0.5
 74
     0
 49
0.5
 74
     0
 49
-0.5
 74
     0
  0
LTYPE
  5
4C
330
5
100
AcDbSymbolTableRecord
100
AcDbLinetypeTableRecord
  2
HIDDEN
 70
     0
  3
HIDDEN
 72
    65
 73
     2
 40
0.375
 49
0.25
 74
     0
 49
-0.125
 74
     0
  0
LTYPE
  5
4D
330
5
100
AcDbSymbolTableRecord
100
AcDbLinetypeTableRecord
  2
HIDDEN2
 70
     0
  3
HIDDEN2
 72
    65
 73
     2
 40
0.1875
 49
0.125
 74
     0
 49
-0.0625
 74
     0
  0
LTYPE
  5
4E
330
5
100
AcDbSymbolTableRecord
100
AcDbLinetypeTableRecord
  2
HIDDENX2
 70
     0
  3
HIDDENX2
 72
    65
 73
     2
 40
0.75
 49
0.5
 74
     0
 49
-0.25
 74
     0
  0
LTYPE
  5
4F
330
5
100
AcDbSymbolTableRecord
100
AcDbLinetypeTableRecord
  2
PHANTOM
 70
     0
  3
PHANTOM
 72
    65
 73
     6
 40
2.5
 49
1.25
 74
     0
 49
-0.25
 74
     0
 49
0.25
 74
     0
 49
-0.25
 74
     0
 49
0.25
 74
     0
 49
-0.25
 74
     0
  0
LTYPE
  5
50
330
5
100
AcDbSymbolTableRecord
100
AcDbLinetypeTableRecord
  2
PHANTOM2
 70
     0
  3
PHANTOM2
 72
    65
 73
     6
 40
1.25
 49
0.625
 74
     0
 49
-0.125
 74
     0
 49
0.125
 74
     0
 49
-0.125
 74
     0
 49
0.125
 74
     0
 49
-0.125
 74
     0
  0
LTYPE
  5
51
330
5
100
AcDbSymbolTableRecord
100
AcDbLinetypeTableRecord
  2
PHANTOMX2
 70
     0
  3
PHANTOMX2
 72
    65
 73
     6
 40
5.0
 49
2.5
 74
     0
 49
-0.5
 74
     0
 49
0.5
 74
     0
 49
-0.5
 74
     0
 49
0.5
 74
     0
 49
-0.5
 74
     0
  0
ENDTAB
  0
TABLE
  2
LAYER
  5
2
102
{ACAD_XDICTIONARY
360
3C6
102
}
330
0
100
AcDbSymbolTable
 70
     4
  0
LAYER
  5
25
102
{ACAD_XDICTIONARY
360
19E7
102
}
330
2
100
AcDbSymbolTableRecord
100
AcDbLayerTableRecord
  2
0
 70
     0
 62
     7
  6
CONTINUOUS
370
    -3
390
F
  0
LAYER
  5
52
102
{ACAD_XDICTIONARY
360
19E9
102
}
330
2
100
AcDbSymbolTableRecord
100
AcDbLayerTableRecord
  2
001
 70
     0
 62
     7
  6
CONTINUOUS
370
    -3
390
F
  0
LAYER
  5
3B8
330
2
100
AcDbSymbolTableRecord
100
AcDbLayerTableRecord
  2
Defpoints
 70
     0
 62
     7
  6
CONTINUOUS
290
     0
370
    -3
390
F
  0
LAYER
  5
1164
102
{ACAD_XDICTIONARY
360
19EB
102
}
330
2
100
AcDbSymbolTableRecord
100
AcDbLayerTableRecord
  2
waku
 70
     0
 62
     3
  6
CONTINUOUS
370
    -3
390
F
  0
ENDTAB
  0
TABLE
  2
STYLE
  5
3
330
0
100
AcDbSymbolTable
 70
     8
  0
STYLE
  5
26
330
3
100
AcDbSymbolTableRecord
100
AcDbTextStyleTableRecord
  2
STANDARD
 70
     0
 40
0.0
 41
1.0
 50
0.0
 71
     0
 42
0.2
  3
TXT
  4
BIGFONT
  0
STYLE
  5
3B9
330
3
100
AcDbSymbolTableRecord
100
AcDbTextStyleTableRecord
  2
高3.2
 70
     0
 40
3.2
 41
1.0
 50
0.0
 71
     0
 42
3.2
  3
txt.shx
  4
bigfont.shx
  0
STYLE
  5
3BA
330
3
100
AcDbSymbolTableRecord
100
AcDbTextStyleTableRecord
  2
高6.3
 70
     0
 40
6.299999999999998
 41
1.0
 50
0.0
 71
     0
 42
6.299999999999998
  3
txt.shx
  4
bigfont.shx
  0
STYLE
  5
3BB
330
3
100
AcDbSymbolTableRecord
100
AcDbTextStyleTableRecord
  2
高2.5
 70
     0
 40
2.5
 41
1.0
 50
0.0
 71
     0
 42
0.2
  3
txt.shx
  4
bigfont.shx
  0
STYLE
  5
3BC
330
3
100
AcDbSymbolTableRecord
100
AcDbTextStyleTableRecord
  2
高4.5
 70
     0
 40
4.5
 41
1.0
 50
0.0
 71
     0
 42
6.299999999999998
  3
txt.shx
  4
bigfont.shx
  0
STYLE
  5
1165
330
3
100
AcDbSymbolTableRecord
100
AcDbTextStyleTableRecord
  2
高2
 70
     0
 40
2.0
 41
1.0
 50
0.0
 71
     0
 42
6.299999999999998
  3
txt.shx
  4
bigfont.shx
  0
ENDTAB
  0
TABLE
  2
VIEW
  5
6
330
0
100
AcDbSymbolTable
 70
     0
  0
ENDTAB
  0
TABLE
  2
UCS
  5
7
330
0
100
AcDbSymbolTable
 70
     0
  0
ENDTAB
  0
TABLE
  2
APPID
  5
9
330
0
100
AcDbSymbolTable
 70
    10
  0
APPID
  5
27
330
9
100
AcDbSymbolTableRecord
100
AcDbRegAppTableRecord
  2
ACAD
 70
     0
  0
APPID
  5
3C5
330
9
100
AcDbSymbolTableRecord
100
AcDbRegAppTableRecord
  2
ACAD_DSTYLE_DIMJOGGED_JOGANGLE_SYMBOL
 70
     0
  0
APPID
  5
4BD
330
9
100
AcDbSymbolTableRecord
100
AcDbRegAppTableRecord
  2
ACAD_EXEMPT_FROM_CAD_STANDARDS
 70
     0
  0
APPID
  5
1456
330
9
100
AcDbSymbolTableRecord
100
AcDbRegAppTableRecord
  2
ACAD_PSEXT
 70
     0
  0
APPID
  5
1512
330
9
100
AcDbSymbolTableRecord
100
AcDbRegAppTableRecord
  2
ACAD_DSTYLE_DIMARC_LENGTH_SYMBOL
 70
     0
  0
APPID
  5
1513
330
9
100
AcDbSymbolTableRecord
100
AcDbRegAppTableRecord
  2
ACAD_DSTYLE_DIMEXT_LENGTH
 70
     0
  0
APPID
  5
1A31
330
9
100
AcDbSymbolTableRecord
100
AcDbRegAppTableRecord
  2
ACAD_MLEADERVER
 70
     0
  0
APPID
  5
1D2A
330
9
100
AcDbSymbolTableRecord
100
AcDbRegAppTableRecord
  2
ACAD_DSTYLE_DIMJAG
 70
     0
  0
APPID
  5
1D2B
330
9
100
AcDbSymbolTableRecord
100
AcDbRegAppTableRecord
  2
ACAD_DSTYLE_DIMBREAK
 70
     0
  0
APPID
  5
1D2C
330
9
100
AcDbSymbolTableRecord
100
AcDbRegAppTableRecord
  2
ACAD_DSTYLE_DIMTALN
 70
     0
  0
ENDTAB
  0
TABLE
  2
DIMSTYLE
  5
A
330
0
100
AcDbSymbolTable
 70
    13
100
AcDbDimStyleTable
 71
     3
340
3BD
340
3C1
340
344
  0
DIMSTYLE
105
344
330
A
100
AcDbSymbolTableRecord
100
AcDbDimStyleTableRecord
  2
Standard
 70
     0
340
26
  0
DIMSTYLE
105
3BD
330
A
100
AcDbSymbolTableRecord
100
AcDbDimStyleTableRecord
  2
1：1
 70
     0
 41
2.5
 42
0.25
 43
0.2
 44
1.25
 73
     0
 74
     0
 77
     3
 78
     8
 79
     2
140
3.0
141
0.0
143
0.03937007874016
147
0.625
171
     3
172
     1
178
     4
179
     1
271
     2
272
     2
274
     3
283
     0
284
     8
288
     1
289
     0
340
26
341
348
342
348
1001
ACAD_DSTYLE_DIMARC_LENGTH_SYMBOL
1070
   379
1070
     2
1001
ACAD_DSTYLE_DIMEXT_LENGTH
1070
   378
1040
1.25
1001
ACAD_DSTYLE_DIMJOGGED_JOGANGLE_SYMBOL
1070
   384
1040
1.570796326794896
  0
DIMSTYLE
105
3BE
330
A
100
AcDbSymbolTableRecord
100
AcDbDimStyleTableRecord
  2
2：1
 70
     0
 41
2.5
 42
0.25
 43
0.2
 44
1.25
 73
     0
 74
     0
 77
     3
 78
     8
 79
     2
140
3.0
141
0.0
143
0.03937007874016
144
0.5
147
0.625
171
     3
172
     1
178
     4
179
     1
271
     2
272
     2
274
     3
283
     0
284
     8
288
     1
289
     0
340
26
341
348
342
348
1001
ACAD_DSTYLE_DIMARC_LENGTH_SYMBOL
1070
   379
1070
     2
1001
ACAD_DSTYLE_DIMEXT_LENGTH
1070
   378
1040
1.25
1001
ACAD_DSTYLE_DIMJOGGED_JOGANGLE_SYMBOL
1070
   384
1040
1.570796326794896
  0
DIMSTYLE
105
3BF
330
A
100
AcDbSymbolTableRecord
100
AcDbDimStyleTableRecord
  2
5：1
 70
     0
 41
2.5
 42
0.25
 43
0.2
 44
1.25
 73
     0
 74
     0
 77
     3
 78
     8
 79
     2
140
3.0
141
0.0
143
0.03937007874016
144
0.2
147
0.625
171
     3
172
     1
178
     4
179
     1
271
     2
272
     2
274
     3
283
     0
284
     8
288
     1
289
     0
340
26
341
348
342
348
1001
ACAD_DSTYLE_DIMARC_LENGTH_SYMBOL
1070
   379
1070
     2
1001
ACAD_DSTYLE_DIMEXT_LENGTH
1070
   378
1040
1.25
1001
ACAD_DSTYLE_DIMJOGGED_JOGANGLE_SYMBOL
1070
   384
1040
1.570796326794896
  0
DIMSTYLE
105
3C0
330
A
100
AcDbSymbolTableRecord
100
AcDbDimStyleTableRecord
  2
10：1
 70
     0
 41
2.5
 42
0.25
 43
0.2
 44
1.25
 73
     0
 74
     0
 77
     3
 78
     8
 79
     2
140
3.0
141
0.0
143
0.03937007874016
144
0.1
147
0.625
171
     3
172
     1
178
     4
179
     1
271
     2
272
     2
274
     3
283
     0
284
     8
288
     1
289
     0
340
26
341
348
342
348
1001
ACAD_DSTYLE_DIMARC_LENGTH_SYMBOL
1070
   379
1070
     2
1001
ACAD_DSTYLE_DIMEXT_LENGTH
1070
   378
1040
1.25
1001
ACAD_DSTYLE_DIMJOGGED_JOGANGLE_SYMBOL
1070
   384
1040
1.570796326794896
  0
DIMSTYLE
105
3C1
330
A
100
AcDbSymbolTableRecord
100
AcDbDimStyleTableRecord
  2
1／2
 70
     0
 41
2.5
 42
0.25
 43
0.2
 44
1.25
 73
     0
 74
     0
 77
     3
 78
     8
 79
     2
140
3.0
141
0.0
143
0.03937007874016
144
2.0
147
0.625
171
     3
172
     1
178
     4
179
     1
271
     2
272
     2
274
     3
283
     0
284
     8
288
     1
289
     0
340
26
341
348
342
348
1001
ACAD_DSTYLE_DIMARC_LENGTH_SYMBOL
1070
   379
1070
     2
1001
ACAD_DSTYLE_DIMEXT_LENGTH
1070
   378
1040
1.25
1001
ACAD_DSTYLE_DIMJOGGED_JOGANGLE_SYMBOL
1070
   384
1040
1.570796326794896
  0
DIMSTYLE
105
3C2
330
A
100
AcDbSymbolTableRecord
100
AcDbDimStyleTableRecord
  2
1／5
 70
     0
 41
2.5
 42
0.25
 43
0.2
 44
1.25
 73
     0
 74
     0
 77
     3
 78
     8
 79
     2
140
3.0
141
0.0
143
0.03937007874016
144
5.0
147
0.625
171
     3
172
     1
178
     4
179
     1
271
     2
272
     2
274
     3
283
     0
284
     8
288
     1
289
     0
340
26
341
348
342
348
1001
ACAD_DSTYLE_DIMARC_LENGTH_SYMBOL
1070
   379
1070
     2
1001
ACAD_DSTYLE_DIMEXT_LENGTH
1070
   378
1040
1.25
1001
ACAD_DSTYLE_DIMJOGGED_JOGANGLE_SYMBOL
1070
   384
1040
1.570796326794896
  0
DIMSTYLE
105
3C3
330
A
100
AcDbSymbolTableRecord
100
AcDbDimStyleTableRecord
  2
1／10
 70
     0
 41
2.5
 42
0.25
 43
0.2
 44
1.25
 73
     0
 74
     0
 77
     3
 78
     8
 79
     2
140
3.0
141
0.0
143
0.03937007874016
144
10.0
147
0.625
171
     3
172
     1
178
     4
179
     1
271
     2
272
     2
274
     3
283
     0
284
     8
288
     1
289
     0
340
26
341
348
342
348
1001
ACAD_DSTYLE_DIMARC_LENGTH_SYMBOL
1070
   379
1070
     2
1001
ACAD_DSTYLE_DIMEXT_LENGTH
1070
   378
1040
1.25
1001
ACAD_DSTYLE_DIMJOGGED_JOGANGLE_SYMBOL
1070
   384
1040
1.570796326794896
  0
DIMSTYLE
105
3C4
330
A
100
AcDbSymbolTableRecord
100
AcDbDimStyleTableRecord
  2
1／4
 70
     0
 41
2.5
 42
0.25
 43
0.2
 44
1.25
 73
     0
 74
     0
 77
     3
 78
     8
 79
     2
140
3.0
141
0.0
143
0.03937007874016
144
4.0
147
0.625
171
     3
172
     1
178
     4
179
     1
271
     2
272
     2
274
     3
283
     0
284
     8
288
     1
289
     0
340
26
341
348
342
348
1001
ACAD_DSTYLE_DIMARC_LENGTH_SYMBOL
1070
   379
1070
     2
1001
ACAD_DSTYLE_DIMEXT_LENGTH
1070
   378
1040
1.25
1001
ACAD_DSTYLE_DIMJOGGED_JOGANGLE_SYMBOL
1070
   384
1040
1.570796326794896
  0
DIMSTYLE
105
149A
330
A
100
AcDbSymbolTableRecord
100
AcDbDimStyleTableRecord
  2
1／3
 70
     0
 41
2.5
 42
0.25
 43
0.2
 44
1.25
 73
     0
 74
     0
 77
     3
 78
     8
 79
     2
140
3.0
141
0.0
143
0.03937007874016
144
3.0
147
0.625
171
     3
172
     1
178
     4
179
     1
271
     2
272
     2
274
     3
283
     0
284
     8
288
     1
289
     0
340
26
341
348
342
348
1001
ACAD_DSTYLE_DIMARC_LENGTH_SYMBOL
1070
   379
1070
     2
1001
ACAD_DSTYLE_DIMEXT_LENGTH
1070
   378
1040
1.25
1001
ACAD_DSTYLE_DIMJOGGED_JOGANGLE_SYMBOL
1070
   384
1040
1.570796326794896
  0
DIMSTYLE
105
1D29
102
{ACAD_REACTORS
330
1D37
102
}
330
A
100
AcDbSymbolTableRecord
100
AcDbDimStyleTableRecord
  2
FREE
 70
     0
 41
2.5
 42
0.25
 43
0.2
 44
1.25
 73
     0
 74
     0
 77
     3
 78
     8
 79
     2
140
3.0
141
0.0
143
0.03937007874016
147
0.625
171
     3
172
     1
178
     4
179
     1
271
     2
272
     2
274
     3
283
     0
284
     8
288
     1
289
     0
340
26
341
348
342
348
1001
ACAD_DSTYLE_DIMBREAK
1070
   391
1040
3.75
1001
ACAD_DSTYLE_DIMJAG
1070
   388
1040
1.5
1001
ACAD_DSTYLE_DIMTALN
1070
   392
1070
     0
1001
ACAD_DSTYLE_DIMARC_LENGTH_SYMBOL
1070
   379
1070
     2
1001
ACAD_DSTYLE_DIMEXT_LENGTH
1070
   378
1040
1.25
1001
ACAD_DSTYLE_DIMJOGGED_JOGANGLE_SYMBOL
1070
   384
1040
1.570796326794896
  0
ENDTAB
  0
TABLE
  2
BLOCK_RECORD
  5
1
330
0
100
AcDbSymbolTable
 70
    33
  0
BLOCK_RECORD
  5
36
102
{ACAD_XDICTIONARY
360
49B
102
}
330
1
100
AcDbSymbolTableRecord
100
AcDbBlockTableRecord
  2
*Model_Space
340
39
  0
BLOCK_RECORD
  5
32
330
1
100
AcDbSymbolTableRecord
100
AcDbBlockTableRecord
  2
*Paper_Space
340
35
  0
BLOCK_RECORD
  5
348
330
1
100
AcDbSymbolTableRecord
100
AcDbBlockTableRecord
  2
_Open30
340
0
102
{BLKREFS
331
1C86
331
1C87
331
1C8F
331
1C90
331
1C98
331
1C99
102
}
  0
BLOCK_RECORD
  5
1869
330
1
100
AcDbSymbolTableRecord
100
AcDbBlockTableRecord
  2
*D7
340
0
  0
BLOCK_RECORD
  5
188C
330
1
100
AcDbSymbolTableRecord
100
AcDbBlockTableRecord
  2
*D8
340
0
  0
BLOCK_RECORD
  5
1899
330
1
100
AcDbSymbolTableRecord
100
AcDbBlockTableRecord
  2
*D9
340
0
  0
ENDTAB
  0
ENDSEC
  0
SECTION
  2
BLOCKS
  0
BLOCK
  5
37
330
36
100
AcDbEntity
  8
0
100
AcDbBlockBegin
  2
*Model_Space
 70
     0
 10
0.0
 20
0.0
 30
0.0
  3
*Model_Space
  1

  0
ENDBLK
  5
38
330
36
100
AcDbEntity
  8
0
100
AcDbBlockEnd
  0
BLOCK
  5
33
330
32
100
AcDbEntity
 67
     1
  8
0
100
AcDbBlockBegin
  2
*Paper_Space
 70
     0
 10
0.0
 20
0.0
 30
0.0
  3
*Paper_Space
  1

  0
ENDBLK
  5
34
330
32
100
AcDbEntity
 67
     1
  8
0
100
AcDbBlockEnd
  0
BLOCK
  5
349
330
348
100
AcDbEntity
  8
0
100
AcDbBlockBegin
  2
_Open30
 70
     0
 10
0.0
 20
0.0
 30
0.0
  3
_Open30
  1

  0
LINE
  5
34A
330
348
100
AcDbEntity
  8
0
  6
ByBlock
 62
     0
370
    -2
100
AcDbLine
 10
-1.0
 20
0.267949
 30
0.0
 11
0.0
 21
0.0
 31
0.0
  0
LINE
  5
34B
330
348
100
AcDbEntity
  8
0
  6
ByBlock
 62
     0
370
    -2
100
AcDbLine
 10
0.0
 20
0.0
 30
0.0
 11
-1.0
 21
-0.267949
 31
0.0
  0
LINE
  5
34C
330
348
100
AcDbEntity
  8
0
  6
ByBlock
 62
     0
370
    -2
100
AcDbLine
 10
0.0
 20
0.0
 30
0.0
 11
-1.0
 21
0.0
 31
0.0
  0
ENDBLK
  5
34D
330
348
100
AcDbEntity
  8
0
100
AcDbBlockEnd
  0
BLOCK
  5
1873
330
1869
100
AcDbEntity
  8
0
100
AcDbBlockBegin
  2
*D7
 70
     1
 10
0.0
 20
0.0
 30
0.0
  3
*D7
  1

  0
LINE
  5
1C83
330
1869
100
AcDbEntity
  8
0
 62
     0
370
    -2
100
AcDbLine
 10
384.9822229914207
 20
101.6967532716913
 30
0.0
 11
384.9822229914207
 21
139.1353817649442
 31
0.0
  0
LINE
  5
1C84
330
1869
100
AcDbEntity
  8
0
 62
     0
370
    -2
100
AcDbLine
 10
334.9822229914206
 20
101.6967532716913
 30
0.0
 11
334.9822229914206
 21
139.1353817649442
 31
0.0
  0
LINE
  5
1C85
330
1869
100
AcDbEntity
  8
0
 62
     0
370
    -2
100
AcDbLine
 10
382.4822229914206
 20
137.8853817649442
 30
0.0
 11
337.4822229914207
 21
137.8853817649442
 31
0.0
  0
INSERT
  5
1C86
330
1869
100
AcDbEntity
  8
0
 62
     0
370
    -2
100
AcDbBlockReference
  2
_Open30
 10
384.9822229914207
 20
137.8853817649442
 30
0.0
 41
2.5
 42
2.5
 43
2.5
  0
INSERT
  5
1C87
330
1869
100
AcDbEntity
  8
0
 62
     0
370
    -2
100
AcDbBlockReference
  2
_Open30
 10
334.9822229914206
 20
137.8853817649442
 30
0.0
 41
2.5
 42
2.5
 43
2.5
 50
180.0
  0
MTEXT
  5
1C88
330
1869
100
AcDbEntity
  8
0
 62
     4
100
AcDbMText
 10
359.9822229914206
 20
140.0103817649442
 30
0.0
 40
3.0
 41
0.0
 71
     5
 72
     1
  1
\U+03C650
 73
     1
 44
1.0
1001
ACAD
1000
MTEXTBEGIN
1070
    73
1070
     1
1070
    44
1040
1.0
1070
    74
1070
     0
1000
MTEXTEND
  0
POINT
  5
1C89
330
1869
100
AcDbEntity
  8
Defpoints
 62
     0
100
AcDbPoint
 10
384.9822229914207
 20
101.4467532716913
 30
0.0
  0
POINT
  5
1C8A
330
1869
100
AcDbEntity
  8
Defpoints
 62
     0
100
AcDbPoint
 10
334.9822229914206
 20
101.4467532716913
 30
0.0
  0
POINT
  5
1C8B
330
1869
100
AcDbEntity
  8
Defpoints
 62
     0
100
AcDbPoint
 10
334.9822229914206
 20
137.8853817649442
 30
0.0
  0
ENDBLK
  5
1874
330
1869
100
AcDbEntity
  8
0
100
AcDbBlockEnd
  0
BLOCK
  5
1896
330
188C
100
AcDbEntity
  8
0
100
AcDbBlockBegin
  2
*D8
 70
     1
 10
0.0
 20
0.0
 30
0.0
  3
*D8
  1

  0
LINE
  5
1C8C
330
188C
100
AcDbEntity
  8
0
 62
     0
370
    -2
100
AcDbLine
 10
334.7322229914206
 20
51.4933166682033
 30
0.0
 11
324.0843836469138
 21
51.4933166682033
 31
0.0
  0
LINE
  5
1C8D
330
188C
100
AcDbEntity
  8
0
 62
     0
370
    -2
100
AcDbLine
 10
359.7322229914206
 20
-24.50668333179671
 30
0.0
 11
324.0843836469138
 21
-24.5066833317967
 31
0.0
  0
LINE
  5
1C8E
330
188C
100
AcDbEntity
  8
0
 62
     0
370
    -2
100
AcDbLine
 10
325.3343836469138
 20
48.9933166682033
 30
0.0
 11
325.3343836469138
 21
-22.0066833317967
 31
0.0
  0
INSERT
  5
1C8F
330
188C
100
AcDbEntity
  8
0
 62
     0
370
    -2
100
AcDbBlockReference
  2
_Open30
 10
325.3343836469138
 20
51.4933166682033
 30
0.0
 41
2.5
 42
2.5
 43
2.5
 50
90.0
  0
INSERT
  5
1C90
330
188C
100
AcDbEntity
  8
0
 62
     0
370
    -2
100
AcDbBlockReference
  2
_Open30
 10
325.3343836469138
 20
-24.5066833317967
 30
0.0
 41
2.5
 42
2.5
 43
2.5
 50
270.0
  0
MTEXT
  5
1C91
330
188C
100
AcDbEntity
  8
0
 62
     4
100
AcDbMText
 10
323.2093836469138
 20
13.02059413604638
 30
0.0
 40
3.0
 41
0.0
 71
     5
 72
     1
  1
76
 11
0.0000000000000001
 21
1.0
 31
0.0
 73
     1
 44
1.0
1001
ACAD
1000
MTEXTBEGIN
1070
    73
1070
     1
1070
    44
1040
1.0
1070
    74
1070
     0
1000
MTEXTEND
  0
POINT
  5
1C92
330
188C
100
AcDbEntity
  8
Defpoints
 62
     0
100
AcDbPoint
 10
334.9822229914206
 20
51.4933166682033
 30
0.0
  0
POINT
  5
1C93
330
188C
100
AcDbEntity
  8
Defpoints
 62
     0
100
AcDbPoint
 10
359.9822229914206
 20
-24.50668333179671
 30
0.0
  0
POINT
  5
1C94
330
188C
100
AcDbEntity
  8
Defpoints
 62
     0
100
AcDbPoint
 10
325.3343836469138
 20
-24.5066833317967
 30
0.0
  0
ENDBLK
  5
1897
330
188C
100
AcDbEntity
  8
0
100
AcDbBlockEnd
  0
BLOCK
  5
18A3
330
1899
100
AcDbEntity
  8
0
100
AcDbBlockBegin
  2
*D9
 70
     1
 10
0.0
 20
0.0
 30
0.0
  3
*D9
  1

  0
LINE
  5
1C95
330
1899
100
AcDbEntity
  8
0
 62
     0
370
    -2
100
AcDbLine
 10
365.4822229914207
 20
-19.6566833317967
 30
0.0
 11
365.4822229914207
 21
-38.63972334448499
 31
0.0
  0
LINE
  5
1C96
330
1899
100
AcDbEntity
  8
0
 62
     0
370
    -2
100
AcDbLine
 10
354.4822229914207
 20
-20.55668333179669
 30
0.0
 11
354.4822229914207
 21
-38.63972334448499
 31
0.0
  0
LINE
  5
1C97
330
1899
100
AcDbEntity
  8
0
 62
     0
370
    -2
100
AcDbLine
 10
362.9822229914207
 20
-37.38972334448499
 30
0.0
 11
356.9822229914207
 21
-37.38972334448499
 31
0.0
  0
INSERT
  5
1C98
330
1899
100
AcDbEntity
  8
0
 62
     0
370
    -2
100
AcDbBlockReference
  2
_Open30
 10
365.4822229914207
 20
-37.38972334448499
 30
0.0
 41
2.5
 42
2.5
 43
2.5
  0
INSERT
  5
1C99
330
1899
100
AcDbEntity
  8
0
 62
     0
370
    -2
100
AcDbBlockReference
  2
_Open30
 10
354.4822229914207
 20
-37.38972334448499
 30
0.0
 41
2.5
 42
2.5
 43
2.5
 50
180.0
  0
MTEXT
  5
1C9A
330
1899
100
AcDbEntity
  8
0
 62
     4
100
AcDbMText
 10
360.8387732910669
 20
-35.26472334448499
 30
0.0
 40
3.0
 41
0.0
 71
     5
 72
     1
  1
E11
 73
     1
 44
1.0
1001
ACAD
1000
MTEXTBEGIN
1070
    73
1070
     1
1070
    44
1040
1.0
1070
    74
1070
     0
1000
MTEXTEND
  0
POINT
  5
1C9B
330
1899
100
AcDbEntity
  8
Defpoints
 62
     0
100
AcDbPoint
 10
365.4822229914207
 20
-19.4066833317967
 30
0.0
  0
POINT
  5
1C9C
330
1899
100
AcDbEntity
  8
Defpoints
 62
     0
100
AcDbPoint
 10
354.4822229914207
 20
-20.30668333179669
 30
0.0
  0
POINT
  5
1C9D
330
1899
100
AcDbEntity
  8
Defpoints
 62
     0
100
AcDbPoint
 10
354.4822229914207
 20
-37.38972334448499
 30
0.0
  0
ENDBLK
  5
18A4
330
1899
100
AcDbEntity
  8
0
100
AcDbBlockEnd
  0
ENDSEC
  0
SECTION
  2
ENTITIES
  0
LINE
  5
A8
330
36
100
AcDbEntity
  8
001
 62
     3
100
AcDbLine
 10
404.224642
 20
164.9775469999999
 30
0.0
 11
487.8246419999999
 21
164.9775469999999
 31
0.0
  0
TEXT
  5
A9
330
36
100
AcDbEntity
  8
001
 62
     3
100
AcDbText
 10
477.099642
 20
160.832547
 30
0.0
 40
3.2
  1
担
  7
高3.2
100
AcDbText
  0
TEXT
  5
AA
330
36
100
AcDbEntity
  8
001
 62
     3
100
AcDbText
 10
483.987142
 20
160.832547
 30
0.0
 40
3.2
  1
当
  7
高3.2
100
AcDbText
  0
TEXT
  5
AB
330
36
100
AcDbEntity
  8
001
 62
     3
100
AcDbText
 10
436.903866
 20
160.815385
 30
0.0
 40
3.2
  1
変更・追記内容
  7
高3.2
100
AcDbText
  0
LINE
  5
AC
330
36
100
AcDbEntity
  8
001
 62
     3
100
AcDbLine
 10
404.224642
 20
169.482936
 30
0.0
 11
404.224642
 21
150.127547
 31
0.0
  0
TEXT
  5
AD
330
36
100
AcDbEntity
  8
001
 62
     3
100
AcDbText
 10
408.6859482544695
 20
156.2418672239456
 30
0.0
 40
2.0
  1
1
  7
高2
100
AcDbText
  0
TEXT
  5
AE
330
36
100
AcDbEntity
  8
001
 62
     3
100
AcDbText
 10
408.2975546064707
 20
151.0267790022681
 30
0.0
 40
2.0
  1
2
  7
高2
100
AcDbText
  0
TEXT
  5
AF
330
36
100
AcDbEntity
  8
001
 62
     3
100
AcDbText
 10
417.183591
 20
161.391912
 30
0.0
 40
3.2
  1
日
  7
高3.2
100
AcDbText
  0
TEXT
  5
B0
330
36
100
AcDbEntity
  8
001
 62
     3
100
AcDbText
 10
426.060465
 20
161.391912
 30
0.0
 40
3.2
  1
付
  7
高3.2
100
AcDbText
  0
TEXT
  5
B1
330
36
100
AcDbEntity
  8
001
 62
     3
100
AcDbText
 10
417.009433
 20
165.627547
 30
0.0
 40
3.2
  1
図
  7
高3.2
100
AcDbText
  0
TEXT
  5
B2
330
36
100
AcDbEntity
  8
001
 62
     3
100
AcDbText
 10
435.665328
 20
165.627547
 30
0.0
 40
3.2
  1
面
  7
高3.2
100
AcDbText
  0
TEXT
  5
B3
330
36
100
AcDbEntity
  8
001
 62
     3
100
AcDbText
 10
454.321223
 20
165.627547
 30
0.0
 40
3.2
  1
略
  7
高3.2
100
AcDbText
  0
TEXT
  5
B4
330
36
100
AcDbEntity
  8
001
 62
     3
100
AcDbText
 10
472.9771179999998
 20
165.627547
 30
0.0
 40
3.2
  1
歴
  7
高3.2
100
AcDbText
  0
TEXT
  5
B5
330
36
100
AcDbEntity
  8
001
 62
     3
100
AcDbText
 10
404.827006
 20
160.752547
 30
0.0
 40
3.2
  1
記
  7
高3.2
100
AcDbText
  0
TEXT
  5
B6
330
36
100
AcDbEntity
  8
001
 62
     3
100
AcDbText
 10
411.079914
 20
160.752547
 30
0.0
 40
3.2
  1
号
  7
高3.2
100
AcDbText
  0
LINE
  5
B7
330
36
100
AcDbEntity
  8
001
 62
     3
100
AcDbLine
 10
478.225998
 20
150.127547
 30
0.0
 11
404.224642
 21
150.127547
 31
0.0
  0
LINE
  5
B8
330
36
100
AcDbEntity
  8
001
 62
     3
100
AcDbLine
 10
486.376334
 20
150.127547
 30
0.0
 11
478.225998
 21
150.127547
 31
0.0
  0
LINE
  5
B9
330
36
100
AcDbEntity
  8
001
 62
     3
100
AcDbLine
 10
486.376334
 20
150.127547
 30
0.0
 11
487.8246419999999
 21
150.127547
 31
0.0
  0
LINE
  5
BA
330
36
100
AcDbEntity
  8
001
 62
     2
100
AcDbLine
 10
374.908994
 20
171.442684
 30
0.0
 11
375.344742
 21
171.215216
 31
0.0
  0
LINE
  5
BB
330
36
100
AcDbEntity
  8
001
 62
     2
100
AcDbLine
 10
374.908994
 20
167.712054
 30
0.0
 11
375.344742
 21
167.939522
 31
0.0
  0
LINE
  5
BC
330
36
100
AcDbEntity
  8
001
 62
     2
100
AcDbLine
 10
375.344742
 20
171.215216
 30
0.0
 11
375.344742
 21
167.939522
 31
0.0
  0
LINE
  5
BD
330
36
100
AcDbEntity
  8
001
 62
     2
100
AcDbLine
 10
376.44826
 20
167.712054
 30
0.0
 11
376.012512
 21
167.939522
 31
0.0
  0
LINE
  5
BE
330
36
100
AcDbEntity
  8
001
 62
     2
100
AcDbLine
 10
376.012512
 20
169.936381
 30
0.0
 11
376.012512
 21
167.939522
 31
0.0
  0
LINE
  5
BF
330
36
100
AcDbEntity
  8
001
 62
     2
100
AcDbLine
 10
378.990122
 20
171.442684
 30
0.0
 11
378.554375
 21
171.215216
 31
0.0
  0
LINE
  5
C0
330
36
100
AcDbEntity
  8
001
 62
     2
100
AcDbLine
 10
377.450857
 20
171.442684
 30
0.0
 11
377.886605
 21
171.215216
 31
0.0
  0
LINE
  5
C1
330
36
100
AcDbEntity
  8
001
 62
     2
100
AcDbLine
 10
377.886605
 20
171.215216
 30
0.0
 11
377.886605
 21
169.772879
 31
0.0
  0
LINE
  5
C2
330
36
100
AcDbEntity
  8
001
 62
     2
100
AcDbLine
 10
378.554375
 20
171.215216
 30
0.0
 11
378.554375
 21
167.500493
 31
0.0
  0
LINE
  5
C3
330
36
100
AcDbEntity
  8
001
 62
     2
100
AcDbLine
 10
379.20542
 20
171.442682
 30
0.0
 11
379.641166
 21
171.21521
 31
0.0
  0
LINE
  5
C4
330
36
100
AcDbEntity
  8
001
 62
     2
100
AcDbLine
 10
379.205342
 20
167.712104
 30
0.0
 11
379.641098
 21
167.939557
 31
0.0
  0
LINE
  5
C5
330
36
100
AcDbEntity
  8
001
 62
     2
100
AcDbLine
 10
379.641166
 20
171.21521
 30
0.0
 11
379.641166
 21
167.939557
 31
0.0
  0
LINE
  5
C6
330
36
100
AcDbEntity
  8
001
 62
     2
100
AcDbLine
 10
381.134956
 20
171.442658
 30
0.0
 11
380.699205
 21
171.215196
 31
0.0
  0
LINE
  5
C7
330
36
100
AcDbEntity
  8
001
 62
     2
100
AcDbLine
 10
380.699205
 20
171.215196
 30
0.0
 11
380.699205
 21
167.939542
 31
0.0
  0
LINE
  5
C8
330
36
100
AcDbEntity
  8
001
 62
     2
100
AcDbLine
 10
381.134956
 20
167.71208
 30
0.0
 11
380.699205
 21
167.939542
 31
0.0
  0
LINE
  5
C9
330
36
100
AcDbEntity
  8
001
 62
     2
100
AcDbLine
 10
384.825209
 20
171.442617
 30
0.0
 11
385.260957
 21
171.215147
 31
0.0
  0
LINE
  5
CA
330
36
100
AcDbEntity
  8
001
 62
     2
100
AcDbLine
 10
385.260957
 20
171.215147
 30
0.0
 11
385.260899
 21
167.939493
 31
0.0
  0
LINE
  5
CB
330
36
100
AcDbEntity
  8
001
 62
     2
100
AcDbLine
 10
384.825144
 20
167.7120389999999
 30
0.0
 11
385.260899
 21
167.939493
 31
0.0
  0
LINE
  5
CC
330
36
100
AcDbEntity
  8
001
 62
     2
100
AcDbLine
 10
386.77747
 20
171.442617
 30
0.0
 11
386.341723
 21
171.215147
 31
0.0
  0
LINE
  5
CD
330
36
100
AcDbEntity
  8
001
 62
     2
100
AcDbLine
 10
386.777536
 20
167.7120389999999
 30
0.0
 11
386.34178
 21
167.939493
 31
0.0
  0
LINE
  5
CE
330
36
100
AcDbEntity
  8
001
 62
     2
100
AcDbLine
 10
386.981198
 20
171.442617
 30
0.0
 11
387.416945
 21
171.215147
 31
0.0
  0
LINE
  5
CF
330
36
100
AcDbEntity
  8
001
 62
     2
100
AcDbLine
 10
386.981133
 20
167.7120389999999
 30
0.0
 11
387.416888
 21
167.939493
 31
0.0
  0
LINE
  5
D0
330
36
100
AcDbEntity
  8
001
 62
     2
100
AcDbLine
 10
388.933459
 20
171.442617
 30
0.0
 11
388.497712
 21
171.215147
 31
0.0
  0
LINE
  5
D1
330
36
100
AcDbEntity
  8
001
 62
     2
100
AcDbLine
 10
388.497712
 20
171.215147
 30
0.0
 11
388.497769
 21
167.939493
 31
0.0
  0
LINE
  5
D2
330
36
100
AcDbEntity
  8
001
 62
     2
100
AcDbLine
 10
388.933524
 20
167.7120389999999
 30
0.0
 11
388.497769
 21
167.939493
 31
0.0
  0
LINE
  5
D3
330
36
100
AcDbEntity
  8
001
 62
     2
100
AcDbLine
 10
387.416921
 20
169.788014
 30
0.0
 11
386.341748
 21
169.788014
 31
0.0
  0
LINE
  5
D4
330
36
100
AcDbEntity
  8
001
 62
     2
100
AcDbLine
 10
387.416913
 20
169.366724
 30
0.0
 11
386.341756
 21
169.366724
 31
0.0
  0
LINE
  5
D5
330
36
100
AcDbEntity
  8
001
 62
     2
100
AcDbLine
 10
387.416945
 20
171.215147
 30
0.0
 11
387.416921
 21
169.788014
 31
0.0
  0
LINE
  5
D6
330
36
100
AcDbEntity
  8
001
 62
     2
100
AcDbLine
 10
387.416913
 20
169.366724
 30
0.0
 11
387.416888
 21
167.939493
 31
0.0
  0
LINE
  5
D7
330
36
100
AcDbEntity
  8
001
 62
     2
100
AcDbLine
 10
386.341723
 20
171.215147
 30
0.0
 11
386.341748
 21
169.788014
 31
0.0
  0
LINE
  5
D8
330
36
100
AcDbEntity
  8
001
 62
     2
100
AcDbLine
 10
386.341756
 20
169.366724
 30
0.0
 11
386.34178
 21
167.939493
 31
0.0
  0
LINE
  5
D9
330
36
100
AcDbEntity
  8
001
 62
     2
100
AcDbLine
 10
389.140418
 20
171.442617
 30
0.0
 11
389.576166
 21
171.215147
 31
0.0
  0
LINE
  5
DA
330
36
100
AcDbEntity
  8
001
 62
     2
100
AcDbLine
 10
389.576166
 20
171.215147
 30
0.0
 11
389.576108
 21
167.939493
 31
0.0
  0
LINE
  5
DB
330
36
100
AcDbEntity
  8
001
 62
     2
100
AcDbLine
 10
389.140353
 20
167.7120389999999
 30
0.0
 11
389.576108
 21
167.939493
 31
0.0
  0
LINE
  5
DC
330
36
100
AcDbEntity
  8
001
 62
     2
100
AcDbLine
 10
391.069929
 20
171.442617
 30
0.0
 11
390.634182
 21
171.215147
 31
0.0
  0
LINE
  5
DD
330
36
100
AcDbEntity
  8
001
 62
     2
100
AcDbLine
 10
390.634182
 20
171.215147
 30
0.0
 11
390.634239
 21
167.939493
 31
0.0
  0
LINE
  5
DE
330
36
100
AcDbEntity
  8
001
 62
     2
100
AcDbLine
 10
391.069994
 20
167.7120389999999
 30
0.0
 11
390.634239
 21
167.939493
 31
0.0
  0
LINE
  5
DF
330
36
100
AcDbEntity
  8
001
 62
     2
100
AcDbLine
 10
391.284288
 20
171.442617
 30
0.0
 11
391.720035
 21
171.215147
 31
0.0
  0
LINE
  5
E0
330
36
100
AcDbEntity
  8
001
 62
     2
100
AcDbLine
 10
391.720035
 20
171.215147
 30
0.0
 11
391.719978
 21
167.939493
 31
0.0
  0
LINE
  5
E1
330
36
100
AcDbEntity
  8
001
 62
     2
100
AcDbLine
 10
391.284223
 20
167.7120389999999
 30
0.0
 11
391.719978
 21
167.939493
 31
0.0
  0
ARC
  5
E2
330
36
100
AcDbEntity
  8
001
 62
     2
100
AcDbCircle
 10
383.433298
 20
169.586759
 30
0.0
 40
2.086285999999998
100
AcDbArc
 50
97.701524
 51
270.0
  0
ARC
  5
E3
330
36
100
AcDbEntity
  8
001
 62
     2
100
AcDbCircle
 10
396.313899
 20
169.565802
 30
0.0
 40
2.108943
100
AcDbArc
 50
0.31425
 51
69.00558199999998
  0
ARC
  5
E4
330
36
100
AcDbEntity
  8
001
 62
     2
100
AcDbCircle
 10
396.774574
 20
169.565802
 30
0.0
 40
2.108943
100
AcDbArc
 50
110.994418
 51
148.116611
  0
ARC
  5
E5
330
36
100
AcDbEntity
  8
001
 62
     2
100
AcDbCircle
 10
396.313899
 20
169.588936
 30
0.0
 40
2.108943
100
AcDbArc
 50
290.994418
 51
359.68575
  0
ARC
  5
E6
330
36
100
AcDbEntity
  8
001
 62
     2
100
AcDbCircle
 10
396.774574
 20
169.588936
 30
0.0
 40
2.108943
100
AcDbArc
 50
211.883389
 51
249.005582
  0
ARC
  5
E7
330
36
100
AcDbEntity
  8
001
 62
     2
100
AcDbCircle
 10
396.544237
 20
170.440174
 30
0.0
 40
1.214070999999999
100
AcDbArc
 50
64.365172
 51
115.634828
  0
ARC
  5
E8
330
36
100
AcDbEntity
  8
001
 62
     2
100
AcDbCircle
 10
396.544237
 20
168.714563
 30
0.0
 40
1.214070999999999
100
AcDbArc
 50
244.365172
 51
295.634828
  0
ARC
  5
E9
330
36
100
AcDbEntity
  8
001
 62
     2
100
AcDbCircle
 10
396.544237
 20
170.463236
 30
0.0
 40
0.5958560000000001
100
AcDbArc
 50
19.486606
 51
160.513394
  0
ARC
  5
EA
330
36
100
AcDbEntity
  8
001
 62
     2
100
AcDbCircle
 10
396.544237
 20
168.691502
 30
0.0
 40
0.5958560000000001
100
AcDbArc
 50
199.4866059999999
 51
340.513394
  0
ARC
  5
EB
330
36
100
AcDbEntity
  8
001
 62
     3
100
AcDbCircle
 10
391.801764
 20
147.349309
 30
0.0
 40
26.04
100
AcDbArc
 50
69.50571500000001
 51
81.689988
  0
ARC
  5
EC
330
36
100
AcDbEntity
  8
001
 62
     3
100
AcDbCircle
 10
391.801764
 20
191.805429
 30
0.0
 40
26.04
100
AcDbArc
 50
278.310012
 51
290.494285
  0
ARC
  5
ED
330
36
100
AcDbEntity
  8
001
 62
     3
100
AcDbCircle
 10
400.109968
 20
169.577369
 30
0.0
 40
2.31
100
AcDbArc
 50
290.494285
 51
69.50571500000001
  0
ARC
  5
EE
330
36
100
AcDbEntity
  8
001
 62
     3
100
AcDbCircle
 10
372.809968
 20
169.577369
 30
0.0
 40
2.31
100
AcDbArc
 50
110.494285
 51
249.505715
  0
ARC
  5
EF
330
36
100
AcDbEntity
  8
001
 62
     3
100
AcDbCircle
 10
381.118172
 20
147.349309
 30
0.0
 40
26.04
100
AcDbArc
 50
98.31001200000001
 51
110.494285
  0
ARC
  5
F0
330
36
100
AcDbEntity
  8
001
 62
     3
100
AcDbCircle
 10
381.118172
 20
191.805429
 30
0.0
 40
26.04
100
AcDbArc
 50
249.505715
 51
261.689988
  0
ARC
  5
F1
330
36
100
AcDbEntity
  8
001
 62
     3
100
AcDbCircle
 10
386.459968
 20
110.777369
 30
0.0
 40
63.0
100
AcDbArc
 50
81.689988
 51
98.31001200000001
  0
ARC
  5
F2
330
36
100
AcDbEntity
  8
001
 62
     3
100
AcDbCircle
 10
386.459968
 20
228.377369
 30
0.0
 40
63.0
100
AcDbArc
 50
261.689988
 51
278.310012
  0
ARC
  5
F3
330
36
100
AcDbEntity
  8
001
 62
     3
100
AcDbCircle
 10
386.459968
 20
110.777369
 30
0.0
 40
62.37
100
AcDbArc
 50
81.689988
 51
98.31001200000001
  0
ARC
  5
F4
330
36
100
AcDbEntity
  8
001
 62
     3
100
AcDbCircle
 10
386.459968
 20
228.377369
 30
0.0
 40
62.37
100
AcDbArc
 50
261.689988
 51
278.310012
  0
ARC
  5
F5
330
36
100
AcDbEntity
  8
001
 62
     3
100
AcDbCircle
 10
391.801764
 20
191.805429
 30
0.0
 40
25.41
100
AcDbArc
 50
278.310012
 51
290.494285
  0
ARC
  5
F6
330
36
100
AcDbEntity
  8
001
 62
     3
100
AcDbCircle
 10
391.801764
 20
147.349309
 30
0.0
 40
25.41
100
AcDbArc
 50
69.50571500000001
 51
81.689988
  0
ARC
  5
F7
330
36
100
AcDbEntity
  8
001
 62
     3
100
AcDbCircle
 10
400.109968
 20
169.577369
 30
0.0
 40
1.679999999999999
100
AcDbArc
 50
290.494285
 51
69.50571500000001
  0
ARC
  5
F8
330
36
100
AcDbEntity
  8
001
 62
     3
100
AcDbCircle
 10
372.809968
 20
169.577369
 30
0.0
 40
1.679999999999999
100
AcDbArc
 50
110.494285
 51
249.505715
  0
ARC
  5
F9
330
36
100
AcDbEntity
  8
001
 62
     3
100
AcDbCircle
 10
381.118172
 20
147.349309
 30
0.0
 40
25.41
100
AcDbArc
 50
98.31001200000001
 51
110.494285
  0
ARC
  5
FA
330
36
100
AcDbEntity
  8
001
 62
     3
100
AcDbCircle
 10
381.118172
 20
191.805429
 30
0.0
 40
25.41
100
AcDbArc
 50
249.505715
 51
261.689988
  0
LINE
  5
FB
330
36
100
AcDbEntity
  8
001
 62
     2
100
AcDbLine
 10
391.069929
 20
167.500493
 30
0.0
 11
389.140418
 21
167.500493
 31
0.0
  0
LINE
  5
FC
330
36
100
AcDbEntity
  8
001
 62
     2
100
AcDbLine
 10
391.069929
 20
167.712054
 30
0.0
 11
391.069929
 21
167.500493
 31
0.0
  0
LINE
  5
FD
330
36
100
AcDbEntity
  8
001
 62
     2
100
AcDbLine
 10
388.93346
 20
171.654147
 30
0.0
 11
386.981198
 21
171.654147
 31
0.0
  0
LINE
  5
FE
330
36
100
AcDbEntity
  8
001
 62
     2
100
AcDbLine
 10
388.93346
 20
171.654147
 30
0.0
 11
388.93346
 21
171.442684
 31
0.0
  0
LINE
  5
FF
330
36
100
AcDbEntity
  8
001
 62
     2
100
AcDbLine
 10
388.93346
 20
167.712054
 30
0.0
 11
388.93346
 21
167.500394
 31
0.0
  0
LINE
  5
100
330
36
100
AcDbEntity
  8
001
 62
     2
100
AcDbLine
 10
388.93346
 20
167.500394
 30
0.0
 11
386.981198
 21
167.500394
 31
0.0
  0
LINE
  5
101
330
36
100
AcDbEntity
  8
001
 62
     2
100
AcDbLine
 10
391.069929
 20
171.654245
 30
0.0
 11
391.069929
 21
171.442684
 31
0.0
  0
LINE
  5
102
330
36
100
AcDbEntity
  8
001
 62
     2
100
AcDbLine
 10
391.069929
 20
171.654245
 30
0.0
 11
389.140418
 21
171.654245
 31
0.0
  0
LINE
  5
103
330
36
100
AcDbEntity
  8
001
 62
     2
100
AcDbLine
 10
389.140418
 20
171.654245
 30
0.0
 11
389.140418
 21
171.442684
 31
0.0
  0
LINE
  5
104
330
36
100
AcDbEntity
  8
001
 62
     2
100
AcDbLine
 10
391.284287
 20
167.712054
 30
0.0
 11
391.284287
 21
167.500493
 31
0.0
  0
LINE
  5
105
330
36
100
AcDbEntity
  8
001
 62
     2
100
AcDbLine
 10
393.268588
 20
167.500493
 30
0.0
 11
391.284287
 21
167.500493
 31
0.0
  0
LINE
  5
106
330
36
100
AcDbEntity
  8
001
 62
     2
100
AcDbLine
 10
392.778051
 20
170.986476
 30
0.0
 11
392.778051
 21
168.168262
 31
0.0
  0
LINE
  5
107
330
36
100
AcDbEntity
  8
001
 62
     2
100
AcDbLine
 10
392.778051
 20
168.168262
 30
0.0
 11
392.9681
 21
168.168262
 31
0.0
  0
ARC
  5
108
330
36
100
AcDbEntity
  8
001
 62
     2
100
AcDbCircle
 10
391.996315
 20
169.577369
 30
0.0
 40
1.711709999999999
100
AcDbArc
 50
304.591955
 51
55.408045
  0
LINE
  5
109
330
36
100
AcDbEntity
  8
001
 62
     2
100
AcDbLine
 10
393.268588
 20
171.654245
 30
0.0
 11
391.284287
 21
171.654245
 31
0.0
  0
LINE
  5
10A
330
36
100
AcDbEntity
  8
001
 62
     2
100
AcDbLine
 10
391.284287
 20
171.654245
 30
0.0
 11
391.284287
 21
171.442684
 31
0.0
  0
LINE
  5
10B
330
36
100
AcDbEntity
  8
001
 62
     2
100
AcDbLine
 10
389.140418
 20
167.712054
 30
0.0
 11
389.140418
 21
167.500493
 31
0.0
  0
LINE
  5
10C
330
36
100
AcDbEntity
  8
001
 62
     2
100
AcDbLine
 10
392.778051
 20
170.986476
 30
0.0
 11
392.9681
 21
170.986476
 31
0.0
  0
LINE
  5
10D
330
36
100
AcDbEntity
  8
001
 62
     2
100
AcDbLine
 10
381.134892
 20
167.712054
 30
0.0
 11
381.134888
 21
167.500473
 31
0.0
  0
LINE
  5
10E
330
36
100
AcDbEntity
  8
001
 62
     2
100
AcDbLine
 10
379.205376
 20
167.500512
 30
0.0
 11
381.134888
 21
167.500479
 31
0.0
  0
LINE
  5
10F
330
36
100
AcDbEntity
  8
001
 62
     2
100
AcDbLine
 10
374.908994
 20
167.500493
 30
0.0
 11
376.44826
 21
167.500493
 31
0.0
  0
ARC
  5
110
330
36
100
AcDbEntity
  8
001
 62
     2
100
AcDbCircle
 10
369.927052
 20
169.626276
 30
0.0
 40
14.713566
100
AcDbArc
 50
353.866006
 51
357.694034
  0
LINE
  5
111
330
36
100
AcDbEntity
  8
001
 62
     2
100
AcDbLine
 10
383.643632
 20
169.037908
 30
0.0
 11
384.628702
 21
169.034263
 31
0.0
  0
LINE
  5
154
330
36
100
AcDbEntity
  8
001
 62
     2
100
AcDbLine
 10
383.64761
 20
170.113123
 30
0.0
 11
384.632681
 21
170.109478
 31
0.0
  0
ARC
  5
155
330
36
100
AcDbEntity
  8
001
 62
     2
100
AcDbCircle
 10
369.927052
 20
169.626276
 30
0.0
 40
14.713566
100
AcDbArc
 50
1.881965999999999
 51
5.709994
  0
LINE
  5
156
330
36
100
AcDbEntity
  8
001
 62
     2
100
AcDbLine
 10
381.134961
 20
171.654226
 30
0.0
 11
381.134957
 21
171.442684
 31
0.0
  0
LINE
  5
157
330
36
100
AcDbEntity
  8
001
 62
     2
100
AcDbLine
 10
379.205449
 20
171.654265
 30
0.0
 11
381.134961
 21
171.654231
 31
0.0
  0
LINE
  5
158
330
36
100
AcDbEntity
  8
001
 62
     2
100
AcDbLine
 10
379.20538
 20
167.712054
 30
0.0
 11
379.205376
 21
167.500512
 31
0.0
  0
LINE
  5
159
330
36
100
AcDbEntity
  8
001
 62
     2
100
AcDbLine
 10
379.205449
 20
171.654265
 30
0.0
 11
379.205445
 21
171.442684
 31
0.0
  0
LINE
  5
15A
330
36
100
AcDbEntity
  8
001
 62
     2
100
AcDbLine
 10
376.44826
 20
167.712054
 30
0.0
 11
376.44826
 21
167.500493
 31
0.0
  0
LINE
  5
15B
330
36
100
AcDbEntity
  8
001
 62
     2
100
AcDbLine
 10
376.012512
 20
169.936381
 30
0.0
 11
377.534942
 21
167.500493
 31
0.0
  0
LINE
  5
15C
330
36
100
AcDbEntity
  8
001
 62
     2
100
AcDbLine
 10
377.534942
 20
167.500493
 30
0.0
 11
378.554375
 21
167.500493
 31
0.0
  0
LINE
  5
15D
330
36
100
AcDbEntity
  8
001
 62
     2
100
AcDbLine
 10
378.990122
 20
171.654245
 30
0.0
 11
378.990122
 21
171.442684
 31
0.0
  0
LINE
  5
15E
330
36
100
AcDbEntity
  8
001
 62
     2
100
AcDbLine
 10
377.450857
 20
171.654245
 30
0.0
 11
378.990122
 21
171.654245
 31
0.0
  0
LINE
  5
15F
330
36
100
AcDbEntity
  8
001
 62
     2
100
AcDbLine
 10
377.450857
 20
171.654245
 30
0.0
 11
377.450857
 21
171.442684
 31
0.0
  0
LINE
  5
160
330
36
100
AcDbEntity
  8
001
 62
     2
100
AcDbLine
 10
377.886605
 20
169.772879
 30
0.0
 11
376.651958
 21
171.654245
 31
0.0
  0
LINE
  5
161
330
36
100
AcDbEntity
  8
001
 62
     2
100
AcDbLine
 10
374.908994
 20
171.654245
 30
0.0
 11
376.651958
 21
171.654245
 31
0.0
  0
LINE
  5
162
330
36
100
AcDbEntity
  8
001
 62
     2
100
AcDbLine
 10
384.825209
 20
171.654147
 30
0.0
 11
386.777471
 21
171.654147
 31
0.0
  0
LINE
  5
163
330
36
100
AcDbEntity
  8
001
 62
     2
100
AcDbLine
 10
384.825209
 20
171.442684
 30
0.0
 11
384.825209
 21
171.654147
 31
0.0
  0
LINE
  5
164
330
36
100
AcDbEntity
  8
001
 62
     2
100
AcDbLine
 10
384.825209
 20
167.500394
 30
0.0
 11
384.825209
 21
167.712054
 31
0.0
  0
LINE
  5
165
330
36
100
AcDbEntity
  8
001
 62
     2
100
AcDbLine
 10
384.825209
 20
167.500394
 30
0.0
 11
386.777471
 21
167.500394
 31
0.0
  0
LINE
  5
166
330
36
100
AcDbEntity
  8
001
 62
     2
100
AcDbLine
 10
386.981198
 20
167.712054
 30
0.0
 11
386.981198
 21
167.500394
 31
0.0
  0
LINE
  5
167
330
36
100
AcDbEntity
  8
001
 62
     2
100
AcDbLine
 10
386.777471
 20
167.712054
 30
0.0
 11
386.777471
 21
167.500394
 31
0.0
  0
LINE
  5
168
330
36
100
AcDbEntity
  8
001
 62
     2
100
AcDbLine
 10
386.777471
 20
171.442684
 30
0.0
 11
386.777471
 21
171.654147
 31
0.0
  0
LINE
  5
169
330
36
100
AcDbEntity
  8
001
 62
     2
100
AcDbLine
 10
386.981198
 20
171.442684
 30
0.0
 11
386.981198
 21
171.654147
 31
0.0
  0
LINE
  5
16A
330
36
100
AcDbEntity
  8
001
 62
     2
100
AcDbLine
 10
374.908994
 20
167.712054
 30
0.0
 11
374.908994
 21
167.500493
 31
0.0
  0
LINE
  5
16B
330
36
100
AcDbEntity
  8
001
 62
     2
100
AcDbLine
 10
374.908994
 20
171.654245
 30
0.0
 11
374.908994
 21
171.442684
 31
0.0
  0
ARC
  5
16C
330
36
100
AcDbEntity
  8
001
 62
     2
100
AcDbCircle
 10
393.478588
 20
170.013117
 30
0.0
 40
1.641127999999999
100
AcDbArc
 50
17.308749
 51
23.765071
  0
ARC
  5
16D
330
36
100
AcDbEntity
  8
001
 62
     2
100
AcDbCircle
 10
392.080315
 20
169.577369
 30
0.0
 40
3.105725999999998
100
AcDbArc
 50
342.691251
 51
17.308566
  0
ARC
  5
16E
330
36
100
AcDbEntity
  8
001
 62
     2
100
AcDbCircle
 10
393.478588
 20
169.141621
 30
0.0
 40
1.641127999999999
100
AcDbArc
 50
336.234929
 51
342.691251
  0
ARC
  5
16F
330
36
100
AcDbEntity
  8
001
 62
     2
100
AcDbCircle
 10
393.268588
 20
170.013117
 30
0.0
 40
1.641127999999999
100
AcDbArc
 50
17.308749
 51
90.0
  0
ARC
  5
170
330
36
100
AcDbEntity
  8
001
 62
     2
100
AcDbCircle
 10
391.870315
 20
169.577369
 30
0.0
 40
3.105725999999998
100
AcDbArc
 50
342.691251
 51
17.308566
  0
ARC
  5
171
330
36
100
AcDbEntity
  8
001
 62
     2
100
AcDbCircle
 10
393.268588
 20
169.141621
 30
0.0
 40
1.641127999999999
100
AcDbArc
 50
270.0
 51
342.691251
  0
ARC
  5
172
330
36
100
AcDbEntity
  8
001
 62
     2
100
AcDbCircle
 10
383.144648
 20
169.577369
 30
0.0
 40
2.076875999999999
100
AcDbArc
 50
46.75287999999999
 51
89.749998
  0
ARC
  5
173
330
36
100
AcDbEntity
  8
001
 62
     2
100
AcDbCircle
 10
383.144648
 20
169.577369
 30
0.0
 40
2.076875999999999
100
AcDbArc
 50
273.976333
 51
312.82312
  0
ARC
  5
174
330
36
100
AcDbEntity
  8
001
 62
     2
100
AcDbCircle
 10
394.586456
 20
169.545307
 30
0.0
 40
2.755888999999998
100
AcDbArc
 50
0.6665840000000001
 51
23.903928
  0
ARC
  5
175
330
36
100
AcDbEntity
  8
001
 62
     2
100
AcDbCircle
 10
398.502018
 20
169.545307
 30
0.0
 40
2.755888999999998
100
AcDbArc
 50
156.096072
 51
179.333416
  0
ARC
  5
176
330
36
100
AcDbEntity
  8
001
 62
     2
100
AcDbCircle
 10
394.586456
 20
169.60943
 30
0.0
 40
2.755888999999998
100
AcDbArc
 50
336.096072
 51
359.333416
  0
ARC
  5
177
330
36
100
AcDbEntity
  8
001
 62
     2
100
AcDbCircle
 10
398.502018
 20
169.60943
 30
0.0
 40
2.755888999999998
100
AcDbArc
 50
180.666584
 51
203.903928
  0
LINE
  5
178
330
36
100
AcDbEntity
  8
001
 62
     3
100
AcDbLine
 10
436.082344
 20
-90.459337
 30
0.0
 11
436.082344
 21
-69.45933700000001
 31
0.0
  0
LINE
  5
179
330
36
100
AcDbEntity
  8
001
 62
     3
100
AcDbLine
 10
449.082344
 20
-90.459337
 30
0.0
 11
449.082344
 21
-69.45933700000001
 31
0.0
  0
LINE
  5
17A
330
36
100
AcDbEntity
  8
001
 62
     3
100
AcDbLine
 10
462.082344
 20
-90.459337
 30
0.0
 11
462.082344
 21
-69.45933700000001
 31
0.0
  0
LINE
  5
17B
330
36
100
AcDbEntity
  8
001
 62
     3
100
AcDbLine
 10
436.082344
 20
-90.459337
 30
0.0
 11
436.082344
 21
-97.45933700000001
 31
0.0
  0
LINE
  5
17C
330
36
100
AcDbEntity
  8
001
 62
     3
100
AcDbLine
 10
409.0287339999998
 20
-97.45933700000001
 30
0.0
 11
409.0287339999998
 21
-83.45933700000001
 31
0.0
  0
LINE
  5
17D
330
36
100
AcDbEntity
  8
001
 62
     3
100
AcDbLine
 10
419.360669
 20
-83.45933700000003
 30
0.0
 11
419.360669
 21
-97.45933700000001
 31
0.0
  0
TEXT
  5
186
330
36
100
AcDbEntity
  8
001
 62
     3
100
AcDbText
 10
464.347029
 20
-71.254221
 30
0.0
 40
2.0
  1
DESN
  7
高2
100
AcDbText
  0
TEXT
  5
187
330
36
100
AcDbEntity
  8
001
 62
     3
100
AcDbText
 10
379.3406700000002
 20
-100.600719
 30
0.0
 40
2.0
  1
NICHIDO IND.CO.LTD
 41
1.274876
100
AcDbText
  0
LINE
  5
188
330
36
100
AcDbEntity
  8
001
 62
     3
100
AcDbLine
 10
389.7236990000001
 20
-67.45933700000001
 30
0.0
 11
389.723699
 21
-90.459337
 31
0.0
  0
LINE
  5
189
330
36
100
AcDbEntity
  8
001
 62
     3
100
AcDbLine
 10
436.082344
 20
-97.45933700000001
 30
0.0
 11
436.082344
 21
-107.34476
 31
0.0
  0
LINE
  5
18B
330
36
100
AcDbEntity
  8
001
 62
     3
100
AcDbLine
 10
436.082344
 20
-69.45933700000001
 30
0.0
 11
436.082344
 21
-67.45933700000001
 31
0.0
  0
LINE
  5
18C
330
36
100
AcDbEntity
  8
001
 62
     3
100
AcDbLine
 10
449.082344
 20
-69.45933700000001
 30
0.0
 11
449.082344
 21
-67.45933700000001
 31
0.0
  0
LINE
  5
18D
330
36
100
AcDbEntity
  8
001
 62
     3
100
AcDbLine
 10
462.082344
 20
-69.45933700000001
 30
0.0
 11
462.082344
 21
-67.45933700000001
 31
0.0
  0
LINE
  5
18E
330
36
100
AcDbEntity
  8
001
 62
     3
100
AcDbLine
 10
449.082344
 20
-90.459337
 30
0.0
 11
449.082344
 21
-97.45933700000001
 31
0.0
  0
TEXT
  5
18F
330
36
100
AcDbEntity
  8
001
 62
     3
100
AcDbText
 10
437.194788
 20
-96.59465
 30
0.0
 40
3.2
  1
作成日
 41
1.017225999999997
100
AcDbText
  0
LINE
  5
190
330
36
100
AcDbEntity
  8
001
 62
     3
100
AcDbLine
 10
487.8246419999999
 20
-67.45933700000001
 30
0.0
 11
376.478265
 21
-67.45933700000001
 31
0.0
  0
LINE
  5
191
330
36
100
AcDbEntity
  8
001
 62
     3
100
AcDbLine
 10
475.082344
 20
-90.459337
 30
0.0
 11
475.082344
 21
-67.45933700000001
 31
0.0
  0
TEXT
  5
195
330
36
100
AcDbEntity
  8
001
 62
     3
100
AcDbText
 10
478.406147
 20
-75.16095599999998
 30
0.0
 40
3.2
  1
製図
  7
高3.2
100
AcDbText
  0
LINE
  5
196
330
36
100
AcDbEntity
  8
001
 62
     3
100
AcDbLine
 10
376.478265
 20
-67.45933700000001
 30
0.0
 11
376.478265
 21
-107.34476
 31
0.0
  0
TEXT
  5
197
330
36
100
AcDbEntity
  8
001
 62
     3
100
AcDbText
 10
377.854917
 20
-106.792594
 30
0.0
 40
5.0
  1
日動工業株式会社
 41
0.833333
100
AcDbText
  0
LINE
  5
198
330
36
100
AcDbEntity
  8
001
 62
     3
100
AcDbLine
 10
419.360669
 20
-97.45933700000001
 30
0.0
 11
419.360669
 21
-107.34476
 31
0.0
  0
LINE
  5
199
330
36
100
AcDbEntity
  8
001
 62
     3
100
AcDbLine
 10
419.360669
 20
-102.292198
 30
0.0
 11
436.082344
 21
-102.292198
 31
0.0
  0
TEXT
  5
19A
330
36
100
AcDbEntity
  8
001
 62
     3
100
AcDbText
 10
419.947271
 20
-101.475768
 30
0.0
 40
3.2
  1
出図コード
 41
0.8356860000000001
100
AcDbText
  0
LINE
  5
19D
330
36
100
AcDbEntity
  8
001
 62
     3
100
AcDbLine
 10
487.8246419999999
 20
-76.459337
 30
0.0
 11
376.478265
 21
-76.459337
 31
0.0
  0
LINE
  5
1A2
330
36
100
AcDbEntity
  8
001
 62
     3
100
AcDbLine
 10
436.082344
 20
-83.45933700000001
 30
0.0
 11
376.478265
 21
-83.45933700000001
 31
0.0
  0
LINE
  5
1A5
330
36
100
AcDbEntity
  8
001
 62
     3
100
AcDbLine
 10
487.8246419999999
 20
-97.45933700000001
 30
0.0
 11
376.478265
 21
-97.45933700000001
 31
0.0
  0
LINE
  5
1A8
330
36
100
AcDbEntity
  8
001
 62
     3
100
AcDbLine
 10
487.8246419999999
 20
-90.459337
 30
0.0
 11
376.478265
 21
-90.459337
 31
0.0
  0
TEXT
  5
1AB
330
36
100
AcDbEntity
  8
001
 62
     3
100
AcDbText
 10
419.814722
 20
-106.522865
 30
0.0
 40
3.2
  1
ZK-A4Y
 41
0.8112849999999999
100
AcDbText
  0
LINE
  5
1AC
330
36
100
AcDbEntity
  8
001
 62
     3
100
AcDbLine
 10
307.824642
 20
169.65524
 30
0.0
 11
307.824642
 21
-107.34476
 31
0.0
  0
LINE
  5
1AD
330
36
100
AcDbEntity
  8
001
 62
     3
100
AcDbLine
 10
487.8246419999999
 20
-107.34476
 30
0.0
 11
487.8246419999999
 21
169.65524
 31
0.0
  0
LINE
  5
1AE
330
36
100
AcDbEntity
  8
001
 62
     3
100
AcDbLine
 10
487.8246419999999
 20
-107.34476
 30
0.0
 11
307.824642
 21
-107.34476
 31
0.0
  0
TEXT
  5
1B3
330
36
100
AcDbEntity
  8
001
 62
     3
100
AcDbText
 10
378.295662
 20
-71.289811
 30
0.0
 40
2.0
  1
CONPONENTS
 41
0.5331600000000001
100
AcDbText
  0
TEXT
  5
1B4
330
36
100
AcDbEntity
  8
001
 62
     3
100
AcDbText
 10
377.945935
 20
-90.22198799999999
 30
0.0
 40
3.0
  1
材
 41
0.833333
100
AcDbText
  0
TEXT
  5
1B5
330
36
100
AcDbEntity
  8
001
 62
     3
100
AcDbText
 10
385.481578
 20
-90.22198799999999
 30
0.0
 40
3.0
  1
質
 41
0.833333
100
AcDbText
  0
TEXT
  5
1B6
330
36
100
AcDbEntity
  8
001
 62
     3
100
AcDbText
 10
378.034006
 20
-79.597464
 30
0.0
 40
2.0
  1
MODEL
 41
1.031072999999999
100
AcDbText
  0
TEXT
  5
1B7
330
36
100
AcDbEntity
  8
001
 62
     3
100
AcDbText
 10
377.945935
 20
-86.53968
 30
0.0
 40
2.0
  1
MATERIAL
 41
0.659278
100
AcDbText
  0
TEXT
  5
1B8
330
36
100
AcDbEntity
  8
001
 62
     3
100
AcDbText
 10
409.253215
 20
-90.22198799999999
 30
0.0
 40
3.0
  1
備
 41
0.833333
100
AcDbText
  0
TEXT
  5
1B9
330
36
100
AcDbEntity
  8
001
 62
     3
100
AcDbText
 10
415.986217
 20
-90.22198799999999
 30
0.0
 40
3.0
  1
考
 41
0.833333
100
AcDbText
  0
TEXT
  5
1BA
330
36
100
AcDbEntity
  8
001
 62
     3
100
AcDbText
 10
409.5939096354326
 20
-86.53968
 30
0.0
 40
2.0
  1
REMARKS
 41
0.675794
100
AcDbText
  0
TEXT
  5
1BB
330
36
100
AcDbEntity
  8
001
 62
     3
100
AcDbText
 10
379.535664
 20
-93.459801
 30
0.0
 40
2.0
  1
3AD
 41
1.42614
100
AcDbText
  0
TEXT
  5
1BC
330
36
100
AcDbEntity
  8
001
 62
     3
100
AcDbText
 10
388.846644
 20
-93.29406699999999
 30
0.0
 40
2.0
  1
ANGLE
 41
1.669883999999995
100
AcDbText
  0
TEXT
  5
1BD
330
36
100
AcDbEntity
  8
001
 62
     3
100
AcDbText
 10
409.780531
 20
-93.67090799999999
 30
0.0
 40
2.0
  1
SCALE
 41
0.7719630000000001
100
AcDbText
  0
TEXT
  5
1BE
330
36
100
AcDbEntity
  8
001
 62
     3
100
AcDbText
 10
379.221794
 20
-97.45933700000001
 30
0.0
 40
3.0
  1
第
 41
0.833333
100
AcDbText
  0
TEXT
  5
1BF
330
36
100
AcDbEntity
  8
001
 62
     3
100
AcDbText
 10
387.008644
 20
-97.45933700000001
 30
0.0
 40
3.0
  1
三
 41
0.833333
100
AcDbText
  0
TEXT
  5
1C0
330
36
100
AcDbEntity
  8
001
 62
     3
100
AcDbText
 10
394.795494
 20
-97.45933700000001
 30
0.0
 40
3.0
  1
角
 41
0.833333
100
AcDbText
  0
TEXT
  5
1C1
330
36
100
AcDbEntity
  8
001
 62
     3
100
AcDbText
 10
402.5823439999999
 20
-97.45933700000001
 30
0.0
 40
3.0
  1
法
 41
0.833333
100
AcDbText
  0
TEXT
  5
1C2
330
36
100
AcDbEntity
  8
001
 62
     3
100
AcDbText
 10
409.643736
 20
-97.17090800000001
 30
0.0
 40
3.0
  1
尺
 41
0.833333
100
AcDbText
  0
TEXT
  5
1C3
330
36
100
AcDbEntity
  8
001
 62
     3
100
AcDbText
 10
416.376737
 20
-97.17090800000001
 30
0.0
 40
3.0
  1
度
 41
0.833333
100
AcDbText
  0
TEXT
  5
1C4
330
36
100
AcDbEntity
  8
001
 62
     3
100
AcDbText
 10
438.960008
 20
-75.00160799999997
 30
0.0
 40
3.2
  1
承認
  7
高3.2
100
AcDbText
  0
TEXT
  5
1C5
330
36
100
AcDbEntity
  8
001
 62
     3
100
AcDbText
 10
452.2028879999998
 20
-75.05933699999999
 30
0.0
 40
3.2
  1
検図
  7
高3.2
100
AcDbText
  0
TEXT
  5
1C8
330
36
100
AcDbEntity
  8
001
 62
     3
100
AcDbText
 10
378.227133
 20
-75.77058100000002
 30
0.0
 40
3.0
  1
品
 41
0.833333
100
AcDbText
  0
TEXT
  5
1C9
330
36
100
AcDbEntity
  8
001
 62
     3
100
AcDbText
 10
385.762776
 20
-75.77058100000002
 30
0.0
 40
3.0
  1
名
 41
0.833333
100
AcDbText
  0
TEXT
  5
1CA
330
36
100
AcDbEntity
  8
001
 62
     3
100
AcDbText
 10
378.034006
 20
-83.22972299999998
 30
0.0
 40
3.0
  1
型
 41
0.833333
100
AcDbText
  0
TEXT
  5
1CB
330
36
100
AcDbEntity
  8
001
 62
     3
100
AcDbText
 10
385.582096
 20
-83.22972299999998
 30
0.0
 40
3.0
  1
式
 41
0.833333
100
AcDbText
  0
LINE
  5
1CC
330
36
100
AcDbEntity
  8
001
 62
     3
100
AcDbLine
 10
403.1523049999998
 20
169.65524
 30
0.0
 11
487.8246419999999
 21
169.65524
 31
0.0
  0
LINE
  5
1CD
330
36
100
AcDbEntity
  8
001
 62
     3
100
AcDbLine
 10
369.739558
 20
169.65524
 30
0.0
 11
307.824642
 21
169.65524
 31
0.0
  0
LINE
  5
1CE
330
36
100
AcDbEntity
  8
001
100
AcDbLine
 10
486.1397679999998
 20
155.077547
 30
0.0
 11
487.8246419999999
 21
155.077547
 31
0.0
  0
LINE
  5
1CF
330
36
100
AcDbEntity
  8
001
100
AcDbLine
 10
414.3300759999998
 20
164.9775469999999
 30
0.0
 11
414.3300759999998
 21
150.127547
 31
0.0
  0
LINE
  5
1D0
330
36
100
AcDbEntity
  8
001
100
AcDbLine
 10
477.891236
 20
155.077547
 30
0.0
 11
404.224642
 21
155.077547
 31
0.0
  0
LINE
  5
1D1
330
36
100
AcDbEntity
  8
001
100
AcDbLine
 10
476.2271169999998
 20
164.9775469999999
 30
0.0
 11
476.2271169999998
 21
150.127547
 31
0.0
  0
LINE
  5
1D2
330
36
100
AcDbEntity
  8
001
100
AcDbLine
 10
431.9354019999998
 20
164.9775469999999
 30
0.0
 11
431.9354019999998
 21
150.127547
 31
0.0
  0
LINE
  5
1D3
330
36
100
AcDbEntity
  8
001
100
AcDbLine
 10
486.1397679999998
 20
155.077547
 30
0.0
 11
477.891236
 21
155.077547
 31
0.0
  0
LINE
  5
1D4
330
36
100
AcDbEntity
  8
001
100
AcDbLine
 10
404.224642
 20
160.027547
 30
0.0
 11
487.8246419999999
 21
160.027547
 31
0.0
  0
TEXT
  5
1D5
330
36
100
AcDbEntity
  8
001
 62
     3
100
AcDbText
 10
452.6658929999999
 20
-96.68492100000001
 30
0.0
 40
3.2
  1
2011.01.06
  7
高3.2
100
AcDbText
  0
TEXT
  5
1D6
330
36
100
AcDbEntity
  8
001
 62
     3
100
AcDbText
 10
421.3473249999998
 20
-96.57134
 30
0.0
 40
3.2
  1
1/1
  7
高3.2
100
AcDbText
  0
TEXT
  5
1D7
330
36
100
AcDbEntity
  8
001
 62
     3
100
AcDbText
 10
422.229028
 20
-89.906287
 30
0.0
 40
3.2
  1
交換球
  7
高3.2
100
AcDbText
  0
TEXT
  5
1D9
330
36
100
AcDbEntity
  8
001
 62
     3
100
AcDbText
 10
410.2752243365038
 20
103.6649975479746
 30
0.0
 40
4.5
  1
主　　　仕　　　様
  7
高4.5
100
AcDbText
  0
TEXT
  5
1E4
330
36
100
AcDbEntity
  8
001
 62
     3
100
AcDbText
 10
391.148316
 20
-75.568433
 30
0.0
 40
3.2
  1
電球色
  7
高3.2
100
AcDbText
  0
LINE
  5
1E6
330
36
100
AcDbEntity
  8
001
100
AcDbLine
 10
410.2752243365038
 20
102.908046
 30
0.0
 11
458.1213570355455
 21
102.908046
 31
0.0
  0
LINE
  5
2B2
330
36
100
AcDbEntity
  8
001
 62
     3
100
AcDbLine
 10
462.082344
 20
-67.45933700000001
 30
0.0
 11
462.082344
 21
-61.459337
 31
0.0
  0
LINE
  5
2B3
330
36
100
AcDbEntity
  8
001
 62
     3
100
AcDbLine
 10
436.082344
 20
-67.45933700000001
 30
0.0
 11
436.082344
 21
-61.459337
 31
0.0
  0
LINE
  5
2B4
330
36
100
AcDbEntity
  8
001
 62
     3
100
AcDbLine
 10
487.8246419999999
 20
-61.459337
 30
0.0
 11
436.082344
 21
-61.459337
 31
0.0
  0
TEXT
  5
2B5
330
36
100
AcDbEntity
  8
001
 62
     3
100
AcDbText
 10
442.077942
 20
-66.66298799999998
 30
0.0
 40
4.5
  1
コード
 41
0.833333
100
AcDbText
  0
LINE
  5
2B6
330
36
100
AcDbEntity
  8
001
100
AcDbLine
 10
409.042347
 20
159.288302
 30
0.0
 11
407.142347
 21
155.997405
 31
0.0
  0
LINE
  5
2B7
330
36
100
AcDbEntity
  8
001
100
AcDbLine
 10
409.042347
 20
159.288302
 30
0.0
 11
410.942347
 21
155.997405
 31
0.0
  0
LINE
  5
2B8
330
36
100
AcDbEntity
  8
001
100
AcDbLine
 10
407.142347
 20
155.997405
 30
0.0
 11
410.942347
 21
155.997405
 31
0.0
  0
LINE
  5
2B9
330
36
100
AcDbEntity
  8
001
100
AcDbLine
 10
409.042347
 20
154.132091
 30
0.0
 11
407.142347
 21
150.841195
 31
0.0
  0
LINE
  5
2BA
330
36
100
AcDbEntity
  8
001
100
AcDbLine
 10
409.042347
 20
154.132091
 30
0.0
 11
410.942347
 21
150.841195
 31
0.0
  0
LINE
  5
2BB
330
36
100
AcDbEntity
  8
001
100
AcDbLine
 10
407.142347
 20
150.841195
 30
0.0
 11
410.942347
 21
150.841195
 31
0.0
  0
TEXT
  5
341
330
36
100
AcDbEntity
  8
001
 62
     3
100
AcDbText
 10
391.688201
 20
-82.686472
 30
0.0
 40
4.5
  1
L6W-S-E11
  7
高4.5
100
AcDbText
  0
TEXT
  5
342
330
36
100
AcDbEntity
  8
001
 62
     3
100
AcDbText
 10
438.5236958470998
 20
-105.6998233496967
 30
0.0
 40
6.299999999999998
  1
L6W-S-E11
 41
0.8
  7
高6.3
100
AcDbText
  0
TEXT
  5
343
330
36
100
AcDbEntity
  8
001
 62
     3
100
AcDbText
 10
464.069491
 20
-66.8152
 30
0.0
 40
4.5
  1
12166
100
AcDbText
  0
TEXT
  5
1450
330
36
100
AcDbEntity
  8
001
 62
     3
100
AcDbText
 10
465.2028879999998
 20
-75.05933699999999
 30
0.0
 40
3.2
  1
設計
  7
高3.2
100
AcDbText
  0
TEXT
  5
1451
330
36
100
AcDbEntity
  8
001
 62
     3
100
AcDbText
 10
477.347029
 20
-71.254221
 30
0.0
 40
2.0
  1
DEF
  7
高2
100
AcDbText
  0
TEXT
  5
1452
330
36
100
AcDbEntity
  8
001
 62
     3
100
AcDbText
 10
438.3040939999998
 20
-71.254221
 30
0.0
 40
2.0
  1
APPD
  7
高2
100
AcDbText
  0
TEXT
  5
1453
330
36
100
AcDbEntity
  8
001
 62
     3
100
AcDbText
 10
451.3470289999998
 20
-71.254221
 30
0.0
 40
2.0
  1
CHCK
  7
高2
100
AcDbText
  0
LINE
  5
14FF
330
36
100
AcDbEntity
  8
001
 62
     3
100
AcDbLine
 10
296.312569
 20
31.15523999999999
 30
0.0
 11
295.824642
 21
31.15523999999999
 31
0.0
  0
CIRCLE
  5
153D
330
36
100
AcDbEntity
  8
0
 62
     3
100
AcDbCircle
 10
359.9822229914206
 20
101.4467532716913
 30
0.0
 40
25.0
  0
LINE
  5
153E
330
36
100
AcDbEntity
  8
0
  6
CENTERX2
100
AcDbLine
 10
359.9822229914206
 20
-29.61927652247869
 30
0.0
 11
359.9822229914206
 21
57.35458846518667
 31
0.0
  0
LINE
  5
153F
330
36
100
AcDbEntity
  8
0
  6
CENTERX2
100
AcDbLine
 10
392.3740152058708
 20
101.4467532716913
 30
0.0
 11
327.5904307769706
 21
101.4467532716913
 31
0.0
  0
LINE
  5
1540
330
36
100
AcDbEntity
  8
0
 62
     3
100
AcDbLine
 10
334.9822229914206
 20
51.4933166682033
 30
0.0
 11
384.9822229914207
 21
51.4933166682033
 31
0.0
  0
CIRCLE
  5
1541
330
36
100
AcDbEntity
  8
0
 62
     3
100
AcDbCircle
 10
359.9822229914206
 20
101.4467532716913
 30
0.0
 40
21.0
  0
CIRCLE
  5
1542
330
36
100
AcDbEntity
  8
0
 62
     3
100
AcDbCircle
 10
359.9822229914206
 20
101.4467532716913
 30
0.0
 40
13.0
  0
CIRCLE
  5
1543
330
36
100
AcDbEntity
  8
0
100
AcDbCircle
 10
359.9822229914206
 20
101.4467532716913
 30
0.0
 40
12.0
  0
LINE
  5
1546
330
36
100
AcDbEntity
  8
0
100
AcDbLine
 10
360.1822229914207
 20
114.4452147191089
 30
0.0
 11
360.1822229914207
 21
122.445800869142
 31
0.0
  0
LINE
  5
1547
330
36
100
AcDbEntity
  8
0
100
AcDbLine
 10
359.7822229914207
 20
114.4452147191089
 30
0.0
 11
359.7822229914207
 21
122.445800869142
 31
0.0
  0
LINE
  5
1548
330
36
100
AcDbEntity
  8
0
100
AcDbLine
 10
357.0840613737118
 20
114.1195848115502
 30
0.0
 11
355.4206459797252
 21
121.9453389586692
 31
0.0
  0
LINE
  5
1549
330
36
100
AcDbEntity
  8
0
100
AcDbLine
 10
357.4753204140054
 20
114.2027494878772
 30
0.0
 11
355.8119050200188
 21
122.0285036349963
 31
0.0
  0
LINE
  5
154A
330
36
100
AcDbEntity
  8
0
100
AcDbLine
 10
354.5125633256193
 20
113.2400913547069
 30
0.0
 11
351.2584317723161
 21
120.548990490548
 31
0.0
  0
LINE
  5
154B
330
36
100
AcDbEntity
  8
0
100
AcDbLine
 10
354.8779815086764
 20
113.4027860119372
 30
0.0
 11
351.6238499553732
 21
120.7116851477784
 31
0.0
  0
LINE
  5
154C
330
36
100
AcDbEntity
  8
0
100
AcDbLine
 10
352.1801156512613
 20
111.8451724329212
 30
0.0
 11
347.4774891025766
 21
118.3177825932588
 31
0.0
  0
LINE
  5
154D
330
36
100
AcDbEntity
  8
0
100
AcDbLine
 10
352.5037224490116
 20
112.0802865338382
 30
0.0
 11
347.8010959003266
 21
118.5528966941759
 31
0.0
  0
LINE
  5
154E
330
36
100
AcDbEntity
  8
0
100
AcDbLine
 10
350.1886575063332
 20
109.9957926966386
 30
0.0
 11
344.2430633081499
 21
115.3492297584365
 31
0.0
  0
LINE
  5
154F
330
36
100
AcDbEntity
  8
0
100
AcDbLine
 10
350.4563097488767
 20
110.2930506268296
 30
0.0
 11
344.5107155506935
 21
115.6464876886276
 31
0.0
  0
LINE
  5
1550
330
36
100
AcDbEntity
  8
0
100
AcDbLine
 10
348.6252251678445
 20
107.7727789146431
 30
0.0
 11
341.6965143167498
 21
111.7730719896598
 31
0.0
  0
LINE
  5
1551
330
36
100
AcDbEntity
  8
0
100
AcDbLine
 10
348.8252251678446
 20
108.119189076157
 30
0.0
 11
341.8965143167499
 21
112.1194821511735
 31
0.0
  0
LINE
  5
1552
330
36
100
AcDbEntity
  8
0
100
AcDbLine
 10
347.558148131168
 20
105.2732874564118
 30
0.0
 11
339.9491385389981
 21
107.7456045417328
 31
0.0
  0
LINE
  5
1553
330
36
100
AcDbEntity
  8
0
100
AcDbLine
 10
347.6817549289178
 20
105.65371006293
 30
0.0
 11
340.0727453367482
 21
108.1260271482511
 31
0.0
  0
LINE
  5
1554
330
36
100
AcDbEntity
  8
0
100
AcDbLine
 10
347.0340627832101
 20
102.6065580925601
 30
0.0
 11
339.0773046812219
 21
103.4428470680635
 31
0.0
  0
LINE
  5
1555
330
36
100
AcDbEntity
  8
0
100
AcDbLine
 10
347.0758741685171
 20
103.0043668507076
 30
0.0
 11
339.119116066529
 21
103.840655826211
 31
0.0
  0
LINE
  5
1556
330
36
100
AcDbEntity
  8
0
100
AcDbLine
 10
347.0758741685171
 20
99.88913969267528
 30
0.0
 11
339.119116066529
 21
99.05285071717187
 31
0.0
  0
LINE
  5
1557
330
36
100
AcDbEntity
  8
0
100
AcDbLine
 10
347.0340627832098
 20
100.2869484508227
 30
0.0
 11
339.0773046812219
 21
99.45065947531929
 31
0.0
  0
LINE
  5
1558
330
36
100
AcDbEntity
  8
0
100
AcDbLine
 10
347.6817549289178
 20
97.23979648045281
 30
0.0
 11
340.0727453367482
 21
94.76747939513165
 31
0.0
  0
LINE
  5
1559
330
36
100
AcDbEntity
  8
0
100
AcDbLine
 10
347.5581481311678
 20
97.62021908697093
 30
0.0
 11
339.9491385389981
 21
95.14790200164975
 31
0.0
  0
LINE
  5
155A
330
36
100
AcDbEntity
  8
0
100
AcDbLine
 10
348.8252251678446
 20
94.77431746722569
 30
0.0
 11
341.8965143167499
 21
90.77402439220907
 31
0.0
  0
LINE
  5
155B
330
36
100
AcDbEntity
  8
0
100
AcDbLine
 10
348.6252251678445
 20
95.12072762873954
 30
0.0
 11
341.6965143167498
 21
91.12043455372292
 31
0.0
  0
LINE
  5
155C
330
36
100
AcDbEntity
  8
0
100
AcDbLine
 10
350.4563097488767
 20
92.60045591655318
 30
0.0
 11
344.5107155506935
 21
87.24701885475521
 31
0.0
  0
LINE
  5
155D
330
36
100
AcDbEntity
  8
0
100
AcDbLine
 10
350.1886575063332
 20
92.8977138467442
 30
0.0
 11
344.2430633081499
 21
87.5442767849462
 31
0.0
  0
LINE
  5
155E
330
36
100
AcDbEntity
  8
0
100
AcDbLine
 10
352.5037224490114
 20
90.81322000954449
 30
0.0
 11
347.8010959003265
 21
84.34060984920682
 31
0.0
  0
LINE
  5
155F
330
36
100
AcDbEntity
  8
0
100
AcDbLine
 10
352.1801156512613
 20
91.04833411046149
 30
0.0
 11
347.4774891025764
 21
84.57572395012386
 31
0.0
  0
LINE
  5
1560
330
36
100
AcDbEntity
  8
0
100
AcDbLine
 10
354.8779815086764
 20
89.49072053144545
 30
0.0
 11
351.6238499553732
 21
82.18182139560434
 31
0.0
  0
LINE
  5
1561
330
36
100
AcDbEntity
  8
0
100
AcDbLine
 10
354.5125633256192
 20
89.65341518867578
 30
0.0
 11
351.2584317723161
 21
82.34451605283471
 31
0.0
  0
LINE
  5
1562
330
36
100
AcDbEntity
  8
0
100
AcDbLine
 10
357.4753204140054
 20
88.69075705550548
 30
0.0
 11
355.8119050200188
 21
80.86500290838641
 31
0.0
  0
LINE
  5
1563
330
36
100
AcDbEntity
  8
0
100
AcDbLine
 10
357.0840613737118
 20
88.7739217318326
 30
0.0
 11
355.4206459797253
 21
80.94816758471356
 31
0.0
  0
LINE
  5
1564
330
36
100
AcDbEntity
  8
0
100
AcDbLine
 10
360.1822229914207
 20
88.4482918242738
 30
0.0
 11
360.1822229914207
 21
80.44770567424064
 31
0.0
  0
LINE
  5
1565
330
36
100
AcDbEntity
  8
0
100
AcDbLine
 10
359.7822229914207
 20
88.4482918242738
 30
0.0
 11
359.7822229914207
 21
80.44770567424064
 31
0.0
  0
LINE
  5
1566
330
36
100
AcDbEntity
  8
0
100
AcDbLine
 10
362.8803846091293
 20
88.77392173183258
 30
0.0
 11
364.5438000031159
 21
80.94816758471353
 31
0.0
  0
LINE
  5
1567
330
36
100
AcDbEntity
  8
0
100
AcDbLine
 10
362.4891255688358
 20
88.69075705550542
 30
0.0
 11
364.1525409628223
 21
80.86500290838641
 31
0.0
  0
LINE
  5
1568
330
36
100
AcDbEntity
  8
0
100
AcDbLine
 10
365.4518826572222
 20
89.65341518867575
 30
0.0
 11
368.7060142105254
 21
82.34451605283465
 31
0.0
  0
LINE
  5
1569
330
36
100
AcDbEntity
  8
0
100
AcDbLine
 10
365.0864644741651
 20
89.49072053144538
 30
0.0
 11
368.3405960274682
 21
82.18182139560431
 31
0.0
  0
LINE
  5
156A
330
36
100
AcDbEntity
  8
0
100
AcDbLine
 10
367.7843303315799
 20
91.04833411046149
 30
0.0
 11
372.4869568802648
 21
84.5757239501238
 31
0.0
  0
LINE
  5
156B
330
36
100
AcDbEntity
  8
0
100
AcDbLine
 10
367.4607235338299
 20
90.81322000954449
 30
0.0
 11
372.1633500825146
 21
84.34060984920675
 31
0.0
  0
LINE
  5
156C
330
36
100
AcDbEntity
  8
0
100
AcDbLine
 10
369.7757884765084
 20
92.89771384674407
 30
0.0
 11
375.7213826746915
 21
87.54427678494606
 31
0.0
  0
LINE
  5
156D
330
36
100
AcDbEntity
  8
0
100
AcDbLine
 10
369.5081362339647
 20
92.60045591655307
 30
0.0
 11
375.453730432148
 21
87.24701885475521
 31
0.0
  0
LINE
  5
156E
330
36
100
AcDbEntity
  8
0
100
AcDbLine
 10
371.339220814997
 20
95.12072762873946
 30
0.0
 11
378.2679316660917
 21
91.12043455372292
 31
0.0
  0
LINE
  5
156F
330
36
100
AcDbEntity
  8
0
100
AcDbLine
 10
371.139220814997
 20
94.77431746722563
 30
0.0
 11
378.0679316660917
 21
90.77402439220907
 31
0.0
  0
LINE
  5
1570
330
36
100
AcDbEntity
  8
0
100
AcDbLine
 10
372.4062978516737
 20
97.6202190869708
 30
0.0
 11
380.0153074438433
 21
95.14790200164965
 31
0.0
  0
LINE
  5
1571
330
36
100
AcDbEntity
  8
0
100
AcDbLine
 10
372.2826910539235
 20
97.23979648045258
 30
0.0
 11
379.8917006460933
 21
94.76747939513144
 31
0.0
  0
LINE
  5
1572
330
36
100
AcDbEntity
  8
0
100
AcDbLine
 10
372.9303831996314
 20
100.2869484508226
 30
0.0
 11
380.8871413016195
 21
99.4506594753192
 31
0.0
  0
LINE
  5
1573
330
36
100
AcDbEntity
  8
0
100
AcDbLine
 10
372.8885718143243
 20
99.88913969267528
 30
0.0
 11
380.8453299163125
 21
99.05285071717187
 31
0.0
  0
LINE
  5
1574
330
36
100
AcDbEntity
  8
0
100
AcDbLine
 10
372.8885718143242
 20
103.0043668507073
 30
0.0
 11
380.8453299163125
 21
103.8406558262107
 31
0.0
  0
LINE
  5
1575
330
36
100
AcDbEntity
  8
0
100
AcDbLine
 10
372.9303831996314
 20
102.60655809256
 30
0.0
 11
380.8871413016195
 21
103.4428470680634
 31
0.0
  0
LINE
  5
1576
330
36
100
AcDbEntity
  8
0
100
AcDbLine
 10
372.2826910539235
 20
105.6537100629299
 30
0.0
 11
379.8917006460933
 21
108.1260271482509
 31
0.0
  0
LINE
  5
1577
330
36
100
AcDbEntity
  8
0
100
AcDbLine
 10
372.4062978516737
 20
105.2732874564118
 30
0.0
 11
380.0153074438433
 21
107.7456045417328
 31
0.0
  0
LINE
  5
1578
330
36
100
AcDbEntity
  8
0
100
AcDbLine
 10
371.1392208149969
 20
108.119189076157
 30
0.0
 11
378.0679316660916
 21
112.1194821511735
 31
0.0
  0
LINE
  5
1579
330
36
100
AcDbEntity
  8
0
100
AcDbLine
 10
371.3392208149969
 20
107.7727789146432
 30
0.0
 11
378.2679316660916
 21
111.7730719896597
 31
0.0
  0
LINE
  5
157A
330
36
100
AcDbEntity
  8
0
100
AcDbLine
 10
369.5081362339647
 20
110.2930506268296
 30
0.0
 11
375.453730432148
 21
115.6464876886276
 31
0.0
  0
LINE
  5
157B
330
36
100
AcDbEntity
  8
0
100
AcDbLine
 10
369.7757884765084
 20
109.9957926966386
 30
0.0
 11
375.7213826746915
 21
115.3492297584365
 31
0.0
  0
LINE
  5
157C
330
36
100
AcDbEntity
  8
0
100
AcDbLine
 10
367.4607235338299
 20
112.0802865338383
 30
0.0
 11
372.1633500825149
 21
118.5528966941759
 31
0.0
  0
LINE
  5
157D
330
36
100
AcDbEntity
  8
0
100
AcDbLine
 10
367.78433033158
 20
111.8451724329212
 30
0.0
 11
372.486956880265
 21
118.3177825932588
 31
0.0
  0
LINE
  5
157E
330
36
100
AcDbEntity
  8
0
100
AcDbLine
 10
365.0864644741648
 20
113.4027860119372
 30
0.0
 11
368.3405960274681
 21
120.7116851477784
 31
0.0
  0
LINE
  5
157F
330
36
100
AcDbEntity
  8
0
100
AcDbLine
 10
365.451882657222
 20
113.2400913547069
 30
0.0
 11
368.7060142105253
 21
120.548990490548
 31
0.0
  0
LINE
  5
1580
330
36
100
AcDbEntity
  8
0
100
AcDbLine
 10
362.4891255688359
 20
114.2027494878772
 30
0.0
 11
364.1525409628223
 21
122.0285036349963
 31
0.0
  0
LINE
  5
1581
330
36
100
AcDbEntity
  8
0
100
AcDbLine
 10
362.8803846091297
 20
114.1195848115501
 30
0.0
 11
364.5438000031161
 21
121.9453389586692
 31
0.0
  0
LINE
  5
1582
330
36
100
AcDbEntity
  8
0
 62
     3
100
AcDbLine
 10
334.9822229914206
 20
49.49331666820331
 30
0.0
 11
384.9822229914207
 21
49.49331666820331
 31
0.0
  0
LINE
  5
1583
330
36
100
AcDbEntity
  8
0
 62
     3
100
AcDbLine
 10
384.9822229914207
 20
49.4933166682033
 30
0.0
 11
384.9822229914207
 21
51.4933166682033
 31
0.0
  0
LINE
  5
1584
330
36
100
AcDbEntity
  8
0
 62
     3
100
AcDbLine
 10
334.9822229914206
 20
51.49331666820331
 30
0.0
 11
334.9822229914206
 21
49.49331666820331
 31
0.0
  0
LINE
  5
1585
330
36
100
AcDbEntity
  8
0
100
AcDbLine
 10
383.9822229914206
 20
48.49331666820329
 30
0.0
 11
380.8761006658482
 21
48.49331666820329
 31
0.0
  0
LINE
  5
1586
330
36
100
AcDbEntity
  8
0
100
AcDbLine
 10
383.9822229914206
 20
48.49331666820329
 30
0.0
 11
383.9822229914206
 21
49.49331666820331
 31
0.0
  0
LINE
  5
1587
330
36
100
AcDbEntity
  8
0
100
AcDbLine
 10
335.9822229914207
 20
48.49331666820329
 30
0.0
 11
335.9822229914207
 21
49.49331666820331
 31
0.0
  0
LINE
  5
1588
330
36
100
AcDbEntity
  8
0
 62
     3
100
AcDbLine
 10
376.2322229914208
 20
29.49331666820331
 30
0.0
 11
343.7322229914207
 21
29.49331666820331
 31
0.0
  0
LINE
  5
1599
330
36
100
AcDbEntity
  8
0
 62
     3
100
AcDbLine
 10
372.2862458657624
 20
-3.898637583113181
 30
0.0
 11
370.5350093959207
 21
-7.401110522796606
 31
0.0
  0
LINE
  5
159A
330
36
100
AcDbEntity
  8
0
 62
     3
100
AcDbLine
 10
368.7461550139209
 20
-8.506683331796692
 30
0.0
 11
351.2182909689205
 21
-8.506683331796692
 31
0.0
  0
LINE
  5
159B
330
36
100
AcDbEntity
  8
0
 62
     3
100
AcDbLine
 10
349.4294365869207
 20
-7.401110522796606
 30
0.0
 11
347.6782001170789
 21
-3.898637583113018
 31
0.0
  0
LINE
  5
15A1
330
36
100
AcDbEntity
  8
0
 62
     3
100
AcDbLine
 10
367.9822229914206
 20
-8.506683331796692
 30
0.0
 11
365.4822229914207
 21
-11.50668333179669
 31
0.0
  0
LINE
  5
15A2
330
36
100
AcDbEntity
  8
0
 62
     3
100
AcDbLine
 10
365.4822229914207
 20
-11.50668333179669
 30
0.0
 11
354.4822229914207
 21
-11.50668333179669
 31
0.0
  0
LINE
  5
15A3
330
36
100
AcDbEntity
  8
0
 62
     3
100
AcDbLine
 10
354.4822229914207
 20
-11.50668333179669
 30
0.0
 11
351.9822229914207
 21
-8.506683331796692
 31
0.0
  0
LINE
  5
15A7
330
36
100
AcDbEntity
  8
0
 62
     3
100
AcDbLine
 10
355.4631840857906
 20
-21.5066833317967
 30
0.0
 11
364.7462330417405
 21
-21.5066833317967
 31
0.0
  0
LINE
  5
15AD
330
36
100
AcDbEntity
  8
0
 62
     3
100
AcDbLine
 10
363.2322229914207
 20
-21.5066833317967
 30
0.0
 11
362.4822229914207
 21
-23.50668333179669
 31
0.0
  0
LINE
  5
15AE
330
36
100
AcDbEntity
  8
0
100
AcDbLine
 10
362.4822229914207
 20
-23.50668333179669
 30
0.0
 11
357.4822229914206
 21
-23.50668333179669
 31
0.0
  0
LINE
  5
15AF
330
36
100
AcDbEntity
  8
0
 62
     3
100
AcDbLine
 10
357.4822229914206
 20
-23.50668333179669
 30
0.0
 11
356.7322229914207
 21
-21.5066833317967
 31
0.0
  0
ARC
  5
15B0
330
36
100
AcDbEntity
  8
0
 62
     3
100
AcDbCircle
 10
359.9822229914206
 20
-20.88168333179674
 30
0.0
 40
3.624999999999963
100
AcDbArc
 50
226.3971810272955
 51
313.6028189727044
  0
LINE
  5
15B1
330
36
100
AcDbEntity
  8
0
100
AcDbLine
 10
365.4822229914207
 20
-14.00668333179669
 30
0.0
 11
354.4822229914207
 21
-14.00668333179669
 31
0.0
  0
LINE
  5
15B2
330
36
100
AcDbEntity
  8
0
 62
     3
100
AcDbLine
 10
365.4822229914207
 20
-11.50668333179669
 30
0.0
 11
365.4822229914207
 21
-14.00668333179669
 31
0.0
  0
LINE
  5
15B3
330
36
100
AcDbEntity
  8
0
 62
     3
100
AcDbLine
 10
354.4822229914207
 20
-11.50668333179669
 30
0.0
 11
354.4822229914207
 21
-14.90668333179668
 31
0.0
  0
ARC
  5
15BD
330
36
100
AcDbEntity
  8
0
 62
     3
100
AcDbCircle
 10
364.9822229914207
 20
-15.80668333179669
 30
0.0
 40
0.5
100
AcDbArc
 50
301.8907918018541
 51
58.10920819814583
  0
ARC
  5
15BF
330
36
100
AcDbEntity
  8
0
 62
     3
100
AcDbCircle
 10
364.9822229914207
 20
-19.4066833317967
 30
0.0
 40
0.5
100
AcDbArc
 50
301.8907918018442
 51
58.10920819815578
  0
ARC
  5
15C2
330
36
100
AcDbEntity
  8
0
 62
     3
100
AcDbCircle
 10
364.9822229914207
 20
-17.6066833317967
 30
0.0
 40
0.5
100
AcDbArc
 50
301.8907918018428
 51
58.10920819814583
  0
ARC
  5
15C9
330
36
100
AcDbEntity
  8
0
 62
     3
100
AcDbCircle
 10
354.9822229914207
 20
-14.90668333179668
 30
0.0
 40
0.5
100
AcDbArc
 50
180.0
 51
238.1092081981458
  0
ARC
  5
15CA
330
36
100
AcDbEntity
  8
0
 62
     3
100
AcDbCircle
 10
354.9822229914207
 20
-18.50668333179669
 30
0.0
 40
0.5
100
AcDbArc
 50
121.8907918018442
 51
238.1092081981558
  0
ARC
  5
15CC
330
36
100
AcDbEntity
  8
0
 62
     3
100
AcDbCircle
 10
354.9822229914207
 20
-16.70668333179669
 30
0.0
 40
0.5
100
AcDbArc
 50
121.8907918018541
 51
238.1092081981558
  0
ARC
  5
15CD
330
36
100
AcDbEntity
  8
0
 62
     3
100
AcDbCircle
 10
354.9822229914207
 20
-20.30668333179669
 30
0.0
 40
0.5
100
AcDbArc
 50
121.8907918018427
 51
238.1092081981558
  0
ARC
  5
15CE
330
36
100
AcDbEntity
  8
0
 62
     3
100
AcDbCircle
 10
364.9822229914207
 20
-14.00668333179668
 30
0.0
 40
0.5
100
AcDbArc
 50
301.8907918018542
 51
0.0
  0
ARC
  5
15D1
330
36
100
AcDbEntity
  8
0
 62
     3
100
AcDbCircle
 10
365.5422229914208
 20
-14.90668333179668
 30
0.0
 40
0.5600000000000103
100
AcDbArc
 50
121.8907918018425
 51
238.1092081981574
  0
ARC
  5
15D2
330
36
100
AcDbEntity
  8
0
 62
     3
100
AcDbCircle
 10
365.5422229914208
 20
-16.70668333179669
 30
0.0
 40
0.5600000000000071
100
AcDbArc
 50
121.8907918018426
 51
238.1092081981574
  0
ARC
  5
15D3
330
36
100
AcDbEntity
  8
0
 62
     3
100
AcDbCircle
 10
365.5422229914206
 20
-18.5066833317967
 30
0.0
 40
0.5600000000000006
100
AcDbArc
 50
121.8907918018426
 51
238.1092081981574
  0
ARC
  5
15D4
330
36
100
AcDbEntity
  8
0
 62
     3
100
AcDbCircle
 10
365.5422229914206
 20
-20.3066833317967
 30
0.0
 40
0.5600000000000006
100
AcDbArc
 50
121.8907918018426
 51
221.3286586465321
  0
ARC
  5
15D6
330
36
100
AcDbEntity
  8
0
 62
     3
100
AcDbCircle
 10
354.4222229914207
 20
-15.80668333179669
 30
0.0
 40
0.5600000000000071
100
AcDbArc
 50
301.8907918018426
 51
58.10920819815741
  0
ARC
  5
15D7
330
36
100
AcDbEntity
  8
0
 62
     3
100
AcDbCircle
 10
354.4222229914208
 20
-17.60668333179669
 30
0.0
 40
0.5600000000000006
100
AcDbArc
 50
301.8907918018426
 51
58.1092081981574
  0
ARC
  5
15D8
330
36
100
AcDbEntity
  8
0
 62
     3
100
AcDbCircle
 10
354.4222229914208
 20
-19.40668333179669
 30
0.0
 40
0.5600000000000006
100
AcDbArc
 50
301.8907918018426
 51
58.1092081981574
  0
ARC
  5
15D9
330
36
100
AcDbEntity
  8
0
 62
     3
100
AcDbCircle
 10
354.4222229914208
 20
-21.20668333179669
 30
0.0
 40
0.5599999999999943
100
AcDbArc
 50
10.87571649466733
 51
58.10920819815728
  0
LINE
  5
15DE
330
36
100
AcDbEntity
  8
0
100
AcDbLine
 10
365.246373934817
 20
-14.43121163368347
 30
0.0
 11
354.7180720480244
 21
-15.33121163368347
 31
0.0
  0
LINE
  5
15E0
330
36
100
AcDbEntity
  8
0
100
AcDbLine
 10
365.246373934817
 20
-15.38215502990994
 30
0.0
 11
354.7180720480244
 21
-16.28215502990994
 31
0.0
  0
LINE
  5
15E1
330
36
100
AcDbEntity
  8
0
100
AcDbLine
 10
365.246373934817
 20
-16.23121163368348
 30
0.0
 11
354.7180720480245
 21
-17.13121163368347
 31
0.0
  0
LINE
  5
15E2
330
36
100
AcDbEntity
  8
0
100
AcDbLine
 10
365.246373934817
 20
-17.18215502990994
 30
0.0
 11
354.7180720480245
 21
-18.08215502990991
 31
0.0
  0
LINE
  5
15E3
330
36
100
AcDbEntity
  8
0
100
AcDbLine
 10
365.2463739348169
 20
-18.0312116336835
 30
0.0
 11
354.7180720480245
 21
-18.93121163368349
 31
0.0
  0
LINE
  5
15E4
330
36
100
AcDbEntity
  8
0
100
AcDbLine
 10
365.2463739348169
 20
-18.98215502990992
 30
0.0
 11
354.7180720480245
 21
-19.88215502990991
 31
0.0
  0
LINE
  5
15E5
330
36
100
AcDbEntity
  8
0
100
AcDbLine
 10
365.2463739348169
 20
-19.8312116336835
 30
0.0
 11
354.7180720480245
 21
-20.7312116336835
 31
0.0
  0
LINE
  5
15E6
330
36
100
AcDbEntity
  8
0
100
AcDbLine
 10
365.1951583062269
 20
-20.78653314009583
 30
0.0
 11
356.7707598372735
 21
-21.5066833317967
 31
0.0
  0
ARC
  5
15E9
330
36
100
AcDbEntity
  8
0
 62
     3
100
AcDbCircle
 10
355.4631840857876
 20
-21.00668333180521
 30
0.0
 40
0.5
100
AcDbArc
 50
190.8757164937774
 51
270.0000000003517
  0
ARC
  5
15F0
330
36
100
AcDbEntity
  8
0
 62
     3
100
AcDbCircle
 10
364.7462330417405
 20
-21.0066833317967
 30
0.0
 40
0.5
100
AcDbArc
 50
270.0
 51
41.32865864652457
  0
ARC
  5
15F5
330
36
100
AcDbEntity
  8
0
100
AcDbCircle
 10
335.5943739129035
 20
49.4933166682033
 30
0.0
 40
45.292767388716
100
AcDbArc
 50
333.7958012053011
 51
0.0000000000004135
  0
ARC
  5
15F7
330
36
100
AcDbEntity
  8
0
100
AcDbCircle
 10
359.9822229914206
 20
101.4467532716913
 30
0.0
 40
16.25000000000011
100
AcDbArc
 50
90.7051966293215
 51
101.2948033706787
  0
ARC
  5
15FC
330
36
100
AcDbEntity
  8
0
100
AcDbCircle
 10
336.1484926303696
 20
49.49331666820331
 30
0.0
 40
44.69683728594293
100
AcDbArc
 50
333.4192305002614
 51
359.9999999999996
  0
ARC
  5
1601
330
36
100
AcDbEntity
  8
0
100
AcDbCircle
 10
333.4869169546426
 20
49.4933166682033
 30
0.0
 40
46.52839048920077
100
AcDbArc
 50
334.5422707011973
 51
0.0000000000005075
  0
ARC
  5
1606
330
36
100
AcDbEntity
  8
0
100
AcDbCircle
 10
333.3633101568933
 20
49.4933166682033
 30
0.0
 40
46.5283904892001
100
AcDbArc
 50
334.5422707011977
 51
359.9999999999997
  0
ARC
  5
160B
330
36
100
AcDbEntity
  8
0
100
AcDbCircle
 10
327.5948802910626
 20
49.4933166682033
 30
0.0
 40
50.6730513750291
100
AcDbArc
 50
336.7535389037787
 51
0.0000000000001205
  0
ARC
  5
1610
330
36
100
AcDbEntity
  8
0
100
AcDbCircle
 10
327.3948802910624
 20
49.49331666820327
 30
0.0
 40
50.67305137502922
100
AcDbArc
 50
336.7535389037784
 51
0.0000000000003455
  0
ARC
  5
1615
330
36
100
AcDbEntity
  8
0
100
AcDbCircle
 10
317.3014108015672
 20
49.49331666820331
 30
0.0
 40
58.41997187312438
100
AcDbArc
 50
339.9799671603736
 51
0.0000000000001324
  0
ARC
  5
161A
330
36
100
AcDbEntity
  8
0
100
AcDbCircle
 10
317.0337585590238
 20
49.49331666820331
 30
0.0
 40
58.41997187312415
100
AcDbArc
 50
339.9799671603738
 51
359.9999999999998
  0
ARC
  5
161F
330
36
100
AcDbEntity
  8
0
100
AcDbCircle
 10
299.4613312464992
 20
49.49331666820331
 30
0.0
 40
73.02562563376556
100
AcDbArc
 50
344.1049301599388
 51
359.9999999999998
  0
ARC
  5
1624
330
36
100
AcDbEntity
  8
0
100
AcDbCircle
 10
299.1377244487453
 20
49.49331666820331
 30
0.0
 40
73.02562563376929
100
AcDbArc
 50
344.1049301599393
 51
0.0
  0
ARC
  5
1629
330
36
100
AcDbEntity
  8
0
100
AcDbCircle
 10
264.2263059495109
 20
49.49331666820331
 30
0.0
 40
104.4797082610145
100
AcDbArc
 50
348.9640584738806
 51
359.9999999999996
  0
ARC
  5
162E
330
36
100
AcDbEntity
  8
0
100
AcDbCircle
 10
263.860887766454
 20
49.49331666820331
 30
0.0
 40
104.4797082610141
100
AcDbArc
 50
348.9640584738801
 51
0.0000000000000974
  0
ARC
  5
1638
330
36
100
AcDbEntity
  8
0
100
AcDbCircle
 10
161.1554608388551
 20
49.49331666820331
 30
0.0
 40
202.9970801239672
100
AcDbArc
 50
354.3458417464957
 51
0.0000000000001023
  0
LINE
  5
1639
330
36
100
AcDbEntity
  8
0
100
AcDbLine
 10
360.1822229914207
 20
29.49331666820331
 30
0.0
 11
360.1822229914207
 21
49.49331666820331
 31
0.0
  0
LINE
  5
163A
330
36
100
AcDbEntity
  8
0
100
AcDbLine
 10
359.7822229914207
 20
29.49331666820331
 30
0.0
 11
359.7822229914207
 21
49.49331666820331
 31
0.0
  0
ARC
  5
163B
330
36
100
AcDbEntity
  8
0
100
AcDbCircle
 10
384.3700720699379
 20
49.4933166682033
 30
0.0
 40
45.292767388716
100
AcDbArc
 50
179.9999999999996
 51
206.2041987947019
  0
ARC
  5
163C
330
36
100
AcDbEntity
  8
0
100
AcDbCircle
 10
383.8159533524719
 20
49.49331666820331
 30
0.0
 40
44.69683728594293
100
AcDbArc
 50
180.0000000000005
 51
206.5807694997416
  0
ARC
  5
163D
330
36
100
AcDbEntity
  8
0
100
AcDbCircle
 10
386.4775290281988
 20
49.4933166682033
 30
0.0
 40
46.52839048920077
100
AcDbArc
 50
179.9999999999995
 51
205.4577292988026
  0
ARC
  5
163E
330
36
100
AcDbEntity
  8
0
100
AcDbCircle
 10
386.6011358259482
 20
49.4933166682033
 30
0.0
 40
46.5283904892001
100
AcDbArc
 50
180.0000000000003
 51
205.4577292988025
  0
ARC
  5
163F
330
36
100
AcDbEntity
  8
0
100
AcDbCircle
 10
392.3695656917788
 20
49.4933166682033
 30
0.0
 40
50.6730513750291
100
AcDbArc
 50
179.9999999999998
 51
203.2464610962225
  0
ARC
  5
1640
330
36
100
AcDbEntity
  8
0
100
AcDbCircle
 10
392.569565691779
 20
49.49331666820327
 30
0.0
 40
50.67305137502922
100
AcDbArc
 50
179.9999999999996
 51
203.2464610962227
  0
ARC
  5
1641
330
36
100
AcDbEntity
  8
0
100
AcDbCircle
 10
402.6630351812742
 20
49.49331666820331
 30
0.0
 40
58.41997187312438
100
AcDbArc
 50
179.9999999999998
 51
200.0200328396255
  0
ARC
  5
1642
330
36
100
AcDbEntity
  8
0
100
AcDbCircle
 10
402.9306874238176
 20
49.49331666820331
 30
0.0
 40
58.41997187312415
100
AcDbArc
 50
180.0000000000002
 51
200.0200328396253
  0
ARC
  5
1643
330
36
100
AcDbEntity
  8
0
100
AcDbCircle
 10
420.5031147363421
 20
49.49331666820331
 30
0.0
 40
73.02562563376556
100
AcDbArc
 50
180.0000000000002
 51
195.8950698400612
  0
ARC
  5
1644
330
36
100
AcDbEntity
  8
0
100
AcDbCircle
 10
420.8267215340961
 20
49.49331666820331
 30
0.0
 40
73.02562563376929
100
AcDbArc
 50
180.0
 51
195.8950698400608
  0
ARC
  5
1645
330
36
100
AcDbEntity
  8
0
100
AcDbCircle
 10
455.7381400333305
 20
49.49331666820331
 30
0.0
 40
104.4797082610145
100
AcDbArc
 50
180.0000000000004
 51
191.0359415261194
  0
ARC
  5
1646
330
36
100
AcDbEntity
  8
0
100
AcDbCircle
 10
456.1035582163873
 20
49.49331666820331
 30
0.0
 40
104.4797082610141
100
AcDbArc
 50
179.9999999999999
 51
191.0359415261198
  0
ARC
  5
1648
330
36
100
AcDbEntity
  8
0
100
AcDbCircle
 10
558.8089851439863
 20
49.49331666820331
 30
0.0
 40
202.9970801239672
100
AcDbArc
 50
179.9999999999999
 51
185.6541582535044
  0
LINE
  5
1649
330
36
100
AcDbEntity
  8
0
100
AcDbLine
 10
380.8341420423011
 20
48.49331666820329
 30
0.0
 11
380.004560075458
 21
48.49331666820329
 31
0.0
  0
LINE
  5
164A
330
36
100
AcDbEntity
  8
0
100
AcDbLine
 10
379.880953277708
 20
48.49331666820329
 30
0.0
 11
378.2580635275742
 21
48.49331666820329
 31
0.0
  0
LINE
  5
164B
330
36
100
AcDbEntity
  8
0
100
AcDbLine
 10
378.058063527574
 20
48.49331666820331
 30
0.0
 11
375.7128233307694
 21
48.49331666820331
 31
0.0
  0
LINE
  5
164C
330
36
100
AcDbEntity
  8
0
100
AcDbLine
 10
375.4451710882258
 20
48.49331666820331
 30
0.0
 11
372.4801096476946
 21
48.49331666820331
 31
0.0
  0
LINE
  5
164D
330
36
100
AcDbEntity
  8
0
100
AcDbLine
 10
372.1565028499445
 20
48.49331666820331
 30
0.0
 11
368.7012284826561
 21
48.49331666820331
 31
0.0
  0
LINE
  5
164E
330
36
100
AcDbEntity
  8
0
100
AcDbLine
 10
368.3358102995989
 20
48.49331666820331
 30
0.0
 11
364.5413368985572
 21
48.49331666820331
 31
0.0
  0
LINE
  5
164F
330
36
100
AcDbEntity
  8
0
100
AcDbLine
 10
364.1500778582637
 20
48.49331666820331
 30
0.0
 11
360.1822229914207
 21
48.49331666820331
 31
0.0
  0
LINE
  5
1650
330
36
100
AcDbEntity
  8
0
100
AcDbLine
 10
359.7822229914207
 20
48.49331666820331
 30
0.0
 11
355.8143681245777
 21
48.49331666820329
 31
0.0
  0
LINE
  5
1651
330
36
100
AcDbEntity
  8
0
100
AcDbLine
 10
355.4231090842842
 20
48.49331666820329
 30
0.0
 11
351.6286356832426
 21
48.49331666820329
 31
0.0
  0
LINE
  5
1652
330
36
100
AcDbEntity
  8
0
100
AcDbLine
 10
351.2632175001853
 20
48.49331666820329
 30
0.0
 11
347.807943132897
 21
48.49331666820329
 31
0.0
  0
LINE
  5
1653
330
36
100
AcDbEntity
  8
0
100
AcDbLine
 10
347.4843363351468
 20
48.49331666820329
 30
0.0
 11
344.5192748946157
 21
48.49331666820329
 31
0.0
  0
LINE
  5
1654
330
36
100
AcDbEntity
  8
0
100
AcDbLine
 10
344.251622652072
 20
48.49331666820329
 30
0.0
 11
341.9063824552674
 21
48.49331666820329
 31
0.0
  0
LINE
  5
1655
330
36
100
AcDbEntity
  8
0
100
AcDbLine
 10
341.7063824552673
 20
48.49331666820329
 30
0.0
 11
340.0834927051334
 21
48.49331666820329
 31
0.0
  0
LINE
  5
1656
330
36
100
AcDbEntity
  8
0
100
AcDbLine
 10
339.9598859073834
 20
48.49331666820329
 30
0.0
 11
339.1303039405404
 21
48.49331666820329
 31
0.0
  0
LINE
  5
1657
330
36
100
AcDbEntity
  8
0
100
AcDbLine
 10
339.0883453169934
 20
48.49331666820329
 30
0.0
 11
335.9822229914207
 21
48.49331666820329
 31
0.0
  0
LINE
  5
1658
330
36
100
AcDbEntity
  8
0
100
AcDbLine
 10
375.7328647352773
 20
27.49331666820331
 30
0.0
 11
375.7223478814396
 21
27.49331666820331
 31
0.0
  0
LINE
  5
165B
330
36
100
AcDbEntity
  8
0
 62
     3
100
AcDbLine
 10
372.496351712442
 20
-3.068692980135172
 30
0.0
 11
372.7725455720658
 21
5.493316668203299
 31
0.0
  0
LINE
  5
165C
330
36
100
AcDbEntity
  8
0
 62
     3
100
AcDbLine
 10
347.4680942703993
 20
-3.068692980134998
 30
0.0
 11
347.1919004107756
 21
5.493316668203306
 31
0.0
  0
ARC
  5
1662
330
36
100
AcDbEntity
  8
0
 62
     3
100
AcDbCircle
 10
482.2443197656091
 20
1.961969113572866
 30
0.0
 40
109.5287166026961
100
AcDbArc
 50
165.4418822788858
 51
178.1523897340062
  0
ARC
  5
1663
330
36
100
AcDbEntity
  8
0
 62
     3
100
AcDbCircle
 10
237.7201262172323
 20
1.961969113572866
 30
0.0
 40
109.5287166026961
100
AcDbArc
 50
1.847610265993593
 51
14.55811772111534
  0
LINE
  5
16CF
330
36
100
AcDbEntity
  8
0
100
AcDbLine
 10
360.4822229914207
 20
27.49331666820331
 30
0.0
 11
360.2322229914207
 21
5.493316668203306
 31
0.0
  0
LINE
  5
16D0
330
36
100
AcDbEntity
  8
0
100
AcDbLine
 10
359.4822229914208
 20
27.49331666820331
 30
0.0
 11
359.7322229914208
 21
5.493316668203306
 31
0.0
  0
LINE
  5
16D3
330
36
100
AcDbEntity
  8
0
100
AcDbLine
 10
361.6305112097332
 20
27.49331666820331
 30
0.0
 11
361.4758341501586
 21
5.493316668203313
 31
0.0
  0
ARC
  5
16D6
330
36
100
AcDbEntity
  8
0
100
AcDbCircle
 10
1926.103214331407
 20
5.493316668203306
 30
0.0
 40
1564.627380181249
100
AcDbArc
 50
179.1943457565228
 51
179.9999999999992
  0
ARC
  5
16DB
330
36
100
AcDbEntity
  8
0
100
AcDbCircle
 10
734.5924055110726
 20
5.493316668203306
 30
0.0
 40
372.6212283878961
100
AcDbArc
 50
176.6152206852931
 51
180.0000000000004
  0
ARC
  5
16E0
330
36
100
AcDbEntity
  8
0
100
AcDbCircle
 10
798.3518680283054
 20
5.493316668203306
 30
0.0
 40
435.1602458692751
100
AcDbArc
 50
177.1021141323668
 51
179.9999999999996
  0
ARC
  5
16E5
330
36
100
AcDbEntity
  8
0
100
AcDbCircle
 10
597.3481056736826
 20
5.493316668203306
 30
0.0
 40
233.6750248709786
100
AcDbArc
 50
174.5977249056688
 51
180.0
  0
ARC
  5
16EA
330
36
100
AcDbEntity
  8
0
100
AcDbCircle
 10
620.6221054212001
 20
5.493316668203306
 30
0.0
 40
255.7744802873747
100
AcDbArc
 50
175.065705499463
 51
180.0000000000001
  0
ARC
  5
16EF
330
36
100
AcDbEntity
  8
0
100
AcDbCircle
 10
538.066793173786
 20
5.493316668203306
 30
0.0
 40
172.7605623892078
100
AcDbArc
 50
172.6838679877799
 51
180.0000000000003
  0
ARC
  5
16F4
330
36
100
AcDbEntity
  8
0
100
AcDbCircle
 10
550.1748884416326
 20
5.493316668203299
 30
0.0
 40
183.7618935692304
100
AcDbArc
 50
173.1240485372745
 51
180.0000000000004
  0
ARC
  5
16F9
330
36
100
AcDbEntity
  8
0
100
AcDbCircle
 10
506.0885867398747
 20
5.493316668203299
 30
0.0
 40
139.2483821651992
100
AcDbArc
 50
170.909690441956
 51
180.0000000000001
  0
ARC
  5
16FE
330
36
100
AcDbEntity
  8
0
100
AcDbCircle
 10
513.5325017459686
 20
5.493316668203308
 30
0.0
 40
145.6739302476446
100
AcDbArc
 50
171.3138297965895
 51
179.9999999999998
  0
ARC
  5
1703
330
36
100
AcDbEntity
  8
0
100
AcDbCircle
 10
486.8267105896662
 20
5.493316668203299
 30
0.0
 40
118.58028344599
100
AcDbArc
 50
169.3080642243181
 51
180.0
  0
ARC
  5
1708
330
36
100
AcDbEntity
  8
0
100
AcDbCircle
 10
491.8299838898441
 20
5.493316668203299
 30
0.0
 40
122.6725572356583
100
AcDbArc
 50
169.6687267324768
 51
179.9999999999998
  0
ARC
  5
170D
330
36
100
AcDbEntity
  8
0
100
AcDbCircle
 10
474.5206225474001
 20
5.493316668203306
 30
0.0
 40
105.0219193216049
100
AcDbArc
 50
167.9081146808518
 51
179.9999999999999
  0
ARC
  5
1712
330
36
100
AcDbEntity
  8
0
100
AcDbCircle
 10
478.0360757500903
 20
5.493316668203306
 30
0.0
 40
107.750710624128
100
AcDbArc
 50
168.2187921257803
 51
179.9999999999998
  0
ARC
  5
1717
330
36
100
AcDbEntity
  8
0
100
AcDbCircle
 10
466.4515649272748
 20
5.493316668203306
 30
0.0
 40
95.87785964025512
100
AcDbArc
 50
166.7348002875025
 51
179.9999999999997
  0
ARC
  5
171C
330
36
100
AcDbEntity
  8
0
100
AcDbCircle
 10
468.9465311547121
 20
5.493316668203299
 30
0.0
 40
97.72515560064631
100
AcDbArc
 50
166.9899973281948
 51
179.9999999999998
  0
ARC
  5
1721
330
36
100
AcDbEntity
  8
0
100
AcDbCircle
 10
461.1882584120635
 20
5.493316668203306
 30
0.0
 40
89.73685033913227
100
AcDbArc
 50
165.8086356472118
 51
179.9999999999995
  0
ARC
  5
1726
330
36
100
AcDbEntity
  8
0
100
AcDbCircle
 10
462.9114462748765
 20
5.493316668203299
 30
0.0
 40
90.96342443965591
100
AcDbArc
 50
166.003923535076
 51
179.9999999999994
  0
ARC
  5
172B
330
36
100
AcDbEntity
  8
0
100
AcDbCircle
 10
457.9306847078036
 20
5.493316668203299
 30
0.0
 40
85.81522306649764
100
AcDbArc
 50
165.1455307083885
 51
180.0
  0
ARC
  5
1730
330
36
100
AcDbEntity
  8
0
100
AcDbCircle
 10
459.0194265474222
 20
5.493316668203306
 30
0.0
 40
86.56765862334589
100
AcDbArc
 50
165.2775764608428
 51
180.0
  0
ARC
  5
1735
330
36
100
AcDbEntity
  8
0
100
AcDbCircle
 10
456.2297195183019
 20
5.493316668203306
 30
0.0
 40
83.67622358769926
100
AcDbArc
 50
164.7567129593516
 51
180.0000000000001
  0
ARC
  5
173A
330
36
100
AcDbEntity
  8
0
100
AcDbCircle
 10
456.7578527102283
 20
5.493316668203299
 30
0.0
 40
84.03462272610681
100
AcDbArc
 50
164.8232920451742
 51
180.0000000000001
  0
ARC
  5
173F
330
36
100
AcDbEntity
  8
0
100
AcDbCircle
 10
455.8588276497598
 20
5.493316668203306
 30
0.0
 40
83.10147645895586
100
AcDbArc
 50
164.6486995487481
 51
179.9999999999996
  0
LINE
  5
1740
330
36
100
AcDbEntity
  8
0
100
AcDbLine
 10
359.4822229914206
 20
27.49331666820331
 30
0.0
 11
359.7322229914206
 21
5.493316668203306
 31
0.0
  0
LINE
  5
1741
330
36
100
AcDbEntity
  8
0
100
AcDbLine
 10
358.3339347731083
 20
27.49331666820331
 30
0.0
 11
358.4886118326829
 21
5.493316668203313
 31
0.0
  0
ARC
  5
1742
330
36
100
AcDbEntity
  8
0
100
AcDbCircle
 10
-1206.138768348566
 20
5.493316668203306
 30
0.0
 40
1564.627380181249
100
AcDbArc
 50
0.0000000000007703
 51
0.8056542434770969
  0
ARC
  5
1743
330
36
100
AcDbEntity
  8
0
100
AcDbCircle
 10
-14.62795952823148
 20
5.493316668203306
 30
0.0
 40
372.6212283878961
100
AcDbArc
 50
359.9999999999996
 51
3.384779314707091
  0
ARC
  5
1744
330
36
100
AcDbEntity
  8
0
100
AcDbCircle
 10
-78.38742204546406
 20
5.493316668203306
 30
0.0
 40
435.1602458692751
100
AcDbArc
 50
0.0000000000003632
 51
2.897885867632866
  0
ARC
  5
1745
330
36
100
AcDbEntity
  8
0
100
AcDbCircle
 10
122.6163403091588
 20
5.493316668203306
 30
0.0
 40
233.6750248709786
100
AcDbArc
 50
0.000000000000007
 51
5.402275094330576
  0
ARC
  5
1746
330
36
100
AcDbEntity
  8
0
100
AcDbCircle
 10
99.34234056164131
 20
5.493316668203306
 30
0.0
 40
255.7744802873747
100
AcDbArc
 50
359.9999999999998
 51
4.934294500537371
  0
ARC
  5
1747
330
36
100
AcDbEntity
  8
0
100
AcDbCircle
 10
181.8976528090554
 20
5.493316668203306
 30
0.0
 40
172.7605623892078
100
AcDbArc
 50
359.9999999999997
 51
7.316132012219424
  0
ARC
  5
1748
330
36
100
AcDbEntity
  8
0
100
AcDbCircle
 10
169.7895575412087
 20
5.493316668203299
 30
0.0
 40
183.7618935692304
100
AcDbArc
 50
359.9999999999996
 51
6.875951462724898
  0
ARC
  5
1749
330
36
100
AcDbEntity
  8
0
100
AcDbCircle
 10
213.8758592429667
 20
5.493316668203299
 30
0.0
 40
139.2483821651992
100
AcDbArc
 50
359.9999999999998
 51
9.090309558043584
  0
ARC
  5
174A
330
36
100
AcDbEntity
  8
0
100
AcDbCircle
 10
206.4319442368728
 20
5.493316668203308
 30
0.0
 40
145.6739302476446
100
AcDbArc
 50
0.0000000000001342
 51
8.686170203411307
  0
ARC
  5
174B
330
36
100
AcDbEntity
  8
0
100
AcDbCircle
 10
233.1377353931752
 20
5.493316668203299
 30
0.0
 40
118.58028344599
100
AcDbArc
 50
0.000000000000007
 51
10.69193577568255
  0
ARC
  5
174C
330
36
100
AcDbEntity
  8
0
100
AcDbCircle
 10
228.1344620929972
 20
5.493316668203299
 30
0.0
 40
122.6725572356583
100
AcDbArc
 50
0.0000000000001342
 51
10.33127326752316
  0
ARC
  5
174D
330
36
100
AcDbEntity
  8
0
100
AcDbCircle
 10
245.4438234354412
 20
5.493316668203306
 30
0.0
 40
105.0219193216049
100
AcDbArc
 50
0.0000000000000579
 51
12.09188531914747
  0
ARC
  5
174E
330
36
100
AcDbEntity
  8
0
100
AcDbCircle
 10
241.928370232751
 20
5.493316668203306
 30
0.0
 40
107.750710624128
100
AcDbArc
 50
0.0000000000001851
 51
11.78120787421849
  0
ARC
  5
174F
330
36
100
AcDbEntity
  8
0
100
AcDbCircle
 10
253.5128810555666
 20
5.493316668203306
 30
0.0
 40
95.87785964025512
100
AcDbArc
 50
0.0000000000002869
 51
13.26519971249794
  0
ARC
  5
1750
330
36
100
AcDbEntity
  8
0
100
AcDbCircle
 10
251.0179148281293
 20
5.493316668203299
 30
0.0
 40
97.72515560064631
100
AcDbArc
 50
0.000000000000236
 51
13.01000267180503
  0
ARC
  5
1751
330
36
100
AcDbEntity
  8
0
100
AcDbCircle
 10
258.7761875707778
 20
5.493316668203306
 30
0.0
 40
89.73685033913227
100
AcDbArc
 50
0.0000000000004905
 51
14.19136435278733
  0
ARC
  5
1752
330
36
100
AcDbEntity
  8
0
100
AcDbCircle
 10
257.0529997079649
 20
5.493316668203299
 30
0.0
 40
90.96342443965591
100
AcDbArc
 50
0.0000000000005668
 51
13.99607646492367
  0
ARC
  5
1753
330
36
100
AcDbEntity
  8
0
100
AcDbCircle
 10
262.0337612750376
 20
5.493316668203299
 30
0.0
 40
85.81522306649764
100
AcDbArc
 50
360.0
 51
14.85446929161011
  0
ARC
  5
1754
330
36
100
AcDbEntity
  8
0
100
AcDbCircle
 10
260.9450194354192
 20
5.493316668203306
 30
0.0
 40
86.56765862334589
100
AcDbArc
 50
360.0
 51
14.72242353915842
  0
ARC
  5
1755
330
36
100
AcDbEntity
  8
0
100
AcDbCircle
 10
263.7347264645395
 20
5.493316668203306
 30
0.0
 40
83.67622358769926
100
AcDbArc
 50
360.0
 51
15.24328704064729
  0
ARC
  5
1756
330
36
100
AcDbEntity
  8
0
100
AcDbCircle
 10
263.2065932726129
 20
5.493316668203299
 30
0.0
 40
84.03462272610681
100
AcDbArc
 50
359.9999999999998
 51
15.17670795482572
  0
ARC
  5
1757
330
36
100
AcDbEntity
  8
0
100
AcDbCircle
 10
264.1056183330816
 20
5.493316668203306
 30
0.0
 40
83.10147645895586
100
AcDbArc
 50
0.0000000000003378
 51
15.3513004512499
  0
LINE
  5
1758
330
36
100
AcDbEntity
  8
0
100
AcDbLine
 10
359.4822229914208
 20
27.4933166682033
 30
0.0
 11
358.3339347731081
 21
27.4933166682033
 31
0.0
  0
LINE
  5
1759
330
36
100
AcDbEntity
  8
0
100
AcDbLine
 10
361.6305112097332
 20
27.49331666820331
 30
0.0
 11
360.4822229914207
 21
27.49331666820331
 31
0.0
  0
LINE
  5
175A
330
36
100
AcDbEntity
  8
0
100
AcDbLine
 10
363.7480949372194
 20
27.49331666820331
 30
0.0
 11
362.6211971557693
 21
27.49331666820331
 31
0.0
  0
LINE
  5
175B
330
36
100
AcDbEntity
  8
0
100
AcDbLine
 10
365.7955275956589
 20
27.49331666820331
 30
0.0
 11
364.7110122245672
 21
27.49331666820331
 31
0.0
  0
LINE
  5
175C
330
36
100
AcDbEntity
  8
0
100
AcDbLine
 10
367.7346693885162
 20
27.49331666820332
 30
0.0
 11
366.7127388971644
 21
27.49331666820331
 31
0.0
  0
LINE
  5
175D
330
36
100
AcDbEntity
  8
0
100
AcDbLine
 10
369.5293977731874
 20
27.49331666820332
 30
0.0
 11
368.5890887930626
 21
27.49331666820332
 31
0.0
  0
LINE
  5
175E
330
36
100
AcDbEntity
  8
0
100
AcDbLine
 10
371.1462803556227
 20
27.49331666820332
 30
0.0
 11
370.3051090638919
 21
27.49331666820332
 31
0.0
  0
LINE
  5
175F
330
36
100
AcDbEntity
  8
0
100
AcDbLine
 10
372.5551976725707
 20
27.49331666820332
 30
0.0
 11
371.8288334988414
 21
27.49331666820332
 31
0.0
  0
LINE
  5
1760
330
36
100
AcDbEntity
  8
0
100
AcDbLine
 10
373.7299042601907
 20
27.49331666820332
 30
0.0
 11
373.1318779946856
 21
27.49331666820332
 31
0.0
  0
LINE
  5
1761
330
36
100
AcDbEntity
  8
0
100
AcDbLine
 10
374.648517557385
 20
27.49331666820331
 30
0.0
 11
374.1899692979217
 21
27.49331666820331
 31
0.0
  0
LINE
  5
1762
330
36
100
AcDbEntity
  8
0
100
AcDbLine
 10
375.2939255365106
 20
27.49331666820331
 30
0.0
 11
374.9833971695561
 21
27.49331666820331
 31
0.0
  0
LINE
  5
1763
330
36
100
AcDbEntity
  8
0
100
AcDbLine
 10
375.654105468075
 20
27.49331666820331
 30
0.0
 11
375.4973815495632
 21
27.49331666820331
 31
0.0
  0
LINE
  5
1764
330
36
100
AcDbEntity
  8
0
100
AcDbLine
 10
357.343248827072
 20
27.49331666820331
 30
0.0
 11
356.216351045622
 21
27.49331666820331
 31
0.0
  0
LINE
  5
1765
330
36
100
AcDbEntity
  8
0
100
AcDbLine
 10
355.2534337582741
 20
27.49331666820331
 30
0.0
 11
354.1689183871826
 21
27.49331666820331
 31
0.0
  0
LINE
  5
1766
330
36
100
AcDbEntity
  8
0
100
AcDbLine
 10
353.251707085677
 20
27.49331666820331
 30
0.0
 11
352.2297765943254
 21
27.49331666820332
 31
0.0
  0
LINE
  5
1767
330
36
100
AcDbEntity
  8
0
100
AcDbLine
 10
351.3753571897788
 20
27.49331666820332
 30
0.0
 11
350.435048209654
 21
27.49331666820332
 31
0.0
  0
LINE
  5
1768
330
36
100
AcDbEntity
  8
0
100
AcDbLine
 10
349.6593369189495
 20
27.49331666820332
 30
0.0
 11
348.8181656272187
 21
27.49331666820331
 31
0.0
  0
LINE
  5
1769
330
36
100
AcDbEntity
  8
0
100
AcDbLine
 10
348.135612484
 20
27.49331666820331
 30
0.0
 11
347.4092483102709
 21
27.49331666820332
 31
0.0
  0
LINE
  5
176A
330
36
100
AcDbEntity
  8
0
100
AcDbLine
 10
346.8325679881558
 20
27.49331666820331
 30
0.0
 11
346.2345417226509
 21
27.49331666820331
 31
0.0
  0
LINE
  5
176B
330
36
100
AcDbEntity
  8
0
100
AcDbLine
 10
345.7744766849196
 20
27.49331666820331
 30
0.0
 11
345.3159284254564
 21
27.49331666820331
 31
0.0
  0
LINE
  5
176C
330
36
100
AcDbEntity
  8
0
100
AcDbLine
 10
344.9810488132853
 20
27.49331666820331
 30
0.0
 11
344.6705204463308
 21
27.49331666820331
 31
0.0
  0
LINE
  5
176D
330
36
100
AcDbEntity
  8
0
100
AcDbLine
 10
344.4670644332782
 20
27.49331666820331
 30
0.0
 11
344.3103405147664
 21
27.4933166682033
 31
0.0
  0
LINE
  5
176E
330
36
100
AcDbEntity
  8
0
100
AcDbLine
 10
344.2420981014018
 20
27.49331666820331
 30
0.0
 11
344.2315812475641
 21
27.4933166682033
 31
0.0
  0
ARC
  5
176F
330
36
100
AcDbEntity
  8
0
 62
     3
100
AcDbCircle
 10
370.4973914837626
 20
-3.004210392113265
 30
0.0
 40
2.0
100
AcDbArc
 50
333.4349488229221
 51
358.1523897340057
  0
ARC
  5
1770
330
36
100
AcDbEntity
  8
0
 62
     3
100
AcDbCircle
 10
368.7461550139209
 20
-6.506683331796693
 30
0.0
 40
2.0
100
AcDbArc
 50
270.0
 51
333.4349488229222
  0
ARC
  5
1771
330
36
100
AcDbEntity
  8
0
 62
     3
100
AcDbCircle
 10
351.2182909689205
 20
-6.506683331796693
 30
0.0
 40
2.0
100
AcDbArc
 50
206.5650511770779
 51
270.0
  0
ARC
  5
1772
330
36
100
AcDbEntity
  8
0
 62
     3
100
AcDbCircle
 10
349.4670544990787
 20
-3.004210392113089
 30
0.0
 40
2.0
100
AcDbArc
 50
181.8476102659944
 51
206.5650511770782
  0
LINE
  5
17BF
330
36
100
AcDbEntity
  8
0
100
AcDbLine
 10
348.5880752038525
 20
97.68199614870788
 30
0.0
 11
351.0247737900545
 21
93.46151039467482
 31
0.0
  0
LINE
  5
1808
330
36
100
AcDbEntity
  8
0
100
AcDbLine
 10
371.9587625584241
 20
102.1967532716913
 30
0.0
 11
348.0056834244174
 21
102.1967532716913
 31
0.0
  0
LINE
  5
180A
330
36
100
AcDbEntity
  8
0
100
AcDbLine
 10
371.769398225547
 20
103.6967532716913
 30
0.0
 11
348.1950477572945
 21
103.6967532716913
 31
0.0
  0
LINE
  5
180C
330
36
100
AcDbEntity
  8
0
100
AcDbLine
 10
371.3812361065988
 20
105.1967532716913
 30
0.0
 11
348.5832098762427
 21
105.1967532716913
 31
0.0
  0
LINE
  5
180E
330
36
100
AcDbEntity
  8
0
100
AcDbLine
 10
370.7728439188743
 20
106.6967532716913
 30
0.0
 11
349.1916020639671
 21
106.6967532716913
 31
0.0
  0
LINE
  5
1810
330
36
100
AcDbEntity
  8
0
100
AcDbLine
 10
369.9037904079129
 20
108.1967532716913
 30
0.0
 11
350.0606555749286
 21
108.1967532716913
 31
0.0
  0
LINE
  5
1812
330
36
100
AcDbEntity
  8
0
100
AcDbLine
 10
368.6964355203873
 20
109.6967532716913
 30
0.0
 11
351.2680104624541
 21
109.6967532716913
 31
0.0
  0
LINE
  5
1814
330
36
100
AcDbEntity
  8
0
100
AcDbLine
 10
366.9777572812374
 20
111.1967532716913
 30
0.0
 11
352.9866887016042
 21
111.1967532716913
 31
0.0
  0
LINE
  5
1816
330
36
100
AcDbEntity
  8
0
100
AcDbLine
 10
364.1580462635433
 20
112.6967532716913
 30
0.0
 11
355.8063997192982
 21
112.6967532716913
 31
0.0
  0
LINE
  5
1819
330
36
100
AcDbEntity
  8
0
100
AcDbLine
 10
365.3209737220842
 20
112.1937407861459
 30
0.0
 11
353.3444341550806
 21
91.44976575723685
 31
0.0
  0
LINE
  5
181B
330
36
100
AcDbEntity
  8
0
100
AcDbLine
 10
363.9272534499689
 20
112.7797464633035
 30
0.0
 11
352.1400782158425
 21
92.36376008007916
 31
0.0
  0
LINE
  5
181D
330
36
100
AcDbEntity
  8
0
100
AcDbLine
 10
362.4341342848181
 20
113.1935882075075
 30
0.0
 11
351.0351211696402
 21
93.44991833587526
 31
0.0
  0
LINE
  5
181F
330
36
100
AcDbEntity
  8
0
100
AcDbLine
 10
360.8309000852793
 20
113.4167051174742
 30
0.0
 11
350.0402791578256
 21
94.72680142590844
 31
0.0
  0
LINE
  5
1821
330
36
100
AcDbEntity
  8
0
100
AcDbLine
 10
359.0973352241217
 20
113.4140826997336
 30
0.0
 11
349.1757678076297
 21
96.22942384364927
 31
0.0
  0
LINE
  5
1823
330
36
100
AcDbEntity
  8
0
100
AcDbLine
 10
357.1946196746825
 20
113.1184826957532
 30
0.0
 11
348.4804071457157
 21
98.02502384762954
 31
0.0
  0
LINE
  5
1825
330
36
100
AcDbEntity
  8
0
100
AcDbLine
 10
355.0362424494307
 20
112.3800636797176
 30
0.0
 11
348.0407081596141
 21
100.2634428636651
 31
0.0
  0
LINE
  5
1827
330
36
100
AcDbEntity
  8
0
100
AcDbLine
 10
352.3273488349071
 20
110.6881223070638
 30
0.0
 11
348.1515255627845
 21
103.455384236319
 31
0.0
  0
LINE
  5
1829
330
36
100
AcDbEntity
  8
0
100
AcDbLine
 10
353.3444341550806
 20
111.4437407861458
 30
0.0
 11
365.3209737220842
 21
90.69976575723684
 31
0.0
  0
LINE
  5
182B
330
36
100
AcDbEntity
  8
0
100
AcDbLine
 10
352.1400782158425
 20
110.5297464633034
 30
0.0
 11
363.9272534499688
 21
90.11376008007921
 31
0.0
  0
LINE
  5
182D
330
36
100
AcDbEntity
  8
0
100
AcDbLine
 10
351.0351211696402
 20
109.4435882075075
 30
0.0
 11
362.4341342848181
 21
89.69991833587517
 31
0.0
  0
LINE
  5
182F
330
36
100
AcDbEntity
  8
0
100
AcDbLine
 10
350.0402791578256
 20
108.1667051174741
 30
0.0
 11
360.8309000852792
 21
89.47680142590851
 31
0.0
  0
LINE
  5
1831
330
36
100
AcDbEntity
  8
0
100
AcDbLine
 10
349.1757678076297
 20
106.6640826997334
 30
0.0
 11
359.0973352241217
 21
89.47942384364914
 31
0.0
  0
LINE
  5
1833
330
36
100
AcDbEntity
  8
0
100
AcDbLine
 10
348.4804071457157
 20
104.868482695753
 30
0.0
 11
357.1946196746824
 21
89.77502384762955
 31
0.0
  0
LINE
  5
1835
330
36
100
AcDbEntity
  8
0
100
AcDbLine
 10
348.0407081596141
 20
102.6300636797174
 30
0.0
 11
355.0362424494307
 21
90.513442863665
 31
0.0
  0
LINE
  5
1837
330
36
100
AcDbEntity
  8
0
100
AcDbLine
 10
348.1515255627845
 20
99.4381223070637
 30
0.0
 11
352.327348834907
 21
92.20538423631909
 31
0.0
  0
LINE
  5
1838
330
36
100
AcDbEntity
  8
0
  6
CENTERX2
100
AcDbLine
 10
392.3740152058708
 20
101.4467532716913
 30
0.0
 11
327.5904307769706
 21
101.4467532716914
 31
0.0
  0
LINE
  5
1839
330
36
100
AcDbEntity
  8
0
100
AcDbLine
 10
371.9587625584241
 20
100.6967532716914
 30
0.0
 11
348.0056834244174
 21
100.6967532716914
 31
0.0
  0
LINE
  5
183B
330
36
100
AcDbEntity
  8
0
100
AcDbLine
 10
371.769398225547
 20
99.19675327169137
 30
0.0
 11
348.1950477572945
 21
99.19675327169137
 31
0.0
  0
LINE
  5
183D
330
36
100
AcDbEntity
  8
0
100
AcDbLine
 10
371.3812361065988
 20
97.69675327169139
 30
0.0
 11
348.5832098762427
 21
97.69675327169139
 31
0.0
  0
LINE
  5
183F
330
36
100
AcDbEntity
  8
0
100
AcDbLine
 10
370.7728439188743
 20
96.19675327169138
 30
0.0
 11
349.1916020639671
 21
96.19675327169138
 31
0.0
  0
LINE
  5
1841
330
36
100
AcDbEntity
  8
0
100
AcDbLine
 10
369.903790407913
 20
94.69675327169138
 30
0.0
 11
350.0606555749284
 21
94.69675327169138
 31
0.0
  0
LINE
  5
1843
330
36
100
AcDbEntity
  8
0
100
AcDbLine
 10
368.6964355203875
 20
93.19675327169138
 30
0.0
 11
351.268010462454
 21
93.19675327169138
 31
0.0
  0
LINE
  5
1845
330
36
100
AcDbEntity
  8
0
100
AcDbLine
 10
366.9777572812374
 20
91.69675327169136
 30
0.0
 11
352.9866887016042
 21
91.69675327169136
 31
0.0
  0
LINE
  5
1847
330
36
100
AcDbEntity
  8
0
100
AcDbLine
 10
364.1580462635433
 20
90.19675327169137
 30
0.0
 11
355.8063997192982
 21
90.19675327169137
 31
0.0
  0
LINE
  5
1849
330
36
100
AcDbEntity
  8
0
100
AcDbLine
 10
366.6200118277608
 20
111.4437407861458
 30
0.0
 11
354.6434722607572
 21
90.69976575723684
 31
0.0
  0
LINE
  5
184B
330
36
100
AcDbEntity
  8
0
100
AcDbLine
 10
367.8243677669989
 20
110.5297464633035
 30
0.0
 11
356.0371925328726
 21
90.11376008007923
 31
0.0
  0
LINE
  5
184D
330
36
100
AcDbEntity
  8
0
100
AcDbLine
 10
368.9293248132013
 20
109.4435882075075
 30
0.0
 11
357.5303116980233
 21
89.69991833587519
 31
0.0
  0
LINE
  5
184F
330
36
100
AcDbEntity
  8
0
100
AcDbLine
 10
369.9241668250158
 20
108.1667051174743
 30
0.0
 11
359.1335458975621
 21
89.47680142590851
 31
0.0
  0
LINE
  5
1851
330
36
100
AcDbEntity
  8
0
100
AcDbLine
 10
370.7886781752118
 20
106.6640826997336
 30
0.0
 11
360.8671107587195
 21
89.47942384364914
 31
0.0
  0
LINE
  5
1853
330
36
100
AcDbEntity
  8
0
100
AcDbLine
 10
371.4840388371257
 20
104.8684826957531
 30
0.0
 11
362.7698263081589
 21
89.77502384762953
 31
0.0
  0
LINE
  5
1855
330
36
100
AcDbEntity
  8
0
100
AcDbLine
 10
371.9237378232273
 20
102.6300636797176
 30
0.0
 11
364.9282035334106
 21
90.51344286366498
 31
0.0
  0
LINE
  5
1857
330
36
100
AcDbEntity
  8
0
100
AcDbLine
 10
371.8129204200569
 20
99.43812230706363
 30
0.0
 11
367.6370971479345
 21
92.20538423631905
 31
0.0
  0
LINE
  5
1859
330
36
100
AcDbEntity
  8
0
100
AcDbLine
 10
354.6434722607572
 20
112.1937407861459
 30
0.0
 11
366.6200118277607
 21
91.44976575723687
 31
0.0
  0
LINE
  5
185B
330
36
100
AcDbEntity
  8
0
100
AcDbLine
 10
356.0371925328724
 20
112.7797464633035
 30
0.0
 11
367.8243677669989
 21
92.36376008007914
 31
0.0
  0
LINE
  5
185D
330
36
100
AcDbEntity
  8
0
100
AcDbLine
 10
357.5303116980233
 20
113.1935882075075
 30
0.0
 11
368.9293248132013
 21
93.44991833587533
 31
0.0
  0
LINE
  5
185F
330
36
100
AcDbEntity
  8
0
100
AcDbLine
 10
359.1335458975621
 20
113.4167051174742
 30
0.0
 11
369.9241668250157
 21
94.72680142590849
 31
0.0
  0
LINE
  5
1861
330
36
100
AcDbEntity
  8
0
100
AcDbLine
 10
360.8671107587197
 20
113.4140826997336
 30
0.0
 11
370.7886781752118
 21
96.22942384364923
 31
0.0
  0
LINE
  5
1863
330
36
100
AcDbEntity
  8
0
100
AcDbLine
 10
362.7698263081589
 20
113.1184826957532
 30
0.0
 11
371.4840388371257
 21
98.02502384762954
 31
0.0
  0
LINE
  5
1865
330
36
100
AcDbEntity
  8
0
100
AcDbLine
 10
364.9282035334107
 20
112.3800636797176
 30
0.0
 11
371.9237378232273
 21
100.2634428636651
 31
0.0
  0
LINE
  5
1867
330
36
100
AcDbEntity
  8
0
100
AcDbLine
 10
367.6370971479343
 20
110.6881223070638
 30
0.0
 11
371.8129204200569
 21
103.455384236319
 31
0.0
  0
LINE
  5
188A
330
36
100
AcDbEntity
  8
0
  6
CENTERX2
100
AcDbLine
 10
359.9822229914206
 20
69.05496105724127
 30
0.0
 11
359.9822229914206
 21
133.8385454861414
 31
0.0
  0
ARC
  5
18F0
330
36
100
AcDbEntity
  8
0
100
AcDbCircle
 10
161.546719879171
 20
49.49331666820331
 30
0.0
 40
202.9970801239448
100
AcDbArc
 50
354.3458417464953
 51
359.9999999999998
  0
ARC
  5
18F1
330
36
100
AcDbEntity
  8
0
100
AcDbCircle
 10
558.4177261036703
 20
49.49331666820331
 30
0.0
 40
202.9970801239448
100
AcDbArc
 50
180.0000000000001
 51
185.6541582535048
  0
ARC
  5
1924
330
36
100
AcDbEntity
  8
0
100
AcDbCircle
 10
359.9822229914206
 20
101.4467532716913
 30
0.0
 40
16.25000000000011
100
AcDbArc
 50
78.70519662932167
 51
89.29480337067849
  0
ARC
  5
1925
330
36
100
AcDbEntity
  8
0
100
AcDbCircle
 10
359.9822229914206
 20
101.4467532716913
 30
0.0
 40
16.25000000000011
100
AcDbArc
 50
66.70519662932186
 51
77.2948033706784
  0
ARC
  5
1926
330
36
100
AcDbEntity
  8
0
100
AcDbCircle
 10
359.9822229914206
 20
101.4467532716913
 30
0.0
 40
16.25000000000011
100
AcDbArc
 50
54.70519662932153
 51
65.29480337067889
  0
ARC
  5
1927
330
36
100
AcDbEntity
  8
0
100
AcDbCircle
 10
359.9822229914206
 20
101.4467532716913
 30
0.0
 40
16.25000000000011
100
AcDbArc
 50
42.70519662932153
 51
53.29480337067863
  0
ARC
  5
1928
330
36
100
AcDbEntity
  8
0
100
AcDbCircle
 10
359.9822229914206
 20
101.4467532716913
 30
0.0
 40
16.25000000000011
100
AcDbArc
 50
30.70519662932167
 51
41.29480337067842
  0
ARC
  5
1929
330
36
100
AcDbEntity
  8
0
100
AcDbCircle
 10
359.9822229914206
 20
101.4467532716913
 30
0.0
 40
16.25000000000011
100
AcDbArc
 50
18.70519662932103
 51
29.29480337067857
  0
ARC
  5
192A
330
36
100
AcDbEntity
  8
0
100
AcDbCircle
 10
359.9822229914206
 20
101.4467532716913
 30
0.0
 40
16.25000000000011
100
AcDbArc
 50
6.705196629321097
 51
17.29480337067822
  0
ARC
  5
192B
330
36
100
AcDbEntity
  8
0
100
AcDbCircle
 10
359.9822229914206
 20
101.4467532716913
 30
0.0
 40
16.25000000000011
100
AcDbArc
 50
354.7051966293213
 51
5.294803370678315
  0
ARC
  5
192C
330
36
100
AcDbEntity
  8
0
100
AcDbCircle
 10
359.9822229914206
 20
101.4467532716913
 30
0.0
 40
16.25000000000011
100
AcDbArc
 50
342.7051966293213
 51
353.2948033706785
  0
ARC
  5
192D
330
36
100
AcDbEntity
  8
0
100
AcDbCircle
 10
359.9822229914206
 20
101.4467532716913
 30
0.0
 40
16.25000000000011
100
AcDbArc
 50
330.7051966293216
 51
341.294803370678
  0
ARC
  5
192E
330
36
100
AcDbEntity
  8
0
100
AcDbCircle
 10
359.9822229914206
 20
101.4467532716913
 30
0.0
 40
16.25000000000011
100
AcDbArc
 50
318.7051966293213
 51
329.2948033706786
  0
ARC
  5
192F
330
36
100
AcDbEntity
  8
0
100
AcDbCircle
 10
359.9822229914206
 20
101.4467532716913
 30
0.0
 40
16.25000000000011
100
AcDbArc
 50
306.7051966293209
 51
317.2948033706787
  0
ARC
  5
1930
330
36
100
AcDbEntity
  8
0
100
AcDbCircle
 10
359.9822229914206
 20
101.4467532716913
 30
0.0
 40
16.25000000000011
100
AcDbArc
 50
294.7051966293215
 51
305.2948033706779
  0
ARC
  5
1931
330
36
100
AcDbEntity
  8
0
100
AcDbCircle
 10
359.9822229914206
 20
101.4467532716913
 30
0.0
 40
16.25000000000011
100
AcDbArc
 50
282.7051966293205
 51
293.2948033706786
  0
ARC
  5
1932
330
36
100
AcDbEntity
  8
0
100
AcDbCircle
 10
359.9822229914206
 20
101.4467532716913
 30
0.0
 40
16.25000000000011
100
AcDbArc
 50
270.7051966293215
 51
281.2948033706777
  0
ARC
  5
1933
330
36
100
AcDbEntity
  8
0
100
AcDbCircle
 10
359.9822229914206
 20
101.4467532716913
 30
0.0
 40
16.25000000000011
100
AcDbArc
 50
258.7051966293217
 51
269.2948033706785
  0
ARC
  5
1934
330
36
100
AcDbEntity
  8
0
100
AcDbCircle
 10
359.9822229914206
 20
101.4467532716913
 30
0.0
 40
16.25000000000011
100
AcDbArc
 50
246.7051966293211
 51
257.2948033706786
  0
ARC
  5
1935
330
36
100
AcDbEntity
  8
0
100
AcDbCircle
 10
359.9822229914206
 20
101.4467532716913
 30
0.0
 40
16.25000000000011
100
AcDbArc
 50
234.7051966293213
 51
245.2948033706782
  0
ARC
  5
1936
330
36
100
AcDbEntity
  8
0
100
AcDbCircle
 10
359.9822229914206
 20
101.4467532716913
 30
0.0
 40
16.25000000000011
100
AcDbArc
 50
222.7051966293213
 51
233.2948033706786
  0
ARC
  5
1937
330
36
100
AcDbEntity
  8
0
100
AcDbCircle
 10
359.9822229914206
 20
101.4467532716913
 30
0.0
 40
16.25000000000011
100
AcDbArc
 50
210.7051966293216
 51
221.2948033706784
  0
ARC
  5
1938
330
36
100
AcDbEntity
  8
0
100
AcDbCircle
 10
359.9822229914206
 20
101.4467532716913
 30
0.0
 40
16.25000000000011
100
AcDbArc
 50
198.7051966293211
 51
209.2948033706786
  0
ARC
  5
1939
330
36
100
AcDbEntity
  8
0
100
AcDbCircle
 10
359.9822229914206
 20
101.4467532716913
 30
0.0
 40
16.25000000000011
100
AcDbArc
 50
186.7051966293215
 51
197.2948033706783
  0
ARC
  5
193A
330
36
100
AcDbEntity
  8
0
100
AcDbCircle
 10
359.9822229914206
 20
101.4467532716913
 30
0.0
 40
16.25000000000011
100
AcDbArc
 50
174.7051966293213
 51
185.2948033706783
  0
ARC
  5
193B
330
36
100
AcDbEntity
  8
0
100
AcDbCircle
 10
359.9822229914206
 20
101.4467532716913
 30
0.0
 40
16.25000000000011
100
AcDbArc
 50
162.7051966293216
 51
173.2948033706781
  0
ARC
  5
193C
330
36
100
AcDbEntity
  8
0
100
AcDbCircle
 10
359.9822229914206
 20
101.4467532716913
 30
0.0
 40
16.25000000000011
100
AcDbArc
 50
150.7051966293216
 51
161.2948033706785
  0
ARC
  5
193D
330
36
100
AcDbEntity
  8
0
100
AcDbCircle
 10
359.9822229914206
 20
101.4467532716913
 30
0.0
 40
16.25000000000011
100
AcDbArc
 50
138.7051966293212
 51
149.2948033706786
  0
ARC
  5
193E
330
36
100
AcDbEntity
  8
0
100
AcDbCircle
 10
359.9822229914206
 20
101.4467532716913
 30
0.0
 40
16.25000000000011
100
AcDbArc
 50
126.7051966293212
 51
137.2948033706783
  0
ARC
  5
193F
330
36
100
AcDbEntity
  8
0
100
AcDbCircle
 10
359.9822229914206
 20
101.4467532716913
 30
0.0
 40
16.25000000000011
100
AcDbArc
 50
114.7051966293215
 51
125.2948033706781
  0
ARC
  5
1940
330
36
100
AcDbEntity
  8
0
100
AcDbCircle
 10
359.9822229914206
 20
101.4467532716913
 30
0.0
 40
16.25000000000011
100
AcDbArc
 50
102.7051966293218
 51
113.2948033706788
  0
TEXT
  5
1A71
330
36
100
AcDbEntity
  8
001
 62
     3
100
AcDbText
 10
391.148316
 20
-71.39077907866074
 30
0.0
 40
3.2
  1
LEDレールランプ6W
  7
高3.2
100
AcDbText
  0
TEXT
  5
1A79
330
36
100
AcDbEntity
  8
0
100
AcDbText
 10
480.7252462395393
 20
-87.04365256509687
 30
0.0
 40
4.5
  1
I
  7
高4.5
100
AcDbText
  0
LINE
  5
1B2E
330
36
100
AcDbEntity
  8
001
 62
     3
100
AcDbLine
 10
398.1252133365039
 20
101.454064
 30
0.0
 11
398.1252133365039
 21
-3.545935999999976
 31
0.0
  0
TEXT
  5
1B30
330
36
100
AcDbEntity
  8
001
 62
     3
100
AcDbText
 10
399.6252133365039
 20
95.454064
 30
0.0
 40
4.5
  1
型　　　式
  7
高4.5
100
AcDbText
  0
TEXT
  5
1B31
330
36
100
AcDbEntity
  8
001
 62
     3
100
AcDbText
 10
399.6252133365039
 20
88.45406399999998
 30
0.0
 40
4.5
  1
定格入力電圧
  7
高4.5
100
AcDbText
  0
TEXT
  5
1B32
330
36
100
AcDbEntity
  8
001
 62
     3
100
AcDbText
 10
399.6252133365037
 20
60.454064
 30
0.0
 40
4.5
  1
消費　電力
  7
高4.5
100
AcDbText
  0
TEXT
  5
1B33
330
36
100
AcDbEntity
  8
001
 62
     3
100
AcDbText
 10
399.6252133365037
 20
53.45406400000001
 30
0.0
 40
4.5
  1
全　光　束
  7
高4.5
100
AcDbText
  0
TEXT
  5
1B34
330
36
100
AcDbEntity
  8
001
 62
     3
100
AcDbText
 10
399.6252133365037
 20
11.45406400000003
 30
0.0
 40
4.5
  1
寿　　　命
  7
高4.5
100
AcDbText
  0
TEXT
  5
1B35
330
36
100
AcDbEntity
  8
001
 62
     3
100
AcDbText
 10
399.6252133365037
 20
4.454064000000022
 30
0.0
 40
4.5
  1
口　　　金
  7
高4.5
100
AcDbText
  0
TEXT
  5
1B36
330
36
100
AcDbEntity
  8
001
 62
     3
100
AcDbText
 10
399.6252133365037
 20
-2.545935999999977
 30
0.0
 40
4.5
  1
重　　　量
  7
高4.5
100
AcDbText
  0
TEXT
  5
1B37
330
36
100
AcDbEntity
  8
001
 62
     3
100
AcDbText
 10
434.9308555395076
 20
4.454064000000022
 30
0.0
 40
4.5
  1
E11
  7
高4.5
100
AcDbText
  0
LINE
  5
1B38
330
36
100
AcDbEntity
  8
001
 62
     3
100
AcDbLine
 10
477.9722891670494
 20
-3.545935999999976
 30
0.0
 11
477.9722891670494
 21
101.454064
 31
0.0
  0
LINE
  5
1B39
330
36
100
AcDbEntity
  8
001
100
AcDbLine
 10
433.4308555395075
 20
101.454064
 30
0.0
 11
433.4308555395073
 21
-3.545935999999976
 31
0.0
  0
TEXT
  5
1B3B
330
36
100
AcDbEntity
  8
001
 62
     3
100
AcDbText
 10
434.9308555395076
 20
60.454064
 30
0.0
 40
4.5
  1
6W/6.4W
  7
高4.5
100
AcDbText
  0
TEXT
  5
1B3C
330
36
100
AcDbEntity
  8
001
 62
     3
100
AcDbText
 10
434.9308555395076
 20
53.45406400000001
 30
0.0
 40
4.5
  1
250Lm
  7
高4.5
100
AcDbText
  0
TEXT
  5
1B3D
330
36
100
AcDbEntity
  8
001
 62
     3
100
AcDbText
 10
434.9308555395076
 20
11.45406400000003
 30
0.0
 40
4.5
  1
約4万時間
  7
高4.5
100
AcDbText
  0
TEXT
  5
1B3E
330
36
100
AcDbEntity
  8
001
 62
     3
100
AcDbText
 10
434.9308555395076
 20
-2.545935999999977
 30
0.0
 40
4.5
  1
45g
  7
高4.5
100
AcDbText
  0
TEXT
  5
1B3F
330
36
100
AcDbEntity
  8
001
 62
     3
100
AcDbText
 10
434.9308555395078
 20
88.45406399999998
 30
0.0
 40
4.5
  1
AC100/200V
  7
高4.5
100
AcDbText
  0
TEXT
  5
1B40
330
36
100
AcDbEntity
  8
001
 62
     3
100
AcDbText
 10
434.9308555395078
 20
95.454064
 30
0.0
 40
4.5
  1
L6W-S-E11
  7
高4.5
100
AcDbText
  0
LINE
  5
1B41
330
36
100
AcDbEntity
  8
001
 62
     3
100
AcDbLine
 10
398.1252133365039
 20
101.454064
 30
0.0
 11
477.9722891670494
 21
101.454064
 31
0.0
  0
LINE
  5
1B42
330
36
100
AcDbEntity
  8
001
 62
     3
100
AcDbLine
 10
398.1252133365039
 20
-3.545935999999976
 30
0.0
 11
477.972289167049
 21
-3.545935999999976
 31
0.0
  0
LINE
  5
1B43
330
36
100
AcDbEntity
  8
001
100
AcDbLine
 10
398.1252133365039
 20
94.45406400000001
 30
0.0
 11
477.9722891670496
 21
94.45406400000001
 31
0.0
  0
LINE
  5
1B44
330
36
100
AcDbEntity
  8
001
100
AcDbLine
 10
398.1252133365039
 20
80.454064
 30
0.0
 11
477.9722891670496
 21
80.45406400000002
 31
0.0
  0
LINE
  5
1B45
330
36
100
AcDbEntity
  8
001
100
AcDbLine
 10
398.1252133365037
 20
59.45406400000002
 30
0.0
 11
477.9722891670494
 21
59.45406400000003
 31
0.0
  0
LINE
  5
1B46
330
36
100
AcDbEntity
  8
001
100
AcDbLine
 10
398.1252133365037
 20
52.45406400000002
 30
0.0
 11
477.9722891670494
 21
52.45406400000002
 31
0.0
  0
LINE
  5
1B47
330
36
100
AcDbEntity
  8
001
100
AcDbLine
 10
398.1252133365037
 20
10.45406400000003
 30
0.0
 11
477.9722891670494
 21
10.45406400000003
 31
0.0
  0
LINE
  5
1B48
330
36
100
AcDbEntity
  8
001
100
AcDbLine
 10
398.1252133365037
 20
3.454064000000023
 30
0.0
 11
477.9722891670494
 21
3.454064000000023
 31
0.0
  0
TEXT
  5
1B49
330
36
100
AcDbEntity
  8
001
 62
     3
100
AcDbText
 10
434.9308555395078
 20
81.454064
 30
0.0
 40
3.2
  1
(50/60Hz)
  7
高3.2
100
AcDbText
  0
TEXT
  5
1B4A
330
36
100
AcDbEntity
  8
001
 62
     3
100
AcDbText
 10
399.6252133365037
 20
67.45406400000002
 30
0.0
 40
4.5
  1
光　　　源
  7
高4.5
100
AcDbText
  0
TEXT
  5
1B4B
330
36
100
AcDbEntity
  8
001
 62
     3
100
AcDbText
 10
434.9308555395076
 20
67.45406400000002
 30
0.0
 40
4.5
  1
LED6W
  7
高4.5
100
AcDbText
  0
LINE
  5
1B4C
330
36
100
AcDbEntity
  8
001
100
AcDbLine
 10
398.1252133365037
 20
66.45406400000002
 30
0.0
 11
477.9722891670494
 21
66.45406400000005
 31
0.0
  0
TEXT
  5
1B4D
330
36
100
AcDbEntity
  8
001
 62
     3
100
AcDbText
 10
399.6252133365037
 20
46.45406400000001
 30
0.0
 40
4.5
  1
照度　(1m)
  7
高4.5
100
AcDbText
  0
TEXT
  5
1B4E
330
36
100
AcDbEntity
  8
001
 62
     3
100
AcDbText
 10
434.9308555395076
 20
46.45406400000001
 30
0.0
 40
4.5
  1
722Lx
  7
高4.5
100
AcDbText
  0
LINE
  5
1B4F
330
36
100
AcDbEntity
  8
001
100
AcDbLine
 10
398.1252133365037
 20
45.454064
 30
0.0
 11
477.9722891670494
 21
45.45406400000003
 31
0.0
  0
TEXT
  5
1B50
330
36
100
AcDbEntity
  8
001
 62
     3
100
AcDbText
 10
399.6252133365037
 20
32.45406400000002
 30
0.0
 40
4.5
  1
色　温　度
  7
高4.5
100
AcDbText
  0
TEXT
  5
1B51
330
36
100
AcDbEntity
  8
001
 62
     3
100
AcDbText
 10
434.9308555395076
 20
32.45406400000002
 30
0.0
 40
4.5
  1
3000K
  7
高4.5
100
AcDbText
  0
LINE
  5
1B52
330
36
100
AcDbEntity
  8
001
100
AcDbLine
 10
398.1252133365037
 20
31.45406400000002
 30
0.0
 11
477.9722891670494
 21
31.45406400000002
 31
0.0
  0
TEXT
  5
1B53
330
36
100
AcDbEntity
  8
001
 62
     3
100
AcDbText
 10
399.6252133365037
 20
18.45406400000003
 30
0.0
 40
4.5
  1
使用環境温度
  7
高4.5
100
AcDbText
  0
TEXT
  5
1B54
330
36
100
AcDbEntity
  8
001
 62
     3
100
AcDbText
 10
434.9308555395076
 20
18.45406400000003
 30
0.0
 40
4.5
  1
-20～40℃
  7
高4.5
100
AcDbText
  0
LINE
  5
1B55
330
36
100
AcDbEntity
  8
001
100
AcDbLine
 10
398.1252133365037
 20
17.45406400000003
 30
0.0
 11
477.9722891670494
 21
17.45406400000003
 31
0.0
  0
TEXT
  5
1B56
330
36
100
AcDbEntity
  8
001
 62
     7
100
AcDbText
 10
397.9895101353148
 20
-9.487696273172067
 30
0.0
 40
2.5
  1
注１）：入力電圧100V、200V兼用。
  7
高2.5
100
AcDbText
  0
TEXT
  5
1B57
330
36
100
AcDbEntity
  8
001
 62
     7
100
AcDbText
 10
397.9895101353148
 20
-14.1677198213255
 30
0.0
 40
2.5
  1
注２）：寿命は光束が70%%%まで低下するまでの時間です。
  7
高2.5
100
AcDbText
  0
TEXT
  5
1B58
330
36
100
AcDbEntity
  8
001
 62
     7
100
AcDbText
 10
397.9895101353148
 20
-18.29575394932937
 30
0.0
 40
2.5
  1
　　　　表示は設計値であり、製品の寿命を保証するものでは
  7
高2.5
100
AcDbText
  0
TEXT
  5
1B59
330
36
100
AcDbEntity
  8
001
 62
     7
100
AcDbText
 10
397.9895101353148
 20
-21.83144161210618
 30
0.0
 40
2.5
  1
　　　　ありません。
  7
高2.5
100
AcDbText
  0
TEXT
  5
1B5A
330
36
100
AcDbEntity
  8
001
 62
     3
100
AcDbText
 10
399.6252133365037
 20
39.45406400000003
 30
0.0
 40
4.5
  1
照　射　角
  7
高4.5
100
AcDbText
  0
TEXT
  5
1B5B
330
36
100
AcDbEntity
  8
001
 62
     3
100
AcDbText
 10
434.9308555395076
 20
39.45406400000003
 30
0.0
 40
4.5
  1
36\U+00B0
  7
高4.5
100
AcDbText
  0
LINE
  5
1B5C
330
36
100
AcDbEntity
  8
001
100
AcDbLine
 10
398.1252133365037
 20
38.45406400000003
 30
0.0
 11
477.9722891670494
 21
38.45406400000003
 31
0.0
  0
TEXT
  5
1B5D
330
36
100
AcDbEntity
  8
001
 62
     3
100
AcDbText
 10
399.6252133365037
 20
25.45406400000002
 30
0.0
 40
4.5
  1
演　色　性
  7
高4.5
100
AcDbText
  0
TEXT
  5
1B5E
330
36
100
AcDbEntity
  8
001
 62
     3
100
AcDbText
 10
434.9308555395076
 20
25.45406400000002
 30
0.0
 40
4.5
  1
Ra>80
  7
高4.5
100
AcDbText
  0
LINE
  5
1B5F
330
36
100
AcDbEntity
  8
001
100
AcDbLine
 10
398.1252133365037
 20
24.45406400000002
 30
0.0
 11
477.9722891670494
 21
24.45406400000002
 31
0.0
  0
TEXT
  5
1C1F
330
36
100
AcDbEntity
  8
001
 62
     3
100
AcDbText
 10
399.6252133365039
 20
74.45406400000002
 30
0.0
 40
4.5
  1
定格入力電流
  7
高4.5
100
AcDbText
  0
TEXT
  5
1C20
330
36
100
AcDbEntity
  8
001
 62
     3
100
AcDbText
 10
434.9308555395078
 20
74.45406400000002
 30
0.0
 40
4.5
  1
0.11A/0.07A
  7
高4.5
100
AcDbText
  0
LINE
  5
1C21
330
36
100
AcDbEntity
  8
001
100
AcDbLine
 10
398.1252133365039
 20
73.45406400000001
 30
0.0
 11
477.9722891670496
 21
73.45406400000005
 31
0.0
  0
TEXT
  5
1E49
330
36
100
AcDbEntity
  8
001
 62
     7
100
AcDbText
 10
397.9895101353148
 20
-25.44980205047366
 30
0.0
 40
2.5
  1
注３）：照度は反射率などを含む当社実測値の為、
  7
高2.5
100
AcDbText
  0
TEXT
  5
1E4A
330
36
100
AcDbEntity
  8
001
 62
     7
100
AcDbText
 10
397.9895101353148
 20
-29.57783617847753
 30
0.0
 40
2.5
  1
　　　　使用環境下により異なります。
  7
高2.5
100
AcDbText
  0
LINE
  5
1E99
330
36
100
AcDbEntity
  8
0
100
AcDbLine
 10
365.4822229914207
 20
-19.6566833317967
 30
0.0
 11
365.4822229914207
 21
-38.63972334448499
 31
0.0
  0
LINE
  5
1E9A
330
36
100
AcDbEntity
  8
0
100
AcDbLine
 10
354.4822229914207
 20
-20.55668333179669
 30
0.0
 11
354.4822229914207
 21
-38.63972334448499
 31
0.0
  0
LINE
  5
1E9B
330
36
100
AcDbEntity
  8
0
100
AcDbLine
 10
362.9822229914207
 20
-37.38972334448499
 30
0.0
 11
356.9822229914207
 21
-37.38972334448499
 31
0.0
  0
LINE
  5
1E9F
330
36
100
AcDbEntity
  8
0
100
AcDbLine
 10
334.7322229914206
 20
51.4933166682033
 30
0.0
 11
324.0843836469138
 21
51.4933166682033
 31
0.0
  0
LINE
  5
1EA0
330
36
100
AcDbEntity
  8
0
100
AcDbLine
 10
359.7322229914206
 20
-24.50668333179671
 30
0.0
 11
324.0843836469138
 21
-24.5066833317967
 31
0.0
  0
LINE
  5
1EA1
330
36
100
AcDbEntity
  8
0
100
AcDbLine
 10
325.3343836469138
 20
48.9933166682033
 30
0.0
 11
325.3343836469138
 21
-22.0066833317967
 31
0.0
  0
LINE
  5
1EA5
330
36
100
AcDbEntity
  8
0
100
AcDbLine
 10
384.9822229914207
 20
101.6967532716913
 30
0.0
 11
384.9822229914207
 21
139.1353817649442
 31
0.0
  0
LINE
  5
1EA6
330
36
100
AcDbEntity
  8
0
100
AcDbLine
 10
334.9822229914206
 20
101.6967532716913
 30
0.0
 11
334.9822229914206
 21
139.1353817649442
 31
0.0
  0
LINE
  5
1EA7
330
36
100
AcDbEntity
  8
0
100
AcDbLine
 10
382.4822229914206
 20
137.8853817649442
 30
0.0
 11
337.4822229914207
 21
137.8853817649442
 31
0.0
  0
LINE
  5
1EAB
330
36
100
AcDbEntity
  8
001
 62
     2
100
AcDbLine
 10
383.64761
 20
170.113123
 30
0.0
 11
383.628982
 21
170.23239
 31
0.0
  0
LINE
  5
1EAC
330
36
100
AcDbEntity
  8
001
 62
     2
100
AcDbLine
 10
383.628982
 20
170.23239
 30
0.0
 11
383.606611
 21
170.346595
 31
0.0
  0
LINE
  5
1EAD
330
36
100
AcDbEntity
  8
001
 62
     2
100
AcDbLine
 10
383.606611
 20
170.346595
 30
0.0
 11
383.580669
 21
170.454854
 31
0.0
  0
LINE
  5
1EAE
330
36
100
AcDbEntity
  8
001
 62
     2
100
AcDbLine
 10
383.580669
 20
170.454854
 30
0.0
 11
383.551357
 21
170.556331
 31
0.0
  0
LINE
  5
1EAF
330
36
100
AcDbEntity
  8
001
 62
     2
100
AcDbLine
 10
383.551357
 20
170.556331
 30
0.0
 11
383.518901
 21
170.65024
 31
0.0
  0
LINE
  5
1EB0
330
36
100
AcDbEntity
  8
001
 62
     2
100
AcDbLine
 10
383.518901
 20
170.65024
 30
0.0
 11
383.483553
 21
170.735857
 31
0.0
  0
LINE
  5
1EB1
330
36
100
AcDbEntity
  8
001
 62
     2
100
AcDbLine
 10
383.483553
 20
170.735857
 30
0.0
 11
383.445585
 21
170.81252
 31
0.0
  0
LINE
  5
1EB2
330
36
100
AcDbEntity
  8
001
 62
     2
100
AcDbLine
 10
383.445585
 20
170.81252
 30
0.0
 11
383.40529
 21
170.879635
 31
0.0
  0
LINE
  5
1EB3
330
36
100
AcDbEntity
  8
001
 62
     2
100
AcDbLine
 10
383.40529
 20
170.879635
 30
0.0
 11
383.362981
 21
170.936685
 31
0.0
  0
LINE
  5
1EB4
330
36
100
AcDbEntity
  8
001
 62
     2
100
AcDbLine
 10
383.362981
 20
170.936685
 30
0.0
 11
383.318985
 21
170.983227
 31
0.0
  0
LINE
  5
1EB5
330
36
100
AcDbEntity
  8
001
 62
     2
100
AcDbLine
 10
383.318985
 20
170.983227
 30
0.0
 11
383.273641
 21
171.018903
 31
0.0
  0
LINE
  5
1EB6
330
36
100
AcDbEntity
  8
001
 62
     2
100
AcDbLine
 10
383.273641
 20
171.018903
 30
0.0
 11
383.2273
 21
171.043437
 31
0.0
  0
LINE
  5
1EB7
330
36
100
AcDbEntity
  8
001
 62
     2
100
AcDbLine
 10
383.2273
 20
171.043437
 30
0.0
 11
383.18032
 21
171.056639
 31
0.0
  0
LINE
  5
1EB8
330
36
100
AcDbEntity
  8
001
 62
     2
100
AcDbLine
 10
383.18032
 20
171.056639
 30
0.0
 11
383.133064
 21
171.058407
 31
0.0
  0
LINE
  5
1EB9
330
36
100
AcDbEntity
  8
001
 62
     2
100
AcDbLine
 10
383.133064
 20
171.058407
 30
0.0
 11
383.085898
 21
171.048727
 31
0.0
  0
LINE
  5
1EBA
330
36
100
AcDbEntity
  8
001
 62
     2
100
AcDbLine
 10
383.085898
 20
171.048727
 30
0.0
 11
383.039186
 21
171.027674
 31
0.0
  0
LINE
  5
1EBB
330
36
100
AcDbEntity
  8
001
 62
     2
100
AcDbLine
 10
383.039186
 20
171.027674
 30
0.0
 11
382.993289
 21
170.995412
 31
0.0
  0
LINE
  5
1EBC
330
36
100
AcDbEntity
  8
001
 62
     2
100
AcDbLine
 10
382.993289
 20
170.995412
 30
0.0
 11
382.948562
 21
170.952188
 31
0.0
  0
LINE
  5
1EBD
330
36
100
AcDbEntity
  8
001
 62
     2
100
AcDbLine
 10
382.948562
 20
170.952188
 30
0.0
 11
382.905351
 21
170.898338
 31
0.0
  0
LINE
  5
1EBE
330
36
100
AcDbEntity
  8
001
 62
     2
100
AcDbLine
 10
382.905351
 20
170.898338
 30
0.0
 11
382.863989
 21
170.834277
 31
0.0
  0
LINE
  5
1EBF
330
36
100
AcDbEntity
  8
001
 62
     2
100
AcDbLine
 10
382.863989
 20
170.834277
 30
0.0
 11
382.8247970000002
 21
170.760502
 31
0.0
  0
LINE
  5
1EC0
330
36
100
AcDbEntity
  8
001
 62
     2
100
AcDbLine
 10
382.8247970000002
 20
170.760502
 30
0.0
 11
382.788077
 21
170.677581
 31
0.0
  0
LINE
  5
1EC1
330
36
100
AcDbEntity
  8
001
 62
     2
100
AcDbLine
 10
382.788077
 20
170.677581
 30
0.0
 11
382.754113
 21
170.586156
 31
0.0
  0
LINE
  5
1EC2
330
36
100
AcDbEntity
  8
001
 62
     2
100
AcDbLine
 10
382.754113
 20
170.586156
 30
0.0
 11
382.723168
 21
170.486934
 31
0.0
  0
LINE
  5
1EC3
330
36
100
AcDbEntity
  8
001
 62
     2
100
AcDbLine
 10
382.723168
 20
170.486934
 30
0.0
 11
382.69548
 21
170.380681
 31
0.0
  0
LINE
  5
1EC4
330
36
100
AcDbEntity
  8
001
 62
     2
100
AcDbLine
 10
382.69548
 20
170.380681
 30
0.0
 11
382.671265
 21
170.268219
 31
0.0
  0
LINE
  5
1EC5
330
36
100
AcDbEntity
  8
001
 62
     2
100
AcDbLine
 10
382.671265
 20
170.268219
 30
0.0
 11
382.650708
 21
170.150417
 31
0.0
  0
LINE
  5
1EC6
330
36
100
AcDbEntity
  8
001
 62
     2
100
AcDbLine
 10
382.650708
 20
170.150417
 30
0.0
 11
382.633969
 21
170.028186
 31
0.0
  0
LINE
  5
1EC7
330
36
100
AcDbEntity
  8
001
 62
     2
100
AcDbLine
 10
382.633969
 20
170.028186
 30
0.0
 11
382.621178
 21
169.90247
 31
0.0
  0
LINE
  5
1EC8
330
36
100
AcDbEntity
  8
001
 62
     2
100
AcDbLine
 10
382.621178
 20
169.90247
 30
0.0
 11
382.612433
 21
169.774241
 31
0.0
  0
LINE
  5
1EC9
330
36
100
AcDbEntity
  8
001
 62
     2
100
AcDbLine
 10
382.612433
 20
169.774241
 30
0.0
 11
382.607801
 21
169.644491
 31
0.0
  0
LINE
  5
1ECA
330
36
100
AcDbEntity
  8
001
 62
     2
100
AcDbLine
 10
382.607801
 20
169.644491
 30
0.0
 11
382.607319
 21
169.514222
 31
0.0
  0
LINE
  5
1ECB
330
36
100
AcDbEntity
  8
001
 62
     2
100
AcDbLine
 10
382.607319
 20
169.514222
 30
0.0
 11
382.61099
 21
169.38444
 31
0.0
  0
LINE
  5
1ECC
330
36
100
AcDbEntity
  8
001
 62
     2
100
AcDbLine
 10
382.61099
 20
169.38444
 30
0.0
 11
382.618786
 21
169.256151
 31
0.0
  0
LINE
  5
1ECD
330
36
100
AcDbEntity
  8
001
 62
     2
100
AcDbLine
 10
382.618786
 20
169.256151
 30
0.0
 11
382.630647
 21
169.130344
 31
0.0
  0
LINE
  5
1ECE
330
36
100
AcDbEntity
  8
001
 62
     2
100
AcDbLine
 10
382.630647
 20
169.130344
 30
0.0
 11
382.646481
 21
169.007992
 31
0.0
  0
LINE
  5
1ECF
330
36
100
AcDbEntity
  8
001
 62
     2
100
AcDbLine
 10
382.646481
 20
169.007992
 30
0.0
 11
382.666165
 21
168.890041
 31
0.0
  0
LINE
  5
1ED0
330
36
100
AcDbEntity
  8
001
 62
     2
100
AcDbLine
 10
382.666165
 20
168.890041
 30
0.0
 11
382.689548
 21
168.777403
 31
0.0
  0
LINE
  5
1ED1
330
36
100
AcDbEntity
  8
001
 62
     2
100
AcDbLine
 10
382.689548
 20
168.777403
 30
0.0
 11
382.716448
 21
168.670948
 31
0.0
  0
LINE
  5
1ED2
330
36
100
AcDbEntity
  8
001
 62
     2
100
AcDbLine
 10
382.716448
 20
168.670948
 30
0.0
 11
382.746659
 21
168.5715
 31
0.0
  0
LINE
  5
1ED3
330
36
100
AcDbEntity
  8
001
 62
     2
100
AcDbLine
 10
382.746659
 20
168.5715
 30
0.0
 11
382.779945
 21
168.479826
 31
0.0
  0
LINE
  5
1ED4
330
36
100
AcDbEntity
  8
001
 62
     2
100
AcDbLine
 10
382.779945
 20
168.479826
 30
0.0
 11
382.81605
 21
168.396636
 31
0.0
  0
LINE
  5
1ED5
330
36
100
AcDbEntity
  8
001
 62
     2
100
AcDbLine
 10
382.81605
 20
168.396636
 30
0.0
 11
382.854696
 21
168.322572
 31
0.0
  0
LINE
  5
1ED6
330
36
100
AcDbEntity
  8
001
 62
     2
100
AcDbLine
 10
382.854696
 20
168.322572
 30
0.0
 11
382.895582
 21
168.258207
 31
0.0
  0
LINE
  5
1ED7
330
36
100
AcDbEntity
  8
001
 62
     2
100
AcDbLine
 10
382.895582
 20
168.258207
 30
0.0
 11
382.938394
 21
168.204038
 31
0.0
  0
LINE
  5
1ED8
330
36
100
AcDbEntity
  8
001
 62
     2
100
AcDbLine
 10
382.938394
 20
168.204038
 30
0.0
 11
382.9828
 21
168.160485
 31
0.0
  0
LINE
  5
1ED9
330
36
100
AcDbEntity
  8
001
 62
     2
100
AcDbLine
 10
382.9828
 20
168.160485
 30
0.0
 11
383.028457
 21
168.127884
 31
0.0
  0
LINE
  5
1EDA
330
36
100
AcDbEntity
  8
001
 62
     2
100
AcDbLine
 10
383.028457
 20
168.127884
 30
0.0
 11
383.075012
 21
168.106486
 31
0.0
  0
LINE
  5
1EDB
330
36
100
AcDbEntity
  8
001
 62
     2
100
AcDbLine
 10
383.075012
 20
168.106486
 30
0.0
 11
383.122105
 21
168.096457
 31
0.0
  0
LINE
  5
1EDC
330
36
100
AcDbEntity
  8
001
 62
     2
100
AcDbLine
 10
383.122105
 20
168.096457
 30
0.0
 11
383.169372
 21
168.097875
 31
0.0
  0
LINE
  5
1EDD
330
36
100
AcDbEntity
  8
001
 62
     2
100
AcDbLine
 10
383.169372
 20
168.097875
 30
0.0
 11
383.216449
 21
168.110729
 31
0.0
  0
LINE
  5
1EDE
330
36
100
AcDbEntity
  8
001
 62
     2
100
AcDbLine
 10
383.216449
 20
168.110729
 30
0.0
 11
383.26297
 21
168.134919
 31
0.0
  0
LINE
  5
1EDF
330
36
100
AcDbEntity
  8
001
 62
     2
100
AcDbLine
 10
383.26297
 20
168.134919
 30
0.0
 11
383.308577
 21
168.170259
 31
0.0
  0
LINE
  5
1EE0
330
36
100
AcDbEntity
  8
001
 62
     2
100
AcDbLine
 10
383.308577
 20
168.170259
 30
0.0
 11
383.352916
 21
168.216475
 31
0.0
  0
LINE
  5
1EE1
330
36
100
AcDbEntity
  8
001
 62
     2
100
AcDbLine
 10
383.352916
 20
168.216475
 30
0.0
 11
383.395646
 21
168.27321
 31
0.0
  0
LINE
  5
1EE2
330
36
100
AcDbEntity
  8
001
 62
     2
100
AcDbLine
 10
383.395646
 20
168.27321
 30
0.0
 11
383.436436
 21
168.340025
 31
0.0
  0
LINE
  5
1EE3
330
36
100
AcDbEntity
  8
001
 62
     2
100
AcDbLine
 10
383.436436
 20
168.340025
 30
0.0
 11
383.474971
 21
168.416404
 31
0.0
  0
LINE
  5
1EE4
330
36
100
AcDbEntity
  8
001
 62
     2
100
AcDbLine
 10
383.474971
 20
168.416404
 30
0.0
 11
383.5109519999999
 21
168.501757
 31
0.0
  0
LINE
  5
1EE5
330
36
100
AcDbEntity
  8
001
 62
     2
100
AcDbLine
 10
383.5109519999999
 20
168.501757
 30
0.0
 11
383.544102
 21
168.595424
 31
0.0
  0
LINE
  5
1EE6
330
36
100
AcDbEntity
  8
001
 62
     2
100
AcDbLine
 10
383.544102
 20
168.595424
 30
0.0
 11
383.574164
 21
168.696681
 31
0.0
  0
LINE
  5
1EE7
330
36
100
AcDbEntity
  8
001
 62
     2
100
AcDbLine
 10
383.574164
 20
168.696681
 30
0.0
 11
383.600906
 21
168.804745
 31
0.0
  0
LINE
  5
1EE8
330
36
100
AcDbEntity
  8
001
 62
     2
100
AcDbLine
 10
383.600906
 20
168.804745
 30
0.0
 11
383.624122
 21
168.918781
 31
0.0
  0
LINE
  5
1EE9
330
36
100
AcDbEntity
  8
001
 62
     2
100
AcDbLine
 10
383.624122
 20
168.918781
 30
0.0
 11
383.643632
 21
169.037908
 31
0.0
  0
TEXT
  5
1EEA
330
36
100
AcDbEntity
  8
0
 62
     4
100
AcDbText
 10
357.8387732910669
 20
-36.76472334448499
 30
0.0
 40
3.0
  1
E11
100
AcDbText
  0
LINE
  5
1EEB
330
36
100
AcDbEntity
  8
0
  6
ByBlock
 62
     0
370
    -2
100
AcDbLine
 10
356.9822229914207
 20
-38.05959584448499
 30
0.0
 11
354.4822229914207
 21
-37.38972334448499
 31
0.0
  0
LINE
  5
1EEC
330
36
100
AcDbEntity
  8
0
  6
ByBlock
 62
     0
370
    -2
100
AcDbLine
 10
354.4822229914207
 20
-37.38972334448499
 30
0.0
 11
356.9822229914207
 21
-36.719850844485
 31
0.0
  0
LINE
  5
1EED
330
36
100
AcDbEntity
  8
0
  6
ByBlock
 62
     0
370
    -2
100
AcDbLine
 10
354.4822229914207
 20
-37.38972334448499
 30
0.0
 11
356.9822229914207
 21
-37.38972334448499
 31
0.0
  0
LINE
  5
1EEE
330
36
100
AcDbEntity
  8
0
  6
ByBlock
 62
     0
370
    -2
100
AcDbLine
 10
362.9822229914207
 20
-36.719850844485
 30
0.0
 11
365.4822229914207
 21
-37.38972334448499
 31
0.0
  0
LINE
  5
1EEF
330
36
100
AcDbEntity
  8
0
  6
ByBlock
 62
     0
370
    -2
100
AcDbLine
 10
365.4822229914207
 20
-37.38972334448499
 30
0.0
 11
362.9822229914207
 21
-38.05959584448499
 31
0.0
  0
LINE
  5
1EF0
330
36
100
AcDbEntity
  8
0
  6
ByBlock
 62
     0
370
    -2
100
AcDbLine
 10
365.4822229914207
 20
-37.38972334448499
 30
0.0
 11
362.9822229914207
 21
-37.38972334448499
 31
0.0
  0
TEXT
  5
1EF1
330
36
100
AcDbEntity
  8
0
 62
     4
100
AcDbText
 10
324.7093836469138
 20
10.52059413604638
 30
0.0
 40
3.0
  1
76
 50
90.0
100
AcDbText
  0
LINE
  5
1EF2
330
36
100
AcDbEntity
  8
0
  6
ByBlock
 62
     0
370
    -2
100
AcDbLine
 10
326.0042561469138
 20
-22.0066833317967
 30
0.0
 11
325.3343836469138
 21
-24.5066833317967
 31
0.0
  0
LINE
  5
1EF3
330
36
100
AcDbEntity
  8
0
  6
ByBlock
 62
     0
370
    -2
100
AcDbLine
 10
325.3343836469138
 20
-24.5066833317967
 30
0.0
 11
324.6645111469138
 21
-22.0066833317967
 31
0.0
  0
LINE
  5
1EF4
330
36
100
AcDbEntity
  8
0
  6
ByBlock
 62
     0
370
    -2
100
AcDbLine
 10
325.3343836469138
 20
-24.5066833317967
 30
0.0
 11
325.3343836469138
 21
-22.0066833317967
 31
0.0
  0
LINE
  5
1EF5
330
36
100
AcDbEntity
  8
0
  6
ByBlock
 62
     0
370
    -2
100
AcDbLine
 10
324.6645111469138
 20
48.9933166682033
 30
0.0
 11
325.3343836469138
 21
51.4933166682033
 31
0.0
  0
LINE
  5
1EF6
330
36
100
AcDbEntity
  8
0
  6
ByBlock
 62
     0
370
    -2
100
AcDbLine
 10
325.3343836469138
 20
51.4933166682033
 30
0.0
 11
326.0042561469138
 21
48.9933166682033
 31
0.0
  0
LINE
  5
1EF7
330
36
100
AcDbEntity
  8
0
  6
ByBlock
 62
     0
370
    -2
100
AcDbLine
 10
325.3343836469138
 20
51.4933166682033
 30
0.0
 11
325.3343836469138
 21
48.9933166682033
 31
0.0
  0
TEXT
  5
1EF8
330
36
100
AcDbEntity
  8
0
 62
     4
100
AcDbText
 10
355.6322229914206
 20
138.5103817649442
 30
0.0
 40
3.0
  1
\U+03C650
100
AcDbText
  0
LINE
  5
1EF9
330
36
100
AcDbEntity
  8
0
  6
ByBlock
 62
     0
370
    -2
100
AcDbLine
 10
337.4822229914207
 20
137.2155092649442
 30
0.0
 11
334.9822229914206
 21
137.8853817649442
 31
0.0
  0
LINE
  5
1EFA
330
36
100
AcDbEntity
  8
0
  6
ByBlock
 62
     0
370
    -2
100
AcDbLine
 10
334.9822229914206
 20
137.8853817649442
 30
0.0
 11
337.4822229914207
 21
138.5552542649442
 31
0.0
  0
LINE
  5
1EFB
330
36
100
AcDbEntity
  8
0
  6
ByBlock
 62
     0
370
    -2
100
AcDbLine
 10
334.9822229914206
 20
137.8853817649442
 30
0.0
 11
337.4822229914207
 21
137.8853817649442
 31
0.0
  0
LINE
  5
1EFC
330
36
100
AcDbEntity
  8
0
  6
ByBlock
 62
     0
370
    -2
100
AcDbLine
 10
382.4822229914206
 20
138.5552542649442
 30
0.0
 11
384.9822229914207
 21
137.8853817649442
 31
0.0
  0
LINE
  5
1EFD
330
36
100
AcDbEntity
  8
0
  6
ByBlock
 62
     0
370
    -2
100
AcDbLine
 10
384.9822229914207
 20
137.8853817649442
 30
0.0
 11
382.4822229914206
 21
137.2155092649442
 31
0.0
  0
LINE
  5
1EFE
330
36
100
AcDbEntity
  8
0
  6
ByBlock
 62
     0
370
    -2
100
AcDbLine
 10
384.9822229914207
 20
137.8853817649442
 30
0.0
 11
382.4822229914206
 21
137.8853817649442
 31
0.0
  0
ENDSEC
  0
SECTION
  2
OBJECTS
  0
DICTIONARY
  5
C
330
0
100
AcDbDictionary
281
     1
  3
ACAD_2007HEADERVARS_RT
350
1F02
  3
ACAD_COLOR
350
2F
  3
ACAD_GROUP
350
D
  3
ACAD_LAYOUT
350
2E
  3
ACAD_MATERIAL
350
10
  3
ACAD_MLEADERSTYLE
350
19AD
  3
ACAD_MLINESTYLE
350
2B
  3
ACAD_PLOTSETTINGS
350
2D
  3
ACAD_PLOTSTYLENAME
350
E
  3
ACAD_SCALELIST
350
199B
  3
ACAD_TABLESTYLE
350
30
  3
ACAD_VISUALSTYLE
350
14
  3
ACDB_RECOMPOSE_DATA
350
1F00
  3
AcDbVariableDictionary
350
346
  3
DWGPROPS
350
1F01
  0
DICTIONARY
  5
3C6
330
2
100
AcDbDictionary
280
     1
281
     1
  3
ACAD_LAYERSTATES
360
3C7
  0
DICTIONARY
  5
19E7
330
25
100
AcDbDictionary
280
     1
281
     1
  3
ADSK_XREC_LAYER_RECONCILED
360
19E8
  0
DICTIONARY
  5
19E9
330
52
100
AcDbDictionary
280
     1
281
     1
  3
ADSK_XREC_LAYER_RECONCILED
360
19EA
  0
DICTIONARY
  5
19EB
330
1164
100
AcDbDictionary
280
     1
281
     1
  3
ADSK_XREC_LAYER_RECONCILED
360
19EC
  0
DICTIONARY
  5
49B
330
36
100
AcDbDictionary
280
     1
281
     1
  3
ACAD_SORTENTS
360
49C
  0
DICTIONARY
  5
1F02
102
{ACAD_REACTORS
330
C
102
}
330
C
100
AcDbDictionary
281
     1
  3
DIMARCSYM
350
1F04
  3
DIMFXL
350
1F03
  3
DIMJOGANG
350
1F05
  0
DICTIONARY
  5
2F
102
{ACAD_REACTORS
330
C
102
}
330
C
100
AcDbDictionary
281
     1
  0
DICTIONARY
  5
D
102
{ACAD_REACTORS
330
C
102
}
330
C
100
AcDbDictionary
281
     1
  0
DICTIONARY
  5
2E
102
{ACAD_REACTORS
330
C
102
}
330
C
100
AcDbDictionary
281
     1
  3
Model
350
39
  3
レイアウト1
350
35
  0
DICTIONARY
  5
10
102
{ACAD_REACTORS
330
C
102
}
330
C
100
AcDbDictionary
281
     1
  3
ByBlock
350
12
  3
ByLayer
350
11
  3
Global
350
13
  0
DICTIONARY
  5
19AD
102
{ACAD_REACTORS
330
C
102
}
330
C
100
AcDbDictionary
281
     1
  3
Standard
350
19AE
  0
DICTIONARY
  5
2B
102
{ACAD_REACTORS
330
C
102
}
330
C
100
AcDbDictionary
281
     1
  3
Standard
350
2C
  0
DICTIONARY
  5
2D
102
{ACAD_REACTORS
330
C
102
}
330
C
100
AcDbDictionary
281
     1
  0
ACDBDICTIONARYWDFLT
  5
E
102
{ACAD_REACTORS
330
C
102
}
330
C
100
AcDbDictionary
281
     1
  3
Normal
350
F
100
AcDbDictionaryWithDefault
340
F
  0
DICTIONARY
  5
199B
102
{ACAD_REACTORS
330
C
102
}
330
C
100
AcDbDictionary
281
     1
  3
A0
350
199C
  3
A1
350
199D
  3
A2
350
199E
  3
A3
350
199F
  3
A4
350
19A0
  3
A5
350
19A1
  3
A6
350
19A2
  3
A7
350
19A3
  3
A8
350
19A4
  3
A9
350
19A5
  3
B0
350
19A6
  3
B1
350
19A7
  3
B2
350
19A8
  3
B3
350
19A9
  3
B4
350
19AA
  3
B5
350
19AB
  3
B6
350
19AC
  0
DICTIONARY
  5
30
102
{ACAD_REACTORS
330
C
102
}
330
C
100
AcDbDictionary
281
     1
  3
Standard
350
31
  0
DICTIONARY
  5
14
102
{ACAD_REACTORS
330
C
102
}
330
C
100
AcDbDictionary
281
     1
  3
2dWireframe
350
1A
  3
3D Hidden
350
1C
  3
3dWireframe
350
1B
  3
Basic
350
19
  3
Brighten
350
20
  3
ColorChange
350
24
  3
Conceptual
350
1D
  3
Dim
350
1F
  3
EdgeColorOff
350
199A
  3
Facepattern
350
23
  3
Flat
350
15
  3
FlatWithEdges
350
16
  3
Gouraud
350
17
  3
GouraudWithEdges
350
18
  3
Hidden
350
1992
  3
JitterOff
350
1998
  3
Linepattern
350
22
  3
OverhangOff
350
1999
  3
Realistic
350
1E
  3
Shaded
350
1997
  3
Shaded with edges
350
1996
  3
Shades of Gray
350
1993
  3
Sketchy
350
1994
  3
Thicken
350
21
  3
Wireframe
350
1991
  3
X-Ray
350
1995
  0
XRECORD
  5
1F00
102
{ACAD_REACTORS
330
C
102
}
330
C
100
AcDbXrecord
280
     1
 90
        1
330
31
  0
DICTIONARY
  5
346
102
{ACAD_REACTORS
330
C
102
}
330
C
100
AcDbDictionary
281
     1
  3
CANNOSCALE
350
19EE
  3
CMLEADERSTYLE
350
19ED
  3
CTABLESTYLE
350
347
  3
DIMASSOC
350
14AC
  3
INDEXCTL
350
14AB
  3
SORTENTS
350
14AA
  3
XCLIPFRAME
350
1E4C
  0
XRECORD
  5
1F01
102
{ACAD_REACTORS
330
C
102
}
330
C
100
AcDbXrecord
280
     1
  1
DWGPROPS COOKIE
  2

  3

  4

  6

  7

  8
imamura
  9

300
=
301
=
302
=
303
=
304
=
305
=
306
=
307
=
308
=
309
=
 40
1.173471041666666
 41
2455467.830795348
 42
2455966.700302454
  1

 90
        0
  0
DICTIONARY
  5
3C7
102
{ACAD_REACTORS
330
3C6
102
}
330
3C6
100
AcDbDictionary
281
     1
  0
XRECORD
  5
19E8
102
{ACAD_REACTORS
330
19E7
102
}
330
19E7
100
AcDbXrecord
280
     1
290
     1
  0
XRECORD
  5
19EA
102
{ACAD_REACTORS
330
19E9
102
}
330
19E9
100
AcDbXrecord
280
     1
290
     1
  0
XRECORD
  5
19EC
102
{ACAD_REACTORS
330
19EB
102
}
330
19EB
100
AcDbXrecord
280
     1
290
     1
  0
SORTENTSTABLE
  5
49C
102
{ACAD_REACTORS
330
49B
102
}
330
49B
100
AcDbSortentsTable
330
36
331
16D6
  5
18F1
331
174C
  5
1B34
331
196
  5
3D5
331
1748
  5
1B30
331
170D
  5
192E
331
154C
  5
1668
331
1744
  5
1940
331
1CD
  5
15A2
331
1587
  5
175E
331
1548
  5
165D
331
18E
  5
2BB
331
1740
  5
1939
331
1583
  5
175B
331
1C9
  5
159E
331
1EE6
  5
19D
331
1540
  5
160B
331
1453
  5
15D5
331
1EE2
  5
197
331
1EA5
  5
1E9F
331
1EDE
  5
190
331
1EA1
  5
1EB4
331
1B47
  5
1EE1
331
184D
  5
1B5D
331
1EDA
  5
18C
331
1B43
  5
1EDD
331
1849
  5
1B5B
331
1B3F
  5
1ED9
331
1845
  5
1B59
331
1934
  5
1814
331
E6
  5
E6
331
1B3B
  5
1ED5
331
1841
  5
1B57
331
1930
  5
1819
331
E2
  5
E2
331
15BF
  5
1771
331
155
  5
1AC
331
DE
  5
DE
331
DA
  5
DA
331
15F0
  5
1781
331
17BF
  5
1B41
331
1662
  5
1868
331
1C5
  5
159C
331
157F
  5
1758
331
186
  5
2B4
331
157B
  5
1753
331
1C1
  5
1598
331
16F9
  5
192A
331
1577
  5
174F
331
1BD
  5
1590
331
1730
  5
1935
331
1B9
  5
1588
331
1573
  5
174B
331
1ED6
  5
187
331
17A
  5
1D7
331
1E99
  5
1EBC
331
2B8
  5
15C5
331
1ED2
  5
17B
331
1ECE
  5
177
331
1B37
  5
1ED2
331
183D
  5
1B55
331
192C
  5
1821
331
1ECA
  5
173
331
1B33
  5
1ECE
331
1839
  5
1B53
331
1928
  5
1829
331
1835
  5
1B50
331
1924
  5
1831
331
15B3
  5
176F
331
D6
  5
D6
331
1831
  5
1B4E
331
15AF
  5
176C
331
D2
  5
D2
331
111
  5
111
331
CE
  5
CE
331
10D
  5
10D
331
109
  5
109
331
CA
  5
CA
331
15E4
  5
178B
331
161F
  5
183F
331
15E0
  5
1787
331
15D8
  5
1784
331
176F
  5
1760
331
1656
  5
1659
331
1652
  5
1655
331
176B
  5
1646
331
1B5
  5
1580
331
156F
  5
1747
331
176
  5
1D3
331
164E
  5
1651
331
1767
  5
1642
331
156B
  5
1743
331
172
  5
1CF
331
2B4
  5
15BD
331
164A
  5
164D
331
1763
  5
161F
331
1AD
  5
1562
331
1567
  5
1683
331
16E
  5
1CB
331
1563
  5
167F
331
16A
  5
1C5
331
1E4
  5
15AE
331
1EC6
  5
16F
331
1E4A
  5
1EFE
331
341
  5
15CB
331
1EC2
  5
16B
331
1EFD
  5
1EA6
331
1EBE
  5
167
331
1EF9
  5
1EAB
331
182D
  5
1B4C
331
1EBA
  5
163
331
18F0
  5
1EC6
331
1829
  5
1B4A
331
15A7
  5
1610
331
1B5E
  5
1EF8
331
1825
  5
1B48
331
15A3
  5
1769
331
105
  5
105
331
C6
  5
C6
331
1B5A
  5
1EF4
331
1821
  5
1B46
331
C2
  5
C2
331
101
  5
101
331
159B
  5
1763
331
BE
  5
BE
331
FD
  5
FD
331
BA
  5
BA
331
F9
  5
F9
331
15D4
  5
1780
331
160B
  5
1838
331
15CC
  5
177A
331
16E5
  5
1926
331
1646
  5
185F
331
175F
  5
1631
331
1642
  5
1857
331
171C
  5
1931
331
175B
  5
163B
331
155F
  5
167B
331
166
  5
1C1
331
1A5
  5
153E
331
1757
  5
1B40
331
163E
  5
184F
331
155B
  5
1677
331
162
  5
1BD
331
1753
  5
1B3C
331
163A
  5
15E1
331
19D
  5
14FF
331
1557
  5
1673
331
15E
  5
1B9
331
199
  5
1455
331
1553
  5
166F
331
15A
  5
1B5
331
1EF5
  5
1EB5
331
1D4
  5
15A9
331
1EB6
  5
15F
331
1EF1
  5
1EBB
331
1D0
  5
15A5
331
1EB2
  5
15B
331
1EED
  5
1EC4
331
1EAE
  5
157
331
1EE9
  5
1A8
331
1B56
  5
1EF0
331
181D
  5
1B44
331
1B52
  5
1EEC
331
1819
  5
1B42
331
1B4E
  5
1EE8
331
193F
  5
1809
331
F5
  5
F5
331
B6
  5
B6
331
1B4A
  5
1EE4
331
193B
  5
180D
331
B2
  5
B2
331
F1
  5
F1
331
AE
  5
AE
331
ED
  5
ED
331
AA
  5
AA
331
E9
  5
E9
331
174F
  5
1B37
331
174B
  5
1B33
331
154F
  5
166B
331
195
  5
3D4
331
1747
  5
1B2E
331
180E
  5
15F5
331
154B
  5
1665
331
191
  5
343
331
1708
  5
192D
331
1743
  5
193F
331
180A
  5
15E9
331
1CC
  5
15A1
331
1586
  5
175C
331
1547
  5
15E3
331
18D
  5
2BA
331
1C8
  5
159D
331
1543
  5
165C
331
1582
  5
164A
331
189
  5
2B7
331
1EE5
  5
19A
331
1452
  5
15D4
331
1EE1
  5
196
331
1EDD
  5
18F
331
1EA0
  5
1EB3
331
1B46
  5
1EE0
331
1ED9
  5
18B
331
1B42
  5
1EDC
331
1937
  5
1811
331
1B3E
  5
1ED8
331
1933
  5
1815
331
E5
  5
E5
331
E1
  5
E1
331
154
  5
1AB
331
DD
  5
DD
331
D9
  5
D9
331
15F7
  5
17BF
331
162E
  5
1845
331
173F
  5
1938
331
157E
  5
1757
331
1C4
  5
159B
331
14FF
  5
15D7
331
157A
  5
1752
331
1C0
  5
1597
331
1772
  5
1867
331
1BC
  5
158E
331
1576
  5
174E
331
17D
  5
2B3
331
1B8
  5
1586
331
1572
  5
174A
331
179
  5
1D6
331
1ED5
  5
186
331
2BB
  5
15CA
331
1ED1
  5
17A
331
192F
  5
181B
331
1ECD
  5
176
331
1B36
  5
1ED1
331
192B
  5
1823
331
1EC9
  5
172
331
1B32
  5
1ECD
331
1838
  5
1B52
331
1927
  5
182B
331
153F
  5
15E5
331
1B2E
  5
1ECA
331
15B2
  5
176E
331
D5
  5
D5
331
15AE
  5
176B
331
D1
  5
D1
331
110
  5
110
331
CD
  5
CD
331
10C
  5
10C
331
108
  5
108
331
C9
  5
C9
331
15E3
  5
178A
331
161A
  5
183D
331
16F4
  5
1929
331
1655
  5
1658
331
176E
  5
1649
331
1651
  5
1654
331
172B
  5
1934
331
176A
  5
1645
331
156E
  5
1746
331
175
  5
1D2
331
1B4
  5
157E
331
2B7
  5
15C2
331
164D
  5
1650
331
1766
  5
1641
331
156A
  5
1742
331
171
  5
1CE
331
2B3
  5
15BC
331
1649
  5
164C
331
1762
  5
1624
331
1AC
  5
1561
331
1566
  5
1682
331
16D
  5
1CA
331
1A8
  5
153F
331
1562
  5
167E
331
169
  5
1C4
331
1EC5
  5
16E
331
1E49
  5
1EFD
331
1EC1
  5
16A
331
1EFC
  5
1EA5
331
1EBD
  5
166
331
1EF8
  5
1EB1
331
1EB9
  5
162
331
1C21
  5
1EFC
331
1867
  5
1E9E
331
1B5D
  5
1EF7
331
1863
  5
1E9C
331
15A2
  5
1767
331
C5
  5
C5
331
104
  5
104
331
1B59
  5
1EF3
331
C1
  5
C1
331
100
  5
100
331
159A
  5
1761
331
BD
  5
BD
331
FC
  5
FC
331
F8
  5
F8
331
B9
  5
B9
331
15D7
  5
1783
331
15D3
  5
177F
331
1645
  5
185D
331
175E
  5
1638
331
16E0
  5
1925
331
1641
  5
1855
331
175A
  5
163C
331
155E
  5
167A
331
165
  5
1C0
331
1756
  5
1B3F
331
163D
  5
184D
331
1717
  5
1930
331
155A
  5
1676
331
161
  5
1BC
331
1752
  5
1B3B
331
1639
  5
15E2
331
1556
  5
1672
331
1D7
  5
15AC
331
15D
  5
1B8
331
198
  5
1454
331
1552
  5
166E
331
159
  5
1B4
331
1EF4
  5
1EBA
331
1D3
  5
15A8
331
1EB5
  5
15E
331
1EF0
  5
1EC1
331
1EB1
  5
15A
331
1EEC
  5
1EC3
331
185F
  5
1E9A
331
1EAD
  5
156
331
1EE8
  5
1A5
331
1B55
  5
1EEF
331
185B
  5
1E4A
331
1B51
  5
1EEB
331
1857
  5
1C21
331
1853
  5
1C1F
331
1B4D
  5
1EE7
331
1814
  5
1601
331
193E
  5
180A
331
F4
  5
F4
331
B5
  5
B5
331
1B49
  5
1EE3
331
1810
  5
15F7
331
193A
  5
180E
331
B1
  5
B1
331
F0
  5
F0
331
AD
  5
AD
331
EC
  5
EC
331
A9
  5
A9
331
E8
  5
E8
331
1606
  5
1837
331
174E
  5
1B36
331
174A
  5
1B32
331
16D0
  5
1898
331
154E
  5
166A
331
1746
  5
1A79
331
1CF
  5
15A4
331
154A
  5
1663
331
190
  5
333
331
1742
  5
193B
331
1CB
  5
15A0
331
1585
  5
164B
331
1546
  5
15E4
331
18C
  5
2B9
331
1581
  5
175A
331
188
  5
2B6
331
1EE4
  5
199
331
1542
  5
165B
331
1EA7
  5
1EA1
331
1451
  5
15D3
331
1EE0
  5
195
331
184F
  5
1B5E
331
1EDC
  5
18E
331
1B45
  5
1EDF
331
184B
  5
1B5C
331
1ED8
  5
189
331
1B41
  5
1EDB
331
1847
  5
1B5A
331
1936
  5
1812
331
1B3D
  5
1ED7
331
1843
  5
1B58
331
1932
  5
1816
331
E4
  5
E4
331
1B39
  5
1ED4
331
15BD
  5
1770
331
157
  5
1AE
331
E0
  5
E0
331
DC
  5
DC
331
D8
  5
D8
331
1629
  5
1843
331
1703
  5
192C
331
173A
  5
1937
331
157D
  5
1755
331
1C3
  5
159A
331
165C
  5
1865
331
1579
  5
1751
331
1BF
  5
1596
331
1771
  5
1765
331
1658
  5
161A
331
1BB
  5
158C
331
1E9F
  5
1EB2
331
1575
  5
174D
331
17C
  5
2B2
331
1571
  5
1749
331
178
  5
1D5
331
1E9B
  5
1EBE
331
1ED4
  5
17D
331
2BA
  5
15C8
331
1ED0
  5
179
331
183F
  5
1B56
331
192E
  5
181D
331
1ECC
  5
175
331
1B35
  5
1ED0
331
183B
  5
1B54
331
192A
  5
1825
331
1EC8
  5
171
331
1B31
  5
1ECC
331
1837
  5
1B51
331
1926
  5
182D
331
153E
  5
15DC
331
1833
  5
1B4F
331
15B1
  5
1768
331
D4
  5
D4
331
15AD
  5
176A
331
D0
  5
D0
331
10F
  5
10F
331
CC
  5
CC
331
10B
  5
10B
331
C8
  5
C8
331
15E6
  5
178D
331
15E2
  5
1789
331
15DE
  5
1786
331
1654
  5
1657
331
176D
  5
1648
331
1B7
  5
1584
331
16EF
  5
1928
331
1650
  5
1653
331
1769
  5
1644
331
1B3
  5
1564
331
156D
  5
1745
331
174
  5
1D1
331
2B6
  5
15C1
331
164C
  5
164F
331
1726
  5
1933
331
1765
  5
1640
331
1569
  5
1685
331
170
  5
1CD
331
2B2
  5
15BB
331
1648
  5
1861
331
1761
  5
1629
331
1AB
  5
1560
331
1565
  5
1681
331
1E6
  5
15BA
331
16C
  5
1C9
331
1561
  5
167D
331
168
  5
1C3
331
343
  5
15D1
331
1EC4
  5
16D
331
1EC0
  5
169
331
1EFB
  5
1EAD
331
182F
  5
1B4D
331
1EBC
  5
165
331
182B
  5
1B4B
331
1EB8
  5
161
331
1C20
  5
1EFB
331
1A79
  5
1EC9
331
1827
  5
1B49
331
107
  5
107
331
1B5C
  5
1EF6
331
1823
  5
1B47
331
15A1
  5
1766
331
C4
  5
C4
331
103
  5
103
331
1B58
  5
1EF2
331
1A71
  5
1EC8
331
C0
  5
C0
331
FF
  5
FF
331
1599
  5
175F
331
BC
  5
BC
331
FB
  5
FB
331
B8
  5
B8
331
1615
  5
183B
331
15D6
  5
1782
331
15D2
  5
177E
331
15CE
  5
177C
331
15CA
  5
1779
331
1644
  5
185B
331
175D
  5
1639
331
1640
  5
1853
331
1759
  5
163D
331
155D
  5
1679
331
164
  5
1BF
331
16DB
  5
1924
331
1755
  5
1B3E
331
163C
  5
184B
331
1559
  5
1675
331
160
  5
1BB
331
1751
  5
1B39
331
1638
  5
1847
331
1555
  5
1671
331
15C
  5
1B7
331
1EF7
  5
1EB7
331
1D6
  5
15AB
331
1712
  5
192F
331
1551
  5
166D
331
158
  5
1B3
331
1EF3
  5
1EB9
331
1EB4
  5
15D
331
1D2
  5
15A7
331
1EEF
  5
1EC0
331
1EB0
  5
159
331
1EEB
  5
1EC2
331
181F
  5
1B45
331
1EAC
  5
155
331
1B54
  5
1EEE
331
181B
  5
1B43
331
1B50
  5
1EEA
331
F7
  5
F7
331
1B4C
  5
1EE6
331
193D
  5
180B
331
B4
  5
B4
331
F3
  5
F3
331
1B48
  5
1EE2
331
1939
  5
180F
331
B0
  5
B0
331
EF
  5
EF
331
AC
  5
AC
331
EB
  5
EB
331
A8
  5
A8
331
1601
  5
1835
331
15C2
  5
1772
331
174D
  5
1B35
331
16D3
  5
18F0
331
197
  5
1453
331
1749
  5
1B31
331
16CF
  5
188B
331
154D
  5
1669
331
1745
  5
1A71
331
180C
  5
15F0
331
1CE
  5
15A3
331
1549
  5
1662
331
18F
  5
332
331
1741
  5
193A
331
1808
  5
15E6
331
1CA
  5
159F
331
1584
  5
175D
331
1EE7
  5
1A2
331
18B
  5
2B8
331
1580
  5
1759
331
1541
  5
15D9
331
1EE3
  5
198
331
1EA6
  5
1EA0
331
1450
  5
15D2
331
1EDF
  5
191
331
1EDB
  5
18D
331
1B44
  5
1EDE
331
1B40
  5
1EDA
331
1935
  5
1813
331
E7
  5
E7
331
1B3C
  5
1ED6
331
1931
  5
1817
331
E3
  5
E3
331
1B38
  5
1ED3
331
156
  5
1AD
331
DF
  5
DF
331
DB
  5
DB
331
15F5
  5
178F
331
15E9
  5
178E
331
1663
  5
1887
331
187
  5
2B5
331
16FE
  5
192B
331
157C
  5
1754
331
1C2
  5
1599
331
1735
  5
1936
331
165B
  5
1863
331
1578
  5
1750
331
1BE
  5
1595
331
1770
  5
1762
331
1BA
  5
158A
331
1574
  5
174C
331
1ED7
  5
188
331
17B
  5
1DA
331
1570
  5
1748
331
1E9A
  5
1EBD
331
188A
  5
15DF
331
2B9
  5
15C6
331
1ED3
  5
17C
331
1ECF
  5
178
331
192D
  5
181F
331
1ECB
  5
174
331
1B34
  5
1ECF
331
1929
  5
1827
331
1B30
  5
1ECB
331
1925
  5
182F
331
153D
  5
15D8
331
D7
  5
D7
331
15B0
  5
176D
331
D3
  5
D3
331
CF
  5
CF
331
10E
  5
10E
331
CB
  5
CB
331
10A
  5
10A
331
1624
  5
1841
331
15E5
  5
178C
331
15E1
  5
1788
331
15D9
  5
1785
331
1657
  5
165A
331
1653
  5
1656
331
176C
  5
1647
331
177
  5
1D4
331
1B6
  5
1582
331
164F
  5
1652
331
1768
  5
1643
331
156C
  5
1744
331
173
  5
1D0
331
2B5
  5
15BF
331
16EA
  5
1927
331
164B
  5
164E
331
1AE
  5
1563
331
1568
  5
1684
331
16F
  5
1CC
331
1764
  5
163F
331
1721
  5
1932
331
1760
  5
162E
331
1564
  5
1680
331
16B
  5
1C8
331
1EC7
  5
170
331
1560
  5
167C
331
342
  5
15CD
331
1EC3
  5
16C
331
1EFE
  5
1EA7
331
1EBF
  5
168
331
1EFA
  5
1EAC
331
1EBB
  5
164
331
18F1
  5
1EC7
331
1B5F
  5
1EF9
331
1865
  5
1E9D
331
106
  5
106
331
C7
  5
C7
331
1B5B
  5
1EF5
331
1861
  5
1E9B
331
C3
  5
C3
331
102
  5
102
331
BF
  5
BF
331
FE
  5
FE
331
BB
  5
BB
331
FA
  5
FA
331
1C1F
  5
1EFA
331
1610
  5
1839
331
15D1
  5
177D
331
15CD
  5
177B
331
15C9
  5
1773
331
1643
  5
1859
331
175C
  5
163A
331
167
  5
1C2
331
163F
  5
1851
331
1758
  5
163E
331
1A2
  5
153D
331
155C
  5
1678
331
163
  5
1BE
331
1754
  5
1B3D
331
163B
  5
1849
331
1558
  5
1674
331
15F
  5
1BA
331
1D9
  5
15AD
331
1750
  5
1B38
331
19A
  5
145F
331
1554
  5
1670
331
1EF6
  5
1EB6
331
1D5
  5
15AA
331
15B
  5
1B6
331
1EB7
  5
160
331
1550
  5
166C
331
1EF2
  5
1EB8
331
1D1
  5
15A6
331
1EB3
  5
15C
331
1EEE
  5
1EBF
331
1EAF
  5
158
331
1EEA
  5
1EC5
331
1B57
  5
1EF1
331
185D
  5
1E99
331
1EAB
  5
154
331
1B53
  5
1EED
331
1859
  5
1E49
331
1855
  5
1C20
331
1B4F
  5
1EE9
331
1816
  5
1606
331
1940
  5
1808
331
F6
  5
F6
331
B7
  5
B7
331
1851
  5
1B5F
331
1B4B
  5
1EE5
331
1812
  5
15FC
331
193C
  5
180C
331
1588
  5
1615
331
B3
  5
B3
331
F2
  5
F2
331
1938
  5
1810
331
AF
  5
AF
331
EE
  5
EE
331
AB
  5
AB
331
EA
  5
EA
331
15FC
  5
1833
  0
XRECORD
  5
1F04
102
{ACAD_REACTORS
330
1F02
102
}
330
1F02
100
AcDbXrecord
280
     1
 70
     2
  0
XRECORD
  5
1F03
102
{ACAD_REACTORS
330
1F02
102
}
330
1F02
100
AcDbXrecord
280
     1
 40
1.25
  0
XRECORD
  5
1F05
102
{ACAD_REACTORS
330
1F02
102
}
330
1F02
100
AcDbXrecord
280
     1
 40
1.570796326794896
  0
LAYOUT
  5
39
102
{ACAD_XDICTIONARY
360
1F29
102
}
102
{ACAD_REACTORS
330
2E
102
}
330
2E
100
AcDbPlotSettings
  1

  2
none_device
  4
Letter_(8.50_x_11.00_Inches)
  6

 40
6.349999904632567
 41
6.349999904632567
 42
6.350006103515625
 43
6.350006103515625
 44
215.8999938964844
 45
279.3999938964844
 46
0.0
 47
0.0
 48
0.0
 49
0.0
140
0.0
141
0.0
142
1.0
143
68.07446199212875
 70
 11952
 72
     0
 73
     1
 74
     0
  7

 75
     0
147
0.0146897965953169
148
-310.9108898901625
149
3486.702841499692
100
AcDbLayout
  1
Model
 70
     1
 71
     0
 10
0.0
 20
0.0
 11
12.0
 21
9.0
 12
0.0
 22
0.0
 32
0.0
 14
0.0
 24
0.0
 34
0.0
 15
0.0
 25
0.0
 35
0.0
146
0.0
 13
0.0
 23
0.0
 33
0.0
 16
1.0
 26
0.0
 36
0.0
 17
0.0
 27
1.0
 37
0.0
 76
     0
330
36
331
56
1001
ACAD_PSEXT
1000
なし
1000
なし
1000
適切ではありません
1000
新しいプロッタ環境設定名を選択しない限り、レイアウトは印刷されません。
1070
     0
  0
LAYOUT
  5
35
102
{ACAD_XDICTIONARY
360
1F27
102
}
102
{ACAD_REACTORS
330
2E
102
}
330
2E
100
AcDbPlotSettings
  1

  2
DocuPrint 305
  4

  6

 40
0.0
 41
0.0
 42
0.0
 43
0.0
 44
0.0
 45
0.0
 46
0.0
 47
0.0
 48
0.0
 49
0.0
140
0.0
141
0.0
142
1.0
143
1.0
 70
   688
 72
     0
 73
     0
 74
     5
  7

 75
    16
147
1.0
148
0.0
149
0.0
100
AcDbLayout
  1
レイアウト1
 70
     1
 71
     1
 10
0.0
 20
0.0
 11
12.0
 21
9.0
 12
0.0
 22
0.0
 32
0.0
 14
1.000000000000000E+20
 24
1.000000000000000E+20
 34
1.000000000000000E+20
 15
-1.000000000000000E+20
 25
-1.000000000000000E+20
 35
-1.000000000000000E+20
146
0.0
 13
0.0
 23
0.0
 33
0.0
 16
1.0
 26
0.0
 36
0.0
 17
0.0
 27
1.0
 37
0.0
 76
     0
330
32
  0
MATERIAL
  5
12
102
{ACAD_XDICTIONARY
360
1508
102
}
102
{ACAD_REACTORS
330
10
102
}
330
10
100
AcDbMaterial
  1
ByBlock
  0
MATERIAL
  5
11
102
{ACAD_XDICTIONARY
360
1506
102
}
102
{ACAD_REACTORS
330
10
102
}
330
10
100
AcDbMaterial
  1
ByLayer
  0
MATERIAL
  5
13
102
{ACAD_XDICTIONARY
360
150A
102
}
102
{ACAD_REACTORS
330
10
102
}
330
10
100
AcDbMaterial
  1
Global
  0
MLEADERSTYLE
  5
19AE
102
{ACAD_REACTORS
330
19AD
102
}
330
19AD
100
AcDbMLeaderStyle
170
     2
171
     1
172
     0
 90
        2
 40
0.0
 41
0.0
173
     1
 91
-1056964608
340
28
 92
       -2
290
     1
 42
0.09
291
     1
 43
0.36
  3
Standard
 44
0.18
300

342
26
174
     1
178
     6
175
     1
176
     0
 93
-1056964608
 45
0.18
292
     0
297
     0
 46
0.18
 94
-1056964608
 47
1.0
 49
1.0
140
1.0
293
     1
141
0.0
294
     1
177
     0
142
1.0
295
     0
296
     0
143
0.125
1001
ACAD_MLEADERVER
1070
     2
  0
MLINESTYLE
  5
2C
102
{ACAD_REACTORS
330
2B
102
}
330
2B
100
AcDbMlineStyle
  2
STANDARD
 70
     0
  3

 62
   256
 51
90.0
 52
90.0
 71
     2
 49
0.5
 62
   256
  6
BYLAYER
 49
-0.5
 62
   256
  6
BYLAYER
  0
ACDBPLACEHOLDER
  5
F
102
{ACAD_REACTORS
330
E
102
}
330
E
  0
SCALE
  5
199C
102
{ACAD_REACTORS
330
199B
102
}
330
199B
100
AcDbScale
 70
     0
300
1:1
140
1.0
141
1.0
290
     1
  0
SCALE
  5
199D
102
{ACAD_REACTORS
330
199B
102
}
330
199B
100
AcDbScale
 70
     0
300
1/128" = 1'-0"
140
0.0078125
141
12.0
290
     0
  0
SCALE
  5
199E
102
{ACAD_REACTORS
330
199B
102
}
330
199B
100
AcDbScale
 70
     0
300
1/64" = 1'-0"
140
0.015625
141
12.0
290
     0
  0
SCALE
  5
199F
102
{ACAD_REACTORS
330
199B
102
}
330
199B
100
AcDbScale
 70
     0
300
1/32" = 1'-0"
140
0.03125
141
12.0
290
     0
  0
SCALE
  5
19A0
102
{ACAD_REACTORS
330
199B
102
}
330
199B
100
AcDbScale
 70
     0
300
1/16" = 1'-0"
140
0.0625
141
12.0
290
     0
  0
SCALE
  5
19A1
102
{ACAD_REACTORS
330
199B
102
}
330
199B
100
AcDbScale
 70
     0
300
3/32" = 1'-0"
140
0.09375
141
12.0
290
     0
  0
SCALE
  5
19A2
102
{ACAD_REACTORS
330
199B
102
}
330
199B
100
AcDbScale
 70
     0
300
1/8" = 1'-0"
140
0.125
141
12.0
290
     0
  0
SCALE
  5
19A3
102
{ACAD_REACTORS
330
199B
102
}
330
199B
100
AcDbScale
 70
     0
300
3/16" = 1'-0"
140
0.1875
141
12.0
290
     0
  0
SCALE
  5
19A4
102
{ACAD_REACTORS
330
199B
102
}
330
199B
100
AcDbScale
 70
     0
300
1/4" = 1'-0"
140
0.25
141
12.0
290
     0
  0
SCALE
  5
19A5
102
{ACAD_REACTORS
330
199B
102
}
330
199B
100
AcDbScale
 70
     0
300
3/8" = 1'-0"
140
0.375
141
12.0
290
     0
  0
SCALE
  5
19A6
102
{ACAD_REACTORS
330
199B
102
}
330
199B
100
AcDbScale
 70
     0
300
1/2" = 1'-0"
140
0.5
141
12.0
290
     0
  0
SCALE
  5
19A7
102
{ACAD_REACTORS
330
199B
102
}
330
199B
100
AcDbScale
 70
     0
300
3/4" = 1'-0"
140
0.75
141
12.0
290
     0
  0
SCALE
  5
19A8
102
{ACAD_REACTORS
330
199B
102
}
330
199B
100
AcDbScale
 70
     0
300
1" = 1'-0"
140
1.0
141
12.0
290
     0
  0
SCALE
  5
19A9
102
{ACAD_REACTORS
330
199B
102
}
330
199B
100
AcDbScale
 70
     0
300
1-1/2" = 1'-0"
140
1.5
141
12.0
290
     0
  0
SCALE
  5
19AA
102
{ACAD_REACTORS
330
199B
102
}
330
199B
100
AcDbScale
 70
     0
300
3" = 1'-0"
140
3.0
141
12.0
290
     0
  0
SCALE
  5
19AB
102
{ACAD_REACTORS
330
199B
102
}
330
199B
100
AcDbScale
 70
     0
300
6" = 1'-0"
140
6.0
141
12.0
290
     0
  0
SCALE
  5
19AC
102
{ACAD_REACTORS
330
199B
102
}
330
199B
100
AcDbScale
 70
     0
300
1'-0" = 1'-0"
140
12.0
141
12.0
290
     0
  0
TABLESTYLE
  5
31
102
{ACAD_XDICTIONARY
360
19F0
102
}
102
{ACAD_REACTORS
330
30
102
}
330
30
100
AcDbTableStyle
  3
Standard
 70
     0
 71
     0
 40
0.06
 41
0.06
280
     0
281
     0
  7
STANDARD
140
0.18
170
     2
 62
     0
 63
     7
283
     0
274
    -2
284
     1
 64
     0
275
    -2
285
     1
 65
     0
276
    -2
286
     1
 66
     0
277
    -2
287
     1
 67
     0
278
    -2
288
     1
 68
     0
279
    -2
289
     1
 69
     0
  7
STANDARD
140
0.25
170
     5
 62
     0
 63
     7
283
     0
274
    -2
284
     1
 64
     0
275
    -2
285
     1
 65
     0
276
    -2
286
     1
 66
     0
277
    -2
287
     1
 67
     0
278
    -2
288
     1
 68
     0
279
    -2
289
     1
 69
     0
  7
STANDARD
140
0.18
170
     5
 62
     0
 63
     7
283
     0
274
    -2
284
     1
 64
     0
275
    -2
285
     1
 65
     0
276
    -2
286
     1
 66
     0
277
    -2
287
     1
 67
     0
278
    -2
288
     1
 68
     0
279
    -2
289
     1
 69
     0
  0
VISUALSTYLE
  5
1A
102
{ACAD_XDICTIONARY
360
1F10
102
}
102
{ACAD_REACTORS
330
14
102
}
330
14
100
AcDbVisualStyle
  2

 70
     4
 71
     0
 72
     2
 73
     0
 90
        0
 40
-0.6
 41
-30.0
 62
     5
 63
     7
 74
     1
 91
        4
 64
     7
 65
   257
 75
     1
175
     1
 42
1.0
 92
        0
 66
   257
 43
1.0
 76
     1
 77
     6
 78
     2
 67
     7
 79
     5
170
     0
171
     0
290
     0
174
     0
 93
        1
 44
0.0
173
     0
291
     0
 45
0.0
1001
ACAD
1000
AcDbSavedByObjectVersion
1070
     0
  0
VISUALSTYLE
  5
1C
102
{ACAD_XDICTIONARY
360
1F14
102
}
102
{ACAD_REACTORS
330
14
102
}
330
14
100
AcDbVisualStyle
  2

 70
     6
 71
     1
 72
     2
 73
     2
 90
        0
 40
-0.6
 41
-30.0
 62
     5
 63
     7
 74
     2
 91
        2
 64
     7
 65
   257
 75
     2
175
     1
 42
40.0
 92
        0
 66
   257
 43
1.0
 76
     1
 77
     6
 78
     2
 67
     7
 79
     3
170
     0
171
     0
290
     0
174
     0
 93
        1
 44
0.0
173
     0
291
     0
 45
0.0
1001
ACAD
1000
AcDbSavedByObjectVersion
1070
     0
  0
VISUALSTYLE
  5
1B
102
{ACAD_XDICTIONARY
360
1F12
102
}
102
{ACAD_REACTORS
330
14
102
}
330
14
100
AcDbVisualStyle
  2

 70
     5
 71
     0
 72
     2
 73
     0
 90
        0
 40
-0.6
 41
-30.0
 62
     5
 63
     7
 74
     1
 91
        4
 64
     7
 65
   257
 75
     1
175
     1
 42
1.0
 92
        0
 66
   257
 43
1.0
 76
     1
 77
     6
 78
     2
 67
     7
 79
     5
170
     0
171
     0
290
     0
174
     0
 93
        1
 44
0.0
173
     0
291
     0
 45
0.0
1001
ACAD
1000
AcDbSavedByObjectVersion
1070
     0
  0
VISUALSTYLE
  5
19
102
{ACAD_XDICTIONARY
360
1F0E
102
}
102
{ACAD_REACTORS
330
14
102
}
330
14
100
AcDbVisualStyle
  2

 70
     7
 71
     1
 72
     0
 73
     1
 90
        0
 40
-0.6
 41
-30.0
 62
     5
 63
     7
 74
     0
 91
        4
 64
     7
 65
   257
 75
     1
175
     1
 42
1.0
 92
        8
 66
     7
 43
1.0
 76
     1
 77
     6
 78
     2
 67
     7
 79
     5
170
     0
171
     0
290
     0
174
     0
 93
        1
 44
0.0
173
     0
291
     1
 45
0.0
1001
ACAD
1000
AcDbSavedByObjectVersion
1070
     0
  0
VISUALSTYLE
  5
20
102
{ACAD_XDICTIONARY
360
1F1C
102
}
102
{ACAD_REACTORS
330
14
102
}
330
14
100
AcDbVisualStyle
  2

 70
    12
 71
     2
 72
     2
 73
     0
 90
        0
 40
-0.6
 41
-30.0
 62
     5
 63
     7
 74
     1
 91
        4
 64
     7
 65
   257
 75
     1
175
     1
 42
1.0
 92
        8
 66
     7
 43
1.0
 76
     1
 77
     6
 78
     2
 67
     7
 79
     5
170
     0
171
     0
290
     0
174
     0
 93
        1
 44
50.0
173
     0
291
     1
 45
0.0
1001
ACAD
1000
AcDbSavedByObjectVersion
1070
     0
  0
VISUALSTYLE
  5
24
102
{ACAD_XDICTIONARY
360
1F24
102
}
102
{ACAD_REACTORS
330
14
102
}
330
14
100
AcDbVisualStyle
  2

 70
    16
 71
     2
 72
     2
 73
     3
 90
        0
 40
-0.6
 41
-30.0
 62
     5
 63
     8
 74
     1
 91
        4
 64
     7
 65
   257
 75
     1
175
     1
 42
1.0
 92
        8
 66
     8
 43
1.0
 76
     1
 77
     6
 78
     2
 67
     7
 79
     5
170
     0
171
     0
290
     0
174
     0
 93
        1
 44
0.0
173
     0
291
     1
 45
0.0
1001
ACAD
1000
AcDbSavedByObjectVersion
1070
     0
  0
VISUALSTYLE
  5
1D
102
{ACAD_XDICTIONARY
360
1F16
102
}
102
{ACAD_REACTORS
330
14
102
}
330
14
100
AcDbVisualStyle
  2

 70
     9
 71
     3
 72
     2
 73
     0
 90
        0
 40
-0.6
 41
-30.0
 62
     5
 63
     7
 74
     2
 91
        2
 64
     7
 65
   257
 75
     1
175
     1
 42
40.0
 92
        8
 66
     7
 43
1.0
 76
     1
 77
     6
 78
     2
 67
     7
 79
     3
170
     0
171
     0
290
     0
174
     0
 93
        1
 44
0.0
173
     0
291
     0
 45
0.0
1001
ACAD
1000
AcDbSavedByObjectVersion
1070
     0
  0
VISUALSTYLE
  5
1F
102
{ACAD_XDICTIONARY
360
1F1A
102
}
102
{ACAD_REACTORS
330
14
102
}
330
14
100
AcDbVisualStyle
  2

 70
    11
 71
     2
 72
     2
 73
     0
 90
        0
 40
-0.6
 41
-30.0
 62
     5
 63
     7
 74
     1
 91
        4
 64
     7
 65
   257
 75
     1
175
     1
 42
1.0
 92
        8
 66
     7
 43
1.0
 76
     1
 77
     6
 78
     2
 67
     7
 79
     5
170
     0
171
     0
290
     0
174
     0
 93
        1
 44
-50.0
173
     0
291
     1
 45
0.0
1001
ACAD
1000
AcDbSavedByObjectVersion
1070
     0
  0
VISUALSTYLE
  5
199A
102
{ACAD_XDICTIONARY
360
1F3D
102
}
102
{ACAD_REACTORS
330
14
102
}
330
14
100
AcDbVisualStyle
  2

 70
    22
 71
     2
 72
     2
 73
     0
 90
        0
 40
-0.6
 41
-30.0
 62
     5
 63
     7
 74
     1
 91
        4
 64
     7
 65
   257
 75
     1
175
     1
 42
1.0
 92
        8
 66
     7
 43
1.0
 76
     1
 77
     6
 78
     2
 67
     7
 79
     5
170
     0
171
     0
290
     0
174
     0
 93
        1
 44
0.0
173
     0
291
     1
 45
0.0
1001
ACAD
1000
AcDbSavedByObjectVersion
1070
     0
  0
VISUALSTYLE
  5
23
102
{ACAD_XDICTIONARY
360
1F22
102
}
102
{ACAD_REACTORS
330
14
102
}
330
14
100
AcDbVisualStyle
  2

 70
    15
 71
     2
 72
     2
 73
     0
 90
        0
 40
-0.6
 41
-30.0
 62
     5
 63
     7
 74
     1
 91
        4
 64
     7
 65
   257
 75
     1
175
     1
 42
1.0
 92
        8
 66
     7
 43
1.0
 76
     1
 77
     6
 78
     2
 67
     7
 79
     5
170
     0
171
     0
290
     0
174
     0
 93
        1
 44
0.0
173
     0
291
     1
 45
0.0
1001
ACAD
1000
AcDbSavedByObjectVersion
1070
     0
  0
VISUALSTYLE
  5
15
102
{ACAD_XDICTIONARY
360
1F06
102
}
102
{ACAD_REACTORS
330
14
102
}
330
14
100
AcDbVisualStyle
  2

 70
     0
 71
     2
 72
     1
 73
     1
 90
        2
 40
-0.6
 41
30.0
 62
     5
 63
     7
 74
     0
 91
        4
 64
     7
 65
   257
 75
     1
175
     1
 42
1.0
 92
        8
 66
     7
 43
1.0
 76
     1
 77
     6
 78
     2
 67
     7
 79
     5
170
     0
171
     0
290
     0
174
     0
 93
       13
 44
0.0
173
     0
291
     1
 45
0.0
1001
ACAD
1000
AcDbSavedByObjectVersion
1070
     0
  0
VISUALSTYLE
  5
16
102
{ACAD_XDICTIONARY
360
1F08
102
}
102
{ACAD_REACTORS
330
14
102
}
330
14
100
AcDbVisualStyle
  2

 70
     1
 71
     2
 72
     1
 73
     1
 90
        2
 40
-0.6
 41
30.0
 62
     5
 63
     7
 74
     1
 91
        4
 64
     7
 65
   257
 75
     1
175
     1
 42
1.0
 92
        0
 66
   257
 43
1.0
 76
     1
 77
     6
 78
     2
 67
     7
 79
     5
170
     0
171
     0
290
     0
174
     0
 93
       13
 44
0.0
173
     0
291
     1
 45
0.0
1001
ACAD
1000
AcDbSavedByObjectVersion
1070
     0
  0
VISUALSTYLE
  5
17
102
{ACAD_XDICTIONARY
360
1F0A
102
}
102
{ACAD_REACTORS
330
14
102
}
330
14
100
AcDbVisualStyle
  2

 70
     2
 71
     2
 72
     2
 73
     1
 90
        2
 40
-0.6
 41
30.0
 62
     5
 63
     7
 74
     0
 91
        4
 64
     7
 65
   257
 75
     1
175
     1
 42
1.0
 92
        0
 66
     7
 43
1.0
 76
     1
 77
     6
 78
     2
 67
     7
 79
     5
170
     0
171
     0
290
     0
174
     0
 93
       13
 44
0.0
173
     0
291
     1
 45
0.0
1001
ACAD
1000
AcDbSavedByObjectVersion
1070
     0
  0
VISUALSTYLE
  5
18
102
{ACAD_XDICTIONARY
360
1F0C
102
}
102
{ACAD_REACTORS
330
14
102
}
330
14
100
AcDbVisualStyle
  2

 70
     3
 71
     2
 72
     2
 73
     1
 90
        2
 40
-0.6
 41
30.0
 62
     5
 63
     7
 74
     1
 91
        4
 64
     7
 65
   257
 75
     1
175
     1
 42
1.0
 92
        0
 66
   257
 43
1.0
 76
     1
 77
     6
 78
     2
 67
     7
 79
     5
170
     0
171
     0
290
     0
174
     0
 93
       13
 44
0.0
173
     0
291
     1
 45
0.0
1001
ACAD
1000
AcDbSavedByObjectVersion
1070
     0
  0
VISUALSTYLE
  5
1992
102
{ACAD_XDICTIONARY
360
1F2D
102
}
102
{ACAD_REACTORS
330
14
102
}
330
14
100
AcDbVisualStyle
  2

 70
     6
 71
     1
 72
     2
 73
     2
 90
        0
 40
-0.6
 41
-30.0
 62
     5
 63
     7
 74
     2
 91
        2
 64
     7
 65
   257
 75
     2
175
     1
 42
40.0
 92
        0
 66
   257
 43
1.0
 76
     1
 77
     6
 78
     2
 67
     7
 79
     3
170
     0
171
     0
290
     0
174
     0
 93
        1
 44
0.0
173
     0
291
     0
 45
0.0
1001
ACAD
1000
AcDbSavedByObjectVersion
1070
     0
  0
VISUALSTYLE
  5
1998
102
{ACAD_XDICTIONARY
360
1F39
102
}
102
{ACAD_REACTORS
330
14
102
}
330
14
100
AcDbVisualStyle
  2

 70
    20
 71
     2
 72
     2
 73
     0
 90
        0
 40
-0.6
 41
-30.0
 62
     5
 63
     7
 74
     1
 91
        4
 64
     7
 65
   257
 75
     1
175
     1
 42
1.0
 92
       10
 66
     7
 43
1.0
 76
     1
 77
     6
 78
     2
 67
     7
 79
     5
170
     0
171
     0
290
     0
174
     0
 93
        1
 44
0.0
173
     0
291
     1
 45
0.0
1001
ACAD
1000
AcDbSavedByObjectVersion
1070
     0
  0
VISUALSTYLE
  5
22
102
{ACAD_XDICTIONARY
360
1F20
102
}
102
{ACAD_REACTORS
330
14
102
}
330
14
100
AcDbVisualStyle
  2

 70
    14
 71
     2
 72
     2
 73
     0
 90
        0
 40
-0.6
 41
-30.0
 62
     5
 63
     7
 74
     1
 91
        4
 64
     7
 65
   257
 75
     7
175
     7
 42
1.0
 92
        8
 66
     7
 43
1.0
 76
     1
 77
     6
 78
     2
 67
     7
 79
     5
170
     0
171
     0
290
     0
174
     0
 93
        1
 44
0.0
173
     0
291
     1
 45
0.0
1001
ACAD
1000
AcDbSavedByObjectVersion
1070
     0
  0
VISUALSTYLE
  5
1999
102
{ACAD_XDICTIONARY
360
1F3B
102
}
102
{ACAD_REACTORS
330
14
102
}
330
14
100
AcDbVisualStyle
  2

 70
    21
 71
     2
 72
     2
 73
     0
 90
        0
 40
-0.6
 41
-30.0
 62
     5
 63
     7
 74
     1
 91
        4
 64
     7
 65
   257
 75
     1
175
     1
 42
1.0
 92
        9
 66
     7
 43
1.0
 76
     1
 77
     6
 78
     2
 67
     7
 79
     5
170
     0
171
     0
290
     0
174
     0
 93
        1
 44
0.0
173
     0
291
     1
 45
0.0
1001
ACAD
1000
AcDbSavedByObjectVersion
1070
     0
  0
VISUALSTYLE
  5
1E
102
{ACAD_XDICTIONARY
360
1F18
102
}
102
{ACAD_REACTORS
330
14
102
}
330
14
100
AcDbVisualStyle
  2

 70
     8
 71
     2
 72
     2
 73
     0
 90
        0
 40
-0.6
 41
-30.0
 62
     5
 63
     7
 74
     1
 91
        0
 64
     7
 65
   257
 75
     1
175
     1
 42
1.0
 92
        8
 66
     8
 43
1.0
 76
     1
 77
     6
 78
     2
 67
     7
 79
     5
170
     0
171
     0
290
     0
174
     0
 93
       13
 44
0.0
173
     0
291
     0
 45
0.0
1001
ACAD
1000
AcDbSavedByObjectVersion
1070
     0
  0
VISUALSTYLE
  5
1997
102
{ACAD_XDICTIONARY
360
1F37
102
}
102
{ACAD_REACTORS
330
14
102
}
330
14
100
AcDbVisualStyle
  2

 70
    27
 71
     2
 72
     2
 73
     1
 90
        2
 40
-0.6
 41
30.0
 62
     5
 63
     7
 74
     0
 91
        4
 64
     7
 65
   257
 75
     1
175
     1
 42
1.0
 92
        8
 66
   257
 43
1.0
 76
     1
 77
     6
 78
     2
 67
     8
 79
     3
170
     0
171
     0
290
     0
174
     0
 93
        5
 44
0.0
173
     0
291
     0
 45
0.0
1001
ACAD
1000
AcDbSavedByObjectVersion
1070
     0
  0
VISUALSTYLE
  5
1996
102
{ACAD_XDICTIONARY
360
1F35
102
}
102
{ACAD_REACTORS
330
14
102
}
330
14
100
AcDbVisualStyle
  2

 70
    26
 71
     2
 72
     2
 73
     1
 90
        2
 40
-0.6
 41
30.0
 62
     5
 63
     7
 74
     1
 91
       10
 64
     7
 65
   257
 75
     2
175
     1
 42
1.0
 92
        8
 66
   257
 43
1.0
 76
     1
 77
     6
 78
     2
 67
     7
 79
     3
170
     0
171
     0
290
     0
174
     0
 93
        5
 44
0.0
173
     0
291
     0
 45
0.0
1001
ACAD
1000
AcDbSavedByObjectVersion
1070
     0
  0
VISUALSTYLE
  5
1993
102
{ACAD_XDICTIONARY
360
1F2F
102
}
102
{ACAD_REACTORS
330
14
102
}
330
14
100
AcDbVisualStyle
  2

 70
    23
 71
     2
 72
     2
 73
     3
 90
        0
 40
-0.6
 41
-30.0
 62
     5
 63
     7
 74
     2
 91
        2
 64
     7
 65
     7
 75
     1
175
     1
 42
40.0
 92
        8
 66
     7
 43
1.0
 76
     1
 77
     6
 78
     2
 67
     7
 79
     3
170
     0
171
     0
290
     0
174
     0
 93
        1
 44
0.0
173
     0
291
     0
 45
0.0
1001
ACAD
1000
AcDbSavedByObjectVersion
1070
     0
  0
VISUALSTYLE
  5
1994
102
{ACAD_XDICTIONARY
360
1F31
102
}
102
{ACAD_REACTORS
330
14
102
}
330
14
100
AcDbVisualStyle
  2

 70
    24
 71
     1
 72
     2
 73
     2
 90
        0
 40
-0.6
 41
-30.0
 62
     5
 63
     7
 74
     2
 91
        2
 64
     7
 65
     7
 75
     1
175
     1
 42
40.0
 92
       11
 66
     7
 43
1.0
 76
     1
 77
     6
 78
     2
 67
     7
 79
     6
170
     0
171
     0
290
     0
174
     0
 93
        1
 44
0.0
173
     0
291
     0
 45
0.0
1001
ACAD
1000
AcDbSavedByObjectVersion
1070
     0
  0
VISUALSTYLE
  5
21
102
{ACAD_XDICTIONARY
360
1F1E
102
}
102
{ACAD_REACTORS
330
14
102
}
330
14
100
AcDbVisualStyle
  2

 70
    13
 71
     2
 72
     2
 73
     0
 90
        0
 40
-0.6
 41
-30.0
 62
     5
 63
     7
 74
     1
 91
        4
 64
     7
 65
   257
 75
     1
175
     1
 42
1.0
 92
       12
 66
     7
 43
1.0
 76
     1
 77
     6
 78
     2
 67
     7
 79
     5
170
     0
171
     0
290
     0
174
     0
 93
        1
 44
0.0
173
     0
291
     1
 45
0.0
1001
ACAD
1000
AcDbSavedByObjectVersion
1070
     0
  0
VISUALSTYLE
  5
1991
102
{ACAD_XDICTIONARY
360
1F2B
102
}
102
{ACAD_REACTORS
330
14
102
}
330
14
100
AcDbVisualStyle
  2

 70
     5
 71
     0
 72
     2
 73
     0
 90
        0
 40
-0.6
 41
-30.0
 62
     5
 63
     7
 74
     1
 91
        4
 64
     7
 65
   257
 75
     1
175
     1
 42
1.0
 92
        0
 66
   257
 43
1.0
 76
     1
 77
     6
 78
     2
 67
     7
 79
     3
170
     0
171
     0
290
     0
174
     0
 93
        1
 44
0.0
173
     0
291
     0
 45
0.0
1001
ACAD
1000
AcDbSavedByObjectVersion
1070
     0
  0
VISUALSTYLE
  5
1995
102
{ACAD_XDICTIONARY
360
1F33
102
}
102
{ACAD_REACTORS
330
14
102
}
330
14
100
AcDbVisualStyle
  2

 70
    25
 71
     2
 72
     2
 73
     1
 90
        1
 40
0.5
 41
-30.0
 62
     5
 63
     7
 74
     1
 91
        0
 64
     7
 65
   257
 75
     1
175
     1
 42
1.0
 92
        8
 66
     7
 43
1.0
 76
     1
 77
     6
 78
     2
 67
     7
 79
     3
170
     0
171
     0
290
     0
174
     0
 93
       13
 44
0.0
173
     0
291
     0
 45
0.0
1001
ACAD
1000
AcDbSavedByObjectVersion
1070
     0
  0
DICTIONARYVAR
  5
19EE
102
{ACAD_REACTORS
330
346
102
}
330
346
100
DictionaryVariables
280
     0
  1
1:1
  0
DICTIONARYVAR
  5
19ED
102
{ACAD_REACTORS
330
346
102
}
330
346
100
DictionaryVariables
280
     0
  1
STANDARD
  0
DICTIONARYVAR
  5
347
102
{ACAD_REACTORS
330
346
102
}
330
346
100
DictionaryVariables
280
     0
  1
STANDARD
  0
DICTIONARYVAR
  5
14AC
102
{ACAD_REACTORS
330
346
102
}
330
346
100
DictionaryVariables
280
     0
  1
1
  0
DICTIONARYVAR
  5
14AB
102
{ACAD_REACTORS
330
346
102
}
330
346
100
DictionaryVariables
280
     0
  1
0
  0
DICTIONARYVAR
  5
14AA
102
{ACAD_REACTORS
330
346
102
}
330
346
100
DictionaryVariables
280
     0
  1
127
  0
DICTIONARYVAR
  5
1E4C
102
{ACAD_REACTORS
330
346
102
}
330
346
100
DictionaryVariables
280
     0
  1
2
  0
DICTIONARY
  5
1F29
330
39
100
AcDbDictionary
280
     1
281
     1
  3
ACAD_XREC_ROUNDTRIP
360
1F2A
  0
DICTIONARY
  5
1F27
330
35
100
AcDbDictionary
280
     1
281
     1
  3
ACAD_XREC_ROUNDTRIP
360
1F28
  0
DICTIONARY
  5
1508
330
12
100
AcDbDictionary
280
     1
281
     1
  3
ACAD_XREC_ROUNDTRIP
360
1509
  0
DICTIONARY
  5
1506
330
11
100
AcDbDictionary
280
     1
281
     1
  3
ACAD_XREC_ROUNDTRIP
360
1507
  0
DICTIONARY
  5
150A
330
13
100
AcDbDictionary
280
     1
281
     1
  3
ACAD_XREC_ROUNDTRIP
360
150B
  0
DICTIONARY
  5
19F0
330
31
100
AcDbDictionary
280
     1
281
     1
  3
ACAD_ROUNDTRIP_2008_TABLESTYLE_CELLSTYLEMAP
360
1EFF
  3
ACAD_XREC_ROUNDTRIP
360
1F26
  0
DICTIONARY
  5
1F10
330
1A
100
AcDbDictionary
280
     1
281
     1
  3
ACAD_XREC_ROUNDTRIP
360
1F11
  0
DICTIONARY
  5
1F14
330
1C
100
AcDbDictionary
280
     1
281
     1
  3
ACAD_XREC_ROUNDTRIP
360
1F15
  0
DICTIONARY
  5
1F12
330
1B
100
AcDbDictionary
280
     1
281
     1
  3
ACAD_XREC_ROUNDTRIP
360
1F13
  0
DICTIONARY
  5
1F0E
330
19
100
AcDbDictionary
280
     1
281
     1
  3
ACAD_XREC_ROUNDTRIP
360
1F0F
  0
DICTIONARY
  5
1F1C
330
20
100
AcDbDictionary
280
     1
281
     1
  3
ACAD_XREC_ROUNDTRIP
360
1F1D
  0
DICTIONARY
  5
1F24
330
24
100
AcDbDictionary
280
     1
281
     1
  3
ACAD_XREC_ROUNDTRIP
360
1F25
  0
DICTIONARY
  5
1F16
330
1D
100
AcDbDictionary
280
     1
281
     1
  3
ACAD_XREC_ROUNDTRIP
360
1F17
  0
DICTIONARY
  5
1F1A
330
1F
100
AcDbDictionary
280
     1
281
     1
  3
ACAD_XREC_ROUNDTRIP
360
1F1B
  0
DICTIONARY
  5
1F3D
330
199A
100
AcDbDictionary
280
     1
281
     1
  3
ACAD_XREC_ROUNDTRIP
360
1F3E
  0
DICTIONARY
  5
1F22
330
23
100
AcDbDictionary
280
     1
281
     1
  3
ACAD_XREC_ROUNDTRIP
360
1F23
  0
DICTIONARY
  5
1F06
330
15
100
AcDbDictionary
280
     1
281
     1
  3
ACAD_XREC_ROUNDTRIP
360
1F07
  0
DICTIONARY
  5
1F08
330
16
100
AcDbDictionary
280
     1
281
     1
  3
ACAD_XREC_ROUNDTRIP
360
1F09
  0
DICTIONARY
  5
1F0A
330
17
100
AcDbDictionary
280
     1
281
     1
  3
ACAD_XREC_ROUNDTRIP
360
1F0B
  0
DICTIONARY
  5
1F0C
330
18
100
AcDbDictionary
280
     1
281
     1
  3
ACAD_XREC_ROUNDTRIP
360
1F0D
  0
DICTIONARY
  5
1F2D
330
1992
100
AcDbDictionary
280
     1
281
     1
  3
ACAD_XREC_ROUNDTRIP
360
1F2E
  0
DICTIONARY
  5
1F39
330
1998
100
AcDbDictionary
280
     1
281
     1
  3
ACAD_XREC_ROUNDTRIP
360
1F3A
  0
DICTIONARY
  5
1F20
330
22
100
AcDbDictionary
280
     1
281
     1
  3
ACAD_XREC_ROUNDTRIP
360
1F21
  0
DICTIONARY
  5
1F3B
330
1999
100
AcDbDictionary
280
     1
281
     1
  3
ACAD_XREC_ROUNDTRIP
360
1F3C
  0
DICTIONARY
  5
1F18
330
1E
100
AcDbDictionary
280
     1
281
     1
  3
ACAD_XREC_ROUNDTRIP
360
1F19
  0
DICTIONARY
  5
1F37
330
1997
100
AcDbDictionary
280
     1
281
     1
  3
ACAD_XREC_ROUNDTRIP
360
1F38
  0
DICTIONARY
  5
1F35
330
1996
100
AcDbDictionary
280
     1
281
     1
  3
ACAD_XREC_ROUNDTRIP
360
1F36
  0
DICTIONARY
  5
1F2F
330
1993
100
AcDbDictionary
280
     1
281
     1
  3
ACAD_XREC_ROUNDTRIP
360
1F30
  0
DICTIONARY
  5
1F31
330
1994
100
AcDbDictionary
280
     1
281
     1
  3
ACAD_XREC_ROUNDTRIP
360
1F32
  0
DICTIONARY
  5
1F1E
330
21
100
AcDbDictionary
280
     1
281
     1
  3
ACAD_XREC_ROUNDTRIP
360
1F1F
  0
DICTIONARY
  5
1F2B
330
1991
100
AcDbDictionary
280
     1
281
     1
  3
ACAD_XREC_ROUNDTRIP
360
1F2C
  0
DICTIONARY
  5
1F33
330
1995
100
AcDbDictionary
280
     1
281
     1
  3
ACAD_XREC_ROUNDTRIP
360
1F34
  0
XRECORD
  5
1F2A
102
{ACAD_REACTORS
330
1F29
102
}
330
1F29
100
AcDbXrecord
280
     1
102
SHADEPLOT
 70
     0
102
SHADEPLOTRESLEVEL
 70
     2
102
SHADEPLOTCUSTOMDPI
 70
   300
  0
XRECORD
  5
1F28
102
{ACAD_REACTORS
330
1F27
102
}
330
1F27
100
AcDbXrecord
280
     1
102
SHADEPLOT
 70
     0
102
SHADEPLOTRESLEVEL
 70
     2
102
SHADEPLOTCUSTOMDPI
 70
   300
  0
XRECORD
  5
1509
102
{ACAD_REACTORS
330
1508
102
}
330
1508
100
AcDbXrecord
280
     1
102
MATERIAL
148
0.0
149
0.0
149
0.0
 93
        0
 94
      127
282
     0
 72
     1
 77
     1
171
     1
175
     1
179
     1
273
     0
  0
XRECORD
  5
1507
102
{ACAD_REACTORS
330
1506
102
}
330
1506
100
AcDbXrecord
280
     1
102
MATERIAL
148
0.0
149
0.0
149
0.0
 93
        0
 94
      127
282
     0
 72
     1
 77
     1
171
     1
175
     1
179
     1
273
     0
  0
XRECORD
  5
150B
102
{ACAD_REACTORS
330
150A
102
}
330
150A
100
AcDbXrecord
280
     1
102
MATERIAL
148
0.0
149
0.0
149
0.0
 93
        0
 94
      127
282
     0
 72
     1
 77
     1
171
     1
175
     1
179
     1
273
     0
  0
CELLSTYLEMAP
  5
1EFF
102
{ACAD_REACTORS
330
19F0
102
}
330
19F0
100
AcDbCellStyleMap
 90
        3
300
CELLSTYLE
  1
TABLEFORMAT_BEGIN
 90
        5
170
     1
 91
        0
 92
    32768
 62
   257
 93
        1
300
CONTENTFORMAT
  1
CONTENTFORMAT_BEGIN
 90
        0
 91
        0
 92
      512
 93
        0
300

 40
0.0
140
1.0
 94
        5
 62
     0
340
26
144
0.25
309
CONTENTFORMAT_END
171
     1
301
MARGIN
  1
CELLMARGIN_BEGIN
 40
0.06
 40
0.06
 40
0.06
 40
0.06
 40
0.18
 40
0.18
309
CELLMARGIN_END
 94
        6
 95
        1
302
GRIDFORMAT
  1
GRIDFORMAT_BEGIN
 90
        0
 91
        1
 62
     0
 92
       -2
340
0
 93
        0
 40
0.045
309
GRIDFORMAT_END
 95
        2
302
GRIDFORMAT
  1
GRIDFORMAT_BEGIN
 90
        0
 91
        1
 62
     0
 92
       -2
340
0
 93
        0
 40
0.045
309
GRIDFORMAT_END
 95
        4
302
GRIDFORMAT
  1
GRIDFORMAT_BEGIN
 90
        0
 91
        1
 62
     0
 92
       -2
340
0
 93
        0
 40
0.045
309
GRIDFORMAT_END
 95
        8
302
GRIDFORMAT
  1
GRIDFORMAT_BEGIN
 90
        0
 91
        1
 62
     0
 92
       -2
340
0
 93
        0
 40
0.045
309
GRIDFORMAT_END
 95
       16
302
GRIDFORMAT
  1
GRIDFORMAT_BEGIN
 90
        0
 91
        1
 62
     0
 92
       -2
340
0
 93
        0
 40
0.045
309
GRIDFORMAT_END
 95
       32
302
GRIDFORMAT
  1
GRIDFORMAT_BEGIN
 90
        0
 91
        1
 62
     0
 92
       -2
340
0
 93
        0
 40
0.045
309
GRIDFORMAT_END
309
TABLEFORMAT_END
  1
CELLSTYLE_BEGIN
 90
        1
 91
        1
300
_TITLE
309
CELLSTYLE_END
300
CELLSTYLE
  1
TABLEFORMAT_BEGIN
 90
        5
170
     1
 91
        0
 92
        0
 62
   257
 93
        1
300
CONTENTFORMAT
  1
CONTENTFORMAT_BEGIN
 90
        0
 91
        0
 92
      512
 93
        0
300

 40
0.0
140
1.0
 94
        5
 62
     0
340
26
144
0.18
309
CONTENTFORMAT_END
171
     1
301
MARGIN
  1
CELLMARGIN_BEGIN
 40
0.06
 40
0.06
 40
0.06
 40
0.06
 40
0.18
 40
0.18
309
CELLMARGIN_END
 94
        6
 95
        1
302
GRIDFORMAT
  1
GRIDFORMAT_BEGIN
 90
        0
 91
        1
 62
     0
 92
       -2
340
0
 93
        0
 40
0.045
309
GRIDFORMAT_END
 95
        2
302
GRIDFORMAT
  1
GRIDFORMAT_BEGIN
 90
        0
 91
        1
 62
     0
 92
       -2
340
0
 93
        0
 40
0.045
309
GRIDFORMAT_END
 95
        4
302
GRIDFORMAT
  1
GRIDFORMAT_BEGIN
 90
        0
 91
        1
 62
     0
 92
       -2
340
0
 93
        0
 40
0.045
309
GRIDFORMAT_END
 95
        8
302
GRIDFORMAT
  1
GRIDFORMAT_BEGIN
 90
        0
 91
        1
 62
     0
 92
       -2
340
0
 93
        0
 40
0.045
309
GRIDFORMAT_END
 95
       16
302
GRIDFORMAT
  1
GRIDFORMAT_BEGIN
 90
        0
 91
        1
 62
     0
 92
       -2
340
0
 93
        0
 40
0.045
309
GRIDFORMAT_END
 95
       32
302
GRIDFORMAT
  1
GRIDFORMAT_BEGIN
 90
        0
 91
        1
 62
     0
 92
       -2
340
0
 93
        0
 40
0.045
309
GRIDFORMAT_END
309
TABLEFORMAT_END
  1
CELLSTYLE_BEGIN
 90
        2
 91
        1
300
_HEADER
309
CELLSTYLE_END
300
CELLSTYLE
  1
TABLEFORMAT_BEGIN
 90
        5
170
     1
 91
        0
 92
        0
 62
   257
 93
        1
300
CONTENTFORMAT
  1
CONTENTFORMAT_BEGIN
 90
        0
 91
        0
 92
      512
 93
        0
300

 40
0.0
140
1.0
 94
        2
 62
     0
340
26
144
0.18
309
CONTENTFORMAT_END
171
     1
301
MARGIN
  1
CELLMARGIN_BEGIN
 40
0.06
 40
0.06
 40
0.06
 40
0.06
 40
0.18
 40
0.18
309
CELLMARGIN_END
 94
        6
 95
        1
302
GRIDFORMAT
  1
GRIDFORMAT_BEGIN
 90
        0
 91
        1
 62
     0
 92
       -2
340
0
 93
        0
 40
0.045
309
GRIDFORMAT_END
 95
        2
302
GRIDFORMAT
  1
GRIDFORMAT_BEGIN
 90
        0
 91
        1
 62
     0
 92
       -2
340
0
 93
        0
 40
0.045
309
GRIDFORMAT_END
 95
        4
302
GRIDFORMAT
  1
GRIDFORMAT_BEGIN
 90
        0
 91
        1
 62
     0
 92
       -2
340
0
 93
        0
 40
0.045
309
GRIDFORMAT_END
 95
        8
302
GRIDFORMAT
  1
GRIDFORMAT_BEGIN
 90
        0
 91
        1
 62
     0
 92
       -2
340
0
 93
        0
 40
0.045
309
GRIDFORMAT_END
 95
       16
302
GRIDFORMAT
  1
GRIDFORMAT_BEGIN
 90
        0
 91
        1
 62
     0
 92
       -2
340
0
 93
        0
 40
0.045
309
GRIDFORMAT_END
 95
       32
302
GRIDFORMAT
  1
GRIDFORMAT_BEGIN
 90
        0
 91
        1
 62
     0
 92
       -2
340
0
 93
        0
 40
0.045
309
GRIDFORMAT_END
309
TABLEFORMAT_END
  1
CELLSTYLE_BEGIN
 90
        3
 91
        2
300
_DATA
309
CELLSTYLE_END
  0
XRECORD
  5
1F26
102
{ACAD_REACTORS
330
19F0
102
}
330
19F0
100
AcDbXrecord
280
     1
102
ACAD_ROUNDTRIP_PRE2007_TABLESTYLE
 90
      512
 91
        0
  1

 92
      512
 93
        0
  2

 94
      512
 95
        0
  3

  0
XRECORD
  5
1F11
102
{ACAD_REACTORS
330
1F10
102
}
330
1F10
100
AcDbXrecord
280
     1
102
RTVSPropertyOp0
 70
     1
102
RTVSPropertyOp1
 70
     1
102
RTVSPropertyOp2
 70
     1
102
RTVSPropertyOp3
 70
     1
102
RTVSPropertyOp4
 70
     1
102
RTVSPropertyOp5
 70
     1
102
RTVSPropertyOp6
 70
     1
102
RTVSPropertyOp7
 70
     1
102
RTVSPropertyOp8
 70
     1
102
RTVSPropertyOp9
 70
     1
102
RTVSPropertyOp10
 70
     1
102
RTVSPropertyOp11
 70
     1
102
RTVSPropertyOp12
 70
     1
102
RTVSPropertyOp13
 70
     1
102
RTVSPropertyOp14
 70
     1
102
RTVSPropertyOp15
 70
     1
102
RTVSPropertyOp16
 70
     1
102
RTVSPropertyOp17
 70
     1
102
RTVSPropertyOp18
 70
     1
102
RTVSPropertyOp19
 70
     1
102
RTVSPropertyOp20
 70
     1
102
RTVSPropertyOp21
 70
     1
102
RTVSPropertyOp22
 70
     1
102
RTVSPropertyOp23
 70
     1
102
RTVSPropertyOp24
 70
     1
102
RTVSPropertyOp25
 70
     1
102
RTVSPropertyOp26
 70
     1
102
RTVSPropertyOp27
 70
     1
102
RTVSPropertyOp28
 70
     1
102
RTVSPropertyOp29
 70
     1
102
RTVSPropertyOp30
 70
     1
102
RTVSPropertyOp31
 70
     1
102
RTVSPropertyOp32
 70
     1
  0
XRECORD
  5
1F15
102
{ACAD_REACTORS
330
1F14
102
}
330
1F14
100
AcDbXrecord
280
     1
102
RTVSPropertyOp0
 70
     1
102
RTVSPropertyOp1
 70
     1
102
RTVSPropertyOp2
 70
     1
102
RTVSPropertyOp3
 70
     1
102
RTVSPropertyOp4
 70
     1
102
RTVSPropertyOp5
 70
     1
102
RTVSPropertyOp6
 70
     1
102
RTVSPropertyOp7
 70
     1
102
RTVSPropertyOp8
 70
     1
102
RTVSPropertyOp9
 70
     1
102
RTVSPropertyOp10
 70
     1
102
RTVSPropertyOp11
 70
     1
102
RTVSPropertyOp12
 70
     1
102
RTVSPropertyOp13
 70
     1
102
RTVSPropertyOp14
 70
     1
102
RTVSPropertyOp15
 70
     1
102
RTVSPropertyOp16
 70
     1
102
RTVSPropertyOp17
 70
     1
102
RTVSPropertyOp18
 70
     1
102
RTVSPropertyOp19
 70
     1
102
RTVSPropertyOp20
 70
     1
102
RTVSPropertyOp21
 70
     1
102
RTVSPropertyOp22
 70
     1
102
RTVSPropertyOp23
 70
     1
102
RTVSPropertyOp24
 70
     1
102
RTVSPropertyOp25
 70
     1
102
RTVSPropertyOp26
 70
     1
102
RTVSPropertyOp27
 70
     1
102
RTVSPropertyOp28
 70
     1
102
RTVSPropertyOp29
 70
     1
102
RTVSPropertyOp30
 70
     1
102
RTVSPropertyOp31
 70
     1
102
RTVSPropertyOp32
 70
     1
  0
XRECORD
  5
1F13
102
{ACAD_REACTORS
330
1F12
102
}
330
1F12
100
AcDbXrecord
280
     1
102
RTVSPropertyOp0
 70
     1
102
RTVSPropertyOp1
 70
     1
102
RTVSPropertyOp2
 70
     1
102
RTVSPropertyOp3
 70
     1
102
RTVSPropertyOp4
 70
     1
102
RTVSPropertyOp5
 70
     1
102
RTVSPropertyOp6
 70
     1
102
RTVSPropertyOp7
 70
     1
102
RTVSPropertyOp8
 70
     1
102
RTVSPropertyOp9
 70
     1
102
RTVSPropertyOp10
 70
     1
102
RTVSPropertyOp11
 70
     1
102
RTVSPropertyOp12
 70
     1
102
RTVSPropertyOp13
 70
     1
102
RTVSPropertyOp14
 70
     1
102
RTVSPropertyOp15
 70
     1
102
RTVSPropertyOp16
 70
     1
102
RTVSPropertyOp17
 70
     1
102
RTVSPropertyOp18
 70
     1
102
RTVSPropertyOp19
 70
     1
102
RTVSPropertyOp20
 70
     1
102
RTVSPropertyOp21
 70
     1
102
RTVSPropertyOp22
 70
     1
102
RTVSPropertyOp23
 70
     1
102
RTVSPropertyOp24
 70
     1
102
RTVSPropertyOp25
 70
     1
102
RTVSPropertyOp26
 70
     1
102
RTVSPropertyOp27
 70
     1
102
RTVSPropertyOp28
 70
     1
102
RTVSPropertyOp29
 70
     1
102
RTVSPropertyOp30
 70
     1
102
RTVSPropertyOp31
 70
     1
102
RTVSPropertyOp32
 70
     1
  0
XRECORD
  5
1F0F
102
{ACAD_REACTORS
330
1F0E
102
}
330
1F0E
100
AcDbXrecord
280
     1
102
RTVSPropertyOp0
 70
     1
102
RTVSPropertyOp1
 70
     1
102
RTVSPropertyOp2
 70
     1
102
RTVSPropertyOp3
 70
     1
102
RTVSPropertyOp4
 70
     1
102
RTVSPropertyOp5
 70
     1
102
RTVSPropertyOp6
 70
     1
102
RTVSPropertyOp7
 70
     1
102
RTVSPropertyOp8
 70
     1
102
RTVSPropertyOp9
 70
     1
102
RTVSPropertyOp10
 70
     1
102
RTVSPropertyOp11
 70
     1
102
RTVSPropertyOp12
 70
     1
102
RTVSPropertyOp13
 70
     1
102
RTVSPropertyOp14
 70
     1
102
RTVSPropertyOp15
 70
     1
102
RTVSPropertyOp16
 70
     1
102
RTVSPropertyOp17
 70
     1
102
RTVSPropertyOp18
 70
     1
102
RTVSPropertyOp19
 70
     1
102
RTVSPropertyOp20
 70
     1
102
RTVSPropertyOp21
 70
     1
102
RTVSPropertyOp22
 70
     1
102
RTVSPropertyOp23
 70
     1
102
RTVSPropertyOp24
 70
     1
102
RTVSPropertyOp25
 70
     1
102
RTVSPropertyOp26
 70
     1
102
RTVSPropertyOp27
 70
     1
102
RTVSPropertyOp28
 70
     1
102
RTVSPropertyOp29
 70
     1
102
RTVSPropertyOp30
 70
     1
102
RTVSPropertyOp31
 70
     1
102
RTVSPropertyOp32
 70
     1
  0
XRECORD
  5
1F1D
102
{ACAD_REACTORS
330
1F1C
102
}
330
1F1C
100
AcDbXrecord
280
     1
102
RTVSPropertyOp0
 70
     1
102
RTVSPropertyOp1
 70
     1
102
RTVSPropertyOp2
 70
     1
102
RTVSPropertyOp3
 70
     1
102
RTVSPropertyOp4
 70
     1
102
RTVSPropertyOp5
 70
     1
102
RTVSPropertyOp6
 70
     1
102
RTVSPropertyOp7
 70
     1
102
RTVSPropertyOp8
 70
     1
102
RTVSPropertyOp9
 70
     1
102
RTVSPropertyOp10
 70
     1
102
RTVSPropertyOp11
 70
     1
102
RTVSPropertyOp12
 70
     1
102
RTVSPropertyOp13
 70
     1
102
RTVSPropertyOp14
 70
     1
102
RTVSPropertyOp15
 70
     1
102
RTVSPropertyOp16
 70
     1
102
RTVSPropertyOp17
 70
     1
102
RTVSPropertyOp18
 70
     1
102
RTVSPropertyOp19
 70
     1
102
RTVSPropertyOp20
 70
     1
102
RTVSPropertyOp21
 70
     1
102
RTVSPropertyOp22
 70
     1
102
RTVSPropertyOp23
 70
     1
102
RTVSPropertyOp24
 70
     1
102
RTVSPropertyOp25
 70
     1
102
RTVSPropertyOp26
 70
     1
102
RTVSPropertyOp27
 70
     1
102
RTVSPropertyOp28
 70
     1
102
RTVSPropertyOp29
 70
     1
102
RTVSPropertyOp30
 70
     1
102
RTVSPropertyOp31
 70
     1
102
RTVSPropertyOp32
 70
     1
  0
XRECORD
  5
1F25
102
{ACAD_REACTORS
330
1F24
102
}
330
1F24
100
AcDbXrecord
280
     1
102
RTVSPropertyOp0
 70
     1
102
RTVSPropertyOp1
 70
     1
102
RTVSPropertyOp2
 70
     1
102
RTVSPropertyOp3
 70
     1
102
RTVSPropertyOp4
 70
     1
102
RTVSPropertyOp5
 70
     1
102
RTVSPropertyOp6
 70
     1
102
RTVSPropertyOp7
 70
     1
102
RTVSPropertyOp8
 70
     1
102
RTVSPropertyOp9
 70
     1
102
RTVSPropertyOp10
 70
     1
102
RTVSPropertyOp11
 70
     1
102
RTVSPropertyOp12
 70
     1
102
RTVSPropertyOp13
 70
     1
102
RTVSPropertyOp14
 70
     1
102
RTVSPropertyOp15
 70
     1
102
RTVSPropertyOp16
 70
     1
102
RTVSPropertyOp17
 70
     1
102
RTVSPropertyOp18
 70
     1
102
RTVSPropertyOp19
 70
     1
102
RTVSPropertyOp20
 70
     1
102
RTVSPropertyOp21
 70
     1
102
RTVSPropertyOp22
 70
     1
102
RTVSPropertyOp23
 70
     1
102
RTVSPropertyOp24
 70
     1
102
RTVSPropertyOp25
 70
     1
102
RTVSPropertyOp26
 70
     1
102
RTVSPropertyOp27
 70
     1
102
RTVSPropertyOp28
 70
     1
102
RTVSPropertyOp29
 70
     1
102
RTVSPropertyOp30
 70
     1
102
RTVSPropertyOp31
 70
     1
102
RTVSPropertyOp32
 70
     1
  0
XRECORD
  5
1F17
102
{ACAD_REACTORS
330
1F16
102
}
330
1F16
100
AcDbXrecord
280
     1
102
RTVSPropertyOp0
 70
     1
102
RTVSPropertyOp1
 70
     1
102
RTVSPropertyOp2
 70
     1
102
RTVSPropertyOp3
 70
     1
102
RTVSPropertyOp4
 70
     1
102
RTVSPropertyOp5
 70
     1
102
RTVSPropertyOp6
 70
     1
102
RTVSPropertyOp7
 70
     1
102
RTVSPropertyOp8
 70
     1
102
RTVSPropertyOp9
 70
     1
102
RTVSPropertyOp10
 70
     1
102
RTVSPropertyOp11
 70
     1
102
RTVSPropertyOp12
 70
     1
102
RTVSPropertyOp13
 70
     1
102
RTVSPropertyOp14
 70
     1
102
RTVSPropertyOp15
 70
     1
102
RTVSPropertyOp16
 70
     1
102
RTVSPropertyOp17
 70
     1
102
RTVSPropertyOp18
 70
     1
102
RTVSPropertyOp19
 70
     1
102
RTVSPropertyOp20
 70
     1
102
RTVSPropertyOp21
 70
     1
102
RTVSPropertyOp22
 70
     1
102
RTVSPropertyOp23
 70
     1
102
RTVSPropertyOp24
 70
     1
102
RTVSPropertyOp25
 70
     1
102
RTVSPropertyOp26
 70
     1
102
RTVSPropertyOp27
 70
     1
102
RTVSPropertyOp28
 70
     1
102
RTVSPropertyOp29
 70
     1
102
RTVSPropertyOp30
 70
     1
102
RTVSPropertyOp31
 70
     1
102
RTVSPropertyOp32
 70
     1
  0
XRECORD
  5
1F1B
102
{ACAD_REACTORS
330
1F1A
102
}
330
1F1A
100
AcDbXrecord
280
     1
102
RTVSPropertyOp0
 70
     1
102
RTVSPropertyOp1
 70
     1
102
RTVSPropertyOp2
 70
     1
102
RTVSPropertyOp3
 70
     1
102
RTVSPropertyOp4
 70
     1
102
RTVSPropertyOp5
 70
     1
102
RTVSPropertyOp6
 70
     1
102
RTVSPropertyOp7
 70
     1
102
RTVSPropertyOp8
 70
     1
102
RTVSPropertyOp9
 70
     1
102
RTVSPropertyOp10
 70
     1
102
RTVSPropertyOp11
 70
     1
102
RTVSPropertyOp12
 70
     1
102
RTVSPropertyOp13
 70
     1
102
RTVSPropertyOp14
 70
     1
102
RTVSPropertyOp15
 70
     1
102
RTVSPropertyOp16
 70
     1
102
RTVSPropertyOp17
 70
     1
102
RTVSPropertyOp18
 70
     1
102
RTVSPropertyOp19
 70
     1
102
RTVSPropertyOp20
 70
     1
102
RTVSPropertyOp21
 70
     1
102
RTVSPropertyOp22
 70
     1
102
RTVSPropertyOp23
 70
     1
102
RTVSPropertyOp24
 70
     1
102
RTVSPropertyOp25
 70
     1
102
RTVSPropertyOp26
 70
     1
102
RTVSPropertyOp27
 70
     1
102
RTVSPropertyOp28
 70
     1
102
RTVSPropertyOp29
 70
     1
102
RTVSPropertyOp30
 70
     1
102
RTVSPropertyOp31
 70
     1
102
RTVSPropertyOp32
 70
     1
  0
XRECORD
  5
1F3E
102
{ACAD_REACTORS
330
1F3D
102
}
330
1F3D
100
AcDbXrecord
280
     1
102
RTVSPropertyOp0
 70
     0
102
RTVSPropertyOp1
 70
     0
102
RTVSPropertyOp2
 70
     0
102
RTVSPropertyOp3
 70
     0
102
RTVSPropertyOp4
 70
     0
102
RTVSPropertyOp5
 70
     0
102
RTVSPropertyOp6
 70
     0
102
RTVSPropertyOp7
 70
     0
102
RTVSPropertyOp8
 70
     0
102
RTVSPropertyOp9
 70
     0
102
RTVSPropertyOp10
 70
     0
102
RTVSPropertyOp11
 70
     0
102
RTVSPropertyOp12
 70
     0
102
RTVSPropertyOp13
 70
     0
102
RTVSPropertyOp14
 70
     2
102
RTVSPropertyOp15
 70
     0
102
RTVSPropertyOp16
 70
     0
102
RTVSPropertyOp17
 70
     0
102
RTVSPropertyOp18
 70
     0
102
RTVSPropertyOp19
 70
     0
102
RTVSPropertyOp20
 70
     0
102
RTVSPropertyOp21
 70
     0
102
RTVSPropertyOp22
 70
     0
102
RTVSPropertyOp23
 70
     0
102
RTVSPropertyOp24
 70
     0
102
RTVSPropertyOp25
 70
     0
102
RTVSPropertyOp26
 70
     0
102
RTVSPropertyOp27
 70
     0
102
RTVSPropertyOp28
 70
     0
102
RTVSPropertyOp29
 70
     0
102
RTVSPropertyOp30
 70
     0
102
RTVSPropertyOp31
 70
     0
102
RTVSPropertyOp32
 70
     0
  0
XRECORD
  5
1F23
102
{ACAD_REACTORS
330
1F22
102
}
330
1F22
100
AcDbXrecord
280
     1
102
RTVSPropertyOp0
 70
     1
102
RTVSPropertyOp1
 70
     1
102
RTVSPropertyOp2
 70
     1
102
RTVSPropertyOp3
 70
     1
102
RTVSPropertyOp4
 70
     1
102
RTVSPropertyOp5
 70
     1
102
RTVSPropertyOp6
 70
     1
102
RTVSPropertyOp7
 70
     1
102
RTVSPropertyOp8
 70
     1
102
RTVSPropertyOp9
 70
     1
102
RTVSPropertyOp10
 70
     1
102
RTVSPropertyOp11
 70
     1
102
RTVSPropertyOp12
 70
     1
102
RTVSPropertyOp13
 70
     1
102
RTVSPropertyOp14
 70
     1
102
RTVSPropertyOp15
 70
     1
102
RTVSPropertyOp16
 70
     1
102
RTVSPropertyOp17
 70
     1
102
RTVSPropertyOp18
 70
     1
102
RTVSPropertyOp19
 70
     1
102
RTVSPropertyOp20
 70
     1
102
RTVSPropertyOp21
 70
     1
102
RTVSPropertyOp22
 70
     1
102
RTVSPropertyOp23
 70
     1
102
RTVSPropertyOp24
 70
     1
102
RTVSPropertyOp25
 70
     1
102
RTVSPropertyOp26
 70
     1
102
RTVSPropertyOp27
 70
     1
102
RTVSPropertyOp28
 70
     1
102
RTVSPropertyOp29
 70
     1
102
RTVSPropertyOp30
 70
     1
102
RTVSPropertyOp31
 70
     1
102
RTVSPropertyOp32
 70
     1
  0
XRECORD
  5
1F07
102
{ACAD_REACTORS
330
1F06
102
}
330
1F06
100
AcDbXrecord
280
     1
102
RTVSPropertyOp0
 70
     1
102
RTVSPropertyOp1
 70
     1
102
RTVSPropertyOp2
 70
     1
102
RTVSPropertyOp3
 70
     1
102
RTVSPropertyOp4
 70
     1
102
RTVSPropertyOp5
 70
     1
102
RTVSPropertyOp6
 70
     1
102
RTVSPropertyOp7
 70
     1
102
RTVSPropertyOp8
 70
     1
102
RTVSPropertyOp9
 70
     1
102
RTVSPropertyOp10
 70
     1
102
RTVSPropertyOp11
 70
     1
102
RTVSPropertyOp12
 70
     1
102
RTVSPropertyOp13
 70
     1
102
RTVSPropertyOp14
 70
     1
102
RTVSPropertyOp15
 70
     1
102
RTVSPropertyOp16
 70
     1
102
RTVSPropertyOp17
 70
     1
102
RTVSPropertyOp18
 70
     1
102
RTVSPropertyOp19
 70
     1
102
RTVSPropertyOp20
 70
     1
102
RTVSPropertyOp21
 70
     1
102
RTVSPropertyOp22
 70
     1
102
RTVSPropertyOp23
 70
     1
102
RTVSPropertyOp24
 70
     1
102
RTVSPropertyOp25
 70
     1
102
RTVSPropertyOp26
 70
     1
102
RTVSPropertyOp27
 70
     1
102
RTVSPropertyOp28
 70
     1
102
RTVSPropertyOp29
 70
     1
102
RTVSPropertyOp30
 70
     1
102
RTVSPropertyOp31
 70
     1
102
RTVSPropertyOp32
 70
     1
  0
XRECORD
  5
1F09
102
{ACAD_REACTORS
330
1F08
102
}
330
1F08
100
AcDbXrecord
280
     1
102
RTVSPropertyOp0
 70
     1
102
RTVSPropertyOp1
 70
     1
102
RTVSPropertyOp2
 70
     1
102
RTVSPropertyOp3
 70
     1
102
RTVSPropertyOp4
 70
     1
102
RTVSPropertyOp5
 70
     1
102
RTVSPropertyOp6
 70
     1
102
RTVSPropertyOp7
 70
     1
102
RTVSPropertyOp8
 70
     1
102
RTVSPropertyOp9
 70
     1
102
RTVSPropertyOp10
 70
     1
102
RTVSPropertyOp11
 70
     1
102
RTVSPropertyOp12
 70
     1
102
RTVSPropertyOp13
 70
     1
102
RTVSPropertyOp14
 70
     1
102
RTVSPropertyOp15
 70
     1
102
RTVSPropertyOp16
 70
     1
102
RTVSPropertyOp17
 70
     1
102
RTVSPropertyOp18
 70
     1
102
RTVSPropertyOp19
 70
     1
102
RTVSPropertyOp20
 70
     1
102
RTVSPropertyOp21
 70
     1
102
RTVSPropertyOp22
 70
     1
102
RTVSPropertyOp23
 70
     1
102
RTVSPropertyOp24
 70
     1
102
RTVSPropertyOp25
 70
     1
102
RTVSPropertyOp26
 70
     1
102
RTVSPropertyOp27
 70
     1
102
RTVSPropertyOp28
 70
     1
102
RTVSPropertyOp29
 70
     1
102
RTVSPropertyOp30
 70
     1
102
RTVSPropertyOp31
 70
     1
102
RTVSPropertyOp32
 70
     1
  0
XRECORD
  5
1F0B
102
{ACAD_REACTORS
330
1F0A
102
}
330
1F0A
100
AcDbXrecord
280
     1
102
RTVSPropertyOp0
 70
     1
102
RTVSPropertyOp1
 70
     1
102
RTVSPropertyOp2
 70
     1
102
RTVSPropertyOp3
 70
     1
102
RTVSPropertyOp4
 70
     1
102
RTVSPropertyOp5
 70
     1
102
RTVSPropertyOp6
 70
     1
102
RTVSPropertyOp7
 70
     1
102
RTVSPropertyOp8
 70
     1
102
RTVSPropertyOp9
 70
     1
102
RTVSPropertyOp10
 70
     1
102
RTVSPropertyOp11
 70
     1
102
RTVSPropertyOp12
 70
     1
102
RTVSPropertyOp13
 70
     1
102
RTVSPropertyOp14
 70
     1
102
RTVSPropertyOp15
 70
     1
102
RTVSPropertyOp16
 70
     1
102
RTVSPropertyOp17
 70
     1
102
RTVSPropertyOp18
 70
     1
102
RTVSPropertyOp19
 70
     1
102
RTVSPropertyOp20
 70
     1
102
RTVSPropertyOp21
 70
     1
102
RTVSPropertyOp22
 70
     1
102
RTVSPropertyOp23
 70
     1
102
RTVSPropertyOp24
 70
     1
102
RTVSPropertyOp25
 70
     1
102
RTVSPropertyOp26
 70
     1
102
RTVSPropertyOp27
 70
     1
102
RTVSPropertyOp28
 70
     1
102
RTVSPropertyOp29
 70
     1
102
RTVSPropertyOp30
 70
     1
102
RTVSPropertyOp31
 70
     1
102
RTVSPropertyOp32
 70
     1
  0
XRECORD
  5
1F0D
102
{ACAD_REACTORS
330
1F0C
102
}
330
1F0C
100
AcDbXrecord
280
     1
102
RTVSPropertyOp0
 70
     1
102
RTVSPropertyOp1
 70
     1
102
RTVSPropertyOp2
 70
     1
102
RTVSPropertyOp3
 70
     1
102
RTVSPropertyOp4
 70
     1
102
RTVSPropertyOp5
 70
     1
102
RTVSPropertyOp6
 70
     1
102
RTVSPropertyOp7
 70
     1
102
RTVSPropertyOp8
 70
     1
102
RTVSPropertyOp9
 70
     1
102
RTVSPropertyOp10
 70
     1
102
RTVSPropertyOp11
 70
     1
102
RTVSPropertyOp12
 70
     1
102
RTVSPropertyOp13
 70
     1
102
RTVSPropertyOp14
 70
     1
102
RTVSPropertyOp15
 70
     1
102
RTVSPropertyOp16
 70
     1
102
RTVSPropertyOp17
 70
     1
102
RTVSPropertyOp18
 70
     1
102
RTVSPropertyOp19
 70
     1
102
RTVSPropertyOp20
 70
     1
102
RTVSPropertyOp21
 70
     1
102
RTVSPropertyOp22
 70
     1
102
RTVSPropertyOp23
 70
     1
102
RTVSPropertyOp24
 70
     1
102
RTVSPropertyOp25
 70
     1
102
RTVSPropertyOp26
 70
     1
102
RTVSPropertyOp27
 70
     1
102
RTVSPropertyOp28
 70
     1
102
RTVSPropertyOp29
 70
     1
102
RTVSPropertyOp30
 70
     1
102
RTVSPropertyOp31
 70
     1
102
RTVSPropertyOp32
 70
     1
  0
XRECORD
  5
1F2E
102
{ACAD_REACTORS
330
1F2D
102
}
330
1F2D
100
AcDbXrecord
280
     1
102
RTVSPropertyOp0
 70
     1
102
RTVSPropertyOp1
 70
     1
102
RTVSPropertyOp2
 70
     1
102
RTVSPropertyOp3
 70
     1
102
RTVSPropertyOp4
 70
     1
102
RTVSPropertyOp5
 70
     1
102
RTVSPropertyOp6
 70
     1
102
RTVSPropertyOp7
 70
     1
102
RTVSPropertyOp8
 70
     1
102
RTVSPropertyOp9
 70
     1
102
RTVSPropertyOp10
 70
     1
102
RTVSPropertyOp11
 70
     1
102
RTVSPropertyOp12
 70
     1
102
RTVSPropertyOp13
 70
     1
102
RTVSPropertyOp14
 70
     1
102
RTVSPropertyOp15
 70
     1
102
RTVSPropertyOp16
 70
     1
102
RTVSPropertyOp17
 70
     1
102
RTVSPropertyOp18
 70
     1
102
RTVSPropertyOp19
 70
     1
102
RTVSPropertyOp20
 70
     1
102
RTVSPropertyOp21
 70
     1
102
RTVSPropertyOp22
 70
     1
102
RTVSPropertyOp23
 70
     1
102
RTVSPropertyOp24
 70
     1
102
RTVSPropertyOp25
 70
     1
102
RTVSPropertyOp26
 70
     1
102
RTVSPropertyOp27
 70
     1
102
RTVSPropertyOp28
 70
     1
102
RTVSPropertyOp29
 70
     1
102
RTVSPropertyOp30
 70
     1
102
RTVSPropertyOp31
 70
     1
102
RTVSPropertyOp32
 70
     1
  0
XRECORD
  5
1F3A
102
{ACAD_REACTORS
330
1F39
102
}
330
1F39
100
AcDbXrecord
280
     1
102
RTVSPropertyOp0
 70
     0
102
RTVSPropertyOp1
 70
     0
102
RTVSPropertyOp2
 70
     0
102
RTVSPropertyOp3
 70
     0
102
RTVSPropertyOp4
 70
     0
102
RTVSPropertyOp5
 70
     0
102
RTVSPropertyOp6
 70
     0
102
RTVSPropertyOp7
 70
     0
102
RTVSPropertyOp8
 70
     0
102
RTVSPropertyOp9
 70
     0
102
RTVSPropertyOp10
 70
     0
102
RTVSPropertyOp11
 70
     0
102
RTVSPropertyOp12
 70
     0
102
RTVSPropertyOp13
 70
     0
102
RTVSPropertyOp14
 70
     2
102
RTVSPropertyOp15
 70
     0
102
RTVSPropertyOp16
 70
     0
102
RTVSPropertyOp17
 70
     0
102
RTVSPropertyOp18
 70
     0
102
RTVSPropertyOp19
 70
     0
102
RTVSPropertyOp20
 70
     0
102
RTVSPropertyOp21
 70
     0
102
RTVSPropertyOp22
 70
     0
102
RTVSPropertyOp23
 70
     0
102
RTVSPropertyOp24
 70
     0
102
RTVSPropertyOp25
 70
     0
102
RTVSPropertyOp26
 70
     0
102
RTVSPropertyOp27
 70
     0
102
RTVSPropertyOp28
 70
     0
102
RTVSPropertyOp29
 70
     0
102
RTVSPropertyOp30
 70
     0
102
RTVSPropertyOp31
 70
     0
102
RTVSPropertyOp32
 70
     0
  0
XRECORD
  5
1F21
102
{ACAD_REACTORS
330
1F20
102
}
330
1F20
100
AcDbXrecord
280
     1
102
RTVSPropertyOp0
 70
     1
102
RTVSPropertyOp1
 70
     1
102
RTVSPropertyOp2
 70
     1
102
RTVSPropertyOp3
 70
     1
102
RTVSPropertyOp4
 70
     1
102
RTVSPropertyOp5
 70
     1
102
RTVSPropertyOp6
 70
     1
102
RTVSPropertyOp7
 70
     1
102
RTVSPropertyOp8
 70
     1
102
RTVSPropertyOp9
 70
     1
102
RTVSPropertyOp10
 70
     1
102
RTVSPropertyOp11
 70
     1
102
RTVSPropertyOp12
 70
     1
102
RTVSPropertyOp13
 70
     1
102
RTVSPropertyOp14
 70
     1
102
RTVSPropertyOp15
 70
     1
102
RTVSPropertyOp16
 70
     1
102
RTVSPropertyOp17
 70
     1
102
RTVSPropertyOp18
 70
     1
102
RTVSPropertyOp19
 70
     1
102
RTVSPropertyOp20
 70
     1
102
RTVSPropertyOp21
 70
     1
102
RTVSPropertyOp22
 70
     1
102
RTVSPropertyOp23
 70
     1
102
RTVSPropertyOp24
 70
     1
102
RTVSPropertyOp25
 70
     1
102
RTVSPropertyOp26
 70
     1
102
RTVSPropertyOp27
 70
     1
102
RTVSPropertyOp28
 70
     1
102
RTVSPropertyOp29
 70
     1
102
RTVSPropertyOp30
 70
     1
102
RTVSPropertyOp31
 70
     1
102
RTVSPropertyOp32
 70
     1
  0
XRECORD
  5
1F3C
102
{ACAD_REACTORS
330
1F3B
102
}
330
1F3B
100
AcDbXrecord
280
     1
102
RTVSPropertyOp0
 70
     0
102
RTVSPropertyOp1
 70
     0
102
RTVSPropertyOp2
 70
     0
102
RTVSPropertyOp3
 70
     0
102
RTVSPropertyOp4
 70
     0
102
RTVSPropertyOp5
 70
     0
102
RTVSPropertyOp6
 70
     0
102
RTVSPropertyOp7
 70
     0
102
RTVSPropertyOp8
 70
     0
102
RTVSPropertyOp9
 70
     0
102
RTVSPropertyOp10
 70
     0
102
RTVSPropertyOp11
 70
     0
102
RTVSPropertyOp12
 70
     0
102
RTVSPropertyOp13
 70
     0
102
RTVSPropertyOp14
 70
     2
102
RTVSPropertyOp15
 70
     0
102
RTVSPropertyOp16
 70
     0
102
RTVSPropertyOp17
 70
     0
102
RTVSPropertyOp18
 70
     0
102
RTVSPropertyOp19
 70
     0
102
RTVSPropertyOp20
 70
     0
102
RTVSPropertyOp21
 70
     0
102
RTVSPropertyOp22
 70
     0
102
RTVSPropertyOp23
 70
     0
102
RTVSPropertyOp24
 70
     0
102
RTVSPropertyOp25
 70
     0
102
RTVSPropertyOp26
 70
     0
102
RTVSPropertyOp27
 70
     0
102
RTVSPropertyOp28
 70
     0
102
RTVSPropertyOp29
 70
     0
102
RTVSPropertyOp30
 70
     0
102
RTVSPropertyOp31
 70
     0
102
RTVSPropertyOp32
 70
     0
  0
XRECORD
  5
1F19
102
{ACAD_REACTORS
330
1F18
102
}
330
1F18
100
AcDbXrecord
280
     1
102
RTVSPropertyOp0
 70
     1
102
RTVSPropertyOp1
 70
     1
102
RTVSPropertyOp2
 70
     1
102
RTVSPropertyOp3
 70
     1
102
RTVSPropertyOp4
 70
     1
102
RTVSPropertyOp5
 70
     1
102
RTVSPropertyOp6
 70
     1
102
RTVSPropertyOp7
 70
     1
102
RTVSPropertyOp8
 70
     1
102
RTVSPropertyOp9
 70
     1
102
RTVSPropertyOp10
 70
     1
102
RTVSPropertyOp11
 70
     1
102
RTVSPropertyOp12
 70
     1
102
RTVSPropertyOp13
 70
     1
102
RTVSPropertyOp14
 70
     1
102
RTVSPropertyOp15
 70
     1
102
RTVSPropertyOp16
 70
     1
102
RTVSPropertyOp17
 70
     1
102
RTVSPropertyOp18
 70
     1
102
RTVSPropertyOp19
 70
     1
102
RTVSPropertyOp20
 70
     1
102
RTVSPropertyOp21
 70
     1
102
RTVSPropertyOp22
 70
     1
102
RTVSPropertyOp23
 70
     1
102
RTVSPropertyOp24
 70
     1
102
RTVSPropertyOp25
 70
     1
102
RTVSPropertyOp26
 70
     1
102
RTVSPropertyOp27
 70
     1
102
RTVSPropertyOp28
 70
     1
102
RTVSPropertyOp29
 70
     1
102
RTVSPropertyOp30
 70
     1
102
RTVSPropertyOp31
 70
     1
102
RTVSPropertyOp32
 70
     1
  0
XRECORD
  5
1F38
102
{ACAD_REACTORS
330
1F37
102
}
330
1F37
100
AcDbXrecord
280
     1
102
RTVSPropertyOp0
 70
     1
102
RTVSPropertyOp1
 70
     1
102
RTVSPropertyOp2
 70
     1
102
RTVSPropertyOp3
 70
     1
102
RTVSPropertyOp4
 70
     1
102
RTVSPropertyOp5
 70
     1
102
RTVSPropertyOp6
 70
     1
102
RTVSPropertyOp7
 70
     1
102
RTVSPropertyOp8
 70
     1
102
RTVSPropertyOp9
 70
     1
102
RTVSPropertyOp10
 70
     1
102
RTVSPropertyOp11
 70
     1
102
RTVSPropertyOp12
 70
     1
102
RTVSPropertyOp13
 70
     1
102
RTVSPropertyOp14
 70
     1
102
RTVSPropertyOp15
 70
     1
102
RTVSPropertyOp16
 70
     1
102
RTVSPropertyOp17
 70
     1
102
RTVSPropertyOp18
 70
     1
102
RTVSPropertyOp19
 70
     1
102
RTVSPropertyOp20
 70
     1
102
RTVSPropertyOp21
 70
     1
102
RTVSPropertyOp22
 70
     1
102
RTVSPropertyOp23
 70
     1
102
RTVSPropertyOp24
 70
     1
102
RTVSPropertyOp25
 70
     1
102
RTVSPropertyOp26
 70
     1
102
RTVSPropertyOp27
 70
     1
102
RTVSPropertyOp28
 70
     1
102
RTVSPropertyOp29
 70
     1
102
RTVSPropertyOp30
 70
     1
102
RTVSPropertyOp31
 70
     1
102
RTVSPropertyOp32
 70
     1
  0
XRECORD
  5
1F36
102
{ACAD_REACTORS
330
1F35
102
}
330
1F35
100
AcDbXrecord
280
     1
102
RTVSPropertyOp0
 70
     1
102
RTVSPropertyOp1
 70
     1
102
RTVSPropertyOp2
 70
     1
102
RTVSPropertyOp3
 70
     1
102
RTVSPropertyOp4
 70
     1
102
RTVSPropertyOp5
 70
     1
102
RTVSPropertyOp6
 70
     1
102
RTVSPropertyOp7
 70
     1
102
RTVSPropertyOp8
 70
     1
102
RTVSPropertyOp9
 70
     1
102
RTVSPropertyOp10
 70
     1
102
RTVSPropertyOp11
 70
     1
102
RTVSPropertyOp12
 70
     1
102
RTVSPropertyOp13
 70
     1
102
RTVSPropertyOp14
 70
     1
102
RTVSPropertyOp15
 70
     1
102
RTVSPropertyOp16
 70
     1
102
RTVSPropertyOp17
 70
     1
102
RTVSPropertyOp18
 70
     1
102
RTVSPropertyOp19
 70
     1
102
RTVSPropertyOp20
 70
     1
102
RTVSPropertyOp21
 70
     1
102
RTVSPropertyOp22
 70
     1
102
RTVSPropertyOp23
 70
     1
102
RTVSPropertyOp24
 70
     1
102
RTVSPropertyOp25
 70
     1
102
RTVSPropertyOp26
 70
     1
102
RTVSPropertyOp27
 70
     1
102
RTVSPropertyOp28
 70
     1
102
RTVSPropertyOp29
 70
     1
102
RTVSPropertyOp30
 70
     1
102
RTVSPropertyOp31
 70
     1
102
RTVSPropertyOp32
 70
     1
  0
XRECORD
  5
1F30
102
{ACAD_REACTORS
330
1F2F
102
}
330
1F2F
100
AcDbXrecord
280
     1
102
RTVSPropertyOp0
 70
     1
102
RTVSPropertyOp1
 70
     1
102
RTVSPropertyOp2
 70
     1
102
RTVSPropertyOp3
 70
     1
102
RTVSPropertyOp4
 70
     1
102
RTVSPropertyOp5
 70
     1
102
RTVSPropertyOp6
 70
     1
102
RTVSPropertyOp7
 70
     1
102
RTVSPropertyOp8
 70
     1
102
RTVSPropertyOp9
 70
     1
102
RTVSPropertyOp10
 70
     1
102
RTVSPropertyOp11
 70
     1
102
RTVSPropertyOp12
 70
     1
102
RTVSPropertyOp13
 70
     1
102
RTVSPropertyOp14
 70
     1
102
RTVSPropertyOp15
 70
     1
102
RTVSPropertyOp16
 70
     1
102
RTVSPropertyOp17
 70
     1
102
RTVSPropertyOp18
 70
     1
102
RTVSPropertyOp19
 70
     1
102
RTVSPropertyOp20
 70
     1
102
RTVSPropertyOp21
 70
     1
102
RTVSPropertyOp22
 70
     1
102
RTVSPropertyOp23
 70
     1
102
RTVSPropertyOp24
 70
     1
102
RTVSPropertyOp25
 70
     1
102
RTVSPropertyOp26
 70
     1
102
RTVSPropertyOp27
 70
     1
102
RTVSPropertyOp28
 70
     1
102
RTVSPropertyOp29
 70
     1
102
RTVSPropertyOp30
 70
     1
102
RTVSPropertyOp31
 70
     1
102
RTVSPropertyOp32
 70
     1
  0
XRECORD
  5
1F32
102
{ACAD_REACTORS
330
1F31
102
}
330
1F31
100
AcDbXrecord
280
     1
102
RTVSPropertyOp0
 70
     1
102
RTVSPropertyOp1
 70
     1
102
RTVSPropertyOp2
 70
     1
102
RTVSPropertyOp3
 70
     1
102
RTVSPropertyOp4
 70
     1
102
RTVSPropertyOp5
 70
     1
102
RTVSPropertyOp6
 70
     1
102
RTVSPropertyOp7
 70
     1
102
RTVSPropertyOp8
 70
     1
102
RTVSPropertyOp9
 70
     1
102
RTVSPropertyOp10
 70
     1
102
RTVSPropertyOp11
 70
     1
102
RTVSPropertyOp12
 70
     1
102
RTVSPropertyOp13
 70
     1
102
RTVSPropertyOp14
 70
     1
102
RTVSPropertyOp15
 70
     1
102
RTVSPropertyOp16
 70
     1
102
RTVSPropertyOp17
 70
     1
102
RTVSPropertyOp18
 70
     1
102
RTVSPropertyOp19
 70
     1
102
RTVSPropertyOp20
 70
     1
102
RTVSPropertyOp21
 70
     1
102
RTVSPropertyOp22
 70
     1
102
RTVSPropertyOp23
 70
     1
102
RTVSPropertyOp24
 70
     1
102
RTVSPropertyOp25
 70
     1
102
RTVSPropertyOp26
 70
     1
102
RTVSPropertyOp27
 70
     1
102
RTVSPropertyOp28
 70
     1
102
RTVSPropertyOp29
 70
     1
102
RTVSPropertyOp30
 70
     1
102
RTVSPropertyOp31
 70
     1
102
RTVSPropertyOp32
 70
     1
  0
XRECORD
  5
1F1F
102
{ACAD_REACTORS
330
1F1E
102
}
330
1F1E
100
AcDbXrecord
280
     1
102
RTVSPropertyOp0
 70
     1
102
RTVSPropertyOp1
 70
     1
102
RTVSPropertyOp2
 70
     1
102
RTVSPropertyOp3
 70
     1
102
RTVSPropertyOp4
 70
     1
102
RTVSPropertyOp5
 70
     1
102
RTVSPropertyOp6
 70
     1
102
RTVSPropertyOp7
 70
     1
102
RTVSPropertyOp8
 70
     1
102
RTVSPropertyOp9
 70
     1
102
RTVSPropertyOp10
 70
     1
102
RTVSPropertyOp11
 70
     1
102
RTVSPropertyOp12
 70
     1
102
RTVSPropertyOp13
 70
     1
102
RTVSPropertyOp14
 70
     1
102
RTVSPropertyOp15
 70
     1
102
RTVSPropertyOp16
 70
     1
102
RTVSPropertyOp17
 70
     1
102
RTVSPropertyOp18
 70
     1
102
RTVSPropertyOp19
 70
     1
102
RTVSPropertyOp20
 70
     1
102
RTVSPropertyOp21
 70
     1
102
RTVSPropertyOp22
 70
     1
102
RTVSPropertyOp23
 70
     1
102
RTVSPropertyOp24
 70
     1
102
RTVSPropertyOp25
 70
     1
102
RTVSPropertyOp26
 70
     1
102
RTVSPropertyOp27
 70
     1
102
RTVSPropertyOp28
 70
     1
102
RTVSPropertyOp29
 70
     1
102
RTVSPropertyOp30
 70
     1
102
RTVSPropertyOp31
 70
     1
102
RTVSPropertyOp32
 70
     1
  0
XRECORD
  5
1F2C
102
{ACAD_REACTORS
330
1F2B
102
}
330
1F2B
100
AcDbXrecord
280
     1
102
RTVSPropertyOp0
 70
     1
102
RTVSPropertyOp1
 70
     1
102
RTVSPropertyOp2
 70
     1
102
RTVSPropertyOp3
 70
     1
102
RTVSPropertyOp4
 70
     1
102
RTVSPropertyOp5
 70
     1
102
RTVSPropertyOp6
 70
     1
102
RTVSPropertyOp7
 70
     1
102
RTVSPropertyOp8
 70
     1
102
RTVSPropertyOp9
 70
     1
102
RTVSPropertyOp10
 70
     1
102
RTVSPropertyOp11
 70
     1
102
RTVSPropertyOp12
 70
     1
102
RTVSPropertyOp13
 70
     1
102
RTVSPropertyOp14
 70
     1
102
RTVSPropertyOp15
 70
     1
102
RTVSPropertyOp16
 70
     1
102
RTVSPropertyOp17
 70
     1
102
RTVSPropertyOp18
 70
     1
102
RTVSPropertyOp19
 70
     1
102
RTVSPropertyOp20
 70
     1
102
RTVSPropertyOp21
 70
     1
102
RTVSPropertyOp22
 70
     1
102
RTVSPropertyOp23
 70
     1
102
RTVSPropertyOp24
 70
     1
102
RTVSPropertyOp25
 70
     1
102
RTVSPropertyOp26
 70
     1
102
RTVSPropertyOp27
 70
     1
102
RTVSPropertyOp28
 70
     1
102
RTVSPropertyOp29
 70
     1
102
RTVSPropertyOp30
 70
     1
102
RTVSPropertyOp31
 70
     1
102
RTVSPropertyOp32
 70
     1
  0
XRECORD
  5
1F34
102
{ACAD_REACTORS
330
1F33
102
}
330
1F33
100
AcDbXrecord
280
     1
102
RTVSPropertyOp0
 70
     1
102
RTVSPropertyOp1
 70
     1
102
RTVSPropertyOp2
 70
     1
102
RTVSPropertyOp3
 70
     1
102
RTVSPropertyOp4
 70
     1
102
RTVSPropertyOp5
 70
     1
102
RTVSPropertyOp6
 70
     1
102
RTVSPropertyOp7
 70
     1
102
RTVSPropertyOp8
 70
     1
102
RTVSPropertyOp9
 70
     1
102
RTVSPropertyOp10
 70
     1
102
RTVSPropertyOp11
 70
     1
102
RTVSPropertyOp12
 70
     1
102
RTVSPropertyOp13
 70
     1
102
RTVSPropertyOp14
 70
     1
102
RTVSPropertyOp15
 70
     1
102
RTVSPropertyOp16
 70
     1
102
RTVSPropertyOp17
 70
     1
102
RTVSPropertyOp18
 70
     1
102
RTVSPropertyOp19
 70
     1
102
RTVSPropertyOp20
 70
     1
102
RTVSPropertyOp21
 70
     1
102
RTVSPropertyOp22
 70
     1
102
RTVSPropertyOp23
 70
     1
102
RTVSPropertyOp24
 70
     1
102
RTVSPropertyOp25
 70
     1
102
RTVSPropertyOp26
 70
     1
102
RTVSPropertyOp27
 70
     1
102
RTVSPropertyOp28
 70
     1
102
RTVSPropertyOp29
 70
     1
102
RTVSPropertyOp30
 70
     1
102
RTVSPropertyOp31
 70
     1
102
RTVSPropertyOp32
 70
     1
  0
ENDSEC
  0
EOF
