  0
SECTION
  2
HEADER
  9
$ACADVER
  1
AC1015
  9
$ACADMAINTVER
 70
    20
  9
$DWGCODEPAGE
  3
ANSI_932
  9
$INSBASE
 10
0.0
 20
0.0
 30
0.0
  9
$EXTMIN
 10
1133.578478478963
 20
-414.9301764272011
 30
0.0
  9
$EXTMAX
 10
1325.578478478963
 20
-133.8080476972012
 30
0.0
  9
$LIMMIN
 10
0.0
 20
0.0
  9
$LIMMAX
 10
12.0
 20
9.0
  9
$ORTHOMODE
 70
     1
  9
$REGENMODE
 70
     1
  9
$FILLMODE
 70
     1
  9
$QTEXTMODE
 70
     0
  9
$MIRRTEXT
 70
     0
  9
$LTSCALE
 40
0.2
  9
$ATTMODE
 70
     1
  9
$TEXTSIZE
 40
3.2
  9
$TRACEWID
 40
0.05
  9
$TEXTSTYLE
  7
高3.2
  9
$CLAYER
  8
0
  9
$CELTYPE
  6
ByLayer
  9
$CECOLOR
 62
   256
  9
$CELTSCALE
 40
1.0
  9
$DISPSILH
 70
     0
  9
$DIMSCALE
 40
1.0
  9
$DIMASZ
 40
2.5
  9
$DIMEXO
 40
0.25
  9
$DIMDLI
 40
0.2
  9
$DIMRND
 40
0.0
  9
$DIMDLE
 40
0.0
  9
$DIMEXE
 40
1.25
  9
$DIMTP
 40
0.0
  9
$DIMTM
 40
0.0
  9
$DIMTXT
 40
3.0
  9
$DIMCEN
 40
0.0
  9
$DIMTSZ
 40
0.0
  9
$DIMTOL
 70
     0
  9
$DIMLIM
 70
     0
  9
$DIMTIH
 70
     0
  9
$DIMTOH
 70
     0
  9
$DIMSE1
 70
     0
  9
$DIMSE2
 70
     0
  9
$DIMTAD
 70
     3
  9
$DIMZIN
 70
     8
  9
$DIMBLK
  1
Open30
  9
$DIMASO
 70
     1
  9
$DIMSHO
 70
     1
  9
$DIMPOST
  1

  9
$DIMAPOST
  1

  9
$DIMALT
 70
     0
  9
$DIMALTD
 70
     3
  9
$DIMALTF
 40
0.03937007874016
  9
$DIMLFAC
 40
2.0
  9
$DIMTOFL
 70
     1
  9
$DIMTVP
 40
0.0
  9
$DIMTIX
 70
     0
  9
$DIMSOXD
 70
     0
  9
$DIMSAH
 70
     0
  9
$DIMBLK1
  1

  9
$DIMBLK2
  1

  9
$DIMSTYLE
  2
1／2
  9
$DIMCLRD
 70
     0
  9
$DIMCLRE
 70
     0
  9
$DIMCLRT
 70
     4
  9
$DIMTFAC
 40
1.0
  9
$DIMGAP
 40
0.625
  9
$DIMJUST
 70
     0
  9
$DIMSD1
 70
     0
  9
$DIMSD2
 70
     0
  9
$DIMTOLJ
 70
     0
  9
$DIMTZIN
 70
     8
  9
$DIMALTZ
 70
     0
  9
$DIMALTTZ
 70
     0
  9
$DIMUPT
 70
     1
  9
$DIMDEC
 70
     2
  9
$DIMTDEC
 70
     2
  9
$DIMALTU
 70
     2
  9
$DIMALTTD
 70
     3
  9
$DIMTXSTY
  7
Standard
  9
$DIMAUNIT
 70
     0
  9
$DIMADEC
 70
     1
  9
$DIMALTRND
 40
0.0
  9
$DIMAZIN
 70
     2
  9
$DIMDSEP
 70
    46
  9
$DIMATFIT
 70
     0
  9
$DIMFRAC
 70
     0
  9
$DIMLDRBLK
  1
Open30
  9
$DIMLUNIT
 70
     2
  9
$DIMLWD
 70
    -2
  9
$DIMLWE
 70
    -2
  9
$DIMTMOVE
 70
     0
  9
$LUNITS
 70
     2
  9
$LUPREC
 70
     4
  9
$SKETCHINC
 40
0.1
  9
$FILLETRAD
 40
0.0
  9
$AUNITS
 70
     0
  9
$AUPREC
 70
     0
  9
$MENU
  1
.
  9
$ELEVATION
 40
0.0
  9
$PELEVATION
 40
0.0
  9
$THICKNESS
 40
0.0
  9
$LIMCHECK
 70
     0
  9
$CHAMFERA
 40
0.0
  9
$CHAMFERB
 40
0.0
  9
$CHAMFERC
 40
0.0
  9
$CHAMFERD
 40
0.0
  9
$SKPOLY
 70
     0
  9
$TDCREATE
 40
2456168.592036505
  9
$TDUCREATE
 40
2456168.217036505
  9
$TDUPDATE
 40
2457394.802363600
  9
$TDUUPDATE
 40
2457394.427363600
  9
$TDINDWG
 40
0.6990897106
  9
$TDUSRTIMER
 40
0.6990868056
  9
$USRTIMER
 70
     1
  9
$ANGBASE
 50
0.0
  9
$ANGDIR
 70
     0
  9
$PDMODE
 70
     0
  9
$PDSIZE
 40
0.0
  9
$PLINEWID
 40
0.0
  9
$SPLFRAME
 70
     0
  9
$SPLINETYPE
 70
     6
  9
$SPLINESEGS
 70
     8
  9
$HANDSEED
  5
4F82
  9
$SURFTAB1
 70
     6
  9
$SURFTAB2
 70
     6
  9
$SURFTYPE
 70
     6
  9
$SURFU
 70
     6
  9
$SURFV
 70
     6
  9
$UCSBASE
  2

  9
$UCSNAME
  2

  9
$UCSORG
 10
0.0
 20
0.0
 30
0.0
  9
$UCSXDIR
 10
1.0
 20
0.0
 30
0.0
  9
$UCSYDIR
 10
0.0
 20
1.0
 30
0.0
  9
$UCSORTHOREF
  2

  9
$UCSORTHOVIEW
 70
     0
  9
$UCSORGTOP
 10
0.0
 20
0.0
 30
0.0
  9
$UCSORGBOTTOM
 10
0.0
 20
0.0
 30
0.0
  9
$UCSORGLEFT
 10
0.0
 20
0.0
 30
0.0
  9
$UCSORGRIGHT
 10
0.0
 20
0.0
 30
0.0
  9
$UCSORGFRONT
 10
0.0
 20
0.0
 30
0.0
  9
$UCSORGBACK
 10
0.0
 20
0.0
 30
0.0
  9
$PUCSBASE
  2

  9
$PUCSNAME
  2

  9
$PUCSORG
 10
0.0
 20
0.0
 30
0.0
  9
$PUCSXDIR
 10
1.0
 20
0.0
 30
0.0
  9
$PUCSYDIR
 10
0.0
 20
1.0
 30
0.0
  9
$PUCSORTHOREF
  2

  9
$PUCSORTHOVIEW
 70
     0
  9
$PUCSORGTOP
 10
0.0
 20
0.0
 30
0.0
  9
$PUCSORGBOTTOM
 10
0.0
 20
0.0
 30
0.0
  9
$PUCSORGLEFT
 10
0.0
 20
0.0
 30
0.0
  9
$PUCSORGRIGHT
 10
0.0
 20
0.0
 30
0.0
  9
$PUCSORGFRONT
 10
0.0
 20
0.0
 30
0.0
  9
$PUCSORGBACK
 10
0.0
 20
0.0
 30
0.0
  9
$USERI1
 70
     0
  9
$USERI2
 70
     0
  9
$USERI3
 70
     0
  9
$USERI4
 70
     0
  9
$USERI5
 70
     0
  9
$USERR1
 40
0.0
  9
$USERR2
 40
0.0
  9
$USERR3
 40
0.0
  9
$USERR4
 40
0.0
  9
$USERR5
 40
0.0
  9
$WORLDVIEW
 70
     1
  9
$SHADEDGE
 70
     3
  9
$SHADEDIF
 70
    70
  9
$TILEMODE
 70
     1
  9
$MAXACTVP
 70
    64
  9
$PINSBASE
 10
0.0
 20
0.0
 30
0.0
  9
$PLIMCHECK
 70
     0
  9
$PEXTMIN
 10
0.0
 20
0.0
 30
0.0
  9
$PEXTMAX
 10
0.0
 20
0.0
 30
0.0
  9
$PLIMMIN
 10
0.0
 20
0.0
  9
$PLIMMAX
 10
12.0
 20
9.0
  9
$UNITMODE
 70
     0
  9
$VISRETAIN
 70
     1
  9
$PLINEGEN
 70
     0
  9
$PSLTSCALE
 70
     1
  9
$TREEDEPTH
 70
  3020
  9
$CMLSTYLE
  2
Standard
  9
$CMLJUST
 70
     0
  9
$CMLSCALE
 40
1.0
  9
$PROXYGRAPHICS
 70
     1
  9
$MEASUREMENT
 70
     1
  9
$CELWEIGHT
370
    -1
  9
$ENDCAPS
280
     0
  9
$JOINSTYLE
280
     0
  9
$LWDISPLAY
290
     0
  9
$INSUNITS
 70
     1
  9
$HYPERLINKBASE
  1

  9
$STYLESHEET
  1
N-PLOT.CTB
  9
$XEDIT
290
     1
  9
$CEPSNTYPE
380
     0
  9
$PSTYLEMODE
290
     1
  9
$FINGERPRINTGUID
  2
{29BB01BF-6550-46AB-BF03-7575EC676E0B}
  9
$VERSIONGUID
  2
{73CE4BD1-66CF-4EE0-8519-6E21D2C4D3E7}
  9
$EXTNAMES
290
     1
  9
$PSVPSCALE
 40
0.0
  9
$OLESTARTUP
290
     0
  0
ENDSEC
  0
SECTION
  2
CLASSES
  0
CLASS
  1
ACDBDICTIONARYWDFLT
  2
AcDbDictionaryWithDefault
  3
ObjectDBX Classes
 90
        0
280
     0
281
     0
  0
CLASS
  1
ACDBPLACEHOLDER
  2
AcDbPlaceHolder
  3
ObjectDBX Classes
 90
        0
280
     0
281
     0
  0
CLASS
  1
LAYOUT
  2
AcDbLayout
  3
ObjectDBX Classes
 90
        0
280
     0
281
     0
  0
CLASS
  1
DICTIONARYVAR
  2
AcDbDictionaryVar
  3
ObjectDBX Classes
 90
        0
280
     0
281
     0
  0
CLASS
  1
TABLESTYLE
  2
AcDbTableStyle
  3
ObjectDBX Classes
 90
     4095
280
     0
281
     0
  0
CLASS
  1
MATERIAL
  2
AcDbMaterial
  3
ObjectDBX Classes
 90
     1153
280
     0
281
     0
  0
CLASS
  1
VISUALSTYLE
  2
AcDbVisualStyle
  3
ObjectDBX Classes
 90
     4095
280
     0
281
     0
  0
CLASS
  1
SORTENTSTABLE
  2
AcDbSortentsTable
  3
ObjectDBX Classes
 90
        0
280
     0
281
     0
  0
CLASS
  1
DIMASSOC
  2
AcDbDimAssoc
  3
"AcDbDimAssoc|Product Desc:     AcDim ARX App For Dimension|Company:          Autodesk, Inc.|WEB Address:      www.autodesk.com"
 90
        0
280
     0
281
     0
  0
CLASS
  1
SCALE
  2
AcDbScale
  3
ObjectDBX Classes
 90
     1153
280
     0
281
     0
  0
CLASS
  1
MLEADERSTYLE
  2
AcDbMLeaderStyle
  3
ACDB_MLEADERSTYLE_CLASS
 90
     4095
280
     0
281
     0
  0
CLASS
  1
CELLSTYLEMAP
  2
AcDbCellStyleMap
  3
ObjectDBX Classes
 90
     1152
280
     0
281
     0
  0
CLASS
  1
AEC_REFEDIT_STATUS_TRACKER
  2
AecDbRefEditStatusTracker
  3
AecArchBase60|Product Desc: Autodesk Architectural Desktop 2007 |Company: Autodesk,Inc. |WEB Address: www.autodesk.com
 90
      129
280
     0
281
     0
  0
CLASS
  1
NPOCOLLECTION
  2
AcDbImpNonPersistentObjectsCollection
  3
ObjectDBX Classes
 90
     1153
280
     0
281
     0
  0
ENDSEC
  0
SECTION
  2
TABLES
  0
TABLE
  2
VPORT
  5
8
330
0
100
AcDbSymbolTable
 70
     1
  0
VPORT
  5
94
330
8
100
AcDbSymbolTableRecord
100
AcDbViewportTableRecord
  2
*Active
 70
     0
 10
0.0
 20
0.0
 11
1.0
 21
1.0
 12
1406.339252956047
 22
-264.9439781881879
 13
0.0
 23
0.0
 14
0.5
 24
0.5
 15
0.5
 25
0.5
 16
0.0
 26
0.0
 36
1.0
 17
0.0
 27
0.0
 37
0.0
 40
600.2833947113952
 41
2.022263450834879
 42
50.0
 43
0.0
 44
0.0
 50
0.0
 51
0.0
 71
     0
 72
  1000
 73
     1
 74
     2
 75
     0
 76
     0
 77
     0
 78
     0
281
     0
 65
     1
110
0.0
120
0.0
130
0.0
111
1.0
121
0.0
131
0.0
112
0.0
122
1.0
132
0.0
 79
     0
146
0.0
  0
ENDTAB
  0
TABLE
  2
LTYPE
  5
5
330
0
100
AcDbSymbolTable
 70
     3
  0
LTYPE
  5
14
330
5
100
AcDbSymbolTableRecord
100
AcDbLinetypeTableRecord
  2
ByBlock
 70
     0
  3

 72
    65
 73
     0
 40
0.0
  0
LTYPE
  5
15
330
5
100
AcDbSymbolTableRecord
100
AcDbLinetypeTableRecord
  2
ByLayer
 70
     0
  3

 72
    65
 73
     0
 40
0.0
  0
LTYPE
  5
16
330
5
100
AcDbSymbolTableRecord
100
AcDbLinetypeTableRecord
  2
Continuous
 70
     0
  3
Solid line
 72
    65
 73
     0
 40
0.0
  0
LTYPE
  5
148
330
5
100
AcDbSymbolTableRecord
100
AcDbLinetypeTableRecord
  2
CENTER
 70
     0
  3
Center ____ _ ____ _ ____ _ ____ _ ____ _ ____
 72
    65
 73
     4
 40
50.8
 49
31.75
 74
     0
 49
-6.349999999999997
 74
     0
 49
6.349999999999997
 74
     0
 49
-6.349999999999997
 74
     0
  0
ENDTAB
  0
TABLE
  2
LAYER
  5
2
102
{ACAD_XDICTIONARY
360
DD
102
}
330
0
100
AcDbSymbolTable
 70
     2
  0
LAYER
  5
10
102
{ACAD_XDICTIONARY
360
1426
102
}
330
2
100
AcDbSymbolTableRecord
100
AcDbLayerTableRecord
  2
0
 70
     0
 62
     7
  6
Continuous
370
    -3
390
F
  0
LAYER
  5
D8
330
2
100
AcDbSymbolTableRecord
100
AcDbLayerTableRecord
  2
Defpoints
 70
     0
 62
     7
  6
Continuous
290
     0
370
    -3
390
F
  0
ENDTAB
  0
TABLE
  2
STYLE
  5
3
330
0
100
AcDbSymbolTable
 70
     6
  0
STYLE
  5
11
330
3
100
AcDbSymbolTableRecord
100
AcDbTextStyleTableRecord
  2
Standard
 70
     0
 40
0.0
 41
1.0
 50
0.0
 71
     0
 42
0.2
  3
txt.shx
  4
bigfont.shx
  0
STYLE
  5
11D
330
3
100
AcDbSymbolTableRecord
100
AcDbTextStyleTableRecord
  2
高3.2
 70
     0
 40
3.2
 41
1.0
 50
0.0
 71
     0
 42
3.2
  3
txt.shx
  4
bigfont.shx
  0
STYLE
  5
11E
330
3
100
AcDbSymbolTableRecord
100
AcDbTextStyleTableRecord
  2
高6.3
 70
     0
 40
6.299999999999998
 41
1.0
 50
0.0
 71
     0
 42
6.299999999999998
  3
txt.shx
  4
bigfont.shx
  0
STYLE
  5
11F
330
3
100
AcDbSymbolTableRecord
100
AcDbTextStyleTableRecord
  2
高2.5
 70
     0
 40
2.5
 41
1.0
 50
0.0
 71
     0
 42
0.2
  3
txt.shx
  4
bigfont.shx
  0
STYLE
  5
146
330
3
100
AcDbSymbolTableRecord
100
AcDbTextStyleTableRecord
  2
高4.5
 70
     0
 40
4.5
 41
1.0
 50
0.0
 71
     0
 42
6.299999999999998
  3
txt.shx
  4
bigfont.shx
  0
STYLE
  5
171
330
3
100
AcDbSymbolTableRecord
100
AcDbTextStyleTableRecord
  2
高2
 70
     0
 40
2.0
 41
1.0
 50
0.0
 71
     0
 42
6.299999999999998
  3
txt.shx
  4
bigfont.shx
  0
ENDTAB
  0
TABLE
  2
VIEW
  5
6
330
0
100
AcDbSymbolTable
 70
     0
  0
ENDTAB
  0
TABLE
  2
UCS
  5
7
330
0
100
AcDbSymbolTable
 70
     0
  0
ENDTAB
  0
TABLE
  2
APPID
  5
9
330
0
100
AcDbSymbolTable
 70
    12
  0
APPID
  5
12
330
9
100
AcDbSymbolTableRecord
100
AcDbRegAppTableRecord
  2
ACAD
 70
     0
  0
APPID
  5
DC
330
9
100
AcDbSymbolTableRecord
100
AcDbRegAppTableRecord
  2
ACAD_DSTYLE_DIMJOGGED_JOGANGLE_SYMBOL
 70
     0
  0
APPID
  5
3A5
330
9
100
AcDbSymbolTableRecord
100
AcDbRegAppTableRecord
  2
ACAD_EXEMPT_FROM_CAD_STANDARDS
 70
     0
  0
APPID
  5
98F
330
9
100
AcDbSymbolTableRecord
100
AcDbRegAppTableRecord
  2
AcAecLayerStandard
 70
     0
  0
APPID
  5
990
330
9
100
AcDbSymbolTableRecord
100
AcDbRegAppTableRecord
  2
AcCmTransparency
 70
     0
  0
APPID
  5
128C
330
9
100
AcDbSymbolTableRecord
100
AcDbRegAppTableRecord
  2
ACAD_DSTYLE_DIMJAG
 70
     0
  0
APPID
  5
128D
330
9
100
AcDbSymbolTableRecord
100
AcDbRegAppTableRecord
  2
ACAD_DSTYLE_DIMBREAK
 70
     0
  0
APPID
  5
128E
330
9
100
AcDbSymbolTableRecord
100
AcDbRegAppTableRecord
  2
ACAD_DSTYLE_DIMTALN
 70
     0
  0
APPID
  5
154F
330
9
100
AcDbSymbolTableRecord
100
AcDbRegAppTableRecord
  2
ACAD_MLEADERVER
 70
     0
  0
APPID
  5
1550
330
9
100
AcDbSymbolTableRecord
100
AcDbRegAppTableRecord
  2
ACAD_DSTYLE_DIMARC_LENGTH_SYMBOL
 70
     0
  0
APPID
  5
1551
330
9
100
AcDbSymbolTableRecord
100
AcDbRegAppTableRecord
  2
ACAD_DSTYLE_DIMEXT_LENGTH
 70
     0
  0
APPID
  5
3CAA
330
9
100
AcDbSymbolTableRecord
100
AcDbRegAppTableRecord
  2
ACAD_PSEXT
 70
     0
  0
ENDTAB
  0
TABLE
  2
DIMSTYLE
  5
A
330
0
100
AcDbSymbolTable
 70
     4
100
AcDbDimStyleTable
 71
     2
340
3DCA
340
2CE2
  0
DIMSTYLE
105
2CE2
330
A
100
AcDbSymbolTableRecord
100
AcDbDimStyleTableRecord
  2
1／2
 70
     0
 41
2.5
 42
0.25
 43
0.2
 44
1.25
 73
     0
 74
     0
 77
     3
 78
     8
 79
     2
140
3.0
141
0.0
143
0.03937007874016
144
2.0
147
0.625
171
     3
172
     1
178
     4
179
     1
271
     2
272
     2
274
     3
283
     0
284
     8
288
     1
289
     0
340
11
341
C6
342
C6
1001
ACAD_DSTYLE_DIMARC_LENGTH_SYMBOL
1070
   379
1070
     2
1001
ACAD_DSTYLE_DIMEXT_LENGTH
1070
   378
1040
1.25
1001
ACAD_DSTYLE_DIMJOGGED_JOGANGLE_SYMBOL
1070
   384
1040
1.570796326794896
  0
DIMSTYLE
105
3CA8
330
A
100
AcDbSymbolTableRecord
100
AcDbDimStyleTableRecord
  2
1：1
 70
     0
 41
2.5
 42
0.25
 43
0.2
 44
1.25
 73
     0
 74
     0
 77
     3
 78
     8
 79
     2
140
3.0
141
0.0
143
0.03937007874016
147
0.625
171
     3
172
     1
178
     4
179
     1
271
     2
272
     2
274
     3
283
     0
284
     8
288
     1
289
     0
340
11
341
C6
342
C6
1001
ACAD_DSTYLE_DIMARC_LENGTH_SYMBOL
1070
   379
1070
     2
1001
ACAD_DSTYLE_DIMEXT_LENGTH
1070
   378
1040
1.25
1001
ACAD_DSTYLE_DIMJOGGED_JOGANGLE_SYMBOL
1070
   384
1040
1.570796326794896
  0
DIMSTYLE
105
3CA9
330
A
100
AcDbSymbolTableRecord
100
AcDbDimStyleTableRecord
  2
1／4
 70
     0
 41
2.5
 42
0.25
 43
0.2
 44
1.25
 73
     0
 74
     0
 77
     3
 78
     8
 79
     2
140
3.0
141
0.0
143
0.03937007874016
144
4.0
147
0.625
171
     3
172
     1
178
     4
179
     1
271
     2
272
     2
274
     3
283
     0
284
     8
288
     1
289
     0
340
11
341
C6
342
C6
1001
ACAD_DSTYLE_DIMARC_LENGTH_SYMBOL
1070
   379
1070
     2
1001
ACAD_DSTYLE_DIMEXT_LENGTH
1070
   378
1040
1.25
1001
ACAD_DSTYLE_DIMJOGGED_JOGANGLE_SYMBOL
1070
   384
1040
1.570796326794896
  0
DIMSTYLE
105
3DCA
330
A
100
AcDbSymbolTableRecord
100
AcDbDimStyleTableRecord
  2
1／3
 70
     0
 41
2.5
 42
0.25
 43
0.2
 44
1.25
 73
     0
 74
     0
 77
     3
 78
     8
 79
     2
140
3.0
141
0.0
143
0.03937007874016
144
3.0
147
0.625
171
     3
172
     1
178
     4
179
     1
271
     2
272
     2
274
     3
283
     0
284
     8
288
     1
289
     0
340
11
341
C6
342
C6
1001
ACAD_DSTYLE_DIMARC_LENGTH_SYMBOL
1070
   379
1070
     2
1001
ACAD_DSTYLE_DIMEXT_LENGTH
1070
   378
1040
1.25
1001
ACAD_DSTYLE_DIMJOGGED_JOGANGLE_SYMBOL
1070
   384
1040
1.570796326794896
  0
ENDTAB
  0
TABLE
  2
BLOCK_RECORD
  5
1
330
0
100
AcDbSymbolTable
 70
    38
  0
BLOCK_RECORD
  5
1F
102
{ACAD_XDICTIONARY
360
324
102
}
330
1
100
AcDbSymbolTableRecord
100
AcDbBlockTableRecord
  2
*Model_Space
340
22
  0
BLOCK_RECORD
  5
58
330
1
100
AcDbSymbolTableRecord
100
AcDbBlockTableRecord
  2
*Paper_Space
340
59
  0
BLOCK_RECORD
  5
5D
330
1
100
AcDbSymbolTableRecord
100
AcDbBlockTableRecord
  2
*Paper_Space0
340
5E
  0
BLOCK_RECORD
  5
C6
330
1
100
AcDbSymbolTableRecord
100
AcDbBlockTableRecord
  2
_Open30
340
0
102
{BLKREFS
331
3D5F
331
3D60
331
3D68
331
3D69
331
3D71
331
3D72
331
3D7C
331
3D7D
331
3D85
331
3D86
331
3D9D
331
3D9E
331
3D91
331
3D92
331
3DA9
331
3DAA
331
3DB7
331
3DB8
331
3DC3
331
3DC4
331
419B
331
419C
331
41B0
331
41B1
331
41BC
331
41BD
331
41CA
331
41CB
331
41D3
331
41D4
331
4205
331
4210
331
4211
331
41EA
331
41EB
331
41DE
331
41DF
331
41F6
331
41F7
331
4204
331
4600
331
4601
331
460C
331
460D
331
461A
331
461B
331
4626
331
4627
331
462F
331
4630
331
4838
331
4839
331
4841
331
4842
331
484A
331
484B
331
4855
331
4856
331
485E
331
485F
331
4DAD
331
4DAE
331
4DB6
331
4DB7
331
4DBF
331
4DC0
331
4DCA
331
4DCB
331
4DD3
331
4DD4
102
}
  0
BLOCK_RECORD
  5
987
330
1
100
AcDbSymbolTableRecord
100
AcDbBlockTableRecord
  2
_DotSmall
340
0
  0
BLOCK_RECORD
  5
3132
330
1
100
AcDbSymbolTableRecord
100
AcDbBlockTableRecord
  2
*D3
340
0
  0
BLOCK_RECORD
  5
313E
330
1
100
AcDbSymbolTableRecord
100
AcDbBlockTableRecord
  2
*D4
340
0
  0
BLOCK_RECORD
  5
3153
330
1
100
AcDbSymbolTableRecord
100
AcDbBlockTableRecord
  2
*D5
340
0
  0
BLOCK_RECORD
  5
315F
330
1
100
AcDbSymbolTableRecord
100
AcDbBlockTableRecord
  2
*D6
340
0
  0
BLOCK_RECORD
  5
316D
330
1
100
AcDbSymbolTableRecord
100
AcDbBlockTableRecord
  2
*D7
340
0
  0
BLOCK_RECORD
  5
3D8C
330
1
100
AcDbSymbolTableRecord
100
AcDbBlockTableRecord
  2
*D8
340
0
  0
BLOCK_RECORD
  5
3D98
330
1
100
AcDbSymbolTableRecord
100
AcDbBlockTableRecord
  2
*D9
340
0
  0
BLOCK_RECORD
  5
3DA4
330
1
100
AcDbSymbolTableRecord
100
AcDbBlockTableRecord
  2
*D10
340
0
  0
BLOCK_RECORD
  5
3DB0
330
1
100
AcDbSymbolTableRecord
100
AcDbBlockTableRecord
  2
*D11
340
0
  0
BLOCK_RECORD
  5
3DBE
330
1
100
AcDbSymbolTableRecord
100
AcDbBlockTableRecord
  2
*D12
340
0
  0
BLOCK_RECORD
  5
4189
330
1
100
AcDbSymbolTableRecord
100
AcDbBlockTableRecord
  2
*D13
340
0
  0
BLOCK_RECORD
  5
4195
330
1
100
AcDbSymbolTableRecord
100
AcDbBlockTableRecord
  2
*D14
340
0
  0
BLOCK_RECORD
  5
41A1
330
1
100
AcDbSymbolTableRecord
100
AcDbBlockTableRecord
  2
*D15
340
0
  0
BLOCK_RECORD
  5
41B6
330
1
100
AcDbSymbolTableRecord
100
AcDbBlockTableRecord
  2
*D16
340
0
  0
BLOCK_RECORD
  5
41C2
330
1
100
AcDbSymbolTableRecord
100
AcDbBlockTableRecord
  2
*D17
340
0
  0
BLOCK_RECORD
  5
41D9
330
1
100
AcDbSymbolTableRecord
100
AcDbBlockTableRecord
  2
*D18
340
0
  0
BLOCK_RECORD
  5
41E5
330
1
100
AcDbSymbolTableRecord
100
AcDbBlockTableRecord
  2
*D19
340
0
  0
BLOCK_RECORD
  5
41F1
330
1
100
AcDbSymbolTableRecord
100
AcDbBlockTableRecord
  2
*D20
340
0
  0
BLOCK_RECORD
  5
41FD
330
1
100
AcDbSymbolTableRecord
100
AcDbBlockTableRecord
  2
*D21
340
0
  0
BLOCK_RECORD
  5
420B
330
1
100
AcDbSymbolTableRecord
100
AcDbBlockTableRecord
  2
*D22
340
0
  0
BLOCK_RECORD
  5
45E5
330
1
100
AcDbSymbolTableRecord
100
AcDbBlockTableRecord
  2
*D23
340
0
  0
BLOCK_RECORD
  5
45F1
330
1
100
AcDbSymbolTableRecord
100
AcDbBlockTableRecord
  2
*D24
340
0
  0
BLOCK_RECORD
  5
4606
330
1
100
AcDbSymbolTableRecord
100
AcDbBlockTableRecord
  2
*D25
340
0
  0
BLOCK_RECORD
  5
4612
330
1
100
AcDbSymbolTableRecord
100
AcDbBlockTableRecord
  2
*D26
340
0
  0
BLOCK_RECORD
  5
4620
330
1
100
AcDbSymbolTableRecord
100
AcDbBlockTableRecord
  2
*D27
340
0
  0
BLOCK_RECORD
  5
4758
330
1
100
AcDbSymbolTableRecord
100
AcDbBlockTableRecord
  2
*D28
340
0
  0
BLOCK_RECORD
  5
4764
330
1
100
AcDbSymbolTableRecord
100
AcDbBlockTableRecord
  2
*D29
340
0
  0
BLOCK_RECORD
  5
4770
330
1
100
AcDbSymbolTableRecord
100
AcDbBlockTableRecord
  2
*D30
340
0
  0
BLOCK_RECORD
  5
477E
330
1
100
AcDbSymbolTableRecord
100
AcDbBlockTableRecord
  2
*D31
340
0
  0
BLOCK_RECORD
  5
4793
330
1
100
AcDbSymbolTableRecord
100
AcDbBlockTableRecord
  2
*D32
340
0
  0
BLOCK_RECORD
  5
4949
330
1
100
AcDbSymbolTableRecord
100
AcDbBlockTableRecord
  2
*D33
340
0
  0
BLOCK_RECORD
  5
4955
330
1
100
AcDbSymbolTableRecord
100
AcDbBlockTableRecord
  2
*D34
340
0
  0
BLOCK_RECORD
  5
496A
330
1
100
AcDbSymbolTableRecord
100
AcDbBlockTableRecord
  2
*D35
340
0
  0
BLOCK_RECORD
  5
4976
330
1
100
AcDbSymbolTableRecord
100
AcDbBlockTableRecord
  2
*D36
340
0
  0
BLOCK_RECORD
  5
4984
330
1
100
AcDbSymbolTableRecord
100
AcDbBlockTableRecord
  2
*D37
340
0
  0
ENDTAB
  0
ENDSEC
  0
SECTION
  2
BLOCKS
  0
BLOCK
  5
20
330
1F
100
AcDbEntity
  8
0
100
AcDbBlockBegin
  2
*Model_Space
 70
     0
 10
0.0
 20
0.0
 30
0.0
  3
*Model_Space
  1

  0
ENDBLK
  5
21
330
1F
100
AcDbEntity
  8
0
100
AcDbBlockEnd
  0
BLOCK
  5
5A
330
58
100
AcDbEntity
 67
     1
  8
0
100
AcDbBlockBegin
  2
*Paper_Space
 70
     0
 10
0.0
 20
0.0
 30
0.0
  3
*Paper_Space
  1

  0
ENDBLK
  5
5B
330
58
100
AcDbEntity
 67
     1
  8
0
100
AcDbBlockEnd
  0
BLOCK
  5
5F
330
5D
100
AcDbEntity
 67
     1
  8
0
100
AcDbBlockBegin
  2
*Paper_Space0
 70
     0
 10
0.0
 20
0.0
 30
0.0
  3
*Paper_Space0
  1

  0
ENDBLK
  5
60
330
5D
100
AcDbEntity
 67
     1
  8
0
100
AcDbBlockEnd
  0
BLOCK
  5
C7
330
C6
100
AcDbEntity
  8
0
100
AcDbBlockBegin
  2
_Open30
 70
     0
 10
0.0
 20
0.0
 30
0.0
  3
_Open30
  1

  0
LINE
  5
C8
330
C6
100
AcDbEntity
  8
0
  6
ByBlock
 62
     0
370
    -2
100
AcDbLine
 10
-1.0
 20
0.267949
 30
0.0
 11
0.0
 21
0.0
 31
0.0
  0
LINE
  5
C9
330
C6
100
AcDbEntity
  8
0
  6
ByBlock
 62
     0
370
    -2
100
AcDbLine
 10
0.0
 20
0.0
 30
0.0
 11
-1.0
 21
-0.267949
 31
0.0
  0
LINE
  5
CA
330
C6
100
AcDbEntity
  8
0
  6
ByBlock
 62
     0
370
    -2
100
AcDbLine
 10
0.0
 20
0.0
 30
0.0
 11
-1.0
 21
0.0
 31
0.0
  0
ENDBLK
  5
CB
330
C6
100
AcDbEntity
  8
0
100
AcDbBlockEnd
  0
BLOCK
  5
988
330
987
100
AcDbEntity
  8
0
100
AcDbBlockBegin
  2
_DotSmall
 70
     0
 10
0.0
 20
0.0
 30
0.0
  3
_DotSmall
  1

  0
LWPOLYLINE
  5
989
330
987
100
AcDbEntity
  8
0
  6
ByBlock
 62
     0
100
AcDbPolyline
 90
        2
 70
     1
 43
0.5
 10
-0.0625
 20
0.0
 42
1.0
 10
0.0625
 20
0.0
 42
1.0
  0
ENDBLK
  5
98A
330
987
100
AcDbEntity
  8
0
100
AcDbBlockEnd
  0
BLOCK
  5
3133
330
3132
100
AcDbEntity
  8
0
100
AcDbBlockBegin
  2
*D3
 70
     1
 10
0.0
 20
0.0
 30
0.0
  3
*D3
  1

  0
LINE
  5
3D65
330
3132
100
AcDbEntity
  8
0
 62
     0
370
    -2
100
AcDbLine
 10
423.9697053893276
 20
-253.5130557978064
 30
0.0
 11
423.9697053893276
 21
-289.432231739927
 31
0.0
  0
LINE
  5
3D66
330
3132
100
AcDbEntity
  8
0
 62
     0
370
    -2
100
AcDbLine
 10
506.4697053893276
 20
-253.5130557978064
 30
0.0
 11
506.4697053893276
 21
-289.432231739927
 31
0.0
  0
LINE
  5
3D67
330
3132
100
AcDbEntity
  8
0
 62
     0
370
    -2
100
AcDbLine
 10
426.4697053893276
 20
-288.182231739927
 30
0.0
 11
503.9697053893275
 21
-288.182231739927
 31
0.0
  0
INSERT
  5
3D68
330
3132
100
AcDbEntity
  8
0
 62
     0
370
    -2
100
AcDbBlockReference
  2
_Open30
 10
423.9697053893276
 20
-288.182231739927
 30
0.0
 41
2.5
 42
2.5
 43
2.5
 50
180.0
  0
INSERT
  5
3D69
330
3132
100
AcDbEntity
  8
0
 62
     0
370
    -2
100
AcDbBlockReference
  2
_Open30
 10
506.4697053893276
 20
-288.182231739927
 30
0.0
 41
2.5
 42
2.5
 43
2.5
  0
MTEXT
  5
3D6A
330
3132
100
AcDbEntity
  8
0
 62
     4
100
AcDbMText
 10
465.3469336984586
 20
-286.057231739927
 30
0.0
 40
3.0
 41
0.0
 71
     5
 72
     1
  1
%%C165
 73
     1
 44
1.0
1001
ACAD
1000
MTEXTBEGIN
1070
    73
1070
     1
1070
    44
1040
1.0
1070
    74
1070
     0
1000
MTEXTEND
  0
POINT
  5
3D6B
330
3132
100
AcDbEntity
  8
Defpoints
 62
     0
100
AcDbPoint
 10
423.9697053893276
 20
-253.2630557978064
 30
0.0
  0
POINT
  5
3D6C
330
3132
100
AcDbEntity
  8
Defpoints
 62
     0
100
AcDbPoint
 10
506.4697053893276
 20
-253.2630557978064
 30
0.0
  0
POINT
  5
3D6D
330
3132
100
AcDbEntity
  8
Defpoints
 62
     0
100
AcDbPoint
 10
506.4697053893276
 20
-288.182231739927
 30
0.0
  0
ENDBLK
  5
3134
330
3132
100
AcDbEntity
  8
0
100
AcDbBlockEnd
  0
BLOCK
  5
313F
330
313E
100
AcDbEntity
  8
0
100
AcDbBlockBegin
  2
*D4
 70
     1
 10
0.0
 20
0.0
 30
0.0
  3
*D4
  1

  0
LINE
  5
3D5C
330
313E
100
AcDbEntity
  8
0
 62
     0
370
    -2
100
AcDbLine
 10
464.9697053893273
 20
-163.2630557978064
 30
0.0
 11
414.1247936161283
 21
-163.2630557978064
 31
0.0
  0
LINE
  5
3D5D
330
313E
100
AcDbEntity
  8
0
 62
     0
370
    -2
100
AcDbLine
 10
426.9697053893273
 20
-260.2630557978064
 30
0.0
 11
414.1247936161283
 21
-260.2630557978064
 31
0.0
  0
LINE
  5
3D5E
330
313E
100
AcDbEntity
  8
0
 62
     0
370
    -2
100
AcDbLine
 10
415.3747936161283
 20
-165.7630557978063
 30
0.0
 11
415.3747936161283
 21
-257.7630557978064
 31
0.0
  0
INSERT
  5
3D5F
330
313E
100
AcDbEntity
  8
0
 62
     0
370
    -2
100
AcDbBlockReference
  2
_Open30
 10
415.3747936161283
 20
-163.2630557978064
 30
0.0
 41
2.5
 42
2.5
 43
2.5
 50
90.0
  0
INSERT
  5
3D60
330
313E
100
AcDbEntity
  8
0
 62
     0
370
    -2
100
AcDbBlockReference
  2
_Open30
 10
415.3747936161283
 20
-260.2630557978064
 30
0.0
 41
2.5
 42
2.5
 43
2.5
 50
270.0
  0
MTEXT
  5
3D61
330
313E
100
AcDbEntity
  8
0
 62
     4
100
AcDbMText
 10
413.2497936161286
 20
-220.4368910047826
 30
0.0
 40
3.0
 41
0.0
 71
     5
 72
     1
  1
194
 11
0.0000000000000001
 21
1.0
 31
0.0
 73
     1
 44
1.0
1001
ACAD
1000
MTEXTBEGIN
1070
    73
1070
     1
1070
    44
1040
1.0
1070
    74
1070
     0
1000
MTEXTEND
  0
POINT
  5
3D62
330
313E
100
AcDbEntity
  8
Defpoints
 62
     0
100
AcDbPoint
 10
465.2197053893273
 20
-163.2630557978064
 30
0.0
  0
POINT
  5
3D63
330
313E
100
AcDbEntity
  8
Defpoints
 62
     0
100
AcDbPoint
 10
427.2197053893273
 20
-260.2630557978064
 30
0.0
  0
POINT
  5
3D64
330
313E
100
AcDbEntity
  8
Defpoints
 62
     0
100
AcDbPoint
 10
415.3747936161283
 20
-260.2630557978064
 30
0.0
  0
ENDBLK
  5
3140
330
313E
100
AcDbEntity
  8
0
100
AcDbBlockEnd
  0
BLOCK
  5
3154
330
3153
100
AcDbEntity
  8
0
100
AcDbBlockBegin
  2
*D5
 70
     1
 10
0.0
 20
0.0
 30
0.0
  3
*D5
  1

  0
LINE
  5
3D6E
330
3153
100
AcDbEntity
  8
0
 62
     0
370
    -2
100
AcDbLine
 10
474.9697053831032
 20
-171.0130367877992
 30
0.0
 11
474.9697053831032
 21
-155.9135148606208
 31
0.0
  0
LINE
  5
3D6F
330
3153
100
AcDbEntity
  8
0
 62
     0
370
    -2
100
AcDbLine
 10
455.4697054487899
 20
-172.7131145552218
 30
0.0
 11
455.4697054487899
 21
-155.9135148606208
 31
0.0
  0
LINE
  5
3D70
330
3153
100
AcDbEntity
  8
0
 62
     0
370
    -2
100
AcDbLine
 10
472.4697053831032
 20
-157.1635148606208
 30
0.0
 11
457.9697054487898
 21
-157.1635148606208
 31
0.0
  0
INSERT
  5
3D71
330
3153
100
AcDbEntity
  8
0
 62
     0
370
    -2
100
AcDbBlockReference
  2
_Open30
 10
474.9697053831032
 20
-157.1635148606208
 30
0.0
 41
2.5
 42
2.5
 43
2.5
  0
INSERT
  5
3D72
330
3153
100
AcDbEntity
  8
0
 62
     0
370
    -2
100
AcDbBlockReference
  2
_Open30
 10
455.4697054487899
 20
-157.1635148606208
 30
0.0
 41
2.5
 42
2.5
 43
2.5
 50
180.0
  0
MTEXT
  5
3D73
330
3153
100
AcDbEntity
  8
0
 62
     4
100
AcDbMText
 10
465.4596390969373
 20
-155.0385148606208
 30
0.0
 40
3.0
 41
0.0
 71
     5
 72
     1
  1
E39
 73
     1
 44
1.0
1001
ACAD
1000
MTEXTBEGIN
1070
    73
1070
     1
1070
    44
1040
1.0
1070
    74
1070
     0
1000
MTEXTEND
  0
POINT
  5
3D74
330
3153
100
AcDbEntity
  8
Defpoints
 62
     0
100
AcDbPoint
 10
474.9697053831032
 20
-171.2630367877992
 30
0.0
  0
POINT
  5
3D75
330
3153
100
AcDbEntity
  8
Defpoints
 62
     0
100
AcDbPoint
 10
455.4697054487899
 20
-172.9631145552218
 30
0.0
  0
POINT
  5
3D76
330
3153
100
AcDbEntity
  8
Defpoints
 62
     0
100
AcDbPoint
 10
455.4697054487899
 20
-157.1635148606208
 30
0.0
  0
ENDBLK
  5
3155
330
3153
100
AcDbEntity
  8
0
100
AcDbBlockEnd
  0
BLOCK
  5
3160
330
315F
100
AcDbEntity
  8
0
100
AcDbBlockBegin
  2
*D6
 70
     1
 10
0.0
 20
0.0
 30
0.0
  3
*D6
  1

  0
LINE
  5
3D77
330
315F
100
AcDbEntity
  8
0
 62
     0
370
    -2
100
AcDbLine
 10
479.9697053893271
 20
-207.5130557978066
 30
0.0
 11
479.9697053893271
 21
-197.2477559438525
 31
0.0
  0
LINE
  5
3D78
330
315F
100
AcDbEntity
  8
0
 62
     0
370
    -2
100
AcDbLine
 10
450.4697053893274
 20
-207.5130557978066
 30
0.0
 11
450.4697053893274
 21
-197.2477559438525
 31
0.0
  0
LINE
  5
3D79
330
315F
100
AcDbEntity
  8
0
 62
     0
370
    -2
100
AcDbLine
 10
447.9697053893273
 20
-198.4977559438525
 30
0.0
 11
445.4697053893274
 21
-198.4977559438525
 31
0.0
  0
LINE
  5
3D7A
330
315F
100
AcDbEntity
  8
0
 62
     0
370
    -2
100
AcDbLine
 10
482.469705389327
 20
-198.4977559438525
 30
0.0
 11
497.7822053893273
 21
-198.4977559438525
 31
0.0
  0
LINE
  5
3D7B
330
315F
100
AcDbEntity
  8
0
 62
     0
370
    -2
100
AcDbLine
 10
450.4697053893274
 20
-198.4977559438525
 30
0.0
 11
479.9697053893271
 21
-198.4977559438525
 31
0.0
  0
INSERT
  5
3D7C
330
315F
100
AcDbEntity
  8
0
 62
     0
370
    -2
100
AcDbBlockReference
  2
_Open30
 10
450.4697053893274
 20
-198.4977559438525
 30
0.0
 41
2.5
 42
2.5
 43
2.5
  0
INSERT
  5
3D7D
330
315F
100
AcDbEntity
  8
0
 62
     0
370
    -2
100
AcDbBlockReference
  2
_Open30
 10
479.9697053893271
 20
-198.4977559438525
 30
0.0
 41
2.5
 42
2.5
 43
2.5
 50
180.0
  0
MTEXT
  5
3D7E
330
315F
100
AcDbEntity
  8
0
 62
     4
100
AcDbMText
 10
493.1572053893273
 20
-196.3727559438525
 30
0.0
 40
3.0
 41
0.0
 71
     5
 72
     1
  1
%%C59
 73
     1
 44
1.0
1001
ACAD
1000
MTEXTBEGIN
1070
    73
1070
     1
1070
    44
1040
1.0
1070
    74
1070
     0
1000
MTEXTEND
  0
POINT
  5
3D7F
330
315F
100
AcDbEntity
  8
Defpoints
 62
     0
100
AcDbPoint
 10
479.9697053893271
 20
-207.7630557978066
 30
0.0
  0
POINT
  5
3D80
330
315F
100
AcDbEntity
  8
Defpoints
 62
     0
100
AcDbPoint
 10
450.4697053893274
 20
-207.7630557978066
 30
0.0
  0
POINT
  5
3D81
330
315F
100
AcDbEntity
  8
Defpoints
 62
     0
100
AcDbPoint
 10
450.4697053893274
 20
-198.4977559438525
 30
0.0
  0
ENDBLK
  5
3161
330
315F
100
AcDbEntity
  8
0
100
AcDbBlockEnd
  0
BLOCK
  5
316E
330
316D
100
AcDbEntity
  8
0
100
AcDbBlockBegin
  2
*D7
 70
     1
 10
0.0
 20
0.0
 30
0.0
  3
*D7
  1

  0
LINE
  5
3D82
330
316D
100
AcDbEntity
  8
0
 62
     0
370
    -2
100
AcDbLine
 10
464.9697053893273
 20
-163.2630557978064
 30
0.0
 11
430.168254724403
 21
-163.2630557978064
 31
0.0
  0
LINE
  5
3D83
330
316D
100
AcDbEntity
  8
0
 62
     0
370
    -2
100
AcDbLine
 10
447.7197053893275
 20
-207.7630557978066
 30
0.0
 11
430.168254724403
 21
-207.7630557978066
 31
0.0
  0
LINE
  5
3D84
330
316D
100
AcDbEntity
  8
0
 62
     0
370
    -2
100
AcDbLine
 10
431.4182547244031
 20
-165.7630557978063
 30
0.0
 11
431.4182547244031
 21
-205.2630557978066
 31
0.0
  0
INSERT
  5
3D85
330
316D
100
AcDbEntity
  8
0
 62
     0
370
    -2
100
AcDbBlockReference
  2
_Open30
 10
431.4182547244031
 20
-163.2630557978064
 30
0.0
 41
2.5
 42
2.5
 43
2.5
 50
90.0
  0
INSERT
  5
3D86
330
316D
100
AcDbEntity
  8
0
 62
     0
370
    -2
100
AcDbBlockReference
  2
_Open30
 10
431.4182547244031
 20
-207.7630557978066
 30
0.0
 41
2.5
 42
2.5
 43
2.5
 50
270.0
  0
MTEXT
  5
3D87
330
316D
100
AcDbEntity
  8
0
 62
     4
100
AcDbMText
 10
429.2932547244031
 20
-185.360966219721
 30
0.0
 40
3.0
 41
0.0
 71
     5
 72
     1
  1
89
 11
0.0000000000000001
 21
1.0
 31
0.0
 73
     1
 44
1.0
1001
ACAD
1000
MTEXTBEGIN
1070
    73
1070
     1
1070
    44
1040
1.0
1070
    74
1070
     0
1000
MTEXTEND
  0
POINT
  5
3D88
330
316D
100
AcDbEntity
  8
Defpoints
 62
     0
100
AcDbPoint
 10
465.2197053893273
 20
-163.2630557978064
 30
0.0
  0
POINT
  5
3D89
330
316D
100
AcDbEntity
  8
Defpoints
 62
     0
100
AcDbPoint
 10
447.9697053893276
 20
-207.7630557978066
 30
0.0
  0
POINT
  5
3D8A
330
316D
100
AcDbEntity
  8
Defpoints
 62
     0
100
AcDbPoint
 10
431.4182547244031
 20
-207.7630557978066
 30
0.0
  0
ENDBLK
  5
316F
330
316D
100
AcDbEntity
  8
0
100
AcDbBlockEnd
  0
BLOCK
  5
3D8D
330
3D8C
100
AcDbEntity
  8
0
100
AcDbBlockBegin
  2
*D8
 70
     1
 10
0.0
 20
0.0
 30
0.0
  3
*D8
  1

  0
LINE
  5
3D8E
330
3D8C
100
AcDbEntity
  8
0
 62
     0
370
    -2
100
AcDbLine
 10
831.7965731046879
 20
-253.1258900607753
 30
0.0
 11
831.7965731046879
 21
-276.9591730925534
 31
0.0
  0
LINE
  5
3D8F
330
3D8C
100
AcDbEntity
  8
0
 62
     0
370
    -2
100
AcDbLine
 10
887.129906438021
 20
-253.1258900607753
 30
0.0
 11
887.129906438021
 21
-276.9591730925534
 31
0.0
  0
LINE
  5
3D90
330
3D8C
100
AcDbEntity
  8
0
 62
     0
370
    -2
100
AcDbLine
 10
834.2965731046877
 20
-275.7091730925534
 30
0.0
 11
884.6299064380209
 21
-275.7091730925534
 31
0.0
  0
INSERT
  5
3D91
330
3D8C
100
AcDbEntity
  8
0
 62
     0
370
    -2
100
AcDbBlockReference
  2
_Open30
 10
831.7965731046879
 20
-275.7091730925534
 30
0.0
 41
2.5
 42
2.5
 43
2.5
 50
180.0
  0
INSERT
  5
3D92
330
3D8C
100
AcDbEntity
  8
0
 62
     0
370
    -2
100
AcDbBlockReference
  2
_Open30
 10
887.129906438021
 20
-275.7091730925534
 30
0.0
 41
2.5
 42
2.5
 43
2.5
  0
MTEXT
  5
3D93
330
3D8C
100
AcDbEntity
  8
0
 62
     4
100
AcDbMText
 10
859.5480586441087
 20
-273.5841730925534
 30
0.0
 40
3.0
 41
0.0
 71
     5
 72
     1
  1
%%C166
 73
     1
 44
1.0
1001
ACAD
1000
MTEXTBEGIN
1070
    73
1070
     1
1070
    44
1040
1.0
1070
    74
1070
     0
1000
MTEXTEND
  0
POINT
  5
3D94
330
3D8C
100
AcDbEntity
  8
Defpoints
 62
     0
100
AcDbPoint
 10
831.7965731046879
 20
-252.8758900607753
 30
0.0
  0
POINT
  5
3D95
330
3D8C
100
AcDbEntity
  8
Defpoints
 62
     0
100
AcDbPoint
 10
887.129906438021
 20
-252.8758900607753
 30
0.0
  0
POINT
  5
3D96
330
3D8C
100
AcDbEntity
  8
Defpoints
 62
     0
100
AcDbPoint
 10
887.129906438021
 20
-275.7091730925534
 30
0.0
  0
ENDBLK
  5
3D97
330
3D8C
100
AcDbEntity
  8
0
100
AcDbBlockEnd
  0
BLOCK
  5
3D99
330
3D98
100
AcDbEntity
  8
0
100
AcDbBlockBegin
  2
*D9
 70
     1
 10
0.0
 20
0.0
 30
0.0
  3
*D9
  1

  0
LINE
  5
3D9A
330
3D98
100
AcDbEntity
  8
0
 62
     0
370
    -2
100
AcDbLine
 10
859.2132397713541
 20
-192.429722464473
 30
0.0
 11
824.9832985892219
 21
-192.429722464473
 31
0.0
  0
LINE
  5
3D9B
330
3D98
100
AcDbEntity
  8
0
 62
     0
370
    -2
100
AcDbLine
 10
859.2132397713541
 20
-266.09638913114
 30
0.0
 11
824.9832985892219
 21
-266.09638913114
 31
0.0
  0
LINE
  5
3D9C
330
3D98
100
AcDbEntity
  8
0
 62
     0
370
    -2
100
AcDbLine
 10
826.233298589222
 20
-194.9297224644729
 30
0.0
 11
826.2332985892218
 21
-263.59638913114
 31
0.0
  0
INSERT
  5
3D9D
330
3D98
100
AcDbEntity
  8
0
 62
     0
370
    -2
100
AcDbBlockReference
  2
_Open30
 10
826.233298589222
 20
-192.429722464473
 30
0.0
 41
2.5
 42
2.5
 43
2.5
 50
90.0
  0
INSERT
  5
3D9E
330
3D98
100
AcDbEntity
  8
0
 62
     0
370
    -2
100
AcDbBlockReference
  2
_Open30
 10
826.2332985892218
 20
-266.09638913114
 30
0.0
 41
2.5
 42
2.5
 43
2.5
 50
270.0
  0
MTEXT
  5
3D9F
330
3D98
100
AcDbEntity
  8
0
 62
     4
100
AcDbMText
 10
824.1082985892218
 20
-230.5456126024572
 30
0.0
 40
3.0
 41
0.0
 71
     5
 72
     1
  1
221
 11
0.0000000000000001
 21
1.0
 31
0.0
 73
     1
 44
1.0
1001
ACAD
1000
MTEXTBEGIN
1070
    73
1070
     1
1070
    44
1040
1.0
1070
    74
1070
     0
1000
MTEXTEND
  0
POINT
  5
3DA0
330
3D98
100
AcDbEntity
  8
Defpoints
 62
     0
100
AcDbPoint
 10
859.4632397713542
 20
-192.429722464473
 30
0.0
  0
POINT
  5
3DA1
330
3D98
100
AcDbEntity
  8
Defpoints
 62
     0
100
AcDbPoint
 10
859.4632397713542
 20
-266.09638913114
 30
0.0
  0
POINT
  5
3DA2
330
3D98
100
AcDbEntity
  8
Defpoints
 62
     0
100
AcDbPoint
 10
826.2332985892218
 20
-266.09638913114
 30
0.0
  0
ENDBLK
  5
3DA3
330
3D98
100
AcDbEntity
  8
0
100
AcDbBlockEnd
  0
BLOCK
  5
3DA5
330
3DA4
100
AcDbEntity
  8
0
100
AcDbBlockBegin
  2
*D10
 70
     1
 10
0.0
 20
0.0
 30
0.0
  3
*D10
  1

  0
LINE
  5
3DA6
330
3DA4
100
AcDbEntity
  8
0
 62
     0
370
    -2
100
AcDbLine
 10
865.9632397672051
 20
-197.5130431244682
 30
0.0
 11
865.9632397672051
 21
-184.4553306168459
 31
0.0
  0
LINE
  5
3DA7
330
3DA4
100
AcDbEntity
  8
0
 62
     0
370
    -2
100
AcDbLine
 10
852.9632398109962
 20
-198.64642830275
 30
0.0
 11
852.9632398109962
 21
-184.4553306168459
 31
0.0
  0
LINE
  5
3DA8
330
3DA4
100
AcDbEntity
  8
0
 62
     0
370
    -2
100
AcDbLine
 10
863.4632397672051
 20
-185.7053306168459
 30
0.0
 11
855.4632398109962
 21
-185.7053306168459
 31
0.0
  0
INSERT
  5
3DA9
330
3DA4
100
AcDbEntity
  8
0
 62
     0
370
    -2
100
AcDbBlockReference
  2
_Open30
 10
865.9632397672051
 20
-185.7053306168459
 30
0.0
 41
2.5
 42
2.5
 43
2.5
  0
INSERT
  5
3DAA
330
3DA4
100
AcDbEntity
  8
0
 62
     0
370
    -2
100
AcDbBlockReference
  2
_Open30
 10
852.9632398109962
 20
-185.7053306168459
 30
0.0
 41
2.5
 42
2.5
 43
2.5
 50
180.0
  0
MTEXT
  5
3DAB
330
3DA4
100
AcDbEntity
  8
0
 62
     4
100
AcDbMText
 10
859.6231955764279
 20
-183.5803306168459
 30
0.0
 40
3.0
 41
0.0
 71
     5
 72
     1
  1
E39
 73
     1
 44
1.0
1001
ACAD
1000
MTEXTBEGIN
1070
    73
1070
     1
1070
    44
1040
1.0
1070
    74
1070
     0
1000
MTEXTEND
  0
POINT
  5
3DAC
330
3DA4
100
AcDbEntity
  8
Defpoints
 62
     0
100
AcDbPoint
 10
865.9632397672051
 20
-197.7630431244682
 30
0.0
  0
POINT
  5
3DAD
330
3DA4
100
AcDbEntity
  8
Defpoints
 62
     0
100
AcDbPoint
 10
852.9632398109962
 20
-198.89642830275
 30
0.0
  0
POINT
  5
3DAE
330
3DA4
100
AcDbEntity
  8
Defpoints
 62
     0
100
AcDbPoint
 10
852.9632398109962
 20
-185.7053306168459
 30
0.0
  0
ENDBLK
  5
3DAF
330
3DA4
100
AcDbEntity
  8
0
100
AcDbBlockEnd
  0
BLOCK
  5
3DB1
330
3DB0
100
AcDbEntity
  8
0
100
AcDbBlockBegin
  2
*D11
 70
     1
 10
0.0
 20
0.0
 30
0.0
  3
*D11
  1

  0
LINE
  5
3DB2
330
3DB0
100
AcDbEntity
  8
0
 62
     0
370
    -2
100
AcDbLine
 10
869.2965731046879
 20
-221.8463891311399
 30
0.0
 11
869.2965731046879
 21
-214.6695225618371
 31
0.0
  0
LINE
  5
3DB3
330
3DB0
100
AcDbEntity
  8
0
 62
     0
370
    -2
100
AcDbLine
 10
849.629906438021
 20
-221.8463891311399
 30
0.0
 11
849.629906438021
 21
-214.6695225618371
 31
0.0
  0
LINE
  5
3DB4
330
3DB0
100
AcDbEntity
  8
0
 62
     0
370
    -2
100
AcDbLine
 10
847.1299064380209
 20
-215.9195225618371
 30
0.0
 11
844.6299064380209
 21
-215.9195225618371
 31
0.0
  0
LINE
  5
3DB5
330
3DB0
100
AcDbEntity
  8
0
 62
     0
370
    -2
100
AcDbLine
 10
871.7965731046877
 20
-215.9195225618371
 30
0.0
 11
887.0465731046877
 21
-215.9195225618371
 31
0.0
  0
LINE
  5
3DB6
330
3DB0
100
AcDbEntity
  8
0
 62
     0
370
    -2
100
AcDbLine
 10
849.629906438021
 20
-215.9195225618371
 30
0.0
 11
869.2965731046879
 21
-215.9195225618371
 31
0.0
  0
INSERT
  5
3DB7
330
3DB0
100
AcDbEntity
  8
0
 62
     0
370
    -2
100
AcDbBlockReference
  2
_Open30
 10
849.629906438021
 20
-215.9195225618371
 30
0.0
 41
2.5
 42
2.5
 43
2.5
  0
INSERT
  5
3DB8
330
3DB0
100
AcDbEntity
  8
0
 62
     0
370
    -2
100
AcDbBlockReference
  2
_Open30
 10
869.2965731046879
 20
-215.9195225618371
 30
0.0
 41
2.5
 42
2.5
 43
2.5
 50
180.0
  0
MTEXT
  5
3DB9
330
3DB0
100
AcDbEntity
  8
0
 62
     4
100
AcDbMText
 10
882.4215731046876
 20
-213.7945225618371
 30
0.0
 40
3.0
 41
0.0
 71
     5
 72
     1
  1
%%C59
 73
     1
 44
1.0
1001
ACAD
1000
MTEXTBEGIN
1070
    73
1070
     1
1070
    44
1040
1.0
1070
    74
1070
     0
1000
MTEXTEND
  0
POINT
  5
3DBA
330
3DB0
100
AcDbEntity
  8
Defpoints
 62
     0
100
AcDbPoint
 10
869.2965731046879
 20
-222.0963891311399
 30
0.0
  0
POINT
  5
3DBB
330
3DB0
100
AcDbEntity
  8
Defpoints
 62
     0
100
AcDbPoint
 10
849.629906438021
 20
-222.0963891311399
 30
0.0
  0
POINT
  5
3DBC
330
3DB0
100
AcDbEntity
  8
Defpoints
 62
     0
100
AcDbPoint
 10
849.629906438021
 20
-215.9195225618371
 30
0.0
  0
ENDBLK
  5
3DBD
330
3DB0
100
AcDbEntity
  8
0
100
AcDbBlockEnd
  0
BLOCK
  5
3DBF
330
3DBE
100
AcDbEntity
  8
0
100
AcDbBlockBegin
  2
*D12
 70
     1
 10
0.0
 20
0.0
 30
0.0
  3
*D12
  1

  0
LINE
  5
3DC0
330
3DBE
100
AcDbEntity
  8
0
 62
     0
370
    -2
100
AcDbLine
 10
859.2132397713541
 20
-192.429722464473
 30
0.0
 11
835.6789393280715
 21
-192.429722464473
 31
0.0
  0
LINE
  5
3DC1
330
3DBE
100
AcDbEntity
  8
0
 62
     0
370
    -2
100
AcDbLine
 10
847.7132397713546
 20
-222.0963891311399
 30
0.0
 11
835.6789393280715
 21
-222.0963891311399
 31
0.0
  0
LINE
  5
3DC2
330
3DBE
100
AcDbEntity
  8
0
 62
     0
370
    -2
100
AcDbLine
 10
836.9289393280716
 20
-194.929722464473
 30
0.0
 11
836.9289393280716
 21
-219.5963891311399
 31
0.0
  0
INSERT
  5
3DC3
330
3DBE
100
AcDbEntity
  8
0
 62
     0
370
    -2
100
AcDbBlockReference
  2
_Open30
 10
836.9289393280716
 20
-192.429722464473
 30
0.0
 41
2.5
 42
2.5
 43
2.5
 50
90.0
  0
INSERT
  5
3DC4
330
3DBE
100
AcDbEntity
  8
0
 62
     0
370
    -2
100
AcDbBlockReference
  2
_Open30
 10
836.9289393280716
 20
-222.0963891311399
 30
0.0
 41
2.5
 42
2.5
 43
2.5
 50
270.0
  0
MTEXT
  5
3DC5
330
3DBE
100
AcDbEntity
  8
0
 62
     4
100
AcDbMText
 10
834.8039393280716
 20
-207.1616627457495
 30
0.0
 40
3.0
 41
0.0
 71
     5
 72
     1
  1
89
 11
0.0000000000000001
 21
1.0
 31
0.0
 73
     1
 44
1.0
1001
ACAD
1000
MTEXTBEGIN
1070
    73
1070
     1
1070
    44
1040
1.0
1070
    74
1070
     0
1000
MTEXTEND
  0
POINT
  5
3DC6
330
3DBE
100
AcDbEntity
  8
Defpoints
 62
     0
100
AcDbPoint
 10
859.4632397713542
 20
-192.429722464473
 30
0.0
  0
POINT
  5
3DC7
330
3DBE
100
AcDbEntity
  8
Defpoints
 62
     0
100
AcDbPoint
 10
847.9632397713546
 20
-222.0963891311399
 30
0.0
  0
POINT
  5
3DC8
330
3DBE
100
AcDbEntity
  8
Defpoints
 62
     0
100
AcDbPoint
 10
836.9289393280716
 20
-222.0963891311399
 30
0.0
  0
ENDBLK
  5
3DC9
330
3DBE
100
AcDbEntity
  8
0
100
AcDbBlockEnd
  0
BLOCK
  5
418A
330
4189
100
AcDbEntity
  8
0
100
AcDbBlockBegin
  2
*D13
 70
     1
 10
0.0
 20
0.0
 30
0.0
  3
*D13
  1

  0
LINE
  5
41AD
330
4189
100
AcDbEntity
  8
0
 62
     0
370
    -2
100
AcDbLine
 10
865.0447419111072
 20
-244.498276253266
 30
0.0
 11
865.0447419111072
 21
-268.3315592850441
 31
0.0
  0
LINE
  5
41AE
330
4189
100
AcDbEntity
  8
0
 62
     0
370
    -2
100
AcDbLine
 10
920.3780752444403
 20
-244.498276253266
 30
0.0
 11
920.3780752444403
 21
-268.3315592850441
 31
0.0
  0
LINE
  5
41AF
330
4189
100
AcDbEntity
  8
0
 62
     0
370
    -2
100
AcDbLine
 10
867.5447419111071
 20
-267.0815592850441
 30
0.0
 11
917.8780752444403
 21
-267.0815592850441
 31
0.0
  0
INSERT
  5
41B0
330
4189
100
AcDbEntity
  8
0
 62
     0
370
    -2
100
AcDbBlockReference
  2
_Open30
 10
865.0447419111072
 20
-267.0815592850441
 30
0.0
 41
2.5
 42
2.5
 43
2.5
 50
180.0
  0
INSERT
  5
41B1
330
4189
100
AcDbEntity
  8
0
 62
     0
370
    -2
100
AcDbBlockReference
  2
_Open30
 10
920.3780752444403
 20
-267.0815592850441
 30
0.0
 41
2.5
 42
2.5
 43
2.5
  0
MTEXT
  5
41B2
330
4189
100
AcDbEntity
  8
0
 62
     4
100
AcDbMText
 10
892.7962274505283
 20
-264.9565592850441
 30
0.0
 40
3.0
 41
0.0
 71
     5
 72
     1
  1
%%C166
 73
     1
 44
1.0
1001
ACAD
1000
MTEXTBEGIN
1070
    73
1070
     1
1070
    44
1040
1.0
1070
    74
1070
     0
1000
MTEXTEND
  0
POINT
  5
41B3
330
4189
100
AcDbEntity
  8
Defpoints
 62
     0
100
AcDbPoint
 10
865.0447419111072
 20
-244.248276253266
 30
0.0
  0
POINT
  5
41B4
330
4189
100
AcDbEntity
  8
Defpoints
 62
     0
100
AcDbPoint
 10
920.3780752444403
 20
-244.248276253266
 30
0.0
  0
POINT
  5
41B5
330
4189
100
AcDbEntity
  8
Defpoints
 62
     0
100
AcDbPoint
 10
920.3780752444403
 20
-267.0815592850441
 30
0.0
  0
ENDBLK
  5
418B
330
4189
100
AcDbEntity
  8
0
100
AcDbBlockEnd
  0
BLOCK
  5
4196
330
4195
100
AcDbEntity
  8
0
100
AcDbBlockBegin
  2
*D14
 70
     1
 10
0.0
 20
0.0
 30
0.0
  3
*D14
  1

  0
LINE
  5
4198
330
4195
100
AcDbEntity
  8
0
 62
     0
370
    -2
100
AcDbLine
 10
892.4614085777735
 20
-183.8021086569637
 30
0.0
 11
868.9271081344909
 21
-183.8021086569637
 31
0.0
  0
LINE
  5
4199
330
4195
100
AcDbEntity
  8
0
 62
     0
370
    -2
100
AcDbLine
 10
880.9614085777742
 20
-213.4687753236306
 30
0.0
 11
868.9271081344909
 21
-213.4687753236306
 31
0.0
  0
LINE
  5
419A
330
4195
100
AcDbEntity
  8
0
 62
     0
370
    -2
100
AcDbLine
 10
870.177108134491
 20
-186.3021086569637
 30
0.0
 11
870.177108134491
 21
-210.9687753236306
 31
0.0
  0
INSERT
  5
419B
330
4195
100
AcDbEntity
  8
0
 62
     0
370
    -2
100
AcDbBlockReference
  2
_Open30
 10
870.177108134491
 20
-183.8021086569637
 30
0.0
 41
2.5
 42
2.5
 43
2.5
 50
90.0
  0
INSERT
  5
419C
330
4195
100
AcDbEntity
  8
0
 62
     0
370
    -2
100
AcDbBlockReference
  2
_Open30
 10
870.177108134491
 20
-213.4687753236306
 30
0.0
 41
2.5
 42
2.5
 43
2.5
 50
270.0
  0
MTEXT
  5
419D
330
4195
100
AcDbEntity
  8
0
 62
     4
100
AcDbMText
 10
868.052108134491
 20
-198.5340489382402
 30
0.0
 40
3.0
 41
0.0
 71
     5
 72
     1
  1
89
 11
0.0000000000000001
 21
1.0
 31
0.0
 73
     1
 44
1.0
1001
ACAD
1000
MTEXTBEGIN
1070
    73
1070
     1
1070
    44
1040
1.0
1070
    74
1070
     0
1000
MTEXTEND
  0
POINT
  5
419E
330
4195
100
AcDbEntity
  8
Defpoints
 62
     0
100
AcDbPoint
 10
892.7114085777736
 20
-183.8021086569637
 30
0.0
  0
POINT
  5
419F
330
4195
100
AcDbEntity
  8
Defpoints
 62
     0
100
AcDbPoint
 10
881.2114085777743
 20
-213.4687753236306
 30
0.0
  0
POINT
  5
41A0
330
4195
100
AcDbEntity
  8
Defpoints
 62
     0
100
AcDbPoint
 10
870.177108134491
 20
-213.4687753236306
 30
0.0
  0
ENDBLK
  5
4197
330
4195
100
AcDbEntity
  8
0
100
AcDbBlockEnd
  0
BLOCK
  5
41A2
330
41A1
100
AcDbEntity
  8
0
100
AcDbBlockBegin
  2
*D15
 70
     1
 10
0.0
 20
0.0
 30
0.0
  3
*D15
  1

  0
LINE
  5
41D0
330
41A1
100
AcDbEntity
  8
0
 62
     0
370
    -2
100
AcDbLine
 10
892.4614085777735
 20
-183.8021086569637
 30
0.0
 11
858.2314673956412
 21
-183.8021086569637
 31
0.0
  0
LINE
  5
41D1
330
41A1
100
AcDbEntity
  8
0
 62
     0
370
    -2
100
AcDbLine
 10
892.4614085777735
 20
-257.4687753236307
 30
0.0
 11
858.2314673956412
 21
-257.4687753236307
 31
0.0
  0
LINE
  5
41D2
330
41A1
100
AcDbEntity
  8
0
 62
     0
370
    -2
100
AcDbLine
 10
859.4814673956411
 20
-186.3021086569637
 30
0.0
 11
859.4814673956411
 21
-254.9687753236307
 31
0.0
  0
INSERT
  5
41D3
330
41A1
100
AcDbEntity
  8
0
 62
     0
370
    -2
100
AcDbBlockReference
  2
_Open30
 10
859.4814673956411
 20
-183.8021086569637
 30
0.0
 41
2.5
 42
2.5
 43
2.5
 50
90.0
  0
INSERT
  5
41D4
330
41A1
100
AcDbEntity
  8
0
 62
     0
370
    -2
100
AcDbBlockReference
  2
_Open30
 10
859.4814673956411
 20
-257.4687753236307
 30
0.0
 41
2.5
 42
2.5
 43
2.5
 50
270.0
  0
MTEXT
  5
41D5
330
41A1
100
AcDbEntity
  8
0
 62
     4
100
AcDbMText
 10
857.3564673956411
 20
-221.9179987949479
 30
0.0
 40
3.0
 41
0.0
 71
     5
 72
     1
  1
221
 11
0.0000000000000001
 21
1.0
 31
0.0
 73
     1
 44
1.0
1001
ACAD
1000
MTEXTBEGIN
1070
    73
1070
     1
1070
    44
1040
1.0
1070
    74
1070
     0
1000
MTEXTEND
  0
POINT
  5
41D6
330
41A1
100
AcDbEntity
  8
Defpoints
 62
     0
100
AcDbPoint
 10
892.7114085777736
 20
-183.8021086569637
 30
0.0
  0
POINT
  5
41D7
330
41A1
100
AcDbEntity
  8
Defpoints
 62
     0
100
AcDbPoint
 10
892.7114085777736
 20
-257.4687753236307
 30
0.0
  0
POINT
  5
41D8
330
41A1
100
AcDbEntity
  8
Defpoints
 62
     0
100
AcDbPoint
 10
859.4814673956411
 20
-257.4687753236307
 30
0.0
  0
ENDBLK
  5
41A3
330
41A1
100
AcDbEntity
  8
0
100
AcDbBlockEnd
  0
BLOCK
  5
41B7
330
41B6
100
AcDbEntity
  8
0
100
AcDbBlockBegin
  2
*D16
 70
     1
 10
0.0
 20
0.0
 30
0.0
  3
*D16
  1

  0
LINE
  5
41B9
330
41B6
100
AcDbEntity
  8
0
 62
     0
370
    -2
100
AcDbLine
 10
899.2114085736247
 20
-188.8854293169589
 30
0.0
 11
899.2114085736247
 21
-175.8277168093365
 31
0.0
  0
LINE
  5
41BA
330
41B6
100
AcDbEntity
  8
0
 62
     0
370
    -2
100
AcDbLine
 10
886.2114086174157
 20
-190.0188144952407
 30
0.0
 11
886.2114086174157
 21
-175.8277168093365
 31
0.0
  0
LINE
  5
41BB
330
41B6
100
AcDbEntity
  8
0
 62
     0
370
    -2
100
AcDbLine
 10
896.7114085736247
 20
-177.0777168093365
 30
0.0
 11
888.7114086174157
 21
-177.0777168093365
 31
0.0
  0
INSERT
  5
41BC
330
41B6
100
AcDbEntity
  8
0
 62
     0
370
    -2
100
AcDbBlockReference
  2
_Open30
 10
899.2114085736247
 20
-177.0777168093365
 30
0.0
 41
2.5
 42
2.5
 43
2.5
  0
INSERT
  5
41BD
330
41B6
100
AcDbEntity
  8
0
 62
     0
370
    -2
100
AcDbBlockReference
  2
_Open30
 10
886.2114086174157
 20
-177.0777168093365
 30
0.0
 41
2.5
 42
2.5
 43
2.5
 50
180.0
  0
MTEXT
  5
41BE
330
41B6
100
AcDbEntity
  8
0
 62
     4
100
AcDbMText
 10
892.8713643828473
 20
-174.9527168093365
 30
0.0
 40
3.0
 41
0.0
 71
     5
 72
     1
  1
E39
 73
     1
 44
1.0
1001
ACAD
1000
MTEXTBEGIN
1070
    73
1070
     1
1070
    44
1040
1.0
1070
    74
1070
     0
1000
MTEXTEND
  0
POINT
  5
41BF
330
41B6
100
AcDbEntity
  8
Defpoints
 62
     0
100
AcDbPoint
 10
899.2114085736247
 20
-189.1354293169589
 30
0.0
  0
POINT
  5
41C0
330
41B6
100
AcDbEntity
  8
Defpoints
 62
     0
100
AcDbPoint
 10
886.2114086174157
 20
-190.2688144952406
 30
0.0
  0
POINT
  5
41C1
330
41B6
100
AcDbEntity
  8
Defpoints
 62
     0
100
AcDbPoint
 10
886.2114086174157
 20
-177.0777168093365
 30
0.0
  0
ENDBLK
  5
41B8
330
41B6
100
AcDbEntity
  8
0
100
AcDbBlockEnd
  0
BLOCK
  5
41C3
330
41C2
100
AcDbEntity
  8
0
100
AcDbBlockBegin
  2
*D17
 70
     1
 10
0.0
 20
0.0
 30
0.0
  3
*D17
  1

  0
LINE
  5
41C5
330
41C2
100
AcDbEntity
  8
0
 62
     0
370
    -2
100
AcDbLine
 10
902.5447419111072
 20
-213.2187753236306
 30
0.0
 11
902.5447419111072
 21
-206.0419087543278
 31
0.0
  0
LINE
  5
41C6
330
41C2
100
AcDbEntity
  8
0
 62
     0
370
    -2
100
AcDbLine
 10
882.8780752444403
 20
-213.2187753236306
 30
0.0
 11
882.8780752444403
 21
-206.0419087543278
 31
0.0
  0
LINE
  5
41C7
330
41C2
100
AcDbEntity
  8
0
 62
     0
370
    -2
100
AcDbLine
 10
880.3780752444405
 20
-207.2919087543278
 30
0.0
 11
877.8780752444403
 21
-207.2919087543278
 31
0.0
  0
LINE
  5
41C8
330
41C2
100
AcDbEntity
  8
0
 62
     0
370
    -2
100
AcDbLine
 10
905.0447419111071
 20
-207.2919087543278
 30
0.0
 11
920.2947419111071
 21
-207.2919087543278
 31
0.0
  0
LINE
  5
41C9
330
41C2
100
AcDbEntity
  8
0
 62
     0
370
    -2
100
AcDbLine
 10
882.8780752444403
 20
-207.2919087543278
 30
0.0
 11
902.5447419111072
 21
-207.2919087543278
 31
0.0
  0
INSERT
  5
41CA
330
41C2
100
AcDbEntity
  8
0
 62
     0
370
    -2
100
AcDbBlockReference
  2
_Open30
 10
882.8780752444403
 20
-207.2919087543278
 30
0.0
 41
2.5
 42
2.5
 43
2.5
  0
INSERT
  5
41CB
330
41C2
100
AcDbEntity
  8
0
 62
     0
370
    -2
100
AcDbBlockReference
  2
_Open30
 10
902.5447419111072
 20
-207.2919087543278
 30
0.0
 41
2.5
 42
2.5
 43
2.5
 50
180.0
  0
MTEXT
  5
41CC
330
41C2
100
AcDbEntity
  8
0
 62
     4
100
AcDbMText
 10
915.6697419111072
 20
-205.1669087543278
 30
0.0
 40
3.0
 41
0.0
 71
     5
 72
     1
  1
%%C59
 73
     1
 44
1.0
1001
ACAD
1000
MTEXTBEGIN
1070
    73
1070
     1
1070
    44
1040
1.0
1070
    74
1070
     0
1000
MTEXTEND
  0
POINT
  5
41CD
330
41C2
100
AcDbEntity
  8
Defpoints
 62
     0
100
AcDbPoint
 10
902.5447419111072
 20
-213.4687753236306
 30
0.0
  0
POINT
  5
41CE
330
41C2
100
AcDbEntity
  8
Defpoints
 62
     0
100
AcDbPoint
 10
882.8780752444403
 20
-213.4687753236306
 30
0.0
  0
POINT
  5
41CF
330
41C2
100
AcDbEntity
  8
Defpoints
 62
     0
100
AcDbPoint
 10
882.8780752444403
 20
-207.2919087543278
 30
0.0
  0
ENDBLK
  5
41C4
330
41C2
100
AcDbEntity
  8
0
100
AcDbBlockEnd
  0
BLOCK
  5
41DA
330
41D9
100
AcDbEntity
  8
0
100
AcDbBlockBegin
  2
*D18
 70
     1
 10
0.0
 20
0.0
 30
0.0
  3
*D18
  1

  0
LINE
  5
41DB
330
41D9
100
AcDbEntity
  8
0
 62
     0
370
    -2
100
AcDbLine
 10
1072.061309930236
 20
-253.2016402602538
 30
0.0
 11
1072.061309930236
 21
-277.034923292032
 31
0.0
  0
LINE
  5
41DC
330
41D9
100
AcDbEntity
  8
0
 62
     0
370
    -2
100
AcDbLine
 10
1127.39464326357
 20
-253.2016402602538
 30
0.0
 11
1127.39464326357
 21
-277.034923292032
 31
0.0
  0
LINE
  5
41DD
330
41D9
100
AcDbEntity
  8
0
 62
     0
370
    -2
100
AcDbLine
 10
1074.561309930236
 20
-275.7849232920321
 30
0.0
 11
1124.89464326357
 21
-275.7849232920321
 31
0.0
  0
INSERT
  5
41DE
330
41D9
100
AcDbEntity
  8
0
 62
     0
370
    -2
100
AcDbBlockReference
  2
_Open30
 10
1072.061309930236
 20
-275.7849232920321
 30
0.0
 41
2.5
 42
2.5
 43
2.5
 50
180.0
  0
INSERT
  5
41DF
330
41D9
100
AcDbEntity
  8
0
 62
     0
370
    -2
100
AcDbBlockReference
  2
_Open30
 10
1127.39464326357
 20
-275.7849232920321
 30
0.0
 41
2.5
 42
2.5
 43
2.5
  0
MTEXT
  5
41E0
330
41D9
100
AcDbEntity
  8
0
 62
     4
100
AcDbMText
 10
1099.812795469657
 20
-273.659923292032
 30
0.0
 40
3.0
 41
0.0
 71
     5
 72
     1
  1
%%C166
 73
     1
 44
1.0
1001
ACAD
1000
MTEXTBEGIN
1070
    73
1070
     1
1070
    44
1040
1.0
1070
    74
1070
     0
1000
MTEXTEND
  0
POINT
  5
41E1
330
41D9
100
AcDbEntity
  8
Defpoints
 62
     0
100
AcDbPoint
 10
1072.061309930236
 20
-252.9516402602538
 30
0.0
  0
POINT
  5
41E2
330
41D9
100
AcDbEntity
  8
Defpoints
 62
     0
100
AcDbPoint
 10
1127.39464326357
 20
-252.9516402602538
 30
0.0
  0
POINT
  5
41E3
330
41D9
100
AcDbEntity
  8
Defpoints
 62
     0
100
AcDbPoint
 10
1127.39464326357
 20
-275.7849232920321
 30
0.0
  0
ENDBLK
  5
41E4
330
41D9
100
AcDbEntity
  8
0
100
AcDbBlockEnd
  0
BLOCK
  5
41E6
330
41E5
100
AcDbEntity
  8
0
100
AcDbBlockBegin
  2
*D19
 70
     1
 10
0.0
 20
0.0
 30
0.0
  3
*D19
  1

  0
LINE
  5
41E7
330
41E5
100
AcDbEntity
  8
0
 62
     0
370
    -2
100
AcDbLine
 10
1099.477976596903
 20
-192.5054726639516
 30
0.0
 11
1065.248035414771
 21
-192.5054726639515
 31
0.0
  0
LINE
  5
41E8
330
41E5
100
AcDbEntity
  8
0
 62
     0
370
    -2
100
AcDbLine
 10
1099.477976596903
 20
-266.1721393306186
 30
0.0
 11
1065.248035414771
 21
-266.1721393306186
 31
0.0
  0
LINE
  5
41E9
330
41E5
100
AcDbEntity
  8
0
 62
     0
370
    -2
100
AcDbLine
 10
1066.498035414771
 20
-195.0054726639514
 30
0.0
 11
1066.498035414771
 21
-263.6721393306185
 31
0.0
  0
INSERT
  5
41EA
330
41E5
100
AcDbEntity
  8
0
 62
     0
370
    -2
100
AcDbBlockReference
  2
_Open30
 10
1066.498035414771
 20
-192.5054726639515
 30
0.0
 41
2.5
 42
2.5
 43
2.5
 50
90.0
  0
INSERT
  5
41EB
330
41E5
100
AcDbEntity
  8
0
 62
     0
370
    -2
100
AcDbBlockReference
  2
_Open30
 10
1066.498035414771
 20
-266.1721393306186
 30
0.0
 41
2.5
 42
2.5
 43
2.5
 50
270.0
  0
MTEXT
  5
41EC
330
41E5
100
AcDbEntity
  8
0
 62
     4
100
AcDbMText
 10
1064.373035414771
 20
-230.6213628019357
 30
0.0
 40
3.0
 41
0.0
 71
     5
 72
     1
  1
221
 11
0.0000000000000001
 21
1.0
 31
0.0
 73
     1
 44
1.0
1001
ACAD
1000
MTEXTBEGIN
1070
    73
1070
     1
1070
    44
1040
1.0
1070
    74
1070
     0
1000
MTEXTEND
  0
POINT
  5
41ED
330
41E5
100
AcDbEntity
  8
Defpoints
 62
     0
100
AcDbPoint
 10
1099.727976596903
 20
-192.5054726639516
 30
0.0
  0
POINT
  5
41EE
330
41E5
100
AcDbEntity
  8
Defpoints
 62
     0
100
AcDbPoint
 10
1099.727976596903
 20
-266.1721393306186
 30
0.0
  0
POINT
  5
41EF
330
41E5
100
AcDbEntity
  8
Defpoints
 62
     0
100
AcDbPoint
 10
1066.498035414771
 20
-266.1721393306186
 30
0.0
  0
ENDBLK
  5
41F0
330
41E5
100
AcDbEntity
  8
0
100
AcDbBlockEnd
  0
BLOCK
  5
41F2
330
41F1
100
AcDbEntity
  8
0
100
AcDbBlockBegin
  2
*D20
 70
     1
 10
0.0
 20
0.0
 30
0.0
  3
*D20
  1

  0
LINE
  5
41F3
330
41F1
100
AcDbEntity
  8
0
 62
     0
370
    -2
100
AcDbLine
 10
1106.227976592754
 20
-197.5887933239467
 30
0.0
 11
1106.227976592754
 21
-184.5310808163244
 31
0.0
  0
LINE
  5
41F4
330
41F1
100
AcDbEntity
  8
0
 62
     0
370
    -2
100
AcDbLine
 10
1093.227976636545
 20
-198.7221785022285
 30
0.0
 11
1093.227976636545
 21
-184.5310808163244
 31
0.0
  0
LINE
  5
41F5
330
41F1
100
AcDbEntity
  8
0
 62
     0
370
    -2
100
AcDbLine
 10
1103.727976592754
 20
-185.7810808163244
 30
0.0
 11
1095.727976636545
 21
-185.7810808163244
 31
0.0
  0
INSERT
  5
41F6
330
41F1
100
AcDbEntity
  8
0
 62
     0
370
    -2
100
AcDbBlockReference
  2
_Open30
 10
1106.227976592754
 20
-185.7810808163244
 30
0.0
 41
2.5
 42
2.5
 43
2.5
  0
INSERT
  5
41F7
330
41F1
100
AcDbEntity
  8
0
 62
     0
370
    -2
100
AcDbBlockReference
  2
_Open30
 10
1093.227976636545
 20
-185.7810808163244
 30
0.0
 41
2.5
 42
2.5
 43
2.5
 50
180.0
  0
MTEXT
  5
41F8
330
41F1
100
AcDbEntity
  8
0
 62
     4
100
AcDbMText
 10
1099.887932401977
 20
-183.6560808163244
 30
0.0
 40
3.0
 41
0.0
 71
     5
 72
     1
  1
E39
 73
     1
 44
1.0
1001
ACAD
1000
MTEXTBEGIN
1070
    73
1070
     1
1070
    44
1040
1.0
1070
    74
1070
     0
1000
MTEXTEND
  0
POINT
  5
41F9
330
41F1
100
AcDbEntity
  8
Defpoints
 62
     0
100
AcDbPoint
 10
1106.227976592754
 20
-197.8387933239466
 30
0.0
  0
POINT
  5
41FA
330
41F1
100
AcDbEntity
  8
Defpoints
 62
     0
100
AcDbPoint
 10
1093.227976636545
 20
-198.9721785022285
 30
0.0
  0
POINT
  5
41FB
330
41F1
100
AcDbEntity
  8
Defpoints
 62
     0
100
AcDbPoint
 10
1093.227976636545
 20
-185.7810808163244
 30
0.0
  0
ENDBLK
  5
41FC
330
41F1
100
AcDbEntity
  8
0
100
AcDbBlockEnd
  0
BLOCK
  5
41FE
330
41FD
100
AcDbEntity
  8
0
100
AcDbBlockBegin
  2
*D21
 70
     1
 10
0.0
 20
0.0
 30
0.0
  3
*D21
  1

  0
LINE
  5
41FF
330
41FD
100
AcDbEntity
  8
0
 62
     0
370
    -2
100
AcDbLine
 10
1109.561309930236
 20
-221.9221393306184
 30
0.0
 11
1109.561309930236
 21
-214.7452727613157
 31
0.0
  0
LINE
  5
4200
330
41FD
100
AcDbEntity
  8
0
 62
     0
370
    -2
100
AcDbLine
 10
1089.89464326357
 20
-221.9221393306184
 30
0.0
 11
1089.89464326357
 21
-214.7452727613157
 31
0.0
  0
LINE
  5
4201
330
41FD
100
AcDbEntity
  8
0
 62
     0
370
    -2
100
AcDbLine
 10
1087.39464326357
 20
-215.9952727613157
 30
0.0
 11
1084.894643263569
 21
-215.9952727613157
 31
0.0
  0
LINE
  5
4202
330
41FD
100
AcDbEntity
  8
0
 62
     0
370
    -2
100
AcDbLine
 10
1112.061309930236
 20
-215.9952727613157
 30
0.0
 11
1127.311309930236
 21
-215.9952727613157
 31
0.0
  0
LINE
  5
4203
330
41FD
100
AcDbEntity
  8
0
 62
     0
370
    -2
100
AcDbLine
 10
1089.89464326357
 20
-215.9952727613157
 30
0.0
 11
1109.561309930236
 21
-215.9952727613157
 31
0.0
  0
INSERT
  5
4204
330
41FD
100
AcDbEntity
  8
0
 62
     0
370
    -2
100
AcDbBlockReference
  2
_Open30
 10
1089.89464326357
 20
-215.9952727613157
 30
0.0
 41
2.5
 42
2.5
 43
2.5
  0
INSERT
  5
4205
330
41FD
100
AcDbEntity
  8
0
 62
     0
370
    -2
100
AcDbBlockReference
  2
_Open30
 10
1109.561309930236
 20
-215.9952727613157
 30
0.0
 41
2.5
 42
2.5
 43
2.5
 50
180.0
  0
MTEXT
  5
4206
330
41FD
100
AcDbEntity
  8
0
 62
     4
100
AcDbMText
 10
1122.686309930236
 20
-213.8702727613157
 30
0.0
 40
3.0
 41
0.0
 71
     5
 72
     1
  1
%%C59
 73
     1
 44
1.0
1001
ACAD
1000
MTEXTBEGIN
1070
    73
1070
     1
1070
    44
1040
1.0
1070
    74
1070
     0
1000
MTEXTEND
  0
POINT
  5
4207
330
41FD
100
AcDbEntity
  8
Defpoints
 62
     0
100
AcDbPoint
 10
1109.561309930236
 20
-222.1721393306184
 30
0.0
  0
POINT
  5
4208
330
41FD
100
AcDbEntity
  8
Defpoints
 62
     0
100
AcDbPoint
 10
1089.89464326357
 20
-222.1721393306184
 30
0.0
  0
POINT
  5
4209
330
41FD
100
AcDbEntity
  8
Defpoints
 62
     0
100
AcDbPoint
 10
1089.89464326357
 20
-215.9952727613157
 30
0.0
  0
ENDBLK
  5
420A
330
41FD
100
AcDbEntity
  8
0
100
AcDbBlockEnd
  0
BLOCK
  5
420C
330
420B
100
AcDbEntity
  8
0
100
AcDbBlockBegin
  2
*D22
 70
     1
 10
0.0
 20
0.0
 30
0.0
  3
*D22
  1

  0
LINE
  5
420D
330
420B
100
AcDbEntity
  8
0
 62
     0
370
    -2
100
AcDbLine
 10
1099.477976596903
 20
-192.5054726639516
 30
0.0
 11
1075.94367615362
 21
-192.5054726639515
 31
0.0
  0
LINE
  5
420E
330
420B
100
AcDbEntity
  8
0
 62
     0
370
    -2
100
AcDbLine
 10
1087.977976596903
 20
-222.1721393306184
 30
0.0
 11
1075.94367615362
 21
-222.1721393306184
 31
0.0
  0
LINE
  5
420F
330
420B
100
AcDbEntity
  8
0
 62
     0
370
    -2
100
AcDbLine
 10
1077.19367615362
 20
-195.0054726639514
 30
0.0
 11
1077.19367615362
 21
-219.6721393306184
 31
0.0
  0
INSERT
  5
4210
330
420B
100
AcDbEntity
  8
0
 62
     0
370
    -2
100
AcDbBlockReference
  2
_Open30
 10
1077.19367615362
 20
-192.5054726639515
 30
0.0
 41
2.5
 42
2.5
 43
2.5
 50
90.0
  0
INSERT
  5
4211
330
420B
100
AcDbEntity
  8
0
 62
     0
370
    -2
100
AcDbBlockReference
  2
_Open30
 10
1077.19367615362
 20
-222.1721393306184
 30
0.0
 41
2.5
 42
2.5
 43
2.5
 50
270.0
  0
MTEXT
  5
4212
330
420B
100
AcDbEntity
  8
0
 62
     4
100
AcDbMText
 10
1075.06867615362
 20
-207.237412945228
 30
0.0
 40
3.0
 41
0.0
 71
     5
 72
     1
  1
89
 11
0.0000000000000001
 21
1.0
 31
0.0
 73
     1
 44
1.0
1001
ACAD
1000
MTEXTBEGIN
1070
    73
1070
     1
1070
    44
1040
1.0
1070
    74
1070
     0
1000
MTEXTEND
  0
POINT
  5
4213
330
420B
100
AcDbEntity
  8
Defpoints
 62
     0
100
AcDbPoint
 10
1099.727976596903
 20
-192.5054726639516
 30
0.0
  0
POINT
  5
4214
330
420B
100
AcDbEntity
  8
Defpoints
 62
     0
100
AcDbPoint
 10
1088.227976596903
 20
-222.1721393306184
 30
0.0
  0
POINT
  5
4215
330
420B
100
AcDbEntity
  8
Defpoints
 62
     0
100
AcDbPoint
 10
1077.19367615362
 20
-222.1721393306184
 30
0.0
  0
ENDBLK
  5
4216
330
420B
100
AcDbEntity
  8
0
100
AcDbBlockEnd
  0
BLOCK
  5
45E6
330
45E5
100
AcDbEntity
  8
0
100
AcDbBlockBegin
  2
*D23
 70
     1
 10
0.0
 20
0.0
 30
0.0
  3
*D23
  1

  0
LINE
  5
45FD
330
45E5
100
AcDbEntity
  8
0
 62
     0
370
    -2
100
AcDbLine
 10
1161.343554619177
 20
-244.4982759428357
 30
0.0
 11
1161.343554619177
 21
-268.3315589746139
 31
0.0
  0
LINE
  5
45FE
330
45E5
100
AcDbEntity
  8
0
 62
     0
370
    -2
100
AcDbLine
 10
1216.676887952511
 20
-244.4982759428357
 30
0.0
 11
1216.676887952511
 21
-268.3315589746139
 31
0.0
  0
LINE
  5
45FF
330
45E5
100
AcDbEntity
  8
0
 62
     0
370
    -2
100
AcDbLine
 10
1163.843554619178
 20
-267.0815589746139
 30
0.0
 11
1214.176887952511
 21
-267.0815589746139
 31
0.0
  0
INSERT
  5
4600
330
45E5
100
AcDbEntity
  8
0
 62
     0
370
    -2
100
AcDbBlockReference
  2
_Open30
 10
1161.343554619177
 20
-267.0815589746139
 30
0.0
 41
2.5
 42
2.5
 43
2.5
 50
180.0
  0
INSERT
  5
4601
330
45E5
100
AcDbEntity
  8
0
 62
     0
370
    -2
100
AcDbBlockReference
  2
_Open30
 10
1216.676887952511
 20
-267.0815589746139
 30
0.0
 41
2.5
 42
2.5
 43
2.5
  0
MTEXT
  5
4602
330
45E5
100
AcDbEntity
  8
0
 62
     4
100
AcDbMText
 10
1189.095040158598
 20
-264.9565589746138
 30
0.0
 40
3.0
 41
0.0
 71
     5
 72
     1
  1
%%C166
 73
     1
 44
1.0
1001
ACAD
1000
MTEXTBEGIN
1070
    73
1070
     1
1070
    44
1040
1.0
1070
    74
1070
     0
1000
MTEXTEND
  0
POINT
  5
4603
330
45E5
100
AcDbEntity
  8
Defpoints
 62
     0
100
AcDbPoint
 10
1161.343554619177
 20
-244.2482759428357
 30
0.0
  0
POINT
  5
4604
330
45E5
100
AcDbEntity
  8
Defpoints
 62
     0
100
AcDbPoint
 10
1216.676887952511
 20
-244.2482759428357
 30
0.0
  0
POINT
  5
4605
330
45E5
100
AcDbEntity
  8
Defpoints
 62
     0
100
AcDbPoint
 10
1216.676887952511
 20
-267.0815589746139
 30
0.0
  0
ENDBLK
  5
45E7
330
45E5
100
AcDbEntity
  8
0
100
AcDbBlockEnd
  0
BLOCK
  5
45F2
330
45F1
100
AcDbEntity
  8
0
100
AcDbBlockBegin
  2
*D24
 70
     1
 10
0.0
 20
0.0
 30
0.0
  3
*D24
  1

  0
LINE
  5
462C
330
45F1
100
AcDbEntity
  8
0
 62
     0
370
    -2
100
AcDbLine
 10
1188.760221285845
 20
-183.8021083465334
 30
0.0
 11
1154.530280103713
 21
-183.8021083465334
 31
0.0
  0
LINE
  5
462D
330
45F1
100
AcDbEntity
  8
0
 62
     0
370
    -2
100
AcDbLine
 10
1188.760221285845
 20
-257.4687750132004
 30
0.0
 11
1154.530280103713
 21
-257.4687750132004
 31
0.0
  0
LINE
  5
462E
330
45F1
100
AcDbEntity
  8
0
 62
     0
370
    -2
100
AcDbLine
 10
1155.780280103713
 20
-186.3021083465334
 30
0.0
 11
1155.780280103713
 21
-254.9687750132004
 31
0.0
  0
INSERT
  5
462F
330
45F1
100
AcDbEntity
  8
0
 62
     0
370
    -2
100
AcDbBlockReference
  2
_Open30
 10
1155.780280103713
 20
-183.8021083465334
 30
0.0
 41
2.5
 42
2.5
 43
2.5
 50
90.0
  0
INSERT
  5
4630
330
45F1
100
AcDbEntity
  8
0
 62
     0
370
    -2
100
AcDbBlockReference
  2
_Open30
 10
1155.780280103713
 20
-257.4687750132004
 30
0.0
 41
2.5
 42
2.5
 43
2.5
 50
270.0
  0
MTEXT
  5
4631
330
45F1
100
AcDbEntity
  8
0
 62
     4
100
AcDbMText
 10
1153.655280103713
 20
-221.9179984845176
 30
0.0
 40
3.0
 41
0.0
 71
     5
 72
     1
  1
221
 11
0.0000000000000001
 21
1.0
 31
0.0
 73
     1
 44
1.0
1001
ACAD
1000
MTEXTBEGIN
1070
    73
1070
     1
1070
    44
1040
1.0
1070
    74
1070
     0
1000
MTEXTEND
  0
POINT
  5
4632
330
45F1
100
AcDbEntity
  8
Defpoints
 62
     0
100
AcDbPoint
 10
1189.010221285844
 20
-183.8021083465334
 30
0.0
  0
POINT
  5
4633
330
45F1
100
AcDbEntity
  8
Defpoints
 62
     0
100
AcDbPoint
 10
1189.010221285844
 20
-257.4687750132004
 30
0.0
  0
POINT
  5
4634
330
45F1
100
AcDbEntity
  8
Defpoints
 62
     0
100
AcDbPoint
 10
1155.780280103713
 20
-257.4687750132004
 30
0.0
  0
ENDBLK
  5
45F3
330
45F1
100
AcDbEntity
  8
0
100
AcDbBlockEnd
  0
BLOCK
  5
4607
330
4606
100
AcDbEntity
  8
0
100
AcDbBlockBegin
  2
*D25
 70
     1
 10
0.0
 20
0.0
 30
0.0
  3
*D25
  1

  0
LINE
  5
4609
330
4606
100
AcDbEntity
  8
0
 62
     0
370
    -2
100
AcDbLine
 10
1195.510221281695
 20
-188.8854290065285
 30
0.0
 11
1195.510221281695
 21
-175.8277164989062
 31
0.0
  0
LINE
  5
460A
330
4606
100
AcDbEntity
  8
0
 62
     0
370
    -2
100
AcDbLine
 10
1182.510221325486
 20
-190.0188141848103
 30
0.0
 11
1182.510221325486
 21
-175.8277164989062
 31
0.0
  0
LINE
  5
460B
330
4606
100
AcDbEntity
  8
0
 62
     0
370
    -2
100
AcDbLine
 10
1193.010221281695
 20
-177.0777164989062
 30
0.0
 11
1185.010221325486
 21
-177.0777164989062
 31
0.0
  0
INSERT
  5
460C
330
4606
100
AcDbEntity
  8
0
 62
     0
370
    -2
100
AcDbBlockReference
  2
_Open30
 10
1195.510221281695
 20
-177.0777164989062
 30
0.0
 41
2.5
 42
2.5
 43
2.5
  0
INSERT
  5
460D
330
4606
100
AcDbEntity
  8
0
 62
     0
370
    -2
100
AcDbBlockReference
  2
_Open30
 10
1182.510221325486
 20
-177.0777164989062
 30
0.0
 41
2.5
 42
2.5
 43
2.5
 50
180.0
  0
MTEXT
  5
460E
330
4606
100
AcDbEntity
  8
0
 62
     4
100
AcDbMText
 10
1189.170177090918
 20
-174.9527164989062
 30
0.0
 40
3.0
 41
0.0
 71
     5
 72
     1
  1
E39
 73
     1
 44
1.0
1001
ACAD
1000
MTEXTBEGIN
1070
    73
1070
     1
1070
    44
1040
1.0
1070
    74
1070
     0
1000
MTEXTEND
  0
POINT
  5
460F
330
4606
100
AcDbEntity
  8
Defpoints
 62
     0
100
AcDbPoint
 10
1195.510221281695
 20
-189.1354290065285
 30
0.0
  0
POINT
  5
4610
330
4606
100
AcDbEntity
  8
Defpoints
 62
     0
100
AcDbPoint
 10
1182.510221325486
 20
-190.2688141848101
 30
0.0
  0
POINT
  5
4611
330
4606
100
AcDbEntity
  8
Defpoints
 62
     0
100
AcDbPoint
 10
1182.510221325486
 20
-177.0777164989062
 30
0.0
  0
ENDBLK
  5
4608
330
4606
100
AcDbEntity
  8
0
100
AcDbBlockEnd
  0
BLOCK
  5
4613
330
4612
100
AcDbEntity
  8
0
100
AcDbBlockBegin
  2
*D26
 70
     1
 10
0.0
 20
0.0
 30
0.0
  3
*D26
  1

  0
LINE
  5
4615
330
4612
100
AcDbEntity
  8
0
 62
     0
370
    -2
100
AcDbLine
 10
1198.843554619178
 20
-213.2187750132002
 30
0.0
 11
1198.843554619178
 21
-206.0419084438975
 31
0.0
  0
LINE
  5
4616
330
4612
100
AcDbEntity
  8
0
 62
     0
370
    -2
100
AcDbLine
 10
1179.176887952511
 20
-213.2187750132002
 30
0.0
 11
1179.176887952511
 21
-206.0419084438975
 31
0.0
  0
LINE
  5
4617
330
4612
100
AcDbEntity
  8
0
 62
     0
370
    -2
100
AcDbLine
 10
1176.676887952511
 20
-207.2919084438975
 30
0.0
 11
1174.176887952511
 21
-207.2919084438975
 31
0.0
  0
LINE
  5
4618
330
4612
100
AcDbEntity
  8
0
 62
     0
370
    -2
100
AcDbLine
 10
1201.343554619177
 20
-207.2919084438975
 30
0.0
 11
1216.593554619177
 21
-207.2919084438975
 31
0.0
  0
LINE
  5
4619
330
4612
100
AcDbEntity
  8
0
 62
     0
370
    -2
100
AcDbLine
 10
1179.176887952511
 20
-207.2919084438975
 30
0.0
 11
1198.843554619178
 21
-207.2919084438975
 31
0.0
  0
INSERT
  5
461A
330
4612
100
AcDbEntity
  8
0
 62
     0
370
    -2
100
AcDbBlockReference
  2
_Open30
 10
1179.176887952511
 20
-207.2919084438975
 30
0.0
 41
2.5
 42
2.5
 43
2.5
  0
INSERT
  5
461B
330
4612
100
AcDbEntity
  8
0
 62
     0
370
    -2
100
AcDbBlockReference
  2
_Open30
 10
1198.843554619178
 20
-207.2919084438975
 30
0.0
 41
2.5
 42
2.5
 43
2.5
 50
180.0
  0
MTEXT
  5
461C
330
4612
100
AcDbEntity
  8
0
 62
     4
100
AcDbMText
 10
1211.968554619178
 20
-205.1669084438975
 30
0.0
 40
3.0
 41
0.0
 71
     5
 72
     1
  1
%%C59
 73
     1
 44
1.0
1001
ACAD
1000
MTEXTBEGIN
1070
    73
1070
     1
1070
    44
1040
1.0
1070
    74
1070
     0
1000
MTEXTEND
  0
POINT
  5
461D
330
4612
100
AcDbEntity
  8
Defpoints
 62
     0
100
AcDbPoint
 10
1198.843554619178
 20
-213.4687750132002
 30
0.0
  0
POINT
  5
461E
330
4612
100
AcDbEntity
  8
Defpoints
 62
     0
100
AcDbPoint
 10
1179.176887952511
 20
-213.4687750132002
 30
0.0
  0
POINT
  5
461F
330
4612
100
AcDbEntity
  8
Defpoints
 62
     0
100
AcDbPoint
 10
1179.176887952511
 20
-207.2919084438975
 30
0.0
  0
ENDBLK
  5
4614
330
4612
100
AcDbEntity
  8
0
100
AcDbBlockEnd
  0
BLOCK
  5
4621
330
4620
100
AcDbEntity
  8
0
100
AcDbBlockBegin
  2
*D27
 70
     1
 10
0.0
 20
0.0
 30
0.0
  3
*D27
  1

  0
LINE
  5
4623
330
4620
100
AcDbEntity
  8
0
 62
     0
370
    -2
100
AcDbLine
 10
1188.760221285845
 20
-183.8021083465334
 30
0.0
 11
1165.225920842561
 21
-183.8021083465334
 31
0.0
  0
LINE
  5
4624
330
4620
100
AcDbEntity
  8
0
 62
     0
370
    -2
100
AcDbLine
 10
1177.260221285844
 20
-213.4687750132002
 30
0.0
 11
1165.225920842561
 21
-213.4687750132002
 31
0.0
  0
LINE
  5
4625
330
4620
100
AcDbEntity
  8
0
 62
     0
370
    -2
100
AcDbLine
 10
1166.475920842561
 20
-186.3021083465334
 30
0.0
 11
1166.475920842561
 21
-210.9687750132002
 31
0.0
  0
INSERT
  5
4626
330
4620
100
AcDbEntity
  8
0
 62
     0
370
    -2
100
AcDbBlockReference
  2
_Open30
 10
1166.475920842561
 20
-183.8021083465334
 30
0.0
 41
2.5
 42
2.5
 43
2.5
 50
90.0
  0
INSERT
  5
4627
330
4620
100
AcDbEntity
  8
0
 62
     0
370
    -2
100
AcDbBlockReference
  2
_Open30
 10
1166.475920842561
 20
-213.4687750132002
 30
0.0
 41
2.5
 42
2.5
 43
2.5
 50
270.0
  0
MTEXT
  5
4628
330
4620
100
AcDbEntity
  8
0
 62
     4
100
AcDbMText
 10
1164.350920842561
 20
-198.5340486278098
 30
0.0
 40
3.0
 41
0.0
 71
     5
 72
     1
  1
89
 11
0.0000000000000001
 21
1.0
 31
0.0
 73
     1
 44
1.0
1001
ACAD
1000
MTEXTBEGIN
1070
    73
1070
     1
1070
    44
1040
1.0
1070
    74
1070
     0
1000
MTEXTEND
  0
POINT
  5
4629
330
4620
100
AcDbEntity
  8
Defpoints
 62
     0
100
AcDbPoint
 10
1189.010221285844
 20
-183.8021083465334
 30
0.0
  0
POINT
  5
462A
330
4620
100
AcDbEntity
  8
Defpoints
 62
     0
100
AcDbPoint
 10
1177.510221285844
 20
-213.4687750132002
 30
0.0
  0
POINT
  5
462B
330
4620
100
AcDbEntity
  8
Defpoints
 62
     0
100
AcDbPoint
 10
1166.475920842561
 20
-213.4687750132002
 30
0.0
  0
ENDBLK
  5
4622
330
4620
100
AcDbEntity
  8
0
100
AcDbBlockEnd
  0
BLOCK
  5
4759
330
4758
100
AcDbEntity
  8
0
100
AcDbBlockBegin
  2
*D28
 70
     1
 10
0.0
 20
0.0
 30
0.0
  3
*D28
  1

  0
LINE
  5
483E
330
4758
100
AcDbEntity
  8
0
 62
     0
370
    -2
100
AcDbLine
 10
864.7992265319542
 20
-244.0860867005552
 30
0.0
 11
864.7992265319542
 21
-268.3655373286356
 31
0.0
  0
LINE
  5
483F
330
4758
100
AcDbEntity
  8
0
 62
     0
370
    -2
100
AcDbLine
 10
919.7992265319543
 20
-244.0860867005552
 30
0.0
 11
919.7992265319543
 21
-268.3655373286356
 31
0.0
  0
LINE
  5
4840
330
4758
100
AcDbEntity
  8
0
 62
     0
370
    -2
100
AcDbLine
 10
867.2992265319543
 20
-267.1155373286356
 30
0.0
 11
917.2992265319543
 21
-267.1155373286356
 31
0.0
  0
INSERT
  5
4841
330
4758
100
AcDbEntity
  8
0
 62
     0
370
    -2
100
AcDbBlockReference
  2
_Open30
 10
864.7992265319542
 20
-267.1155373286356
 30
0.0
 41
2.5
 42
2.5
 43
2.5
 50
180.0
  0
INSERT
  5
4842
330
4758
100
AcDbEntity
  8
0
 62
     0
370
    -2
100
AcDbBlockReference
  2
_Open30
 10
919.7992265319543
 20
-267.1155373286356
 30
0.0
 41
2.5
 42
2.5
 43
2.5
  0
MTEXT
  5
4843
330
4758
100
AcDbEntity
  8
0
 62
     4
100
AcDbMText
 10
892.3840454047082
 20
-264.9905373286356
 30
0.0
 40
3.0
 41
0.0
 71
     5
 72
     1
  1
%%C165
 73
     1
 44
1.0
1001
ACAD
1000
MTEXTBEGIN
1070
    73
1070
     1
1070
    44
1040
1.0
1070
    74
1070
     0
1000
MTEXTEND
  0
POINT
  5
4844
330
4758
100
AcDbEntity
  8
Defpoints
 62
     0
100
AcDbPoint
 10
864.7992265319542
 20
-243.8360867005552
 30
0.0
  0
POINT
  5
4845
330
4758
100
AcDbEntity
  8
Defpoints
 62
     0
100
AcDbPoint
 10
919.7992265319543
 20
-243.8360867005552
 30
0.0
  0
POINT
  5
4846
330
4758
100
AcDbEntity
  8
Defpoints
 62
     0
100
AcDbPoint
 10
919.7992265319543
 20
-267.1155373286356
 30
0.0
  0
ENDBLK
  5
475A
330
4758
100
AcDbEntity
  8
0
100
AcDbBlockEnd
  0
BLOCK
  5
4765
330
4764
100
AcDbEntity
  8
0
100
AcDbBlockBegin
  2
*D29
 70
     1
 10
0.0
 20
0.0
 30
0.0
  3
*D29
  1

  0
LINE
  5
485B
330
4764
100
AcDbEntity
  8
0
 62
     0
370
    -2
100
AcDbLine
 10
892.0492265319541
 20
-183.8360867005552
 30
0.0
 11
868.5149260886715
 21
-183.8360867005552
 31
0.0
  0
LINE
  5
485C
330
4764
100
AcDbEntity
  8
0
 62
     0
370
    -2
100
AcDbLine
 10
880.5492265319541
 20
-213.502753367222
 30
0.0
 11
868.5149260886715
 21
-213.502753367222
 31
0.0
  0
LINE
  5
485D
330
4764
100
AcDbEntity
  8
0
 62
     0
370
    -2
100
AcDbLine
 10
869.7649260886713
 20
-186.3360867005552
 30
0.0
 11
869.7649260886713
 21
-211.002753367222
 31
0.0
  0
INSERT
  5
485E
330
4764
100
AcDbEntity
  8
0
 62
     0
370
    -2
100
AcDbBlockReference
  2
_Open30
 10
869.7649260886713
 20
-183.8360867005552
 30
0.0
 41
2.5
 42
2.5
 43
2.5
 50
90.0
  0
INSERT
  5
485F
330
4764
100
AcDbEntity
  8
0
 62
     0
370
    -2
100
AcDbBlockReference
  2
_Open30
 10
869.7649260886713
 20
-213.502753367222
 30
0.0
 41
2.5
 42
2.5
 43
2.5
 50
270.0
  0
MTEXT
  5
4860
330
4764
100
AcDbEntity
  8
0
 62
     4
100
AcDbMText
 10
867.6399260886713
 20
-198.5680269818316
 30
0.0
 40
3.0
 41
0.0
 71
     5
 72
     1
  1
89
 11
0.0000000000000001
 21
1.0
 31
0.0
 73
     1
 44
1.0
1001
ACAD
1000
MTEXTBEGIN
1070
    73
1070
     1
1070
    44
1040
1.0
1070
    74
1070
     0
1000
MTEXTEND
  0
POINT
  5
4861
330
4764
100
AcDbEntity
  8
Defpoints
 62
     0
100
AcDbPoint
 10
892.2992265319543
 20
-183.8360867005552
 30
0.0
  0
POINT
  5
4862
330
4764
100
AcDbEntity
  8
Defpoints
 62
     0
100
AcDbPoint
 10
880.7992265319542
 20
-213.502753367222
 30
0.0
  0
POINT
  5
4863
330
4764
100
AcDbEntity
  8
Defpoints
 62
     0
100
AcDbPoint
 10
869.7649260886713
 20
-213.502753367222
 30
0.0
  0
ENDBLK
  5
4766
330
4764
100
AcDbEntity
  8
0
100
AcDbBlockEnd
  0
BLOCK
  5
4771
330
4770
100
AcDbEntity
  8
0
100
AcDbBlockBegin
  2
*D30
 70
     1
 10
0.0
 20
0.0
 30
0.0
  3
*D30
  1

  0
LINE
  5
4850
330
4770
100
AcDbEntity
  8
0
 62
     0
370
    -2
100
AcDbLine
 10
902.1325598652873
 20
-213.252753367222
 30
0.0
 11
902.1325598652873
 21
-206.0758867979193
 31
0.0
  0
LINE
  5
4851
330
4770
100
AcDbEntity
  8
0
 62
     0
370
    -2
100
AcDbLine
 10
882.4658931986206
 20
-213.252753367222
 30
0.0
 11
882.4658931986206
 21
-206.0758867979193
 31
0.0
  0
LINE
  5
4852
330
4770
100
AcDbEntity
  8
0
 62
     0
370
    -2
100
AcDbLine
 10
879.9658931986208
 20
-207.3258867979193
 30
0.0
 11
877.4658931986207
 21
-207.3258867979193
 31
0.0
  0
LINE
  5
4853
330
4770
100
AcDbEntity
  8
0
 62
     0
370
    -2
100
AcDbLine
 10
904.6325598652874
 20
-207.3258867979193
 30
0.0
 11
919.8825598652874
 21
-207.3258867979193
 31
0.0
  0
LINE
  5
4854
330
4770
100
AcDbEntity
  8
0
 62
     0
370
    -2
100
AcDbLine
 10
882.4658931986206
 20
-207.3258867979193
 30
0.0
 11
902.1325598652873
 21
-207.3258867979193
 31
0.0
  0
INSERT
  5
4855
330
4770
100
AcDbEntity
  8
0
 62
     0
370
    -2
100
AcDbBlockReference
  2
_Open30
 10
882.4658931986206
 20
-207.3258867979193
 30
0.0
 41
2.5
 42
2.5
 43
2.5
  0
INSERT
  5
4856
330
4770
100
AcDbEntity
  8
0
 62
     0
370
    -2
100
AcDbBlockReference
  2
_Open30
 10
902.1325598652873
 20
-207.3258867979193
 30
0.0
 41
2.5
 42
2.5
 43
2.5
 50
180.0
  0
MTEXT
  5
4857
330
4770
100
AcDbEntity
  8
0
 62
     4
100
AcDbMText
 10
915.2575598652873
 20
-205.2008867979193
 30
0.0
 40
3.0
 41
0.0
 71
     5
 72
     1
  1
%%C59
 73
     1
 44
1.0
1001
ACAD
1000
MTEXTBEGIN
1070
    73
1070
     1
1070
    44
1040
1.0
1070
    74
1070
     0
1000
MTEXTEND
  0
POINT
  5
4858
330
4770
100
AcDbEntity
  8
Defpoints
 62
     0
100
AcDbPoint
 10
902.1325598652873
 20
-213.502753367222
 30
0.0
  0
POINT
  5
4859
330
4770
100
AcDbEntity
  8
Defpoints
 62
     0
100
AcDbPoint
 10
882.4658931986206
 20
-213.502753367222
 30
0.0
  0
POINT
  5
485A
330
4770
100
AcDbEntity
  8
Defpoints
 62
     0
100
AcDbPoint
 10
882.4658931986206
 20
-207.3258867979193
 30
0.0
  0
ENDBLK
  5
4772
330
4770
100
AcDbEntity
  8
0
100
AcDbBlockEnd
  0
BLOCK
  5
477F
330
477E
100
AcDbEntity
  8
0
100
AcDbBlockBegin
  2
*D31
 70
     1
 10
0.0
 20
0.0
 30
0.0
  3
*D31
  1

  0
LINE
  5
4835
330
477E
100
AcDbEntity
  8
0
 62
     0
370
    -2
100
AcDbLine
 10
892.0492265319541
 20
-183.8360867005552
 30
0.0
 11
857.8192853498219
 21
-183.8360867005552
 31
0.0
  0
LINE
  5
4836
330
477E
100
AcDbEntity
  8
0
 62
     0
370
    -2
100
AcDbLine
 10
866.7158931986207
 20
-248.5027533672219
 30
0.0
 11
857.8192853498219
 21
-248.5027533672219
 31
0.0
  0
LINE
  5
4837
330
477E
100
AcDbEntity
  8
0
 62
     0
370
    -2
100
AcDbLine
 10
859.0692853498216
 20
-186.3360867005552
 30
0.0
 11
859.0692853498216
 21
-246.0027533672219
 31
0.0
  0
INSERT
  5
4838
330
477E
100
AcDbEntity
  8
0
 62
     0
370
    -2
100
AcDbBlockReference
  2
_Open30
 10
859.0692853498216
 20
-183.8360867005552
 30
0.0
 41
2.5
 42
2.5
 43
2.5
 50
90.0
  0
INSERT
  5
4839
330
477E
100
AcDbEntity
  8
0
 62
     0
370
    -2
100
AcDbBlockReference
  2
_Open30
 10
859.0692853498216
 20
-248.5027533672219
 30
0.0
 41
2.5
 42
2.5
 43
2.5
 50
270.0
  0
MTEXT
  5
483A
330
477E
100
AcDbEntity
  8
0
 62
     4
100
AcDbMText
 10
856.9442853498216
 20
-221.9519768385393
 30
0.0
 40
3.0
 41
0.0
 71
     5
 72
     1
  1
194
 11
0.0000000000000001
 21
1.0
 31
0.0
 73
     1
 44
1.0
1001
ACAD
1000
MTEXTBEGIN
1070
    73
1070
     1
1070
    44
1040
1.0
1070
    74
1070
     0
1000
MTEXTEND
  0
POINT
  5
483B
330
477E
100
AcDbEntity
  8
Defpoints
 62
     0
100
AcDbPoint
 10
892.2992265319543
 20
-183.8360867005552
 30
0.0
  0
POINT
  5
483C
330
477E
100
AcDbEntity
  8
Defpoints
 62
     0
100
AcDbPoint
 10
866.9658931986209
 20
-248.5027533672219
 30
0.0
  0
POINT
  5
483D
330
477E
100
AcDbEntity
  8
Defpoints
 62
     0
100
AcDbPoint
 10
859.0692853498216
 20
-248.5027533672219
 30
0.0
  0
ENDBLK
  5
4780
330
477E
100
AcDbEntity
  8
0
100
AcDbBlockEnd
  0
BLOCK
  5
4794
330
4793
100
AcDbEntity
  8
0
100
AcDbBlockBegin
  2
*D32
 70
     1
 10
0.0
 20
0.0
 30
0.0
  3
*D32
  1

  0
LINE
  5
4847
330
4793
100
AcDbEntity
  8
0
 62
     0
370
    -2
100
AcDbLine
 10
898.7992265278048
 20
-188.9194073605504
 30
0.0
 11
898.7992265278048
 21
-176.0561642132534
 31
0.0
  0
LINE
  5
4848
330
4793
100
AcDbEntity
  8
0
 62
     0
370
    -2
100
AcDbLine
 10
885.7992265715958
 20
-190.0527925388321
 30
0.0
 11
885.7992265715958
 21
-176.0561642132534
 31
0.0
  0
LINE
  5
4849
330
4793
100
AcDbEntity
  8
0
 62
     0
370
    -2
100
AcDbLine
 10
896.2992265278048
 20
-177.3061642132534
 30
0.0
 11
888.2992265715959
 21
-177.3061642132534
 31
0.0
  0
INSERT
  5
484A
330
4793
100
AcDbEntity
  8
0
 62
     0
370
    -2
100
AcDbBlockReference
  2
_Open30
 10
898.7992265278048
 20
-177.3061642132534
 30
0.0
 41
2.5
 42
2.5
 43
2.5
  0
INSERT
  5
484B
330
4793
100
AcDbEntity
  8
0
 62
     0
370
    -2
100
AcDbBlockReference
  2
_Open30
 10
885.7992265715958
 20
-177.3061642132534
 30
0.0
 41
2.5
 42
2.5
 43
2.5
 50
180.0
  0
MTEXT
  5
484C
330
4793
100
AcDbEntity
  8
0
 62
     4
100
AcDbMText
 10
892.4591823370276
 20
-175.1811642132534
 30
0.0
 40
3.0
 41
0.0
 71
     5
 72
     1
  1
E39
 73
     1
 44
1.0
1001
ACAD
1000
MTEXTBEGIN
1070
    73
1070
     1
1070
    44
1040
1.0
1070
    74
1070
     0
1000
MTEXTEND
  0
POINT
  5
484D
330
4793
100
AcDbEntity
  8
Defpoints
 62
     0
100
AcDbPoint
 10
898.7992265278048
 20
-189.1694073605504
 30
0.0
  0
POINT
  5
484E
330
4793
100
AcDbEntity
  8
Defpoints
 62
     0
100
AcDbPoint
 10
885.7992265715958
 20
-190.3027925388322
 30
0.0
  0
POINT
  5
484F
330
4793
100
AcDbEntity
  8
Defpoints
 62
     0
100
AcDbPoint
 10
885.7992265715958
 20
-177.3061642132534
 30
0.0
  0
ENDBLK
  5
4795
330
4793
100
AcDbEntity
  8
0
100
AcDbBlockEnd
  0
BLOCK
  5
494A
330
4949
100
AcDbEntity
  8
0
100
AcDbBlockBegin
  2
*D33
 70
     1
 10
0.0
 20
0.0
 30
0.0
  3
*D33
  1

  0
LINE
  5
4DB3
330
4949
100
AcDbEntity
  8
0
 62
     0
370
    -2
100
AcDbLine
 10
1161.098039240024
 20
-244.0860863901249
 30
0.0
 11
1161.098039240024
 21
-268.3655370182052
 31
0.0
  0
LINE
  5
4DB4
330
4949
100
AcDbEntity
  8
0
 62
     0
370
    -2
100
AcDbLine
 10
1216.098039240025
 20
-244.0860863901249
 30
0.0
 11
1216.098039240025
 21
-268.3655370182052
 31
0.0
  0
LINE
  5
4DB5
330
4949
100
AcDbEntity
  8
0
 62
     0
370
    -2
100
AcDbLine
 10
1163.598039240024
 20
-267.1155370182052
 30
0.0
 11
1213.598039240025
 21
-267.1155370182052
 31
0.0
  0
INSERT
  5
4DB6
330
4949
100
AcDbEntity
  8
0
 62
     0
370
    -2
100
AcDbBlockReference
  2
_Open30
 10
1161.098039240024
 20
-267.1155370182052
 30
0.0
 41
2.5
 42
2.5
 43
2.5
 50
180.0
  0
INSERT
  5
4DB7
330
4949
100
AcDbEntity
  8
0
 62
     0
370
    -2
100
AcDbBlockReference
  2
_Open30
 10
1216.098039240025
 20
-267.1155370182052
 30
0.0
 41
2.5
 42
2.5
 43
2.5
  0
MTEXT
  5
4DB8
330
4949
100
AcDbEntity
  8
0
 62
     4
100
AcDbMText
 10
1188.682858112778
 20
-264.9905370182052
 30
0.0
 40
3.0
 41
0.0
 71
     5
 72
     1
  1
%%C165
 73
     1
 44
1.0
1001
ACAD
1000
MTEXTBEGIN
1070
    73
1070
     1
1070
    44
1040
1.0
1070
    74
1070
     0
1000
MTEXTEND
  0
POINT
  5
4DB9
330
4949
100
AcDbEntity
  8
Defpoints
 62
     0
100
AcDbPoint
 10
1161.098039240024
 20
-243.8360863901249
 30
0.0
  0
POINT
  5
4DBA
330
4949
100
AcDbEntity
  8
Defpoints
 62
     0
100
AcDbPoint
 10
1216.098039240025
 20
-243.8360863901249
 30
0.0
  0
POINT
  5
4DBB
330
4949
100
AcDbEntity
  8
Defpoints
 62
     0
100
AcDbPoint
 10
1216.098039240025
 20
-267.1155370182052
 30
0.0
  0
ENDBLK
  5
494B
330
4949
100
AcDbEntity
  8
0
100
AcDbBlockEnd
  0
BLOCK
  5
4956
330
4955
100
AcDbEntity
  8
0
100
AcDbBlockBegin
  2
*D34
 70
     1
 10
0.0
 20
0.0
 30
0.0
  3
*D34
  1

  0
LINE
  5
4DAA
330
4955
100
AcDbEntity
  8
0
 62
     0
370
    -2
100
AcDbLine
 10
1188.348039240024
 20
-183.8360863901248
 30
0.0
 11
1154.118098057892
 21
-183.8360863901248
 31
0.0
  0
LINE
  5
4DAB
330
4955
100
AcDbEntity
  8
0
 62
     0
370
    -2
100
AcDbLine
 10
1163.014705906691
 20
-248.5027530567915
 30
0.0
 11
1154.118098057892
 21
-248.5027530567915
 31
0.0
  0
LINE
  5
4DAC
330
4955
100
AcDbEntity
  8
0
 62
     0
370
    -2
100
AcDbLine
 10
1155.368098057892
 20
-186.3360863901248
 30
0.0
 11
1155.368098057892
 21
-246.0027530567915
 31
0.0
  0
INSERT
  5
4DAD
330
4955
100
AcDbEntity
  8
0
 62
     0
370
    -2
100
AcDbBlockReference
  2
_Open30
 10
1155.368098057892
 20
-183.8360863901248
 30
0.0
 41
2.5
 42
2.5
 43
2.5
 50
90.0
  0
INSERT
  5
4DAE
330
4955
100
AcDbEntity
  8
0
 62
     0
370
    -2
100
AcDbBlockReference
  2
_Open30
 10
1155.368098057892
 20
-248.5027530567915
 30
0.0
 41
2.5
 42
2.5
 43
2.5
 50
270.0
  0
MTEXT
  5
4DAF
330
4955
100
AcDbEntity
  8
0
 62
     4
100
AcDbMText
 10
1153.243098057892
 20
-221.951976528109
 30
0.0
 40
3.0
 41
0.0
 71
     5
 72
     1
  1
194
 11
0.0000000000000001
 21
1.0
 31
0.0
 73
     1
 44
1.0
1001
ACAD
1000
MTEXTBEGIN
1070
    73
1070
     1
1070
    44
1040
1.0
1070
    74
1070
     0
1000
MTEXTEND
  0
POINT
  5
4DB0
330
4955
100
AcDbEntity
  8
Defpoints
 62
     0
100
AcDbPoint
 10
1188.598039240024
 20
-183.8360863901248
 30
0.0
  0
POINT
  5
4DB1
330
4955
100
AcDbEntity
  8
Defpoints
 62
     0
100
AcDbPoint
 10
1163.264705906691
 20
-248.5027530567915
 30
0.0
  0
POINT
  5
4DB2
330
4955
100
AcDbEntity
  8
Defpoints
 62
     0
100
AcDbPoint
 10
1155.368098057892
 20
-248.5027530567915
 30
0.0
  0
ENDBLK
  5
4957
330
4955
100
AcDbEntity
  8
0
100
AcDbBlockEnd
  0
BLOCK
  5
496B
330
496A
100
AcDbEntity
  8
0
100
AcDbBlockBegin
  2
*D35
 70
     1
 10
0.0
 20
0.0
 30
0.0
  3
*D35
  1

  0
LINE
  5
4DBC
330
496A
100
AcDbEntity
  8
0
 62
     0
370
    -2
100
AcDbLine
 10
1195.098039235875
 20
-188.91940705012
 30
0.0
 11
1195.098039235875
 21
-176.056163902823
 31
0.0
  0
LINE
  5
4DBD
330
496A
100
AcDbEntity
  8
0
 62
     0
370
    -2
100
AcDbLine
 10
1182.098039279666
 20
-190.0527922284018
 30
0.0
 11
1182.098039279666
 21
-176.056163902823
 31
0.0
  0
LINE
  5
4DBE
330
496A
100
AcDbEntity
  8
0
 62
     0
370
    -2
100
AcDbLine
 10
1192.598039235875
 20
-177.306163902823
 30
0.0
 11
1184.598039279666
 21
-177.306163902823
 31
0.0
  0
INSERT
  5
4DBF
330
496A
100
AcDbEntity
  8
0
 62
     0
370
    -2
100
AcDbBlockReference
  2
_Open30
 10
1195.098039235875
 20
-177.306163902823
 30
0.0
 41
2.5
 42
2.5
 43
2.5
  0
INSERT
  5
4DC0
330
496A
100
AcDbEntity
  8
0
 62
     0
370
    -2
100
AcDbBlockReference
  2
_Open30
 10
1182.098039279666
 20
-177.306163902823
 30
0.0
 41
2.5
 42
2.5
 43
2.5
 50
180.0
  0
MTEXT
  5
4DC1
330
496A
100
AcDbEntity
  8
0
 62
     4
100
AcDbMText
 10
1188.757995045097
 20
-175.181163902823
 30
0.0
 40
3.0
 41
0.0
 71
     5
 72
     1
  1
E39
 73
     1
 44
1.0
1001
ACAD
1000
MTEXTBEGIN
1070
    73
1070
     1
1070
    44
1040
1.0
1070
    74
1070
     0
1000
MTEXTEND
  0
POINT
  5
4DC2
330
496A
100
AcDbEntity
  8
Defpoints
 62
     0
100
AcDbPoint
 10
1195.098039235875
 20
-189.16940705012
 30
0.0
  0
POINT
  5
4DC3
330
496A
100
AcDbEntity
  8
Defpoints
 62
     0
100
AcDbPoint
 10
1182.098039279666
 20
-190.3027922284018
 30
0.0
  0
POINT
  5
4DC4
330
496A
100
AcDbEntity
  8
Defpoints
 62
     0
100
AcDbPoint
 10
1182.098039279666
 20
-177.306163902823
 30
0.0
  0
ENDBLK
  5
496C
330
496A
100
AcDbEntity
  8
0
100
AcDbBlockEnd
  0
BLOCK
  5
4977
330
4976
100
AcDbEntity
  8
0
100
AcDbBlockBegin
  2
*D36
 70
     1
 10
0.0
 20
0.0
 30
0.0
  3
*D36
  1

  0
LINE
  5
4DC5
330
4976
100
AcDbEntity
  8
0
 62
     0
370
    -2
100
AcDbLine
 10
1198.431372573358
 20
-213.2527530567917
 30
0.0
 11
1198.431372573358
 21
-206.0758864874889
 31
0.0
  0
LINE
  5
4DC6
330
4976
100
AcDbEntity
  8
0
 62
     0
370
    -2
100
AcDbLine
 10
1178.764705906691
 20
-213.2527530567917
 30
0.0
 11
1178.764705906691
 21
-206.0758864874889
 31
0.0
  0
LINE
  5
4DC7
330
4976
100
AcDbEntity
  8
0
 62
     0
370
    -2
100
AcDbLine
 10
1176.264705906691
 20
-207.3258864874889
 30
0.0
 11
1173.764705906691
 21
-207.3258864874889
 31
0.0
  0
LINE
  5
4DC8
330
4976
100
AcDbEntity
  8
0
 62
     0
370
    -2
100
AcDbLine
 10
1200.931372573358
 20
-207.3258864874889
 30
0.0
 11
1216.181372573358
 21
-207.3258864874889
 31
0.0
  0
LINE
  5
4DC9
330
4976
100
AcDbEntity
  8
0
 62
     0
370
    -2
100
AcDbLine
 10
1178.764705906691
 20
-207.3258864874889
 30
0.0
 11
1198.431372573358
 21
-207.3258864874889
 31
0.0
  0
INSERT
  5
4DCA
330
4976
100
AcDbEntity
  8
0
 62
     0
370
    -2
100
AcDbBlockReference
  2
_Open30
 10
1178.764705906691
 20
-207.3258864874889
 30
0.0
 41
2.5
 42
2.5
 43
2.5
  0
INSERT
  5
4DCB
330
4976
100
AcDbEntity
  8
0
 62
     0
370
    -2
100
AcDbBlockReference
  2
_Open30
 10
1198.431372573358
 20
-207.3258864874889
 30
0.0
 41
2.5
 42
2.5
 43
2.5
 50
180.0
  0
MTEXT
  5
4DCC
330
4976
100
AcDbEntity
  8
0
 62
     4
100
AcDbMText
 10
1211.556372573358
 20
-205.2008864874889
 30
0.0
 40
3.0
 41
0.0
 71
     5
 72
     1
  1
%%C59
 73
     1
 44
1.0
1001
ACAD
1000
MTEXTBEGIN
1070
    73
1070
     1
1070
    44
1040
1.0
1070
    74
1070
     0
1000
MTEXTEND
  0
POINT
  5
4DCD
330
4976
100
AcDbEntity
  8
Defpoints
 62
     0
100
AcDbPoint
 10
1198.431372573358
 20
-213.5027530567917
 30
0.0
  0
POINT
  5
4DCE
330
4976
100
AcDbEntity
  8
Defpoints
 62
     0
100
AcDbPoint
 10
1178.764705906691
 20
-213.5027530567917
 30
0.0
  0
POINT
  5
4DCF
330
4976
100
AcDbEntity
  8
Defpoints
 62
     0
100
AcDbPoint
 10
1178.764705906691
 20
-207.3258864874889
 30
0.0
  0
ENDBLK
  5
4978
330
4976
100
AcDbEntity
  8
0
100
AcDbBlockEnd
  0
BLOCK
  5
4985
330
4984
100
AcDbEntity
  8
0
100
AcDbBlockBegin
  2
*D37
 70
     1
 10
0.0
 20
0.0
 30
0.0
  3
*D37
  1

  0
LINE
  5
4DD0
330
4984
100
AcDbEntity
  8
0
 62
     0
370
    -2
100
AcDbLine
 10
1188.348039240024
 20
-183.8360863901248
 30
0.0
 11
1164.813738796742
 21
-183.8360863901248
 31
0.0
  0
LINE
  5
4DD1
330
4984
100
AcDbEntity
  8
0
 62
     0
370
    -2
100
AcDbLine
 10
1176.848039240024
 20
-213.5027530567917
 30
0.0
 11
1164.813738796742
 21
-213.5027530567917
 31
0.0
  0
LINE
  5
4DD2
330
4984
100
AcDbEntity
  8
0
 62
     0
370
    -2
100
AcDbLine
 10
1166.063738796742
 20
-186.3360863901248
 30
0.0
 11
1166.063738796742
 21
-211.0027530567917
 31
0.0
  0
INSERT
  5
4DD3
330
4984
100
AcDbEntity
  8
0
 62
     0
370
    -2
100
AcDbBlockReference
  2
_Open30
 10
1166.063738796742
 20
-183.8360863901248
 30
0.0
 41
2.5
 42
2.5
 43
2.5
 50
90.0
  0
INSERT
  5
4DD4
330
4984
100
AcDbEntity
  8
0
 62
     0
370
    -2
100
AcDbBlockReference
  2
_Open30
 10
1166.063738796742
 20
-213.5027530567917
 30
0.0
 41
2.5
 42
2.5
 43
2.5
 50
270.0
  0
MTEXT
  5
4DD5
330
4984
100
AcDbEntity
  8
0
 62
     4
100
AcDbMText
 10
1163.938738796742
 20
-198.5680266714012
 30
0.0
 40
3.0
 41
0.0
 71
     5
 72
     1
  1
89
 11
0.0000000000000001
 21
1.0
 31
0.0
 73
     1
 44
1.0
1001
ACAD
1000
MTEXTBEGIN
1070
    73
1070
     1
1070
    44
1040
1.0
1070
    74
1070
     0
1000
MTEXTEND
  0
POINT
  5
4DD6
330
4984
100
AcDbEntity
  8
Defpoints
 62
     0
100
AcDbPoint
 10
1188.598039240024
 20
-183.8360863901248
 30
0.0
  0
POINT
  5
4DD7
330
4984
100
AcDbEntity
  8
Defpoints
 62
     0
100
AcDbPoint
 10
1177.098039240024
 20
-213.5027530567917
 30
0.0
  0
POINT
  5
4DD8
330
4984
100
AcDbEntity
  8
Defpoints
 62
     0
100
AcDbPoint
 10
1166.063738796742
 20
-213.5027530567917
 30
0.0
  0
ENDBLK
  5
4986
330
4984
100
AcDbEntity
  8
0
100
AcDbBlockEnd
  0
ENDSEC
  0
SECTION
  2
ENTITIES
  0
LINE
  5
4401
330
1F
100
AcDbEntity
  8
0
 62
     3
100
AcDbLine
 10
1134.066405308963
 20
-276.4301764272012
 30
0.0
 11
1133.578478478963
 21
-276.4301764272012
 31
0.0
  0
LINE
  5
4402
330
1F
100
AcDbEntity
  8
0
 62
     3
100
AcDbLine
 10
1145.578478478962
 20
-137.9301764272012
 30
0.0
 11
1145.578478478962
 21
-414.9301764272011
 31
0.0
  0
LINE
  5
4403
330
1F
100
AcDbEntity
  8
0
 62
     3
100
AcDbLine
 10
1325.578478478963
 20
-414.9301764272011
 30
0.0
 11
1325.578478478963
 21
-137.9301764272012
 31
0.0
  0
LINE
  5
4404
330
1F
100
AcDbEntity
  8
0
 62
     3
100
AcDbLine
 10
1145.578478478962
 20
-414.9301764272011
 30
0.0
 11
1325.578478478963
 21
-414.9301764272011
 31
0.0
  0
LINE
  5
4405
330
1F
100
AcDbEntity
  8
0
 62
     3
100
AcDbLine
 10
1182.662830498963
 20
-136.1427323272011
 30
0.0
 11
1183.098578408962
 21
-136.3702004672012
 31
0.0
  0
LINE
  5
4406
330
1F
100
AcDbEntity
  8
0
 62
     3
100
AcDbLine
 10
1182.662830498963
 20
-139.8733628072011
 30
0.0
 11
1183.098578408962
 21
-139.6458946672011
 31
0.0
  0
LINE
  5
4407
330
1F
100
AcDbEntity
  8
0
 62
     3
100
AcDbLine
 10
1183.098578408962
 20
-136.3702004672012
 30
0.0
 11
1183.098578408962
 21
-139.6458946672011
 31
0.0
  0
LINE
  5
4408
330
1F
100
AcDbEntity
  8
0
 62
     3
100
AcDbLine
 10
1184.202095828962
 20
-139.8733628072011
 30
0.0
 11
1183.766347918961
 21
-139.6458946672011
 31
0.0
  0
LINE
  5
4409
330
1F
100
AcDbEntity
  8
0
 62
     3
100
AcDbLine
 10
1183.766347918961
 20
-137.6490358572013
 30
0.0
 11
1183.766347918961
 21
-139.6458946672011
 31
0.0
  0
LINE
  5
440A
330
1F
100
AcDbEntity
  8
0
 62
     3
100
AcDbLine
 10
1186.743958608962
 20
-136.1427323272011
 30
0.0
 11
1186.308210698962
 21
-136.3702004672012
 31
0.0
  0
LINE
  5
440B
330
1F
100
AcDbEntity
  8
0
 62
     3
100
AcDbLine
 10
1185.204693278961
 20
-136.1427323272011
 30
0.0
 11
1185.640441188962
 21
-136.3702004672012
 31
0.0
  0
LINE
  5
440C
330
1F
100
AcDbEntity
  8
0
 62
     3
100
AcDbLine
 10
1185.640441188962
 20
-136.3702004672012
 30
0.0
 11
1185.640441188962
 21
-137.8125375272012
 31
0.0
  0
LINE
  5
440D
330
1F
100
AcDbEntity
  8
0
 62
     3
100
AcDbLine
 10
1186.308210698962
 20
-136.3702004672012
 30
0.0
 11
1186.308210698962
 21
-140.0849239472012
 31
0.0
  0
LINE
  5
440E
330
1F
100
AcDbEntity
  8
0
 62
     3
100
AcDbLine
 10
1186.959255808963
 20
-136.1427349572012
 30
0.0
 11
1187.395002148963
 21
-136.3702060972011
 31
0.0
  0
LINE
  5
440F
330
1F
100
AcDbEntity
  8
0
 62
     3
100
AcDbLine
 10
1186.959177838963
 20
-139.8733128272011
 30
0.0
 11
1187.394933688962
 21
-139.6458599072012
 31
0.0
  0
LINE
  5
4410
330
1F
100
AcDbEntity
  8
0
 62
     3
100
AcDbLine
 10
1187.395002148963
 20
-136.3702060972011
 30
0.0
 11
1187.395002148963
 21
-139.6458599072012
 31
0.0
  0
LINE
  5
4411
330
1F
100
AcDbEntity
  8
0
 62
     3
100
AcDbLine
 10
1188.888792208962
 20
-136.1427586272013
 30
0.0
 11
1188.453041118962
 21
-136.3702206572012
 31
0.0
  0
LINE
  5
4412
330
1F
100
AcDbEntity
  8
0
 62
     3
100
AcDbLine
 10
1188.453041118962
 20
-136.3702206572012
 30
0.0
 11
1188.453041118962
 21
-139.6458744772012
 31
0.0
  0
LINE
  5
4413
330
1F
100
AcDbEntity
  8
0
 62
     3
100
AcDbLine
 10
1188.888792208962
 20
-139.8733365072011
 30
0.0
 11
1188.453041118962
 21
-139.6458744772012
 31
0.0
  0
LINE
  5
4414
330
1F
100
AcDbEntity
  8
0
 62
     3
100
AcDbLine
 10
1192.579045648963
 20
-136.1427996272011
 30
0.0
 11
1193.014792768963
 21
-136.3702692672012
 31
0.0
  0
LINE
  5
4415
330
1F
100
AcDbEntity
  8
0
 62
     3
100
AcDbLine
 10
1193.014792768963
 20
-136.3702692672012
 30
0.0
 11
1193.014735598962
 21
-139.6459230772013
 31
0.0
  0
LINE
  5
4416
330
1F
100
AcDbEntity
  8
0
 62
     3
100
AcDbLine
 10
1192.578980538961
 20
-139.8733775072011
 30
0.0
 11
1193.014735598962
 21
-139.6459230772013
 31
0.0
  0
LINE
  5
4417
330
1F
100
AcDbEntity
  8
0
 62
     3
100
AcDbLine
 10
1194.531306608962
 20
-136.1427996272011
 30
0.0
 11
1194.095559488963
 21
-136.3702692672012
 31
0.0
  0
LINE
  5
4418
330
1F
100
AcDbEntity
  8
0
 62
     3
100
AcDbLine
 10
1194.531371718962
 20
-139.8733775072011
 30
0.0
 11
1194.095616658962
 21
-139.6459230772013
 31
0.0
  0
LINE
  5
4419
330
1F
100
AcDbEntity
  8
0
 62
     3
100
AcDbLine
 10
1194.735034468962
 20
-136.1427996272011
 30
0.0
 11
1195.170781598962
 21
-136.3702692672012
 31
0.0
  0
LINE
  5
441A
330
1F
100
AcDbEntity
  8
0
 62
     3
100
AcDbLine
 10
1194.734969358963
 20
-139.8733775072011
 30
0.0
 11
1195.170724418963
 21
-139.6459230772013
 31
0.0
  0
LINE
  5
441B
330
1F
100
AcDbEntity
  8
0
 62
     3
100
AcDbLine
 10
1196.687295438962
 20
-136.1427996272011
 30
0.0
 11
1196.251548318962
 21
-136.3702692672012
 31
0.0
  0
LINE
  5
441C
330
1F
100
AcDbEntity
  8
0
 62
     3
100
AcDbLine
 10
1196.251548318962
 20
-136.3702692672012
 30
0.0
 11
1196.251605488963
 21
-139.6459230772013
 31
0.0
  0
LINE
  5
441D
330
1F
100
AcDbEntity
  8
0
 62
     3
100
AcDbLine
 10
1196.687360548962
 20
-139.8733775072011
 30
0.0
 11
1196.251605488963
 21
-139.6459230772013
 31
0.0
  0
LINE
  5
441E
330
1F
100
AcDbEntity
  8
0
 62
     3
100
AcDbLine
 10
1195.170756688963
 20
-137.7974023872013
 30
0.0
 11
1194.095584398962
 21
-137.7974023872013
 31
0.0
  0
LINE
  5
441F
330
1F
100
AcDbEntity
  8
0
 62
     3
100
AcDbLine
 10
1195.170749328962
 20
-138.2186927472013
 30
0.0
 11
1194.095591748962
 21
-138.2186927472013
 31
0.0
  0
LINE
  5
4420
330
1F
100
AcDbEntity
  8
0
 62
     3
100
AcDbLine
 10
1195.170781598962
 20
-136.3702692672012
 30
0.0
 11
1195.170756688963
 21
-137.7974023872013
 31
0.0
  0
LINE
  5
4421
330
1F
100
AcDbEntity
  8
0
 62
     3
100
AcDbLine
 10
1195.170749328962
 20
-138.2186927472013
 30
0.0
 11
1195.170724418963
 21
-139.6459230772013
 31
0.0
  0
LINE
  5
4422
330
1F
100
AcDbEntity
  8
0
 62
     3
100
AcDbLine
 10
1194.095559488963
 20
-136.3702692672012
 30
0.0
 11
1194.095584398962
 21
-137.7974023872013
 31
0.0
  0
LINE
  5
4423
330
1F
100
AcDbEntity
  8
0
 62
     3
100
AcDbLine
 10
1194.095591748962
 20
-138.2186927472013
 30
0.0
 11
1194.095616658962
 21
-139.6459230772013
 31
0.0
  0
LINE
  5
4424
330
1F
100
AcDbEntity
  8
0
 62
     3
100
AcDbLine
 10
1196.894254558962
 20
-136.1427996272011
 30
0.0
 11
1197.330001678963
 21
-136.3702692672012
 31
0.0
  0
LINE
  5
4425
330
1F
100
AcDbEntity
  8
0
 62
     3
100
AcDbLine
 10
1197.330001678963
 20
-136.3702692672012
 30
0.0
 11
1197.329944508962
 21
-139.6459230772013
 31
0.0
  0
LINE
  5
4426
330
1F
100
AcDbEntity
  8
0
 62
     3
100
AcDbLine
 10
1196.894189448963
 20
-139.8733775072011
 30
0.0
 11
1197.329944508962
 21
-139.6459230772013
 31
0.0
  0
LINE
  5
4427
330
1F
100
AcDbEntity
  8
0
 62
     3
100
AcDbLine
 10
1198.823764828961
 20
-136.1427996272011
 30
0.0
 11
1198.388017708962
 21
-136.3702692672012
 31
0.0
  0
LINE
  5
4428
330
1F
100
AcDbEntity
  8
0
 62
     3
100
AcDbLine
 10
1198.388017708962
 20
-136.3702692672012
 30
0.0
 11
1198.388074878963
 21
-139.6459230772013
 31
0.0
  0
LINE
  5
4429
330
1F
100
AcDbEntity
  8
0
 62
     3
100
AcDbLine
 10
1198.823829938962
 20
-139.8733775072011
 30
0.0
 11
1198.388074878963
 21
-139.6459230772013
 31
0.0
  0
LINE
  5
442A
330
1F
100
AcDbEntity
  8
0
 62
     3
100
AcDbLine
 10
1199.038124398962
 20
-136.1427996272011
 30
0.0
 11
1199.473871518963
 21
-136.3702692672012
 31
0.0
  0
LINE
  5
442B
330
1F
100
AcDbEntity
  8
0
 62
     3
100
AcDbLine
 10
1199.473871518963
 20
-136.3702692672012
 30
0.0
 11
1199.473814348962
 21
-139.6459230772013
 31
0.0
  0
LINE
  5
442C
330
1F
100
AcDbEntity
  8
0
 62
     3
100
AcDbLine
 10
1199.038059288962
 20
-139.8733775072011
 30
0.0
 11
1199.473814348962
 21
-139.6459230772013
 31
0.0
  0
ARC
  5
442D
330
1F
100
AcDbEntity
  8
0
 62
     3
100
AcDbCircle
 10
1191.187134378963
 20
-137.9986578072011
 30
0.0
 40
2.086285909999999
100
AcDbArc
 50
97.70152350999701
 51
270.0
  0
ARC
  5
442E
330
1F
100
AcDbEntity
  8
0
 62
     3
100
AcDbCircle
 10
1204.067735218961
 20
-138.0196144372011
 30
0.0
 40
2.108943379999999
100
AcDbArc
 50
0.3142502699976307
 51
69.0055824499897
  0
ARC
  5
442F
330
1F
100
AcDbEntity
  8
0
 62
     3
100
AcDbCircle
 10
1204.528410538962
 20
-138.0196144372011
 30
0.0
 40
2.108943379999999
100
AcDbArc
 50
110.9944175499969
 51
148.1166110200056
  0
ARC
  5
4430
330
1F
100
AcDbEntity
  8
0
 62
     3
100
AcDbCircle
 10
1204.067735218961
 20
-137.9964806972014
 30
0.0
 40
2.108943379999999
100
AcDbArc
 50
290.9944175499969
 51
359.6857497300024
  0
ARC
  5
4431
330
1F
100
AcDbEntity
  8
0
 62
     3
100
AcDbCircle
 10
1204.528410538962
 20
-137.9964806972014
 30
0.0
 40
2.108943379999999
100
AcDbArc
 50
211.8833889799944
 51
249.0055824499897
  0
ARC
  5
4432
330
1F
100
AcDbEntity
  8
0
 62
     3
100
AcDbCircle
 10
1204.298072878962
 20
-137.1452421772012
 30
0.0
 40
1.214070989999997
100
AcDbArc
 50
64.36517189999924
 51
115.6348281000007
  0
ARC
  5
4433
330
1F
100
AcDbEntity
  8
0
 62
     3
100
AcDbCircle
 10
1204.298072878962
 20
-138.8708529572012
 30
0.0
 40
1.214070989999997
100
AcDbArc
 50
244.3651718999992
 51
295.6348281000007
  0
ARC
  5
4434
330
1F
100
AcDbEntity
  8
0
 62
     3
100
AcDbCircle
 10
1204.298072878962
 20
-137.1221804972012
 30
0.0
 40
0.59585563
100
AcDbArc
 50
19.48660554000593
 51
160.5133944599941
  0
ARC
  5
4435
330
1F
100
AcDbEntity
  8
0
 62
     3
100
AcDbCircle
 10
1204.298072878962
 20
-138.8708529572012
 30
0.0
 40
1.214070989999997
100
AcDbArc
 50
244.3651718999992
 51
295.6348281000007
  0
ARC
  5
4436
330
1F
100
AcDbEntity
  8
0
 62
     3
100
AcDbCircle
 10
1204.298072878962
 20
-138.8939146372011
 30
0.0
 40
0.59585563
100
AcDbArc
 50
199.4866055400059
 51
340.5133944599941
  0
ARC
  5
4437
330
1F
100
AcDbEntity
  8
0
 62
     3
100
AcDbCircle
 10
1199.555600378962
 20
-160.2361074072011
 30
0.0
 40
26.04
100
AcDbArc
 50
69.50571480000876
 51
81.68998806999741
  0
ARC
  5
4438
330
1F
100
AcDbEntity
  8
0
 62
     3
100
AcDbCircle
 10
1199.555600378962
 20
-115.7799877272013
 30
0.0
 40
26.04
100
AcDbArc
 50
278.3100119300026
 51
290.4942851999913
  0
ARC
  5
4439
330
1F
100
AcDbEntity
  8
0
 62
     3
100
AcDbCircle
 10
1207.863804508963
 20
-138.0080475672012
 30
0.0
 40
2.31
100
AcDbArc
 50
290.4942851999913
 51
69.50571480000876
  0
ARC
  5
443A
330
1F
100
AcDbEntity
  8
0
 62
     3
100
AcDbCircle
 10
1180.563804508963
 20
-138.0080475672012
 30
0.0
 40
2.31
100
AcDbArc
 50
110.4942851999912
 51
249.5057147999943
  0
ARC
  5
443B
330
1F
100
AcDbEntity
  8
0
 62
     3
100
AcDbCircle
 10
1188.872008628961
 20
-160.2361074072011
 30
0.0
 40
26.04
100
AcDbArc
 50
98.31001192998925
 51
110.4942851999912
  0
ARC
  5
443C
330
1F
100
AcDbEntity
  8
0
 62
     3
100
AcDbCircle
 10
1188.872008628961
 20
-115.7799877272013
 30
0.0
 40
26.04
100
AcDbArc
 50
249.5057147999943
 51
261.6899880699974
  0
ARC
  5
443D
330
1F
100
AcDbEntity
  8
0
 62
     3
100
AcDbCircle
 10
1194.213804508963
 20
-196.8080475672012
 30
0.0
 40
62.99999987
100
AcDbArc
 50
81.68998806999741
 51
98.31001192998925
  0
ARC
  5
443E
330
1F
100
AcDbEntity
  8
0
 62
     3
100
AcDbCircle
 10
1194.213804508963
 20
-79.20804756720126
 30
0.0
 40
62.99999987
100
AcDbArc
 50
261.6899880699974
 51
278.3100119300026
  0
ARC
  5
443F
330
1F
100
AcDbEntity
  8
0
 62
     3
100
AcDbCircle
 10
1194.213804508963
 20
-196.8080475672012
 30
0.0
 40
62.36999987
100
AcDbArc
 50
81.68998806999741
 51
98.31001192998925
  0
ARC
  5
4440
330
1F
100
AcDbEntity
  8
0
 62
     3
100
AcDbCircle
 10
1194.213804508963
 20
-79.20804756720126
 30
0.0
 40
62.36999987
100
AcDbArc
 50
261.6899880699974
 51
278.3100119300026
  0
ARC
  5
4441
330
1F
100
AcDbEntity
  8
0
 62
     3
100
AcDbCircle
 10
1199.555600378962
 20
-115.7799877272013
 30
0.0
 40
25.41
100
AcDbArc
 50
278.3100119300026
 51
290.4942851999913
  0
ARC
  5
4442
330
1F
100
AcDbEntity
  8
0
 62
     3
100
AcDbCircle
 10
1199.555600378962
 20
-160.2361074072011
 30
0.0
 40
25.41
100
AcDbArc
 50
69.50571480000876
 51
81.68998806999741
  0
ARC
  5
4443
330
1F
100
AcDbEntity
  8
0
 62
     3
100
AcDbCircle
 10
1207.863804508963
 20
-138.0080475672012
 30
0.0
 40
1.679999999999999
100
AcDbArc
 50
290.4942851999913
 51
69.50571480000876
  0
ARC
  5
4444
330
1F
100
AcDbEntity
  8
0
 62
     3
100
AcDbCircle
 10
1180.563804508963
 20
-138.0080475672012
 30
0.0
 40
1.679999999999999
100
AcDbArc
 50
110.4942851999912
 51
249.5057147999943
  0
ARC
  5
4445
330
1F
100
AcDbEntity
  8
0
 62
     3
100
AcDbCircle
 10
1188.872008628961
 20
-160.2361074072011
 30
0.0
 40
25.41
100
AcDbArc
 50
98.31001192998925
 51
110.4942851999912
  0
ARC
  5
4446
330
1F
100
AcDbEntity
  8
0
 62
     3
100
AcDbCircle
 10
1188.872008628961
 20
-115.7799877272013
 30
0.0
 40
25.41
100
AcDbArc
 50
249.5057147999943
 51
261.6899880699974
  0
LINE
  5
4447
330
1F
100
AcDbEntity
  8
0
 62
     3
100
AcDbLine
 10
1198.823765608962
 20
-140.0849239472012
 30
0.0
 11
1196.894253778961
 21
-140.0849239472012
 31
0.0
  0
LINE
  5
4448
330
1F
100
AcDbEntity
  8
0
 62
     3
100
AcDbLine
 10
1198.823765608962
 20
-139.8733628072011
 30
0.0
 11
1198.823765608962
 21
-140.0849239472012
 31
0.0
  0
LINE
  5
4449
330
1F
100
AcDbEntity
  8
0
 62
     3
100
AcDbLine
 10
1196.687296218962
 20
-135.9312699072011
 30
0.0
 11
1194.735033688963
 21
-135.9312699072011
 31
0.0
  0
LINE
  5
444A
330
1F
100
AcDbEntity
  8
0
 62
     3
100
AcDbLine
 10
1196.687296218962
 20
-135.9312699072011
 30
0.0
 11
1196.687296218962
 21
-136.1427323272011
 31
0.0
  0
LINE
  5
444B
330
1F
100
AcDbEntity
  8
0
 62
     3
100
AcDbLine
 10
1196.687296218962
 20
-139.8733628072011
 30
0.0
 11
1196.687296218962
 21
-140.0850226572012
 31
0.0
  0
LINE
  5
444C
330
1F
100
AcDbEntity
  8
0
 62
     3
100
AcDbLine
 10
1196.687296218962
 20
-140.0850226572012
 30
0.0
 11
1194.735033688963
 21
-140.0850226572012
 31
0.0
  0
LINE
  5
444D
330
1F
100
AcDbEntity
  8
0
 62
     3
100
AcDbLine
 10
1198.823765608962
 20
-135.9311711872012
 30
0.0
 11
1198.823765608962
 21
-136.1427323272011
 31
0.0
  0
LINE
  5
444E
330
1F
100
AcDbEntity
  8
0
 62
     3
100
AcDbLine
 10
1198.823765608962
 20
-135.9311711872012
 30
0.0
 11
1196.894253778961
 21
-135.9311711872012
 31
0.0
  0
LINE
  5
444F
330
1F
100
AcDbEntity
  8
0
 62
     3
100
AcDbLine
 10
1196.894253778961
 20
-135.9311711872012
 30
0.0
 11
1196.894253778961
 21
-136.1427323272011
 31
0.0
  0
LINE
  5
4450
330
1F
100
AcDbEntity
  8
0
 62
     3
100
AcDbLine
 10
1199.038123608963
 20
-139.8733628072011
 30
0.0
 11
1199.038123608963
 21
-140.0849239472012
 31
0.0
  0
LINE
  5
4451
330
1F
100
AcDbEntity
  8
0
 62
     3
100
AcDbLine
 10
1201.022424168962
 20
-140.0849239472012
 30
0.0
 11
1199.038123608963
 21
-140.0849239472012
 31
0.0
  0
LINE
  5
4452
330
1F
100
AcDbEntity
  8
0
 62
     3
100
AcDbLine
 10
1200.531887538963
 20
-136.5989407072012
 30
0.0
 11
1200.531887538963
 21
-139.4171544272012
 31
0.0
  0
LINE
  5
4453
330
1F
100
AcDbEntity
  8
0
 62
     3
100
AcDbLine
 10
1200.531887538963
 20
-139.4171544272012
 30
0.0
 11
1200.721936508962
 21
-139.4171544272012
 31
0.0
  0
ARC
  5
4454
330
1F
100
AcDbEntity
  8
0
 62
     3
100
AcDbCircle
 10
1199.750150768962
 20
-138.0080475672012
 30
0.0
 40
1.71170957
100
AcDbArc
 50
304.5919552700032
 51
55.40804472999678
  0
LINE
  5
4455
330
1F
100
AcDbEntity
  8
0
 62
     3
100
AcDbLine
 10
1201.022424168962
 20
-135.9311711872012
 30
0.0
 11
1199.038123608963
 21
-135.9311711872012
 31
0.0
  0
LINE
  5
4456
330
1F
100
AcDbEntity
  8
0
 62
     3
100
AcDbLine
 10
1199.038123608963
 20
-135.9311711872012
 30
0.0
 11
1199.038123608963
 21
-136.1427323272011
 31
0.0
  0
LINE
  5
4457
330
1F
100
AcDbEntity
  8
0
 62
     3
100
AcDbLine
 10
1196.894253778961
 20
-139.8733628072011
 30
0.0
 11
1196.894253778961
 21
-140.0849239472012
 31
0.0
  0
LINE
  5
4458
330
1F
100
AcDbEntity
  8
0
 62
     3
100
AcDbLine
 10
1200.531887538963
 20
-136.5989407072012
 30
0.0
 11
1200.721936508962
 21
-136.5989407072012
 31
0.0
  0
LINE
  5
4459
330
1F
100
AcDbEntity
  8
0
 62
     3
100
AcDbLine
 10
1188.888727878962
 20
-139.8733628072011
 30
0.0
 11
1188.888724188963
 21
-140.0849437172011
 31
0.0
  0
LINE
  5
445A
330
1F
100
AcDbEntity
  8
0
 62
     3
100
AcDbLine
 10
1186.959212348963
 20
-140.0849041772012
 30
0.0
 11
1188.888724188963
 21
-140.0849378472012
 31
0.0
  0
LINE
  5
445B
330
1F
100
AcDbEntity
  8
0
 62
     3
100
AcDbLine
 10
1182.662830498963
 20
-140.0849239472012
 30
0.0
 11
1184.202095828962
 21
-140.0849239472012
 31
0.0
  0
ARC
  5
445C
330
1F
100
AcDbEntity
  8
0
 62
     3
100
AcDbCircle
 10
1177.680887818963
 20
-137.9591409472011
 30
0.0
 40
14.71356563
100
AcDbArc
 50
353.8660061899983
 51
357.6940342600001
  0
LINE
  5
445D
330
1F
100
AcDbEntity
  8
0
 62
     3
100
AcDbLine
 10
1191.397467678962
 20
-138.5475085972013
 30
0.0
 11
1192.382538568963
 21
-138.5511534772012
 31
0.0
  0
LINE
  5
445F
330
1F
100
AcDbEntity
  8
0
 62
     3
100
AcDbLine
 10
1191.401446098963
 20
-137.4722938572012
 30
0.0
 11
1192.386516978962
 21
-137.4759387272011
 31
0.0
  0
ARC
  5
4460
330
1F
100
AcDbEntity
  8
0
 62
     3
100
AcDbCircle
 10
1177.680887818963
 20
-137.9591409472011
 30
0.0
 40
14.71356563
100
AcDbArc
 50
1.881965739997945
 51
5.709993809997307
  0
LINE
  5
4461
330
1F
100
AcDbEntity
  8
0
 62
     3
100
AcDbLine
 10
1188.888796678963
 20
-135.9311909572012
 30
0.0
 11
1188.888792988963
 21
-136.1427323272011
 31
0.0
  0
LINE
  5
4462
330
1F
100
AcDbEntity
  8
0
 62
     3
100
AcDbLine
 10
1186.959284848962
 20
-135.9311514172012
 30
0.0
 11
1188.888796678963
 21
-135.9311850972013
 31
0.0
  0
LINE
  5
4463
330
1F
100
AcDbEntity
  8
0
 62
     3
100
AcDbLine
 10
1186.959216038962
 20
-139.8733628072011
 30
0.0
 11
1186.959212348963
 21
-140.0849041772012
 31
0.0
  0
LINE
  5
4464
330
1F
100
AcDbEntity
  8
0
 62
     3
100
AcDbLine
 10
1186.959284848962
 20
-135.9311514172012
 30
0.0
 11
1186.959281158962
 21
-136.1427323272011
 31
0.0
  0
LINE
  5
4465
330
1F
100
AcDbEntity
  8
0
 62
     3
100
AcDbLine
 10
1184.202095828962
 20
-139.8733628072011
 30
0.0
 11
1184.202095828962
 21
-140.0849239472012
 31
0.0
  0
LINE
  5
4466
330
1F
100
AcDbEntity
  8
0
 62
     3
100
AcDbLine
 10
1183.766347918961
 20
-137.6490358572013
 30
0.0
 11
1185.288777978962
 21
-140.0849239472012
 31
0.0
  0
LINE
  5
4467
330
1F
100
AcDbEntity
  8
0
 62
     3
100
AcDbLine
 10
1185.288777978962
 20
-140.0849239472012
 30
0.0
 11
1186.308210698962
 21
-140.0849239472012
 31
0.0
  0
LINE
  5
4468
330
1F
100
AcDbEntity
  8
0
 62
     3
100
AcDbLine
 10
1186.743958608962
 20
-135.9311711872012
 30
0.0
 11
1186.743958608962
 21
-136.1427323272011
 31
0.0
  0
LINE
  5
4469
330
1F
100
AcDbEntity
  8
0
 62
     3
100
AcDbLine
 10
1185.204693278961
 20
-135.9311711872012
 30
0.0
 11
1186.743958608962
 21
-135.9311711872012
 31
0.0
  0
LINE
  5
446A
330
1F
100
AcDbEntity
  8
0
 62
     3
100
AcDbLine
 10
1185.204693278961
 20
-135.9311711872012
 30
0.0
 11
1185.204693278961
 21
-136.1427323272011
 31
0.0
  0
LINE
  5
446B
330
1F
100
AcDbEntity
  8
0
 62
     3
100
AcDbLine
 10
1185.640441188962
 20
-137.8125375272012
 30
0.0
 11
1184.405794518962
 21
-135.9311711872012
 31
0.0
  0
LINE
  5
446C
330
1F
100
AcDbEntity
  8
0
 62
     3
100
AcDbLine
 10
1182.662830498963
 20
-135.9311711872012
 30
0.0
 11
1184.405794518962
 21
-135.9311711872012
 31
0.0
  0
LINE
  5
446D
330
1F
100
AcDbEntity
  8
0
 62
     3
100
AcDbLine
 10
1192.579044858962
 20
-135.9312699072011
 30
0.0
 11
1194.531307398962
 21
-135.9312699072011
 31
0.0
  0
LINE
  5
446E
330
1F
100
AcDbEntity
  8
0
 62
     3
100
AcDbLine
 10
1192.579044858962
 20
-136.1427323272011
 30
0.0
 11
1192.579044858962
 21
-135.9312699072011
 31
0.0
  0
LINE
  5
446F
330
1F
100
AcDbEntity
  8
0
 62
     3
100
AcDbLine
 10
1192.579044858962
 20
-140.0850226572012
 30
0.0
 11
1192.579044858962
 21
-139.8733628072011
 31
0.0
  0
LINE
  5
4470
330
1F
100
AcDbEntity
  8
0
 62
     3
100
AcDbLine
 10
1192.579044858962
 20
-140.0850226572012
 30
0.0
 11
1194.531307398962
 21
-140.0850226572012
 31
0.0
  0
LINE
  5
4471
330
1F
100
AcDbEntity
  8
0
 62
     3
100
AcDbLine
 10
1194.735033688963
 20
-139.8733628072011
 30
0.0
 11
1194.735033688963
 21
-140.0850226572012
 31
0.0
  0
LINE
  5
4472
330
1F
100
AcDbEntity
  8
0
 62
     3
100
AcDbLine
 10
1194.531307398962
 20
-139.8733628072011
 30
0.0
 11
1194.531307398962
 21
-140.0850226572012
 31
0.0
  0
LINE
  5
4473
330
1F
100
AcDbEntity
  8
0
 62
     3
100
AcDbLine
 10
1194.531307398962
 20
-136.1427323272011
 30
0.0
 11
1194.531307398962
 21
-135.9312699072011
 31
0.0
  0
LINE
  5
4474
330
1F
100
AcDbEntity
  8
0
 62
     3
100
AcDbLine
 10
1194.735033688963
 20
-136.1427323272011
 30
0.0
 11
1194.735033688963
 21
-135.9312699072011
 31
0.0
  0
LINE
  5
4475
330
1F
100
AcDbEntity
  8
0
 62
     3
100
AcDbLine
 10
1182.662830498963
 20
-139.8733628072011
 30
0.0
 11
1182.662830498963
 21
-140.0849239472012
 31
0.0
  0
LINE
  5
4476
330
1F
100
AcDbEntity
  8
0
 62
     3
100
AcDbLine
 10
1182.662830498963
 20
-135.9311711872012
 30
0.0
 11
1182.662830498963
 21
-136.1427323272011
 31
0.0
  0
ARC
  5
4477
330
1F
100
AcDbEntity
  8
0
 62
     3
100
AcDbCircle
 10
1201.232424168962
 20
-137.5722996572013
 30
0.0
 40
1.641128469999999
100
AcDbArc
 50
17.30874897999294
 51
23.76507095999297
  0
ARC
  5
4478
330
1F
100
AcDbEntity
  8
0
 62
     3
100
AcDbCircle
 10
1199.834150768962
 20
-138.0080475672012
 30
0.0
 40
3.105725599999998
100
AcDbArc
 50
342.691251020007
 51
17.30856643999617
  0
ARC
  5
4479
330
1F
100
AcDbEntity
  8
0
 62
     3
100
AcDbCircle
 10
1201.232424168962
 20
-138.4437954672011
 30
0.0
 40
1.641128469999999
100
AcDbArc
 50
336.234929040004
 51
342.691251020007
  0
ARC
  5
447A
330
1F
100
AcDbEntity
  8
0
 62
     3
100
AcDbCircle
 10
1201.022424168962
 20
-137.5722996572013
 30
0.0
 40
1.641128469999999
100
AcDbArc
 50
17.30874897999294
 51
90.0
  0
ARC
  5
447B
330
1F
100
AcDbEntity
  8
0
 62
     3
100
AcDbCircle
 10
1199.624150768963
 20
-138.0080475672012
 30
0.0
 40
3.105725599999998
100
AcDbArc
 50
342.691251020007
 51
17.30856643999617
  0
ARC
  5
447C
330
1F
100
AcDbEntity
  8
0
 62
     3
100
AcDbCircle
 10
1201.022424168962
 20
-138.4437954672011
 30
0.0
 40
1.641128469999999
100
AcDbArc
 50
270.0
 51
342.691251020007
  0
ARC
  5
447D
330
1F
100
AcDbEntity
  8
0
 62
     3
100
AcDbCircle
 10
1190.898483798962
 20
-138.0080475672012
 30
0.0
 40
2.076876379999998
100
AcDbArc
 50
46.75287960999258
 51
89.74999828999569
  0
ARC
  5
447E
330
1F
100
AcDbEntity
  8
0
 62
     3
100
AcDbCircle
 10
1190.898483798962
 20
-138.0080475672012
 30
0.0
 40
2.076876379999998
100
AcDbArc
 50
273.976333149997
 51
312.8231203899991
  0
ARC
  5
447F
330
1F
100
AcDbEntity
  8
0
 62
     3
100
AcDbCircle
 10
1202.340291738963
 20
-138.0401090972013
 30
0.0
 40
2.755888999999998
100
AcDbArc
 50
0.6665840599981471
 51
23.90392827000101
  0
ARC
  5
4480
330
1F
100
AcDbEntity
  8
0
 62
     3
100
AcDbCircle
 10
1206.255854018962
 20
-138.0401090972013
 30
0.0
 40
2.755888999999998
100
AcDbArc
 50
156.096071729999
 51
179.3334159400018
  0
ARC
  5
4481
330
1F
100
AcDbEntity
  8
0
 62
     3
100
AcDbCircle
 10
1202.340291738963
 20
-137.9759860372011
 30
0.0
 40
2.755888999999998
100
AcDbArc
 50
336.096071729999
 51
359.3334159400019
  0
ARC
  5
4482
330
1F
100
AcDbEntity
  8
0
 62
     3
100
AcDbCircle
 10
1206.255854018962
 20
-137.9759860372011
 30
0.0
 40
2.755888999999998
100
AcDbArc
 50
180.6665840599981
 51
203.903928270001
  0
LINE
  5
4483
330
1F
100
AcDbEntity
  8
0
 62
     3
100
AcDbLine
 10
1210.906141108962
 20
-137.9301764272012
 30
0.0
 11
1325.578478478963
 21
-137.9301764272012
 31
0.0
  0
LINE
  5
4484
330
1F
100
AcDbEntity
  8
0
 62
     3
100
AcDbLine
 10
1177.493394588962
 20
-137.9301764272012
 30
0.0
 11
1145.578478478962
 21
-137.9301764272012
 31
0.0
  0
LINE
  5
4485
330
1F
100
AcDbEntity
  8
0
 62
     3
100
AcDbLine
 10
1273.578478478962
 20
-414.9301764272011
 30
0.0
 11
1273.578478478962
 21
-374.9301764272012
 31
0.0
  0
LINE
  5
4486
330
1F
100
AcDbEntity
  8
0
 62
     3
100
AcDbLine
 10
1286.578478478962
 20
-404.9301764272009
 30
0.0
 11
1286.578478478962
 21
-376.9301764272011
 31
0.0
  0
LINE
  5
4487
330
1F
100
AcDbEntity
  8
0
 62
     3
100
AcDbLine
 10
1246.578478478962
 20
-404.9301764272009
 30
0.0
 11
1246.578478478962
 21
-390.9301764272012
 31
0.0
  0
LINE
  5
4488
330
1F
100
AcDbEntity
  8
0
 62
     3
100
AcDbLine
 10
1256.578478478962
 20
-390.9301764272012
 30
0.0
 11
1256.578478478962
 21
-414.9301764272011
 31
0.0
  0
LINE
  5
4489
330
1F
100
AcDbEntity
  8
0
 62
     3
100
AcDbLine
 10
1227.578478478962
 20
-374.9301764272012
 30
0.0
 11
1227.578478478962
 21
-397.9301764272012
 31
0.0
  0
LINE
  5
448A
330
1F
100
AcDbEntity
  8
0
 62
     3
100
AcDbLine
 10
1286.578478478962
 20
-376.9301764272011
 30
0.0
 11
1286.578478478962
 21
-374.9301764272012
 31
0.0
  0
LINE
  5
448B
330
1F
100
AcDbEntity
  8
0
 62
     3
100
AcDbLine
 10
1299.578478478963
 20
-397.9301764272012
 30
0.0
 11
1299.578478478963
 21
-374.9301764272012
 31
0.0
  0
LINE
  5
448C
330
1F
100
AcDbEntity
  8
0
 62
     3
100
AcDbLine
 10
1325.578478478963
 20
-374.9301764272012
 30
0.0
 11
1214.333043838963
 21
-374.9301764272012
 31
0.0
  0
LINE
  5
448D
330
1F
100
AcDbEntity
  8
0
 62
     3
100
AcDbLine
 10
1325.578478478963
 20
-383.9301764272012
 30
0.0
 11
1214.333043838963
 21
-383.9301764272012
 31
0.0
  0
LINE
  5
448E
330
1F
100
AcDbEntity
  8
0
 62
     3
100
AcDbLine
 10
1325.578478478963
 20
-397.9301764272012
 30
0.0
 11
1214.333043838963
 21
-397.9301764272012
 31
0.0
  0
LINE
  5
448F
330
1F
100
AcDbEntity
  8
0
 62
     3
100
AcDbLine
 10
1325.578478478963
 20
-404.9301764272009
 30
0.0
 11
1214.333043838963
 21
-404.9301764272009
 31
0.0
  0
LINE
  5
4490
330
1F
100
AcDbEntity
  8
0
 62
     3
100
AcDbLine
 10
1312.578478478962
 20
-397.9301764272012
 30
0.0
 11
1312.578478478962
 21
-374.9301764272012
 31
0.0
  0
LINE
  5
4491
330
1F
100
AcDbEntity
  8
0
 62
     3
100
AcDbLine
 10
1214.333043838963
 20
-374.9301764272012
 30
0.0
 11
1214.333043838963
 21
-414.9301764272011
 31
0.0
  0
LINE
  5
4492
330
1F
100
AcDbEntity
  8
0
 62
     3
100
AcDbLine
 10
1273.578478478962
 20
-390.9301764272012
 30
0.0
 11
1214.333043838963
 21
-390.9301764272012
 31
0.0
  0
LINE
  5
4493
330
1F
100
AcDbEntity
  8
0
 62
     3
100
AcDbLine
 10
1256.856803408962
 20
-410.0973151672011
 30
0.0
 11
1273.578478478962
 21
-410.0973151672011
 31
0.0
  0
TEXT
  5
4494
330
1F
100
AcDbEntity
  8
0
 62
     3
100
AcDbText
 10
1257.742803892278
 20
-395.8570795738359
 30
0.0
 40
2.5
  1
－
  7
高2.5
100
AcDbText
  0
TEXT
  5
4495
330
1F
100
AcDbEntity
  8
0
 62
     3
100
AcDbText
 10
1228.774847174215
 20
-395.6323620222173
 30
0.0
 40
2.5
  1
アルミ/PC
  7
高2.5
100
AcDbText
  0
TEXT
  5
4496
330
1F
100
AcDbEntity
  8
0
 62
     3
100
AcDbText
 10
1229.039754928912
 20
-382.6179269034433
 30
0.0
 40
4.5
  1
ハイスペックエコビック50Wスポット
 41
0.45
  7
高4.5
100
AcDbText
1001
ACAD
1000
ACAD_MTEXT_DEFINED_HEIGHT_BEGIN
1070
    46
1040
0.0
1000
ACAD_MTEXT_DEFINED_HEIGHT_END
  0
TEXT
  5
4497
330
1F
100
AcDbEntity
  8
0
 62
     3
100
AcDbText
 10
1315.644067572437
 20
-378.4164843284977
 30
0.0
 40
2.0
  1
DEF
  7
高2
100
AcDbText
  0
TEXT
  5
4498
330
1F
100
AcDbEntity
  8
0
 62
     3
100
AcDbText
 10
1301.704969218729
 20
-378.4164843284977
 30
0.0
 40
2.0
  1
DESN
  7
高2
100
AcDbText
  0
TEXT
  5
4499
330
1F
100
AcDbEntity
  8
0
 62
     3
100
AcDbText
 10
1275.450602278728
 20
-378.4164843284977
 30
0.0
 40
2.0
  1
APPD
  7
高2
100
AcDbText
  0
TEXT
  5
449A
330
1F
100
AcDbEntity
  8
0
 62
     3
100
AcDbText
 10
1288.563338378963
 20
-378.4164843284975
 30
0.0
 40
2.0
  1
CHCK
  7
高2
100
AcDbText
  0
TEXT
  5
449B
330
1F
100
AcDbEntity
  8
0
 62
     3
100
AcDbText
 10
1247.505644118116
 20
-400.7617776039705
 30
0.0
 40
2.0
  1
SCALE
 41
0.8
  7
高2
100
AcDbText
  0
TEXT
  5
449C
330
1F
100
AcDbEntity
  8
0
 62
     3
100
AcDbText
 10
1216.017622542009
 20
-400.7617776039705
 30
0.0
 40
2.0
  1
3AD　ANGLE
 41
1.5
  7
高2
100
AcDbText
  0
TEXT
  5
449D
330
1F
100
AcDbEntity
  8
0
 62
     3
100
AcDbText
 10
1246.775049808964
 20
-394.0102395350134
 30
0.0
 40
2.0
  1
REMARKS
 41
0.7
  7
高2
100
AcDbText
  0
TEXT
  5
449E
330
1F
100
AcDbEntity
  8
0
 62
     3
100
AcDbText
 10
1215.800714188962
 20
-393.9301764272012
 30
0.0
 40
2.0
  1
MATERIAL
 41
0.7
  7
高2
100
AcDbText
  0
TEXT
  5
449F
330
1F
100
AcDbEntity
  8
0
 62
     3
100
AcDbText
 10
1216.377201391718
 20
-386.9301764272012
 30
0.0
 40
2.0
  1
MODEL
  7
高2
100
AcDbText
  0
TEXT
  5
44A0
330
1F
100
AcDbEntity
  8
0
 62
     3
100
AcDbText
 10
1216.014122273048
 20
-378.2231550766022
 30
0.0
 40
2.0
  1
CONPONENTS
 41
0.5
  7
高2
100
AcDbText
  0
TEXT
  5
44A1
330
1F
100
AcDbEntity
  8
0
 62
     3
100
AcDbText
 10
1290.141988229292
 20
-403.8292872689681
 30
0.0
 40
3.2
  1
2016.01.06
  7
高3.2
100
AcDbText
1001
ACAD
1000
ACAD_MTEXT_DEFINED_HEIGHT_BEGIN
1070
    46
1040
0.0
1000
ACAD_MTEXT_DEFINED_HEIGHT_END
  0
TEXT
  5
44A2
330
1F
100
AcDbEntity
  8
0
 62
     3
100
AcDbText
 10
1260.366076373609
 20
-403.8292594246331
 30
0.0
 40
3.2
  1
1/3
  7
高3.2
100
AcDbText
  0
TEXT
  5
44A3
330
1F
100
AcDbEntity
  8
0
 62
     3
100
AcDbText
 10
1257.443405348962
 20
-414.1132982540652
 30
0.0
 40
3.2
  1
ZK-A4Y
 41
0.8
  7
高3.2
100
AcDbText
  0
TEXT
  5
44A4
330
1F
100
AcDbEntity
  8
0
 62
     3
100
AcDbText
 10
1215.163744878962
 20
-408.405556005013
 30
0.0
 40
2.0
  1
NICHIDO IND.CO.LTD
 41
1.3
  7
高2
100
AcDbText
  0
TEXT
  5
44A5
330
1F
100
AcDbEntity
  8
0
 62
     3
100
AcDbText
 10
1216.345268143919
 20
-382.7896482193162
 30
0.0
 40
3.2
  1
品 名
  7
高3.2
100
AcDbText
1001
ACAD
1000
ACAD_MTEXT_DEFINED_HEIGHT_BEGIN
1070
    46
1040
0.0
1000
ACAD_MTEXT_DEFINED_HEIGHT_END
  0
TEXT
  5
44A6
330
1F
100
AcDbEntity
  8
0
 62
     3
100
AcDbText
 10
1216.345268143919
 20
-390.4301764272012
 30
0.0
 40
3.2
  1
型 式
  7
高3.2
100
AcDbText
1001
ACAD
1000
ACAD_MTEXT_DEFINED_HEIGHT_BEGIN
1070
    46
1040
3.064735913775952
1000
ACAD_MTEXT_DEFINED_HEIGHT_END
  0
TEXT
  5
44A7
330
1F
100
AcDbEntity
  8
0
 62
     3
100
AcDbText
 10
1216.345268143919
 20
-397.4301764272011
 30
0.0
 40
3.2
  1
材 質
  7
高3.2
100
AcDbText
1001
ACAD
1000
ACAD_MTEXT_DEFINED_HEIGHT_BEGIN
1070
    46
1040
0.0
1000
ACAD_MTEXT_DEFINED_HEIGHT_END
  0
TEXT
  5
44A8
330
1F
100
AcDbEntity
  8
0
 62
     3
100
AcDbText
 10
1216.040233193919
 20
-404.4627364349549
 30
0.0
 40
3.2
  1
第 三 角 法
  7
高3.2
100
AcDbText
1001
ACAD
1000
ACAD_MTEXT_DEFINED_HEIGHT_BEGIN
1070
    46
1040
0.0
1000
ACAD_MTEXT_DEFINED_HEIGHT_END
  0
TEXT
  5
44A9
330
1F
100
AcDbEntity
  8
0
 62
     3
100
AcDbText
 10
1214.446765801448
 20
-413.7896482193161
 30
0.0
 40
3.2
  1
日動工業株式会社
 41
1.199999999999999
  7
高3.2
100
AcDbText
1001
ACAD
1000
ACAD_MTEXT_DEFINED_HEIGHT_BEGIN
1070
    46
1040
0.0
1000
ACAD_MTEXT_DEFINED_HEIGHT_END
  0
TEXT
  5
44AA
330
1F
100
AcDbEntity
  8
0
 62
     3
100
AcDbText
 10
1248.082390000927
 20
-397.5455978940337
 30
0.0
 40
3.2
  1
備考
  7
高3.2
100
AcDbText
1001
ACAD
1000
ACAD_MTEXT_DEFINED_HEIGHT_BEGIN
1070
    46
1040
0.0
1000
ACAD_MTEXT_DEFINED_HEIGHT_END
  0
TEXT
  5
44AB
330
1F
100
AcDbEntity
  8
0
 62
     3
100
AcDbText
 10
1257.731447447963
 20
-408.7839464016306
 30
0.0
 40
2.5
  1
出図コード
  7
高2.5
100
AcDbText
1001
ACAD
1000
ACAD_MTEXT_DEFINED_HEIGHT_BEGIN
1070
    46
1040
0.0
1000
ACAD_MTEXT_DEFINED_HEIGHT_END
  0
TEXT
  5
44AC
330
1F
100
AcDbEntity
  8
0
 62
     3
100
AcDbText
 10
1247.923623882839
 20
-404.4769415167881
 30
0.0
 40
3.2
  1
尺度
  7
高3.2
100
AcDbText
1001
ACAD
1000
ACAD_MTEXT_DEFINED_HEIGHT_BEGIN
1070
    46
1040
0.0
1000
ACAD_MTEXT_DEFINED_HEIGHT_END
  0
TEXT
  5
44AD
330
1F
100
AcDbEntity
  8
0
 62
     3
100
AcDbText
 10
1275.069885364617
 20
-403.3454630686708
 30
0.0
 40
3.2
  1
作成日
  7
高3.2
100
AcDbText
1001
ACAD
1000
ACAD_MTEXT_DEFINED_HEIGHT_BEGIN
1070
    46
1040
0.0
1000
ACAD_MTEXT_DEFINED_HEIGHT_END
  0
TEXT
  5
44AE
330
1F
100
AcDbEntity
  8
0
 62
     3
100
AcDbText
 10
1274.964359371482
 20
-382.7896482193162
 30
0.0
 40
3.2
  1
承 認
  7
高3.2
100
AcDbText
1001
ACAD
1000
ACAD_MTEXT_DEFINED_HEIGHT_BEGIN
1070
    46
1040
0.0
1000
ACAD_MTEXT_DEFINED_HEIGHT_END
  0
TEXT
  5
44AF
330
1F
100
AcDbEntity
  8
0
 62
     3
100
AcDbText
 10
1287.964359371482
 20
-382.7896482193162
 30
0.0
 40
3.2
  1
検 図
  7
高3.2
100
AcDbText
1001
ACAD
1000
ACAD_MTEXT_DEFINED_HEIGHT_BEGIN
1070
    46
1040
0.0
1000
ACAD_MTEXT_DEFINED_HEIGHT_END
  0
TEXT
  5
44B0
330
1F
100
AcDbEntity
  8
0
 62
     3
100
AcDbText
 10
1300.964359371482
 20
-382.7896482193162
 30
0.0
 40
3.2
  1
設 計
  7
高3.2
100
AcDbText
1001
ACAD
1000
ACAD_MTEXT_DEFINED_HEIGHT_BEGIN
1070
    46
1040
0.0
1000
ACAD_MTEXT_DEFINED_HEIGHT_END
  0
TEXT
  5
44B1
330
1F
100
AcDbEntity
  8
0
 62
     3
100
AcDbText
 10
1314.264995891482
 20
-382.7896482193162
 30
0.0
 40
3.2
  1
製 図
  7
高3.2
100
AcDbText
1001
ACAD
1000
ACAD_MTEXT_DEFINED_HEIGHT_BEGIN
1070
    46
1040
0.0
1000
ACAD_MTEXT_DEFINED_HEIGHT_END
  0
TEXT
  5
44B2
330
1F
100
AcDbEntity
  8
0
 62
     3
100
AcDbText
 10
1275.740661100265
 20
-413.4928142022062
 30
0.0
 40
6.299999999999998
  1
L50W-E39-SW-30K-N
 41
0.4
  7
高6.3
100
AcDbText
1001
ACAD
1000
ACAD_MTEXT_DEFINED_HEIGHT_BEGIN
1070
    46
1040
0.0
1000
ACAD_MTEXT_DEFINED_HEIGHT_END
  0
TEXT
  5
44B3
330
1F
100
AcDbEntity
  8
0
 62
     3
100
AcDbText
 10
1228.721237744215
 20
-390.4169576394672
 30
0.0
 40
4.5
  1
L50W-E39-SW-30K-N
 41
0.5
  7
高4.5
100
AcDbText
  0
TEXT
  5
44B5
330
1F
100
AcDbEntity
  8
0
100
AcDbText
 10
1318.157089424073
 20
-394.1246509633541
 30
0.0
 40
3.2
  1
I
  7
高3.2
100
AcDbText
  0
LINE
  5
44E1
330
1F
100
AcDbEntity
  8
0
 62
     7
100
AcDbLine
 10
1245.421757396426
 20
-305.7977723914819
 30
0.0
 11
1321.321757396426
 21
-305.7977723914819
 31
0.0
  0
LINE
  5
44E2
330
1F
100
AcDbEntity
  8
0
 62
     7
100
AcDbLine
 10
1245.421757396426
 20
-300.297772391482
 30
0.0
 11
1321.321757396426
 21
-300.297772391482
 31
0.0
  0
LINE
  5
44E3
330
1F
100
AcDbEntity
  8
0
 62
     7
100
AcDbLine
 10
1245.421757396426
 20
-294.797772391482
 30
0.0
 11
1321.321757396426
 21
-294.797772391482
 31
0.0
  0
LINE
  5
44E4
330
1F
100
AcDbEntity
  8
0
 62
     7
100
AcDbLine
 10
1245.421757396426
 20
-289.2977723914819
 30
0.0
 11
1321.321757396426
 21
-289.2977723914819
 31
0.0
  0
LINE
  5
44E5
330
1F
100
AcDbEntity
  8
0
 62
     7
100
AcDbLine
 10
1255.812747866094
 20
-283.797772391482
 30
0.0
 11
1321.321757396426
 21
-283.797772391482
 31
0.0
  0
LINE
  5
44E6
330
1F
100
AcDbEntity
  8
0
 62
     7
100
AcDbLine
 10
1255.812747866094
 20
-278.2977723914818
 30
0.0
 11
1321.321757396426
 21
-278.2977723914818
 31
0.0
  0
LINE
  5
44E7
330
1F
100
AcDbEntity
  8
0
 62
     7
100
AcDbLine
 10
1255.812747866094
 20
-272.7977723914819
 30
0.0
 11
1321.321757396426
 21
-272.7977723914819
 31
0.0
  0
LINE
  5
44E8
330
1F
100
AcDbEntity
  8
0
 62
     7
100
AcDbLine
 10
1255.812747866094
 20
-267.2977723914818
 30
0.0
 11
1321.321757396426
 21
-267.2977723914818
 31
0.0
  0
LINE
  5
44E9
330
1F
100
AcDbEntity
  8
0
 62
     7
100
AcDbLine
 10
1245.421757396426
 20
-261.7977723914818
 30
0.0
 11
1321.321757396426
 21
-261.7977723914818
 31
0.0
  0
LINE
  5
44EA
330
1F
100
AcDbEntity
  8
0
 62
     7
100
AcDbLine
 10
1245.421757396426
 20
-256.2977723914819
 30
0.0
 11
1321.321757396426
 21
-256.2977723914819
 31
0.0
  0
LINE
  5
44EB
330
1F
100
AcDbEntity
  8
0
 62
     7
100
AcDbLine
 10
1245.421757396426
 20
-250.7977723914818
 30
0.0
 11
1321.321757396426
 21
-250.7977723914818
 31
0.0
  0
LINE
  5
44EC
330
1F
100
AcDbEntity
  8
0
 62
     7
100
AcDbLine
 10
1245.421757396426
 20
-245.2977723914818
 30
0.0
 11
1321.321757396426
 21
-245.2977723914818
 31
0.0
  0
LINE
  5
44ED
330
1F
100
AcDbEntity
  8
0
 62
     7
100
AcDbLine
 10
1245.421757396426
 20
-239.7977723914818
 30
0.0
 11
1321.321757396426
 21
-239.7977723914818
 31
0.0
  0
LINE
  5
44EE
330
1F
100
AcDbEntity
  8
0
 62
     7
100
AcDbLine
 10
1245.421757396426
 20
-234.2977723914818
 30
0.0
 11
1321.321757396426
 21
-234.2977723914818
 31
0.0
  0
LINE
  5
44EF
330
1F
100
AcDbEntity
  8
0
 62
     7
100
AcDbLine
 10
1245.421757396426
 20
-228.7977723914818
 30
0.0
 11
1321.321757396426
 21
-228.7977723914818
 31
0.0
  0
LINE
  5
44F0
330
1F
100
AcDbEntity
  8
0
 62
     7
100
AcDbLine
 10
1245.421757396426
 20
-223.2977723914818
 30
0.0
 11
1321.321757396426
 21
-223.2977723914818
 31
0.0
  0
TEXT
  5
44F1
330
1F
100
AcDbEntity
  8
0
 62
     3
100
AcDbText
 10
1268.370315064693
 20
-315.7977723914817
 30
0.0
 40
3.2
  1
落下防止ワイヤー
 41
0.8
  7
高3.2
100
AcDbText
  0
TEXT
  5
44F2
330
1F
100
AcDbEntity
  8
0
 62
     3
100
AcDbText
 10
1246.921757396425
 20
-315.7977723914817
 30
0.0
 40
3.2
  1
付　　　属
 41
0.8
  7
高3.2
100
AcDbText
  0
TEXT
  5
44F3
330
1F
100
AcDbEntity
  8
0
 62
     3
100
AcDbText
 10
1246.921757396425
 20
-299.297772391482
 30
0.0
 40
3.2
  1
球　寿　命
 41
0.8
  7
高3.2
100
AcDbText
  0
TEXT
  5
44F4
330
1F
100
AcDbEntity
  8
0
 62
     3
100
AcDbText
 10
1246.921757396425
 20
-304.797772391482
 30
0.0
 40
3.2
  1
使用環境温度
 41
0.8
  7
高3.2
100
AcDbText
  0
TEXT
  5
44F5
330
1F
100
AcDbEntity
  8
0
 62
     3
100
AcDbText
 10
1246.921757396425
 20
-293.7977723914819
 30
0.0
 40
3.2
  1
本体防水規格
 41
0.8
  7
高3.2
100
AcDbText
  0
TEXT
  5
44F6
330
1F
100
AcDbEntity
  8
0
 62
     3
100
AcDbText
 10
1246.921757396425
 20
-260.797772391482
 30
0.0
 40
3.2
  1
固有エネルギー消費効率
 41
0.4
  7
高3.2
100
AcDbText
  0
TEXT
  5
44F7
330
1F
100
AcDbEntity
  8
0
 62
     3
100
AcDbText
 10
1246.921757396425
 20
-255.2977723914818
 30
0.0
 40
3.2
  1
定格消費電力
 41
0.8
  7
高3.2
100
AcDbText
  0
TEXT
  5
44F8
330
1F
100
AcDbEntity
  8
0
 62
     3
100
AcDbText
 10
1246.921757396425
 20
-249.7977723914819
 30
0.0
 40
3.2
  1
定格　電流
 41
0.8
  7
高3.2
100
AcDbText
  0
TEXT
  5
44F9
330
1F
100
AcDbEntity
  8
0
 62
     3
100
AcDbText
 10
1246.921757396425
 20
-244.2977723914818
 30
0.0
 40
3.2
  1
入力電圧範囲
 41
0.8
  7
高3.2
100
AcDbText
  0
TEXT
  5
44FA
330
1F
100
AcDbEntity
  8
0
 62
     3
100
AcDbText
 10
1246.921757396425
 20
-238.7977723914818
 30
0.0
 40
3.2
  1
周　波　数
 41
0.8
  7
高3.2
100
AcDbText
  0
TEXT
  5
44FB
330
1F
100
AcDbEntity
  8
0
 62
     3
100
AcDbText
 10
1246.921757396425
 20
-233.2977723914818
 30
0.0
 40
3.2
  1
定格　電圧
 41
0.8
  7
高3.2
100
AcDbText
  0
TEXT
  5
44FC
330
1F
100
AcDbEntity
  8
0
 62
     3
100
AcDbText
 10
1246.921757396425
 20
-227.7977723914818
 30
0.0
 40
3.2
  1
照射　角度
 41
0.8
  7
高3.2
100
AcDbText
  0
TEXT
  5
44FD
330
1F
100
AcDbEntity
  8
0
 62
     3
100
AcDbText
 10
1246.921757396425
 20
-216.7977723914818
 30
0.0
 40
3.2
  1
色　温　度
 41
0.8
  7
高3.2
100
AcDbText
  0
TEXT
  5
44FE
330
1F
100
AcDbEntity
  8
0
 62
     3
100
AcDbText
 10
1246.921757396425
 20
-211.2977723914818
 30
0.0
 40
3.2
  1
定格　光束
 41
0.8
  7
高3.2
100
AcDbText
  0
TEXT
  5
44FF
330
1F
100
AcDbEntity
  8
0
 62
     3
100
AcDbText
 10
1246.921757396425
 20
-205.7977723914818
 30
0.0
 40
3.2
  1
光　　　源
 41
0.8
  7
高3.2
100
AcDbText
  0
TEXT
  5
4500
330
1F
100
AcDbEntity
  8
0
 62
     3
100
AcDbText
 10
1246.921757396425
 20
-189.2977723914818
 30
0.0
 40
3.2
  1
本　体　色
 41
0.8
  7
高3.2
100
AcDbText
  0
TEXT
  5
4501
330
1F
100
AcDbEntity
  8
0
 62
     3
100
AcDbText
 10
1246.921757396425
 20
-222.2977723914818
 30
0.0
 40
3.2
  1
平均演色評価数
 41
0.6
  7
高3.2
100
AcDbText
  0
TEXT
  5
4502
330
1F
100
AcDbEntity
  8
0
 62
     3
100
AcDbText
 10
1246.921757396425
 20
-266.2977723914819
 30
0.0
 40
3.2
  1
照度
 41
0.8
  7
高3.2
100
AcDbText
  0
LINE
  5
4503
330
1F
100
AcDbEntity
  8
0
 62
     7
100
AcDbLine
 10
1245.421757396426
 20
-217.7977723914818
 30
0.0
 11
1321.321757396426
 21
-217.7977723914818
 31
0.0
  0
LINE
  5
4504
330
1F
100
AcDbEntity
  8
0
 62
     7
100
AcDbLine
 10
1245.421757396426
 20
-212.2977723914818
 30
0.0
 11
1321.321757396426
 21
-212.2977723914818
 31
0.0
  0
LINE
  5
4505
330
1F
100
AcDbEntity
  8
0
 62
     7
100
AcDbLine
 10
1245.421757396426
 20
-206.7977723914818
 30
0.0
 11
1321.321757396426
 21
-206.7977723914818
 31
0.0
  0
LINE
  5
4506
330
1F
100
AcDbEntity
  8
0
 62
     7
100
AcDbLine
 10
1245.421757396426
 20
-195.7977723914817
 30
0.0
 11
1321.321757396426
 21
-195.7977723914817
 31
0.0
  0
LINE
  5
4507
330
1F
100
AcDbEntity
  8
0
 62
     7
100
AcDbLine
 10
1245.421757396426
 20
-190.2977723914818
 30
0.0
 11
1321.321757396426
 21
-190.2977723914818
 31
0.0
  0
TEXT
  5
4508
330
1F
100
AcDbEntity
  8
0
 62
     3
100
AcDbText
 10
1246.921757396425
 20
-194.7977723914818
 30
0.0
 40
3.2
  1
使用　場所
 41
0.8
  7
高3.2
100
AcDbText
  0
LINE
  5
4509
330
1F
100
AcDbEntity
  8
0
 62
     7
100
AcDbLine
 10
1245.421757396426
 20
-184.7977723914818
 30
0.0
 11
1321.321757396426
 21
-184.7977723914818
 31
0.0
  0
LINE
  5
450A
330
1F
100
AcDbEntity
  8
0
100
AcDbLine
 10
1255.812747866094
 20
-261.7977723914818
 30
0.0
 11
1255.812747866094
 21
-289.2977723914819
 31
0.0
  0
TEXT
  5
450B
330
1F
100
AcDbEntity
  8
0
 62
     3
100
AcDbText
 10
1257.312747866093
 20
-266.2977723914819
 30
0.0
 40
3.2
  1
1m
 41
0.8
  7
高3.2
100
AcDbText
  0
TEXT
  5
450C
330
1F
100
AcDbEntity
  8
0
 62
     3
100
AcDbText
 10
1257.312747866093
 20
-271.7977723914818
 30
0.0
 40
3.2
  1
2m
 41
0.8
  7
高3.2
100
AcDbText
  0
TEXT
  5
450D
330
1F
100
AcDbEntity
  8
0
 62
     3
100
AcDbText
 10
1257.312747866093
 20
-277.297772391482
 30
0.0
 40
3.2
  1
3m
 41
0.8
  7
高3.2
100
AcDbText
  0
TEXT
  5
450E
330
1F
100
AcDbEntity
  8
0
 62
     3
100
AcDbText
 10
1257.312747866093
 20
-282.7977723914818
 30
0.0
 40
3.2
  1
4m
 41
0.8
  7
高3.2
100
AcDbText
  0
TEXT
  5
450F
330
1F
100
AcDbEntity
  8
0
 62
     3
100
AcDbText
 10
1257.312747866093
 20
-288.2977723914818
 30
0.0
 40
3.2
  1
5m
 41
0.8
  7
高3.2
100
AcDbText
  0
LINE
  5
4510
330
1F
100
AcDbEntity
  8
0
 62
     3
100
AcDbLine
 10
1245.421757396426
 20
-316.7977723914817
 30
0.0
 11
1321.321757396426
 21
-316.7977723914817
 31
0.0
  0
TEXT
  5
4511
330
1F
100
AcDbEntity
  8
0
 62
     3
100
AcDbText
 10
1268.370315064693
 20
-194.7977723914818
 30
0.0
 40
3.2
  1
屋外型
 41
0.8
  7
高3.2
100
AcDbText
  0
TEXT
  5
4513
330
1F
100
AcDbEntity
  8
0
 62
     3
100
AcDbText
 10
1268.370315064693
 20
-205.7977723914818
 30
0.0
 40
3.2
  1
LED50W
 41
0.8
  7
高3.2
100
AcDbText
  0
TEXT
  5
4514
330
1F
100
AcDbEntity
  8
0
 62
     3
100
AcDbText
 10
1268.370315064693
 20
-211.2977723914818
 30
0.0
 40
3.2
  1
6650Lm
 41
0.8
  7
高3.2
100
AcDbText
  0
TEXT
  5
4515
330
1F
100
AcDbEntity
  8
0
 62
     3
100
AcDbText
 10
1268.370315064693
 20
-216.7977723914818
 30
0.0
 40
3.2
  1
3000K
 41
0.8
  7
高3.2
100
AcDbText
  0
TEXT
  5
4516
330
1F
100
AcDbEntity
  8
0
 62
     3
100
AcDbText
 10
1268.370315064693
 20
-222.2977723914818
 30
0.0
 40
3.2
  1
Ra87
 41
0.8
  7
高3.2
100
AcDbText
  0
TEXT
  5
4517
330
1F
100
AcDbEntity
  8
0
 62
     3
100
AcDbText
 10
1268.370315064693
 20
-227.7977723914818
 30
0.0
 40
3.2
  1
60\U+00B0(1/2ビーム角)　100\U+00B0(1/10ビーム角)
 41
0.6
  7
高3.2
100
AcDbText
  0
TEXT
  5
4518
330
1F
100
AcDbEntity
  8
0
 62
     3
100
AcDbText
 10
1268.370315064693
 20
-233.2977723914818
 30
0.0
 40
3.2
  1
AC100V (AC200V)
 41
0.8
  7
高3.2
100
AcDbText
  0
TEXT
  5
4519
330
1F
100
AcDbEntity
  8
0
 62
     3
100
AcDbText
 10
1268.370315064693
 20
-238.7977723914818
 30
0.0
 40
3.2
  1
50/60Hz
 41
0.8
  7
高3.2
100
AcDbText
  0
TEXT
  5
451A
330
1F
100
AcDbEntity
  8
0
 62
     3
100
AcDbText
 10
1268.370315064693
 20
-244.2977723914818
 30
0.0
 40
3.2
  1
AC90～264V
 41
0.8
  7
高3.2
100
AcDbText
  0
TEXT
  5
451B
330
1F
100
AcDbEntity
  8
0
 62
     3
100
AcDbText
 10
1268.370315064693
 20
-249.7977723914819
 30
0.0
 40
3.2
  1
0.54A (0.29A)
 41
0.8
  7
高3.2
100
AcDbText
  0
TEXT
  5
451C
330
1F
100
AcDbEntity
  8
0
 62
     3
100
AcDbText
 10
1268.370315064693
 20
-255.2977723914818
 30
0.0
 40
3.2
  1
52W (51W)
 41
0.8
  7
高3.2
100
AcDbText
  0
TEXT
  5
451D
330
1F
100
AcDbEntity
  8
0
 62
     3
100
AcDbText
 10
1268.370315064693
 20
-260.797772391482
 30
0.0
 40
3.2
  1
127.8Lm/W (130.3Lm/W)
 41
0.8
  7
高3.2
100
AcDbText
  0
TEXT
  5
451E
330
1F
100
AcDbEntity
  8
0
 62
     3
100
AcDbText
 10
1268.370315064693
 20
-266.2977723914819
 30
0.0
 40
3.2
  1
7830Lx
 41
0.8
  7
高3.2
100
AcDbText
  0
TEXT
  5
451F
330
1F
100
AcDbEntity
  8
0
 62
     3
100
AcDbText
 10
1268.370315064693
 20
-271.7977723914818
 30
0.0
 40
3.2
  1
2020Lx
 41
0.8
  7
高3.2
100
AcDbText
  0
TEXT
  5
4520
330
1F
100
AcDbEntity
  8
0
 62
     3
100
AcDbText
 10
1268.370315064693
 20
-277.297772391482
 30
0.0
 40
3.2
  1
910Lx
 41
0.8
  7
高3.2
100
AcDbText
  0
TEXT
  5
4521
330
1F
100
AcDbEntity
  8
0
 62
     3
100
AcDbText
 10
1268.370315064693
 20
-282.7977723914818
 30
0.0
 40
3.2
  1
530Lx
 41
0.8
  7
高3.2
100
AcDbText
  0
TEXT
  5
4522
330
1F
100
AcDbEntity
  8
0
 62
     3
100
AcDbText
 10
1268.370315064693
 20
-288.2977723914818
 30
0.0
 40
3.2
  1
360Lx
 41
0.8
  7
高3.2
100
AcDbText
  0
TEXT
  5
4523
330
1F
100
AcDbEntity
  8
0
 62
     3
100
AcDbText
 10
1268.370315064693
 20
-293.7977723914819
 30
0.0
 40
3.2
  1
IP65
 41
0.8
  7
高3.2
100
AcDbText
  0
TEXT
  5
4524
330
1F
100
AcDbEntity
  8
0
 62
     3
100
AcDbText
 10
1268.370315064693
 20
-299.297772391482
 30
0.0
 40
3.2
  1
50000H
 41
0.8
  7
高3.2
100
AcDbText
  0
TEXT
  5
4525
330
1F
100
AcDbEntity
  8
0
 62
     3
100
AcDbText
 10
1268.370315064693
 20
-304.797772391482
 30
0.0
 40
3.2
  1
-30～45℃
 41
0.8
  7
高3.2
100
AcDbText
  0
LINE
  5
4526
330
1F
100
AcDbEntity
  8
0
 62
     3
100
AcDbLine
 10
1245.421757396426
 20
-179.2977723914818
 30
0.0
 11
1245.421757396426
 21
-316.7977723914817
 31
0.0
  0
LINE
  5
4527
330
1F
100
AcDbEntity
  8
0
 62
     7
100
AcDbLine
 10
1266.870315064693
 20
-316.7977723914817
 30
0.0
 11
1266.870315064693
 21
-179.2977723914818
 31
0.0
  0
LINE
  5
4528
330
1F
100
AcDbEntity
  8
0
 62
     3
100
AcDbLine
 10
1321.321757396426
 20
-316.7977723914817
 30
0.0
 11
1321.321757396426
 21
-179.2977723914818
 31
0.0
  0
TEXT
  5
4529
330
1F
100
AcDbEntity
  8
0
 62
     3
100
AcDbText
 10
1264.590134878555
 20
-174.5639605144519
 30
0.0
 40
4.5
  1
主　　仕　　様
  7
高4.5
100
AcDbText
  0
LINE
  5
452A
330
1F
100
AcDbEntity
  8
0
100
AcDbLine
 10
1263.489220510801
 20
-175.4297135982946
 30
0.0
 11
1302.081440790487
 21
-175.4297135982946
 31
0.0
  0
TEXT
  5
452B
330
1F
100
AcDbEntity
  8
0
 62
     7
100
AcDbText
 10
1244.291847060348
 20
-330.0736364319176
 30
0.0
 40
2.0
  1
注４）照度は当社実測値の為、使用環境下により異なります。
  7
高2
100
AcDbText
  0
TEXT
  5
452C
330
1F
100
AcDbEntity
  8
0
 62
     7
100
AcDbText
 10
1244.291847060348
 20
-333.0736364319176
 30
0.0
 40
2.0
  1
注５）球寿命は光束が70%%%に低下するまでの時間です。
  7
高2
100
AcDbText
  0
TEXT
  5
452D
330
1F
100
AcDbEntity
  8
0
 62
     7
100
AcDbText
 10
1244.291847060348
 20
-336.0736364319176
 30
0.0
 40
2.0
  1
　　　表示は設計値であり、製品の寿命を保証するものではありません。
  7
高2
100
AcDbText
  0
TEXT
  5
452E
330
1F
100
AcDbEntity
  8
0
 62
     7
100
AcDbText
 10
1244.291847060348
 20
-327.0736364319176
 30
0.0
 40
2.0
  1
注３）()内数値は入力200Vでの値です。
  7
高2
100
AcDbText
  0
TEXT
  5
452F
330
1F
100
AcDbEntity
  8
0
 62
     7
100
AcDbText
 10
1244.291847060348
 20
-324.0736364319176
 30
0.0
 40
2.0
  1
注２）LEDの光色、明るさにはバラツキがあります。
  7
高2
100
AcDbText
  0
TEXT
  5
4530
330
1F
100
AcDbEntity
  8
0
 62
     7
100
AcDbText
 10
1244.291847060348
 20
-321.0736364319176
 30
0.0
 40
2.0
  1
注１）当器具のLED素子交換はできません。
  7
高2
100
AcDbText
  0
TEXT
  5
4531
330
1F
100
AcDbEntity
  8
0
 62
     7
100
AcDbText
 10
1244.291847060348
 20
-339.0736364319177
 30
0.0
 40
2.0
  1
注６）安全にご使用いただくため、取扱説明書をご参照ください。
  7
高2
100
AcDbText
  0
TEXT
  5
4532
330
1F
100
AcDbEntity
  8
0
 62
     3
100
AcDbText
 10
1246.921757396425
 20
-183.7977723914818
 30
0.0
 40
3.2
  1
型　　　式
 41
0.8
  7
高3.2
100
AcDbText
  0
LINE
  5
4533
330
1F
100
AcDbEntity
  8
0
 62
     3
100
AcDbLine
 10
1245.421757396426
 20
-179.2977723914818
 30
0.0
 11
1321.321757396426
 21
-179.2977723914818
 31
0.0
  0
TEXT
  5
4535
330
1F
100
AcDbEntity
  8
0
 62
     7
100
AcDbText
 10
1244.291847060348
 20
-342.0736364319176
 30
0.0
 40
2.0
  1
注７）仕様変更は予告なく行う場合があります。予めご了承ください。
  7
高2
100
AcDbText
  0
TEXT
  5
4536
330
1F
100
AcDbEntity
  8
0
 62
     3
100
AcDbText
 10
1246.921757396425
 20
-200.2977723914818
 30
0.0
 40
3.2
  1
口金サイズ
 41
0.8
  7
高3.2
100
AcDbText
  0
LINE
  5
4537
330
1F
100
AcDbEntity
  8
0
 62
     7
100
AcDbLine
 10
1245.421757396426
 20
-201.2977723914818
 30
0.0
 11
1321.321757396426
 21
-201.2977723914818
 31
0.0
  0
TEXT
  5
4538
330
1F
100
AcDbEntity
  8
0
 62
     3
100
AcDbText
 10
1268.370315064693
 20
-200.2977723914818
 30
0.0
 40
3.2
  1
E39
 41
0.8
  7
高3.2
100
AcDbText
  0
TEXT
  5
453A
330
1F
100
AcDbEntity
  8
0
 62
     3
100
AcDbText
 10
1268.370315064692
 20
-183.7977723914818
 30
0.0
 40
3.2
  1
L50W-E39-SW-30K-N
 41
0.8
  7
高3.2
100
AcDbText
  0
TEXT
  5
453B
330
1F
100
AcDbEntity
  8
0
 62
     3
100
AcDbText
 10
1268.370315064692
 20
-189.2977723914818
 30
0.0
 40
3.2
  1
白
 41
0.8
  7
高3.2
100
AcDbText
  0
TEXT
  5
453C
330
1F
100
AcDbEntity
  8
0
 62
     3
100
AcDbText
 10
1268.370315064693
 20
-310.2977723914819
 30
0.0
 40
3.2
  1
1.3kg
 41
0.8
  7
高3.2
100
AcDbText
  0
TEXT
  5
453D
330
1F
100
AcDbEntity
  8
0
 62
     3
100
AcDbText
 10
1246.921757396425
 20
-310.2977723914819
 30
0.0
 40
3.2
  1
質　　　量
 41
0.8
  7
高3.2
100
AcDbText
  0
LINE
  5
453E
330
1F
100
AcDbEntity
  8
0
 62
     7
100
AcDbLine
 10
1245.421757396426
 20
-311.2977723914818
 30
0.0
 11
1321.321757396425
 21
-311.2977723914818
 31
0.0
  0
TEXT
  5
4636
330
1F
100
AcDbEntity
  8
0
 62
     3
100
AcDbText
 10
1313.078478478963
 20
-147.4301767376315
 30
0.0
 40
3.2
  1
担　当
  7
高3.2
100
AcDbText
  0
TEXT
  5
4637
330
1F
100
AcDbEntity
  8
0
 62
     3
100
AcDbText
 10
1269.078478478963
 20
-147.4301767376315
 30
0.0
 40
3.2
  1
変更・追記内容
  7
高3.2
100
AcDbText
  0
TEXT
  5
4638
330
1F
100
AcDbEntity
  8
0
 62
     3
100
AcDbText
 10
1244.191993479303
 20
-152.1007152475398
 30
0.0
 40
2.0
  1
1
  7
高2
100
AcDbText
  0
TEXT
  5
4639
330
1F
100
AcDbEntity
  8
0
 62
     3
100
AcDbText
 10
1243.883482002545
 20
-157.2705319598128
 30
0.0
 40
2.0
  1
2
  7
高2
100
AcDbText
  0
TEXT
  5
463A
330
1F
100
AcDbEntity
  8
0
 62
     3
100
AcDbText
 10
1251.078478478963
 20
-147.4301767376315
 30
0.0
 40
3.2
  1
日　付
  7
高3.2
100
AcDbText
  0
TEXT
  5
463B
330
1F
100
AcDbEntity
  8
0
 62
     3
100
AcDbText
 10
1251.078478478963
 20
-142.4301767376315
 30
0.0
 40
3.2
  1
図　　　　面　　　　略　　　　歴
  7
高3.2
100
AcDbText
  0
TEXT
  5
463C
330
1F
100
AcDbEntity
  8
0
 62
     3
100
AcDbText
 10
1241.078478478963
 20
-147.4301767376315
 30
0.0
 40
3.2
  1
記号
  7
高3.2
100
AcDbText
  0
LINE
  5
463D
330
1F
100
AcDbEntity
  8
0
100
AcDbLine
 10
1244.578478478963
 20
-154.1392807376315
 30
0.0
 11
1242.678478478963
 21
-157.4301767376315
 31
0.0
  0
LINE
  5
463E
330
1F
100
AcDbEntity
  8
0
100
AcDbLine
 10
1244.578478478963
 20
-154.1392807376315
 30
0.0
 11
1246.478478478963
 21
-157.4301767376315
 31
0.0
  0
LINE
  5
463F
330
1F
100
AcDbEntity
  8
0
100
AcDbLine
 10
1242.678478478963
 20
-157.4301767376315
 30
0.0
 11
1246.478478478963
 21
-157.4301767376315
 31
0.0
  0
LINE
  5
4640
330
1F
100
AcDbEntity
  8
0
100
AcDbLine
 10
1244.578478478963
 20
-149.1392797376315
 30
0.0
 11
1242.678478478963
 21
-152.4301767376315
 31
0.0
  0
LINE
  5
4641
330
1F
100
AcDbEntity
  8
0
100
AcDbLine
 10
1244.578478478963
 20
-149.1392797376315
 30
0.0
 11
1246.478478478963
 21
-152.4301767376315
 31
0.0
  0
LINE
  5
4642
330
1F
100
AcDbEntity
  8
0
100
AcDbLine
 10
1242.678478478963
 20
-152.4301767376315
 30
0.0
 11
1246.478478478963
 21
-152.4301767376315
 31
0.0
  0
LINE
  5
4643
330
1F
100
AcDbEntity
  8
0
 62
     3
100
AcDbLine
 10
1239.578478478963
 20
-142.9301767376315
 30
0.0
 11
1325.578478478963
 21
-142.9301767376315
 31
0.0
  0
LINE
  5
4644
330
1F
100
AcDbEntity
  8
0
 62
     3
100
AcDbLine
 10
1239.578478478963
 20
-147.9301767376315
 30
0.0
 11
1325.578478478963
 21
-147.9301767376315
 31
0.0
  0
LINE
  5
4645
330
1F
100
AcDbEntity
  8
0
 62
     7
100
AcDbLine
 10
1239.578478478963
 20
-152.9301767376315
 30
0.0
 11
1325.578478478963
 21
-152.9301767376315
 31
0.0
  0
LINE
  5
4646
330
1F
100
AcDbEntity
  8
0
 62
     3
100
AcDbLine
 10
1239.578478478963
 20
-157.9301767376315
 30
0.0
 11
1325.578478478963
 21
-157.9301767376315
 31
0.0
  0
LINE
  5
4647
330
1F
100
AcDbEntity
  8
0
 62
     7
100
AcDbLine
 10
1311.578478478963
 20
-157.9301767376315
 30
0.0
 11
1311.578478478963
 21
-142.9301767376315
 31
0.0
  0
LINE
  5
4648
330
1F
100
AcDbEntity
  8
0
 62
     7
100
AcDbLine
 10
1267.578478478963
 20
-157.9301767376315
 30
0.0
 11
1267.578478478963
 21
-142.9301767376315
 31
0.0
  0
LINE
  5
4649
330
1F
100
AcDbEntity
  8
0
 62
     7
100
AcDbLine
 10
1249.578478478963
 20
-157.9301767376315
 30
0.0
 11
1249.578478478963
 21
-142.9301767376315
 31
0.0
  0
LINE
  5
464A
330
1F
100
AcDbEntity
  8
0
 62
     3
100
AcDbLine
 10
1239.578478478963
 20
-157.9301767376315
 30
0.0
 11
1239.578478478963
 21
-137.9301767376316
 31
0.0
  0
LINE
  5
4662
330
1F
100
AcDbEntity
  8
0
 62
     3
100
AcDbLine
 10
1273.578478478963
 20
-374.9301764272012
 30
0.0
 11
1273.578478478963
 21
-368.930176427201
 31
0.0
  0
LINE
  5
4663
330
1F
100
AcDbEntity
  8
0
 62
     3
100
AcDbLine
 10
1299.578478478963
 20
-374.9301764272012
 30
0.0
 11
1299.578478478963
 21
-368.930176427201
 31
0.0
  0
LINE
  5
4664
330
1F
100
AcDbEntity
  8
0
 62
     3
100
AcDbLine
 10
1325.578478478963
 20
-368.930176427201
 30
0.0
 11
1273.578478478963
 21
-368.930176427201
 31
0.0
  0
TEXT
  5
466A
330
1F
100
AcDbEntity
  8
0
 62
     3
100
AcDbText
 10
1275.078478478963
 20
-374.4301764272013
 30
0.0
 40
4.5
  1
コード
  7
高4.5
100
AcDbText
  0
TEXT
  5
4672
330
1F
100
AcDbEntity
  8
0
 62
     3
100
AcDbText
 10
1304.109559780977
 20
-374.4301764272012
 30
0.0
 40
4.5
  1
14117
  7
高4.5
100
AcDbText
  0
CIRCLE
  5
4864
330
1F
100
AcDbEntity
  8
0
 62
     7
100
AcDbCircle
 10
1188.598039240024
 20
-311.5093298429593
 30
0.0
 40
25.33333333333333
  0
CIRCLE
  5
4865
330
1F
100
AcDbEntity
  8
0
 62
     3
100
AcDbCircle
 10
1188.598039240024
 20
-311.5093298429593
 30
0.0
 40
27.50000000000019
  0
LINE
  5
4866
330
1F
100
AcDbEntity
  8
0
 62
     3
100
AcDbLine
 10
1216.098039240025
 20
-243.8360863901249
 30
0.0
 11
1216.098039240025
 21
-240.5027530567915
 31
0.0
  0
LINE
  5
4867
330
1F
100
AcDbEntity
  8
0
 62
     3
100
AcDbLine
 10
1161.098039240024
 20
-240.5027530567915
 30
0.0
 11
1161.098039240024
 21
-243.8360863901249
 31
0.0
  0
ARC
  5
4868
330
1F
100
AcDbEntity
  8
0
 62
     3
100
AcDbCircle
 10
1186.09932843364
 20
-239.8835147968206
 30
0.0
 40
26.66666666666668
100
AcDbArc
 50
35.66383893983657
 51
57.06401612336884
  0
ARC
  5
4869
330
1F
100
AcDbEntity
  8
0
 62
     3
100
AcDbCircle
 10
1191.096750046409
 20
-239.8835147968206
 30
0.0
 40
26.66666666666666
100
AcDbArc
 50
122.935983876631
 51
144.3361610601634
  0
ARC
  5
486A
330
1F
100
AcDbEntity
  8
0
 62
     3
100
AcDbCircle
 10
1177.098039240024
 20
-214.0027530567915
 30
0.0
 40
0.5
100
AcDbArc
 50
90.0
 51
180.0
  0
ARC
  5
486B
330
1F
100
AcDbEntity
  8
0
 62
     3
100
AcDbCircle
 10
1200.098039240024
 20
-214.0027530567915
 30
0.0
 40
0.5
100
AcDbArc
 50
0.0
 51
90.0
  0
LINE
  5
486C
330
1F
100
AcDbEntity
  8
0
 62
     3
100
AcDbLine
 10
1200.598039240024
 20
-217.5027530567917
 30
0.0
 11
1200.598039240024
 21
-214.0027530567915
 31
0.0
  0
LINE
  5
486D
330
1F
100
AcDbEntity
  8
0
 62
     3
100
AcDbLine
 10
1176.598039240025
 20
-214.0027530567915
 30
0.0
 11
1176.598039240025
 21
-217.5027530567917
 31
0.0
  0
LINE
  5
486E
330
1F
100
AcDbEntity
  8
0
 62
     3
100
AcDbLine
 10
1198.431372573358
 20
-213.5027530567917
 30
0.0
 11
1198.34964254293
 21
-202.0605487969289
 31
0.0
  0
LINE
  5
486F
330
1F
100
AcDbEntity
  8
0
 62
     3
100
AcDbLine
 10
1178.846435937119
 20
-202.0605487969289
 30
0.0
 11
1178.764705906691
 21
-213.5027530567917
 31
0.0
  0
ARC
  5
4870
330
1F
100
AcDbEntity
  8
0
 62
     3
100
AcDbCircle
 10
1197.682992882415
 20
-202.065310580218
 30
0.0
 40
0.6666666666666714
100
AcDbArc
 50
0.4092486080109898
 51
37.62623363866497
  0
ARC
  5
4871
330
1F
100
AcDbEntity
  8
0
 62
     3
100
AcDbCircle
 10
1179.513085597633
 20
-202.065310580218
 30
0.0
 40
0.6666666666666649
100
AcDbArc
 50
142.373766361335
 51
179.590751391989
  0
LINE
  5
4872
330
1F
100
AcDbEntity
  8
0
 62
     3
100
AcDbLine
 10
1198.210999680547
 20
-201.6583053399918
 30
0.0
 11
1195.264705906691
 21
-197.8360863901249
 31
0.0
  0
LINE
  5
4873
330
1F
100
AcDbEntity
  8
0
 62
     3
100
AcDbLine
 10
1181.931372573358
 20
-197.8360863901249
 30
0.0
 11
1178.985078799502
 21
-201.6583053399918
 31
0.0
  0
SPLINE
  5
4874
330
1F
100
AcDbEntity
  8
0
 62
     7
100
AcDbSpline
210
0.0
220
0.0
230
1.0
 70
     8
 71
     3
 72
    11
 73
     7
 74
     0
 42
0.0000000001
 43
0.0000000001
 40
0.0
 40
0.0
 40
0.0
 40
0.0
 40
0.2457368990040056
 40
0.4974959653356802
 40
0.7507199712319216
 40
1.0
 40
1.0
 40
1.0
 40
1.0
 10
1194.431372573358
 20
-194.8360863901246
 30
0.0
 10
1194.438977738978
 20
-194.751219082431
 30
0.0
 10
1194.454374446705
 20
-194.5794046608376
 30
0.0
 10
1194.561355194757
 20
-194.3653539895631
 30
0.0
 10
1194.700106789684
 20
-194.1999431020992
 30
0.0
 10
1194.801755702104
 20
-194.1344466309704
 30
0.0
 10
1194.852181255063
 20
-194.1019554247691
 30
0.0
  0
ARC
  5
4875
330
1F
100
AcDbEntity
  8
0
 62
     7
100
AcDbCircle
 10
1182.935793889525
 20
-187.5027509531629
 30
0.0
 40
0.3333312296498412
100
AcDbArc
 50
89.98956724379338
 51
148.2463808528364
  0
ARC
  5
4876
330
1F
100
AcDbEntity
  8
0
 62
     7
100
AcDbCircle
 10
1194.224158318273
 20
-187.5027530470116
 30
0.0
 40
0.3333333235471783
100
AcDbArc
 50
331.2469085810735
 51
90.00159237561708
  0
SPLINE
  5
4877
330
1F
100
AcDbEntity
  8
0
 62
     7
100
AcDbSpline
210
0.0
220
0.0
230
1.0
 70
     8
 71
     3
 72
     9
 73
     5
 74
     0
 42
0.0000000001
 43
0.0000000001
 40
0.0
 40
0.0
 40
0.0
 40
0.0
 40
0.5036067025240226
 40
1.0
 40
1.0
 40
1.0
 40
1.0
 10
1182.09803924022
 20
-188.0360891401284
 30
0.0
 10
1182.110137067774
 20
-188.117283812986
 30
0.0
 10
1182.134159439785
 20
-188.2785101677005
 30
0.0
 10
1182.275454609108
 20
-188.3845401455278
 30
0.0
 10
1182.345592584125
 20
-188.4371727158526
 30
0.0
  0
SPLINE
  5
4878
330
1F
100
AcDbEntity
  8
0
 62
     7
100
AcDbSpline
210
0.0
220
0.0
230
1.0
 70
     8
 71
     3
 72
     9
 73
     5
 74
     0
 42
0.0000000001
 43
0.0000000001
 40
0.0
 40
0.0
 40
0.0
 40
0.0
 40
0.5036066838050375
 40
1.0
 40
1.0
 40
1.0
 40
1.0
 10
1182.098039240071
 20
-190.3027544074461
 30
0.0
 10
1182.1101366539
 20
-190.3839491266235
 30
0.0
 10
1182.134158205278
 20
-190.5451755793066
 30
0.0
 10
1182.27545286745
 20
-190.6512056513358
 30
0.0
 10
1182.345590593367
 20
-190.7038382704068
 30
0.0
  0
SPLINE
  5
4879
330
1F
100
AcDbEntity
  8
0
 62
     7
100
AcDbSpline
210
0.0
220
0.0
230
1.0
 70
     8
 71
     3
 72
     9
 73
     5
 74
     0
 42
0.0000000001
 43
0.0000000001
 40
0.0
 40
0.0
 40
0.0
 40
0.0
 40
0.5036066672147116
 40
1.0
 40
1.0
 40
1.0
 40
1.0
 10
1182.098039240027
 20
-192.569420066208
 30
0.0
 10
1182.110136282945
 20
-192.6506146636912
 30
0.0
 10
1182.134157098604
 20
-192.8118408800403
 30
0.0
 10
1182.275450402899
 20
-192.9178706928339
 30
0.0
 10
1182.345587457119
 20
-192.9705031849811
 30
0.0
  0
SPLINE
  5
487A
330
1F
100
AcDbEntity
  8
0
 62
     7
100
AcDbSpline
210
0.0
220
0.0
230
1.0
 70
     8
 71
     3
 72
     9
 73
     5
 74
     0
 42
0.0000000001
 43
0.0000000001
 40
0.0
 40
0.0
 40
0.0
 40
0.0
 40
0.4963948516298528
 40
1.0
 40
1.0
 40
1.0
 40
1.0
 10
1194.851195610776
 20
-191.8367741474345
 30
0.0
 10
1194.921130513023
 20
-191.7842079094246
 30
0.0
 10
1195.062016144729
 20
-191.6783118916935
 30
0.0
 10
1195.08597395987
 20
-191.5172110584898
 30
0.0
 10
1195.098039238919
 20
-191.4360798494818
 30
0.0
  0
SPLINE
  5
487B
330
1F
100
AcDbEntity
  8
0
 62
     7
100
AcDbSpline
210
0.0
220
0.0
230
1.0
 70
     8
 71
     3
 72
     9
 73
     5
 74
     0
 42
0.0000000001
 43
0.0000000001
 40
0.0
 40
0.0
 40
0.0
 40
0.0
 40
0.4963948290794784
 40
1.0
 40
1.0
 40
1.0
 40
1.0
 10
1194.851159413133
 20
-189.5701279117095
 30
0.0
 10
1194.921106199661
 20
-189.5175571475752
 30
0.0
 10
1195.062015778952
 20
-189.4116520070408
 30
0.0
 10
1195.085973834976
 20
-189.2505425870909
 30
0.0
 10
1195.098039235875
 20
-189.16940705012
 30
0.0
  0
LINE
  5
487C
330
1F
100
AcDbEntity
  8
0
 62
     7
100
AcDbLine
 10
1195.098039240024
 20
-197.8360863901249
 30
0.0
 11
1195.098039240024
 21
-195.9694197234583
 31
0.0
  0
LINE
  5
487D
330
1F
100
AcDbEntity
  8
0
 62
     7
100
AcDbLine
 10
1182.098039240025
 20
-195.9694197234583
 30
0.0
 11
1182.098039240025
 21
-197.8360863901249
 31
0.0
  0
LINE
  5
487E
330
1F
100
AcDbEntity
  8
0
 62
     7
100
AcDbLine
 10
1182.098039240025
 20
-194.8360863901249
 30
0.0
 11
1182.098039240025
 21
-195.9694197234583
 31
0.0
  0
SPLINE
  5
487F
330
1F
100
AcDbEntity
  8
0
 62
     7
100
AcDbSpline
210
0.0
220
0.0
230
1.0
 70
     8
 71
     3
 72
     9
 73
     5
 74
     0
 42
0.0000000001
 43
0.0000000001
 40
0.0
 40
0.0
 40
0.0
 40
0.0
 40
0.4963942349401516
 40
1.0
 40
1.0
 40
1.0
 40
1.0
 10
1182.345352340585
 20
-187.6351345105268
 30
0.0
 10
1182.275273079184
 20
-187.687752050241
 30
0.0
 10
1182.134096456918
 20
-187.7937515482416
 30
0.0
 10
1182.110115990217
 20
-187.9549496226456
 30
0.0
 10
1182.098039288938
 20
-188.036129902232
 30
0.0
  0
SPLINE
  5
4880
330
1F
100
AcDbEntity
  8
0
 62
     7
100
AcDbSpline
210
0.0
220
0.0
230
1.0
 70
     8
 71
     3
 72
     9
 73
     5
 74
     0
 42
0.0000000001
 43
0.0000000001
 40
0.0
 40
0.0
 40
0.0
 40
0.0
 40
0.4963943489687381
 40
1.0
 40
1.0
 40
1.0
 40
1.0
 10
1182.345270928524
 20
-189.9018468463365
 30
0.0
 10
1182.275216228592
 20
-189.9544558657715
 30
0.0
 10
1182.134089118506
 20
-190.0604381750873
 30
0.0
 10
1182.110113524363
 20
-190.221620100114
 30
0.0
 10
1182.098039279666
 20
-190.3027922284018
 30
0.0
  0
SPLINE
  5
4881
330
1F
100
AcDbEntity
  8
0
 62
     7
100
AcDbSpline
210
0.0
220
0.0
230
1.0
 70
     8
 71
     3
 72
     9
 73
     5
 74
     0
 42
0.0000000001
 43
0.0000000001
 40
0.0
 40
0.0
 40
0.0
 40
0.0
 40
0.4963944112626438
 40
1.0
 40
1.0
 40
1.0
 40
1.0
 10
1182.345187831769
 20
-192.1685601844325
 30
0.0
 10
1182.275159569309
 20
-192.221159490932
 30
0.0
 10
1182.13408573594
 20
-192.3271222199756
 30
0.0
 10
1182.110112378359
 20
-192.4882857169112
 30
0.0
 10
1182.098039261499
 20
-192.5694485546684
 30
0.0
  0
SPLINE
  5
4882
330
1F
100
AcDbEntity
  8
0
 62
     7
100
AcDbSpline
210
0.0
220
0.0
230
1.0
 70
     8
 71
     3
 72
     9
 73
     5
 74
     0
 42
0.0000000001
 43
0.0000000001
 40
0.0
 40
0.0
 40
0.0
 40
0.0
 40
0.4963944054616503
 40
1.0
 40
1.0
 40
1.0
 40
1.0
 10
1182.345107204586
 20
-194.4352721909637
 30
0.0
 10
1182.275106268923
 20
-194.4878608278514
 30
0.0
 10
1182.134087484479
 20
-194.5938020639113
 30
0.0
 10
1182.110112952099
 20
-194.7549452979356
 30
0.0
 10
1182.098039243466
 20
-194.8360979321122
 30
0.0
  0
SPLINE
  5
4883
330
1F
100
AcDbEntity
  8
0
 62
     7
100
AcDbSpline
210
0.0
220
0.0
230
1.0
 70
     8
 71
     3
 72
     9
 73
     5
 74
     0
 42
0.0000000001
 43
0.0000000001
 40
0.0
 40
0.0
 40
0.0
 40
0.0
 40
0.5034303937051963
 40
1.0
 40
1.0
 40
1.0
 40
1.0
 10
1195.094587740281
 20
-195.9159002229404
 30
0.0
 10
1195.070813255448
 20
-195.8376817344321
 30
0.0
 10
1195.023588286255
 20
-195.6823107248816
 30
0.0
 10
1194.822696535958
 20
-195.576152516615
 30
0.0
 10
1194.722939798606
 20
-195.523437576931
 30
0.0
  0
SPLINE
  5
4884
330
1F
100
AcDbEntity
  8
0
 62
     7
100
AcDbSpline
210
0.0
220
0.0
230
1.0
 70
     8
 71
     3
 72
     9
 73
     5
 74
     0
 42
0.0000000001
 43
0.0000000001
 40
0.0
 40
0.0
 40
0.0
 40
0.0
 40
0.5036058488009049
 40
1.0
 40
1.0
 40
1.0
 40
1.0
 10
1195.098039236156
 20
-193.7027652933095
 30
0.0
 10
1195.085960330918
 20
-193.6216010631001
 30
0.0
 10
1195.06197549185
 20
-193.4604348844258
 30
0.0
 10
1194.920883306837
 20
-193.3544691757476
 30
0.0
 10
1194.850845971416
 20
-193.3018684177322
 30
0.0
  0
SPLINE
  5
4885
330
1F
100
AcDbEntity
  8
0
 62
     7
100
AcDbSpline
210
0.0
220
0.0
230
1.0
 70
     8
 71
     3
 72
     9
 73
     5
 74
     0
 42
0.0000000001
 43
0.0000000001
 40
0.0
 40
0.0
 40
0.0
 40
0.0
 40
0.5036059943782388
 40
1.0
 40
1.0
 40
1.0
 40
1.0
 10
1195.098039230139
 20
-191.4361059510779
 30
0.0
 10
1195.085957314266
 20
-191.3549304220254
 30
0.0
 10
1195.061966503975
 20
-191.19374185406
 30
0.0
 10
1194.920806477872
 20
-191.0877523204982
 30
0.0
 10
1194.850735487081
 20
-191.0351397513794
 30
0.0
  0
SPLINE
  5
4886
330
1F
100
AcDbEntity
  8
0
 62
     7
100
AcDbSpline
210
0.0
220
0.0
230
1.0
 70
     8
 71
     3
 72
     9
 73
     5
 74
     0
 42
0.0000000001
 43
0.0000000001
 40
0.0
 40
0.0
 40
0.0
 40
0.0
 40
0.5036061094004448
 40
1.0
 40
1.0
 40
1.0
 40
1.0
 10
1195.098039227195
 20
-189.1694420072578
 30
0.0
 10
1195.085954775863
 20
-189.088259252681
 30
0.0
 10
1195.061958936444
 20
-188.92705637396
 30
0.0
 10
1194.92075434319
 20
-188.8210516017992
 30
0.0
 10
1194.850661245775
 20
-188.7684314805243
 30
0.0
  0
SPLINE
  5
4887
330
1F
100
AcDbEntity
  8
0
 62
     7
100
AcDbSpline
210
0.0
220
0.0
230
1.0
 70
     8
 71
     3
 72
     9
 73
     5
 74
     0
 42
0.0000000001
 43
0.0000000001
 40
0.0
 40
0.0
 40
0.0
 40
0.0
 40
0.5054916101427228
 40
1.0
 40
1.0
 40
1.0
 40
1.0
 10
1182.652883338261
 20
-187.326161242008
 30
0.0
 10
1182.608652888126
 20
-187.3919556533394
 30
0.0
 10
1182.521153018202
 20
-187.5221149082334
 30
0.0
 10
1182.403573862711
 20
-187.5977090632007
 30
0.0
 10
1182.345429983848
 20
-187.6350910070562
 30
0.0
  0
SPLINE
  5
4888
330
1F
100
AcDbEntity
  8
0
 62
     7
100
AcDbSpline
210
0.0
220
0.0
230
1.0
 70
     8
 71
     3
 72
    14
 73
    10
 74
     0
 42
0.0000000001
 43
0.0000000001
 40
0.0
 40
0.0
 40
0.0
 40
0.0
 40
0.217625151509925
 40
0.3399076169403028
 40
0.4695225777292266
 40
0.6037452647715976
 40
0.7389960319785489
 40
0.871825191517497
 40
1.0
 40
1.0
 40
1.0
 40
1.0
 10
1182.345277354005
 20
-188.4369962070508
 30
0.0
 10
1182.439951067314
 20
-188.5057794251266
 30
0.0
 10
1182.587821458464
 20
-188.6132115834934
 30
0.0
 10
1182.722178949672
 20
-188.8708930029694
 30
0.0
 10
1182.774643068771
 20
-189.1077000927916
 30
0.0
 10
1182.755981385694
 20
-189.3618593917535
 30
0.0
 10
1182.664850476609
 20
-189.5957831861506
 30
0.0
 10
1182.519658136294
 20
-189.7866315084832
 30
0.0
 10
1182.402695368319
 20
-189.8639063355535
 30
0.0
 10
1182.345256853118
 20
-189.9018547477379
 30
0.0
  0
SPLINE
  5
4889
330
1F
100
AcDbEntity
  8
0
 62
     7
100
AcDbSpline
210
0.0
220
0.0
230
1.0
 70
     8
 71
     3
 72
    13
 73
     9
 74
     0
 42
0.0000000001
 43
0.0000000001
 40
0.0
 40
0.0
 40
0.0
 40
0.0
 40
0.2057883785236247
 40
0.3800690476594867
 40
0.5328042580502734
 40
0.7168678537469613
 40
0.8485871795344712
 40
1.0
 40
1.0
 40
1.0
 40
1.0
 10
1182.345172109375
 20
-190.7036037587862
 30
0.0
 10
1182.431231020607
 20
-190.7646680114631
 30
0.0
 10
1182.590172592862
 20
-190.8774471320698
 30
0.0
 10
1182.746571370687
 20
-191.1789515987184
 30
0.0
 10
1182.782031121568
 20
-191.5259109030646
 30
0.0
 10
1182.696079629332
 20
-191.8109093108997
 30
0.0
 10
1182.533989943392
 20
-192.0412716055933
 30
0.0
 10
1182.411228715966
 20
-192.1240650410443
 30
0.0
 10
1182.345578722017
 20
-192.1683411423048
 30
0.0
  0
SPLINE
  5
488A
330
1F
100
AcDbEntity
  8
0
 62
     7
100
AcDbSpline
210
0.0
220
0.0
230
1.0
 70
     8
 71
     3
 72
    13
 73
     9
 74
     0
 42
0.0000000001
 43
0.0000000001
 40
0.0
 40
0.0
 40
0.0
 40
0.0
 40
0.2057436635911812
 40
0.3800286345522891
 40
0.5328184981754882
 40
0.7169299360032994
 40
0.8486401917944961
 40
1.0
 40
1.0
 40
1.0
 40
1.0
 10
1182.344928921312
 20
-192.9701334718692
 30
0.0
 10
1182.4310675365
 20
-193.0312338754898
 30
0.0
 10
1182.590173968943
 20
-193.1440922865499
 30
0.0
 10
1182.7465994868
 20
-193.4456863489082
 30
0.0
 10
1182.7820278638
 20
-193.7927044748944
 30
0.0
 10
1182.69600975273
 20
-194.0777073244787
 30
0.0
 10
1182.533856323347
 20
-194.3080557338645
 30
0.0
 10
1182.411011899755
 20
-194.3908685852834
 30
0.0
 10
1182.3453260122
 20
-194.4351492737134
 30
0.0
  0
SPLINE
  5
488B
330
1F
100
AcDbEntity
  8
0
 62
     7
100
AcDbSpline
210
0.0
220
0.0
230
1.0
 70
     8
 71
     3
 72
     9
 73
     5
 74
     0
 42
0.0000000001
 43
0.0000000001
 40
0.0
 40
0.0
 40
0.0
 40
0.0
 40
0.4982495495766152
 40
1.0
 40
1.0
 40
1.0
 40
1.0
 10
1194.725175008863
 20
-195.5240150497411
 30
0.0
 10
1194.654002004654
 20
-195.4551750739876
 30
0.0
 10
1194.511155906211
 20
-195.3170114252455
 30
0.0
 10
1194.458029014968
 20
-194.996768448135
 30
0.0
 10
1194.431372573358
 20
-194.8360863901249
 30
0.0
  0
SPLINE
  5
488C
330
1F
100
AcDbEntity
  8
0
 62
     7
100
AcDbSpline
210
0.0
220
0.0
230
1.0
 70
     8
 71
     3
 72
    14
 73
    10
 74
     0
 42
0.0000000001
 43
0.0000000001
 40
0.0
 40
0.0
 40
0.0
 40
0.0
 40
0.217517429302176
 40
0.3397631727764423
 40
0.4693509924662353
 40
0.6035615375162779
 40
0.7388266255370996
 40
0.8717115883225359
 40
1.0
 40
1.0
 40
1.0
 40
1.0
 10
1194.850715160165
 20
-193.3017950224506
 30
0.0
 10
1194.756058249348
 20
-193.2330087381401
 30
0.0
 10
1194.608203742021
 20
-193.1255642621928
 30
0.0
 10
1194.47389267242
 20
-192.8679221278833
 30
0.0
 10
1194.42143749764
 20
-192.6311328198583
 30
0.0
 10
1194.440094233537
 20
-192.3769923307698
 30
0.0
 10
1194.531192837359
 20
-192.1430936403266
 30
0.0
 10
1194.676332162444
 20
-191.9522832752891
 30
0.0
 10
1194.793148490881
 20
-191.8750740073511
 30
0.0
 10
1194.850528693837
 20
-191.837148800117
 30
0.0
  0
SPLINE
  5
488D
330
1F
100
AcDbEntity
  8
0
 62
     7
100
AcDbSpline
210
0.0
220
0.0
230
1.0
 70
     8
 71
     3
 72
    13
 73
     9
 74
     0
 42
0.0000000001
 43
0.0000000001
 40
0.0
 40
0.0
 40
0.0
 40
0.0
 40
0.2055504811937125
 40
0.3797817549283605
 40
0.5326004521343056
 40
0.7167774379146527
 40
0.8485488073954712
 40
1.0
 40
1.0
 40
1.0
 40
1.0
 10
1194.851177962526
 20
-191.0353886702655
 30
0.0
 10
1194.765011327681
 20
-190.9742611611373
 30
0.0
 10
1194.605807050427
 20
-190.8613199869972
 30
0.0
 10
1194.449455257243
 20
-190.5597084899274
 30
0.0
 10
1194.414059997899
 20
-190.2127960849892
 30
0.0
 10
1194.500056883393
 20
-189.9278226563506
 30
0.0
 10
1194.662184183725
 20
-189.6974854264119
 30
0.0
 10
1194.784976516723
 20
-189.6146931106015
 30
0.0
 10
1194.850638818265
 20
-189.5704205255516
 30
0.0
  0
SPLINE
  5
488E
330
1F
100
AcDbEntity
  8
0
 62
     7
100
AcDbSpline
210
0.0
220
0.0
230
1.0
 70
     8
 71
     3
 72
    11
 73
     7
 74
     0
 42
0.0000000001
 43
0.0000000001
 40
0.0
 40
0.0
 40
0.0
 40
0.0
 40
0.2989236174403561
 40
0.5327490888989659
 40
0.759885732138936
 40
1.0
 40
1.0
 40
1.0
 40
1.0
 10
1194.850875986892
 20
-188.7685519456298
 30
0.0
 10
1194.759188801574
 20
-188.702024285136
 30
0.0
 10
1194.595781624649
 20
-188.5834570376966
 30
0.0
 10
1194.449239964513
 20
-188.2831361339965
 30
0.0
 10
1194.409978426233
 20
-187.9522093495826
 30
0.0
 10
1194.483829254842
 20
-187.7588519023822
 30
0.0
 10
1194.521780251236
 20
-187.6594879829825
 30
0.0
  0
SPLINE
  5
488F
330
1F
100
AcDbEntity
  8
0
 62
     7
100
AcDbSpline
210
0.0
220
0.0
230
1.0
 70
     8
 71
     3
 72
    10
 73
     6
 74
     0
 42
0.0000000001
 43
0.0000000001
 40
0.0
 40
0.0
 40
0.0
 40
0.0
 40
0.6394175102021852
 40
0.8393390319694601
 40
1.0
 40
1.0
 40
1.0
 40
1.0
 10
1194.852196167275
 20
-194.101947097681
 30
0.0
 10
1194.916139428981
 20
-194.0619344001615
 30
0.0
 10
1195.000075315197
 20
-194.0094112548506
 30
0.0
 10
1195.087577860358
 20
-193.8275622763271
 30
0.0
 10
1195.094814767163
 20
-193.7412225468708
 30
0.0
 10
1195.098039240024
 20
-193.7027530567918
 30
0.0
  0
ARC
  5
4890
330
1F
100
AcDbEntity
  8
0
 62
     7
100
AcDbCircle
 10
1192.431372573357
 20
-187.3499752790138
 30
0.0
 40
1.180555555555552
100
AcDbArc
 50
8.797410709989129
 51
90.0
  0
ARC
  5
4891
330
1F
100
AcDbEntity
  8
0
 62
     7
100
AcDbCircle
 10
1184.764705906691
 20
-187.3499752790138
 30
0.0
 40
1.180555555555552
100
AcDbArc
 50
90.0
 51
171.2025892900109
  0
LINE
  5
4892
330
1F
100
AcDbEntity
  8
0
 62
     7
100
AcDbLine
 10
1192.431372573357
 20
-186.1694197234582
 30
0.0
 11
1191.014705906691
 21
-184.5027530567915
 31
0.0
  0
LINE
  5
4893
330
1F
100
AcDbEntity
  8
0
 62
     7
100
AcDbLine
 10
1186.181372573358
 20
-184.5027530567915
 30
0.0
 11
1184.764705906691
 21
-186.1694197234582
 31
0.0
  0
ARC
  5
4894
330
1F
100
AcDbEntity
  8
0
 62
     7
100
AcDbCircle
 10
1188.598039240024
 20
-188.5496280567915
 30
0.0
 40
4.713541666666666
100
AcDbArc
 50
59.15567736252086
 51
120.8443226374791
  0
SPLINE
  5
4895
330
1F
100
AcDbEntity
  8
0
 62
     7
100
AcDbSpline
210
0.0
220
0.0
230
1.0
 70
    24
 71
     3
 72
    18
 73
    14
 74
     0
 42
0.0000000001
 43
0.0000000001
 40
0.0
 40
0.0
 40
0.0
 40
0.0
 40
0.0726614604802117
 40
0.1453229145132569
 40
0.2315335775011892
 40
0.3177442327320734
 40
0.4061352748946013
 40
0.4945263119494377
 40
0.586627264910131
 40
0.6787282144027259
 40
0.7735053991425979
 40
0.8682825819934292
 40
1.0
 40
1.0
 40
1.0
 40
1.0
 10
1187.931372573358
 20
-224.3360863901251
 30
0.0
 10
1187.931372573358
 20
-224.6217203017542
 30
0.0
 10
1187.931372573358
 20
-225.1929880996691
 30
0.0
 10
1187.931372573358
 20
-226.1925175245186
 30
0.0
 10
1187.931372573358
 20
-227.3212787848426
 30
0.0
 10
1187.931372573358
 20
-228.6042778431746
 30
0.0
 10
1187.931372573358
 20
-229.9721404310402
 30
0.0
 10
1187.931372573358
 20
-231.4383627711428
 30
0.0
 10
1187.931372573358
 20
-232.9858174534511
 30
0.0
 10
1187.931372573358
 20
-234.6216614353584
 30
0.0
 10
1187.931372573358
 20
-236.3156455947655
 30
0.0
 10
1187.931372573358
 20
-238.2821190755846
 30
0.0
 10
1187.931372573358
 20
-239.6862082203847
 30
0.0
 10
1187.931372573358
 20
-240.5027530567917
 30
0.0
  0
LINE
  5
4896
330
1F
100
AcDbEntity
  8
0
 62
     3
100
AcDbLine
 10
1187.931372573358
 20
-224.3360863901248
 30
0.0
 11
1189.264705906691
 21
-224.3360863901248
 31
0.0
  0
SPLINE
  5
4897
330
1F
100
AcDbEntity
  8
0
 62
     7
100
AcDbSpline
210
0.0
220
0.0
230
1.0
 70
    24
 71
     3
 72
    19
 73
    15
 74
     0
 42
0.0000000001
 43
0.0000000001
 40
0.0
 40
0.0
 40
0.0
 40
0.0
 40
0.072760784281087
 40
0.1455215687632358
 40
0.2195768327814436
 40
0.2936320974790788
 40
0.3857175076314645
 40
0.4778029209456526
 40
0.5725633853274396
 40
0.6673238560498337
 40
0.7606694059204499
 40
0.8546856626976545
 40
0.9273428281254327
 40
1.0
 40
1.0
 40
1.0
 40
1.0
 10
1189.264705906691
 20
-240.5027530567917
 30
0.0
 10
1189.264705906691
 20
-240.0518945041122
 30
0.0
 10
1189.264705906691
 20
-239.1501773975075
 30
0.0
 10
1189.264705906691
 20
-237.7954355069267
 30
0.0
 10
1189.264705906691
 20
-236.4446027918571
 30
0.0
 10
1189.264705906691
 20
-234.9951708462096
 30
0.0
 10
1189.264705906691
 20
-233.468261306952
 30
0.0
 10
1189.264705906691
 20
-231.867841626281
 30
0.0
 10
1189.264705906691
 20
-230.3138494868354
 30
0.0
 10
1189.264705906691
 20
-228.8268662899786
 30
0.0
 10
1189.26470590669
 20
-227.4276902502632
 30
0.0
 10
1189.264705906693
 20
-226.2262102606998
 30
0.0
 10
1189.264705906692
 20
-225.1929943211043
 30
0.0
 10
1189.264705906691
 20
-224.6217223755662
 30
0.0
 10
1189.264705906691
 20
-224.3360863901251
 30
0.0
  0
LINE
  5
4898
330
1F
100
AcDbEntity
  8
0
 62
     7
100
AcDbLine
 10
1201.126981331181
 20
-240.5027530567915
 30
0.0
 11
1209.676426381316
 21
-240.5027530567915
 31
0.0
  0
LINE
  5
4899
330
1F
100
AcDbEntity
  8
0
 62
     7
100
AcDbLine
 10
1210.507746117127
 20
-240.5027530567915
 30
0.0
 11
1215.252330172533
 21
-240.5027530567915
 31
0.0
  0
LINE
  5
489A
330
1F
100
AcDbEntity
  8
0
 62
     3
100
AcDbLine
 10
1215.549024751142
 20
-240.5027530567915
 30
0.0
 11
1216.098039240024
 21
-240.5027530567915
 31
0.0
  0
LINE
  5
489B
330
1F
100
AcDbEntity
  8
0
 62
     3
100
AcDbLine
 10
1161.098039240024
 20
-240.5027530567915
 30
0.0
 11
1161.647053728907
 21
-240.5027530567915
 31
0.0
  0
LINE
  5
489C
330
1F
100
AcDbEntity
  8
0
 62
     7
100
AcDbLine
 10
1161.943748307515
 20
-240.5027530567915
 30
0.0
 11
1166.688332362921
 21
-240.5027530567915
 31
0.0
  0
LINE
  5
489D
330
1F
100
AcDbEntity
  8
0
 62
     7
100
AcDbLine
 10
1167.519652098733
 20
-240.5027530567915
 30
0.0
 11
1176.069097148867
 21
-240.5027530567915
 31
0.0
  0
LINE
  5
489E
330
1F
100
AcDbEntity
  8
0
 62
     7
100
AcDbLine
 10
1177.270388972737
 20
-240.5027530567915
 30
0.0
 11
1187.931372573358
 21
-240.5027530567915
 31
0.0
  0
LINE
  5
489F
330
1F
100
AcDbEntity
  8
0
 62
     7
100
AcDbLine
 10
1189.264705906691
 20
-240.5027530567915
 30
0.0
 11
1199.925689507312
 21
-240.5027530567915
 31
0.0
  0
LINE
  5
48A0
330
1F
100
AcDbEntity
  8
0
 62
     3
100
AcDbLine
 10
1188.598039240024
 20
-243.8360863901249
 30
0.0
 11
1216.098039240025
 21
-243.8360863901249
 31
0.0
  0
LINE
  5
48A1
330
1F
100
AcDbEntity
  8
0
 62
     3
100
AcDbLine
 10
1161.098039240024
 20
-243.8360863901249
 30
0.0
 11
1188.598039240024
 21
-243.8360863901249
 31
0.0
  0
SPLINE
  5
48A2
330
1F
100
AcDbEntity
  8
0
 62
     7
100
AcDbSpline
210
0.0
220
0.0
230
1.0
 70
     8
 71
     3
 72
    17
 73
    13
 74
     0
 42
0.0000000001
 43
0.0000000001
 40
0.0
 40
0.0
 40
0.0
 40
0.0
 40
0.0921126455478256
 40
0.1842252754232382
 40
0.279013943169896
 40
0.3738026010772555
 40
0.4659149547683917
 40
0.5580273034135212
 40
0.6528164945636668
 40
0.7476056826086001
 40
0.872981849017005
 40
1.0
 40
1.0
 40
1.0
 40
1.0
 10
1196.525536147072
 20
-224.3360863901251
 30
0.0
 10
1196.716232624188
 20
-224.700495411054
 30
0.0
 10
1197.097625545974
 20
-225.4293133909103
 30
0.0
 10
1197.622485357984
 20
-226.668044709479
 30
0.0
 10
1198.107607413126
 20
-228.0099263281642
 30
0.0
 10
1198.54065058833
 20
-229.4440950082766
 30
0.0
 10
1198.916054743681
 20
-230.9425930387038
 30
0.0
 10
1199.236301443097
 20
-232.5075836538118
 30
0.0
 10
1199.500826834725
 20
-234.1451680754967
 30
0.0
 10
1199.726321579002
 20
-236.0272229624083
 30
0.0
 10
1199.891946364168
 20
-238.1511779157106
 30
0.0
 10
1199.91439311616
 20
-239.7155023699666
 30
0.0
 10
1199.925689507312
 20
-240.5027530567917
 30
0.0
  0
LINE
  5
48A3
330
1F
100
AcDbEntity
  8
0
 62
     3
100
AcDbLine
 10
1196.525536147072
 20
-224.3360863901248
 30
0.0
 11
1197.726827970941
 21
-224.3360863901248
 31
0.0
  0
SPLINE
  5
48A4
330
1F
100
AcDbEntity
  8
0
 62
     7
100
AcDbSpline
210
0.0
220
0.0
230
1.0
 70
     8
 71
     3
 72
    17
 73
    13
 74
     0
 42
0.0000000001
 43
0.0000000001
 40
0.0
 40
0.0
 40
0.0
 40
0.0
 40
0.0920965627271815
 40
0.1841931261102821
 40
0.2789653269280972
 40
0.3737375301336263
 40
0.4658349178088244
 40
0.5579323095799264
 40
0.652705090882329
 40
0.7474778802154509
 40
0.8729170186877823
 40
1.0
 40
1.0
 40
1.0
 40
1.0
 10
1201.126981331181
 20
-240.5027530567917
 30
0.0
 10
1201.121003979461
 20
-239.9320868891475
 30
0.0
 10
1201.109049275978
 20
-238.7907545497953
 30
0.0
 10
1201.012307681727
 20
-237.0740661094515
 30
0.0
 10
1200.855827615455
 20
-235.3653689172558
 30
0.0
 10
1200.635665898686
 20
-233.6937070857998
 30
0.0
 10
1200.357901619575
 20
-232.0864518183274
 30
0.0
 10
1200.02333720991
 20
-230.5377758950684
 30
0.0
 10
1199.629549544503
 20
-229.0449182763456
 30
0.0
 10
1199.12821788441
 20
-227.4707877941641
 30
0.0
 10
1198.507249303248
 20
-225.854738535093
 30
0.0
 10
1197.988094927846
 20
-224.8444958967442
 30
0.0
 10
1197.726827970941
 20
-224.3360863901251
 30
0.0
  0
LINE
  5
48A5
330
1F
100
AcDbEntity
  8
0
 62
     3
100
AcDbLine
 10
1196.308466269292
 20
-224.3360863901248
 30
0.0
 11
1196.525536147072
 21
-224.3360863901248
 31
0.0
  0
LINE
  5
48A6
330
1F
100
AcDbEntity
  8
0
 62
     7
100
AcDbLine
 10
1193.1959571041
 20
-240.5027530567915
 30
0.0
 11
1193.1959571041
 21
-224.3360863901248
 31
0.0
  0
SPLINE
  5
48A7
330
1F
100
AcDbEntity
  8
0
 62
     7
100
AcDbSpline
210
0.0
220
0.0
230
1.0
 70
     8
 71
     3
 72
    17
 73
    13
 74
     0
 42
0.0000000001
 43
0.0000000001
 40
0.0
 40
0.0
 40
0.0
 40
0.0
 40
0.0921126455478257
 40
0.1842252754232382
 40
0.2790139431698958
 40
0.3738026010772553
 40
0.4659149547683914
 40
0.5580273034135212
 40
0.6528164945636668
 40
0.7476056826086
 40
0.8729818490170046
 40
1.0
 40
1.0
 40
1.0
 40
1.0
 10
1179.469250509106
 20
-224.3360863901251
 30
0.0
 10
1179.27855403199
 20
-224.700495411054
 30
0.0
 10
1178.897161110204
 20
-225.4293133909103
 30
0.0
 10
1178.372301298194
 20
-226.668044709479
 30
0.0
 10
1177.887179243052
 20
-228.0099263281642
 30
0.0
 10
1177.454136067849
 20
-229.4440950082766
 30
0.0
 10
1177.078731912497
 20
-230.9425930387038
 30
0.0
 10
1176.758485213081
 20
-232.5075836538118
 30
0.0
 10
1176.493959821454
 20
-234.1451680754967
 30
0.0
 10
1176.268465077177
 20
-236.0272229624083
 30
0.0
 10
1176.102840292011
 20
-238.1511779157106
 30
0.0
 10
1176.080393540019
 20
-239.7155023699666
 30
0.0
 10
1176.069097148867
 20
-240.5027530567917
 30
0.0
  0
LINE
  5
48A8
330
1F
100
AcDbEntity
  8
0
 62
     3
100
AcDbLine
 10
1179.469250509106
 20
-224.3360863901248
 30
0.0
 11
1180.670542332977
 21
-224.3360863901248
 31
0.0
  0
SPLINE
  5
48A9
330
1F
100
AcDbEntity
  8
0
 62
     7
100
AcDbSpline
210
0.0
220
0.0
230
1.0
 70
     8
 71
     3
 72
    17
 73
    13
 74
     0
 42
0.0000000001
 43
0.0000000001
 40
0.0
 40
0.0
 40
0.0
 40
0.0
 40
0.0920965627271813
 40
0.184193126110282
 40
0.2789653269280969
 40
0.3737375301336263
 40
0.4658349178088244
 40
0.5579323095799264
 40
0.6527050908823288
 40
0.7474778802154507
 40
0.8729170186877823
 40
1.0
 40
1.0
 40
1.0
 40
1.0
 10
1177.270388972737
 20
-240.5027530567917
 30
0.0
 10
1177.276366324456
 20
-239.9320868891475
 30
0.0
 10
1177.28832102794
 20
-238.7907545497954
 30
0.0
 10
1177.385062622191
 20
-237.0740661094515
 30
0.0
 10
1177.541542688464
 20
-235.3653689172558
 30
0.0
 10
1177.761704405232
 20
-233.6937070857998
 30
0.0
 10
1178.039468684343
 20
-232.0864518183274
 30
0.0
 10
1178.374033094008
 20
-230.5377758950684
 30
0.0
 10
1178.767820759415
 20
-229.0449182763456
 30
0.0
 10
1179.269152419508
 20
-227.4707877941641
 30
0.0
 10
1179.89012100067
 20
-225.854738535093
 30
0.0
 10
1180.409275376072
 20
-224.8444958967442
 30
0.0
 10
1180.670542332977
 20
-224.3360863901251
 30
0.0
  0
LINE
  5
48AA
330
1F
100
AcDbEntity
  8
0
 62
     3
100
AcDbLine
 10
1180.670542332977
 20
-224.3360863901248
 30
0.0
 11
1180.887612210756
 21
-224.3360863901248
 31
0.0
  0
LINE
  5
48AB
330
1F
100
AcDbEntity
  8
0
 62
     7
100
AcDbLine
 10
1184.000121375948
 20
-224.3360863901248
 30
0.0
 11
1184.000121375948
 21
-240.5027530567915
 31
0.0
  0
LINE
  5
48AC
330
1F
100
AcDbEntity
  8
0
 62
     3
100
AcDbLine
 10
1180.887612210756
 20
-224.3360863901248
 30
0.0
 11
1187.931372573358
 21
-224.3360863901248
 31
0.0
  0
LINE
  5
48AD
330
1F
100
AcDbEntity
  8
0
 62
     3
100
AcDbLine
 10
1174.03766315015
 20
-224.3360863901248
 30
0.0
 11
1179.462776433901
 21
-224.3360863901248
 31
0.0
  0
LINE
  5
48AE
330
1F
100
AcDbEntity
  8
0
 62
     3
100
AcDbLine
 10
1170.071575145437
 20
-224.3360863901248
 30
0.0
 11
1172.789344723666
 21
-224.3360863901248
 31
0.0
  0
LINE
  5
48AF
330
1F
100
AcDbEntity
  8
0
 62
     3
100
AcDbLine
 10
1204.40738497989
 20
-224.3360863901248
 30
0.0
 11
1207.124503334612
 21
-224.3360863901248
 31
0.0
  0
LINE
  5
48B0
330
1F
100
AcDbEntity
  8
0
 62
     3
100
AcDbLine
 10
1197.734063020102
 20
-224.3360863901248
 30
0.0
 11
1203.158415329899
 21
-224.3360863901248
 31
0.0
  0
LINE
  5
48B1
330
1F
100
AcDbEntity
  8
0
 62
     3
100
AcDbLine
 10
1189.264705906691
 20
-224.3360863901248
 30
0.0
 11
1196.308466269292
 21
-224.3360863901248
 31
0.0
  0
LINE
  5
48B2
330
1F
100
AcDbEntity
  8
0
 62
     3
100
AcDbLine
 10
1200.598039240024
 20
-217.5027530567917
 30
0.0
 11
1176.598039240025
 21
-217.5027530567917
 31
0.0
  0
LINE
  5
48B3
330
1F
100
AcDbEntity
  8
0
 62
     3
100
AcDbLine
 10
1203.158415329899
 20
-224.3360863901248
 30
0.0
 11
1203.549561733977
 21
-224.3360863901248
 31
0.0
  0
SPLINE
  5
48B4
330
1F
100
AcDbEntity
  8
0
 62
     7
100
AcDbSpline
210
0.0
220
0.0
230
1.0
 70
     8
 71
     3
 72
    17
 73
    13
 74
     0
 42
0.0000000001
 43
0.0000000001
 40
0.0
 40
0.0
 40
0.0
 40
0.0
 40
0.0921126455478257
 40
0.1842252754232379
 40
0.2790139431698957
 40
0.373802601077255
 40
0.465914954768391
 40
0.5580273034135212
 40
0.6528164945636668
 40
0.7476056826086
 40
0.8729818490170046
 40
1.0
 40
1.0
 40
1.0
 40
1.0
 10
1203.549561733977
 20
-224.3360863901251
 30
0.0
 10
1203.893184912178
 20
-224.700495411054
 30
0.0
 10
1204.580431210113
 20
-225.4293133909103
 30
0.0
 10
1205.52619591138
 20
-226.668044709479
 30
0.0
 10
1206.400355649012
 20
-228.0099263281642
 30
0.0
 10
1207.180672487644
 20
-229.4440950082766
 30
0.0
 10
1207.85712740135
 20
-230.9425930387038
 30
0.0
 10
1208.434192013794
 20
-232.5075836538118
 30
0.0
 10
1208.910850299047
 20
-234.1451680754967
 30
0.0
 10
1209.317177787986
 20
-236.0272229624083
 30
0.0
 10
1209.61562333836
 20
-238.1511779157106
 30
0.0
 10
1209.656070987821
 20
-239.7155023699666
 30
0.0
 10
1209.676426381316
 20
-240.5027530567917
 30
0.0
  0
LINE
  5
48B5
330
1F
100
AcDbEntity
  8
0
 62
     3
100
AcDbLine
 10
1203.549561733977
 20
-224.3360863901248
 30
0.0
 11
1204.380881469787
 21
-224.3360863901248
 31
0.0
  0
SPLINE
  5
48B6
330
1F
100
AcDbEntity
  8
0
 62
     7
100
AcDbSpline
210
0.0
220
0.0
230
1.0
 70
     8
 71
     3
 72
    17
 73
    13
 74
     0
 42
0.0000000001
 43
0.0000000001
 40
0.0
 40
0.0
 40
0.0
 40
0.0
 40
0.0920965627271814
 40
0.1841931261102821
 40
0.2789653269280969
 40
0.3737375301336264
 40
0.4658349178088245
 40
0.5579323095799264
 40
0.6527050908823289
 40
0.7474778802154508
 40
0.8729170186877823
 40
1.0
 40
1.0
 40
1.0
 40
1.0
 10
1210.507746117127
 20
-240.5027530567917
 30
0.0
 10
1210.496975301502
 20
-239.9320868891475
 30
0.0
 10
1210.475433670176
 20
-238.7907545497954
 30
0.0
 10
1210.301111340873
 20
-237.0740661094515
 30
0.0
 10
1210.019144004556
 20
-235.3653689172558
 30
0.0
 10
1209.622426299132
 20
-233.6937070857998
 30
0.0
 10
1209.121912362942
 20
-232.0864518183274
 30
0.0
 10
1208.519048128109
 20
-230.5377758950684
 30
0.0
 10
1207.809467273918
 20
-229.0449182763456
 30
0.0
 10
1206.906098837442
 20
-227.4707877941641
 30
0.0
 10
1205.787152118297
 20
-225.854738535093
 30
0.0
 10
1204.851668258553
 20
-224.8444958967442
 30
0.0
 10
1204.380881469787
 20
-224.3360863901251
 30
0.0
  0
SPLINE
  5
48B7
330
1F
100
AcDbEntity
  8
0
 62
     7
100
AcDbSpline
210
0.0
220
0.0
230
1.0
 70
     8
 71
     3
 72
    17
 73
    13
 74
     0
 42
0.0000000001
 43
0.0000000001
 40
0.0
 40
0.0
 40
0.0
 40
0.0
 40
0.0921126455478256
 40
0.1842252754232381
 40
0.2790139431698958
 40
0.3738026010772551
 40
0.4659149547683911
 40
0.5580273034135207
 40
0.6528164945636662
 40
0.7476056826086
 40
0.8729818490170046
 40
1.0
 40
1.0
 40
1.0
 40
1.0
 10
1172.81519701026
 20
-224.3360863901251
 30
0.0
 10
1172.471573832059
 20
-224.700495411054
 30
0.0
 10
1171.784327534124
 20
-225.4293133909103
 30
0.0
 10
1170.838562832856
 20
-226.668044709479
 30
0.0
 10
1169.964403095224
 20
-228.0099263281642
 30
0.0
 10
1169.184086256592
 20
-229.4440950082766
 30
0.0
 10
1168.507631342887
 20
-230.9425930387038
 30
0.0
 10
1167.930566730442
 20
-232.5075836538118
 30
0.0
 10
1167.45390844519
 20
-234.1451680754967
 30
0.0
 10
1167.047580956251
 20
-236.0272229624083
 30
0.0
 10
1166.749135405877
 20
-238.1511779157106
 30
0.0
 10
1166.708687756416
 20
-239.7155023699666
 30
0.0
 10
1166.688332362921
 20
-240.5027530567917
 30
0.0
  0
LINE
  5
48B8
330
1F
100
AcDbEntity
  8
0
 62
     3
100
AcDbLine
 10
1172.81519701026
 20
-224.3360863901248
 30
0.0
 11
1173.646516746074
 21
-224.3360863901248
 31
0.0
  0
SPLINE
  5
48B9
330
1F
100
AcDbEntity
  8
0
 62
     7
100
AcDbSpline
210
0.0
220
0.0
230
1.0
 70
     8
 71
     3
 72
    17
 73
    13
 74
     0
 42
0.0000000001
 43
0.0000000001
 40
0.0
 40
0.0
 40
0.0
 40
0.0
 40
0.0920965627271814
 40
0.1841931261102821
 40
0.2789653269280971
 40
0.3737375301336263
 40
0.4658349178088244
 40
0.5579323095799264
 40
0.6527050908823289
 40
0.7474778802154508
 40
0.8729170186877823
 40
0.9999999999999998
 40
0.9999999999999998
 40
0.9999999999999998
 40
0.9999999999999998
 10
1167.519652098733
 20
-240.5027530567917
 30
0.0
 10
1167.530422914358
 20
-239.9320868891475
 30
0.0
 10
1167.551964545685
 20
-238.7907545497953
 30
0.0
 10
1167.726286874987
 20
-237.0740661094515
 30
0.0
 10
1168.008254211304
 20
-235.3653689172558
 30
0.0
 10
1168.404971916728
 20
-233.6937070857998
 30
0.0
 10
1168.905485852918
 20
-232.0864518183274
 30
0.0
 10
1169.508350087751
 20
-230.5377758950684
 30
0.0
 10
1170.217930941942
 20
-229.0449182763456
 30
0.0
 10
1171.121299378418
 20
-227.4707877941641
 30
0.0
 10
1172.240246097563
 20
-225.854738535093
 30
0.0
 10
1173.175729957307
 20
-224.8444958967442
 30
0.0
 10
1173.646516746074
 20
-224.3360863901251
 30
0.0
  0
LINE
  5
48BA
330
1F
100
AcDbEntity
  8
0
 62
     3
100
AcDbLine
 10
1173.646516746074
 20
-224.3360863901248
 30
0.0
 11
1174.03766315015
 21
-224.3360863901248
 31
0.0
  0
LINE
  5
48BB
330
1F
100
AcDbEntity
  8
0
 62
     3
100
AcDbLine
 10
1188.598039240024
 20
-213.5027530567917
 30
0.0
 11
1200.098039240024
 21
-213.5027530567917
 31
0.0
  0
LINE
  5
48BC
330
1F
100
AcDbEntity
  8
0
 62
     3
100
AcDbLine
 10
1177.098039240024
 20
-213.5027530567917
 30
0.0
 11
1188.598039240024
 21
-213.5027530567917
 31
0.0
  0
LINE
  5
48BD
330
1F
100
AcDbEntity
  8
0
 62
     3
100
AcDbLine
 10
1188.598039240024
 20
-197.8360863901249
 30
0.0
 11
1195.264705906691
 21
-197.8360863901249
 31
0.0
  0
LINE
  5
48BE
330
1F
100
AcDbEntity
  8
0
 62
     3
100
AcDbLine
 10
1181.931372573358
 20
-197.8360863901249
 30
0.0
 11
1188.598039240024
 21
-197.8360863901249
 31
0.0
  0
LINE
  5
48BF
330
1F
100
AcDbEntity
  8
0
 62
     3
100
AcDbLine
 10
1207.124503334612
 20
-224.3360863901248
 30
0.0
 11
1207.612254922565
 21
-224.3360863901248
 31
0.0
  0
SPLINE
  5
48C0
330
1F
100
AcDbEntity
  8
0
 62
     7
100
AcDbSpline
210
0.0
220
0.0
230
1.0
 70
     8
 71
     3
 72
    17
 73
    13
 74
     0
 42
0.0000000001
 43
0.0000000001
 40
0.0
 40
0.0
 40
0.0
 40
0.0
 40
0.0917940642711153
 40
0.1842253884561531
 40
0.278666810660507
 40
0.3738028986027824
 40
0.465596560008545
 40
0.558027713959195
 40
0.6524695831324287
 40
0.7476062777149135
 40
0.8729821485059328
 40
1.0
 40
1.0
 40
1.0
 40
1.0
 10
1207.612254922565
 20
-224.3360863901251
 30
0.0
 10
1208.039335070189
 20
-224.6991500704829
 30
0.0
 10
1208.896460274555
 20
-225.4277979202035
 30
0.0
 10
1210.074290199417
 20
-226.6650672256426
 30
0.0
 10
1211.166066846472
 20
-228.0080377144991
 30
0.0
 10
1212.137920628895
 20
-229.4406786253857
 30
0.0
 10
1212.983014285339
 20
-230.9407167781267
 30
0.0
 10
1213.701610692641
 20
-232.5038346401926
 30
0.0
 10
1214.297253316333
 20
-234.1430251039683
 30
0.0
 10
1214.803901121493
 20
-236.0251256845378
 30
0.0
 10
1215.176532769979
 20
-238.1511694442855
 30
0.0
 10
1215.226955028793
 20
-239.7154995339377
 30
0.0
 10
1215.252330172533
 20
-240.5027530567917
 30
0.0
  0
LINE
  5
48C1
330
1F
100
AcDbEntity
  8
0
 62
     3
100
AcDbLine
 10
1207.612254922565
 20
-224.3360863901248
 30
0.0
 11
1207.908949501171
 21
-224.3360863901248
 31
0.0
  0
SPLINE
  5
48C2
330
1F
100
AcDbEntity
  8
0
 62
     3
100
AcDbSpline
210
0.0
220
0.0
230
1.0
 70
     8
 71
     3
 72
    17
 73
    13
 74
     0
 42
0.0000000001
 43
0.0000000001
 40
0.0
 40
0.0
 40
0.0
 40
0.0
 40
0.0917779972187588
 40
0.1841932391329671
 40
0.278618298947525
 40
0.3737378276085575
 40
0.4655166682484443
 40
0.5579327200744561
 40
0.6523584110595344
 40
0.7474784751446247
 40
0.8729173180887737
 40
0.9999999999999998
 40
0.9999999999999998
 40
0.9999999999999998
 40
0.9999999999999998
 10
1215.549024751142
 20
-240.5027530567917
 30
0.0
 10
1215.535749216974
 20
-239.9340563090603
 30
0.0
 10
1215.509105972255
 20
-238.7927141658086
 30
0.0
 10
1215.291907418539
 20
-237.0781541362505
 30
0.0
 10
1214.940530088669
 20
-235.367399831697
 30
0.0
 10
1214.446265971402
 20
-233.6976380225059
 30
0.0
 10
1213.821928017642
 20
-232.0881667126854
 30
0.0
 10
1213.070987095042
 20
-230.5414479323719
 30
0.0
 10
1212.185705469624
 20
-229.0465822594386
 30
0.0
 10
1211.059167234445
 20
-227.472451120708
 30
0.0
 10
1209.662560902188
 20
-225.8547254607925
 30
0.0
 10
1208.496017915849
 20
-224.8444915197715
 30
0.0
 10
1207.908949501171
 20
-224.3360863901251
 30
0.0
  0
SPLINE
  5
48C3
330
1F
100
AcDbEntity
  8
0
 62
     7
100
AcDbSpline
210
0.0
220
0.0
230
1.0
 70
     8
 71
     3
 72
    17
 73
    13
 74
     0
 42
0.0000000001
 43
0.0000000001
 40
0.0
 40
0.0
 40
0.0
 40
0.0
 40
0.0917779972187588
 40
0.1841932391329671
 40
0.2786182989475249
 40
0.3737378276085574
 40
0.4655166682484441
 40
0.5579327200744561
 40
0.6523584110595344
 40
0.7474784751446247
 40
0.8729173180887737
 40
1.0
 40
1.0
 40
1.0
 40
1.0
 10
1161.943748307515
 20
-240.5027530567917
 30
0.0
 10
1161.957023841684
 20
-239.9340563090603
 30
0.0
 10
1161.983667086402
 20
-238.7927141658086
 30
0.0
 10
1162.200865640118
 20
-237.0781541362505
 30
0.0
 10
1162.552242969988
 20
-235.367399831697
 30
0.0
 10
1163.046507087255
 20
-233.6976380225059
 30
0.0
 10
1163.670845041015
 20
-232.0881667126854
 30
0.0
 10
1164.421785963615
 20
-230.5414479323719
 30
0.0
 10
1165.307067589034
 20
-229.0465822594386
 30
0.0
 10
1166.433605824212
 20
-227.472451120708
 30
0.0
 10
1167.830212156468
 20
-225.8547254607925
 30
0.0
 10
1168.996755142809
 20
-224.8444915197715
 30
0.0
 10
1169.583823557486
 20
-224.3360863901251
 30
0.0
  0
LINE
  5
48C4
330
1F
100
AcDbEntity
  8
0
 62
     3
100
AcDbLine
 10
1169.583823557486
 20
-224.3360863901248
 30
0.0
 11
1170.071575145437
 21
-224.3360863901248
 31
0.0
  0
SPLINE
  5
48C5
330
1F
100
AcDbEntity
  8
0
 62
     3
100
AcDbSpline
210
0.0
220
0.0
230
1.0
 70
     8
 71
     3
 72
    17
 73
    13
 74
     0
 42
0.0000000001
 43
0.0000000001
 40
0.0
 40
0.0
 40
0.0
 40
0.0
 40
0.0921126455478253
 40
0.1842252754232377
 40
0.2790139431698951
 40
0.3738026010772544
 40
0.4659149547683904
 40
0.5580273034135203
 40
0.6528164945636658
 40
0.7476056826085991
 40
0.8729818490170041
 40
0.9999999999999998
 40
0.9999999999999998
 40
0.9999999999999998
 40
0.9999999999999998
 10
1169.287128978875
 20
-224.3360863901251
 30
0.0
 10
1168.858637884295
 20
-224.700495411054
 30
0.0
 10
1168.00165576804
 20
-225.4293133909103
 30
0.0
 10
1166.822306475643
 20
-226.668044709479
 30
0.0
 10
1165.732247112424
 20
-228.0099263281642
 30
0.0
 10
1164.759207930213
 20
-229.4440950082766
 30
0.0
 10
1163.915682449988
 20
-230.9425930387038
 30
0.0
 10
1163.196094648243
 20
-232.5075836538118
 30
0.0
 10
1162.60171148859
 20
-234.1451680754966
 30
0.0
 10
1162.095029397453
 20
-236.0272229624083
 30
0.0
 10
1161.722873883317
 20
-238.1511779157104
 30
0.0
 10
1161.672436489419
 20
-239.7155023699666
 30
0.0
 10
1161.647053728907
 20
-240.5027530567917
 30
0.0
  0
LINE
  5
48C6
330
1F
100
AcDbEntity
  8
0
 62
     3
100
AcDbLine
 10
1169.287128978875
 20
-224.3360863901248
 30
0.0
 11
1169.583823557486
 21
-224.3360863901248
 31
0.0
  0
SPLINE
  5
48C7
330
1F
100
AcDbEntity
  8
0
 62
     7
100
AcDbSpline
210
0.0
220
0.0
230
1.0
 70
     8
 71
     3
 72
    20
 73
    16
 74
     0
 42
0.0000000001
 43
0.0000000001
 40
0.0
 40
0.0
 40
0.0
 40
0.0
 40
0.0708280383542781
 40
0.1429969773945798
 40
0.2298669127114
 40
0.3192561228879628
 40
0.406116708493201
 40
0.4954954488627874
 40
0.5823657980653337
 40
0.6717539187329658
 40
0.7586502573216735
 40
0.8480641669776819
 40
0.921664247611034
 40
0.996770486857579
 40
1.0
 40
1.0
 40
1.0
 40
1.0
 10
1190.775275049991
 20
-196.0317307545625
 30
0.0
 10
1190.495037320204
 20
-196.0396289485626
 30
0.0
 10
1189.92925646219
 20
-196.0555748634173
 30
0.0
 10
1188.981490534484
 20
-196.0744246168617
 30
0.0
 10
1187.949250753314
 20
-196.091091270236
 30
0.0
 10
1186.872837393444
 20
-196.1002155535587
 30
0.0
 10
1185.835991328116
 20
-196.1019050552314
 30
0.0
 10
1184.886385355466
 20
-196.0980808073092
 30
0.0
 10
1184.033873137558
 20
-196.0853377022167
 30
0.0
 10
1183.317777500355
 20
-196.068612948749
 30
0.0
 10
1182.745570485892
 20
-196.0463681677023
 30
0.0
 10
1182.363911840555
 20
-196.0207270717773
 30
0.0
 10
1182.14831994103
 20
-195.9958746245193
 30
0.0
 10
1182.098723671431
 20
-195.9788708572572
 30
0.0
 10
1182.098066339553
 20
-195.9697939337378
 30
0.0
 10
1182.098039240025
 20
-195.9694197234582
 30
0.0
  0
SPLINE
  5
48C8
330
1F
100
AcDbEntity
  8
0
 62
     7
100
AcDbSpline
210
0.0
220
0.0
230
1.0
 70
     8
 71
     3
 72
    20
 73
    16
 74
     0
 42
0.0000000001
 43
0.0000000001
 40
0.0
 40
0.0
 40
0.0
 40
0.0
 40
0.0032068471712263
 40
0.0757022301091734
 40
0.1495980360793847
 40
0.2372703530997107
 40
0.3274674429692217
 40
0.4148188823520118
 40
0.5046829063237192
 40
0.5917760854842371
 40
0.6813770667248439
 40
0.7684424215250464
 40
0.8580293204469404
 40
0.9283584427651675
 40
1.0
 40
1.0
 40
1.0
 40
1.0
 10
1182.098039240025
 20
-195.9694197234582
 30
0.0
 10
1182.098065816438
 20
-195.9675260587521
 30
0.0
 10
1182.098693190815
 20
-195.9228233854768
 30
0.0
 10
1182.145663886006
 20
-195.8338091193498
 30
0.0
 10
1182.351897103237
 20
-195.694884043541
 30
0.0
 10
1182.728355761183
 20
-195.5493149129429
 30
0.0
 10
1183.292914982223
 20
-195.3992913731966
 30
0.0
 10
1184.014881550254
 20
-195.2531465034218
 30
0.0
 10
1184.859928686637
 20
-195.1171890198381
 30
0.0
 10
1185.819489619461
 20
-194.9854551215635
 30
0.0
 10
1186.849230435181
 20
-194.864566902461
 30
0.0
 10
1187.939475633719
 20
-194.7507347120015
 30
0.0
 10
1188.96870934286
 20
-194.651738072555
 30
0.0
 10
1189.926504437791
 20
-194.566688124883
 30
0.0
 10
1190.490613228611
 20
-194.5179976881588
 30
0.0
 10
1190.775275049991
 20
-194.49342741266
 30
0.0
  0
LINE
  5
48C9
330
1F
100
AcDbEntity
  8
0
 62
     7
100
AcDbLine
 10
1194.831650342515
 20
-194.0986610362559
 30
0.0
 11
1194.827666248876
 21
-194.1010841570387
 31
0.0
  0
LINE
  5
48CA
330
1F
100
AcDbEntity
  8
0
 62
     7
100
AcDbLine
 10
1182.66821832599
 20
-187.3331856539426
 30
0.0
 11
1182.662945324198
 21
-187.3348296328755
 31
0.0
  0
SPLINE
  5
48CB
330
1F
100
AcDbEntity
  8
0
 62
     7
100
AcDbSpline
210
0.0
220
0.0
230
1.0
 70
    24
 71
     3
 72
    15
 73
    11
 74
     0
 42
0.0000000001
 43
0.0000000001
 40
0.0
 40
0.0
 40
0.0
 40
0.0
 40
0.1381895190657714
 40
0.2762866949410798
 40
0.4149396815341292
 40
0.5535396102884561
 40
0.6781242887499671
 40
0.8026846113974757
 40
0.9228755551802866
 40
1.0
 40
1.0
 40
1.0
 40
1.0
 10
1189.252568391981
 20
-187.1694197234582
 30
0.0
 10
1189.624609275337
 20
-187.1694197234582
 30
0.0
 10
1190.368442430993
 20
-187.1694197234582
 30
0.0
 10
1191.402103995749
 20
-187.1694197234582
 30
0.0
 10
1192.324289570339
 20
-187.1694197234582
 30
0.0
 10
1193.075830893945
 20
-187.1694197234582
 30
0.0
 10
1193.639767217008
 20
-187.1694197234582
 30
0.0
 10
1194.011953251082
 20
-187.1694197234582
 30
0.0
 10
1194.205856941738
 20
-187.1694197234582
 30
0.0
 10
1194.204555642258
 20
-187.1694197234582
 30
0.0
 10
1194.204047004789
 20
-187.1694197234582
 30
0.0
  0
SPLINE
  5
48CC
330
1F
100
AcDbEntity
  8
0
 62
     7
100
AcDbSpline
210
0.0
220
0.0
230
1.0
 70
    24
 71
     3
 72
    15
 73
    11
 74
     0
 42
0.0000000001
 43
0.0000000001
 40
0.0
 40
0.0
 40
0.0
 40
0.0
 40
0.1031129362327991
 40
0.2362782984864588
 40
0.372301448766958
 40
0.5083526626934305
 40
0.6476815119263361
 40
0.7870550977493004
 40
0.8935195635893208
 40
1.0
 40
1.0
 40
1.0
 40
1.0
 10
1182.949933949979
 20
-187.1694197234582
 30
0.0
 10
1182.95301930264
 20
-187.1694197234582
 30
0.0
 10
1182.960089238804
 20
-187.1694197234582
 30
0.0
 10
1183.159581885171
 20
-187.1694197234582
 30
0.0
 10
1183.517786498137
 20
-187.1694197234582
 30
0.0
 10
1184.031672361093
 20
-187.1694197234582
 30
0.0
 10
1184.685900266361
 20
-187.1694197234582
 30
0.0
 10
1185.400732733602
 20
-187.1694197234582
 30
0.0
 10
1186.121679310955
 20
-187.1694197234582
 30
0.0
 10
1186.592283250201
 20
-187.1694197234582
 30
0.0
 10
1186.827602867144
 20
-187.1694197234582
 30
0.0
  0
SPLINE
  5
48CD
330
1F
100
AcDbEntity
  8
0
 62
     7
100
AcDbSpline
210
0.0
220
0.0
230
1.0
 70
     8
 71
     3
 72
    16
 73
    12
 74
     0
 42
0.0000000001
 43
0.0000000001
 40
0.0
 40
0.0
 40
0.0
 40
0.0
 40
0.0052880309849414
 40
0.0568887488701464
 40
0.1978637416490867
 40
0.3487075627249002
 40
0.4936472437914451
 40
0.6214002098381563
 40
0.7565786487654435
 40
0.8956762320131954
 40
1.0
 40
1.0
 40
1.0
 40
1.0
 10
1195.098039240024
 20
-195.9694197234582
 30
0.0
 10
1195.098009527943
 20
-195.9693635675004
 30
0.0
 10
1195.097689884748
 20
-195.9687594405218
 30
0.0
 10
1195.077297984663
 20
-195.9668724285658
 30
0.0
 10
1194.934416257245
 20
-195.9648352886226
 30
0.0
 10
1194.549070399656
 20
-195.9643259269709
 30
0.0
 10
1193.988234566111
 20
-195.9665383440875
 30
0.0
 10
1193.298777413938
 20
-195.9753103546842
 30
0.0
 10
1192.492907345089
 20
-195.988523956192
 30
0.0
 10
1191.635494790521
 20
-196.0067973398459
 30
0.0
 10
1191.033341546595
 20
-196.0242507134972
 30
0.0
 10
1190.775275049991
 20
-196.0317307545625
 30
0.0
  0
SPLINE
  5
48CE
330
1F
100
AcDbEntity
  8
0
 62
     7
100
AcDbSpline
210
0.0
220
0.0
230
1.0
 70
    24
 71
     3
 72
    10
 73
     6
 74
     0
 42
0.0000000001
 43
0.0000000001
 40
0.0
 40
0.0
 40
0.0
 40
0.0
 40
0.1339212878727249
 40
0.6708280778273023
 40
1.0
 40
1.0
 40
1.0
 40
1.0
 10
1188.033010593998
 20
-187.1694197234582
 30
0.0
 10
1188.087463309239
 20
-187.1694197234582
 30
0.0
 10
1188.360223606554
 20
-187.1694197234582
 30
0.0
 10
1188.77088050382
 20
-187.1694197234582
 30
0.0
 10
1189.119911588895
 20
-187.1694197234582
 30
0.0
 10
1189.252568391981
 20
-187.1694197234582
 30
0.0
  0
SPLINE
  5
48CF
330
1F
100
AcDbEntity
  8
0
 62
     7
100
AcDbSpline
210
0.0
220
0.0
230
1.0
 70
    24
 71
     3
 72
    11
 73
     7
 74
     0
 42
0.0000000001
 43
0.0000000001
 40
0.0
 40
0.0
 40
0.0
 40
0.0
 40
0.1321783914511294
 40
0.396641321645365
 40
0.6973730509917581
 40
1.0
 40
1.0
 40
1.0
 40
1.0
 10
1186.827602867144
 20
-187.1694197234582
 30
0.0
 10
1186.878510198809
 20
-187.1694197234582
 30
0.0
 10
1187.031273075489
 20
-187.1694197234582
 30
0.0
 10
1187.309110989382
 20
-187.1694197234582
 30
0.0
 10
1187.660395535174
 20
-187.1694197234582
 30
0.0
 10
1187.90854575151
 20
-187.1694197234582
 30
0.0
 10
1188.033010593998
 20
-187.1694197234582
 30
0.0
  0
LINE
  5
48D0
330
1F
100
AcDbEntity
  8
0
 62
     7
100
AcDbLine
 10
1192.431372573357
 20
-186.1694197234582
 30
0.0
 11
1184.764705960524
 21
-186.1694197234582
 31
0.0
  0
LINE
  5
48D1
330
1F
100
AcDbEntity
  8
0
 62
     7
100
AcDbLine
 10
1191.014705906691
 20
-184.5027530567915
 30
0.0
 11
1186.181372573358
 21
-184.5027530567915
 31
0.0
  0
SPLINE
  5
48D2
330
1F
100
AcDbEntity
  8
0
 62
     7
100
AcDbSpline
210
0.0
220
0.0
230
1.0
 70
     8
 71
     3
 72
    14
 73
    10
 74
     0
 42
0.0000000001
 43
0.0000000001
 40
0.0
 40
0.0
 40
0.0
 40
0.0
 40
0.0777168941382962
 40
0.243362077558284
 40
0.4078361234653979
 40
0.5734813068853855
 40
0.7384566804233784
 40
0.8688428218594655
 40
1.0
 40
1.0
 40
1.0
 40
1.0
 10
1194.827666248876
 20
-194.1010841570389
 30
0.0
 10
1194.815589153322
 20
-194.1111993012184
 30
0.0
 10
1194.77777103028
 20
-194.1428737849929
 30
0.0
 10
1194.487993900262
 20
-194.1971024255678
 30
0.0
 10
1193.979116328918
 20
-194.26059631068
 30
0.0
 10
1193.276281534535
 20
-194.326307956437
 30
0.0
 10
1192.473221141249
 20
-194.3862881836579
 30
0.0
 10
1191.631578610722
 20
-194.4415764878915
 30
0.0
 10
1191.061269998585
 20
-194.4761098359926
 30
0.0
 10
1190.775275049991
 20
-194.49342741266
 30
0.0
  0
ARC
  5
48D3
330
1F
100
AcDbEntity
  8
0
 62
     7
100
AcDbCircle
 10
1195.311372573357
 20
-194.8360863901249
 30
0.0
 40
0.8800000000000045
100
AcDbArc
 50
179.5758919264293
 51
240.931089838924
  0
SPLINE
  5
48D4
330
1F
100
AcDbEntity
  8
0
 62
     7
100
AcDbSpline
210
0.0
220
0.0
230
1.0
 70
     8
 71
     3
 72
    14
 73
    10
 74
     0
 42
0.0000000001
 43
0.0000000001
 40
0.0
 40
0.0
 40
0.0
 40
0.0
 40
0.1517351914597909
 40
0.304086436870584
 40
0.4553605350021755
 40
0.6077117804129686
 40
0.7594469718727596
 40
0.8793689075545797
 40
1.0
 40
1.0
 40
1.0
 40
1.0
 10
1194.883814732741
 20
-195.605238061076
 30
0.0
 10
1194.863267430931
 20
-195.626684431496
 30
0.0
 10
1194.822089404038
 20
-195.6696642458824
 30
0.0
 10
1194.492701349001
 20
-195.7353819132374
 30
0.0
 10
1193.977847936924
 20
-195.798906079953
 30
0.0
 10
1193.276623420017
 20
-195.8646095658901
 30
0.0
 10
1192.473151179153
 20
-195.9245918800818
 30
0.0
 10
1191.63159447
 20
-195.9798797494297
 30
0.0
 10
1191.06127529539
 20
-196.0144131510542
 30
0.0
 10
1190.775275049991
 20
-196.0317307545625
 30
0.0
  0
ARC
  5
48D5
330
1F
100
AcDbEntity
  8
0
 62
     7
100
AcDbCircle
 10
1187.96831625666
 20
-42.91601555481372
 30
0.0
 40
144.8837158741876
100
AcDbArc
 50
270.5214683062814
 51
272.5844760477537
  0
SPLINE
  5
48D6
330
1F
100
AcDbEntity
  8
0
 62
     7
100
AcDbSpline
210
0.0
220
0.0
230
1.0
 70
     8
 71
     3
 72
    24
 73
    20
 74
     0
 42
0.0000000001
 43
0.0000000001
 40
0.0
 40
0.0
 40
0.0
 40
0.0
 40
0.0306981251976086
 40
0.0931403430927189
 40
0.1557556448012965
 40
0.2180390364825356
 40
0.2807288115612894
 40
0.3429803629901615
 40
0.4056452939023817
 40
0.4679922909934917
 40
0.5305332963682263
 40
0.5930743017429611
 40
0.655421298834071
 40
0.7180862297462916
 40
0.7803377811751631
 40
0.8430275562539167
 40
0.9053109479351558
 40
0.9679262496437337
 40
0.9999999999999998
 40
0.9999999999999998
 40
0.9999999999999998
 40
0.9999999999999998
 10
1182.371571690802
 20
-192.9683626325661
 30
0.0
 10
1182.346143355833
 20
-192.956770125326
 30
0.0
 10
1182.268991939319
 20
-192.9215976157771
 30
0.0
 10
1182.401322828845
 20
-192.8630302834066
 30
0.0
 10
1182.751114897958
 20
-192.7913791792473
 30
0.0
 10
1183.338907395453
 20
-192.7217109644309
 30
0.0
 10
1184.124062518931
 20
-192.6495848361165
 30
0.0
 10
1185.08377788919
 20
-192.5801022235898
 30
0.0
 10
1186.176399397318
 20
-192.5081441520186
 30
0.0
 10
1187.363914074051
 20
-192.4380972890483
 30
0.0
 10
1188.59803559887
 20
-192.3669347237859
 30
0.0
 10
1189.832178948025
 20
-192.2957721308793
 30
0.0
 10
1191.019628243949
 20
-192.2257253507246
 30
0.0
 10
1192.112489978894
 20
-192.1537669748663
 30
0.0
 10
1193.071312611494
 20
-192.0842854931403
 30
0.0
 10
1193.85980983633
 20
-192.012155131499
 30
0.0
 10
1194.435166810693
 20
-191.9425026683395
 30
0.0
 10
1194.767252559193
 20
-191.8824170068098
 30
0.0
 10
1194.810495964527
 20
-191.8467405818278
 30
0.0
 10
1194.825143678883
 20
-191.8346560089703
 30
0.0
  0
SPLINE
  5
48D7
330
1F
100
AcDbEntity
  8
0
 62
     7
100
AcDbSpline
210
0.0
220
0.0
230
1.0
 70
     8
 71
     3
 72
    24
 73
    20
 74
     0
 42
0.0000000001
 43
0.0000000001
 40
0.0
 40
0.0
 40
0.0
 40
0.0
 40
0.0307001068594337
 40
0.0931432690478897
 40
0.1557595176673027
 40
0.2180438512400098
 40
0.2807345743558364
 40
0.3429870671946675
 40
0.4056529457682493
 40
0.4680008857127115
 40
0.5305428368747231
 40
0.5930847880367339
 40
0.6554327279811957
 40
0.7180986065547775
 40
0.7803510993936086
 40
0.8430418225094346
 40
0.9053261560821418
 40
0.9679424047015546
 40
1.0
 40
1.0
 40
1.0
 40
1.0
 10
1182.37157462238
 20
-190.7016976841395
 30
0.0
 10
1182.346144852045
 20
-190.6901046037136
 30
0.0
 10
1182.268991637206
 20
-190.6549315206306
 30
0.0
 10
1182.401322490909
 20
-190.596363616416
 30
0.0
 10
1182.75111498806
 20
-190.5247125126671
 30
0.0
 10
1183.338907371185
 20
-190.455044297741
 30
0.0
 10
1184.124062525393
 20
-190.382918169456
 30
0.0
 10
1185.083777887473
 20
-190.3134355569213
 30
0.0
 10
1186.176399397689
 20
-190.2414774853527
 30
0.0
 10
1187.363914074276
 20
-190.1714306223801
 30
0.0
 10
1188.598035597592
 20
-190.1002680571241
 30
0.0
 10
1189.832178952904
 20
-190.029105464195
 30
0.0
 10
1191.019628225735
 20
-189.959058684124
 30
0.0
 10
1192.112490047079
 20
-189.8871003079529
 30
0.0
 10
1193.071312358177
 20
-189.8176188273903
 30
0.0
 10
1193.859810786722
 20
-189.7454884613926
 30
0.0
 10
1194.43516328221
 20
-189.6758360144431
 30
0.0
 10
1194.767227871586
 20
-189.6157566714606
 30
0.0
 10
1194.810469458558
 20
-189.5800864950273
 30
0.0
 10
1194.825111531151
 20
-189.5680081845564
 30
0.0
  0
SPLINE
  5
48D8
330
1F
100
AcDbEntity
  8
0
 62
     7
100
AcDbSpline
210
0.0
220
0.0
230
1.0
 70
     8
 71
     3
 72
    17
 73
    13
 74
     0
 42
0.0000000001
 43
0.0000000001
 40
0.0
 40
0.0
 40
0.0
 40
0.0
 40
0.0542875517610549
 40
0.1647032927152463
 40
0.2754250954679354
 40
0.3855599861468038
 40
0.4964134791665379
 40
0.606492067151881
 40
0.7173016285633415
 40
0.8275489918400186
 40
0.9381394173766526
 40
1.0
 40
1.0
 40
1.0
 40
1.0
 10
1182.371576570726
 20
-188.4350321594268
 30
0.0
 10
1182.346145850114
 20
-188.4234386980975
 30
0.0
 10
1182.268991451267
 20
-188.3882652339618
 30
0.0
 10
1182.401322129836
 20
-188.3296969480506
 30
0.0
 10
1182.751115548529
 20
-188.258045851499
 30
0.0
 10
1183.338905495353
 20
-188.1883776108445
 30
0.0
 10
1184.124069500497
 20
-188.1162515785638
 30
0.0
 10
1185.083752006327
 20
-188.046768608947
 30
0.0
 10
1186.176496510277
 20
-187.974811874264
 30
0.0
 10
1187.36355329255
 20
-187.9047600341391
 30
0.0
 10
1188.417682485344
 20
-187.844076364506
 30
0.0
 10
1189.057442872922
 20
-187.8070225242544
 30
0.0
 10
1189.286933849735
 20
-187.7937307947895
 30
0.0
  0
ARC
  5
48D9
330
1F
100
AcDbEntity
  8
0
 62
     7
100
AcDbCircle
 10
1194.681372573358
 20
-195.9694197234583
 30
0.0
 40
0.4166666666666706
100
AcDbArc
 50
0.0
 51
60.93108983892395
  0
SPLINE
  5
48DA
330
1F
100
AcDbEntity
  8
0
 62
     7
100
AcDbSpline
210
0.0
220
0.0
230
1.0
 70
     8
 71
     3
 72
    24
 73
    20
 74
     0
 42
0.0000000001
 43
0.0000000001
 40
0.0
 40
0.0
 40
0.0
 40
0.0
 40
0.0319774828928831
 40
0.094609763278388
 40
0.1569100436362992
 40
0.2196168175860744
 40
0.2818852490578609
 40
0.3445671721043932
 40
0.4069310751193286
 40
0.4694890390249017
 40
0.5320470029304744
 40
0.5944109059454098
 40
0.6570928289919423
 40
0.7193612604637283
 40
0.7820680344135038
 40
0.8443683147714148
 40
0.9070005951569195
 40
0.9694597447957939
 40
1.0
 40
1.0
 40
1.0
 40
1.0
 10
1182.371137534824
 20
-194.4373979461391
 30
0.0
 10
1182.385749649067
 20
-194.4253528659271
 30
0.0
 10
1182.428981590561
 20
-194.3897158462358
 30
0.0
 10
1182.76093394387
 20
-194.3296700312939
 30
0.0
 10
1183.336262644104
 20
-194.2600176704648
 30
0.0
 10
1184.124767467708
 20
-194.187887281322
 30
0.0
 10
1185.083588070639
 20
-194.1184058069414
 30
0.0
 10
1186.176450351359
 20
-194.0464474291092
 30
0.0
 10
1187.363899500189
 20
-193.9764006494812
 30
0.0
 10
1188.598042893132
 20
-193.9052380564375
 30
0.0
 10
1189.832164390094
 20
-193.8340754911964
 30
0.0
 10
1191.01967913436
 20
-193.764028628278
 30
0.0
 10
1192.112300399669
 20
-193.6920705564775
 30
0.0
 10
1193.072016670855
 20
-193.6225879448135
 30
0.0
 10
1193.85716842196
 20
-193.5504618132665
 30
0.0
 10
1194.444973467516
 20
-193.4807936104791
 30
0.0
 10
1194.794718575265
 20
-193.4091424613004
 30
0.0
 10
1194.927053518303
 20
-193.350637743588
 30
0.0
 10
1194.850099021339
 20
-193.3155280335873
 30
0.0
 10
1194.8248277846
 20
-193.303998287721
 30
0.0
  0
SPLINE
  5
48DB
330
1F
100
AcDbEntity
  8
0
 62
     7
100
AcDbSpline
210
0.0
220
0.0
230
1.0
 70
     8
 71
     3
 72
    24
 73
    20
 74
     0
 42
0.0000000001
 43
0.0000000001
 40
0.0
 40
0.0
 40
0.0
 40
0.0
 40
0.0319403145095642
 40
0.0945716896261664
 40
0.1568710695138075
 40
0.2195769371179723
 40
0.2818444685798239
 40
0.3445254856399329
 40
0.4068884872650147
 40
0.4694455469758347
 40
0.5320026066866537
 40
0.5943656083117355
 40
0.6570466253718445
 40
0.7193141568336962
 40
0.7820200244378605
 40
0.8443194043255013
 40
0.9069507794421035
 40
0.9694090263144586
 40
1.0
 40
1.0
 40
1.0
 40
1.0
 10
1182.371208431986
 20
-192.1706897256165
 30
0.0
 10
1182.385808084644
 20
-192.1586584562602
 30
0.0
 10
1182.429036019029
 20
-192.1230352168259
 30
0.0
 10
1182.760941746206
 20
-192.0630033363888
 30
0.0
 10
1183.336260542557
 20
-191.993351011404
 30
0.0
 10
1184.124768027848
 20
-191.9212206126281
 30
0.0
 10
1185.083587919884
 20
-191.8517391408205
 30
0.0
 10
1186.176450391558
 20
-191.7797807622966
 30
0.0
 10
1187.363899489684
 20
-191.7097339828539
 30
0.0
 10
1188.598042894899
 20
-191.6385713897591
 30
0.0
 10
1189.832164393541
 20
-191.5674088245365
 30
0.0
 10
1191.019679118837
 20
-191.4973619615954
 30
0.0
 10
1192.1123004585
 20
-191.4254038898674
 30
0.0
 10
1193.072016452103
 20
-191.355921277937
 30
0.0
 10
1193.857169242723
 20
-191.2837951473867
 30
0.0
 10
1194.444970420287
 20
-191.2141269408913
 30
0.0
 10
1194.794730004104
 20
-191.14247580559
 30
0.0
 10
1194.927063671626
 20
-191.083951812757
 30
0.0
 10
1194.850048553356
 20
-191.048822770744
 30
0.0
 10
1194.824728970427
 20
-191.0372737046328
 30
0.0
  0
SPLINE
  5
48DC
330
1F
100
AcDbEntity
  8
0
 62
     7
100
AcDbSpline
210
0.0
220
0.0
230
1.0
 70
     8
 71
     3
 72
    24
 73
    20
 74
     0
 42
0.0000000001
 43
0.0000000001
 40
0.0
 40
0.0
 40
0.0
 40
0.0
 40
0.0319022088170548
 40
0.0945338199507925
 40
0.1568334346044933
 40
0.2195395385065078
 40
0.281807304614403
 40
0.344488557878716
 40
0.4068517945096069
 40
0.4694090899575154
 40
0.5319663854054231
 40
0.5943296220363147
 40
0.6570108753006274
 40
0.719278641408523
 40
0.7819847453105364
 40
0.8442843599642378
 40
0.9069159710979755
 40
0.9693744533350566
 40
0.9999999999999998
 40
0.9999999999999998
 40
0.9999999999999998
 40
0.9999999999999998
 10
1182.371282264454
 20
-189.9039797846685
 30
0.0
 10
1182.385868932957
 20
-189.8919628979931
 30
0.0
 10
1182.429092695357
 20
-189.8563540093464
 30
0.0
 10
1182.760949878646
 20
-189.796336640289
 30
0.0
 10
1183.336258352095
 20
-189.7266843526653
 30
0.0
 10
1184.124768611689
 20
-189.6545539438483
 30
0.0
 10
1185.083587762743
 20
-189.5850724747226
 30
0.0
 10
1186.176450433488
 20
-189.513114095478
 30
0.0
 10
1187.363899478623
 20
-189.4430673162283
 30
0.0
 10
1188.59804289716
 20
-189.371904723081
 30
0.0
 10
1189.832164395574
 20
-189.3007421578755
 30
0.0
 10
1191.019679108469
 20
-189.230695294918
 30
0.0
 10
1192.112300498063
 20
-189.1587372232389
 30
0.0
 10
1193.072016304922
 20
-189.0892546111292
 30
0.0
 10
1193.857169794969
 20
-189.0171284812495
 30
0.0
 10
1194.444968369971
 20
-188.947460272259
 30
0.0
 10
1194.794737693956
 20
-188.8758091462951
 30
0.0
 10
1194.927070516282
 20
-188.8172721711624
 30
0.0
 10
1194.850014569047
 20
-188.7821301085193
 30
0.0
 10
1194.824662416419
 20
-188.7705680296958
 30
0.0
  0
SPLINE
  5
48DD
330
1F
100
AcDbEntity
  8
0
 62
     7
100
AcDbSpline
210
0.0
220
0.0
230
1.0
 70
     8
 71
     3
 72
    14
 73
    10
 74
     0
 42
0.0000000001
 43
0.0000000001
 40
0.0
 40
0.0
 40
0.0
 40
0.0
 40
0.0849184655995474
 40
0.2518310684043993
 40
0.4178589039870487
 40
0.5849700292571275
 40
0.722764554716779
 40
0.8613220990393152
 40
0.9999999999999998
 40
0.9999999999999998
 40
0.9999999999999998
 40
0.9999999999999998
 10
1182.371355170986
 20
-187.6372703864246
 30
0.0
 10
1182.385929001203
 20
-187.6252677735979
 30
0.0
 10
1182.429148614375
 20
-187.5896732678505
 30
0.0
 10
1182.76095827617
 20
-187.5296674491716
 30
0.0
 10
1183.336254870631
 20
-187.4600268200666
 30
0.0
 10
1184.080301294708
 20
-187.3919237344663
 30
0.0
 10
1184.917872882333
 20
-187.3302289061306
 30
0.0
 10
1185.796508920512
 20
-187.2709457367945
 30
0.0
 10
1186.44174266655
 20
-187.2315017376802
 30
0.0
 10
1186.764499597715
 20
-187.2117711761818
 30
0.0
  0
LINE
  5
48DE
330
1F
100
AcDbEntity
  8
0
  6
CENTER
 62
     7
100
AcDbLine
 10
1188.598039240024
 20
-261.0715212177916
 30
0.0
 11
1188.598039240024
 21
-181.5294125939035
 31
0.0
  0
LINE
  5
48ED
330
1F
100
AcDbEntity
  8
0
  6
CENTER
 62
     7
100
AcDbLine
 10
1188.598039240024
 20
-342.6343298429594
 30
0.0
 11
1188.598039240024
 21
-280.3843298429594
 31
0.0
  0
LINE
  5
48EE
330
1F
100
AcDbEntity
  8
0
 62
     7
100
AcDbLine
 10
1186.181372573358
 20
-318.8426631762926
 30
0.0
 11
1186.181372573358
 21
-318.0392170992226
 31
0.0
  0
LINE
  5
48EF
330
1F
100
AcDbEntity
  8
0
 62
     7
100
AcDbLine
 10
1186.181372573358
 20
-316.8183294194943
 30
0.0
 11
1186.181372573358
 21
-314.5093298429594
 31
0.0
  0
LINE
  5
48F0
330
1F
100
AcDbEntity
  8
0
 62
     7
100
AcDbLine
 10
1191.014705906691
 20
-318.8426631762926
 30
0.0
 11
1191.014705906691
 21
-318.0392170992226
 31
0.0
  0
LINE
  5
48F1
330
1F
100
AcDbEntity
  8
0
 62
     7
100
AcDbLine
 10
1191.014705906691
 20
-316.8183294194943
 30
0.0
 11
1191.014705906691
 21
-314.5093298429594
 31
0.0
  0
LINE
  5
48F2
330
1F
100
AcDbEntity
  8
0
  6
CENTER
 62
     7
100
AcDbLine
 10
1157.473039240024
 20
-311.5093298429593
 30
0.0
 11
1219.723039240024
 21
-311.5093298429593
 31
0.0
  0
LINE
  5
48F3
330
1F
100
AcDbEntity
  8
0
 62
     7
100
AcDbLine
 10
1186.181372573358
 20
-314.5093298429594
 30
0.0
 11
1187.287390540541
 21
-314.5093298429594
 31
0.0
  0
LINE
  5
48F4
330
1F
100
AcDbEntity
  8
0
 62
     7
100
AcDbLine
 10
1189.908687939507
 20
-314.5093298429594
 30
0.0
 11
1191.014705906691
 21
-314.5093298429594
 31
0.0
  0
LINE
  5
48F5
330
1F
100
AcDbEntity
  8
0
 62
     7
100
AcDbLine
 10
1186.181372573358
 20
-318.8426631762926
 30
0.0
 11
1191.014705906691
 21
-318.8426631762926
 31
0.0
  0
LINE
  5
48FB
330
1F
100
AcDbEntity
  8
0
 62
     3
100
AcDbLine
 10
1161.098039240024
 20
-243.8360863901249
 30
0.0
 11
1163.264705906691
 21
-248.5027530567915
 31
0.0
  0
LINE
  5
48FC
330
1F
100
AcDbEntity
  8
0
 62
     3
100
AcDbLine
 10
1163.264705906691
 20
-248.5027530567915
 30
0.0
 11
1213.931372573358
 21
-248.5027530567915
 31
0.0
  0
LINE
  5
48FD
330
1F
100
AcDbEntity
  8
0
 62
     3
100
AcDbLine
 10
1213.931372573358
 20
-248.5027530567915
 30
0.0
 11
1216.098039240025
 21
-243.8360863901249
 31
0.0
  0
CIRCLE
  5
48FE
330
1F
100
AcDbEntity
  8
0
100
AcDbCircle
 10
1188.598039240024
 20
-311.5093298429593
 30
0.0
 40
23.83333333333333
  0
CIRCLE
  5
48FF
330
1F
100
AcDbEntity
  8
0
100
AcDbCircle
 10
1188.598039240024
 20
-311.5093298429593
 30
0.0
 40
22.33333333333333
  0
CIRCLE
  5
4900
330
1F
100
AcDbEntity
  8
0
100
AcDbCircle
 10
1188.598039240024
 20
-309.3426631762925
 30
0.0
 40
2.099999999999999
  0
ARC
  5
4901
330
1F
100
AcDbEntity
  8
0
100
AcDbCircle
 10
1188.598039240024
 20
-313.6759965096259
 30
0.0
 40
1.553140192610233
100
AcDbArc
 50
212.4489132954203
 51
327.5510867045797
  0
CIRCLE
  5
4902
330
1F
100
AcDbEntity
  8
0
100
AcDbCircle
 10
1193.431372573358
 20
-309.3426631762925
 30
0.0
 40
2.099999999999999
  0
CIRCLE
  5
4903
330
1F
100
AcDbEntity
  8
0
100
AcDbCircle
 10
1193.431372573358
 20
-313.6759965096259
 30
0.0
 40
2.099999999999999
  0
CIRCLE
  5
4904
330
1F
100
AcDbEntity
  8
0
100
AcDbCircle
 10
1197.764705906691
 20
-309.3426631762925
 30
0.0
 40
2.099999999999999
  0
CIRCLE
  5
4905
330
1F
100
AcDbEntity
  8
0
100
AcDbCircle
 10
1197.764705906691
 20
-313.6759965096259
 30
0.0
 40
2.099999999999999
  0
CIRCLE
  5
4906
330
1F
100
AcDbEntity
  8
0
100
AcDbCircle
 10
1202.098039240024
 20
-309.3426631762925
 30
0.0
 40
2.099999999999999
  0
CIRCLE
  5
4907
330
1F
100
AcDbEntity
  8
0
100
AcDbCircle
 10
1202.098039240024
 20
-313.6759965096259
 30
0.0
 40
2.099999999999999
  0
CIRCLE
  5
4908
330
1F
100
AcDbEntity
  8
0
100
AcDbCircle
 10
1206.431372573358
 20
-309.3426631762925
 30
0.0
 40
2.099999999999999
  0
CIRCLE
  5
4909
330
1F
100
AcDbEntity
  8
0
100
AcDbCircle
 10
1206.431372573358
 20
-313.6759965096259
 30
0.0
 40
2.099999999999999
  0
CIRCLE
  5
490A
330
1F
100
AcDbEntity
  8
0
100
AcDbCircle
 10
1183.764705906691
 20
-309.3426631762925
 30
0.0
 40
2.099999999999999
  0
CIRCLE
  5
490B
330
1F
100
AcDbEntity
  8
0
100
AcDbCircle
 10
1183.764705906691
 20
-313.6759965096259
 30
0.0
 40
2.099999999999999
  0
CIRCLE
  5
490C
330
1F
100
AcDbEntity
  8
0
100
AcDbCircle
 10
1179.431372573358
 20
-309.3426631762925
 30
0.0
 40
2.099999999999999
  0
CIRCLE
  5
490D
330
1F
100
AcDbEntity
  8
0
100
AcDbCircle
 10
1179.431372573358
 20
-313.6759965096259
 30
0.0
 40
2.099999999999999
  0
CIRCLE
  5
490E
330
1F
100
AcDbEntity
  8
0
100
AcDbCircle
 10
1175.098039240024
 20
-309.3426631762925
 30
0.0
 40
2.099999999999999
  0
CIRCLE
  5
490F
330
1F
100
AcDbEntity
  8
0
100
AcDbCircle
 10
1175.098039240024
 20
-313.6759965096259
 30
0.0
 40
2.099999999999999
  0
CIRCLE
  5
4910
330
1F
100
AcDbEntity
  8
0
100
AcDbCircle
 10
1170.764705906691
 20
-309.3426631762925
 30
0.0
 40
2.099999999999999
  0
CIRCLE
  5
4911
330
1F
100
AcDbEntity
  8
0
100
AcDbCircle
 10
1170.764705906691
 20
-313.6759965096259
 30
0.0
 40
2.099999999999999
  0
CIRCLE
  5
4912
330
1F
100
AcDbEntity
  8
0
100
AcDbCircle
 10
1195.598039240024
 20
-305.5898864265602
 30
0.0
 40
2.099999999999999
  0
CIRCLE
  5
4913
330
1F
100
AcDbEntity
  8
0
100
AcDbCircle
 10
1199.931372573358
 20
-305.5898864265602
 30
0.0
 40
2.099999999999999
  0
CIRCLE
  5
4914
330
1F
100
AcDbEntity
  8
0
100
AcDbCircle
 10
1204.264705906691
 20
-305.5898864265602
 30
0.0
 40
2.099999999999999
  0
CIRCLE
  5
4915
330
1F
100
AcDbEntity
  8
0
100
AcDbCircle
 10
1181.598039240024
 20
-305.5898864265602
 30
0.0
 40
2.099999999999999
  0
CIRCLE
  5
4916
330
1F
100
AcDbEntity
  8
0
100
AcDbCircle
 10
1177.264705906691
 20
-305.5898864265602
 30
0.0
 40
2.099999999999999
  0
CIRCLE
  5
4917
330
1F
100
AcDbEntity
  8
0
100
AcDbCircle
 10
1172.931372573358
 20
-305.5898864265602
 30
0.0
 40
2.099999999999999
  0
CIRCLE
  5
4918
330
1F
100
AcDbEntity
  8
0
100
AcDbCircle
 10
1191.264705906691
 20
-305.5898864265602
 30
0.0
 40
2.099999999999999
  0
CIRCLE
  5
4919
330
1F
100
AcDbEntity
  8
0
100
AcDbCircle
 10
1185.931372573358
 20
-305.5898864265602
 30
0.0
 40
2.099999999999999
  0
CIRCLE
  5
491A
330
1F
100
AcDbEntity
  8
0
100
AcDbCircle
 10
1193.431372573358
 20
-301.8371096768273
 30
0.0
 40
2.099999999999999
  0
CIRCLE
  5
491B
330
1F
100
AcDbEntity
  8
0
100
AcDbCircle
 10
1197.764705906691
 20
-301.8371096768273
 30
0.0
 40
2.099999999999999
  0
CIRCLE
  5
491C
330
1F
100
AcDbEntity
  8
0
100
AcDbCircle
 10
1202.098039240024
 20
-301.8371096768273
 30
0.0
 40
2.099999999999999
  0
CIRCLE
  5
491D
330
1F
100
AcDbEntity
  8
0
100
AcDbCircle
 10
1183.764705906691
 20
-301.8371096768273
 30
0.0
 40
2.099999999999999
  0
CIRCLE
  5
491E
330
1F
100
AcDbEntity
  8
0
100
AcDbCircle
 10
1179.431372573358
 20
-301.8371096768273
 30
0.0
 40
2.099999999999999
  0
CIRCLE
  5
491F
330
1F
100
AcDbEntity
  8
0
100
AcDbCircle
 10
1175.098039240024
 20
-301.8371096768273
 30
0.0
 40
2.099999999999999
  0
CIRCLE
  5
4920
330
1F
100
AcDbEntity
  8
0
100
AcDbCircle
 10
1188.598039240024
 20
-301.8371096768273
 30
0.0
 40
2.099999999999999
  0
CIRCLE
  5
4921
330
1F
100
AcDbEntity
  8
0
100
AcDbCircle
 10
1195.598039240024
 20
-298.0843329270949
 30
0.0
 40
2.099999999999999
  0
CIRCLE
  5
4922
330
1F
100
AcDbEntity
  8
0
100
AcDbCircle
 10
1199.931372573358
 20
-298.0843329270949
 30
0.0
 40
2.099999999999999
  0
CIRCLE
  5
4923
330
1F
100
AcDbEntity
  8
0
100
AcDbCircle
 10
1181.598039240024
 20
-298.0843329270949
 30
0.0
 40
2.099999999999999
  0
CIRCLE
  5
4924
330
1F
100
AcDbEntity
  8
0
100
AcDbCircle
 10
1177.264705906691
 20
-298.0843329270949
 30
0.0
 40
2.099999999999999
  0
CIRCLE
  5
4925
330
1F
100
AcDbEntity
  8
0
100
AcDbCircle
 10
1191.264705906691
 20
-298.0843329270949
 30
0.0
 40
2.099999999999999
  0
CIRCLE
  5
4926
330
1F
100
AcDbEntity
  8
0
100
AcDbCircle
 10
1185.931372573358
 20
-298.0843329270949
 30
0.0
 40
2.099999999999999
  0
CIRCLE
  5
4927
330
1F
100
AcDbEntity
  8
0
100
AcDbCircle
 10
1193.431372573358
 20
-294.3315561773624
 30
0.0
 40
2.099999999999999
  0
CIRCLE
  5
4928
330
1F
100
AcDbEntity
  8
0
100
AcDbCircle
 10
1197.764705906691
 20
-294.3315561773624
 30
0.0
 40
2.099999999999999
  0
CIRCLE
  5
4929
330
1F
100
AcDbEntity
  8
0
100
AcDbCircle
 10
1183.764705906691
 20
-294.3315561773624
 30
0.0
 40
2.099999999999999
  0
CIRCLE
  5
492A
330
1F
100
AcDbEntity
  8
0
100
AcDbCircle
 10
1179.431372573358
 20
-294.3315561773624
 30
0.0
 40
2.099999999999999
  0
CIRCLE
  5
492B
330
1F
100
AcDbEntity
  8
0
100
AcDbCircle
 10
1188.598039240024
 20
-294.3315561773624
 30
0.0
 40
2.099999999999999
  0
CIRCLE
  5
492C
330
1F
100
AcDbEntity
  8
0
100
AcDbCircle
 10
1195.598039240024
 20
-317.4287732593585
 30
0.0
 40
2.099999999999999
  0
CIRCLE
  5
492D
330
1F
100
AcDbEntity
  8
0
100
AcDbCircle
 10
1199.931372573358
 20
-317.4287732593585
 30
0.0
 40
2.099999999999999
  0
CIRCLE
  5
492E
330
1F
100
AcDbEntity
  8
0
100
AcDbCircle
 10
1204.264705906691
 20
-317.4287732593585
 30
0.0
 40
2.099999999999999
  0
CIRCLE
  5
492F
330
1F
100
AcDbEntity
  8
0
100
AcDbCircle
 10
1181.598039240024
 20
-317.4287732593585
 30
0.0
 40
2.099999999999999
  0
CIRCLE
  5
4930
330
1F
100
AcDbEntity
  8
0
100
AcDbCircle
 10
1177.264705906691
 20
-317.4287732593585
 30
0.0
 40
2.099999999999999
  0
CIRCLE
  5
4931
330
1F
100
AcDbEntity
  8
0
100
AcDbCircle
 10
1172.931372573358
 20
-317.4287732593585
 30
0.0
 40
2.099999999999999
  0
ARC
  5
4932
330
1F
100
AcDbEntity
  8
0
100
AcDbCircle
 10
1191.264705906691
 20
-317.4287732593585
 30
0.0
 40
2.099999999999999
100
AcDbArc
 50
222.3207950804499
 51
96.83714116813455
  0
ARC
  5
4933
330
1F
100
AcDbEntity
  8
0
100
AcDbCircle
 10
1185.931372573358
 20
-317.4287732593585
 30
0.0
 40
2.099999999999999
100
AcDbArc
 50
83.16285883186543
 51
317.6792049195502
  0
CIRCLE
  5
4934
330
1F
100
AcDbEntity
  8
0
100
AcDbCircle
 10
1193.431372573358
 20
-321.181550009091
 30
0.0
 40
2.099999999999999
  0
CIRCLE
  5
4935
330
1F
100
AcDbEntity
  8
0
100
AcDbCircle
 10
1197.764705906691
 20
-321.181550009091
 30
0.0
 40
2.099999999999999
  0
CIRCLE
  5
4936
330
1F
100
AcDbEntity
  8
0
100
AcDbCircle
 10
1202.098039240024
 20
-321.181550009091
 30
0.0
 40
2.099999999999999
  0
CIRCLE
  5
4937
330
1F
100
AcDbEntity
  8
0
100
AcDbCircle
 10
1183.764705906691
 20
-321.181550009091
 30
0.0
 40
2.099999999999999
  0
CIRCLE
  5
4938
330
1F
100
AcDbEntity
  8
0
100
AcDbCircle
 10
1179.431372573358
 20
-321.181550009091
 30
0.0
 40
2.099999999999999
  0
CIRCLE
  5
4939
330
1F
100
AcDbEntity
  8
0
100
AcDbCircle
 10
1175.098039240024
 20
-321.181550009091
 30
0.0
 40
2.099999999999999
  0
CIRCLE
  5
493A
330
1F
100
AcDbEntity
  8
0
100
AcDbCircle
 10
1188.598039240024
 20
-321.181550009091
 30
0.0
 40
2.099999999999999
  0
CIRCLE
  5
493B
330
1F
100
AcDbEntity
  8
0
100
AcDbCircle
 10
1195.598039240024
 20
-324.9343267588236
 30
0.0
 40
2.099999999999999
  0
CIRCLE
  5
493C
330
1F
100
AcDbEntity
  8
0
100
AcDbCircle
 10
1199.931372573358
 20
-324.9343267588236
 30
0.0
 40
2.099999999999999
  0
CIRCLE
  5
493D
330
1F
100
AcDbEntity
  8
0
100
AcDbCircle
 10
1181.598039240024
 20
-324.9343267588236
 30
0.0
 40
2.099999999999999
  0
CIRCLE
  5
493E
330
1F
100
AcDbEntity
  8
0
100
AcDbCircle
 10
1177.264705906691
 20
-324.9343267588236
 30
0.0
 40
2.099999999999999
  0
CIRCLE
  5
493F
330
1F
100
AcDbEntity
  8
0
100
AcDbCircle
 10
1191.264705906691
 20
-324.9343267588236
 30
0.0
 40
2.099999999999999
  0
CIRCLE
  5
4940
330
1F
100
AcDbEntity
  8
0
100
AcDbCircle
 10
1185.931372573358
 20
-324.9343267588236
 30
0.0
 40
2.099999999999999
  0
CIRCLE
  5
4941
330
1F
100
AcDbEntity
  8
0
100
AcDbCircle
 10
1193.431372573358
 20
-328.6871035085562
 30
0.0
 40
2.099999999999999
  0
CIRCLE
  5
4942
330
1F
100
AcDbEntity
  8
0
100
AcDbCircle
 10
1197.764705906691
 20
-328.6871035085562
 30
0.0
 40
2.099999999999999
  0
CIRCLE
  5
4943
330
1F
100
AcDbEntity
  8
0
100
AcDbCircle
 10
1183.764705906691
 20
-328.6871035085562
 30
0.0
 40
2.099999999999999
  0
CIRCLE
  5
4944
330
1F
100
AcDbEntity
  8
0
100
AcDbCircle
 10
1179.431372573358
 20
-328.6871035085562
 30
0.0
 40
2.099999999999999
  0
CIRCLE
  5
4945
330
1F
100
AcDbEntity
  8
0
100
AcDbCircle
 10
1188.598039240024
 20
-328.6871035085562
 30
0.0
 40
2.099999999999999
  0
ARC
  5
4946
330
1F
100
AcDbEntity
  8
0
100
AcDbCircle
 10
1188.598039240024
 20
-313.6759965096259
 30
0.0
 40
2.099999999999999
100
AcDbArc
 50
336.6201318842852
 51
203.3798681157139
  0
ARC
  5
4947
330
1F
100
AcDbEntity
  8
0
100
AcDbCircle
 10
1191.264705906691
 20
-317.4287732593585
 30
0.0
 40
0.6596526977342592
100
AcDbArc
 50
112.2709682737832
 51
247.7290317262168
  0
ARC
  5
4948
330
1F
100
AcDbEntity
  8
0
100
AcDbCircle
 10
1185.931372573358
 20
-317.4287732593585
 30
0.0
 40
0.6596526977342592
100
AcDbArc
 50
292.2709682737832
 51
67.72903172621679
  0
LINE
  5
4EA2
330
1F
100
AcDbEntity
  8
0
100
AcDbLine
 10
1188.348039240024
 20
-183.8360863901248
 30
0.0
 11
1164.813738796742
 21
-183.8360863901248
 31
0.0
  0
LINE
  5
4EA5
330
1F
100
AcDbEntity
  8
0
100
AcDbLine
 10
1176.848039240024
 20
-213.5027530567917
 30
0.0
 11
1164.813738796742
 21
-213.5027530567917
 31
0.0
  0
LINE
  5
4EA6
330
1F
100
AcDbEntity
  8
0
100
AcDbLine
 10
1166.063738796742
 20
-186.3360863901248
 30
0.0
 11
1166.063738796742
 21
-211.0027530567917
 31
0.0
  0
TEXT
  5
4EAA
330
1F
100
AcDbEntity
  8
0
 62
     4
100
AcDbText
 10
1217.614409770135
 20
-287.6069269050416
 30
0.0
 40
3.2
  1
乳白レンズ
  7
高3.2
100
AcDbText
1001
ACAD
1000
MTEXTBEGIN
1070
    73
1070
     1
1070
    44
1040
1.0
1070
    74
1070
     0
1000
MTEXTEND
  0
TEXT
  5
4EAB
330
1F
100
AcDbEntity
  8
0
 62
     4
100
AcDbText
 10
1217.614409770135
 20
-292.9402602383749
 30
0.0
 40
3.2
  1
(PC)
  7
高3.2
100
AcDbText
1001
ACAD
1000
MTEXTBEGIN
1070
    73
1070
     1
1070
    44
1040
1.0
1070
    74
1070
     0
1000
MTEXTEND
  0
TEXT
  5
4EAE
330
1F
100
AcDbEntity
  8
0
 62
     4
100
AcDbText
 10
1210.434148742264
 20
-217.311971701073
 30
0.0
 40
3.2
  1
ゴムパッキン
  7
高3.2
100
AcDbText
1001
ACAD
1000
MTEXTBEGIN
1070
    73
1070
     1
1070
    44
1040
1.0
1070
    74
1070
     0
1000
MTEXTEND
  0
TEXT
  5
4EB1
330
1F
100
AcDbEntity
  8
0
 62
     4
100
AcDbText
 10
1221.293407502755
 20
-229.5622344970251
 30
0.0
 40
3.2
  1
冷却フィン
  7
高3.2
100
AcDbText
1001
ACAD
1000
MTEXTBEGIN
1070
    73
1070
     1
1070
    44
1040
1.0
1070
    74
1070
     0
1000
MTEXTEND
  0
TEXT
  5
4EB2
330
1F
100
AcDbEntity
  8
0
 62
     4
100
AcDbText
 10
1221.293407502755
 20
-234.8955678303584
 30
0.0
 40
3.2
  1
(ADC)
  7
高3.2
100
AcDbText
1001
ACAD
1000
MTEXTBEGIN
1070
    73
1070
     1
1070
    44
1040
1.0
1070
    74
1070
     0
1000
MTEXTEND
  0
LINE
  5
4EB5
330
1F
100
AcDbEntity
  8
0
100
AcDbLine
 10
1198.431372573358
 20
-213.2527530567917
 30
0.0
 11
1198.431372573358
 21
-206.0758864874889
 31
0.0
  0
LINE
  5
4EB6
330
1F
100
AcDbEntity
  8
0
100
AcDbLine
 10
1178.764705906691
 20
-213.2527530567917
 30
0.0
 11
1178.764705906691
 21
-206.0758864874889
 31
0.0
  0
LINE
  5
4EB7
330
1F
100
AcDbEntity
  8
0
100
AcDbLine
 10
1176.264705906691
 20
-207.3258864874889
 30
0.0
 11
1173.764705906691
 21
-207.3258864874889
 31
0.0
  0
LINE
  5
4EB8
330
1F
100
AcDbEntity
  8
0
100
AcDbLine
 10
1200.931372573358
 20
-207.3258864874889
 30
0.0
 11
1216.181372573358
 21
-207.3258864874889
 31
0.0
  0
LINE
  5
4EB9
330
1F
100
AcDbEntity
  8
0
100
AcDbLine
 10
1178.764705906691
 20
-207.3258864874889
 30
0.0
 11
1198.431372573358
 21
-207.3258864874889
 31
0.0
  0
LINE
  5
4EBD
330
1F
100
AcDbEntity
  8
0
100
AcDbLine
 10
1195.098039235875
 20
-188.91940705012
 30
0.0
 11
1195.098039235875
 21
-176.056163902823
 31
0.0
  0
LINE
  5
4EBE
330
1F
100
AcDbEntity
  8
0
100
AcDbLine
 10
1182.098039279666
 20
-190.0527922284018
 30
0.0
 11
1182.098039279666
 21
-176.056163902823
 31
0.0
  0
LINE
  5
4EBF
330
1F
100
AcDbEntity
  8
0
100
AcDbLine
 10
1192.598039235875
 20
-177.306163902823
 30
0.0
 11
1184.598039279666
 21
-177.306163902823
 31
0.0
  0
LINE
  5
4EC3
330
1F
100
AcDbEntity
  8
0
100
AcDbLine
 10
1161.098039240024
 20
-244.0860863901249
 30
0.0
 11
1161.098039240024
 21
-268.3655370182052
 31
0.0
  0
LINE
  5
4EC4
330
1F
100
AcDbEntity
  8
0
100
AcDbLine
 10
1216.098039240025
 20
-244.0860863901249
 30
0.0
 11
1216.098039240025
 21
-268.3655370182052
 31
0.0
  0
LINE
  5
4EC5
330
1F
100
AcDbEntity
  8
0
100
AcDbLine
 10
1163.598039240024
 20
-267.1155370182052
 30
0.0
 11
1213.598039240025
 21
-267.1155370182052
 31
0.0
  0
LINE
  5
4EC9
330
1F
100
AcDbEntity
  8
0
100
AcDbLine
 10
1188.348039240024
 20
-183.8360863901248
 30
0.0
 11
1154.118098057892
 21
-183.8360863901248
 31
0.0
  0
LINE
  5
4ECA
330
1F
100
AcDbEntity
  8
0
100
AcDbLine
 10
1163.014705906691
 20
-248.5027530567915
 30
0.0
 11
1154.118098057892
 21
-248.5027530567915
 31
0.0
  0
LINE
  5
4ECB
330
1F
100
AcDbEntity
  8
0
100
AcDbLine
 10
1155.368098057892
 20
-186.3360863901248
 30
0.0
 11
1155.368098057892
 21
-246.0027530567915
 31
0.0
  0
LINE
  5
4ECF
330
1F
100
AcDbEntity
  8
0
 62
     3
100
AcDbLine
 10
1191.401446098963
 20
-137.4722938572012
 30
0.0
 11
1191.382818568963
 21
-137.3530260872012
 31
0.0
  0
LINE
  5
4ED0
330
1F
100
AcDbEntity
  8
0
 62
     3
100
AcDbLine
 10
1191.382818568963
 20
-137.3530260872012
 30
0.0
 11
1191.360447388962
 21
-137.2388213072012
 31
0.0
  0
LINE
  5
4ED1
330
1F
100
AcDbEntity
  8
0
 62
     3
100
AcDbLine
 10
1191.360447388962
 20
-137.2388213072012
 30
0.0
 11
1191.334505458963
 21
-137.1305622472013
 31
0.0
  0
LINE
  5
4ED2
330
1F
100
AcDbEntity
  8
0
 62
     3
100
AcDbLine
 10
1191.334505458963
 20
-137.1305622472013
 30
0.0
 11
1191.305193318962
 21
-137.0290856972012
 31
0.0
  0
LINE
  5
4ED3
330
1F
100
AcDbEntity
  8
0
 62
     3
100
AcDbLine
 10
1191.305193318962
 20
-137.0290856972012
 30
0.0
 11
1191.272737508962
 21
-136.9351760172012
 31
0.0
  0
LINE
  5
4ED4
330
1F
100
AcDbEntity
  8
0
 62
     3
100
AcDbLine
 10
1191.272737508962
 20
-136.9351760172012
 30
0.0
 11
1191.237388918962
 21
-136.8495590772013
 31
0.0
  0
LINE
  5
4ED5
330
1F
100
AcDbEntity
  8
0
 62
     3
100
AcDbLine
 10
1191.237388918962
 20
-136.8495590772013
 30
0.0
 11
1191.199420768962
 21
-136.7728966672013
 31
0.0
  0
LINE
  5
4ED6
330
1F
100
AcDbEntity
  8
0
 62
     3
100
AcDbLine
 10
1191.199420768962
 20
-136.7728966672013
 30
0.0
 11
1191.159126518962
 21
-136.7057813272012
 31
0.0
  0
LINE
  5
4ED7
330
1F
100
AcDbEntity
  8
0
 62
     3
100
AcDbLine
 10
1191.159126518962
 20
-136.7057813272012
 30
0.0
 11
1191.116817648962
 21
-136.6487318372012
 31
0.0
  0
LINE
  5
4ED8
330
1F
100
AcDbEntity
  8
0
 62
     3
100
AcDbLine
 10
1191.116817648962
 20
-136.6487318372012
 30
0.0
 11
1191.072821158962
 21
-136.6021891672012
 31
0.0
  0
LINE
  5
4ED9
330
1F
100
AcDbEntity
  8
0
 62
     3
100
AcDbLine
 10
1191.072821158962
 20
-136.6021891672012
 30
0.0
 11
1191.027477138961
 21
-136.5665130472013
 31
0.0
  0
LINE
  5
4EDA
330
1F
100
AcDbEntity
  8
0
 62
     3
100
AcDbLine
 10
1191.027477138961
 20
-136.5665130472013
 30
0.0
 11
1190.981136068962
 21
-136.5419792572011
 31
0.0
  0
LINE
  5
4EDB
330
1F
100
AcDbEntity
  8
0
 62
     3
100
AcDbLine
 10
1190.981136068962
 20
-136.5419792572011
 30
0.0
 11
1190.934156128962
 21
-136.5287774072012
 31
0.0
  0
LINE
  5
4EDC
330
1F
100
AcDbEntity
  8
0
 62
     3
100
AcDbLine
 10
1190.934156128962
 20
-136.5287774072012
 30
0.0
 11
1190.886900468961
 21
-136.5270095672011
 31
0.0
  0
LINE
  5
4EDD
330
1F
100
AcDbEntity
  8
0
 62
     3
100
AcDbLine
 10
1190.886900468961
 20
-136.5270095672011
 30
0.0
 11
1190.839734338963
 21
-136.5366893772012
 31
0.0
  0
LINE
  5
4EDE
330
1F
100
AcDbEntity
  8
0
 62
     3
100
AcDbLine
 10
1190.839734338963
 20
-136.5366893772012
 30
0.0
 11
1190.793022308962
 21
-136.5577420372013
 31
0.0
  0
LINE
  5
4EDF
330
1F
100
AcDbEntity
  8
0
 62
     3
100
AcDbLine
 10
1190.793022308962
 20
-136.5577420372013
 30
0.0
 11
1190.747125448963
 21
-136.5900048072012
 31
0.0
  0
LINE
  5
4EE0
330
1F
100
AcDbEntity
  8
0
 62
     3
100
AcDbLine
 10
1190.747125448963
 20
-136.5900048072012
 30
0.0
 11
1190.702398508962
 21
-136.6332283172011
 31
0.0
  0
LINE
  5
4EE1
330
1F
100
AcDbEntity
  8
0
 62
     3
100
AcDbLine
 10
1190.702398508962
 20
-136.6332283172011
 30
0.0
 11
1190.659187198963
 21
-136.6870784772012
 31
0.0
  0
LINE
  5
4EE2
330
1F
100
AcDbEntity
  8
0
 62
     3
100
AcDbLine
 10
1190.659187198963
 20
-136.6870784772012
 30
0.0
 11
1190.617825538963
 21
-136.7511390472013
 31
0.0
  0
LINE
  5
4EE3
330
1F
100
AcDbEntity
  8
0
 62
     3
100
AcDbLine
 10
1190.617825538963
 20
-136.7511390472013
 30
0.0
 11
1190.578633218962
 21
-136.8249148672012
 31
0.0
  0
LINE
  5
4EE4
330
1F
100
AcDbEntity
  8
0
 62
     3
100
AcDbLine
 10
1190.578633218962
 20
-136.8249148672012
 30
0.0
 11
1190.541913178963
 21
-136.9078356972012
 31
0.0
  0
LINE
  5
4EE5
330
1F
100
AcDbEntity
  8
0
 62
     3
100
AcDbLine
 10
1190.541913178963
 20
-136.9078356972012
 30
0.0
 11
1190.507949248962
 21
-136.9992606072012
 31
0.0
  0
LINE
  5
4EE6
330
1F
100
AcDbEntity
  8
0
 62
     3
100
AcDbLine
 10
1190.507949248962
 20
-136.9992606072012
 30
0.0
 11
1190.477003948963
 21
-137.0984829072012
 31
0.0
  0
LINE
  5
4EE7
330
1F
100
AcDbEntity
  8
0
 62
     3
100
AcDbLine
 10
1190.477003948963
 20
-137.0984829072012
 30
0.0
 11
1190.449316468963
 21
-137.2047356772013
 31
0.0
  0
LINE
  5
4EE8
330
1F
100
AcDbEntity
  8
0
 62
     3
100
AcDbLine
 10
1190.449316468963
 20
-137.2047356772013
 30
0.0
 11
1190.425100818963
 21
-137.3171976372011
 31
0.0
  0
LINE
  5
4EE9
330
1F
100
AcDbEntity
  8
0
 62
     3
100
AcDbLine
 10
1190.425100818963
 20
-137.3171976372011
 30
0.0
 11
1190.404544178963
 21
-137.4349995172013
 31
0.0
  0
LINE
  5
4EEA
330
1F
100
AcDbEntity
  8
0
 62
     3
100
AcDbLine
 10
1190.404544178963
 20
-137.4349995172013
 30
0.0
 11
1190.387805438962
 21
-137.557230757201
 31
0.0
  0
LINE
  5
4EEB
330
1F
100
AcDbEntity
  8
0
 62
     3
100
AcDbLine
 10
1190.387805438962
 20
-137.557230757201
 30
0.0
 11
1190.375013978963
 21
-137.6829465772011
 31
0.0
  0
LINE
  5
4EEC
330
1F
100
AcDbEntity
  8
0
 62
     3
100
AcDbLine
 10
1190.375013978963
 20
-137.6829465772011
 30
0.0
 11
1190.366268668963
 21
-137.8111752572011
 31
0.0
  0
LINE
  5
4EED
330
1F
100
AcDbEntity
  8
0
 62
     3
100
AcDbLine
 10
1190.366268668963
 20
-137.8111752572011
 30
0.0
 11
1190.361637108964
 21
-137.9409256672012
 31
0.0
  0
LINE
  5
4EEE
330
1F
100
AcDbEntity
  8
0
 62
     3
100
AcDbLine
 10
1190.361637108964
 20
-137.9409256672012
 30
0.0
 11
1190.361155098963
 21
-138.0711948972011
 31
0.0
  0
LINE
  5
4EEF
330
1F
100
AcDbEntity
  8
0
 62
     3
100
AcDbLine
 10
1190.361155098963
 20
-138.0711948972011
 30
0.0
 11
1190.364826358963
 21
-138.2009760172012
 31
0.0
  0
LINE
  5
4EF0
330
1F
100
AcDbEntity
  8
0
 62
     3
100
AcDbLine
 10
1190.364826358963
 20
-138.2009760172012
 30
0.0
 11
1190.372622518962
 21
-138.3292659072014
 31
0.0
  0
LINE
  5
4EF1
330
1F
100
AcDbEntity
  8
0
 62
     3
100
AcDbLine
 10
1190.372622518962
 20
-138.3292659072014
 30
0.0
 11
1190.384483318962
 21
-138.4550729472012
 31
0.0
  0
LINE
  5
4EF2
330
1F
100
AcDbEntity
  8
0
 62
     3
100
AcDbLine
 10
1190.384483318962
 20
-138.4550729472012
 30
0.0
 11
1190.400317078963
 21
-138.5774247172011
 31
0.0
  0
LINE
  5
4EF3
330
1F
100
AcDbEntity
  8
0
 62
     3
100
AcDbLine
 10
1190.400317078963
 20
-138.5774247172011
 30
0.0
 11
1190.420001398963
 21
-138.6953754872011
 31
0.0
  0
LINE
  5
4EF4
330
1F
100
AcDbEntity
  8
0
 62
     3
100
AcDbLine
 10
1190.420001398963
 20
-138.6953754872011
 30
0.0
 11
1190.443384158963
 21
-138.8080135572011
 31
0.0
  0
LINE
  5
4EF5
330
1F
100
AcDbEntity
  8
0
 62
     3
100
AcDbLine
 10
1190.443384158963
 20
-138.8080135572011
 30
0.0
 11
1190.470284588963
 21
-138.9144683172012
 31
0.0
  0
LINE
  5
4EF6
330
1F
100
AcDbEntity
  8
0
 62
     3
100
AcDbLine
 10
1190.470284588963
 20
-138.9144683172012
 30
0.0
 11
1190.500494788963
 21
-139.0139169072011
 31
0.0
  0
LINE
  5
4EF7
330
1F
100
AcDbEntity
  8
0
 62
     3
100
AcDbLine
 10
1190.500494788963
 20
-139.0139169072011
 30
0.0
 11
1190.533781238962
 21
-139.1055906372011
 31
0.0
  0
LINE
  5
4EF8
330
1F
100
AcDbEntity
  8
0
 62
     3
100
AcDbLine
 10
1190.533781238962
 20
-139.1055906372011
 30
0.0
 11
1190.569886638962
 21
-139.1887809372013
 31
0.0
  0
LINE
  5
4EF9
330
1F
100
AcDbEntity
  8
0
 62
     3
100
AcDbLine
 10
1190.569886638962
 20
-139.1887809372013
 30
0.0
 11
1190.608531938963
 21
-139.2628447672012
 31
0.0
  0
LINE
  5
4EFA
330
1F
100
AcDbEntity
  8
0
 62
     3
100
AcDbLine
 10
1190.608531938963
 20
-139.2628447672012
 30
0.0
 11
1190.649418418962
 21
-139.3272096572012
 31
0.0
  0
LINE
  5
4EFB
330
1F
100
AcDbEntity
  8
0
 62
     3
100
AcDbLine
 10
1190.649418418962
 20
-139.3272096572012
 30
0.0
 11
1190.692230038962
 21
-139.3813781072013
 31
0.0
  0
LINE
  5
4EFC
330
1F
100
AcDbEntity
  8
0
 62
     3
100
AcDbLine
 10
1190.692230038962
 20
-139.3813781072013
 30
0.0
 11
1190.736635898963
 21
-139.4249314272011
 31
0.0
  0
LINE
  5
4EFD
330
1F
100
AcDbEntity
  8
0
 62
     3
100
AcDbLine
 10
1190.736635898963
 20
-139.4249314272011
 30
0.0
 11
1190.782292748963
 21
-139.4575329572012
 31
0.0
  0
LINE
  5
4EFE
330
1F
100
AcDbEntity
  8
0
 62
     3
100
AcDbLine
 10
1190.782292748963
 20
-139.4575329572012
 30
0.0
 11
1190.828847708961
 21
-139.4789307172012
 31
0.0
  0
LINE
  5
4EFF
330
1F
100
AcDbEntity
  8
0
 62
     3
100
AcDbLine
 10
1190.828847708961
 20
-139.4789307172012
 30
0.0
 11
1190.875940918962
 21
-139.4889592972011
 31
0.0
  0
LINE
  5
4F00
330
1F
100
AcDbEntity
  8
0
 62
     3
100
AcDbLine
 10
1190.875940918962
 20
-139.4889592972011
 30
0.0
 11
1190.923208368962
 21
-139.4875411972011
 31
0.0
  0
LINE
  5
4F01
330
1F
100
AcDbEntity
  8
0
 62
     3
100
AcDbLine
 10
1190.923208368962
 20
-139.4875411972011
 30
0.0
 11
1190.970284708963
 21
-139.4746873772012
 31
0.0
  0
LINE
  5
4F02
330
1F
100
AcDbEntity
  8
0
 62
     3
100
AcDbLine
 10
1190.970284708963
 20
-139.4746873772012
 30
0.0
 11
1191.016806068963
 21
-139.4504971772012
 31
0.0
  0
LINE
  5
4F03
330
1F
100
AcDbEntity
  8
0
 62
     3
100
AcDbLine
 10
1191.016806068963
 20
-139.4504971772012
 30
0.0
 11
1191.062412858963
 21
-139.4151575972012
 31
0.0
  0
LINE
  5
4F04
330
1F
100
AcDbEntity
  8
0
 62
     3
100
AcDbLine
 10
1191.062412858963
 20
-139.4151575972012
 30
0.0
 11
1191.106752558963
 21
-139.3689417772012
 31
0.0
  0
LINE
  5
4F05
330
1F
100
AcDbEntity
  8
0
 62
     3
100
AcDbLine
 10
1191.106752558963
 20
-139.3689417772012
 30
0.0
 11
1191.149482448961
 21
-139.3122069372014
 31
0.0
  0
LINE
  5
4F06
330
1F
100
AcDbEntity
  8
0
 62
     3
100
AcDbLine
 10
1191.149482448961
 20
-139.3122069372014
 30
0.0
 11
1191.190272248962
 21
-139.2453916272012
 31
0.0
  0
LINE
  5
4F07
330
1F
100
AcDbEntity
  8
0
 62
     3
100
AcDbLine
 10
1191.190272248962
 20
-139.2453916272012
 30
0.0
 11
1191.228806678962
 21
-139.1690122772011
 31
0.0
  0
LINE
  5
4F08
330
1F
100
AcDbEntity
  8
0
 62
     3
100
AcDbLine
 10
1191.228806678962
 20
-139.1690122772011
 30
0.0
 11
1191.264787878963
 21
-139.0836592672012
 31
0.0
  0
LINE
  5
4F09
330
1F
100
AcDbEntity
  8
0
 62
     3
100
AcDbLine
 10
1191.264787878963
 20
-139.0836592672012
 30
0.0
 11
1191.297937738963
 21
-138.9899923372012
 31
0.0
  0
LINE
  5
4F0A
330
1F
100
AcDbEntity
  8
0
 62
     3
100
AcDbLine
 10
1191.297937738963
 20
-138.9899923372012
 30
0.0
 11
1191.328000018963
 21
-138.8887354772011
 31
0.0
  0
LINE
  5
4F0B
330
1F
100
AcDbEntity
  8
0
 62
     3
100
AcDbLine
 10
1191.328000018963
 20
-138.8887354772011
 30
0.0
 11
1191.354742368963
 21
-138.7806713572012
 31
0.0
  0
LINE
  5
4F0C
330
1F
100
AcDbEntity
  8
0
 62
     3
100
AcDbLine
 10
1191.354742368963
 20
-138.7806713572012
 30
0.0
 11
1191.377958068962
 21
-138.6666352472012
 31
0.0
  0
LINE
  5
4F0D
330
1F
100
AcDbEntity
  8
0
 62
     3
100
AcDbLine
 10
1191.377958068962
 20
-138.6666352472012
 30
0.0
 11
1191.397467678962
 21
-138.5475085972013
 31
0.0
  0
TEXT
  5
4F0E
330
1F
100
AcDbEntity
  8
0
 62
     4
100
AcDbText
 10
1165.438738796742
 20
-201.0680266714012
 30
0.0
 40
3.0
  1
89
 50
90.0
100
AcDbText
  0
LINE
  5
4F0F
330
1F
100
AcDbEntity
  8
0
  6
ByBlock
 62
     0
370
    -2
100
AcDbLine
 10
1166.733611296742
 20
-211.0027530567917
 30
0.0
 11
1166.063738796742
 21
-213.5027530567917
 31
0.0
  0
LINE
  5
4F10
330
1F
100
AcDbEntity
  8
0
  6
ByBlock
 62
     0
370
    -2
100
AcDbLine
 10
1166.063738796742
 20
-213.5027530567917
 30
0.0
 11
1165.393866296742
 21
-211.0027530567917
 31
0.0
  0
LINE
  5
4F11
330
1F
100
AcDbEntity
  8
0
  6
ByBlock
 62
     0
370
    -2
100
AcDbLine
 10
1166.063738796742
 20
-213.5027530567917
 30
0.0
 11
1166.063738796742
 21
-211.0027530567917
 31
0.0
  0
LINE
  5
4F12
330
1F
100
AcDbEntity
  8
0
  6
ByBlock
 62
     0
370
    -2
100
AcDbLine
 10
1165.393866296742
 20
-186.3360863901248
 30
0.0
 11
1166.063738796742
 21
-183.8360863901248
 31
0.0
  0
LINE
  5
4F13
330
1F
100
AcDbEntity
  8
0
  6
ByBlock
 62
     0
370
    -2
100
AcDbLine
 10
1166.063738796742
 20
-183.8360863901248
 30
0.0
 11
1166.733611296742
 21
-186.3360863901248
 31
0.0
  0
LINE
  5
4F14
330
1F
100
AcDbEntity
  8
0
  6
ByBlock
 62
     0
370
    -2
100
AcDbLine
 10
1166.063738796742
 20
-183.8360863901248
 30
0.0
 11
1166.063738796742
 21
-186.3360863901248
 31
0.0
  0
LINE
  5
4F15
330
1F
100
AcDbEntity
  8
0
100
AcDbLine
 10
1203.697807519145
 20
-298.7853758464589
 30
0.0
 11
1214.786471889949
 21
-294.0911079237551
 31
0.0
  0
LINE
  5
4F16
330
1F
100
AcDbEntity
  8
0
100
AcDbLine
 10
1214.786471889949
 20
-294.0911079237551
 30
0.0
 11
1217.911471889949
 21
-294.0911079237551
 31
0.0
  0
LINE
  5
4F17
330
1F
100
AcDbEntity
  8
0
  6
ByBlock
 62
     0
370
    -2
100
AcDbLine
 10
1203.958953932194
 20
-299.4022483755991
 30
0.0
 11
1201.395606245245
 21
-299.7599882281026
 31
0.0
  0
LINE
  5
4F18
330
1F
100
AcDbEntity
  8
0
  6
ByBlock
 62
     0
370
    -2
100
AcDbLine
 10
1201.395606245245
 20
-299.7599882281026
 30
0.0
 11
1203.436661106096
 21
-298.1685033173187
 31
0.0
  0
LINE
  5
4F19
330
1F
100
AcDbEntity
  8
0
  6
ByBlock
 62
     0
370
    -2
100
AcDbLine
 10
1201.395606245245
 20
-299.7599882281026
 30
0.0
 11
1203.697807519145
 21
-298.7853758464589
 31
0.0
  0
LINE
  5
4F1A
330
1F
100
AcDbEntity
  8
0
100
AcDbLine
 10
1206.628335349716
 20
-220.1147084125075
 30
0.0
 11
1210.235815408931
 21
-219.936971701073
 31
0.0
  0
LINE
  5
4F1B
330
1F
100
AcDbEntity
  8
0
100
AcDbLine
 10
1210.235815408931
 20
-219.936971701073
 30
0.0
 11
1210.860815408931
 21
-219.936971701073
 31
0.0
  0
LINE
  5
4F1C
330
1F
100
AcDbEntity
  8
0
  6
ByBlock
 62
     0
370
    -2
100
AcDbLine
 10
1206.66129927187
 20
-220.7837693559892
 30
0.0
 11
1204.131364122051
 21
-220.2377315331533
 31
0.0
  0
LINE
  5
4F1D
330
1F
100
AcDbEntity
  8
0
  6
ByBlock
 62
     0
370
    -2
100
AcDbLine
 10
1204.131364122051
 20
-220.2377315331533
 30
0.0
 11
1206.595371427562
 21
-219.445647469026
 31
0.0
  0
LINE
  5
4F1E
330
1F
100
AcDbEntity
  8
0
  6
ByBlock
 62
     0
370
    -2
100
AcDbLine
 10
1204.131364122051
 20
-220.2377315331533
 30
0.0
 11
1206.628335349716
 21
-220.1147084125075
 31
0.0
  0
LINE
  5
4F1F
330
1F
100
AcDbEntity
  8
0
100
AcDbLine
 10
1213.538257063692
 20
-234.9580910740407
 30
0.0
 11
1218.168407502756
 21
-237.5205678303585
 31
0.0
  0
LINE
  5
4F20
330
1F
100
AcDbEntity
  8
0
100
AcDbLine
 10
1218.168407502756
 20
-237.5205678303585
 30
0.0
 11
1221.293407502756
 21
-237.5205678303585
 31
0.0
  0
LINE
  5
4F21
330
1F
100
AcDbEntity
  8
0
  6
ByBlock
 62
     0
370
    -2
100
AcDbLine
 10
1213.213889401745
 20
-235.5441924186387
 30
0.0
 11
1211.350895496386
 21
-233.7475336099472
 31
0.0
  0
LINE
  5
4F22
330
1F
100
AcDbEntity
  8
0
  6
ByBlock
 62
     0
370
    -2
100
AcDbLine
 10
1211.350895496386
 20
-233.7475336099472
 30
0.0
 11
1213.862624725638
 21
-234.3719897294426
 31
0.0
  0
LINE
  5
4F23
330
1F
100
AcDbEntity
  8
0
  6
ByBlock
 62
     0
370
    -2
100
AcDbLine
 10
1211.350895496386
 20
-233.7475336099472
 30
0.0
 11
1213.538257063692
 21
-234.9580910740407
 31
0.0
  0
TEXT
  5
4F24
330
1F
100
AcDbEntity
  8
0
 62
     4
100
AcDbText
 10
1207.556372573358
 20
-206.7008864874889
 30
0.0
 40
3.0
  1
\U+220559
100
AcDbText
  0
LINE
  5
4F25
330
1F
100
AcDbEntity
  8
0
  6
ByBlock
 62
     0
370
    -2
100
AcDbLine
 10
1200.931372573358
 20
-207.9957589874889
 30
0.0
 11
1198.431372573358
 21
-207.3258864874889
 31
0.0
  0
LINE
  5
4F26
330
1F
100
AcDbEntity
  8
0
  6
ByBlock
 62
     0
370
    -2
100
AcDbLine
 10
1198.431372573358
 20
-207.3258864874889
 30
0.0
 11
1200.931372573358
 21
-206.6560139874889
 31
0.0
  0
LINE
  5
4F27
330
1F
100
AcDbEntity
  8
0
  6
ByBlock
 62
     0
370
    -2
100
AcDbLine
 10
1198.431372573358
 20
-207.3258864874889
 30
0.0
 11
1200.931372573358
 21
-207.3258864874889
 31
0.0
  0
LINE
  5
4F28
330
1F
100
AcDbEntity
  8
0
  6
ByBlock
 62
     0
370
    -2
100
AcDbLine
 10
1176.264705906691
 20
-206.6560139874889
 30
0.0
 11
1178.764705906691
 21
-207.3258864874889
 31
0.0
  0
LINE
  5
4F29
330
1F
100
AcDbEntity
  8
0
  6
ByBlock
 62
     0
370
    -2
100
AcDbLine
 10
1178.764705906691
 20
-207.3258864874889
 30
0.0
 11
1176.264705906691
 21
-207.9957589874889
 31
0.0
  0
LINE
  5
4F2A
330
1F
100
AcDbEntity
  8
0
  6
ByBlock
 62
     0
370
    -2
100
AcDbLine
 10
1178.764705906691
 20
-207.3258864874889
 30
0.0
 11
1176.264705906691
 21
-207.3258864874889
 31
0.0
  0
TEXT
  5
4F2B
330
1F
100
AcDbEntity
  8
0
 62
     4
100
AcDbText
 10
1184.757995045097
 20
-176.681163902823
 30
0.0
 40
3.0
  1
E39
100
AcDbText
  0
LINE
  5
4F2C
330
1F
100
AcDbEntity
  8
0
  6
ByBlock
 62
     0
370
    -2
100
AcDbLine
 10
1184.598039279666
 20
-177.976036402823
 30
0.0
 11
1182.098039279666
 21
-177.306163902823
 31
0.0
  0
LINE
  5
4F2D
330
1F
100
AcDbEntity
  8
0
  6
ByBlock
 62
     0
370
    -2
100
AcDbLine
 10
1182.098039279666
 20
-177.306163902823
 30
0.0
 11
1184.598039279666
 21
-176.636291402823
 31
0.0
  0
LINE
  5
4F2E
330
1F
100
AcDbEntity
  8
0
  6
ByBlock
 62
     0
370
    -2
100
AcDbLine
 10
1182.098039279666
 20
-177.306163902823
 30
0.0
 11
1184.598039279666
 21
-177.306163902823
 31
0.0
  0
LINE
  5
4F2F
330
1F
100
AcDbEntity
  8
0
  6
ByBlock
 62
     0
370
    -2
100
AcDbLine
 10
1192.598039235875
 20
-176.636291402823
 30
0.0
 11
1195.098039235875
 21
-177.306163902823
 31
0.0
  0
LINE
  5
4F30
330
1F
100
AcDbEntity
  8
0
  6
ByBlock
 62
     0
370
    -2
100
AcDbLine
 10
1195.098039235875
 20
-177.306163902823
 30
0.0
 11
1192.598039235875
 21
-177.976036402823
 31
0.0
  0
LINE
  5
4F31
330
1F
100
AcDbEntity
  8
0
  6
ByBlock
 62
     0
370
    -2
100
AcDbLine
 10
1195.098039235875
 20
-177.306163902823
 30
0.0
 11
1192.598039235875
 21
-177.306163902823
 31
0.0
  0
TEXT
  5
4F32
330
1F
100
AcDbEntity
  8
0
 62
     4
100
AcDbText
 10
1183.682858112778
 20
-266.4905370182052
 30
0.0
 40
3.0
  1
\U+2205165
100
AcDbText
  0
LINE
  5
4F33
330
1F
100
AcDbEntity
  8
0
  6
ByBlock
 62
     0
370
    -2
100
AcDbLine
 10
1213.598039240025
 20
-266.4456645182052
 30
0.0
 11
1216.098039240025
 21
-267.1155370182052
 31
0.0
  0
LINE
  5
4F34
330
1F
100
AcDbEntity
  8
0
  6
ByBlock
 62
     0
370
    -2
100
AcDbLine
 10
1216.098039240025
 20
-267.1155370182052
 30
0.0
 11
1213.598039240025
 21
-267.7854095182052
 31
0.0
  0
LINE
  5
4F35
330
1F
100
AcDbEntity
  8
0
  6
ByBlock
 62
     0
370
    -2
100
AcDbLine
 10
1216.098039240025
 20
-267.1155370182052
 30
0.0
 11
1213.598039240025
 21
-267.1155370182052
 31
0.0
  0
LINE
  5
4F36
330
1F
100
AcDbEntity
  8
0
  6
ByBlock
 62
     0
370
    -2
100
AcDbLine
 10
1163.598039240024
 20
-267.7854095182052
 30
0.0
 11
1161.098039240024
 21
-267.1155370182052
 31
0.0
  0
LINE
  5
4F37
330
1F
100
AcDbEntity
  8
0
  6
ByBlock
 62
     0
370
    -2
100
AcDbLine
 10
1161.098039240024
 20
-267.1155370182052
 30
0.0
 11
1163.598039240024
 21
-266.4456645182052
 31
0.0
  0
LINE
  5
4F38
330
1F
100
AcDbEntity
  8
0
  6
ByBlock
 62
     0
370
    -2
100
AcDbLine
 10
1161.098039240024
 20
-267.1155370182052
 30
0.0
 11
1163.598039240024
 21
-267.1155370182052
 31
0.0
  0
TEXT
  5
4F39
330
1F
100
AcDbEntity
  8
0
 62
     4
100
AcDbText
 10
1154.743098057892
 20
-225.451976528109
 30
0.0
 40
3.0
  1
194
 50
90.0
100
AcDbText
  0
LINE
  5
4F3A
330
1F
100
AcDbEntity
  8
0
  6
ByBlock
 62
     0
370
    -2
100
AcDbLine
 10
1156.037970557892
 20
-246.0027530567915
 30
0.0
 11
1155.368098057892
 21
-248.5027530567915
 31
0.0
  0
LINE
  5
4F3B
330
1F
100
AcDbEntity
  8
0
  6
ByBlock
 62
     0
370
    -2
100
AcDbLine
 10
1155.368098057892
 20
-248.5027530567915
 30
0.0
 11
1154.698225557892
 21
-246.0027530567915
 31
0.0
  0
LINE
  5
4F3C
330
1F
100
AcDbEntity
  8
0
  6
ByBlock
 62
     0
370
    -2
100
AcDbLine
 10
1155.368098057892
 20
-248.5027530567915
 30
0.0
 11
1155.368098057892
 21
-246.0027530567915
 31
0.0
  0
LINE
  5
4F3D
330
1F
100
AcDbEntity
  8
0
  6
ByBlock
 62
     0
370
    -2
100
AcDbLine
 10
1154.698225557892
 20
-186.3360863901248
 30
0.0
 11
1155.368098057892
 21
-183.8360863901248
 31
0.0
  0
LINE
  5
4F3E
330
1F
100
AcDbEntity
  8
0
  6
ByBlock
 62
     0
370
    -2
100
AcDbLine
 10
1155.368098057892
 20
-183.8360863901248
 30
0.0
 11
1156.037970557892
 21
-186.3360863901248
 31
0.0
  0
LINE
  5
4F3F
330
1F
100
AcDbEntity
  8
0
  6
ByBlock
 62
     0
370
    -2
100
AcDbLine
 10
1155.368098057892
 20
-183.8360863901248
 30
0.0
 11
1155.368098057892
 21
-186.3360863901248
 31
0.0
  0
ENDSEC
  0
SECTION
  2
OBJECTS
  0
DICTIONARY
  5
C
330
0
100
AcDbDictionary
281
     1
  3
ACAD_2007HEADERVARS_RT
350
4F43
  3
ACAD_COLOR
350
73
  3
ACAD_GROUP
350
D
  3
ACAD_LAYOUT
350
1A
  3
ACAD_MATERIAL
350
72
  3
ACAD_MLEADERSTYLE
350
168
  3
ACAD_MLINESTYLE
350
17
  3
ACAD_PLOTSETTINGS
350
19
  3
ACAD_PLOTSTYLENAME
350
E
  3
ACAD_SCALELIST
350
156
  3
ACAD_TABLESTYLE
350
86
  3
ACAD_VISUALSTYLE
350
99
  3
AcadDim
350
245F
  3
ACDB_RECOMPOSE_DATA
350
4F41
  3
AcDbVariableDictionary
350
66
  3
DWGPROPS
350
4F42
  0
DICTIONARY
  5
DD
330
2
100
AcDbDictionary
280
     1
281
     1
  3
ACAD_LAYERSTATES
360
DE
  0
DICTIONARY
  5
1426
330
10
100
AcDbDictionary
280
     1
281
     1
  3
ADSK_XREC_LAYER_RECONCILED
360
1427
  0
DICTIONARY
  5
324
330
1F
100
AcDbDictionary
280
     1
281
     1
  3
ACAD_SORTENTS
360
325
  0
DICTIONARY
  5
4F43
102
{ACAD_REACTORS
330
C
102
}
330
C
100
AcDbDictionary
281
     1
  3
DIMARCSYM
350
4F45
  3
DIMFXL
350
4F44
  3
DIMJOGANG
350
4F46
  0
DICTIONARY
  5
73
102
{ACAD_REACTORS
330
C
102
}
330
C
100
AcDbDictionary
281
     1
  0
DICTIONARY
  5
D
102
{ACAD_REACTORS
330
C
102
}
330
C
100
AcDbDictionary
281
     1
  0
DICTIONARY
  5
1A
102
{ACAD_REACTORS
330
C
102
}
330
C
100
AcDbDictionary
281
     1
  3
Model
350
22
  3
レイアウト1
350
59
  3
レイアウト2
350
5E
  0
DICTIONARY
  5
72
102
{ACAD_REACTORS
330
C
102
}
330
C
100
AcDbDictionary
281
     1
  3
ByBlock
350
97
  3
ByLayer
350
96
  3
Global
350
98
  0
DICTIONARY
  5
168
102
{ACAD_REACTORS
330
C
102
}
330
C
100
AcDbDictionary
281
     1
  3
Standard
350
169
  0
DICTIONARY
  5
17
102
{ACAD_REACTORS
330
C
102
}
330
C
100
AcDbDictionary
281
     1
  3
Standard
350
18
  0
DICTIONARY
  5
19
102
{ACAD_REACTORS
330
C
102
}
330
C
100
AcDbDictionary
281
     1
  0
ACDBDICTIONARYWDFLT
  5
E
102
{ACAD_REACTORS
330
C
102
}
330
C
100
AcDbDictionary
281
     1
  3
Normal
350
F
100
AcDbDictionaryWithDefault
340
F
  0
DICTIONARY
  5
156
102
{ACAD_REACTORS
330
C
102
}
330
C
100
AcDbDictionary
281
     1
  3
A0
350
157
  3
A1
350
158
  3
A2
350
159
  3
A3
350
15A
  3
A4
350
15B
  3
A5
350
15C
  3
A6
350
15D
  3
A7
350
15E
  3
A8
350
15F
  3
A9
350
160
  3
B0
350
161
  3
B1
350
162
  3
B2
350
163
  3
B3
350
164
  3
B4
350
165
  3
B5
350
166
  3
B6
350
167
  0
DICTIONARY
  5
86
102
{ACAD_REACTORS
330
C
102
}
330
C
100
AcDbDictionary
281
     1
  3
Standard
350
87
  0
DICTIONARY
  5
99
102
{ACAD_REACTORS
330
C
102
}
330
C
100
AcDbDictionary
281
     1
  3
2dWireframe
350
9F
  3
3D Hidden
350
A1
  3
3dWireframe
350
A0
  3
Basic
350
9E
  3
Brighten
350
A5
  3
ColorChange
350
A9
  3
Conceptual
350
A2
  3
Dim
350
A4
  3
EdgeColorOff
350
155
  3
Facepattern
350
A8
  3
Flat
350
9A
  3
FlatWithEdges
350
9B
  3
Gouraud
350
9C
  3
GouraudWithEdges
350
9D
  3
Hidden
350
14D
  3
JitterOff
350
153
  3
Linepattern
350
A7
  3
OverhangOff
350
154
  3
Realistic
350
A3
  3
Shaded
350
152
  3
Shaded with edges
350
151
  3
Shades of Gray
350
14E
  3
Sketchy
350
14F
  3
Thicken
350
A6
  3
Wireframe
350
14C
  3
X-Ray
350
150
  0
XRECORD
  5
245F
102
{ACAD_REACTORS
330
C
102
}
330
C
100
AcDbXrecord
280
     1
 90
   990106
  3

 60
     0
 61
     0
 62
     1
 63
     3
 64
     0
 65
     0
 66
     0
 67
     3
 68
     1
 69
     0
 70
     0
 71
     0
 72
     0
 40
0.0
170
     0
340
2461
  0
XRECORD
  5
4F41
102
{ACAD_REACTORS
330
C
102
}
330
C
100
AcDbXrecord
280
     1
 90
        1
330
87
  0
DICTIONARY
  5
66
102
{ACAD_REACTORS
330
C
102
}
330
C
100
AcDbDictionary
281
     1
  3
CANNOSCALE
350
24A
  3
CMLEADERSTYLE
350
248
  3
CTABLESTYLE
350
89
  3
DIMASSOC
350
67
  3
HIDETEXT
350
6B
  3
INDEXCTL
350
142C
  3
LAYEREVAL
350
24C
  3
LAYERNOTIFY
350
24D
  3
LIGHTINGUNITS
350
24B
  3
MSLTSCALE
350
249
  3
SORTENTS
350
142B
  3
XCLIPFRAME
350
4DDA
  0
XRECORD
  5
4F42
102
{ACAD_REACTORS
330
C
102
}
330
C
100
AcDbXrecord
280
     1
  1
DWGPROPS COOKIE
  2

  3

  4

  6

  7

  8
imamura
  9

300
=
301
=
302
=
303
=
304
=
305
=
306
=
307
=
308
=
309
=
 40
0.6990895138888888
 41
2456168.592036505
 42
2457394.8023636
  1

 90
        0
  0
DICTIONARY
  5
DE
102
{ACAD_REACTORS
330
DD
102
}
330
DD
100
AcDbDictionary
281
     1
  0
XRECORD
  5
1427
102
{ACAD_REACTORS
330
1426
102
}
330
1426
100
AcDbXrecord
280
     1
290
     1
  0
SORTENTSTABLE
  5
325
102
{ACAD_REACTORS
330
324
102
}
330
324
100
AcDbSortentsTable
330
1F
331
4930
  5
4F27
331
4518
  5
4864
331
4941
  5
4F38
331
4478
  5
44E3
331
4ECA
  5
4932
331
4533
  5
487F
331
463C
  5
488F
331
4F0E
  5
4EF1
331
488F
  5
48CE
331
4EFD
  5
448D
331
4EEC
  5
447C
331
4F1F
  5
4ECE
331
48A0
  5
48ED
331
486F
  5
48AE
331
4867
  5
48A6
331
4F30
  5
4EB4
331
48B1
  5
4903
331
4878
  5
48B7
331
4EDB
  5
446B
331
4522
  5
486E
331
48C2
  5
4914
331
48D3
  5
4925
331
448A
  5
44F5
331
449B
  5
4506
331
4904
  5
4EFB
331
44AC
  5
4518
331
4915
  5
4F0C
331
44E5
  5
4525
331
44F6
  5
4537
331
4507
  5
4640
331
4467
  5
44A6
331
4456
  5
4456
331
4445
  5
4445
331
4434
  5
4434
331
4423
  5
4423
331
4412
  5
4412
331
4401
  5
4401
331
4920
  5
4F17
331
4508
  5
4641
331
4931
  5
4F28
331
4468
  5
44A7
331
4942
  5
4F39
331
4479
  5
44E4
331
4ECB
  5
4933
331
463D
  5
4890
331
4EDC
  5
446C
331
4F0F
  5
4EEE
331
4F20
  5
4ECF
331
48A1
  5
48EE
331
4890
  5
48CF
331
4EFE
  5
448E
331
4F31
  5
4EB5
331
48B2
  5
4904
331
4879
  5
48B8
331
4EED
  5
447D
331
4523
  5
486F
331
4519
  5
4865
331
48C3
  5
4915
331
48D4
  5
4926
331
448B
  5
44F6
331
449C
  5
4507
331
4905
  5
4EFC
331
44AD
  5
4519
331
4916
  5
4F0D
331
4636
  5
4889
331
44E6
  5
4526
331
44F7
  5
4538
331
4457
  5
4457
331
4446
  5
4446
331
4435
  5
4435
331
4424
  5
4424
331
4413
  5
4413
331
4402
  5
4402
331
44F8
  5
453A
331
4921
  5
4F18
331
4EB1
  5
4ED0
331
4509
  5
4642
331
4932
  5
4F29
331
4469
  5
44A8
331
4943
  5
4F3A
331
447A
  5
44E5
331
4535
  5
4880
331
463E
  5
4891
331
4F10
  5
4EEF
331
4F21
  5
4ECB
331
48A2
  5
48EF
331
4891
  5
48D0
331
4EFF
  5
448F
331
4EEE
  5
447E
331
4F32
  5
4EAF
331
48B3
  5
4905
331
487A
  5
48B9
331
4EDD
  5
446D
331
4524
  5
4870
331
451A
  5
4866
331
4458
  5
4458
331
48C4
  5
4916
331
48D5
  5
4927
331
448C
  5
44F7
331
449D
  5
4508
331
4906
  5
4EFD
331
44AE
  5
451A
331
4917
  5
4F0E
331
4637
  5
488A
331
44E7
  5
4527
331
4447
  5
4447
331
4436
  5
4436
331
4425
  5
4425
331
4414
  5
4414
331
4403
  5
4403
331
4918
  5
4F0F
331
44E8
  5
4528
331
44F9
  5
453B
331
4922
  5
4F19
331
4EB2
  5
4ED1
331
450A
  5
4643
331
4933
  5
4F2A
331
446A
  5
44A9
331
4EC3
  5
4944
331
4944
  5
4F3B
331
447B
  5
44E6
331
4536
  5
4881
331
463F
  5
4892
331
4F11
  5
4EF0
331
4F22
  5
4ECC
331
48A3
  5
48F0
331
4892
  5
48D1
331
4F00
  5
4490
331
4EEF
  5
447F
331
4F33
  5
4EAC
331
48B4
  5
4906
331
487B
  5
48BA
331
4EDE
  5
446E
331
4525
  5
4871
331
451B
  5
4867
331
4459
  5
4459
331
4448
  5
4448
331
48C5
  5
4917
331
48D6
  5
4928
331
448D
  5
44F8
331
449E
  5
4509
331
4907
  5
4EFE
331
44AF
  5
451B
331
4437
  5
4437
331
4426
  5
4426
331
4415
  5
4415
331
4404
  5
4404
331
4908
  5
4EFF
331
44B0
  5
451C
331
4919
  5
4F10
331
44E9
  5
4529
331
4EA2
  5
4EE8
331
44FA
  5
453C
331
4923
  5
4F1A
331
450B
  5
4644
331
4934
  5
4F2B
331
446B
  5
44AA
331
4EC4
  5
4945
331
4945
  5
4F3C
331
447C
  5
44E7
331
4537
  5
4882
331
48D8
  5
492A
331
4640
  5
4893
331
4F12
  5
4EEB
331
4F23
  5
4ECD
331
48A4
  5
48F1
331
4893
  5
48D2
331
4672
  5
48A2
331
4F01
  5
4491
331
4F34
  5
4EAD
331
48B5
  5
4907
331
487C
  5
48BB
331
4EF0
  5
4480
331
4EDF
  5
446F
331
4526
  5
4872
331
451C
  5
4868
331
445A
  5
445A
331
4449
  5
4449
331
4438
  5
4438
331
48C6
  5
4918
331
48D7
  5
4929
331
448E
  5
44F9
331
449F
  5
450A
331
4427
  5
4427
331
4416
  5
4416
331
4405
  5
4405
331
48F0
  5
4EDB
331
44A0
  5
450B
331
4909
  5
4F00
331
44B1
  5
451D
331
491A
  5
4F11
331
44EA
  5
452A
331
44FB
  5
453D
331
4924
  5
4F1B
331
450C
  5
4645
331
4935
  5
4F2C
331
446C
  5
44AB
331
4EC5
  5
4946
331
4946
  5
4F3D
331
447D
  5
44E8
331
4538
  5
4883
331
4ECF
  5
445F
331
48D9
  5
492B
331
4641
  5
4894
331
4662
  5
489E
331
4F13
  5
4EEC
331
4F24
  5
4ECA
331
48A5
  5
48F2
331
4894
  5
48D3
331
4F02
  5
4492
331
4F35
  5
4EAE
331
48B6
  5
4908
331
487D
  5
48BC
331
4EF1
  5
4481
331
4EE0
  5
4470
331
4527
  5
4873
331
451D
  5
4869
331
445B
  5
445B
331
444A
  5
444A
331
4439
  5
4439
331
4428
  5
4428
331
48C7
  5
4919
331
448F
  5
44FA
331
4417
  5
4417
331
4406
  5
4406
331
48C8
  5
491A
331
48F1
  5
4EDC
331
4490
  5
44FB
331
44A1
  5
450C
331
490A
  5
4F01
331
44B2
  5
451E
331
491B
  5
4F12
331
44EB
  5
452B
331
44FC
  5
453E
331
4925
  5
4F1C
331
4EB5
  5
4EBC
331
450D
  5
4646
331
4936
  5
4F2D
331
446D
  5
44AC
331
4947
  5
4F3E
331
447E
  5
44E9
331
48DA
  5
492C
331
4EE1
  5
4471
331
4ED0
  5
4460
331
4642
  5
4895
331
48FB
  5
4EF2
331
4663
  5
489F
331
4F14
  5
4EED
331
48ED
  5
4ED8
331
4F25
  5
4EC7
331
4895
  5
48D4
331
48A6
  5
48F3
331
4F36
  5
4947
331
48B7
  5
4909
331
487E
  5
48BD
331
4F03
  5
4493
331
4EF2
  5
4482
331
4528
  5
4874
331
451E
  5
486A
331
445C
  5
445C
331
444B
  5
444B
331
443A
  5
443A
331
4429
  5
4429
331
4418
  5
4418
331
4407
  5
4407
331
48B8
  5
490A
331
48C9
  5
491B
331
4480
  5
44EB
331
48F2
  5
4EDD
331
4491
  5
44FC
331
44A2
  5
450D
331
490B
  5
4F02
331
44B3
  5
451F
331
491C
  5
4F13
331
44EC
  5
452C
331
4EA5
  5
4EE9
331
44FD
  5
4636
331
4926
  5
4F1D
331
4EB6
  5
4EC0
331
450E
  5
4647
331
4937
  5
4F2E
331
446E
  5
44AD
331
4529
  5
4875
331
447F
  5
44EA
331
453A
  5
4884
331
48DB
  5
492D
331
4EE2
  5
4472
331
4643
  5
4896
331
48FC
  5
4EF3
331
4664
  5
48A0
331
4F15
  5
4EE4
331
48EE
  5
4ED9
331
4F26
  5
4EC8
331
4896
  5
48D5
331
48A7
  5
48F4
331
4F37
  5
4EA8
331
487F
  5
48BE
331
4F04
  5
4494
331
4EF3
  5
4483
331
4ED1
  5
4461
331
451F
  5
486B
331
445D
  5
445D
331
444C
  5
444C
331
443B
  5
443B
331
442A
  5
442A
331
4419
  5
4419
331
4408
  5
4408
331
48A8
  5
48F5
331
4F38
  5
4EA9
331
48B9
  5
490B
331
4880
  5
48BF
331
48CA
  5
491C
331
4481
  5
44EC
331
48F3
  5
4EDE
331
4492
  5
44FD
331
44A3
  5
450E
331
490C
  5
4F03
331
491D
  5
4F14
331
44ED
  5
452D
331
4927
  5
4F1E
331
4EA6
  5
4EEA
331
44FE
  5
4637
331
4EB7
  5
4EC1
331
4938
  5
4F2F
331
446F
  5
44AE
331
453B
  5
4885
331
4ED2
  5
4462
331
48DC
  5
492E
331
4644
  5
4897
331
48FD
  5
4EF4
331
4F16
  5
4EE5
331
48EF
  5
4EDA
331
4F27
  5
4EC9
331
4897
  5
48D6
331
4F05
  5
4495
331
4EF4
  5
4484
331
4EE3
  5
4473
331
452A
  5
4876
331
450F
  5
4648
331
444D
  5
444D
331
443C
  5
443C
331
442B
  5
442B
331
441A
  5
441A
331
4409
  5
4409
331
4898
  5
48D7
331
4F28
  5
4EC4
331
48A9
  5
48FB
331
4870
  5
48AF
331
4F39
  5
4943
331
48BA
  5
490C
331
4881
  5
48C0
331
48CB
  5
491D
331
4482
  5
44ED
331
48F4
  5
4EDF
331
4493
  5
44FE
331
44A4
  5
450F
331
490D
  5
4F04
331
44B5
  5
4520
331
491E
  5
4F15
331
44EE
  5
452E
331
44FF
  5
4638
331
4928
  5
4F1F
331
445F
  5
449E
331
4EB8
  5
4EC2
331
4939
  5
4F30
331
4470
  5
44AF
331
453C
  5
4886
331
4ED3
  5
4463
331
48DD
  5
492F
331
4645
  5
4898
331
48FE
  5
4EF5
331
4F17
  5
4EE1
331
4F06
  5
4496
331
4EF5
  5
4485
331
4EE4
  5
4474
331
452B
  5
4877
331
4510
  5
4649
331
444E
  5
444E
331
443D
  5
443D
331
442C
  5
442C
331
441B
  5
441B
331
440A
  5
440A
331
4948
  5
4F3F
331
4888
  5
48C7
331
4F18
  5
4EE2
331
4899
  5
48D8
331
4868
  5
48A7
331
4F29
  5
4EC5
331
48AA
  5
48FC
331
4F3A
  5
493D
331
48BB
  5
490D
331
4882
  5
48C1
331
4871
  5
48B0
331
48CC
  5
491E
331
4483
  5
44EE
331
48F5
  5
4EE0
331
4494
  5
44FF
331
44A5
  5
4510
331
490E
  5
4F05
331
491F
  5
4F16
331
44EF
  5
452F
331
4500
  5
4639
331
4929
  5
4F20
331
4460
  5
449F
331
4EB9
  5
4EC3
331
493A
  5
4F31
331
4471
  5
44B0
331
453D
  5
4887
331
4ED4
  5
4464
331
48DE
  5
4930
331
4646
  5
4899
331
48FF
  5
4EF6
331
4F07
  5
4497
331
4EF6
  5
4486
331
4EE5
  5
4475
331
452C
  5
4878
331
4511
  5
464A
331
444F
  5
444F
331
443E
  5
443E
331
442D
  5
442D
331
441C
  5
441C
331
440B
  5
440B
331
4889
  5
48C8
331
4F08
  5
4498
331
4F19
  5
4EE3
331
489A
  5
48D9
331
4869
  5
48A8
331
4F2A
  5
4EC6
331
48AB
  5
48FD
331
4F3B
  5
493E
331
48BC
  5
490E
331
4883
  5
48C2
331
4872
  5
48B1
331
48CD
  5
491F
331
4484
  5
44EF
331
44A6
  5
4511
331
4495
  5
4500
331
490F
  5
4F06
331
44F0
  5
4530
331
4501
  5
463A
331
492A
  5
4F21
331
4461
  5
44A0
331
493B
  5
4F32
331
453E
  5
4888
331
4ED5
  5
4465
331
4647
  5
489A
331
4EF7
  5
4487
331
4EE6
  5
4476
331
452D
  5
4879
331
4472
  5
44B1
331
4450
  5
4450
331
443F
  5
443F
331
442E
  5
442E
331
441D
  5
441D
331
440C
  5
440C
331
4648
  5
489B
331
488A
  5
48C9
331
4F09
  5
4499
331
4EF8
  5
4488
331
4F1A
  5
4ED5
331
489B
  5
48DA
331
486A
  5
48A9
331
4F2B
  5
4EBB
331
48AC
  5
48FE
331
4F3C
  5
493F
331
48BD
  5
490F
331
4884
  5
48C3
331
4873
  5
48B2
331
48CE
  5
4920
331
4485
  5
44F0
331
44A7
  5
4513
331
4496
  5
4501
331
4910
  5
4F07
331
44F1
  5
4531
331
4EAA
  5
4EE6
331
4502
  5
463B
331
492B
  5
4F22
331
4462
  5
44A1
331
493C
  5
4F33
331
4473
  5
44B2
331
4EE7
  5
4477
331
4ED6
  5
4466
331
452E
  5
487A
331
4513
  5
4662
331
4451
  5
4451
331
4440
  5
4440
331
442F
  5
442F
331
441E
  5
441E
331
440D
  5
440D
331
4638
  5
488B
331
4649
  5
489C
331
4EE8
  5
4478
331
466A
  5
48A1
331
488B
  5
48CA
331
4F0A
  5
449A
331
4F1B
  5
4ED6
331
489C
  5
48DB
331
486B
  5
48AA
331
4F2C
  5
4EB8
331
48AD
  5
48FF
331
4F3D
  5
4937
331
48BE
  5
4910
331
4885
  5
48C4
331
4874
  5
48B3
331
4EF9
  5
4489
331
48CF
  5
4921
331
4486
  5
44F1
331
4900
  5
4EF7
331
4497
  5
4502
331
44A8
  5
4514
331
4911
  5
4F08
331
44E1
  5
4521
331
44F2
  5
4532
331
4EAB
  5
4EE7
331
4503
  5
463C
331
492C
  5
4F23
331
4463
  5
44A2
331
493D
  5
4F34
331
4474
  5
44B3
331
4ED7
  5
4467
331
452F
  5
487B
331
4514
  5
4663
331
4452
  5
4452
331
4441
  5
4441
331
4430
  5
4430
331
441F
  5
441F
331
440E
  5
440E
331
4530
  5
487C
331
4639
  5
488C
331
4ED8
  5
4468
331
464A
  5
489D
331
488C
  5
48CB
331
4F0B
  5
449B
331
4EFA
  5
448A
331
4F1C
  5
4ED2
331
489D
  5
48DC
331
486C
  5
48AB
331
4864
  5
48A3
331
4F2D
  5
4EB9
331
48AE
  5
4900
331
4F3E
  5
4938
331
48BF
  5
4911
331
4886
  5
48C5
331
4875
  5
48B4
331
4EE9
  5
4479
331
48D0
  5
4922
331
4487
  5
44F2
331
4498
  5
4503
331
4901
  5
4EF8
331
44A9
  5
4515
331
4912
  5
4F09
331
44E2
  5
4522
331
44F3
  5
4533
331
4504
  5
463D
331
492D
  5
4F24
331
4464
  5
44A3
331
4EBD
  5
4EB0
331
493E
  5
4F35
331
4475
  5
44B5
331
4515
  5
4664
331
4453
  5
4453
331
4442
  5
4442
331
4431
  5
4431
331
4420
  5
4420
331
440F
  5
440F
331
4520
  5
486C
331
4531
  5
487D
331
463A
  5
488D
331
488D
  5
48CC
331
4F0C
  5
449C
331
4EFB
  5
448B
331
4EEA
  5
447A
331
4F1D
  5
4ED3
331
489E
  5
48DD
331
486D
  5
48AC
331
4865
  5
48A4
331
4F2E
  5
4EBA
331
48AF
  5
4901
331
4F3F
  5
4939
331
48C0
  5
4912
331
4887
  5
48C6
331
4876
  5
48B5
331
4ED9
  5
4469
331
48D1
  5
4923
331
4488
  5
44F3
331
4499
  5
4504
331
4902
  5
4EF9
331
44AA
  5
4516
331
4913
  5
4F0A
331
44E3
  5
4523
331
44F4
  5
4535
331
4505
  5
463E
331
492E
  5
4F25
331
4465
  5
44A4
331
4EBE
  5
4EB1
331
493F
  5
4F36
331
4476
  5
44E1
331
4516
  5
466A
331
4454
  5
4454
331
4443
  5
4443
331
4432
  5
4432
331
4421
  5
4421
331
4410
  5
4410
331
4940
  5
4F37
331
4EC9
  5
4931
331
4521
  5
486D
331
463B
  5
488E
331
4EDA
  5
446A
331
488E
  5
48CD
331
4F0D
  5
449D
331
4EFC
  5
448C
331
4F1E
  5
4ED4
331
489F
  5
48DE
331
486E
  5
48AD
331
4866
  5
48A5
331
4F2F
  5
4EB3
331
48C1
  5
4913
331
48B0
  5
4902
331
4877
  5
48B6
331
4EEB
  5
447B
331
4532
  5
487E
331
48D2
  5
4924
331
4489
  5
44F4
331
449A
  5
4505
331
4903
  5
4EFA
331
44AB
  5
4517
331
4914
  5
4F0B
331
44E4
  5
4524
331
44F5
  5
4536
331
4EAE
  5
4ED7
331
4506
  5
463F
331
492F
  5
4F26
331
4466
  5
44A5
331
4EBF
  5
4EB2
331
4477
  5
44E2
331
4517
  5
4672
331
4455
  5
4455
331
4444
  5
4444
331
4433
  5
4433
331
4422
  5
4422
331
4411
  5
4411
  0
XRECORD
  5
4F45
102
{ACAD_REACTORS
330
4F43
102
}
330
4F43
100
AcDbXrecord
280
     1
 70
     2
  0
XRECORD
  5
4F44
102
{ACAD_REACTORS
330
4F43
102
}
330
4F43
100
AcDbXrecord
280
     1
 40
1.25
  0
XRECORD
  5
4F46
102
{ACAD_REACTORS
330
4F43
102
}
330
4F43
100
AcDbXrecord
280
     1
 40
1.570796326794896
  0
LAYOUT
  5
22
102
{ACAD_XDICTIONARY
360
4F47
102
}
102
{ACAD_REACTORS
330
1A
102
}
330
1A
100
AcDbPlotSettings
  1

  2
none_device
  4
ANSI_A_(8.50_x_11.00_Inches)
  6

 40
6.349999904632567
 41
19.04999923706055
 42
6.350006103515625
 43
19.04998779296875
 44
215.8999938964844
 45
279.3999938964844
 46
0.0
 47
0.0
 48
0.0
 49
0.0
140
0.0
141
0.0
142
1.0
143
2.584895464708373
 70
 11952
 72
     0
 73
     1
 74
     0
  7

 75
     0
147
0.3868628397755418
148
0.0
149
0.0
100
AcDbLayout
  1
Model
 70
     1
 71
     0
 10
0.0
 20
0.0
 11
12.0
 21
9.0
 12
0.0
 22
0.0
 32
0.0
 14
0.0
 24
0.0
 34
0.0
 15
0.0
 25
0.0
 35
0.0
146
0.0
 13
0.0
 23
0.0
 33
0.0
 16
1.0
 26
0.0
 36
0.0
 17
0.0
 27
1.0
 37
0.0
 76
     0
330
1F
331
94
  0
LAYOUT
  5
59
102
{ACAD_XDICTIONARY
360
4F49
102
}
102
{ACAD_REACTORS
330
1A
102
}
330
1A
100
AcDbPlotSettings
  1

  2
None
  4

  6

 40
0.0
 41
0.0
 42
0.0
 43
0.0
 44
0.0
 45
0.0
 46
0.0
 47
0.0
 48
0.0
 49
0.0
140
0.0
141
0.0
142
1.0
143
1.0
 70
   688
 72
     0
 73
     0
 74
     5
  7

 75
    16
147
1.0
148
0.0
149
0.0
100
AcDbLayout
  1
レイアウト1
 70
     1
 71
     1
 10
0.0
 20
0.0
 11
12.0
 21
9.0
 12
0.0
 22
0.0
 32
0.0
 14
0.0
 24
0.0
 34
0.0
 15
0.0
 25
0.0
 35
0.0
146
0.0
 13
0.0
 23
0.0
 33
0.0
 16
1.0
 26
0.0
 36
0.0
 17
0.0
 27
1.0
 37
0.0
 76
     0
330
58
  0
LAYOUT
  5
5E
102
{ACAD_XDICTIONARY
360
4F4B
102
}
102
{ACAD_REACTORS
330
1A
102
}
330
1A
100
AcDbPlotSettings
  1

  2
None
  4

  6

 40
0.0
 41
0.0
 42
0.0
 43
0.0
 44
0.0
 45
0.0
 46
0.0
 47
0.0
 48
0.0
 49
0.0
140
0.0
141
0.0
142
1.0
143
1.0
 70
   688
 72
     0
 73
     0
 74
     5
  7

 75
    16
147
1.0
148
0.0
149
0.0
100
AcDbLayout
  1
レイアウト2
 70
     1
 71
     2
 10
0.0
 20
0.0
 11
12.0
 21
9.0
 12
0.0
 22
0.0
 32
0.0
 14
0.0
 24
0.0
 34
0.0
 15
0.0
 25
0.0
 35
0.0
146
0.0
 13
0.0
 23
0.0
 33
0.0
 16
1.0
 26
0.0
 36
0.0
 17
0.0
 27
1.0
 37
0.0
 76
     0
330
5D
  0
MATERIAL
  5
97
102
{ACAD_XDICTIONARY
360
1517
102
}
102
{ACAD_REACTORS
330
72
102
}
330
72
100
AcDbMaterial
  1
ByBlock
 73
     1
 78
     1
172
     1
176
     1
270
     1
274
     1
  0
MATERIAL
  5
96
102
{ACAD_XDICTIONARY
360
1515
102
}
102
{ACAD_REACTORS
330
72
102
}
330
72
100
AcDbMaterial
  1
ByLayer
 73
     1
 78
     1
172
     1
176
     1
270
     1
274
     1
  0
MATERIAL
  5
98
102
{ACAD_XDICTIONARY
360
1519
102
}
102
{ACAD_REACTORS
330
72
102
}
330
72
100
AcDbMaterial
  1
Global
 73
     1
 78
     1
172
     1
176
     1
270
     1
274
     1
  0
MLEADERSTYLE
  5
169
102
{ACAD_REACTORS
330
168
102
}
330
168
100
AcDbMLeaderStyle
170
     2
171
     1
172
     0
 90
        2
 40
0.0
 41
0.0
173
     1
 91
-1056964608
340
14
 92
       -2
290
     1
 42
2.0
291
     1
 43
0.36
  3
Standard
 44
4.0
300

342
11
174
     1
178
     6
175
     1
176
     0
 93
-1056964608
 45
4.0
292
     0
297
     0
 46
4.0
 94
-1056964608
 47
1.0
 49
1.0
140
1.0
293
     1
141
0.0
294
     1
177
     0
142
1.0
295
     0
296
     0
143
0.125
1001
ACAD_MLEADERVER
1070
     2
  0
MLINESTYLE
  5
18
102
{ACAD_REACTORS
330
17
102
}
330
17
100
AcDbMlineStyle
  2
STANDARD
 70
     0
  3

 62
   256
 51
90.0
 52
90.0
 71
     2
 49
0.5
 62
   256
  6
BYLAYER
 49
-0.5
 62
   256
  6
BYLAYER
  0
ACDBPLACEHOLDER
  5
F
102
{ACAD_REACTORS
330
E
102
}
330
E
  0
SCALE
  5
157
102
{ACAD_REACTORS
330
156
102
}
330
156
100
AcDbScale
 70
     0
300
1:1
140
1.0
141
1.0
290
     1
  0
SCALE
  5
158
102
{ACAD_REACTORS
330
156
102
}
330
156
100
AcDbScale
 70
     0
300
1:2
140
1.0
141
2.0
290
     0
  0
SCALE
  5
159
102
{ACAD_REACTORS
330
156
102
}
330
156
100
AcDbScale
 70
     0
300
1:4
140
1.0
141
4.0
290
     0
  0
SCALE
  5
15A
102
{ACAD_REACTORS
330
156
102
}
330
156
100
AcDbScale
 70
     0
300
1:5
140
1.0
141
5.0
290
     0
  0
SCALE
  5
15B
102
{ACAD_REACTORS
330
156
102
}
330
156
100
AcDbScale
 70
     0
300
1:8
140
1.0
141
8.0
290
     0
  0
SCALE
  5
15C
102
{ACAD_REACTORS
330
156
102
}
330
156
100
AcDbScale
 70
     0
300
1:10
140
1.0
141
10.0
290
     0
  0
SCALE
  5
15D
102
{ACAD_REACTORS
330
156
102
}
330
156
100
AcDbScale
 70
     0
300
1:16
140
1.0
141
16.0
290
     0
  0
SCALE
  5
15E
102
{ACAD_REACTORS
330
156
102
}
330
156
100
AcDbScale
 70
     0
300
1:20
140
1.0
141
20.0
290
     0
  0
SCALE
  5
15F
102
{ACAD_REACTORS
330
156
102
}
330
156
100
AcDbScale
 70
     0
300
1:30
140
1.0
141
30.0
290
     0
  0
SCALE
  5
160
102
{ACAD_REACTORS
330
156
102
}
330
156
100
AcDbScale
 70
     0
300
1:40
140
1.0
141
40.0
290
     0
  0
SCALE
  5
161
102
{ACAD_REACTORS
330
156
102
}
330
156
100
AcDbScale
 70
     0
300
1:50
140
1.0
141
50.0
290
     0
  0
SCALE
  5
162
102
{ACAD_REACTORS
330
156
102
}
330
156
100
AcDbScale
 70
     0
300
1:100
140
1.0
141
100.0
290
     0
  0
SCALE
  5
163
102
{ACAD_REACTORS
330
156
102
}
330
156
100
AcDbScale
 70
     0
300
2:1
140
2.0
141
1.0
290
     0
  0
SCALE
  5
164
102
{ACAD_REACTORS
330
156
102
}
330
156
100
AcDbScale
 70
     0
300
4:1
140
4.0
141
1.0
290
     0
  0
SCALE
  5
165
102
{ACAD_REACTORS
330
156
102
}
330
156
100
AcDbScale
 70
     0
300
8:1
140
8.0
141
1.0
290
     0
  0
SCALE
  5
166
102
{ACAD_REACTORS
330
156
102
}
330
156
100
AcDbScale
 70
     0
300
10:1
140
10.0
141
1.0
290
     0
  0
SCALE
  5
167
102
{ACAD_REACTORS
330
156
102
}
330
156
100
AcDbScale
 70
     0
300
100:1
140
100.0
141
1.0
290
     0
  0
TABLESTYLE
  5
87
102
{ACAD_XDICTIONARY
360
1506
102
}
102
{ACAD_REACTORS
330
86
102
}
330
86
100
AcDbTableStyle
  3
Standard
 70
     0
 71
     0
 40
0.06
 41
0.06
280
     0
281
     0
  7
Standard
140
0.18
170
     2
 62
     0
 63
     7
283
     0
274
    -2
284
     1
 64
     0
275
    -2
285
     1
 65
     0
276
    -2
286
     1
 66
     0
277
    -2
287
     1
 67
     0
278
    -2
288
     1
 68
     0
279
    -2
289
     1
 69
     0
  7
Standard
140
0.25
170
     5
 62
     0
 63
     7
283
     0
274
    -2
284
     1
 64
     0
275
    -2
285
     1
 65
     0
276
    -2
286
     1
 66
     0
277
    -2
287
     1
 67
     0
278
    -2
288
     1
 68
     0
279
    -2
289
     1
 69
     0
  7
Standard
140
0.18
170
     5
 62
     0
 63
     7
283
     0
274
    -2
284
     1
 64
     0
275
    -2
285
     1
 65
     0
276
    -2
286
     1
 66
     0
277
    -2
287
     1
 67
     0
278
    -2
288
     1
 68
     0
279
    -2
289
     1
 69
     0
  0
VISUALSTYLE
  5
9F
102
{ACAD_XDICTIONARY
360
4F58
102
}
102
{ACAD_REACTORS
330
99
102
}
330
99
100
AcDbVisualStyle
  2

 70
     4
 71
     0
 72
     2
 73
     1
 90
        0
 40
-0.6
 41
-30.0
 62
     5
 63
     7
 74
     1
 91
        4
 64
     7
 65
   257
 75
     1
175
     1
 42
1.0
 92
        0
 66
   257
 43
1.0
 76
     1
 77
     6
 78
     2
 67
     7
 79
     5
170
     0
171
     0
290
     0
174
     0
 93
        1
 44
0.0
173
     0
291
     0
 45
0.0
1001
ACAD
1000
AcDbSavedByObjectVersion
1070
     0
  0
VISUALSTYLE
  5
A1
102
{ACAD_XDICTIONARY
360
4F5C
102
}
102
{ACAD_REACTORS
330
99
102
}
330
99
100
AcDbVisualStyle
  2

 70
     6
 71
     1
 72
     2
 73
     2
 90
        0
 40
-0.6
 41
-30.0
 62
     5
 63
     7
 74
     2
 91
        2
 64
     7
 65
   257
 75
     2
175
     1
 42
40.0
 92
        0
 66
   257
 43
1.0
 76
     1
 77
     6
 78
     2
 67
     7
 79
     3
170
     0
171
     0
290
     0
174
     0
 93
        1
 44
0.0
173
     0
291
     0
 45
0.0
1001
ACAD
1000
AcDbSavedByObjectVersion
1070
     0
  0
VISUALSTYLE
  5
A0
102
{ACAD_XDICTIONARY
360
4F5A
102
}
102
{ACAD_REACTORS
330
99
102
}
330
99
100
AcDbVisualStyle
  2

 70
     5
 71
     0
 72
     2
 73
     1
 90
        0
 40
-0.6
 41
-30.0
 62
     5
 63
     7
 74
     1
 91
        4
 64
     7
 65
   257
 75
     1
175
     1
 42
1.0
 92
        0
 66
   257
 43
1.0
 76
     1
 77
     6
 78
     2
 67
     7
 79
     5
170
     0
171
     0
290
     0
174
     0
 93
        1
 44
0.0
173
     0
291
     0
 45
0.0
1001
ACAD
1000
AcDbSavedByObjectVersion
1070
     0
  0
VISUALSTYLE
  5
9E
102
{ACAD_XDICTIONARY
360
4F56
102
}
102
{ACAD_REACTORS
330
99
102
}
330
99
100
AcDbVisualStyle
  2

 70
     7
 71
     1
 72
     0
 73
     1
 90
        0
 40
-0.6
 41
-30.0
 62
     5
 63
     7
 74
     0
 91
        4
 64
     7
 65
   257
 75
     1
175
     1
 42
1.0
 92
        8
 66
     7
 43
1.0
 76
     1
 77
     6
 78
     2
 67
     7
 79
     5
170
     0
171
     0
290
     0
174
     0
 93
        1
 44
0.0
173
     0
291
     1
 45
0.0
1001
ACAD
1000
AcDbSavedByObjectVersion
1070
     0
  0
VISUALSTYLE
  5
A5
102
{ACAD_XDICTIONARY
360
4F64
102
}
102
{ACAD_REACTORS
330
99
102
}
330
99
100
AcDbVisualStyle
  2

 70
    12
 71
     2
 72
     2
 73
     1
 90
        0
 40
-0.6
 41
-30.0
 62
     5
 63
     7
 74
     1
 91
        4
 64
     7
 65
   257
 75
     1
175
     1
 42
1.0
 92
        8
 66
     7
 43
1.0
 76
     1
 77
     6
 78
     2
 67
     7
 79
     5
170
     0
171
     0
290
     0
174
     0
 93
        1
 44
50.0
173
     0
291
     1
 45
0.0
1001
ACAD
1000
AcDbSavedByObjectVersion
1070
     0
  0
VISUALSTYLE
  5
A9
102
{ACAD_XDICTIONARY
360
4F6C
102
}
102
{ACAD_REACTORS
330
99
102
}
330
99
100
AcDbVisualStyle
  2

 70
    16
 71
     2
 72
     2
 73
     3
 90
        0
 40
-0.6
 41
-30.0
 62
     5
 63
     8
 74
     1
 91
        4
 64
     7
 65
   257
 75
     1
175
     1
 42
1.0
 92
        8
 66
     8
 43
1.0
 76
     1
 77
     6
 78
     2
 67
     7
 79
     5
170
     0
171
     0
290
     0
174
     0
 93
        1
 44
0.0
173
     0
291
     1
 45
0.0
1001
ACAD
1000
AcDbSavedByObjectVersion
1070
     0
  0
VISUALSTYLE
  5
A2
102
{ACAD_XDICTIONARY
360
4F5E
102
}
102
{ACAD_REACTORS
330
99
102
}
330
99
100
AcDbVisualStyle
  2

 70
     9
 71
     3
 72
     2
 73
     1
 90
        0
 40
-0.6
 41
-30.0
 62
     5
 63
     7
 74
     2
 91
        2
 64
     7
 65
   257
 75
     1
175
     1
 42
40.0
 92
        8
 66
     7
 43
1.0
 76
     1
 77
     6
 78
     2
 67
     7
 79
     3
170
     0
171
     0
290
     0
174
     0
 93
        1
 44
0.0
173
     0
291
     0
 45
0.0
1001
ACAD
1000
AcDbSavedByObjectVersion
1070
     0
  0
VISUALSTYLE
  5
A4
102
{ACAD_XDICTIONARY
360
4F62
102
}
102
{ACAD_REACTORS
330
99
102
}
330
99
100
AcDbVisualStyle
  2

 70
    11
 71
     2
 72
     2
 73
     1
 90
        0
 40
-0.6
 41
-30.0
 62
     5
 63
     7
 74
     1
 91
        4
 64
     7
 65
   257
 75
     1
175
     1
 42
1.0
 92
        8
 66
     7
 43
1.0
 76
     1
 77
     6
 78
     2
 67
     7
 79
     5
170
     0
171
     0
290
     0
174
     0
 93
        1
 44
-50.0
173
     0
291
     1
 45
0.0
1001
ACAD
1000
AcDbSavedByObjectVersion
1070
     0
  0
VISUALSTYLE
  5
155
102
{ACAD_XDICTIONARY
360
4F80
102
}
102
{ACAD_REACTORS
330
99
102
}
330
99
100
AcDbVisualStyle
  2

 70
    22
 71
     2
 72
     2
 73
     0
 90
        0
 40
-0.6
 41
-30.0
 62
     5
 63
     7
 74
     1
 91
        4
 64
     7
 65
   257
 75
     1
175
     1
 42
1.0
 92
        8
 66
     7
 43
1.0
 76
     1
 77
     6
 78
     2
 67
     7
 79
     5
170
     0
171
     0
290
     0
174
     0
 93
        1
 44
0.0
173
     0
291
     1
 45
0.0
1001
ACAD
1000
AcDbSavedByObjectVersion
1070
     0
  0
VISUALSTYLE
  5
A8
102
{ACAD_XDICTIONARY
360
4F6A
102
}
102
{ACAD_REACTORS
330
99
102
}
330
99
100
AcDbVisualStyle
  2

 70
    15
 71
     2
 72
     2
 73
     1
 90
        0
 40
-0.6
 41
-30.0
 62
     5
 63
     7
 74
     1
 91
        4
 64
     7
 65
   257
 75
     1
175
     1
 42
1.0
 92
        8
 66
     7
 43
1.0
 76
     1
 77
     6
 78
     2
 67
     7
 79
     5
170
     0
171
     0
290
     0
174
     0
 93
        1
 44
0.0
173
     0
291
     1
 45
0.0
1001
ACAD
1000
AcDbSavedByObjectVersion
1070
     0
  0
VISUALSTYLE
  5
9A
102
{ACAD_XDICTIONARY
360
4F4E
102
}
102
{ACAD_REACTORS
330
99
102
}
330
99
100
AcDbVisualStyle
  2

 70
     0
 71
     2
 72
     1
 73
     1
 90
        2
 40
-0.6
 41
30.0
 62
     5
 63
     7
 74
     0
 91
        4
 64
     7
 65
   257
 75
     1
175
     1
 42
1.0
 92
        8
 66
     7
 43
1.0
 76
     1
 77
     6
 78
     2
 67
     7
 79
     5
170
     0
171
     0
290
     0
174
     0
 93
        1
 44
0.0
173
     0
291
     1
 45
0.0
1001
ACAD
1000
AcDbSavedByObjectVersion
1070
     0
  0
VISUALSTYLE
  5
9B
102
{ACAD_XDICTIONARY
360
4F50
102
}
102
{ACAD_REACTORS
330
99
102
}
330
99
100
AcDbVisualStyle
  2

 70
     1
 71
     2
 72
     1
 73
     1
 90
        2
 40
-0.6
 41
30.0
 62
     5
 63
     7
 74
     1
 91
        4
 64
     7
 65
   257
 75
     1
175
     1
 42
1.0
 92
        0
 66
   257
 43
1.0
 76
     1
 77
     6
 78
     2
 67
     7
 79
     5
170
     0
171
     0
290
     0
174
     0
 93
        1
 44
0.0
173
     0
291
     1
 45
0.0
1001
ACAD
1000
AcDbSavedByObjectVersion
1070
     0
  0
VISUALSTYLE
  5
9C
102
{ACAD_XDICTIONARY
360
4F52
102
}
102
{ACAD_REACTORS
330
99
102
}
330
99
100
AcDbVisualStyle
  2

 70
     2
 71
     2
 72
     2
 73
     1
 90
        2
 40
-0.6
 41
30.0
 62
     5
 63
     7
 74
     0
 91
        4
 64
     7
 65
   257
 75
     1
175
     1
 42
1.0
 92
        0
 66
     7
 43
1.0
 76
     1
 77
     6
 78
     2
 67
     7
 79
     5
170
     0
171
     0
290
     0
174
     0
 93
        1
 44
0.0
173
     0
291
     1
 45
0.0
1001
ACAD
1000
AcDbSavedByObjectVersion
1070
     0
  0
VISUALSTYLE
  5
9D
102
{ACAD_XDICTIONARY
360
4F54
102
}
102
{ACAD_REACTORS
330
99
102
}
330
99
100
AcDbVisualStyle
  2

 70
     3
 71
     2
 72
     2
 73
     1
 90
        2
 40
-0.6
 41
30.0
 62
     5
 63
     7
 74
     1
 91
        4
 64
     7
 65
   257
 75
     1
175
     1
 42
1.0
 92
        0
 66
   257
 43
1.0
 76
     1
 77
     6
 78
     2
 67
     7
 79
     5
170
     0
171
     0
290
     0
174
     0
 93
        1
 44
0.0
173
     0
291
     1
 45
0.0
1001
ACAD
1000
AcDbSavedByObjectVersion
1070
     0
  0
VISUALSTYLE
  5
14D
102
{ACAD_XDICTIONARY
360
4F70
102
}
102
{ACAD_REACTORS
330
99
102
}
330
99
100
AcDbVisualStyle
  2

 70
     6
 71
     1
 72
     2
 73
     2
 90
        0
 40
-0.6
 41
-30.0
 62
     5
 63
     7
 74
     2
 91
        2
 64
     7
 65
   257
 75
     2
175
     1
 42
40.0
 92
        0
 66
   257
 43
1.0
 76
     1
 77
     6
 78
     2
 67
     7
 79
     3
170
     0
171
     0
290
     0
174
     0
 93
        1
 44
0.0
173
     0
291
     0
 45
0.0
1001
ACAD
1000
AcDbSavedByObjectVersion
1070
     0
  0
VISUALSTYLE
  5
153
102
{ACAD_XDICTIONARY
360
4F7C
102
}
102
{ACAD_REACTORS
330
99
102
}
330
99
100
AcDbVisualStyle
  2

 70
    20
 71
     2
 72
     2
 73
     0
 90
        0
 40
-0.6
 41
-30.0
 62
     5
 63
     7
 74
     1
 91
        4
 64
     7
 65
   257
 75
     1
175
     1
 42
1.0
 92
       10
 66
     7
 43
1.0
 76
     1
 77
     6
 78
     2
 67
     7
 79
     5
170
     0
171
     0
290
     0
174
     0
 93
        1
 44
0.0
173
     0
291
     1
 45
0.0
1001
ACAD
1000
AcDbSavedByObjectVersion
1070
     0
  0
VISUALSTYLE
  5
A7
102
{ACAD_XDICTIONARY
360
4F68
102
}
102
{ACAD_REACTORS
330
99
102
}
330
99
100
AcDbVisualStyle
  2

 70
    14
 71
     2
 72
     2
 73
     1
 90
        0
 40
-0.6
 41
-30.0
 62
     5
 63
     7
 74
     1
 91
        4
 64
     7
 65
   257
 75
     7
175
     7
 42
1.0
 92
        8
 66
     7
 43
1.0
 76
     1
 77
     6
 78
     2
 67
     7
 79
     5
170
     0
171
     0
290
     0
174
     0
 93
        1
 44
0.0
173
     0
291
     1
 45
0.0
1001
ACAD
1000
AcDbSavedByObjectVersion
1070
     0
  0
VISUALSTYLE
  5
154
102
{ACAD_XDICTIONARY
360
4F7E
102
}
102
{ACAD_REACTORS
330
99
102
}
330
99
100
AcDbVisualStyle
  2

 70
    21
 71
     2
 72
     2
 73
     0
 90
        0
 40
-0.6
 41
-30.0
 62
     5
 63
     7
 74
     1
 91
        4
 64
     7
 65
   257
 75
     1
175
     1
 42
1.0
 92
        9
 66
     7
 43
1.0
 76
     1
 77
     6
 78
     2
 67
     7
 79
     5
170
     0
171
     0
290
     0
174
     0
 93
        1
 44
0.0
173
     0
291
     1
 45
0.0
1001
ACAD
1000
AcDbSavedByObjectVersion
1070
     0
  0
VISUALSTYLE
  5
A3
102
{ACAD_XDICTIONARY
360
4F60
102
}
102
{ACAD_REACTORS
330
99
102
}
330
99
100
AcDbVisualStyle
  2

 70
     8
 71
     2
 72
     2
 73
     1
 90
        0
 40
-0.6
 41
-30.0
 62
     5
 63
     7
 74
     1
 91
        0
 64
     7
 65
   257
 75
     1
175
     1
 42
1.0
 92
        8
 66
     8
 43
1.0
 76
     1
 77
     6
 78
     2
 67
     7
 79
     5
170
     0
171
     0
290
     0
174
     0
 93
       13
 44
0.0
173
     0
291
     0
 45
0.0
1001
ACAD
1000
AcDbSavedByObjectVersion
1070
     0
  0
VISUALSTYLE
  5
152
102
{ACAD_XDICTIONARY
360
4F7A
102
}
102
{ACAD_REACTORS
330
99
102
}
330
99
100
AcDbVisualStyle
  2

 70
    27
 71
     2
 72
     2
 73
     1
 90
        2
 40
-0.6
 41
30.0
 62
     5
 63
     7
 74
     0
 91
        4
 64
     7
 65
   257
 75
     1
175
     1
 42
1.0
 92
        8
 66
   257
 43
1.0
 76
     1
 77
     6
 78
     2
 67
     8
 79
     3
170
     0
171
     0
290
     0
174
     0
 93
        5
 44
0.0
173
     0
291
     0
 45
0.0
1001
ACAD
1000
AcDbSavedByObjectVersion
1070
     0
  0
VISUALSTYLE
  5
151
102
{ACAD_XDICTIONARY
360
4F78
102
}
102
{ACAD_REACTORS
330
99
102
}
330
99
100
AcDbVisualStyle
  2

 70
    26
 71
     2
 72
     2
 73
     1
 90
        2
 40
-0.6
 41
30.0
 62
     5
 63
     7
 74
     1
 91
       10
 64
     7
 65
   257
 75
     2
175
     1
 42
1.0
 92
        8
 66
   257
 43
1.0
 76
     1
 77
     6
 78
     2
 67
     7
 79
     3
170
     0
171
     0
290
     0
174
     0
 93
        5
 44
0.0
173
     0
291
     0
 45
0.0
1001
ACAD
1000
AcDbSavedByObjectVersion
1070
     0
  0
VISUALSTYLE
  5
14E
102
{ACAD_XDICTIONARY
360
4F72
102
}
102
{ACAD_REACTORS
330
99
102
}
330
99
100
AcDbVisualStyle
  2

 70
    23
 71
     2
 72
     2
 73
     3
 90
        0
 40
-0.6
 41
-30.0
 62
     5
 63
     7
 74
     2
 91
        2
 64
     7
 65
     7
 75
     1
175
     1
 42
40.0
 92
        8
 66
     7
 43
1.0
 76
     1
 77
     6
 78
     2
 67
     7
 79
     3
170
     0
171
     0
290
     0
174
     0
 93
        1
 44
0.0
173
     0
291
     0
 45
0.0
1001
ACAD
1000
AcDbSavedByObjectVersion
1070
     0
  0
VISUALSTYLE
  5
14F
102
{ACAD_XDICTIONARY
360
4F74
102
}
102
{ACAD_REACTORS
330
99
102
}
330
99
100
AcDbVisualStyle
  2

 70
    24
 71
     1
 72
     2
 73
     2
 90
        0
 40
-0.6
 41
-30.0
 62
     5
 63
     7
 74
     2
 91
        2
 64
     7
 65
     7
 75
     1
175
     1
 42
40.0
 92
       11
 66
     7
 43
1.0
 76
     1
 77
     6
 78
     2
 67
     7
 79
     6
170
     0
171
     0
290
     0
174
     0
 93
        1
 44
0.0
173
     0
291
     0
 45
0.0
1001
ACAD
1000
AcDbSavedByObjectVersion
1070
     0
  0
VISUALSTYLE
  5
A6
102
{ACAD_XDICTIONARY
360
4F66
102
}
102
{ACAD_REACTORS
330
99
102
}
330
99
100
AcDbVisualStyle
  2

 70
    13
 71
     2
 72
     2
 73
     1
 90
        0
 40
-0.6
 41
-30.0
 62
     5
 63
     7
 74
     1
 91
        4
 64
     7
 65
   257
 75
     1
175
     1
 42
1.0
 92
       12
 66
     7
 43
1.0
 76
     1
 77
     6
 78
     2
 67
     7
 79
     5
170
     0
171
     0
290
     0
174
     0
 93
        1
 44
0.0
173
     0
291
     1
 45
0.0
1001
ACAD
1000
AcDbSavedByObjectVersion
1070
     0
  0
VISUALSTYLE
  5
14C
102
{ACAD_XDICTIONARY
360
4F6E
102
}
102
{ACAD_REACTORS
330
99
102
}
330
99
100
AcDbVisualStyle
  2

 70
     5
 71
     0
 72
     2
 73
     0
 90
        0
 40
-0.6
 41
-30.0
 62
     5
 63
     7
 74
     1
 91
        4
 64
     7
 65
   257
 75
     1
175
     1
 42
1.0
 92
        0
 66
   257
 43
1.0
 76
     1
 77
     6
 78
     2
 67
     7
 79
     3
170
     0
171
     0
290
     0
174
     0
 93
        1
 44
0.0
173
     0
291
     0
 45
0.0
1001
ACAD
1000
AcDbSavedByObjectVersion
1070
     0
  0
VISUALSTYLE
  5
150
102
{ACAD_XDICTIONARY
360
4F76
102
}
102
{ACAD_REACTORS
330
99
102
}
330
99
100
AcDbVisualStyle
  2

 70
    25
 71
     2
 72
     2
 73
     1
 90
        1
 40
0.5
 41
-30.0
 62
     5
 63
     7
 74
     1
 91
        0
 64
     7
 65
   257
 75
     1
175
     1
 42
1.0
 92
        8
 66
     7
 43
1.0
 76
     1
 77
     6
 78
     2
 67
     7
 79
     3
170
     0
171
     0
290
     0
174
     0
 93
       13
 44
0.0
173
     0
291
     0
 45
0.0
1001
ACAD
1000
AcDbSavedByObjectVersion
1070
     0
  0
DICTIONARYVAR
  5
24A
102
{ACAD_REACTORS
330
66
102
}
330
66
100
DictionaryVariables
280
     0
  1
1:1
  0
DICTIONARYVAR
  5
248
102
{ACAD_REACTORS
330
66
102
}
330
66
100
DictionaryVariables
280
     0
  1
STANDARD
  0
DICTIONARYVAR
  5
89
102
{ACAD_REACTORS
330
66
102
}
330
66
100
DictionaryVariables
280
     0
  1
STANDARD
  0
DICTIONARYVAR
  5
67
102
{ACAD_REACTORS
330
66
102
}
330
66
100
DictionaryVariables
280
     0
  1
2
  0
DICTIONARYVAR
  5
6B
102
{ACAD_REACTORS
330
66
102
}
330
66
100
DictionaryVariables
280
     0
  1
1
  0
DICTIONARYVAR
  5
142C
102
{ACAD_REACTORS
330
66
102
}
330
66
100
DictionaryVariables
280
     0
  1
0
  0
DICTIONARYVAR
  5
24C
102
{ACAD_REACTORS
330
66
102
}
330
66
100
DictionaryVariables
280
     0
  1
1
  0
DICTIONARYVAR
  5
24D
102
{ACAD_REACTORS
330
66
102
}
330
66
100
DictionaryVariables
280
     0
  1
15
  0
DICTIONARYVAR
  5
24B
102
{ACAD_REACTORS
330
66
102
}
330
66
100
DictionaryVariables
280
     0
  1
0
  0
DICTIONARYVAR
  5
249
102
{ACAD_REACTORS
330
66
102
}
330
66
100
DictionaryVariables
280
     0
  1
0
  0
DICTIONARYVAR
  5
142B
102
{ACAD_REACTORS
330
66
102
}
330
66
100
DictionaryVariables
280
     0
  1
127
  0
DICTIONARYVAR
  5
4DDA
102
{ACAD_REACTORS
330
66
102
}
330
66
100
DictionaryVariables
280
     0
  1
2
  0
DICTIONARY
  5
4F47
330
22
100
AcDbDictionary
280
     1
281
     1
  3
ACAD_XREC_ROUNDTRIP
360
4F48
  0
DICTIONARY
  5
4F49
330
59
100
AcDbDictionary
280
     1
281
     1
  3
ACAD_XREC_ROUNDTRIP
360
4F4A
  0
DICTIONARY
  5
4F4B
330
5E
100
AcDbDictionary
280
     1
281
     1
  3
ACAD_XREC_ROUNDTRIP
360
4F4C
  0
DICTIONARY
  5
1517
330
97
100
AcDbDictionary
280
     1
281
     1
  3
ACAD_XREC_ROUNDTRIP
360
1518
  0
DICTIONARY
  5
1515
330
96
100
AcDbDictionary
280
     1
281
     1
  3
ACAD_XREC_ROUNDTRIP
360
1516
  0
DICTIONARY
  5
1519
330
98
100
AcDbDictionary
280
     1
281
     1
  3
ACAD_XREC_ROUNDTRIP
360
151A
  0
DICTIONARY
  5
1506
330
87
100
AcDbDictionary
280
     1
281
     1
  3
ACAD_ROUNDTRIP_2008_TABLESTYLE_CELLSTYLEMAP
360
4F40
  3
ACAD_XREC_ROUNDTRIP
360
4F4D
  0
DICTIONARY
  5
4F58
330
9F
100
AcDbDictionary
280
     1
281
     1
  3
ACAD_XREC_ROUNDTRIP
360
4F59
  0
DICTIONARY
  5
4F5C
330
A1
100
AcDbDictionary
280
     1
281
     1
  3
ACAD_XREC_ROUNDTRIP
360
4F5D
  0
DICTIONARY
  5
4F5A
330
A0
100
AcDbDictionary
280
     1
281
     1
  3
ACAD_XREC_ROUNDTRIP
360
4F5B
  0
DICTIONARY
  5
4F56
330
9E
100
AcDbDictionary
280
     1
281
     1
  3
ACAD_XREC_ROUNDTRIP
360
4F57
  0
DICTIONARY
  5
4F64
330
A5
100
AcDbDictionary
280
     1
281
     1
  3
ACAD_XREC_ROUNDTRIP
360
4F65
  0
DICTIONARY
  5
4F6C
330
A9
100
AcDbDictionary
280
     1
281
     1
  3
ACAD_XREC_ROUNDTRIP
360
4F6D
  0
DICTIONARY
  5
4F5E
330
A2
100
AcDbDictionary
280
     1
281
     1
  3
ACAD_XREC_ROUNDTRIP
360
4F5F
  0
DICTIONARY
  5
4F62
330
A4
100
AcDbDictionary
280
     1
281
     1
  3
ACAD_XREC_ROUNDTRIP
360
4F63
  0
DICTIONARY
  5
4F80
330
155
100
AcDbDictionary
280
     1
281
     1
  3
ACAD_XREC_ROUNDTRIP
360
4F81
  0
DICTIONARY
  5
4F6A
330
A8
100
AcDbDictionary
280
     1
281
     1
  3
ACAD_XREC_ROUNDTRIP
360
4F6B
  0
DICTIONARY
  5
4F4E
330
9A
100
AcDbDictionary
280
     1
281
     1
  3
ACAD_XREC_ROUNDTRIP
360
4F4F
  0
DICTIONARY
  5
4F50
330
9B
100
AcDbDictionary
280
     1
281
     1
  3
ACAD_XREC_ROUNDTRIP
360
4F51
  0
DICTIONARY
  5
4F52
330
9C
100
AcDbDictionary
280
     1
281
     1
  3
ACAD_XREC_ROUNDTRIP
360
4F53
  0
DICTIONARY
  5
4F54
330
9D
100
AcDbDictionary
280
     1
281
     1
  3
ACAD_XREC_ROUNDTRIP
360
4F55
  0
DICTIONARY
  5
4F70
330
14D
100
AcDbDictionary
280
     1
281
     1
  3
ACAD_XREC_ROUNDTRIP
360
4F71
  0
DICTIONARY
  5
4F7C
330
153
100
AcDbDictionary
280
     1
281
     1
  3
ACAD_XREC_ROUNDTRIP
360
4F7D
  0
DICTIONARY
  5
4F68
330
A7
100
AcDbDictionary
280
     1
281
     1
  3
ACAD_XREC_ROUNDTRIP
360
4F69
  0
DICTIONARY
  5
4F7E
330
154
100
AcDbDictionary
280
     1
281
     1
  3
ACAD_XREC_ROUNDTRIP
360
4F7F
  0
DICTIONARY
  5
4F60
330
A3
100
AcDbDictionary
280
     1
281
     1
  3
ACAD_XREC_ROUNDTRIP
360
4F61
  0
DICTIONARY
  5
4F7A
330
152
100
AcDbDictionary
280
     1
281
     1
  3
ACAD_XREC_ROUNDTRIP
360
4F7B
  0
DICTIONARY
  5
4F78
330
151
100
AcDbDictionary
280
     1
281
     1
  3
ACAD_XREC_ROUNDTRIP
360
4F79
  0
DICTIONARY
  5
4F72
330
14E
100
AcDbDictionary
280
     1
281
     1
  3
ACAD_XREC_ROUNDTRIP
360
4F73
  0
DICTIONARY
  5
4F74
330
14F
100
AcDbDictionary
280
     1
281
     1
  3
ACAD_XREC_ROUNDTRIP
360
4F75
  0
DICTIONARY
  5
4F66
330
A6
100
AcDbDictionary
280
     1
281
     1
  3
ACAD_XREC_ROUNDTRIP
360
4F67
  0
DICTIONARY
  5
4F6E
330
14C
100
AcDbDictionary
280
     1
281
     1
  3
ACAD_XREC_ROUNDTRIP
360
4F6F
  0
DICTIONARY
  5
4F76
330
150
100
AcDbDictionary
280
     1
281
     1
  3
ACAD_XREC_ROUNDTRIP
360
4F77
  0
XRECORD
  5
4F48
102
{ACAD_REACTORS
330
4F47
102
}
330
4F47
100
AcDbXrecord
280
     1
102
SHADEPLOT
 70
     0
102
SHADEPLOTRESLEVEL
 70
     2
102
SHADEPLOTCUSTOMDPI
 70
   300
  0
XRECORD
  5
4F4A
102
{ACAD_REACTORS
330
4F49
102
}
330
4F49
100
AcDbXrecord
280
     1
102
SHADEPLOT
 70
     0
102
SHADEPLOTRESLEVEL
 70
     2
102
SHADEPLOTCUSTOMDPI
 70
   300
  0
XRECORD
  5
4F4C
102
{ACAD_REACTORS
330
4F4B
102
}
330
4F4B
100
AcDbXrecord
280
     1
102
SHADEPLOT
 70
     0
102
SHADEPLOTRESLEVEL
 70
     2
102
SHADEPLOTCUSTOMDPI
 70
   300
  0
XRECORD
  5
1518
102
{ACAD_REACTORS
330
1517
102
}
330
1517
100
AcDbXrecord
280
     1
102
MATERIAL
148
0.0
149
0.0
149
0.0
 93
        0
 94
      127
282
     0
 72
     1
 77
     1
171
     1
175
     1
179
     1
273
     0
  0
XRECORD
  5
1516
102
{ACAD_REACTORS
330
1515
102
}
330
1515
100
AcDbXrecord
280
     1
102
MATERIAL
148
0.0
149
0.0
149
0.0
 93
        0
 94
      127
282
     0
 72
     1
 77
     1
171
     1
175
     1
179
     1
273
     0
  0
XRECORD
  5
151A
102
{ACAD_REACTORS
330
1519
102
}
330
1519
100
AcDbXrecord
280
     1
102
MATERIAL
148
0.0
149
0.0
149
0.0
 93
        0
 94
      127
282
     0
 72
     1
 77
     1
171
     1
175
     1
179
     1
273
     0
  0
CELLSTYLEMAP
  5
4F40
102
{ACAD_REACTORS
330
1506
102
}
330
1506
100
AcDbCellStyleMap
 90
        3
300
CELLSTYLE
  1
TABLEFORMAT_BEGIN
 90
        5
170
     1
 91
        0
 92
    32768
 62
   257
 93
        1
300
CONTENTFORMAT
  1
CONTENTFORMAT_BEGIN
 90
        0
 91
        0
 92
      512
 93
        0
300

 40
0.0
140
1.0
 94
        5
 62
     0
340
11
144
0.25
309
CONTENTFORMAT_END
171
     1
301
MARGIN
  1
CELLMARGIN_BEGIN
 40
0.06
 40
0.06
 40
0.06
 40
0.06
 40
0.18
 40
0.18
309
CELLMARGIN_END
 94
        6
 95
        1
302
GRIDFORMAT
  1
GRIDFORMAT_BEGIN
 90
        0
 91
        1
 62
     0
 92
       -2
340
0
 93
        0
 40
0.045
309
GRIDFORMAT_END
 95
        2
302
GRIDFORMAT
  1
GRIDFORMAT_BEGIN
 90
        0
 91
        1
 62
     0
 92
       -2
340
0
 93
        0
 40
0.045
309
GRIDFORMAT_END
 95
        4
302
GRIDFORMAT
  1
GRIDFORMAT_BEGIN
 90
        0
 91
        1
 62
     0
 92
       -2
340
0
 93
        0
 40
0.045
309
GRIDFORMAT_END
 95
        8
302
GRIDFORMAT
  1
GRIDFORMAT_BEGIN
 90
        0
 91
        1
 62
     0
 92
       -2
340
0
 93
        0
 40
0.045
309
GRIDFORMAT_END
 95
       16
302
GRIDFORMAT
  1
GRIDFORMAT_BEGIN
 90
        0
 91
        1
 62
     0
 92
       -2
340
0
 93
        0
 40
0.045
309
GRIDFORMAT_END
 95
       32
302
GRIDFORMAT
  1
GRIDFORMAT_BEGIN
 90
        0
 91
        1
 62
     0
 92
       -2
340
0
 93
        0
 40
0.045
309
GRIDFORMAT_END
309
TABLEFORMAT_END
  1
CELLSTYLE_BEGIN
 90
        1
 91
        1
300
_TITLE
309
CELLSTYLE_END
300
CELLSTYLE
  1
TABLEFORMAT_BEGIN
 90
        5
170
     1
 91
        0
 92
        0
 62
   257
 93
        1
300
CONTENTFORMAT
  1
CONTENTFORMAT_BEGIN
 90
        0
 91
        0
 92
      512
 93
        0
300

 40
0.0
140
1.0
 94
        5
 62
     0
340
11
144
0.18
309
CONTENTFORMAT_END
171
     1
301
MARGIN
  1
CELLMARGIN_BEGIN
 40
0.06
 40
0.06
 40
0.06
 40
0.06
 40
0.18
 40
0.18
309
CELLMARGIN_END
 94
        6
 95
        1
302
GRIDFORMAT
  1
GRIDFORMAT_BEGIN
 90
        0
 91
        1
 62
     0
 92
       -2
340
0
 93
        0
 40
0.045
309
GRIDFORMAT_END
 95
        2
302
GRIDFORMAT
  1
GRIDFORMAT_BEGIN
 90
        0
 91
        1
 62
     0
 92
       -2
340
0
 93
        0
 40
0.045
309
GRIDFORMAT_END
 95
        4
302
GRIDFORMAT
  1
GRIDFORMAT_BEGIN
 90
        0
 91
        1
 62
     0
 92
       -2
340
0
 93
        0
 40
0.045
309
GRIDFORMAT_END
 95
        8
302
GRIDFORMAT
  1
GRIDFORMAT_BEGIN
 90
        0
 91
        1
 62
     0
 92
       -2
340
0
 93
        0
 40
0.045
309
GRIDFORMAT_END
 95
       16
302
GRIDFORMAT
  1
GRIDFORMAT_BEGIN
 90
        0
 91
        1
 62
     0
 92
       -2
340
0
 93
        0
 40
0.045
309
GRIDFORMAT_END
 95
       32
302
GRIDFORMAT
  1
GRIDFORMAT_BEGIN
 90
        0
 91
        1
 62
     0
 92
       -2
340
0
 93
        0
 40
0.045
309
GRIDFORMAT_END
309
TABLEFORMAT_END
  1
CELLSTYLE_BEGIN
 90
        2
 91
        1
300
_HEADER
309
CELLSTYLE_END
300
CELLSTYLE
  1
TABLEFORMAT_BEGIN
 90
        5
170
     1
 91
        0
 92
        0
 62
   257
 93
        1
300
CONTENTFORMAT
  1
CONTENTFORMAT_BEGIN
 90
        0
 91
        0
 92
      512
 93
        0
300

 40
0.0
140
1.0
 94
        2
 62
     0
340
11
144
0.18
309
CONTENTFORMAT_END
171
     1
301
MARGIN
  1
CELLMARGIN_BEGIN
 40
0.06
 40
0.06
 40
0.06
 40
0.06
 40
0.18
 40
0.18
309
CELLMARGIN_END
 94
        6
 95
        1
302
GRIDFORMAT
  1
GRIDFORMAT_BEGIN
 90
        0
 91
        1
 62
     0
 92
       -2
340
0
 93
        0
 40
0.045
309
GRIDFORMAT_END
 95
        2
302
GRIDFORMAT
  1
GRIDFORMAT_BEGIN
 90
        0
 91
        1
 62
     0
 92
       -2
340
0
 93
        0
 40
0.045
309
GRIDFORMAT_END
 95
        4
302
GRIDFORMAT
  1
GRIDFORMAT_BEGIN
 90
        0
 91
        1
 62
     0
 92
       -2
340
0
 93
        0
 40
0.045
309
GRIDFORMAT_END
 95
        8
302
GRIDFORMAT
  1
GRIDFORMAT_BEGIN
 90
        0
 91
        1
 62
     0
 92
       -2
340
0
 93
        0
 40
0.045
309
GRIDFORMAT_END
 95
       16
302
GRIDFORMAT
  1
GRIDFORMAT_BEGIN
 90
        0
 91
        1
 62
     0
 92
       -2
340
0
 93
        0
 40
0.045
309
GRIDFORMAT_END
 95
       32
302
GRIDFORMAT
  1
GRIDFORMAT_BEGIN
 90
        0
 91
        1
 62
     0
 92
       -2
340
0
 93
        0
 40
0.045
309
GRIDFORMAT_END
309
TABLEFORMAT_END
  1
CELLSTYLE_BEGIN
 90
        3
 91
        2
300
_DATA
309
CELLSTYLE_END
  0
XRECORD
  5
4F4D
102
{ACAD_REACTORS
330
1506
102
}
330
1506
100
AcDbXrecord
280
     1
102
ACAD_ROUNDTRIP_PRE2007_TABLESTYLE
 90
      512
 91
        0
  1

 92
      512
 93
        0
  2

 94
      512
 95
        0
  3

  0
XRECORD
  5
4F59
102
{ACAD_REACTORS
330
4F58
102
}
330
4F58
100
AcDbXrecord
280
     1
102
RTVSPropertyOp0
 70
     1
102
RTVSPropertyOp1
 70
     1
102
RTVSPropertyOp2
 70
     1
102
RTVSPropertyOp3
 70
     1
102
RTVSPropertyOp4
 70
     1
102
RTVSPropertyOp5
 70
     1
102
RTVSPropertyOp6
 70
     1
102
RTVSPropertyOp7
 70
     1
102
RTVSPropertyOp8
 70
     1
102
RTVSPropertyOp9
 70
     1
102
RTVSPropertyOp10
 70
     1
102
RTVSPropertyOp11
 70
     1
102
RTVSPropertyOp12
 70
     1
102
RTVSPropertyOp13
 70
     1
102
RTVSPropertyOp14
 70
     1
102
RTVSPropertyOp15
 70
     1
102
RTVSPropertyOp16
 70
     1
102
RTVSPropertyOp17
 70
     1
102
RTVSPropertyOp18
 70
     1
102
RTVSPropertyOp19
 70
     1
102
RTVSPropertyOp20
 70
     1
102
RTVSPropertyOp21
 70
     1
102
RTVSPropertyOp22
 70
     1
102
RTVSPropertyOp23
 70
     1
102
RTVSPropertyOp24
 70
     1
102
RTVSPropertyOp25
 70
     1
102
RTVSPropertyOp26
 70
     1
102
RTVSPropertyOp27
 70
     1
102
RTVSPropertyOp28
 70
     1
102
RTVSPropertyOp29
 70
     1
102
RTVSPropertyOp30
 70
     1
102
RTVSPropertyOp31
 70
     1
102
RTVSPropertyOp32
 70
     1
  0
XRECORD
  5
4F5D
102
{ACAD_REACTORS
330
4F5C
102
}
330
4F5C
100
AcDbXrecord
280
     1
102
RTVSPropertyOp0
 70
     1
102
RTVSPropertyOp1
 70
     1
102
RTVSPropertyOp2
 70
     1
102
RTVSPropertyOp3
 70
     1
102
RTVSPropertyOp4
 70
     1
102
RTVSPropertyOp5
 70
     1
102
RTVSPropertyOp6
 70
     1
102
RTVSPropertyOp7
 70
     1
102
RTVSPropertyOp8
 70
     1
102
RTVSPropertyOp9
 70
     1
102
RTVSPropertyOp10
 70
     1
102
RTVSPropertyOp11
 70
     1
102
RTVSPropertyOp12
 70
     1
102
RTVSPropertyOp13
 70
     1
102
RTVSPropertyOp14
 70
     1
102
RTVSPropertyOp15
 70
     1
102
RTVSPropertyOp16
 70
     1
102
RTVSPropertyOp17
 70
     1
102
RTVSPropertyOp18
 70
     1
102
RTVSPropertyOp19
 70
     1
102
RTVSPropertyOp20
 70
     1
102
RTVSPropertyOp21
 70
     1
102
RTVSPropertyOp22
 70
     1
102
RTVSPropertyOp23
 70
     1
102
RTVSPropertyOp24
 70
     1
102
RTVSPropertyOp25
 70
     1
102
RTVSPropertyOp26
 70
     1
102
RTVSPropertyOp27
 70
     1
102
RTVSPropertyOp28
 70
     1
102
RTVSPropertyOp29
 70
     1
102
RTVSPropertyOp30
 70
     1
102
RTVSPropertyOp31
 70
     1
102
RTVSPropertyOp32
 70
     1
  0
XRECORD
  5
4F5B
102
{ACAD_REACTORS
330
4F5A
102
}
330
4F5A
100
AcDbXrecord
280
     1
102
RTVSPropertyOp0
 70
     1
102
RTVSPropertyOp1
 70
     1
102
RTVSPropertyOp2
 70
     1
102
RTVSPropertyOp3
 70
     1
102
RTVSPropertyOp4
 70
     1
102
RTVSPropertyOp5
 70
     1
102
RTVSPropertyOp6
 70
     1
102
RTVSPropertyOp7
 70
     1
102
RTVSPropertyOp8
 70
     1
102
RTVSPropertyOp9
 70
     1
102
RTVSPropertyOp10
 70
     1
102
RTVSPropertyOp11
 70
     1
102
RTVSPropertyOp12
 70
     1
102
RTVSPropertyOp13
 70
     1
102
RTVSPropertyOp14
 70
     1
102
RTVSPropertyOp15
 70
     1
102
RTVSPropertyOp16
 70
     1
102
RTVSPropertyOp17
 70
     1
102
RTVSPropertyOp18
 70
     1
102
RTVSPropertyOp19
 70
     1
102
RTVSPropertyOp20
 70
     1
102
RTVSPropertyOp21
 70
     1
102
RTVSPropertyOp22
 70
     1
102
RTVSPropertyOp23
 70
     1
102
RTVSPropertyOp24
 70
     1
102
RTVSPropertyOp25
 70
     1
102
RTVSPropertyOp26
 70
     1
102
RTVSPropertyOp27
 70
     1
102
RTVSPropertyOp28
 70
     1
102
RTVSPropertyOp29
 70
     1
102
RTVSPropertyOp30
 70
     1
102
RTVSPropertyOp31
 70
     1
102
RTVSPropertyOp32
 70
     1
  0
XRECORD
  5
4F57
102
{ACAD_REACTORS
330
4F56
102
}
330
4F56
100
AcDbXrecord
280
     1
102
RTVSPropertyOp0
 70
     1
102
RTVSPropertyOp1
 70
     1
102
RTVSPropertyOp2
 70
     1
102
RTVSPropertyOp3
 70
     1
102
RTVSPropertyOp4
 70
     1
102
RTVSPropertyOp5
 70
     1
102
RTVSPropertyOp6
 70
     1
102
RTVSPropertyOp7
 70
     1
102
RTVSPropertyOp8
 70
     1
102
RTVSPropertyOp9
 70
     1
102
RTVSPropertyOp10
 70
     1
102
RTVSPropertyOp11
 70
     1
102
RTVSPropertyOp12
 70
     1
102
RTVSPropertyOp13
 70
     1
102
RTVSPropertyOp14
 70
     1
102
RTVSPropertyOp15
 70
     1
102
RTVSPropertyOp16
 70
     1
102
RTVSPropertyOp17
 70
     1
102
RTVSPropertyOp18
 70
     1
102
RTVSPropertyOp19
 70
     1
102
RTVSPropertyOp20
 70
     1
102
RTVSPropertyOp21
 70
     1
102
RTVSPropertyOp22
 70
     1
102
RTVSPropertyOp23
 70
     1
102
RTVSPropertyOp24
 70
     1
102
RTVSPropertyOp25
 70
     1
102
RTVSPropertyOp26
 70
     1
102
RTVSPropertyOp27
 70
     1
102
RTVSPropertyOp28
 70
     1
102
RTVSPropertyOp29
 70
     1
102
RTVSPropertyOp30
 70
     1
102
RTVSPropertyOp31
 70
     1
102
RTVSPropertyOp32
 70
     1
  0
XRECORD
  5
4F65
102
{ACAD_REACTORS
330
4F64
102
}
330
4F64
100
AcDbXrecord
280
     1
102
RTVSPropertyOp0
 70
     1
102
RTVSPropertyOp1
 70
     1
102
RTVSPropertyOp2
 70
     1
102
RTVSPropertyOp3
 70
     1
102
RTVSPropertyOp4
 70
     1
102
RTVSPropertyOp5
 70
     1
102
RTVSPropertyOp6
 70
     1
102
RTVSPropertyOp7
 70
     1
102
RTVSPropertyOp8
 70
     1
102
RTVSPropertyOp9
 70
     1
102
RTVSPropertyOp10
 70
     1
102
RTVSPropertyOp11
 70
     1
102
RTVSPropertyOp12
 70
     1
102
RTVSPropertyOp13
 70
     1
102
RTVSPropertyOp14
 70
     1
102
RTVSPropertyOp15
 70
     1
102
RTVSPropertyOp16
 70
     1
102
RTVSPropertyOp17
 70
     1
102
RTVSPropertyOp18
 70
     1
102
RTVSPropertyOp19
 70
     1
102
RTVSPropertyOp20
 70
     1
102
RTVSPropertyOp21
 70
     1
102
RTVSPropertyOp22
 70
     1
102
RTVSPropertyOp23
 70
     1
102
RTVSPropertyOp24
 70
     1
102
RTVSPropertyOp25
 70
     1
102
RTVSPropertyOp26
 70
     1
102
RTVSPropertyOp27
 70
     1
102
RTVSPropertyOp28
 70
     1
102
RTVSPropertyOp29
 70
     1
102
RTVSPropertyOp30
 70
     1
102
RTVSPropertyOp31
 70
     1
102
RTVSPropertyOp32
 70
     1
  0
XRECORD
  5
4F6D
102
{ACAD_REACTORS
330
4F6C
102
}
330
4F6C
100
AcDbXrecord
280
     1
102
RTVSPropertyOp0
 70
     1
102
RTVSPropertyOp1
 70
     1
102
RTVSPropertyOp2
 70
     1
102
RTVSPropertyOp3
 70
     1
102
RTVSPropertyOp4
 70
     1
102
RTVSPropertyOp5
 70
     1
102
RTVSPropertyOp6
 70
     1
102
RTVSPropertyOp7
 70
     1
102
RTVSPropertyOp8
 70
     1
102
RTVSPropertyOp9
 70
     1
102
RTVSPropertyOp10
 70
     1
102
RTVSPropertyOp11
 70
     1
102
RTVSPropertyOp12
 70
     1
102
RTVSPropertyOp13
 70
     1
102
RTVSPropertyOp14
 70
     1
102
RTVSPropertyOp15
 70
     1
102
RTVSPropertyOp16
 70
     1
102
RTVSPropertyOp17
 70
     1
102
RTVSPropertyOp18
 70
     1
102
RTVSPropertyOp19
 70
     1
102
RTVSPropertyOp20
 70
     1
102
RTVSPropertyOp21
 70
     1
102
RTVSPropertyOp22
 70
     1
102
RTVSPropertyOp23
 70
     1
102
RTVSPropertyOp24
 70
     1
102
RTVSPropertyOp25
 70
     1
102
RTVSPropertyOp26
 70
     1
102
RTVSPropertyOp27
 70
     1
102
RTVSPropertyOp28
 70
     1
102
RTVSPropertyOp29
 70
     1
102
RTVSPropertyOp30
 70
     1
102
RTVSPropertyOp31
 70
     1
102
RTVSPropertyOp32
 70
     1
  0
XRECORD
  5
4F5F
102
{ACAD_REACTORS
330
4F5E
102
}
330
4F5E
100
AcDbXrecord
280
     1
102
RTVSPropertyOp0
 70
     1
102
RTVSPropertyOp1
 70
     1
102
RTVSPropertyOp2
 70
     1
102
RTVSPropertyOp3
 70
     1
102
RTVSPropertyOp4
 70
     1
102
RTVSPropertyOp5
 70
     1
102
RTVSPropertyOp6
 70
     1
102
RTVSPropertyOp7
 70
     1
102
RTVSPropertyOp8
 70
     1
102
RTVSPropertyOp9
 70
     1
102
RTVSPropertyOp10
 70
     1
102
RTVSPropertyOp11
 70
     1
102
RTVSPropertyOp12
 70
     1
102
RTVSPropertyOp13
 70
     1
102
RTVSPropertyOp14
 70
     1
102
RTVSPropertyOp15
 70
     1
102
RTVSPropertyOp16
 70
     1
102
RTVSPropertyOp17
 70
     1
102
RTVSPropertyOp18
 70
     1
102
RTVSPropertyOp19
 70
     1
102
RTVSPropertyOp20
 70
     1
102
RTVSPropertyOp21
 70
     1
102
RTVSPropertyOp22
 70
     1
102
RTVSPropertyOp23
 70
     1
102
RTVSPropertyOp24
 70
     1
102
RTVSPropertyOp25
 70
     1
102
RTVSPropertyOp26
 70
     1
102
RTVSPropertyOp27
 70
     1
102
RTVSPropertyOp28
 70
     1
102
RTVSPropertyOp29
 70
     1
102
RTVSPropertyOp30
 70
     1
102
RTVSPropertyOp31
 70
     1
102
RTVSPropertyOp32
 70
     1
  0
XRECORD
  5
4F63
102
{ACAD_REACTORS
330
4F62
102
}
330
4F62
100
AcDbXrecord
280
     1
102
RTVSPropertyOp0
 70
     1
102
RTVSPropertyOp1
 70
     1
102
RTVSPropertyOp2
 70
     1
102
RTVSPropertyOp3
 70
     1
102
RTVSPropertyOp4
 70
     1
102
RTVSPropertyOp5
 70
     1
102
RTVSPropertyOp6
 70
     1
102
RTVSPropertyOp7
 70
     1
102
RTVSPropertyOp8
 70
     1
102
RTVSPropertyOp9
 70
     1
102
RTVSPropertyOp10
 70
     1
102
RTVSPropertyOp11
 70
     1
102
RTVSPropertyOp12
 70
     1
102
RTVSPropertyOp13
 70
     1
102
RTVSPropertyOp14
 70
     1
102
RTVSPropertyOp15
 70
     1
102
RTVSPropertyOp16
 70
     1
102
RTVSPropertyOp17
 70
     1
102
RTVSPropertyOp18
 70
     1
102
RTVSPropertyOp19
 70
     1
102
RTVSPropertyOp20
 70
     1
102
RTVSPropertyOp21
 70
     1
102
RTVSPropertyOp22
 70
     1
102
RTVSPropertyOp23
 70
     1
102
RTVSPropertyOp24
 70
     1
102
RTVSPropertyOp25
 70
     1
102
RTVSPropertyOp26
 70
     1
102
RTVSPropertyOp27
 70
     1
102
RTVSPropertyOp28
 70
     1
102
RTVSPropertyOp29
 70
     1
102
RTVSPropertyOp30
 70
     1
102
RTVSPropertyOp31
 70
     1
102
RTVSPropertyOp32
 70
     1
  0
XRECORD
  5
4F81
102
{ACAD_REACTORS
330
4F80
102
}
330
4F80
100
AcDbXrecord
280
     1
102
RTVSPropertyOp0
 70
     0
102
RTVSPropertyOp1
 70
     0
102
RTVSPropertyOp2
 70
     0
102
RTVSPropertyOp3
 70
     0
102
RTVSPropertyOp4
 70
     0
102
RTVSPropertyOp5
 70
     0
102
RTVSPropertyOp6
 70
     0
102
RTVSPropertyOp7
 70
     0
102
RTVSPropertyOp8
 70
     0
102
RTVSPropertyOp9
 70
     0
102
RTVSPropertyOp10
 70
     0
102
RTVSPropertyOp11
 70
     0
102
RTVSPropertyOp12
 70
     0
102
RTVSPropertyOp13
 70
     0
102
RTVSPropertyOp14
 70
     2
102
RTVSPropertyOp15
 70
     0
102
RTVSPropertyOp16
 70
     0
102
RTVSPropertyOp17
 70
     0
102
RTVSPropertyOp18
 70
     0
102
RTVSPropertyOp19
 70
     0
102
RTVSPropertyOp20
 70
     0
102
RTVSPropertyOp21
 70
     0
102
RTVSPropertyOp22
 70
     0
102
RTVSPropertyOp23
 70
     0
102
RTVSPropertyOp24
 70
     0
102
RTVSPropertyOp25
 70
     0
102
RTVSPropertyOp26
 70
     0
102
RTVSPropertyOp27
 70
     0
102
RTVSPropertyOp28
 70
     1
102
RTVSPropertyOp29
 70
     1
102
RTVSPropertyOp30
 70
     1
102
RTVSPropertyOp31
 70
     1
102
RTVSPropertyOp32
 70
     1
  0
XRECORD
  5
4F6B
102
{ACAD_REACTORS
330
4F6A
102
}
330
4F6A
100
AcDbXrecord
280
     1
102
RTVSPropertyOp0
 70
     1
102
RTVSPropertyOp1
 70
     1
102
RTVSPropertyOp2
 70
     1
102
RTVSPropertyOp3
 70
     1
102
RTVSPropertyOp4
 70
     1
102
RTVSPropertyOp5
 70
     1
102
RTVSPropertyOp6
 70
     1
102
RTVSPropertyOp7
 70
     1
102
RTVSPropertyOp8
 70
     1
102
RTVSPropertyOp9
 70
     1
102
RTVSPropertyOp10
 70
     1
102
RTVSPropertyOp11
 70
     1
102
RTVSPropertyOp12
 70
     1
102
RTVSPropertyOp13
 70
     1
102
RTVSPropertyOp14
 70
     1
102
RTVSPropertyOp15
 70
     1
102
RTVSPropertyOp16
 70
     1
102
RTVSPropertyOp17
 70
     1
102
RTVSPropertyOp18
 70
     1
102
RTVSPropertyOp19
 70
     1
102
RTVSPropertyOp20
 70
     1
102
RTVSPropertyOp21
 70
     1
102
RTVSPropertyOp22
 70
     1
102
RTVSPropertyOp23
 70
     1
102
RTVSPropertyOp24
 70
     1
102
RTVSPropertyOp25
 70
     1
102
RTVSPropertyOp26
 70
     1
102
RTVSPropertyOp27
 70
     1
102
RTVSPropertyOp28
 70
     1
102
RTVSPropertyOp29
 70
     1
102
RTVSPropertyOp30
 70
     1
102
RTVSPropertyOp31
 70
     1
102
RTVSPropertyOp32
 70
     1
  0
XRECORD
  5
4F4F
102
{ACAD_REACTORS
330
4F4E
102
}
330
4F4E
100
AcDbXrecord
280
     1
102
RTVSPropertyOp0
 70
     1
102
RTVSPropertyOp1
 70
     1
102
RTVSPropertyOp2
 70
     1
102
RTVSPropertyOp3
 70
     1
102
RTVSPropertyOp4
 70
     1
102
RTVSPropertyOp5
 70
     1
102
RTVSPropertyOp6
 70
     1
102
RTVSPropertyOp7
 70
     1
102
RTVSPropertyOp8
 70
     1
102
RTVSPropertyOp9
 70
     1
102
RTVSPropertyOp10
 70
     1
102
RTVSPropertyOp11
 70
     1
102
RTVSPropertyOp12
 70
     1
102
RTVSPropertyOp13
 70
     1
102
RTVSPropertyOp14
 70
     1
102
RTVSPropertyOp15
 70
     1
102
RTVSPropertyOp16
 70
     1
102
RTVSPropertyOp17
 70
     1
102
RTVSPropertyOp18
 70
     1
102
RTVSPropertyOp19
 70
     1
102
RTVSPropertyOp20
 70
     1
102
RTVSPropertyOp21
 70
     1
102
RTVSPropertyOp22
 70
     1
102
RTVSPropertyOp23
 70
     1
102
RTVSPropertyOp24
 70
     1
102
RTVSPropertyOp25
 70
     1
102
RTVSPropertyOp26
 70
     1
102
RTVSPropertyOp27
 70
     1
102
RTVSPropertyOp28
 70
     1
102
RTVSPropertyOp29
 70
     1
102
RTVSPropertyOp30
 70
     1
102
RTVSPropertyOp31
 70
     1
102
RTVSPropertyOp32
 70
     1
  0
XRECORD
  5
4F51
102
{ACAD_REACTORS
330
4F50
102
}
330
4F50
100
AcDbXrecord
280
     1
102
RTVSPropertyOp0
 70
     1
102
RTVSPropertyOp1
 70
     1
102
RTVSPropertyOp2
 70
     1
102
RTVSPropertyOp3
 70
     1
102
RTVSPropertyOp4
 70
     1
102
RTVSPropertyOp5
 70
     1
102
RTVSPropertyOp6
 70
     1
102
RTVSPropertyOp7
 70
     1
102
RTVSPropertyOp8
 70
     1
102
RTVSPropertyOp9
 70
     1
102
RTVSPropertyOp10
 70
     1
102
RTVSPropertyOp11
 70
     1
102
RTVSPropertyOp12
 70
     1
102
RTVSPropertyOp13
 70
     1
102
RTVSPropertyOp14
 70
     1
102
RTVSPropertyOp15
 70
     1
102
RTVSPropertyOp16
 70
     1
102
RTVSPropertyOp17
 70
     1
102
RTVSPropertyOp18
 70
     1
102
RTVSPropertyOp19
 70
     1
102
RTVSPropertyOp20
 70
     1
102
RTVSPropertyOp21
 70
     1
102
RTVSPropertyOp22
 70
     1
102
RTVSPropertyOp23
 70
     1
102
RTVSPropertyOp24
 70
     1
102
RTVSPropertyOp25
 70
     1
102
RTVSPropertyOp26
 70
     1
102
RTVSPropertyOp27
 70
     1
102
RTVSPropertyOp28
 70
     1
102
RTVSPropertyOp29
 70
     1
102
RTVSPropertyOp30
 70
     1
102
RTVSPropertyOp31
 70
     1
102
RTVSPropertyOp32
 70
     1
  0
XRECORD
  5
4F53
102
{ACAD_REACTORS
330
4F52
102
}
330
4F52
100
AcDbXrecord
280
     1
102
RTVSPropertyOp0
 70
     1
102
RTVSPropertyOp1
 70
     1
102
RTVSPropertyOp2
 70
     1
102
RTVSPropertyOp3
 70
     1
102
RTVSPropertyOp4
 70
     1
102
RTVSPropertyOp5
 70
     1
102
RTVSPropertyOp6
 70
     1
102
RTVSPropertyOp7
 70
     1
102
RTVSPropertyOp8
 70
     1
102
RTVSPropertyOp9
 70
     1
102
RTVSPropertyOp10
 70
     1
102
RTVSPropertyOp11
 70
     1
102
RTVSPropertyOp12
 70
     1
102
RTVSPropertyOp13
 70
     1
102
RTVSPropertyOp14
 70
     1
102
RTVSPropertyOp15
 70
     1
102
RTVSPropertyOp16
 70
     1
102
RTVSPropertyOp17
 70
     1
102
RTVSPropertyOp18
 70
     1
102
RTVSPropertyOp19
 70
     1
102
RTVSPropertyOp20
 70
     1
102
RTVSPropertyOp21
 70
     1
102
RTVSPropertyOp22
 70
     1
102
RTVSPropertyOp23
 70
     1
102
RTVSPropertyOp24
 70
     1
102
RTVSPropertyOp25
 70
     1
102
RTVSPropertyOp26
 70
     1
102
RTVSPropertyOp27
 70
     1
102
RTVSPropertyOp28
 70
     1
102
RTVSPropertyOp29
 70
     1
102
RTVSPropertyOp30
 70
     1
102
RTVSPropertyOp31
 70
     1
102
RTVSPropertyOp32
 70
     1
  0
XRECORD
  5
4F55
102
{ACAD_REACTORS
330
4F54
102
}
330
4F54
100
AcDbXrecord
280
     1
102
RTVSPropertyOp0
 70
     1
102
RTVSPropertyOp1
 70
     1
102
RTVSPropertyOp2
 70
     1
102
RTVSPropertyOp3
 70
     1
102
RTVSPropertyOp4
 70
     1
102
RTVSPropertyOp5
 70
     1
102
RTVSPropertyOp6
 70
     1
102
RTVSPropertyOp7
 70
     1
102
RTVSPropertyOp8
 70
     1
102
RTVSPropertyOp9
 70
     1
102
RTVSPropertyOp10
 70
     1
102
RTVSPropertyOp11
 70
     1
102
RTVSPropertyOp12
 70
     1
102
RTVSPropertyOp13
 70
     1
102
RTVSPropertyOp14
 70
     1
102
RTVSPropertyOp15
 70
     1
102
RTVSPropertyOp16
 70
     1
102
RTVSPropertyOp17
 70
     1
102
RTVSPropertyOp18
 70
     1
102
RTVSPropertyOp19
 70
     1
102
RTVSPropertyOp20
 70
     1
102
RTVSPropertyOp21
 70
     1
102
RTVSPropertyOp22
 70
     1
102
RTVSPropertyOp23
 70
     1
102
RTVSPropertyOp24
 70
     1
102
RTVSPropertyOp25
 70
     1
102
RTVSPropertyOp26
 70
     1
102
RTVSPropertyOp27
 70
     1
102
RTVSPropertyOp28
 70
     1
102
RTVSPropertyOp29
 70
     1
102
RTVSPropertyOp30
 70
     1
102
RTVSPropertyOp31
 70
     1
102
RTVSPropertyOp32
 70
     1
  0
XRECORD
  5
4F71
102
{ACAD_REACTORS
330
4F70
102
}
330
4F70
100
AcDbXrecord
280
     1
102
RTVSPropertyOp0
 70
     1
102
RTVSPropertyOp1
 70
     1
102
RTVSPropertyOp2
 70
     1
102
RTVSPropertyOp3
 70
     1
102
RTVSPropertyOp4
 70
     1
102
RTVSPropertyOp5
 70
     1
102
RTVSPropertyOp6
 70
     1
102
RTVSPropertyOp7
 70
     1
102
RTVSPropertyOp8
 70
     1
102
RTVSPropertyOp9
 70
     1
102
RTVSPropertyOp10
 70
     1
102
RTVSPropertyOp11
 70
     1
102
RTVSPropertyOp12
 70
     1
102
RTVSPropertyOp13
 70
     1
102
RTVSPropertyOp14
 70
     1
102
RTVSPropertyOp15
 70
     1
102
RTVSPropertyOp16
 70
     1
102
RTVSPropertyOp17
 70
     1
102
RTVSPropertyOp18
 70
     1
102
RTVSPropertyOp19
 70
     1
102
RTVSPropertyOp20
 70
     1
102
RTVSPropertyOp21
 70
     1
102
RTVSPropertyOp22
 70
     1
102
RTVSPropertyOp23
 70
     1
102
RTVSPropertyOp24
 70
     1
102
RTVSPropertyOp25
 70
     1
102
RTVSPropertyOp26
 70
     1
102
RTVSPropertyOp27
 70
     1
102
RTVSPropertyOp28
 70
     1
102
RTVSPropertyOp29
 70
     1
102
RTVSPropertyOp30
 70
     1
102
RTVSPropertyOp31
 70
     1
102
RTVSPropertyOp32
 70
     1
  0
XRECORD
  5
4F7D
102
{ACAD_REACTORS
330
4F7C
102
}
330
4F7C
100
AcDbXrecord
280
     1
102
RTVSPropertyOp0
 70
     0
102
RTVSPropertyOp1
 70
     0
102
RTVSPropertyOp2
 70
     0
102
RTVSPropertyOp3
 70
     0
102
RTVSPropertyOp4
 70
     0
102
RTVSPropertyOp5
 70
     0
102
RTVSPropertyOp6
 70
     0
102
RTVSPropertyOp7
 70
     0
102
RTVSPropertyOp8
 70
     0
102
RTVSPropertyOp9
 70
     0
102
RTVSPropertyOp10
 70
     0
102
RTVSPropertyOp11
 70
     0
102
RTVSPropertyOp12
 70
     0
102
RTVSPropertyOp13
 70
     0
102
RTVSPropertyOp14
 70
     2
102
RTVSPropertyOp15
 70
     0
102
RTVSPropertyOp16
 70
     0
102
RTVSPropertyOp17
 70
     0
102
RTVSPropertyOp18
 70
     0
102
RTVSPropertyOp19
 70
     0
102
RTVSPropertyOp20
 70
     0
102
RTVSPropertyOp21
 70
     0
102
RTVSPropertyOp22
 70
     0
102
RTVSPropertyOp23
 70
     0
102
RTVSPropertyOp24
 70
     0
102
RTVSPropertyOp25
 70
     0
102
RTVSPropertyOp26
 70
     0
102
RTVSPropertyOp27
 70
     0
102
RTVSPropertyOp28
 70
     1
102
RTVSPropertyOp29
 70
     1
102
RTVSPropertyOp30
 70
     1
102
RTVSPropertyOp31
 70
     1
102
RTVSPropertyOp32
 70
     1
  0
XRECORD
  5
4F69
102
{ACAD_REACTORS
330
4F68
102
}
330
4F68
100
AcDbXrecord
280
     1
102
RTVSPropertyOp0
 70
     1
102
RTVSPropertyOp1
 70
     1
102
RTVSPropertyOp2
 70
     1
102
RTVSPropertyOp3
 70
     1
102
RTVSPropertyOp4
 70
     1
102
RTVSPropertyOp5
 70
     1
102
RTVSPropertyOp6
 70
     1
102
RTVSPropertyOp7
 70
     1
102
RTVSPropertyOp8
 70
     1
102
RTVSPropertyOp9
 70
     1
102
RTVSPropertyOp10
 70
     1
102
RTVSPropertyOp11
 70
     1
102
RTVSPropertyOp12
 70
     1
102
RTVSPropertyOp13
 70
     1
102
RTVSPropertyOp14
 70
     1
102
RTVSPropertyOp15
 70
     1
102
RTVSPropertyOp16
 70
     1
102
RTVSPropertyOp17
 70
     1
102
RTVSPropertyOp18
 70
     1
102
RTVSPropertyOp19
 70
     1
102
RTVSPropertyOp20
 70
     1
102
RTVSPropertyOp21
 70
     1
102
RTVSPropertyOp22
 70
     1
102
RTVSPropertyOp23
 70
     1
102
RTVSPropertyOp24
 70
     1
102
RTVSPropertyOp25
 70
     1
102
RTVSPropertyOp26
 70
     1
102
RTVSPropertyOp27
 70
     1
102
RTVSPropertyOp28
 70
     1
102
RTVSPropertyOp29
 70
     1
102
RTVSPropertyOp30
 70
     1
102
RTVSPropertyOp31
 70
     1
102
RTVSPropertyOp32
 70
     1
  0
XRECORD
  5
4F7F
102
{ACAD_REACTORS
330
4F7E
102
}
330
4F7E
100
AcDbXrecord
280
     1
102
RTVSPropertyOp0
 70
     0
102
RTVSPropertyOp1
 70
     0
102
RTVSPropertyOp2
 70
     0
102
RTVSPropertyOp3
 70
     0
102
RTVSPropertyOp4
 70
     0
102
RTVSPropertyOp5
 70
     0
102
RTVSPropertyOp6
 70
     0
102
RTVSPropertyOp7
 70
     0
102
RTVSPropertyOp8
 70
     0
102
RTVSPropertyOp9
 70
     0
102
RTVSPropertyOp10
 70
     0
102
RTVSPropertyOp11
 70
     0
102
RTVSPropertyOp12
 70
     0
102
RTVSPropertyOp13
 70
     0
102
RTVSPropertyOp14
 70
     2
102
RTVSPropertyOp15
 70
     0
102
RTVSPropertyOp16
 70
     0
102
RTVSPropertyOp17
 70
     0
102
RTVSPropertyOp18
 70
     0
102
RTVSPropertyOp19
 70
     0
102
RTVSPropertyOp20
 70
     0
102
RTVSPropertyOp21
 70
     0
102
RTVSPropertyOp22
 70
     0
102
RTVSPropertyOp23
 70
     0
102
RTVSPropertyOp24
 70
     0
102
RTVSPropertyOp25
 70
     0
102
RTVSPropertyOp26
 70
     0
102
RTVSPropertyOp27
 70
     0
102
RTVSPropertyOp28
 70
     1
102
RTVSPropertyOp29
 70
     1
102
RTVSPropertyOp30
 70
     1
102
RTVSPropertyOp31
 70
     1
102
RTVSPropertyOp32
 70
     1
  0
XRECORD
  5
4F61
102
{ACAD_REACTORS
330
4F60
102
}
330
4F60
100
AcDbXrecord
280
     1
102
RTVSPropertyOp0
 70
     1
102
RTVSPropertyOp1
 70
     1
102
RTVSPropertyOp2
 70
     1
102
RTVSPropertyOp3
 70
     1
102
RTVSPropertyOp4
 70
     1
102
RTVSPropertyOp5
 70
     1
102
RTVSPropertyOp6
 70
     1
102
RTVSPropertyOp7
 70
     1
102
RTVSPropertyOp8
 70
     1
102
RTVSPropertyOp9
 70
     1
102
RTVSPropertyOp10
 70
     1
102
RTVSPropertyOp11
 70
     1
102
RTVSPropertyOp12
 70
     1
102
RTVSPropertyOp13
 70
     1
102
RTVSPropertyOp14
 70
     1
102
RTVSPropertyOp15
 70
     1
102
RTVSPropertyOp16
 70
     1
102
RTVSPropertyOp17
 70
     1
102
RTVSPropertyOp18
 70
     1
102
RTVSPropertyOp19
 70
     1
102
RTVSPropertyOp20
 70
     1
102
RTVSPropertyOp21
 70
     1
102
RTVSPropertyOp22
 70
     1
102
RTVSPropertyOp23
 70
     1
102
RTVSPropertyOp24
 70
     1
102
RTVSPropertyOp25
 70
     1
102
RTVSPropertyOp26
 70
     1
102
RTVSPropertyOp27
 70
     1
102
RTVSPropertyOp28
 70
     1
102
RTVSPropertyOp29
 70
     1
102
RTVSPropertyOp30
 70
     1
102
RTVSPropertyOp31
 70
     1
102
RTVSPropertyOp32
 70
     1
  0
XRECORD
  5
4F7B
102
{ACAD_REACTORS
330
4F7A
102
}
330
4F7A
100
AcDbXrecord
280
     1
102
RTVSPropertyOp0
 70
     1
102
RTVSPropertyOp1
 70
     1
102
RTVSPropertyOp2
 70
     1
102
RTVSPropertyOp3
 70
     1
102
RTVSPropertyOp4
 70
     1
102
RTVSPropertyOp5
 70
     1
102
RTVSPropertyOp6
 70
     1
102
RTVSPropertyOp7
 70
     1
102
RTVSPropertyOp8
 70
     1
102
RTVSPropertyOp9
 70
     1
102
RTVSPropertyOp10
 70
     1
102
RTVSPropertyOp11
 70
     1
102
RTVSPropertyOp12
 70
     1
102
RTVSPropertyOp13
 70
     1
102
RTVSPropertyOp14
 70
     1
102
RTVSPropertyOp15
 70
     1
102
RTVSPropertyOp16
 70
     1
102
RTVSPropertyOp17
 70
     1
102
RTVSPropertyOp18
 70
     1
102
RTVSPropertyOp19
 70
     1
102
RTVSPropertyOp20
 70
     1
102
RTVSPropertyOp21
 70
     1
102
RTVSPropertyOp22
 70
     1
102
RTVSPropertyOp23
 70
     1
102
RTVSPropertyOp24
 70
     1
102
RTVSPropertyOp25
 70
     1
102
RTVSPropertyOp26
 70
     1
102
RTVSPropertyOp27
 70
     1
102
RTVSPropertyOp28
 70
     1
102
RTVSPropertyOp29
 70
     1
102
RTVSPropertyOp30
 70
     1
102
RTVSPropertyOp31
 70
     1
102
RTVSPropertyOp32
 70
     1
  0
XRECORD
  5
4F79
102
{ACAD_REACTORS
330
4F78
102
}
330
4F78
100
AcDbXrecord
280
     1
102
RTVSPropertyOp0
 70
     1
102
RTVSPropertyOp1
 70
     1
102
RTVSPropertyOp2
 70
     1
102
RTVSPropertyOp3
 70
     1
102
RTVSPropertyOp4
 70
     1
102
RTVSPropertyOp5
 70
     1
102
RTVSPropertyOp6
 70
     1
102
RTVSPropertyOp7
 70
     1
102
RTVSPropertyOp8
 70
     1
102
RTVSPropertyOp9
 70
     1
102
RTVSPropertyOp10
 70
     1
102
RTVSPropertyOp11
 70
     1
102
RTVSPropertyOp12
 70
     1
102
RTVSPropertyOp13
 70
     1
102
RTVSPropertyOp14
 70
     1
102
RTVSPropertyOp15
 70
     1
102
RTVSPropertyOp16
 70
     1
102
RTVSPropertyOp17
 70
     1
102
RTVSPropertyOp18
 70
     1
102
RTVSPropertyOp19
 70
     1
102
RTVSPropertyOp20
 70
     1
102
RTVSPropertyOp21
 70
     1
102
RTVSPropertyOp22
 70
     1
102
RTVSPropertyOp23
 70
     1
102
RTVSPropertyOp24
 70
     1
102
RTVSPropertyOp25
 70
     1
102
RTVSPropertyOp26
 70
     1
102
RTVSPropertyOp27
 70
     1
102
RTVSPropertyOp28
 70
     1
102
RTVSPropertyOp29
 70
     1
102
RTVSPropertyOp30
 70
     1
102
RTVSPropertyOp31
 70
     1
102
RTVSPropertyOp32
 70
     1
  0
XRECORD
  5
4F73
102
{ACAD_REACTORS
330
4F72
102
}
330
4F72
100
AcDbXrecord
280
     1
102
RTVSPropertyOp0
 70
     1
102
RTVSPropertyOp1
 70
     1
102
RTVSPropertyOp2
 70
     1
102
RTVSPropertyOp3
 70
     1
102
RTVSPropertyOp4
 70
     1
102
RTVSPropertyOp5
 70
     1
102
RTVSPropertyOp6
 70
     1
102
RTVSPropertyOp7
 70
     1
102
RTVSPropertyOp8
 70
     1
102
RTVSPropertyOp9
 70
     1
102
RTVSPropertyOp10
 70
     1
102
RTVSPropertyOp11
 70
     1
102
RTVSPropertyOp12
 70
     1
102
RTVSPropertyOp13
 70
     1
102
RTVSPropertyOp14
 70
     1
102
RTVSPropertyOp15
 70
     1
102
RTVSPropertyOp16
 70
     1
102
RTVSPropertyOp17
 70
     1
102
RTVSPropertyOp18
 70
     1
102
RTVSPropertyOp19
 70
     1
102
RTVSPropertyOp20
 70
     1
102
RTVSPropertyOp21
 70
     1
102
RTVSPropertyOp22
 70
     1
102
RTVSPropertyOp23
 70
     1
102
RTVSPropertyOp24
 70
     1
102
RTVSPropertyOp25
 70
     1
102
RTVSPropertyOp26
 70
     1
102
RTVSPropertyOp27
 70
     1
102
RTVSPropertyOp28
 70
     1
102
RTVSPropertyOp29
 70
     1
102
RTVSPropertyOp30
 70
     1
102
RTVSPropertyOp31
 70
     1
102
RTVSPropertyOp32
 70
     1
  0
XRECORD
  5
4F75
102
{ACAD_REACTORS
330
4F74
102
}
330
4F74
100
AcDbXrecord
280
     1
102
RTVSPropertyOp0
 70
     1
102
RTVSPropertyOp1
 70
     1
102
RTVSPropertyOp2
 70
     1
102
RTVSPropertyOp3
 70
     1
102
RTVSPropertyOp4
 70
     1
102
RTVSPropertyOp5
 70
     1
102
RTVSPropertyOp6
 70
     1
102
RTVSPropertyOp7
 70
     1
102
RTVSPropertyOp8
 70
     1
102
RTVSPropertyOp9
 70
     1
102
RTVSPropertyOp10
 70
     1
102
RTVSPropertyOp11
 70
     1
102
RTVSPropertyOp12
 70
     1
102
RTVSPropertyOp13
 70
     1
102
RTVSPropertyOp14
 70
     1
102
RTVSPropertyOp15
 70
     1
102
RTVSPropertyOp16
 70
     1
102
RTVSPropertyOp17
 70
     1
102
RTVSPropertyOp18
 70
     1
102
RTVSPropertyOp19
 70
     1
102
RTVSPropertyOp20
 70
     1
102
RTVSPropertyOp21
 70
     1
102
RTVSPropertyOp22
 70
     1
102
RTVSPropertyOp23
 70
     1
102
RTVSPropertyOp24
 70
     1
102
RTVSPropertyOp25
 70
     1
102
RTVSPropertyOp26
 70
     1
102
RTVSPropertyOp27
 70
     1
102
RTVSPropertyOp28
 70
     1
102
RTVSPropertyOp29
 70
     1
102
RTVSPropertyOp30
 70
     1
102
RTVSPropertyOp31
 70
     1
102
RTVSPropertyOp32
 70
     1
  0
XRECORD
  5
4F67
102
{ACAD_REACTORS
330
4F66
102
}
330
4F66
100
AcDbXrecord
280
     1
102
RTVSPropertyOp0
 70
     1
102
RTVSPropertyOp1
 70
     1
102
RTVSPropertyOp2
 70
     1
102
RTVSPropertyOp3
 70
     1
102
RTVSPropertyOp4
 70
     1
102
RTVSPropertyOp5
 70
     1
102
RTVSPropertyOp6
 70
     1
102
RTVSPropertyOp7
 70
     1
102
RTVSPropertyOp8
 70
     1
102
RTVSPropertyOp9
 70
     1
102
RTVSPropertyOp10
 70
     1
102
RTVSPropertyOp11
 70
     1
102
RTVSPropertyOp12
 70
     1
102
RTVSPropertyOp13
 70
     1
102
RTVSPropertyOp14
 70
     1
102
RTVSPropertyOp15
 70
     1
102
RTVSPropertyOp16
 70
     1
102
RTVSPropertyOp17
 70
     1
102
RTVSPropertyOp18
 70
     1
102
RTVSPropertyOp19
 70
     1
102
RTVSPropertyOp20
 70
     1
102
RTVSPropertyOp21
 70
     1
102
RTVSPropertyOp22
 70
     1
102
RTVSPropertyOp23
 70
     1
102
RTVSPropertyOp24
 70
     1
102
RTVSPropertyOp25
 70
     1
102
RTVSPropertyOp26
 70
     1
102
RTVSPropertyOp27
 70
     1
102
RTVSPropertyOp28
 70
     1
102
RTVSPropertyOp29
 70
     1
102
RTVSPropertyOp30
 70
     1
102
RTVSPropertyOp31
 70
     1
102
RTVSPropertyOp32
 70
     1
  0
XRECORD
  5
4F6F
102
{ACAD_REACTORS
330
4F6E
102
}
330
4F6E
100
AcDbXrecord
280
     1
102
RTVSPropertyOp0
 70
     1
102
RTVSPropertyOp1
 70
     1
102
RTVSPropertyOp2
 70
     1
102
RTVSPropertyOp3
 70
     1
102
RTVSPropertyOp4
 70
     1
102
RTVSPropertyOp5
 70
     1
102
RTVSPropertyOp6
 70
     1
102
RTVSPropertyOp7
 70
     1
102
RTVSPropertyOp8
 70
     1
102
RTVSPropertyOp9
 70
     1
102
RTVSPropertyOp10
 70
     1
102
RTVSPropertyOp11
 70
     1
102
RTVSPropertyOp12
 70
     1
102
RTVSPropertyOp13
 70
     1
102
RTVSPropertyOp14
 70
     1
102
RTVSPropertyOp15
 70
     1
102
RTVSPropertyOp16
 70
     1
102
RTVSPropertyOp17
 70
     1
102
RTVSPropertyOp18
 70
     1
102
RTVSPropertyOp19
 70
     1
102
RTVSPropertyOp20
 70
     1
102
RTVSPropertyOp21
 70
     1
102
RTVSPropertyOp22
 70
     1
102
RTVSPropertyOp23
 70
     1
102
RTVSPropertyOp24
 70
     1
102
RTVSPropertyOp25
 70
     1
102
RTVSPropertyOp26
 70
     1
102
RTVSPropertyOp27
 70
     1
102
RTVSPropertyOp28
 70
     1
102
RTVSPropertyOp29
 70
     1
102
RTVSPropertyOp30
 70
     1
102
RTVSPropertyOp31
 70
     1
102
RTVSPropertyOp32
 70
     1
  0
XRECORD
  5
4F77
102
{ACAD_REACTORS
330
4F76
102
}
330
4F76
100
AcDbXrecord
280
     1
102
RTVSPropertyOp0
 70
     1
102
RTVSPropertyOp1
 70
     1
102
RTVSPropertyOp2
 70
     1
102
RTVSPropertyOp3
 70
     1
102
RTVSPropertyOp4
 70
     1
102
RTVSPropertyOp5
 70
     1
102
RTVSPropertyOp6
 70
     1
102
RTVSPropertyOp7
 70
     1
102
RTVSPropertyOp8
 70
     1
102
RTVSPropertyOp9
 70
     1
102
RTVSPropertyOp10
 70
     1
102
RTVSPropertyOp11
 70
     1
102
RTVSPropertyOp12
 70
     1
102
RTVSPropertyOp13
 70
     1
102
RTVSPropertyOp14
 70
     1
102
RTVSPropertyOp15
 70
     1
102
RTVSPropertyOp16
 70
     1
102
RTVSPropertyOp17
 70
     1
102
RTVSPropertyOp18
 70
     1
102
RTVSPropertyOp19
 70
     1
102
RTVSPropertyOp20
 70
     1
102
RTVSPropertyOp21
 70
     1
102
RTVSPropertyOp22
 70
     1
102
RTVSPropertyOp23
 70
     1
102
RTVSPropertyOp24
 70
     1
102
RTVSPropertyOp25
 70
     1
102
RTVSPropertyOp26
 70
     1
102
RTVSPropertyOp27
 70
     1
102
RTVSPropertyOp28
 70
     1
102
RTVSPropertyOp29
 70
     1
102
RTVSPropertyOp30
 70
     1
102
RTVSPropertyOp31
 70
     1
102
RTVSPropertyOp32
 70
     1
  0
ENDSEC
  0
EOF
