  0
SECTION
  2
HEADER
  9
$ACADVER
  1
AC1015
  9
$ACADMAINTVER
 70
    20
  9
$DWGCODEPAGE
  3
ANSI_932
  9
$INSBASE
 10
0.0
 20
0.0
 30
0.0
  9
$EXTMIN
 10
1630.528239672985
 20
59.73927213131344
 30
0.0
  9
$EXTMAX
 10
1822.528239672985
 20
340.8614008613134
 30
0.0
  9
$LIMMIN
 10
0.0
 20
0.0
  9
$LIMMAX
 10
12.0
 20
9.0
  9
$ORTHOMODE
 70
     1
  9
$REGENMODE
 70
     1
  9
$FILLMODE
 70
     1
  9
$QTEXTMODE
 70
     0
  9
$MIRRTEXT
 70
     0
  9
$LTSCALE
 40
0.2
  9
$ATTMODE
 70
     1
  9
$TEXTSIZE
 40
3.2
  9
$TRACEWID
 40
0.05
  9
$TEXTSTYLE
  7
高3.2
  9
$CLAYER
  8
0
  9
$CELTYPE
  6
ByLayer
  9
$CECOLOR
 62
   256
  9
$CELTSCALE
 40
1.0
  9
$DISPSILH
 70
     0
  9
$DIMSCALE
 40
1.0
  9
$DIMASZ
 40
2.5
  9
$DIMEXO
 40
0.25
  9
$DIMDLI
 40
0.2
  9
$DIMRND
 40
0.0
  9
$DIMDLE
 40
0.0
  9
$DIMEXE
 40
1.25
  9
$DIMTP
 40
0.0
  9
$DIMTM
 40
0.0
  9
$DIMTXT
 40
3.0
  9
$DIMCEN
 40
0.0
  9
$DIMTSZ
 40
0.0
  9
$DIMTOL
 70
     0
  9
$DIMLIM
 70
     0
  9
$DIMTIH
 70
     0
  9
$DIMTOH
 70
     0
  9
$DIMSE1
 70
     0
  9
$DIMSE2
 70
     0
  9
$DIMTAD
 70
     3
  9
$DIMZIN
 70
     8
  9
$DIMBLK
  1
Open30
  9
$DIMASO
 70
     1
  9
$DIMSHO
 70
     1
  9
$DIMPOST
  1

  9
$DIMAPOST
  1

  9
$DIMALT
 70
     0
  9
$DIMALTD
 70
     3
  9
$DIMALTF
 40
0.03937007874016
  9
$DIMLFAC
 40
1.0
  9
$DIMTOFL
 70
     1
  9
$DIMTVP
 40
0.0
  9
$DIMTIX
 70
     0
  9
$DIMSOXD
 70
     0
  9
$DIMSAH
 70
     0
  9
$DIMBLK1
  1

  9
$DIMBLK2
  1

  9
$DIMSTYLE
  2
1：1
  9
$DIMCLRD
 70
     0
  9
$DIMCLRE
 70
     0
  9
$DIMCLRT
 70
     4
  9
$DIMTFAC
 40
1.0
  9
$DIMGAP
 40
0.625
  9
$DIMJUST
 70
     0
  9
$DIMSD1
 70
     0
  9
$DIMSD2
 70
     0
  9
$DIMTOLJ
 70
     0
  9
$DIMTZIN
 70
     8
  9
$DIMALTZ
 70
     0
  9
$DIMALTTZ
 70
     0
  9
$DIMUPT
 70
     1
  9
$DIMDEC
 70
     2
  9
$DIMTDEC
 70
     2
  9
$DIMALTU
 70
     2
  9
$DIMALTTD
 70
     3
  9
$DIMTXSTY
  7
Standard
  9
$DIMAUNIT
 70
     0
  9
$DIMADEC
 70
     1
  9
$DIMALTRND
 40
0.0
  9
$DIMAZIN
 70
     2
  9
$DIMDSEP
 70
    46
  9
$DIMATFIT
 70
     0
  9
$DIMFRAC
 70
     0
  9
$DIMLDRBLK
  1
Open30
  9
$DIMLUNIT
 70
     2
  9
$DIMLWD
 70
    -2
  9
$DIMLWE
 70
    -2
  9
$DIMTMOVE
 70
     0
  9
$LUNITS
 70
     2
  9
$LUPREC
 70
     4
  9
$SKETCHINC
 40
0.1
  9
$FILLETRAD
 40
0.0
  9
$AUNITS
 70
     0
  9
$AUPREC
 70
     0
  9
$MENU
  1
.
  9
$ELEVATION
 40
0.0
  9
$PELEVATION
 40
0.0
  9
$THICKNESS
 40
0.0
  9
$LIMCHECK
 70
     0
  9
$CHAMFERA
 40
0.0
  9
$CHAMFERB
 40
0.0
  9
$CHAMFERC
 40
0.0
  9
$CHAMFERD
 40
0.0
  9
$SKPOLY
 70
     0
  9
$TDCREATE
 40
2456477.398258588
  9
$TDUCREATE
 40
2456477.023258588
  9
$TDUPDATE
 40
2457317.688270950
  9
$TDUUPDATE
 40
2457317.313270949
  9
$TDINDWG
 40
0.2285284375
  9
$TDUSRTIMER
 40
0.2285275347
  9
$USRTIMER
 70
     1
  9
$ANGBASE
 50
0.0
  9
$ANGDIR
 70
     0
  9
$PDMODE
 70
     0
  9
$PDSIZE
 40
0.0
  9
$PLINEWID
 40
0.0
  9
$SPLFRAME
 70
     0
  9
$SPLINETYPE
 70
     6
  9
$SPLINESEGS
 70
     8
  9
$HANDSEED
  5
25B8
  9
$SURFTAB1
 70
     6
  9
$SURFTAB2
 70
     6
  9
$SURFTYPE
 70
     6
  9
$SURFU
 70
     6
  9
$SURFV
 70
     6
  9
$UCSBASE
  2

  9
$UCSNAME
  2

  9
$UCSORG
 10
0.0
 20
0.0
 30
0.0
  9
$UCSXDIR
 10
1.0
 20
0.0
 30
0.0
  9
$UCSYDIR
 10
0.0
 20
1.0
 30
0.0
  9
$UCSORTHOREF
  2

  9
$UCSORTHOVIEW
 70
     0
  9
$UCSORGTOP
 10
0.0
 20
0.0
 30
0.0
  9
$UCSORGBOTTOM
 10
0.0
 20
0.0
 30
0.0
  9
$UCSORGLEFT
 10
0.0
 20
0.0
 30
0.0
  9
$UCSORGRIGHT
 10
0.0
 20
0.0
 30
0.0
  9
$UCSORGFRONT
 10
0.0
 20
0.0
 30
0.0
  9
$UCSORGBACK
 10
0.0
 20
0.0
 30
0.0
  9
$PUCSBASE
  2

  9
$PUCSNAME
  2

  9
$PUCSORG
 10
0.0
 20
0.0
 30
0.0
  9
$PUCSXDIR
 10
1.0
 20
0.0
 30
0.0
  9
$PUCSYDIR
 10
0.0
 20
1.0
 30
0.0
  9
$PUCSORTHOREF
  2

  9
$PUCSORTHOVIEW
 70
     0
  9
$PUCSORGTOP
 10
0.0
 20
0.0
 30
0.0
  9
$PUCSORGBOTTOM
 10
0.0
 20
0.0
 30
0.0
  9
$PUCSORGLEFT
 10
0.0
 20
0.0
 30
0.0
  9
$PUCSORGRIGHT
 10
0.0
 20
0.0
 30
0.0
  9
$PUCSORGFRONT
 10
0.0
 20
0.0
 30
0.0
  9
$PUCSORGBACK
 10
0.0
 20
0.0
 30
0.0
  9
$USERI1
 70
     0
  9
$USERI2
 70
     0
  9
$USERI3
 70
     0
  9
$USERI4
 70
     0
  9
$USERI5
 70
     0
  9
$USERR1
 40
0.0
  9
$USERR2
 40
0.0
  9
$USERR3
 40
0.0
  9
$USERR4
 40
0.0
  9
$USERR5
 40
0.0
  9
$WORLDVIEW
 70
     1
  9
$SHADEDGE
 70
     3
  9
$SHADEDIF
 70
    70
  9
$TILEMODE
 70
     1
  9
$MAXACTVP
 70
    64
  9
$PINSBASE
 10
0.0
 20
0.0
 30
0.0
  9
$PLIMCHECK
 70
     0
  9
$PEXTMIN
 10
0.0
 20
0.0
 30
0.0
  9
$PEXTMAX
 10
0.0
 20
0.0
 30
0.0
  9
$PLIMMIN
 10
0.0
 20
0.0
  9
$PLIMMAX
 10
12.0
 20
9.0
  9
$UNITMODE
 70
     0
  9
$VISRETAIN
 70
     1
  9
$PLINEGEN
 70
     0
  9
$PSLTSCALE
 70
     1
  9
$TREEDEPTH
 70
  3020
  9
$CMLSTYLE
  2
Standard
  9
$CMLJUST
 70
     0
  9
$CMLSCALE
 40
1.0
  9
$PROXYGRAPHICS
 70
     1
  9
$MEASUREMENT
 70
     1
  9
$CELWEIGHT
370
    -1
  9
$ENDCAPS
280
     0
  9
$JOINSTYLE
280
     0
  9
$LWDISPLAY
290
     0
  9
$INSUNITS
 70
     1
  9
$HYPERLINKBASE
  1

  9
$STYLESHEET
  1

  9
$XEDIT
290
     1
  9
$CEPSNTYPE
380
     0
  9
$PSTYLEMODE
290
     1
  9
$FINGERPRINTGUID
  2
{59F293C6-5633-48D1-8DAD-96DF18B8B8FF}
  9
$VERSIONGUID
  2
{BADFEDE4-0646-407B-837A-92056C0A8BA4}
  9
$EXTNAMES
290
     1
  9
$PSVPSCALE
 40
0.0
  9
$OLESTARTUP
290
     0
  0
ENDSEC
  0
SECTION
  2
CLASSES
  0
CLASS
  1
ACDBDICTIONARYWDFLT
  2
AcDbDictionaryWithDefault
  3
ObjectDBX Classes
 90
        0
280
     0
281
     0
  0
CLASS
  1
ACDBPLACEHOLDER
  2
AcDbPlaceHolder
  3
ObjectDBX Classes
 90
        0
280
     0
281
     0
  0
CLASS
  1
LAYOUT
  2
AcDbLayout
  3
ObjectDBX Classes
 90
        0
280
     0
281
     0
  0
CLASS
  1
DICTIONARYVAR
  2
AcDbDictionaryVar
  3
ObjectDBX Classes
 90
        0
280
     0
281
     0
  0
CLASS
  1
TABLESTYLE
  2
AcDbTableStyle
  3
ObjectDBX Classes
 90
     4095
280
     0
281
     0
  0
CLASS
  1
MATERIAL
  2
AcDbMaterial
  3
ObjectDBX Classes
 90
     1153
280
     0
281
     0
  0
CLASS
  1
VISUALSTYLE
  2
AcDbVisualStyle
  3
ObjectDBX Classes
 90
     4095
280
     0
281
     0
  0
CLASS
  1
SORTENTSTABLE
  2
AcDbSortentsTable
  3
ObjectDBX Classes
 90
        0
280
     0
281
     0
  0
CLASS
  1
DIMASSOC
  2
AcDbDimAssoc
  3
"AcDbDimAssoc|Product Desc:     AcDim ARX App For Dimension|Company:          Autodesk, Inc.|WEB Address:      www.autodesk.com"
 90
        0
280
     0
281
     0
  0
CLASS
  1
SCALE
  2
AcDbScale
  3
ObjectDBX Classes
 90
     1153
280
     0
281
     0
  0
CLASS
  1
MLEADERSTYLE
  2
AcDbMLeaderStyle
  3
ACDB_MLEADERSTYLE_CLASS
 90
     4095
280
     0
281
     0
  0
CLASS
  1
CELLSTYLEMAP
  2
AcDbCellStyleMap
  3
ObjectDBX Classes
 90
     1152
280
     0
281
     0
  0
CLASS
  1
AEC_REFEDIT_STATUS_TRACKER
  2
AecDbRefEditStatusTracker
  3
AecArchBase60|Product Desc: Autodesk Architectural Desktop 2007 |Company: Autodesk,Inc. |WEB Address: www.autodesk.com
 90
      129
280
     0
281
     0
  0
CLASS
  1
NPOCOLLECTION
  2
AcDbImpNonPersistentObjectsCollection
  3
ObjectDBX Classes
 90
     1153
280
     0
281
     0
  0
ENDSEC
  0
SECTION
  2
TABLES
  0
TABLE
  2
VPORT
  5
8
330
0
100
AcDbSymbolTable
 70
     1
  0
VPORT
  5
94
330
8
100
AcDbSymbolTableRecord
100
AcDbViewportTableRecord
  2
*Active
 70
     0
 10
0.0
 20
0.0
 11
1.0
 21
1.0
 12
1785.933355227287
 22
230.7446825142033
 13
0.0
 23
0.0
 14
0.5
 24
0.5
 15
0.5
 25
0.5
 16
0.0
 26
0.0
 36
1.0
 17
0.0
 27
0.0
 37
0.0
 40
428.0597974889852
 41
1.433285509325681
 42
50.0
 43
0.0
 44
0.0
 50
0.0
 51
0.0
 71
     0
 72
  1000
 73
     1
 74
     2
 75
     0
 76
     0
 77
     0
 78
     0
281
     0
 65
     1
110
0.0
120
0.0
130
0.0
111
1.0
121
0.0
131
0.0
112
0.0
122
1.0
132
0.0
 79
     0
146
0.0
  0
ENDTAB
  0
TABLE
  2
LTYPE
  5
5
330
0
100
AcDbSymbolTable
 70
     4
  0
LTYPE
  5
14
330
5
100
AcDbSymbolTableRecord
100
AcDbLinetypeTableRecord
  2
ByBlock
 70
     0
  3

 72
    65
 73
     0
 40
0.0
  0
LTYPE
  5
15
330
5
100
AcDbSymbolTableRecord
100
AcDbLinetypeTableRecord
  2
ByLayer
 70
     0
  3

 72
    65
 73
     0
 40
0.0
  0
LTYPE
  5
16
330
5
100
AcDbSymbolTableRecord
100
AcDbLinetypeTableRecord
  2
Continuous
 70
     0
  3
Solid line
 72
    65
 73
     0
 40
0.0
  0
LTYPE
  5
148
330
5
100
AcDbSymbolTableRecord
100
AcDbLinetypeTableRecord
  2
CENTER
 70
     0
  3
Center ____ _ ____ _ ____ _ ____ _ ____ _ ____
 72
    65
 73
     4
 40
50.8
 49
31.75
 74
     0
 49
-6.349999999999997
 74
     0
 49
6.349999999999997
 74
     0
 49
-6.349999999999997
 74
     0
  0
LTYPE
  5
149
330
5
100
AcDbSymbolTableRecord
100
AcDbLinetypeTableRecord
  2
HIDDEN
 70
     0
  3
Hidden __ __ __ __ __ __ __ __ __ __ __ __ __ __
 72
    65
 73
     2
 40
9.524999999999996
 49
6.349999999999997
 74
     0
 49
-3.174999999999998
 74
     0
  0
ENDTAB
  0
TABLE
  2
LAYER
  5
2
102
{ACAD_XDICTIONARY
360
DD
102
}
330
0
100
AcDbSymbolTable
 70
     2
  0
LAYER
  5
10
102
{ACAD_XDICTIONARY
360
8E9
102
}
330
2
100
AcDbSymbolTableRecord
100
AcDbLayerTableRecord
  2
0
 70
     0
 62
     7
  6
Continuous
370
    -3
390
F
  0
LAYER
  5
D8
330
2
100
AcDbSymbolTableRecord
100
AcDbLayerTableRecord
  2
Defpoints
 70
     0
 62
     7
  6
Continuous
290
     0
370
    -3
390
F
  0
ENDTAB
  0
TABLE
  2
STYLE
  5
3
330
0
100
AcDbSymbolTable
 70
     6
  0
STYLE
  5
11
330
3
100
AcDbSymbolTableRecord
100
AcDbTextStyleTableRecord
  2
Standard
 70
     0
 40
0.0
 41
1.0
 50
0.0
 71
     0
 42
0.2
  3
txt.shx
  4
bigfont.shx
  0
STYLE
  5
11D
330
3
100
AcDbSymbolTableRecord
100
AcDbTextStyleTableRecord
  2
高3.2
 70
     0
 40
3.2
 41
1.0
 50
0.0
 71
     0
 42
3.2
  3
txt.shx
  4
bigfont.shx
  0
STYLE
  5
11E
330
3
100
AcDbSymbolTableRecord
100
AcDbTextStyleTableRecord
  2
高6.3
 70
     0
 40
6.299999999999998
 41
1.0
 50
0.0
 71
     0
 42
6.299999999999998
  3
txt.shx
  4
bigfont.shx
  0
STYLE
  5
11F
330
3
100
AcDbSymbolTableRecord
100
AcDbTextStyleTableRecord
  2
高2.5
 70
     0
 40
2.5
 41
1.0
 50
0.0
 71
     0
 42
0.2
  3
txt.shx
  4
bigfont.shx
  0
STYLE
  5
146
330
3
100
AcDbSymbolTableRecord
100
AcDbTextStyleTableRecord
  2
高4.5
 70
     0
 40
4.5
 41
1.0
 50
0.0
 71
     0
 42
6.299999999999998
  3
txt.shx
  4
bigfont.shx
  0
STYLE
  5
171
330
3
100
AcDbSymbolTableRecord
100
AcDbTextStyleTableRecord
  2
高2
 70
     0
 40
2.0
 41
1.0
 50
0.0
 71
     0
 42
6.299999999999998
  3
txt.shx
  4
bigfont.shx
  0
ENDTAB
  0
TABLE
  2
VIEW
  5
6
330
0
100
AcDbSymbolTable
 70
     0
  0
ENDTAB
  0
TABLE
  2
UCS
  5
7
330
0
100
AcDbSymbolTable
 70
     0
  0
ENDTAB
  0
TABLE
  2
APPID
  5
9
330
0
100
AcDbSymbolTable
 70
    10
  0
APPID
  5
12
330
9
100
AcDbSymbolTableRecord
100
AcDbRegAppTableRecord
  2
ACAD
 70
     0
  0
APPID
  5
DC
330
9
100
AcDbSymbolTableRecord
100
AcDbRegAppTableRecord
  2
ACAD_DSTYLE_DIMJOGGED_JOGANGLE_SYMBOL
 70
     0
  0
APPID
  5
3A5
330
9
100
AcDbSymbolTableRecord
100
AcDbRegAppTableRecord
  2
ACAD_EXEMPT_FROM_CAD_STANDARDS
 70
     0
  0
APPID
  5
70D
330
9
100
AcDbSymbolTableRecord
100
AcDbRegAppTableRecord
  2
ACAD_DSTYLE_DIMJAG
 70
     0
  0
APPID
  5
70E
330
9
100
AcDbSymbolTableRecord
100
AcDbRegAppTableRecord
  2
ACAD_DSTYLE_DIMBREAK
 70
     0
  0
APPID
  5
70F
330
9
100
AcDbSymbolTableRecord
100
AcDbRegAppTableRecord
  2
ACAD_DSTYLE_DIMTALN
 70
     0
  0
APPID
  5
14FB
330
9
100
AcDbSymbolTableRecord
100
AcDbRegAppTableRecord
  2
ACAD_DSTYLE_DIMARC_LENGTH_SYMBOL
 70
     0
  0
APPID
  5
14FC
330
9
100
AcDbSymbolTableRecord
100
AcDbRegAppTableRecord
  2
ACAD_DSTYLE_DIMEXT_LENGTH
 70
     0
  0
APPID
  5
1511
330
9
100
AcDbSymbolTableRecord
100
AcDbRegAppTableRecord
  2
ACAD_MLEADERVER
 70
     0
  0
APPID
  5
175A
330
9
100
AcDbSymbolTableRecord
100
AcDbRegAppTableRecord
  2
ACAD_PSEXT
 70
     0
  0
ENDTAB
  0
TABLE
  2
DIMSTYLE
  5
A
330
0
100
AcDbSymbolTable
 70
     3
100
AcDbDimStyleTable
 71
     1
340
D9
  0
DIMSTYLE
105
D9
330
A
100
AcDbSymbolTableRecord
100
AcDbDimStyleTableRecord
  2
1：1
 70
     0
 41
2.5
 42
0.25
 43
0.2
 44
1.25
 73
     0
 74
     0
 77
     3
 78
     8
 79
     2
140
3.0
141
0.0
143
0.03937007874016
147
0.625
171
     3
172
     1
178
     4
179
     1
271
     2
272
     2
274
     3
283
     0
284
     8
288
     1
289
     0
340
11
341
C6
342
C6
1001
ACAD_DSTYLE_DIMARC_LENGTH_SYMBOL
1070
   379
1070
     2
1001
ACAD_DSTYLE_DIMEXT_LENGTH
1070
   378
1040
1.25
1001
ACAD_DSTYLE_DIMJOGGED_JOGANGLE_SYMBOL
1070
   384
1040
1.570796326794896
  0
DIMSTYLE
105
128
330
A
100
AcDbSymbolTableRecord
100
AcDbDimStyleTableRecord
  2
1／2
 70
     0
 41
2.5
 42
0.25
 43
0.2
 44
1.25
 73
     0
 74
     0
 77
     3
 78
     8
 79
     2
140
3.0
141
0.0
143
0.03937007874016
144
2.0
147
0.625
171
     3
172
     1
178
     4
179
     1
271
     2
272
     2
274
     3
283
     0
284
     8
288
     1
289
     0
340
11
341
C6
342
C6
1001
ACAD_DSTYLE_DIMARC_LENGTH_SYMBOL
1070
   379
1070
     2
1001
ACAD_DSTYLE_DIMEXT_LENGTH
1070
   378
1040
1.25
1001
ACAD_DSTYLE_DIMJOGGED_JOGANGLE_SYMBOL
1070
   384
1040
1.570796326794896
  0
DIMSTYLE
105
1759
330
A
100
AcDbSymbolTableRecord
100
AcDbDimStyleTableRecord
  2
1／4
 70
     0
 41
2.5
 42
0.25
 43
0.2
 44
1.25
 73
     0
 74
     0
 77
     3
 78
     8
 79
     2
140
3.0
141
0.0
143
0.03937007874016
144
4.0
147
0.625
171
     3
172
     1
178
     4
179
     1
271
     2
272
     2
274
     3
283
     0
284
     8
288
     1
289
     0
340
11
341
C6
342
C6
1001
ACAD_DSTYLE_DIMARC_LENGTH_SYMBOL
1070
   379
1070
     2
1001
ACAD_DSTYLE_DIMEXT_LENGTH
1070
   378
1040
1.25
1001
ACAD_DSTYLE_DIMJOGGED_JOGANGLE_SYMBOL
1070
   384
1040
1.570796326794896
  0
ENDTAB
  0
TABLE
  2
BLOCK_RECORD
  5
1
330
0
100
AcDbSymbolTable
 70
    29
  0
BLOCK_RECORD
  5
1F
102
{ACAD_XDICTIONARY
360
324
102
}
330
1
100
AcDbSymbolTableRecord
100
AcDbBlockTableRecord
  2
*Model_Space
340
22
  0
BLOCK_RECORD
  5
58
330
1
100
AcDbSymbolTableRecord
100
AcDbBlockTableRecord
  2
*Paper_Space
340
59
  0
BLOCK_RECORD
  5
5D
330
1
100
AcDbSymbolTableRecord
100
AcDbBlockTableRecord
  2
*Paper_Space0
340
5E
  0
BLOCK_RECORD
  5
C6
330
1
100
AcDbSymbolTableRecord
100
AcDbBlockTableRecord
  2
_Open30
340
0
102
{BLKREFS
331
E4C
331
E4D
331
E58
331
E59
331
E64
331
E65
331
E70
331
E71
331
E7C
331
E7D
331
11E6
331
11E7
331
11F2
331
11F3
331
11FE
331
11FF
331
120A
331
120B
331
1216
331
1217
331
18F5
331
18F6
331
18FE
331
18FF
331
1907
331
1908
331
1910
331
1911
331
1919
331
191A
331
1CDF
331
1CE0
331
1CE8
331
1CE9
331
1D03
331
1D04
331
1D0C
331
1D0D
331
1D15
331
1D16
331
2475
331
2476
331
247E
331
247F
331
2487
331
2488
331
2490
331
2491
331
2499
331
249A
102
}
  0
BLOCK_RECORD
  5
AE4
330
1
100
AcDbSymbolTableRecord
100
AcDbBlockTableRecord
  2
_DotSmall
340
0
  0
BLOCK_RECORD
  5
E46
330
1
100
AcDbSymbolTableRecord
100
AcDbBlockTableRecord
  2
*D3
340
0
  0
BLOCK_RECORD
  5
E52
330
1
100
AcDbSymbolTableRecord
100
AcDbBlockTableRecord
  2
*D4
340
0
  0
BLOCK_RECORD
  5
E5E
330
1
100
AcDbSymbolTableRecord
100
AcDbBlockTableRecord
  2
*D5
340
0
  0
BLOCK_RECORD
  5
E6A
330
1
100
AcDbSymbolTableRecord
100
AcDbBlockTableRecord
  2
*D6
340
0
  0
BLOCK_RECORD
  5
E76
330
1
100
AcDbSymbolTableRecord
100
AcDbBlockTableRecord
  2
*D7
340
0
  0
BLOCK_RECORD
  5
11E0
330
1
100
AcDbSymbolTableRecord
100
AcDbBlockTableRecord
  2
*D8
340
0
  0
BLOCK_RECORD
  5
11EC
330
1
100
AcDbSymbolTableRecord
100
AcDbBlockTableRecord
  2
*D9
340
0
  0
BLOCK_RECORD
  5
11F8
330
1
100
AcDbSymbolTableRecord
100
AcDbBlockTableRecord
  2
*D10
340
0
  0
BLOCK_RECORD
  5
1204
330
1
100
AcDbSymbolTableRecord
100
AcDbBlockTableRecord
  2
*D11
340
0
  0
BLOCK_RECORD
  5
1210
330
1
100
AcDbSymbolTableRecord
100
AcDbBlockTableRecord
  2
*D12
340
0
  0
BLOCK_RECORD
  5
1299
330
1
100
AcDbSymbolTableRecord
100
AcDbBlockTableRecord
  2
*D13
340
0
  0
BLOCK_RECORD
  5
12A5
330
1
100
AcDbSymbolTableRecord
100
AcDbBlockTableRecord
  2
*D14
340
0
  0
BLOCK_RECORD
  5
12B1
330
1
100
AcDbSymbolTableRecord
100
AcDbBlockTableRecord
  2
*D15
340
0
  0
BLOCK_RECORD
  5
12BD
330
1
100
AcDbSymbolTableRecord
100
AcDbBlockTableRecord
  2
*D16
340
0
  0
BLOCK_RECORD
  5
12C9
330
1
100
AcDbSymbolTableRecord
100
AcDbBlockTableRecord
  2
*D17
340
0
  0
BLOCK_RECORD
  5
1920
102
{ACAD_XDICTIONARY
360
1921
102
}
330
1
100
AcDbSymbolTableRecord
100
AcDbBlockTableRecord
  2
A$C369B3533
340
0
1001
ACAD
1000
DesignCenter Data
1002
{
1070
     1
1070
     1
1002
}
  0
BLOCK_RECORD
  5
1A75
330
1
100
AcDbSymbolTableRecord
100
AcDbBlockTableRecord
  2
*D19
340
0
  0
BLOCK_RECORD
  5
1A81
330
1
100
AcDbSymbolTableRecord
100
AcDbBlockTableRecord
  2
*D20
340
0
  0
BLOCK_RECORD
  5
1A8D
330
1
100
AcDbSymbolTableRecord
100
AcDbBlockTableRecord
  2
*D21
340
0
  0
BLOCK_RECORD
  5
1A99
330
1
100
AcDbSymbolTableRecord
100
AcDbBlockTableRecord
  2
*D22
340
0
  0
BLOCK_RECORD
  5
1AA5
330
1
100
AcDbSymbolTableRecord
100
AcDbBlockTableRecord
  2
*D23
340
0
  0
BLOCK_RECORD
  5
1E4F
330
1
100
AcDbSymbolTableRecord
100
AcDbBlockTableRecord
  2
*D24
340
0
  0
BLOCK_RECORD
  5
1E5B
330
1
100
AcDbSymbolTableRecord
100
AcDbBlockTableRecord
  2
*D25
340
0
  0
BLOCK_RECORD
  5
1E67
330
1
100
AcDbSymbolTableRecord
100
AcDbBlockTableRecord
  2
*D26
340
0
  0
BLOCK_RECORD
  5
1E73
330
1
100
AcDbSymbolTableRecord
100
AcDbBlockTableRecord
  2
*D27
340
0
  0
BLOCK_RECORD
  5
1E7F
330
1
100
AcDbSymbolTableRecord
100
AcDbBlockTableRecord
  2
*D28
340
0
  0
ENDTAB
  0
ENDSEC
  0
SECTION
  2
BLOCKS
  0
BLOCK
  5
20
330
1F
100
AcDbEntity
  8
0
100
AcDbBlockBegin
  2
*Model_Space
 70
     0
 10
0.0
 20
0.0
 30
0.0
  3
*Model_Space
  1

  0
ENDBLK
  5
21
330
1F
100
AcDbEntity
  8
0
100
AcDbBlockEnd
  0
BLOCK
  5
5A
330
58
100
AcDbEntity
 67
     1
  8
0
100
AcDbBlockBegin
  2
*Paper_Space
 70
     0
 10
0.0
 20
0.0
 30
0.0
  3
*Paper_Space
  1

  0
ENDBLK
  5
5B
330
58
100
AcDbEntity
 67
     1
  8
0
100
AcDbBlockEnd
  0
BLOCK
  5
5F
330
5D
100
AcDbEntity
 67
     1
  8
0
100
AcDbBlockBegin
  2
*Paper_Space0
 70
     0
 10
0.0
 20
0.0
 30
0.0
  3
*Paper_Space0
  1

  0
ENDBLK
  5
60
330
5D
100
AcDbEntity
 67
     1
  8
0
100
AcDbBlockEnd
  0
BLOCK
  5
C7
330
C6
100
AcDbEntity
  8
0
100
AcDbBlockBegin
  2
_Open30
 70
     0
 10
0.0
 20
0.0
 30
0.0
  3
_Open30
  1

  0
LINE
  5
C8
330
C6
100
AcDbEntity
  8
0
  6
ByBlock
 62
     0
370
    -2
100
AcDbLine
 10
-1.0
 20
0.267949
 30
0.0
 11
0.0
 21
0.0
 31
0.0
  0
LINE
  5
C9
330
C6
100
AcDbEntity
  8
0
  6
ByBlock
 62
     0
370
    -2
100
AcDbLine
 10
0.0
 20
0.0
 30
0.0
 11
-1.0
 21
-0.267949
 31
0.0
  0
LINE
  5
CA
330
C6
100
AcDbEntity
  8
0
  6
ByBlock
 62
     0
370
    -2
100
AcDbLine
 10
0.0
 20
0.0
 30
0.0
 11
-1.0
 21
0.0
 31
0.0
  0
ENDBLK
  5
CB
330
C6
100
AcDbEntity
  8
0
100
AcDbBlockEnd
  0
BLOCK
  5
AE5
330
AE4
100
AcDbEntity
  8
0
100
AcDbBlockBegin
  2
_DotSmall
 70
     0
 10
0.0
 20
0.0
 30
0.0
  3
_DotSmall
  1

  0
LWPOLYLINE
  5
AE6
330
AE4
100
AcDbEntity
  8
0
  6
ByBlock
 62
     0
100
AcDbPolyline
 90
        2
 70
     1
 43
0.5
 10
-0.0625
 20
0.0
 42
1.0
 10
0.0625
 20
0.0
 42
1.0
  0
ENDBLK
  5
AE7
330
AE4
100
AcDbEntity
  8
0
100
AcDbBlockEnd
  0
BLOCK
  5
E47
330
E46
100
AcDbEntity
  8
0
100
AcDbBlockBegin
  2
*D3
 70
     1
 10
0.0
 20
0.0
 30
0.0
  3
*D3
  1

  0
LINE
  5
E49
330
E46
100
AcDbEntity
  8
0
 62
     0
370
    -2
100
AcDbLine
 10
1625.087288708984
 20
285.9746279332489
 30
0.0
 11
1625.087288708984
 21
300.9483767856327
 31
0.0
  0
LINE
  5
E4A
330
E46
100
AcDbEntity
  8
0
 62
     0
370
    -2
100
AcDbLine
 10
1612.091808668807
 20
287.0052566338907
 30
0.0
 11
1612.091808668807
 21
300.9483767856327
 31
0.0
  0
LINE
  5
E4B
330
E46
100
AcDbEntity
  8
0
 62
     0
370
    -2
100
AcDbLine
 10
1622.587288708984
 20
299.6983767856327
 30
0.0
 11
1614.591808668807
 21
299.6983767856327
 31
0.0
  0
INSERT
  5
E4C
330
E46
100
AcDbEntity
  8
0
 62
     0
370
    -2
100
AcDbBlockReference
  2
_Open30
 10
1625.087288708984
 20
299.6983767856327
 30
0.0
 41
2.5
 42
2.5
 43
2.5
  0
INSERT
  5
E4D
330
E46
100
AcDbEntity
  8
0
 62
     0
370
    -2
100
AcDbBlockReference
  2
_Open30
 10
1612.091808668807
 20
299.6983767856327
 30
0.0
 41
2.5
 42
2.5
 43
2.5
 50
180.0
  0
MTEXT
  5
E4E
330
E46
100
AcDbEntity
  8
0
 62
     4
100
AcDbMText
 10
1618.912314673319
 20
301.8233767856327
 30
0.0
 40
3.0
 41
0.0
 71
     5
 72
     1
  1
E26
 73
     1
 44
1.0
1001
ACAD
1000
MTEXTBEGIN
1070
    73
1070
     1
1070
    44
1040
1.0
1070
    74
1070
     0
1000
MTEXTEND
  0
POINT
  5
E4F
330
E46
100
AcDbEntity
  8
Defpoints
 62
     0
100
AcDbPoint
 10
1625.087288708984
 20
285.7246279332489
 30
0.0
  0
POINT
  5
E50
330
E46
100
AcDbEntity
  8
Defpoints
 62
     0
100
AcDbPoint
 10
1612.091808668807
 20
286.7552566338907
 30
0.0
  0
POINT
  5
E51
330
E46
100
AcDbEntity
  8
Defpoints
 62
     0
100
AcDbPoint
 10
1612.091808668807
 20
299.6983767856327
 30
0.0
  0
ENDBLK
  5
E48
330
E46
100
AcDbEntity
  8
0
100
AcDbBlockEnd
  0
BLOCK
  5
E53
330
E52
100
AcDbEntity
  8
0
100
AcDbBlockBegin
  2
*D4
 70
     1
 10
0.0
 20
0.0
 30
0.0
  3
*D4
  1

  0
LINE
  5
E55
330
E52
100
AcDbEntity
  8
0
 62
     0
370
    -2
100
AcDbLine
 10
1631.590297958984
 20
263.6342167447241
 30
0.0
 11
1631.590297958984
 21
308.0479012507659
 31
0.0
  0
LINE
  5
E56
330
E52
100
AcDbEntity
  8
0
 62
     0
370
    -2
100
AcDbLine
 10
1605.590297958984
 20
263.634216744724
 30
0.0
 11
1605.590297958984
 21
308.0479012507659
 31
0.0
  0
LINE
  5
E57
330
E52
100
AcDbEntity
  8
0
 62
     0
370
    -2
100
AcDbLine
 10
1629.090297958984
 20
306.7979012507659
 30
0.0
 11
1608.090297958985
 21
306.7979012507659
 31
0.0
  0
INSERT
  5
E58
330
E52
100
AcDbEntity
  8
0
 62
     0
370
    -2
100
AcDbBlockReference
  2
_Open30
 10
1631.590297958984
 20
306.7979012507659
 30
0.0
 41
2.5
 42
2.5
 43
2.5
  0
INSERT
  5
E59
330
E52
100
AcDbEntity
  8
0
 62
     0
370
    -2
100
AcDbBlockReference
  2
_Open30
 10
1605.590297958984
 20
306.7979012507659
 30
0.0
 41
2.5
 42
2.5
 43
2.5
 50
180.0
  0
MTEXT
  5
E5A
330
E52
100
AcDbEntity
  8
0
 62
     4
100
AcDbMText
 10
1618.641193906958
 20
308.9229012507659
 30
0.0
 40
3.0
 41
0.0
 71
     5
 72
     1
  1
%%C52
 73
     1
 44
1.0
1001
ACAD
1000
MTEXTBEGIN
1070
    73
1070
     1
1070
    44
1040
1.0
1070
    74
1070
     0
1000
MTEXTEND
  0
POINT
  5
E5B
330
E52
100
AcDbEntity
  8
Defpoints
 62
     0
100
AcDbPoint
 10
1631.590297958984
 20
263.3842167447241
 30
0.0
  0
POINT
  5
E5C
330
E52
100
AcDbEntity
  8
Defpoints
 62
     0
100
AcDbPoint
 10
1605.590297958984
 20
263.384216744724
 30
0.0
  0
POINT
  5
E5D
330
E52
100
AcDbEntity
  8
Defpoints
 62
     0
100
AcDbPoint
 10
1605.590297958984
 20
306.7979012507659
 30
0.0
  0
ENDBLK
  5
E54
330
E52
100
AcDbEntity
  8
0
100
AcDbBlockEnd
  0
BLOCK
  5
E5F
330
E5E
100
AcDbEntity
  8
0
100
AcDbBlockBegin
  2
*D5
 70
     1
 10
0.0
 20
0.0
 30
0.0
  3
*D5
  1

  0
LINE
  5
E61
330
E5E
100
AcDbEntity
  8
0
 62
     0
370
    -2
100
AcDbLine
 10
1618.340297958984
 20
291.664819433249
 30
0.0
 11
1585.687593531231
 21
291.664819433249
 31
0.0
  0
LINE
  5
E62
330
E5E
100
AcDbEntity
  8
0
 62
     0
370
    -2
100
AcDbLine
 10
1605.340297958985
 20
255.914819433249
 30
0.0
 11
1585.687593531231
 21
255.9148194332491
 31
0.0
  0
LINE
  5
E63
330
E5E
100
AcDbEntity
  8
0
 62
     0
370
    -2
100
AcDbLine
 10
1586.937593531231
 20
289.164819433249
 30
0.0
 11
1586.937593531231
 21
258.4148194332491
 31
0.0
  0
INSERT
  5
E64
330
E5E
100
AcDbEntity
  8
0
 62
     0
370
    -2
100
AcDbBlockReference
  2
_Open30
 10
1586.937593531231
 20
291.664819433249
 30
0.0
 41
2.5
 42
2.5
 43
2.5
 50
90.0
  0
INSERT
  5
E65
330
E5E
100
AcDbEntity
  8
0
 62
     0
370
    -2
100
AcDbBlockReference
  2
_Open30
 10
1586.937593531231
 20
255.9148194332491
 30
0.0
 41
2.5
 42
2.5
 43
2.5
 50
270.0
  0
MTEXT
  5
E66
330
E5E
100
AcDbEntity
  8
0
 62
     4
100
AcDbMText
 10
1584.812593531231
 20
274.5523618610485
 30
0.0
 40
3.0
 41
0.0
 71
     5
 72
     1
  1
71.5
 11
0.0000000000000001
 21
1.0
 31
0.0
 73
     1
 44
1.0
1001
ACAD
1000
MTEXTBEGIN
1070
    73
1070
     1
1070
    44
1040
1.0
1070
    74
1070
     0
1000
MTEXTEND
  0
POINT
  5
E67
330
E5E
100
AcDbEntity
  8
Defpoints
 62
     0
100
AcDbPoint
 10
1618.590297958984
 20
291.664819433249
 30
0.0
  0
POINT
  5
E68
330
E5E
100
AcDbEntity
  8
Defpoints
 62
     0
100
AcDbPoint
 10
1605.590297958984
 20
255.914819433249
 30
0.0
  0
POINT
  5
E69
330
E5E
100
AcDbEntity
  8
Defpoints
 62
     0
100
AcDbPoint
 10
1586.937593531231
 20
255.9148194332491
 30
0.0
  0
ENDBLK
  5
E60
330
E5E
100
AcDbEntity
  8
0
100
AcDbBlockEnd
  0
BLOCK
  5
E6B
330
E6A
100
AcDbEntity
  8
0
100
AcDbBlockBegin
  2
*D6
 70
     1
 10
0.0
 20
0.0
 30
0.0
  3
*D6
  1

  0
LINE
  5
E6D
330
E6A
100
AcDbEntity
  8
0
 62
     0
370
    -2
100
AcDbLine
 10
1618.340297958984
 20
291.664819433249
 30
0.0
 11
1578.712688978655
 21
291.664819433249
 31
0.0
  0
LINE
  5
E6E
330
E6A
100
AcDbEntity
  8
0
 62
     0
370
    -2
100
AcDbLine
 10
1618.340297958984
 20
221.6648194332491
 30
0.0
 11
1578.712688978655
 21
221.6648194332491
 31
0.0
  0
LINE
  5
E6F
330
E6A
100
AcDbEntity
  8
0
 62
     0
370
    -2
100
AcDbLine
 10
1579.962688978655
 20
289.164819433249
 30
0.0
 11
1579.962688978655
 21
224.1648194332491
 31
0.0
  0
INSERT
  5
E70
330
E6A
100
AcDbEntity
  8
0
 62
     0
370
    -2
100
AcDbBlockReference
  2
_Open30
 10
1579.962688978655
 20
291.664819433249
 30
0.0
 41
2.5
 42
2.5
 43
2.5
 50
90.0
  0
INSERT
  5
E71
330
E6A
100
AcDbEntity
  8
0
 62
     0
370
    -2
100
AcDbBlockReference
  2
_Open30
 10
1579.962688978655
 20
221.6648194332491
 30
0.0
 41
2.5
 42
2.5
 43
2.5
 50
270.0
  0
MTEXT
  5
E72
330
E6A
100
AcDbEntity
  8
0
 62
     4
100
AcDbMText
 10
1577.837688978656
 20
257.4584516226437
 30
0.0
 40
3.0
 41
0.0
 71
     5
 72
     1
  1
140
 11
0.0000000000000001
 21
1.0
 31
0.0
 73
     1
 44
1.0
1001
ACAD
1000
MTEXTBEGIN
1070
    73
1070
     1
1070
    44
1040
1.0
1070
    74
1070
     0
1000
MTEXTEND
  0
POINT
  5
E73
330
E6A
100
AcDbEntity
  8
Defpoints
 62
     0
100
AcDbPoint
 10
1618.590297958984
 20
291.664819433249
 30
0.0
  0
POINT
  5
E74
330
E6A
100
AcDbEntity
  8
Defpoints
 62
     0
100
AcDbPoint
 10
1618.590297958984
 20
221.6648194332491
 30
0.0
  0
POINT
  5
E75
330
E6A
100
AcDbEntity
  8
Defpoints
 62
     0
100
AcDbPoint
 10
1579.962688978655
 20
221.6648194332491
 30
0.0
  0
ENDBLK
  5
E6C
330
E6A
100
AcDbEntity
  8
0
100
AcDbBlockEnd
  0
BLOCK
  5
E77
330
E76
100
AcDbEntity
  8
0
100
AcDbBlockBegin
  2
*D7
 70
     1
 10
0.0
 20
0.0
 30
0.0
  3
*D7
  1

  0
LINE
  5
E79
330
E76
100
AcDbEntity
  8
0
 62
     0
370
    -2
100
AcDbLine
 10
1588.590297958984
 20
225.414819433249
 30
0.0
 11
1588.590297958984
 21
205.7488219651361
 31
0.0
  0
LINE
  5
E7A
330
E76
100
AcDbEntity
  8
0
 62
     0
370
    -2
100
AcDbLine
 10
1648.590297958985
 20
225.4148194332492
 30
0.0
 11
1648.590297958985
 21
205.7488219651361
 31
0.0
  0
LINE
  5
E7B
330
E76
100
AcDbEntity
  8
0
 62
     0
370
    -2
100
AcDbLine
 10
1591.090297958984
 20
206.9988219651361
 30
0.0
 11
1646.090297958985
 21
206.9988219651361
 31
0.0
  0
INSERT
  5
E7C
330
E76
100
AcDbEntity
  8
0
 62
     0
370
    -2
100
AcDbBlockReference
  2
_Open30
 10
1588.590297958984
 20
206.9988219651361
 30
0.0
 41
2.5
 42
2.5
 43
2.5
 50
180.0
  0
INSERT
  5
E7D
330
E76
100
AcDbEntity
  8
0
 62
     0
370
    -2
100
AcDbBlockReference
  2
_Open30
 10
1648.590297958985
 20
206.9988219651361
 30
0.0
 41
2.5
 42
2.5
 43
2.5
  0
MTEXT
  5
E7E
330
E76
100
AcDbEntity
  8
0
 62
     4
100
AcDbMText
 10
1618.714975067182
 20
209.1238219651361
 30
0.0
 40
3.0
 41
0.0
 71
     5
 72
     1
  1
%%C120
 73
     1
 44
1.0
1001
ACAD
1000
MTEXTBEGIN
1070
    73
1070
     1
1070
    44
1040
1.0
1070
    74
1070
     0
1000
MTEXTEND
  0
POINT
  5
E7F
330
E76
100
AcDbEntity
  8
Defpoints
 62
     0
100
AcDbPoint
 10
1588.590297958984
 20
225.6648194332491
 30
0.0
  0
POINT
  5
E80
330
E76
100
AcDbEntity
  8
Defpoints
 62
     0
100
AcDbPoint
 10
1648.590297958985
 20
225.6648194332492
 30
0.0
  0
POINT
  5
E81
330
E76
100
AcDbEntity
  8
Defpoints
 62
     0
100
AcDbPoint
 10
1648.590297958985
 20
206.9988219651361
 30
0.0
  0
ENDBLK
  5
E78
330
E76
100
AcDbEntity
  8
0
100
AcDbBlockEnd
  0
BLOCK
  5
11E1
330
11E0
100
AcDbEntity
  8
0
100
AcDbBlockBegin
  2
*D8
 70
     1
 10
0.0
 20
0.0
 30
0.0
  3
*D8
  1

  0
LINE
  5
11E3
330
11E0
100
AcDbEntity
  8
0
 62
     0
370
    -2
100
AcDbLine
 10
1871.61085650982
 20
282.8363769648463
 30
0.0
 11
1871.61085650982
 21
297.8101258172301
 31
0.0
  0
LINE
  5
11E4
330
11E0
100
AcDbEntity
  8
0
 62
     0
370
    -2
100
AcDbLine
 10
1858.615376469642
 20
283.867005665488
 30
0.0
 11
1858.615376469642
 21
297.8101258172301
 31
0.0
  0
LINE
  5
11E5
330
11E0
100
AcDbEntity
  8
0
 62
     0
370
    -2
100
AcDbLine
 10
1869.11085650982
 20
296.5601258172301
 30
0.0
 11
1861.115376469642
 21
296.5601258172301
 31
0.0
  0
INSERT
  5
11E6
330
11E0
100
AcDbEntity
  8
0
 62
     0
370
    -2
100
AcDbBlockReference
  2
_Open30
 10
1871.61085650982
 20
296.5601258172301
 30
0.0
 41
2.5
 42
2.5
 43
2.5
  0
INSERT
  5
11E7
330
11E0
100
AcDbEntity
  8
0
 62
     0
370
    -2
100
AcDbBlockReference
  2
_Open30
 10
1858.615376469642
 20
296.5601258172301
 30
0.0
 41
2.5
 42
2.5
 43
2.5
 50
180.0
  0
MTEXT
  5
11E8
330
11E0
100
AcDbEntity
  8
0
 62
     4
100
AcDbMText
 10
1865.435882474155
 20
298.6851258172301
 30
0.0
 40
3.0
 41
0.0
 71
     5
 72
     1
  1
E26
 73
     1
 44
1.0
1001
ACAD
1000
MTEXTBEGIN
1070
    73
1070
     1
1070
    44
1040
1.0
1070
    74
1070
     0
1000
MTEXTEND
  0
POINT
  5
11E9
330
11E0
100
AcDbEntity
  8
Defpoints
 62
     0
100
AcDbPoint
 10
1871.61085650982
 20
282.5863769648463
 30
0.0
  0
POINT
  5
11EA
330
11E0
100
AcDbEntity
  8
Defpoints
 62
     0
100
AcDbPoint
 10
1858.615376469642
 20
283.617005665488
 30
0.0
  0
POINT
  5
11EB
330
11E0
100
AcDbEntity
  8
Defpoints
 62
     0
100
AcDbPoint
 10
1858.615376469642
 20
296.5601258172301
 30
0.0
  0
ENDBLK
  5
11E2
330
11E0
100
AcDbEntity
  8
0
100
AcDbBlockEnd
  0
BLOCK
  5
11ED
330
11EC
100
AcDbEntity
  8
0
100
AcDbBlockBegin
  2
*D9
 70
     1
 10
0.0
 20
0.0
 30
0.0
  3
*D9
  1

  0
LINE
  5
11EF
330
11EC
100
AcDbEntity
  8
0
 62
     0
370
    -2
100
AcDbLine
 10
1878.11386575982
 20
260.4959657763215
 30
0.0
 11
1878.11386575982
 21
304.9096502823632
 31
0.0
  0
LINE
  5
11F0
330
11EC
100
AcDbEntity
  8
0
 62
     0
370
    -2
100
AcDbLine
 10
1852.11386575982
 20
260.4959657763213
 30
0.0
 11
1852.11386575982
 21
304.9096502823632
 31
0.0
  0
LINE
  5
11F1
330
11EC
100
AcDbEntity
  8
0
 62
     0
370
    -2
100
AcDbLine
 10
1875.61386575982
 20
303.6596502823633
 30
0.0
 11
1854.61386575982
 21
303.6596502823633
 31
0.0
  0
INSERT
  5
11F2
330
11EC
100
AcDbEntity
  8
0
 62
     0
370
    -2
100
AcDbBlockReference
  2
_Open30
 10
1878.11386575982
 20
303.6596502823633
 30
0.0
 41
2.5
 42
2.5
 43
2.5
  0
INSERT
  5
11F3
330
11EC
100
AcDbEntity
  8
0
 62
     0
370
    -2
100
AcDbBlockReference
  2
_Open30
 10
1852.11386575982
 20
303.6596502823633
 30
0.0
 41
2.5
 42
2.5
 43
2.5
 50
180.0
  0
MTEXT
  5
11F4
330
11EC
100
AcDbEntity
  8
0
 62
     4
100
AcDbMText
 10
1865.164761707793
 20
305.7846502823633
 30
0.0
 40
3.0
 41
0.0
 71
     5
 72
     1
  1
%%C52
 73
     1
 44
1.0
1001
ACAD
1000
MTEXTBEGIN
1070
    73
1070
     1
1070
    44
1040
1.0
1070
    74
1070
     0
1000
MTEXTEND
  0
POINT
  5
11F5
330
11EC
100
AcDbEntity
  8
Defpoints
 62
     0
100
AcDbPoint
 10
1878.11386575982
 20
260.2459657763215
 30
0.0
  0
POINT
  5
11F6
330
11EC
100
AcDbEntity
  8
Defpoints
 62
     0
100
AcDbPoint
 10
1852.11386575982
 20
260.2459657763213
 30
0.0
  0
POINT
  5
11F7
330
11EC
100
AcDbEntity
  8
Defpoints
 62
     0
100
AcDbPoint
 10
1852.11386575982
 20
303.6596502823633
 30
0.0
  0
ENDBLK
  5
11EE
330
11EC
100
AcDbEntity
  8
0
100
AcDbBlockEnd
  0
BLOCK
  5
11F9
330
11F8
100
AcDbEntity
  8
0
100
AcDbBlockBegin
  2
*D10
 70
     1
 10
0.0
 20
0.0
 30
0.0
  3
*D10
  1

  0
LINE
  5
11FB
330
11F8
100
AcDbEntity
  8
0
 62
     0
370
    -2
100
AcDbLine
 10
1864.86386575982
 20
288.5265684648464
 30
0.0
 11
1832.211161332066
 21
288.5265684648464
 31
0.0
  0
LINE
  5
11FC
330
11F8
100
AcDbEntity
  8
0
 62
     0
370
    -2
100
AcDbLine
 10
1851.86386575982
 20
252.7765684648464
 30
0.0
 11
1832.211161332066
 21
252.7765684648464
 31
0.0
  0
LINE
  5
11FD
330
11F8
100
AcDbEntity
  8
0
 62
     0
370
    -2
100
AcDbLine
 10
1833.461161332066
 20
286.0265684648464
 30
0.0
 11
1833.461161332066
 21
255.2765684648464
 31
0.0
  0
INSERT
  5
11FE
330
11F8
100
AcDbEntity
  8
0
 62
     0
370
    -2
100
AcDbBlockReference
  2
_Open30
 10
1833.461161332066
 20
288.5265684648464
 30
0.0
 41
2.5
 42
2.5
 43
2.5
 50
90.0
  0
INSERT
  5
11FF
330
11F8
100
AcDbEntity
  8
0
 62
     0
370
    -2
100
AcDbBlockReference
  2
_Open30
 10
1833.461161332066
 20
252.7765684648464
 30
0.0
 41
2.5
 42
2.5
 43
2.5
 50
270.0
  0
MTEXT
  5
1200
330
11F8
100
AcDbEntity
  8
0
 62
     4
100
AcDbMText
 10
1831.336161332066
 20
271.4141108926459
 30
0.0
 40
3.0
 41
0.0
 71
     5
 72
     1
  1
71.5
 11
0.0000000000000001
 21
1.0
 31
0.0
 73
     1
 44
1.0
1001
ACAD
1000
MTEXTBEGIN
1070
    73
1070
     1
1070
    44
1040
1.0
1070
    74
1070
     0
1000
MTEXTEND
  0
POINT
  5
1201
330
11F8
100
AcDbEntity
  8
Defpoints
 62
     0
100
AcDbPoint
 10
1865.11386575982
 20
288.5265684648464
 30
0.0
  0
POINT
  5
1202
330
11F8
100
AcDbEntity
  8
Defpoints
 62
     0
100
AcDbPoint
 10
1852.11386575982
 20
252.7765684648464
 30
0.0
  0
POINT
  5
1203
330
11F8
100
AcDbEntity
  8
Defpoints
 62
     0
100
AcDbPoint
 10
1833.461161332066
 20
252.7765684648464
 30
0.0
  0
ENDBLK
  5
11FA
330
11F8
100
AcDbEntity
  8
0
100
AcDbBlockEnd
  0
BLOCK
  5
1205
330
1204
100
AcDbEntity
  8
0
100
AcDbBlockBegin
  2
*D11
 70
     1
 10
0.0
 20
0.0
 30
0.0
  3
*D11
  1

  0
LINE
  5
1207
330
1204
100
AcDbEntity
  8
0
 62
     0
370
    -2
100
AcDbLine
 10
1864.86386575982
 20
288.5265684648464
 30
0.0
 11
1825.236256779491
 21
288.5265684648464
 31
0.0
  0
LINE
  5
1208
330
1204
100
AcDbEntity
  8
0
 62
     0
370
    -2
100
AcDbLine
 10
1864.86386575982
 20
218.5265684648464
 30
0.0
 11
1825.236256779491
 21
218.5265684648464
 31
0.0
  0
LINE
  5
1209
330
1204
100
AcDbEntity
  8
0
 62
     0
370
    -2
100
AcDbLine
 10
1826.486256779491
 20
286.0265684648464
 30
0.0
 11
1826.486256779491
 21
221.0265684648464
 31
0.0
  0
INSERT
  5
120A
330
1204
100
AcDbEntity
  8
0
 62
     0
370
    -2
100
AcDbBlockReference
  2
_Open30
 10
1826.486256779491
 20
288.5265684648464
 30
0.0
 41
2.5
 42
2.5
 43
2.5
 50
90.0
  0
INSERT
  5
120B
330
1204
100
AcDbEntity
  8
0
 62
     0
370
    -2
100
AcDbBlockReference
  2
_Open30
 10
1826.486256779491
 20
218.5265684648464
 30
0.0
 41
2.5
 42
2.5
 43
2.5
 50
270.0
  0
MTEXT
  5
120C
330
1204
100
AcDbEntity
  8
0
 62
     4
100
AcDbMText
 10
1824.361256779491
 20
254.3202006542411
 30
0.0
 40
3.0
 41
0.0
 71
     5
 72
     1
  1
140
 11
0.0000000000000001
 21
1.0
 31
0.0
 73
     1
 44
1.0
1001
ACAD
1000
MTEXTBEGIN
1070
    73
1070
     1
1070
    44
1040
1.0
1070
    74
1070
     0
1000
MTEXTEND
  0
POINT
  5
120D
330
1204
100
AcDbEntity
  8
Defpoints
 62
     0
100
AcDbPoint
 10
1865.11386575982
 20
288.5265684648464
 30
0.0
  0
POINT
  5
120E
330
1204
100
AcDbEntity
  8
Defpoints
 62
     0
100
AcDbPoint
 10
1865.11386575982
 20
218.5265684648464
 30
0.0
  0
POINT
  5
120F
330
1204
100
AcDbEntity
  8
Defpoints
 62
     0
100
AcDbPoint
 10
1826.486256779491
 20
218.5265684648464
 30
0.0
  0
ENDBLK
  5
1206
330
1204
100
AcDbEntity
  8
0
100
AcDbBlockEnd
  0
BLOCK
  5
1211
330
1210
100
AcDbEntity
  8
0
100
AcDbBlockBegin
  2
*D12
 70
     1
 10
0.0
 20
0.0
 30
0.0
  3
*D12
  1

  0
LINE
  5
1213
330
1210
100
AcDbEntity
  8
0
 62
     0
370
    -2
100
AcDbLine
 10
1835.11386575982
 20
222.2765684648464
 30
0.0
 11
1835.11386575982
 21
202.6105709967334
 31
0.0
  0
LINE
  5
1214
330
1210
100
AcDbEntity
  8
0
 62
     0
370
    -2
100
AcDbLine
 10
1895.11386575982
 20
222.2765684648465
 30
0.0
 11
1895.11386575982
 21
202.6105709967334
 31
0.0
  0
LINE
  5
1215
330
1210
100
AcDbEntity
  8
0
 62
     0
370
    -2
100
AcDbLine
 10
1837.61386575982
 20
203.8605709967334
 30
0.0
 11
1892.61386575982
 21
203.8605709967334
 31
0.0
  0
INSERT
  5
1216
330
1210
100
AcDbEntity
  8
0
 62
     0
370
    -2
100
AcDbBlockReference
  2
_Open30
 10
1835.11386575982
 20
203.8605709967334
 30
0.0
 41
2.5
 42
2.5
 43
2.5
 50
180.0
  0
INSERT
  5
1217
330
1210
100
AcDbEntity
  8
0
 62
     0
370
    -2
100
AcDbBlockReference
  2
_Open30
 10
1895.11386575982
 20
203.8605709967334
 30
0.0
 41
2.5
 42
2.5
 43
2.5
  0
MTEXT
  5
1218
330
1210
100
AcDbEntity
  8
0
 62
     4
100
AcDbMText
 10
1865.238542868018
 20
205.9855709967334
 30
0.0
 40
3.0
 41
0.0
 71
     5
 72
     1
  1
%%C120
 73
     1
 44
1.0
1001
ACAD
1000
MTEXTBEGIN
1070
    73
1070
     1
1070
    44
1040
1.0
1070
    74
1070
     0
1000
MTEXTEND
  0
POINT
  5
1219
330
1210
100
AcDbEntity
  8
Defpoints
 62
     0
100
AcDbPoint
 10
1835.11386575982
 20
222.5265684648464
 30
0.0
  0
POINT
  5
121A
330
1210
100
AcDbEntity
  8
Defpoints
 62
     0
100
AcDbPoint
 10
1895.11386575982
 20
222.5265684648466
 30
0.0
  0
POINT
  5
121B
330
1210
100
AcDbEntity
  8
Defpoints
 62
     0
100
AcDbPoint
 10
1895.11386575982
 20
203.8605709967334
 30
0.0
  0
ENDBLK
  5
1212
330
1210
100
AcDbEntity
  8
0
100
AcDbBlockEnd
  0
BLOCK
  5
129A
330
1299
100
AcDbEntity
  8
0
100
AcDbBlockBegin
  2
*D13
 70
     1
 10
0.0
 20
0.0
 30
0.0
  3
*D13
  1

  0
LINE
  5
18F2
330
1299
100
AcDbEntity
  8
0
 62
     0
370
    -2
100
AcDbLine
 10
1062.749695537965
 20
285.9746279332489
 30
0.0
 11
1062.749695537965
 21
300.9483767856327
 31
0.0
  0
LINE
  5
18F3
330
1299
100
AcDbEntity
  8
0
 62
     0
370
    -2
100
AcDbLine
 10
1049.754215497788
 20
287.0052566338907
 30
0.0
 11
1049.754215497788
 21
300.9483767856327
 31
0.0
  0
LINE
  5
18F4
330
1299
100
AcDbEntity
  8
0
 62
     0
370
    -2
100
AcDbLine
 10
1060.249695537965
 20
299.6983767856327
 30
0.0
 11
1052.254215497788
 21
299.6983767856327
 31
0.0
  0
INSERT
  5
18F5
330
1299
100
AcDbEntity
  8
0
 62
     0
370
    -2
100
AcDbBlockReference
  2
_Open30
 10
1062.749695537965
 20
299.6983767856327
 30
0.0
 41
2.5
 42
2.5
 43
2.5
  0
INSERT
  5
18F6
330
1299
100
AcDbEntity
  8
0
 62
     0
370
    -2
100
AcDbBlockReference
  2
_Open30
 10
1049.754215497788
 20
299.6983767856327
 30
0.0
 41
2.5
 42
2.5
 43
2.5
 50
180.0
  0
MTEXT
  5
18F7
330
1299
100
AcDbEntity
  8
0
 62
     4
100
AcDbMText
 10
1056.5747215023
 20
301.8233767856327
 30
0.0
 40
3.0
 41
0.0
 71
     5
 72
     1
  1
E26
 73
     1
 44
1.0
1001
ACAD
1000
MTEXTBEGIN
1070
    73
1070
     1
1070
    44
1040
1.0
1070
    74
1070
     0
1000
MTEXTEND
  0
POINT
  5
18F8
330
1299
100
AcDbEntity
  8
Defpoints
 62
     0
100
AcDbPoint
 10
1062.749695537965
 20
285.7246279332489
 30
0.0
  0
POINT
  5
18F9
330
1299
100
AcDbEntity
  8
Defpoints
 62
     0
100
AcDbPoint
 10
1049.754215497788
 20
286.7552566338907
 30
0.0
  0
POINT
  5
18FA
330
1299
100
AcDbEntity
  8
Defpoints
 62
     0
100
AcDbPoint
 10
1049.754215497788
 20
299.6983767856327
 30
0.0
  0
ENDBLK
  5
129B
330
1299
100
AcDbEntity
  8
0
100
AcDbBlockEnd
  0
BLOCK
  5
12A6
330
12A5
100
AcDbEntity
  8
0
100
AcDbBlockBegin
  2
*D14
 70
     1
 10
0.0
 20
0.0
 30
0.0
  3
*D14
  1

  0
LINE
  5
18FB
330
12A5
100
AcDbEntity
  8
0
 62
     0
370
    -2
100
AcDbLine
 10
1069.252704787965
 20
263.6342167447241
 30
0.0
 11
1069.252704787965
 21
308.0479012507659
 31
0.0
  0
LINE
  5
18FC
330
12A5
100
AcDbEntity
  8
0
 62
     0
370
    -2
100
AcDbLine
 10
1043.252704787965
 20
263.634216744724
 30
0.0
 11
1043.252704787965
 21
308.0479012507659
 31
0.0
  0
LINE
  5
18FD
330
12A5
100
AcDbEntity
  8
0
 62
     0
370
    -2
100
AcDbLine
 10
1066.752704787965
 20
306.7979012507659
 30
0.0
 11
1045.752704787965
 21
306.7979012507659
 31
0.0
  0
INSERT
  5
18FE
330
12A5
100
AcDbEntity
  8
0
 62
     0
370
    -2
100
AcDbBlockReference
  2
_Open30
 10
1069.252704787965
 20
306.7979012507659
 30
0.0
 41
2.5
 42
2.5
 43
2.5
  0
INSERT
  5
18FF
330
12A5
100
AcDbEntity
  8
0
 62
     0
370
    -2
100
AcDbBlockReference
  2
_Open30
 10
1043.252704787965
 20
306.7979012507659
 30
0.0
 41
2.5
 42
2.5
 43
2.5
 50
180.0
  0
MTEXT
  5
1900
330
12A5
100
AcDbEntity
  8
0
 62
     4
100
AcDbMText
 10
1056.303600735938
 20
308.9229012507659
 30
0.0
 40
3.0
 41
0.0
 71
     5
 72
     1
  1
%%C52
 73
     1
 44
1.0
1001
ACAD
1000
MTEXTBEGIN
1070
    73
1070
     1
1070
    44
1040
1.0
1070
    74
1070
     0
1000
MTEXTEND
  0
POINT
  5
1901
330
12A5
100
AcDbEntity
  8
Defpoints
 62
     0
100
AcDbPoint
 10
1069.252704787965
 20
263.3842167447241
 30
0.0
  0
POINT
  5
1902
330
12A5
100
AcDbEntity
  8
Defpoints
 62
     0
100
AcDbPoint
 10
1043.252704787965
 20
263.384216744724
 30
0.0
  0
POINT
  5
1903
330
12A5
100
AcDbEntity
  8
Defpoints
 62
     0
100
AcDbPoint
 10
1043.252704787965
 20
306.7979012507659
 30
0.0
  0
ENDBLK
  5
12A7
330
12A5
100
AcDbEntity
  8
0
100
AcDbBlockEnd
  0
BLOCK
  5
12B2
330
12B1
100
AcDbEntity
  8
0
100
AcDbBlockBegin
  2
*D15
 70
     1
 10
0.0
 20
0.0
 30
0.0
  3
*D15
  1

  0
LINE
  5
1904
330
12B1
100
AcDbEntity
  8
0
 62
     0
370
    -2
100
AcDbLine
 10
1056.002704787965
 20
291.664819433249
 30
0.0
 11
1023.350000360212
 21
291.664819433249
 31
0.0
  0
LINE
  5
1905
330
12B1
100
AcDbEntity
  8
0
 62
     0
370
    -2
100
AcDbLine
 10
1043.002704787965
 20
255.914819433249
 30
0.0
 11
1023.350000360212
 21
255.914819433249
 31
0.0
  0
LINE
  5
1906
330
12B1
100
AcDbEntity
  8
0
 62
     0
370
    -2
100
AcDbLine
 10
1024.600000360212
 20
289.164819433249
 30
0.0
 11
1024.600000360212
 21
258.414819433249
 31
0.0
  0
INSERT
  5
1907
330
12B1
100
AcDbEntity
  8
0
 62
     0
370
    -2
100
AcDbBlockReference
  2
_Open30
 10
1024.600000360212
 20
291.664819433249
 30
0.0
 41
2.5
 42
2.5
 43
2.5
 50
90.0
  0
INSERT
  5
1908
330
12B1
100
AcDbEntity
  8
0
 62
     0
370
    -2
100
AcDbBlockReference
  2
_Open30
 10
1024.600000360212
 20
255.914819433249
 30
0.0
 41
2.5
 42
2.5
 43
2.5
 50
270.0
  0
MTEXT
  5
1909
330
12B1
100
AcDbEntity
  8
0
 62
     4
100
AcDbMText
 10
1022.475000360212
 20
274.5523618610485
 30
0.0
 40
3.0
 41
0.0
 71
     5
 72
     1
  1
71.5
 11
0.0000000000000001
 21
1.0
 31
0.0
 73
     1
 44
1.0
1001
ACAD
1000
MTEXTBEGIN
1070
    73
1070
     1
1070
    44
1040
1.0
1070
    74
1070
     0
1000
MTEXTEND
  0
POINT
  5
190A
330
12B1
100
AcDbEntity
  8
Defpoints
 62
     0
100
AcDbPoint
 10
1056.252704787965
 20
291.664819433249
 30
0.0
  0
POINT
  5
190B
330
12B1
100
AcDbEntity
  8
Defpoints
 62
     0
100
AcDbPoint
 10
1043.252704787965
 20
255.914819433249
 30
0.0
  0
POINT
  5
190C
330
12B1
100
AcDbEntity
  8
Defpoints
 62
     0
100
AcDbPoint
 10
1024.600000360212
 20
255.914819433249
 30
0.0
  0
ENDBLK
  5
12B3
330
12B1
100
AcDbEntity
  8
0
100
AcDbBlockEnd
  0
BLOCK
  5
12BE
330
12BD
100
AcDbEntity
  8
0
100
AcDbBlockBegin
  2
*D16
 70
     1
 10
0.0
 20
0.0
 30
0.0
  3
*D16
  1

  0
LINE
  5
190D
330
12BD
100
AcDbEntity
  8
0
 62
     0
370
    -2
100
AcDbLine
 10
1056.002704787965
 20
291.664819433249
 30
0.0
 11
1016.375095807636
 21
291.664819433249
 31
0.0
  0
LINE
  5
190E
330
12BD
100
AcDbEntity
  8
0
 62
     0
370
    -2
100
AcDbLine
 10
1056.002704787965
 20
221.6648194332491
 30
0.0
 11
1016.375095807636
 21
221.6648194332491
 31
0.0
  0
LINE
  5
190F
330
12BD
100
AcDbEntity
  8
0
 62
     0
370
    -2
100
AcDbLine
 10
1017.625095807636
 20
289.164819433249
 30
0.0
 11
1017.625095807636
 21
224.1648194332491
 31
0.0
  0
INSERT
  5
1910
330
12BD
100
AcDbEntity
  8
0
 62
     0
370
    -2
100
AcDbBlockReference
  2
_Open30
 10
1017.625095807636
 20
291.664819433249
 30
0.0
 41
2.5
 42
2.5
 43
2.5
 50
90.0
  0
INSERT
  5
1911
330
12BD
100
AcDbEntity
  8
0
 62
     0
370
    -2
100
AcDbBlockReference
  2
_Open30
 10
1017.625095807636
 20
221.6648194332491
 30
0.0
 41
2.5
 42
2.5
 43
2.5
 50
270.0
  0
MTEXT
  5
1912
330
12BD
100
AcDbEntity
  8
0
 62
     4
100
AcDbMText
 10
1015.500095807636
 20
257.4584516226437
 30
0.0
 40
3.0
 41
0.0
 71
     5
 72
     1
  1
140
 11
0.0000000000000001
 21
1.0
 31
0.0
 73
     1
 44
1.0
1001
ACAD
1000
MTEXTBEGIN
1070
    73
1070
     1
1070
    44
1040
1.0
1070
    74
1070
     0
1000
MTEXTEND
  0
POINT
  5
1913
330
12BD
100
AcDbEntity
  8
Defpoints
 62
     0
100
AcDbPoint
 10
1056.252704787965
 20
291.664819433249
 30
0.0
  0
POINT
  5
1914
330
12BD
100
AcDbEntity
  8
Defpoints
 62
     0
100
AcDbPoint
 10
1056.252704787965
 20
221.6648194332491
 30
0.0
  0
POINT
  5
1915
330
12BD
100
AcDbEntity
  8
Defpoints
 62
     0
100
AcDbPoint
 10
1017.625095807636
 20
221.6648194332491
 30
0.0
  0
ENDBLK
  5
12BF
330
12BD
100
AcDbEntity
  8
0
100
AcDbBlockEnd
  0
BLOCK
  5
12CA
330
12C9
100
AcDbEntity
  8
0
100
AcDbBlockBegin
  2
*D17
 70
     1
 10
0.0
 20
0.0
 30
0.0
  3
*D17
  1

  0
LINE
  5
1916
330
12C9
100
AcDbEntity
  8
0
 62
     0
370
    -2
100
AcDbLine
 10
1026.252704787965
 20
225.4148194332491
 30
0.0
 11
1026.252704787965
 21
205.7488219651361
 31
0.0
  0
LINE
  5
1917
330
12C9
100
AcDbEntity
  8
0
 62
     0
370
    -2
100
AcDbLine
 10
1086.252704787965
 20
225.4148194332492
 30
0.0
 11
1086.252704787965
 21
205.7488219651361
 31
0.0
  0
LINE
  5
1918
330
12C9
100
AcDbEntity
  8
0
 62
     0
370
    -2
100
AcDbLine
 10
1028.752704787964
 20
206.9988219651361
 30
0.0
 11
1083.752704787965
 21
206.9988219651361
 31
0.0
  0
INSERT
  5
1919
330
12C9
100
AcDbEntity
  8
0
 62
     0
370
    -2
100
AcDbBlockReference
  2
_Open30
 10
1026.252704787965
 20
206.9988219651361
 30
0.0
 41
2.5
 42
2.5
 43
2.5
 50
180.0
  0
INSERT
  5
191A
330
12C9
100
AcDbEntity
  8
0
 62
     0
370
    -2
100
AcDbBlockReference
  2
_Open30
 10
1086.252704787965
 20
206.9988219651361
 30
0.0
 41
2.5
 42
2.5
 43
2.5
  0
MTEXT
  5
191B
330
12C9
100
AcDbEntity
  8
0
 62
     4
100
AcDbMText
 10
1056.377381896163
 20
209.1238219651361
 30
0.0
 40
3.0
 41
0.0
 71
     5
 72
     1
  1
%%C120
 73
     1
 44
1.0
1001
ACAD
1000
MTEXTBEGIN
1070
    73
1070
     1
1070
    44
1040
1.0
1070
    74
1070
     0
1000
MTEXTEND
  0
POINT
  5
191C
330
12C9
100
AcDbEntity
  8
Defpoints
 62
     0
100
AcDbPoint
 10
1026.252704787965
 20
225.6648194332491
 30
0.0
  0
POINT
  5
191D
330
12C9
100
AcDbEntity
  8
Defpoints
 62
     0
100
AcDbPoint
 10
1086.252704787965
 20
225.6648194332492
 30
0.0
  0
POINT
  5
191E
330
12C9
100
AcDbEntity
  8
Defpoints
 62
     0
100
AcDbPoint
 10
1086.252704787965
 20
206.9988219651361
 30
0.0
  0
ENDBLK
  5
12CB
330
12C9
100
AcDbEntity
  8
0
100
AcDbBlockEnd
  0
BLOCK
  5
1923
330
1920
100
AcDbEntity
  8
0
100
AcDbBlockBegin
  2
A$C369B3533
 70
     0
 10
0.0
 20
0.0
 30
0.0
  3
A$C369B3533
  1

  0
LINE
  5
1924
330
1920
100
AcDbEntity
  8
0
 62
     3
100
AcDbLine
 10
8.487927449920789
 20
138.4999996444132
 30
0.0
 11
8.000000619920911
 21
138.4999996444132
 31
0.0
  0
LINE
  5
1925
330
1920
100
AcDbEntity
  8
0
 62
     3
100
AcDbLine
 10
20.00000061992091
 20
276.9999996444133
 30
0.0
 11
20.00000061992091
 21
-0.0000003555867352
 31
0.0
  0
LINE
  5
1926
330
1920
100
AcDbEntity
  8
0
 62
   254
100
AcDbLine
 10
0.000000619920911
 20
286.9999996444132
 30
0.0
 11
0.000000619920911
 21
-0.0000003555867352
 31
0.0
  0
LINE
  5
1927
330
1920
100
AcDbEntity
  8
0
 62
     3
100
AcDbLine
 10
200.0000006199209
 20
-0.0000003555867352
 30
0.0
 11
200.0000006199209
 21
276.9999996444133
 31
0.0
  0
LINE
  5
1928
330
1920
100
AcDbEntity
  8
0
 62
     3
100
AcDbLine
 10
20.00000061992091
 20
-0.0000003555867352
 30
0.0
 11
200.0000006199209
 21
-0.0000003555867352
 31
0.0
  0
LINE
  5
1929
330
1920
100
AcDbEntity
  8
0
 62
     3
100
AcDbLine
 10
57.08435263992078
 20
278.7874437444133
 30
0.0
 11
57.52010054992092
 21
278.5599756044133
 31
0.0
  0
LINE
  5
192A
330
1920
100
AcDbEntity
  8
0
 62
     3
100
AcDbLine
 10
57.08435263992078
 20
275.0568132644133
 30
0.0
 11
57.52010054992092
 21
275.2842814044133
 31
0.0
  0
LINE
  5
192B
330
1920
100
AcDbEntity
  8
0
 62
     3
100
AcDbLine
 10
57.52010054992092
 20
278.5599756044133
 30
0.0
 11
57.52010054992092
 21
275.2842814044133
 31
0.0
  0
LINE
  5
192C
330
1920
100
AcDbEntity
  8
0
 62
     3
100
AcDbLine
 10
58.62361796992082
 20
275.0568132644133
 30
0.0
 11
58.18787005992067
 21
275.2842814044133
 31
0.0
  0
LINE
  5
192D
330
1920
100
AcDbEntity
  8
0
 62
     3
100
AcDbLine
 10
58.18787005992067
 20
277.2811402144133
 30
0.0
 11
58.18787005992067
 21
275.2842814044133
 31
0.0
  0
LINE
  5
192E
330
1920
100
AcDbEntity
  8
0
 62
     3
100
AcDbLine
 10
61.16548074992079
 20
278.7874437444133
 30
0.0
 11
60.72973283992086
 21
278.5599756044133
 31
0.0
  0
LINE
  5
192F
330
1920
100
AcDbEntity
  8
0
 62
     3
100
AcDbLine
 10
59.62621541992074
 20
278.7874437444133
 30
0.0
 11
60.06196332992089
 21
278.5599756044133
 31
0.0
  0
LINE
  5
1930
330
1920
100
AcDbEntity
  8
0
 62
     3
100
AcDbLine
 10
60.06196332992089
 20
278.5599756044133
 30
0.0
 11
60.06196332992089
 21
277.1176385444132
 31
0.0
  0
LINE
  5
1931
330
1920
100
AcDbEntity
  8
0
 62
     3
100
AcDbLine
 10
60.72973283992086
 20
278.5599756044133
 30
0.0
 11
60.72973283992086
 21
274.8452521244133
 31
0.0
  0
LINE
  5
1932
330
1920
100
AcDbEntity
  8
0
 62
     3
100
AcDbLine
 10
61.3807779499209
 20
278.7874411144132
 30
0.0
 11
61.81652428992084
 21
278.5599699744133
 31
0.0
  0
LINE
  5
1933
330
1920
100
AcDbEntity
  8
0
 62
     3
100
AcDbLine
 10
61.38069997992078
 20
275.0568632444133
 30
0.0
 11
61.81645582992086
 21
275.2843161644133
 31
0.0
  0
LINE
  5
1934
330
1920
100
AcDbEntity
  8
0
 62
     3
100
AcDbLine
 10
61.81652428992084
 20
278.5599699744133
 30
0.0
 11
61.81652428992084
 21
275.2843161644133
 31
0.0
  0
LINE
  5
1935
330
1920
100
AcDbEntity
  8
0
 62
     3
100
AcDbLine
 10
63.31031434992087
 20
278.7874174444131
 30
0.0
 11
62.87456325992093
 21
278.5599554144133
 31
0.0
  0
LINE
  5
1936
330
1920
100
AcDbEntity
  8
0
 62
     3
100
AcDbLine
 10
62.87456325992093
 20
278.5599554144133
 30
0.0
 11
62.87456325992093
 21
275.2843015944133
 31
0.0
  0
LINE
  5
1937
330
1920
100
AcDbEntity
  8
0
 62
     3
100
AcDbLine
 10
63.31031434992087
 20
275.0568395644133
 30
0.0
 11
62.87456325992093
 21
275.2843015944133
 31
0.0
  0
LINE
  5
1938
330
1920
100
AcDbEntity
  8
0
 62
     3
100
AcDbLine
 10
67.00056778992075
 20
278.7873764444133
 30
0.0
 11
67.43631490992084
 21
278.5599068044132
 31
0.0
  0
LINE
  5
1939
330
1920
100
AcDbEntity
  8
0
 62
     3
100
AcDbLine
 10
67.43631490992084
 20
278.5599068044132
 30
0.0
 11
67.43625773992085
 21
275.2842529944132
 31
0.0
  0
LINE
  5
193A
330
1920
100
AcDbEntity
  8
0
 62
     3
100
AcDbLine
 10
67.00050267992081
 20
275.0567985644133
 30
0.0
 11
67.43625773992085
 21
275.2842529944132
 31
0.0
  0
LINE
  5
193B
330
1920
100
AcDbEntity
  8
0
 62
     3
100
AcDbLine
 10
68.95282874992085
 20
278.7873764444133
 30
0.0
 11
68.51708162992077
 21
278.5599068044132
 31
0.0
  0
LINE
  5
193C
330
1920
100
AcDbEntity
  8
0
 62
     3
100
AcDbLine
 10
68.95289385992078
 20
275.0567985644133
 30
0.0
 11
68.51713879992074
 21
275.2842529944132
 31
0.0
  0
LINE
  5
193D
330
1920
100
AcDbEntity
  8
0
 62
     3
100
AcDbLine
 10
69.15655660992093
 20
278.7873764444133
 30
0.0
 11
69.59230373992091
 21
278.5599068044132
 31
0.0
  0
LINE
  5
193E
330
1920
100
AcDbEntity
  8
0
 62
     3
100
AcDbLine
 10
69.15649149992077
 20
275.0567985644133
 30
0.0
 11
69.5922465599208
 21
275.2842529944132
 31
0.0
  0
LINE
  5
193F
330
1920
100
AcDbEntity
  8
0
 62
     3
100
AcDbLine
 10
71.1088175799207
 20
278.7873764444133
 30
0.0
 11
70.67307045992085
 21
278.5599068044132
 31
0.0
  0
LINE
  5
1940
330
1920
100
AcDbEntity
  8
0
 62
     3
100
AcDbLine
 10
70.67307045992085
 20
278.5599068044132
 30
0.0
 11
70.67312762992083
 21
275.2842529944132
 31
0.0
  0
LINE
  5
1941
330
1920
100
AcDbEntity
  8
0
 62
     3
100
AcDbLine
 10
71.10888268992084
 20
275.0567985644133
 30
0.0
 11
70.67312762992083
 21
275.2842529944132
 31
0.0
  0
LINE
  5
1942
330
1920
100
AcDbEntity
  8
0
 62
     3
100
AcDbLine
 10
69.59227882992081
 20
277.1327736844132
 30
0.0
 11
68.51710653992086
 21
277.1327736844132
 31
0.0
  0
LINE
  5
1943
330
1920
100
AcDbEntity
  8
0
 62
     3
100
AcDbLine
 10
69.59227146992066
 20
276.7114833244133
 30
0.0
 11
68.51711388992065
 21
276.7114833244133
 31
0.0
  0
LINE
  5
1944
330
1920
100
AcDbEntity
  8
0
 62
     3
100
AcDbLine
 10
69.59230373992091
 20
278.5599068044132
 30
0.0
 11
69.59227882992081
 21
277.1327736844132
 31
0.0
  0
LINE
  5
1945
330
1920
100
AcDbEntity
  8
0
 62
     3
100
AcDbLine
 10
69.59227146992066
 20
276.7114833244133
 30
0.0
 11
69.5922465599208
 21
275.2842529944132
 31
0.0
  0
LINE
  5
1946
330
1920
100
AcDbEntity
  8
0
 62
     3
100
AcDbLine
 10
68.51708162992077
 20
278.5599068044132
 30
0.0
 11
68.51710653992086
 21
277.1327736844132
 31
0.0
  0
LINE
  5
1947
330
1920
100
AcDbEntity
  8
0
 62
     3
100
AcDbLine
 10
68.51711388992065
 20
276.7114833244133
 30
0.0
 11
68.51713879992074
 21
275.2842529944132
 31
0.0
  0
LINE
  5
1948
330
1920
100
AcDbEntity
  8
0
 62
     3
100
AcDbLine
 10
71.31577669992089
 20
278.7873764444133
 30
0.0
 11
71.75152381992075
 21
278.5599068044132
 31
0.0
  0
LINE
  5
1949
330
1920
100
AcDbEntity
  8
0
 62
     3
100
AcDbLine
 10
71.75152381992075
 20
278.5599068044132
 30
0.0
 11
71.75146664992077
 21
275.2842529944132
 31
0.0
  0
LINE
  5
194A
330
1920
100
AcDbEntity
  8
0
 62
     3
100
AcDbLine
 10
71.31571158992072
 20
275.0567985644133
 30
0.0
 11
71.75146664992077
 21
275.2842529944132
 31
0.0
  0
LINE
  5
194B
330
1920
100
AcDbEntity
  8
0
 62
     3
100
AcDbLine
 10
73.2452869699207
 20
278.7873764444133
 30
0.0
 11
72.80953984992084
 21
278.5599068044132
 31
0.0
  0
LINE
  5
194C
330
1920
100
AcDbEntity
  8
0
 62
     3
100
AcDbLine
 10
72.80953984992084
 20
278.5599068044132
 30
0.0
 11
72.80959701992083
 21
275.2842529944132
 31
0.0
  0
LINE
  5
194D
330
1920
100
AcDbEntity
  8
0
 62
     3
100
AcDbLine
 10
73.24535207992084
 20
275.0567985644133
 30
0.0
 11
72.80959701992083
 21
275.2842529944132
 31
0.0
  0
LINE
  5
194E
330
1920
100
AcDbEntity
  8
0
 62
     3
100
AcDbLine
 10
73.45964653992087
 20
278.7873764444133
 30
0.0
 11
73.89539365992073
 21
278.5599068044132
 31
0.0
  0
LINE
  5
194F
330
1920
100
AcDbEntity
  8
0
 62
     3
100
AcDbLine
 10
73.89539365992073
 20
278.5599068044132
 30
0.0
 11
73.89533648992074
 21
275.2842529944132
 31
0.0
  0
LINE
  5
1950
330
1920
100
AcDbEntity
  8
0
 62
     3
100
AcDbLine
 10
73.45958142992071
 20
275.0567985644133
 30
0.0
 11
73.89533648992074
 21
275.2842529944132
 31
0.0
  0
ARC
  5
1951
330
1920
100
AcDbEntity
  8
0
 62
     3
100
AcDbCircle
 10
65.60865651992094
 20
276.9315182644133
 30
0.0
 40
2.086285909999999
100
AcDbArc
 50
97.70152350999723
 51
270.0
  0
ARC
  5
1952
330
1920
100
AcDbEntity
  8
0
 62
     3
100
AcDbCircle
 10
78.48925735992065
 20
276.9105616344133
 30
0.0
 40
2.108943379999999
100
AcDbArc
 50
0.314250269999259
 51
69.00558244998928
  0
ARC
  5
1953
330
1920
100
AcDbEntity
  8
0
 62
     3
100
AcDbCircle
 10
78.94993267992072
 20
276.9105616344133
 30
0.0
 40
2.108943379999999
100
AcDbArc
 50
110.9944175499969
 51
148.1166110200049
  0
ARC
  5
1954
330
1920
100
AcDbEntity
  8
0
 62
     3
100
AcDbCircle
 10
78.48925735992065
 20
276.9336953744133
 30
0.0
 40
2.108943379999999
100
AcDbArc
 50
290.9944175499969
 51
359.6857497300005
  0
ARC
  5
1955
330
1920
100
AcDbEntity
  8
0
 62
     3
100
AcDbCircle
 10
78.94993267992072
 20
276.9336953744133
 30
0.0
 40
2.108943379999999
100
AcDbArc
 50
211.8833889799949
 51
249.0055824499894
  0
ARC
  5
1956
330
1920
100
AcDbEntity
  8
0
 62
     3
100
AcDbCircle
 10
78.7195950199209
 20
277.7849338944132
 30
0.0
 40
1.214070989999997
100
AcDbArc
 50
64.36517189999968
 51
115.6348281000003
  0
ARC
  5
1957
330
1920
100
AcDbEntity
  8
0
 62
     3
100
AcDbCircle
 10
78.7195950199209
 20
276.0593231144132
 30
0.0
 40
1.214070989999997
100
AcDbArc
 50
244.3651718999997
 51
295.6348281000003
  0
ARC
  5
1958
330
1920
100
AcDbEntity
  8
0
 62
     3
100
AcDbCircle
 10
78.7195950199209
 20
277.8079955744133
 30
0.0
 40
0.59585563
100
AcDbArc
 50
19.48660554000477
 51
160.5133944599952
  0
ARC
  5
1959
330
1920
100
AcDbEntity
  8
0
 62
     3
100
AcDbCircle
 10
78.7195950199209
 20
276.0593231144132
 30
0.0
 40
1.214070989999997
100
AcDbArc
 50
244.3651718999997
 51
295.6348281000003
  0
ARC
  5
195A
330
1920
100
AcDbEntity
  8
0
 62
     3
100
AcDbCircle
 10
78.7195950199209
 20
276.0362614344133
 30
0.0
 40
0.59585563
100
AcDbArc
 50
199.4866055400047
 51
340.513394459995
  0
ARC
  5
195B
330
1920
100
AcDbEntity
  8
0
 62
     3
100
AcDbCircle
 10
73.97712251992084
 20
254.6940686644133
 30
0.0
 40
26.04
100
AcDbArc
 50
69.50571480000832
 51
81.68998806999736
  0
ARC
  5
195C
330
1920
100
AcDbEntity
  8
0
 62
     3
100
AcDbCircle
 10
73.97712251992084
 20
299.1501883444133
 30
0.0
 40
26.04
100
AcDbArc
 50
278.3100119300026
 51
290.4942851999917
  0
ARC
  5
195D
330
1920
100
AcDbEntity
  8
0
 62
     3
100
AcDbCircle
 10
82.28532664992076
 20
276.9221285044133
 30
0.0
 40
2.31
100
AcDbArc
 50
290.4942851999917
 51
69.50571480000832
  0
ARC
  5
195E
330
1920
100
AcDbEntity
  8
0
 62
     3
100
AcDbCircle
 10
54.9853266499208
 20
276.9221285044133
 30
0.0
 40
2.31
100
AcDbArc
 50
110.4942851999916
 51
249.5057147999945
  0
ARC
  5
195F
330
1920
100
AcDbEntity
  8
0
 62
     3
100
AcDbCircle
 10
63.29353076992084
 20
254.6940686644133
 30
0.0
 40
26.04
100
AcDbArc
 50
98.31001192998948
 51
110.4942851999916
  0
ARC
  5
1960
330
1920
100
AcDbEntity
  8
0
 62
     3
100
AcDbCircle
 10
63.29353076992084
 20
299.1501883444133
 30
0.0
 40
26.04
100
AcDbArc
 50
249.5057147999945
 51
261.6899880699973
  0
ARC
  5
1961
330
1920
100
AcDbEntity
  8
0
 62
     3
100
AcDbCircle
 10
68.63532664992067
 20
218.1221285044133
 30
0.0
 40
62.99999987
100
AcDbArc
 50
81.68998806999736
 51
98.31001192998948
  0
ARC
  5
1962
330
1920
100
AcDbEntity
  8
0
 62
     3
100
AcDbCircle
 10
68.63532664992067
 20
335.7221285044133
 30
0.0
 40
62.99999987
100
AcDbArc
 50
261.6899880699973
 51
278.3100119300026
  0
ARC
  5
1963
330
1920
100
AcDbEntity
  8
0
 62
     3
100
AcDbCircle
 10
68.63532664992067
 20
218.1221285044133
 30
0.0
 40
62.36999987
100
AcDbArc
 50
81.68998806999736
 51
98.31001192998948
  0
ARC
  5
1964
330
1920
100
AcDbEntity
  8
0
 62
     3
100
AcDbCircle
 10
68.63532664992067
 20
335.7221285044133
 30
0.0
 40
62.36999987
100
AcDbArc
 50
261.6899880699973
 51
278.3100119300026
  0
ARC
  5
1965
330
1920
100
AcDbEntity
  8
0
 62
     3
100
AcDbCircle
 10
73.97712251992084
 20
299.1501883444133
 30
0.0
 40
25.41
100
AcDbArc
 50
278.3100119300026
 51
290.4942851999917
  0
ARC
  5
1966
330
1920
100
AcDbEntity
  8
0
 62
     3
100
AcDbCircle
 10
73.97712251992084
 20
254.6940686644133
 30
0.0
 40
25.41
100
AcDbArc
 50
69.50571480000832
 51
81.68998806999736
  0
ARC
  5
1967
330
1920
100
AcDbEntity
  8
0
 62
     3
100
AcDbCircle
 10
82.28532664992076
 20
276.9221285044133
 30
0.0
 40
1.679999999999999
100
AcDbArc
 50
290.4942851999917
 51
69.50571480000832
  0
ARC
  5
1968
330
1920
100
AcDbEntity
  8
0
 62
     3
100
AcDbCircle
 10
54.9853266499208
 20
276.9221285044133
 30
0.0
 40
1.679999999999999
100
AcDbArc
 50
110.4942851999916
 51
249.5057147999945
  0
ARC
  5
1969
330
1920
100
AcDbEntity
  8
0
 62
     3
100
AcDbCircle
 10
63.29353076992084
 20
254.6940686644133
 30
0.0
 40
25.41
100
AcDbArc
 50
98.31001192998948
 51
110.4942851999916
  0
ARC
  5
196A
330
1920
100
AcDbEntity
  8
0
 62
     3
100
AcDbCircle
 10
63.29353076992084
 20
299.1501883444133
 30
0.0
 40
25.41
100
AcDbArc
 50
249.5057147999945
 51
261.6899880699973
  0
LINE
  5
196B
330
1920
100
AcDbEntity
  8
0
 62
     3
100
AcDbLine
 10
73.24528774992086
 20
274.8452521244133
 30
0.0
 11
71.31577591992073
 21
274.8452521244133
 31
0.0
  0
LINE
  5
196C
330
1920
100
AcDbEntity
  8
0
 62
     3
100
AcDbLine
 10
73.24528774992086
 20
275.0568132644133
 30
0.0
 11
73.24528774992086
 21
274.8452521244133
 31
0.0
  0
LINE
  5
196D
330
1920
100
AcDbEntity
  8
0
 62
     3
100
AcDbLine
 10
71.10881835992086
 20
278.9989061644133
 30
0.0
 11
69.15655582992076
 21
278.9989061644133
 31
0.0
  0
LINE
  5
196E
330
1920
100
AcDbEntity
  8
0
 62
     3
100
AcDbLine
 10
71.10881835992086
 20
278.9989061644133
 30
0.0
 11
71.10881835992086
 21
278.7874437444133
 31
0.0
  0
LINE
  5
196F
330
1920
100
AcDbEntity
  8
0
 62
     3
100
AcDbLine
 10
71.10881835992086
 20
275.0568132644133
 30
0.0
 11
71.10881835992086
 21
274.8451534144133
 31
0.0
  0
LINE
  5
1970
330
1920
100
AcDbEntity
  8
0
 62
     3
100
AcDbLine
 10
71.10881835992086
 20
274.8451534144133
 30
0.0
 11
69.15655582992076
 21
274.8451534144133
 31
0.0
  0
LINE
  5
1971
330
1920
100
AcDbEntity
  8
0
 62
     3
100
AcDbLine
 10
73.24528774992086
 20
278.9990048844132
 30
0.0
 11
73.24528774992086
 21
278.7874437444133
 31
0.0
  0
LINE
  5
1972
330
1920
100
AcDbEntity
  8
0
 62
     3
100
AcDbLine
 10
73.24528774992086
 20
278.9990048844132
 30
0.0
 11
71.31577591992073
 21
278.9990048844132
 31
0.0
  0
LINE
  5
1973
330
1920
100
AcDbEntity
  8
0
 62
     3
100
AcDbLine
 10
71.31577591992073
 20
278.9990048844132
 30
0.0
 11
71.31577591992073
 21
278.7874437444133
 31
0.0
  0
LINE
  5
1974
330
1920
100
AcDbEntity
  8
0
 62
     3
100
AcDbLine
 10
73.4596457499208
 20
275.0568132644133
 30
0.0
 11
73.4596457499208
 21
274.8452521244133
 31
0.0
  0
LINE
  5
1975
330
1920
100
AcDbEntity
  8
0
 62
     3
100
AcDbLine
 10
75.44394630992087
 20
274.8452521244133
 30
0.0
 11
73.4596457499208
 21
274.8452521244133
 31
0.0
  0
LINE
  5
1976
330
1920
100
AcDbEntity
  8
0
 62
     3
100
AcDbLine
 10
74.95340967992092
 20
278.3312353644133
 30
0.0
 11
74.95340967992092
 21
275.5130216444133
 31
0.0
  0
LINE
  5
1977
330
1920
100
AcDbEntity
  8
0
 62
     3
100
AcDbLine
 10
74.95340967992092
 20
275.5130216444133
 30
0.0
 11
75.14345864992083
 21
275.5130216444133
 31
0.0
  0
ARC
  5
1978
330
1920
100
AcDbEntity
  8
0
 62
     3
100
AcDbCircle
 10
74.17167290992073
 20
276.9221285044133
 30
0.0
 40
1.71170957
100
AcDbArc
 50
304.5919552700024
 51
55.40804472999759
  0
LINE
  5
1979
330
1920
100
AcDbEntity
  8
0
 62
     3
100
AcDbLine
 10
75.44394630992087
 20
278.9990048844132
 30
0.0
 11
73.4596457499208
 21
278.9990048844132
 31
0.0
  0
LINE
  5
197A
330
1920
100
AcDbEntity
  8
0
 62
     3
100
AcDbLine
 10
73.4596457499208
 20
278.9990048844132
 30
0.0
 11
73.4596457499208
 21
278.7874437444133
 31
0.0
  0
LINE
  5
197B
330
1920
100
AcDbEntity
  8
0
 62
     3
100
AcDbLine
 10
71.31577591992073
 20
275.0568132644133
 30
0.0
 11
71.31577591992073
 21
274.8452521244133
 31
0.0
  0
LINE
  5
197C
330
1920
100
AcDbEntity
  8
0
 62
     3
100
AcDbLine
 10
74.95340967992092
 20
278.3312353644133
 30
0.0
 11
75.14345864992083
 21
278.3312353644133
 31
0.0
  0
LINE
  5
197D
330
1920
100
AcDbEntity
  8
0
 62
     3
100
AcDbLine
 10
63.31025001992088
 20
275.0568132644133
 30
0.0
 11
63.31024632992079
 21
274.8452323544133
 31
0.0
  0
LINE
  5
197E
330
1920
100
AcDbEntity
  8
0
 62
     3
100
AcDbLine
 10
61.38073448992077
 20
274.8452718944133
 30
0.0
 11
63.31024632992079
 21
274.8452382244133
 31
0.0
  0
LINE
  5
197F
330
1920
100
AcDbEntity
  8
0
 62
     3
100
AcDbLine
 10
57.08435263992078
 20
274.8452521244133
 30
0.0
 11
58.62361796992082
 21
274.8452521244133
 31
0.0
  0
ARC
  5
1980
330
1920
100
AcDbEntity
  8
0
 62
     3
100
AcDbCircle
 10
52.1024099599208
 20
276.9710351244133
 30
0.0
 40
14.71356563
100
AcDbArc
 50
353.8660061899987
 51
357.6940342600003
  0
LINE
  5
1981
330
1920
100
AcDbEntity
  8
0
 62
     3
100
AcDbLine
 10
65.81898981992094
 20
276.3826674744133
 30
0.0
 11
66.80406070992082
 21
276.3790225944133
 31
0.0
  0
LWPOLYLINE
  5
1982
330
1920
100
AcDbEntity
  8
0
 62
     3
100
AcDbPolyline
 90
       64
 70
     0
 43
0.0
 10
65.82296823992078
 20
277.4578822144133
 10
65.80434070992078
 20
277.5771499844132
 10
65.78196952992084
 20
277.6913547644133
 10
65.75602759992078
 20
277.7996138244132
 10
65.72671545992078
 20
277.9010903744132
 10
65.69425964992092
 20
277.9950000544133
 10
65.6589110599209
 20
278.0806169944133
 10
65.62094290992082
 20
278.1572794044133
 10
65.58064865992083
 20
278.2243947444133
 10
65.53833978992066
 20
278.2814442344132
 10
65.49434329992073
 20
278.3279869044132
 10
65.44899927992083
 20
278.3636630244132
 10
65.40265820992067
 20
278.3881968144133
 10
65.35567826992085
 20
278.4013986644132
 10
65.30842260992085
 20
278.4031665044133
 10
65.2612564799208
 20
278.3934866944132
 10
65.21454444992082
 20
278.3724340344132
 10
65.16864758992074
 20
278.3401712644133
 10
65.12392064992082
 20
278.2969477544133
 10
65.08070933992076
 20
278.2430975944133
 10
65.03934767992086
 20
278.1790370244133
 10
65.00015535992066
 20
278.1052612044133
 10
64.96343531992079
 20
278.0223403744133
 10
64.92947138992076
 20
277.9309154644133
 10
64.89852608992078
 20
277.8316931644133
 10
64.87083860992084
 20
277.7254403944132
 10
64.84662295992075
 20
277.6129784344133
 10
64.82606631992076
 20
277.4951765544133
 10
64.80932757992082
 20
277.3729453144133
 10
64.7965361199208
 20
277.2472294944133
 10
64.78779080992079
 20
277.1190008144133
 10
64.7831592499208
 20
276.9892504044133
 10
64.78267723992074
 20
276.8589811744133
 10
64.7863484999209
 20
276.7292000544133
 10
64.7941446599209
 20
276.6009101644133
 10
64.8060054599207
 20
276.4751031244133
 10
64.82183921992078
 20
276.3527513544133
 10
64.8415235399209
 20
276.2348005844133
 10
64.8649062999209
 20
276.1221625144133
 10
64.89180672992074
 20
276.0157077544132
 10
64.9220169299208
 20
275.9162591644133
 10
64.9553033799209
 20
275.8245854344133
 10
64.9914087799209
 20
275.7413951344133
 10
65.03005407992077
 20
275.6673313044132
 10
65.0709405599207
 20
275.6029664144132
 10
65.11375217992076
 20
275.5487979644133
 10
65.15815803992087
 20
275.5052446444133
 10
65.20381488992075
 20
275.4726431144133
 10
65.25036984992084
 20
275.4512453544132
 10
65.2974630599208
 20
275.4412167744133
 10
65.34473050992073
 20
275.4426348744133
 10
65.39180684992084
 20
275.4554886944132
 10
65.43832820992088
 20
275.4796788944133
 10
65.48393499992084
 20
275.5150184744133
 10
65.52827469992076
 20
275.5612342944132
 10
65.57100458992067
 20
275.6179691344133
 10
65.61179438992076
 20
275.6847844444132
 10
65.65032881992078
 20
275.7611637944133
 10
65.68631001992094
 20
275.8465168044132
 10
65.71945987992079
 20
275.9401837344133
 10
65.74952215992084
 20
276.0414405944133
 10
65.77626450992079
 20
276.1495047144133
 10
65.79948020992083
 20
276.2635408244133
 10
65.81898981992094
 20
276.3826674744133
  0
LINE
  5
1983
330
1920
100
AcDbEntity
  8
0
 62
     3
100
AcDbLine
 10
65.82296823992078
 20
277.4578822144133
 30
0.0
 11
66.80803911992075
 21
277.4542373444133
 31
0.0
  0
ARC
  5
1984
330
1920
100
AcDbEntity
  8
0
 62
     3
100
AcDbCircle
 10
52.1024099599208
 20
276.9710351244133
 30
0.0
 40
14.71356563
100
AcDbArc
 50
1.881965739999166
 51
5.709993809998728
  0
LINE
  5
1985
330
1920
100
AcDbEntity
  8
0
 62
     3
100
AcDbLine
 10
63.31031881992089
 20
278.9989851144132
 30
0.0
 11
63.31031512992081
 21
278.7874437444133
 31
0.0
  0
LINE
  5
1986
330
1920
100
AcDbEntity
  8
0
 62
     3
100
AcDbLine
 10
61.38080698992076
 20
278.9990246544132
 30
0.0
 11
63.31031881992089
 21
278.9989909744132
 31
0.0
  0
LINE
  5
1987
330
1920
100
AcDbEntity
  8
0
 62
     3
100
AcDbLine
 10
61.38073817992085
 20
275.0568132644133
 30
0.0
 11
61.38073448992077
 21
274.8452718944133
 31
0.0
  0
LINE
  5
1988
330
1920
100
AcDbEntity
  8
0
 62
     3
100
AcDbLine
 10
61.38080698992076
 20
278.9990246544132
 30
0.0
 11
61.38080329992067
 21
278.7874437444133
 31
0.0
  0
LINE
  5
1989
330
1920
100
AcDbEntity
  8
0
 62
     3
100
AcDbLine
 10
58.62361796992082
 20
275.0568132644133
 30
0.0
 11
58.62361796992082
 21
274.8452521244133
 31
0.0
  0
LINE
  5
198A
330
1920
100
AcDbEntity
  8
0
 62
     3
100
AcDbLine
 10
58.18787005992067
 20
277.2811402144133
 30
0.0
 11
59.71030011992093
 21
274.8452521244133
 31
0.0
  0
LINE
  5
198B
330
1920
100
AcDbEntity
  8
0
 62
     3
100
AcDbLine
 10
59.71030011992093
 20
274.8452521244133
 30
0.0
 11
60.72973283992086
 21
274.8452521244133
 31
0.0
  0
LINE
  5
198C
330
1920
100
AcDbEntity
  8
0
 62
     3
100
AcDbLine
 10
61.16548074992079
 20
278.9990048844132
 30
0.0
 11
61.16548074992079
 21
278.7874437444133
 31
0.0
  0
LINE
  5
198D
330
1920
100
AcDbEntity
  8
0
 62
     3
100
AcDbLine
 10
59.62621541992074
 20
278.9990048844132
 30
0.0
 11
61.16548074992079
 21
278.9990048844132
 31
0.0
  0
LINE
  5
198E
330
1920
100
AcDbEntity
  8
0
 62
     3
100
AcDbLine
 10
59.62621541992074
 20
278.9990048844132
 30
0.0
 11
59.62621541992074
 21
278.7874437444133
 31
0.0
  0
LINE
  5
198F
330
1920
100
AcDbEntity
  8
0
 62
     3
100
AcDbLine
 10
60.06196332992089
 20
277.1176385444132
 30
0.0
 11
58.82731665992082
 21
278.9990048844132
 31
0.0
  0
LINE
  5
1990
330
1920
100
AcDbEntity
  8
0
 62
     3
100
AcDbLine
 10
57.08435263992078
 20
278.9990048844132
 30
0.0
 11
58.82731665992082
 21
278.9990048844132
 31
0.0
  0
LINE
  5
1991
330
1920
100
AcDbEntity
  8
0
 62
     3
100
AcDbLine
 10
67.00056699992067
 20
278.9989061644133
 30
0.0
 11
68.95282953992069
 21
278.9989061644133
 31
0.0
  0
LINE
  5
1992
330
1920
100
AcDbEntity
  8
0
 62
     3
100
AcDbLine
 10
67.00056699992067
 20
278.7874437444133
 30
0.0
 11
67.00056699992067
 21
278.9989061644133
 31
0.0
  0
LINE
  5
1993
330
1920
100
AcDbEntity
  8
0
 62
     3
100
AcDbLine
 10
67.00056699992067
 20
274.8451534144133
 30
0.0
 11
67.00056699992067
 21
275.0568132644133
 31
0.0
  0
LINE
  5
1994
330
1920
100
AcDbEntity
  8
0
 62
     3
100
AcDbLine
 10
67.00056699992067
 20
274.8451534144133
 30
0.0
 11
68.95282953992069
 21
274.8451534144133
 31
0.0
  0
LINE
  5
1995
330
1920
100
AcDbEntity
  8
0
 62
     3
100
AcDbLine
 10
69.15655582992076
 20
275.0568132644133
 30
0.0
 11
69.15655582992076
 21
274.8451534144133
 31
0.0
  0
LINE
  5
1996
330
1920
100
AcDbEntity
  8
0
 62
     3
100
AcDbLine
 10
68.95282953992069
 20
275.0568132644133
 30
0.0
 11
68.95282953992069
 21
274.8451534144133
 31
0.0
  0
LINE
  5
1997
330
1920
100
AcDbEntity
  8
0
 62
     3
100
AcDbLine
 10
68.95282953992069
 20
278.7874437444133
 30
0.0
 11
68.95282953992069
 21
278.9989061644133
 31
0.0
  0
LINE
  5
1998
330
1920
100
AcDbEntity
  8
0
 62
     3
100
AcDbLine
 10
69.15655582992076
 20
278.7874437444133
 30
0.0
 11
69.15655582992076
 21
278.9989061644133
 31
0.0
  0
LINE
  5
1999
330
1920
100
AcDbEntity
  8
0
 62
     3
100
AcDbLine
 10
57.08435263992078
 20
275.0568132644133
 30
0.0
 11
57.08435263992078
 21
274.8452521244133
 31
0.0
  0
LINE
  5
199A
330
1920
100
AcDbEntity
  8
0
 62
     3
100
AcDbLine
 10
57.08435263992078
 20
278.9990048844132
 30
0.0
 11
57.08435263992078
 21
278.7874437444133
 31
0.0
  0
ARC
  5
199B
330
1920
100
AcDbEntity
  8
0
 62
     3
100
AcDbCircle
 10
75.6539463099209
 20
277.3578764144132
 30
0.0
 40
1.641128469999999
100
AcDbArc
 50
17.30874897999683
 51
23.76507095999502
  0
ARC
  5
199C
330
1920
100
AcDbEntity
  8
0
 62
     3
100
AcDbCircle
 10
74.25567290992082
 20
276.9221285044133
 30
0.0
 40
3.105725599999998
100
AcDbArc
 50
342.6912510200032
 51
17.30856644000026
  0
ARC
  5
199D
330
1920
100
AcDbEntity
  8
0
 62
     3
100
AcDbCircle
 10
75.6539463099209
 20
276.4863806044133
 30
0.0
 40
1.641128469999999
100
AcDbArc
 50
336.2349290399992
 51
342.6912510200032
  0
ARC
  5
199E
330
1920
100
AcDbEntity
  8
0
 62
     3
100
AcDbCircle
 10
75.44394630992087
 20
277.3578764144132
 30
0.0
 40
1.641128469999999
100
AcDbArc
 50
17.30874897999683
 51
90.0
  0
ARC
  5
199F
330
1920
100
AcDbEntity
  8
0
 62
     3
100
AcDbCircle
 10
74.04567290992076
 20
276.9221285044133
 30
0.0
 40
3.105725599999998
100
AcDbArc
 50
342.6912510200032
 51
17.30856644000026
  0
ARC
  5
19A0
330
1920
100
AcDbEntity
  8
0
 62
     3
100
AcDbCircle
 10
75.44394630992087
 20
276.4863806044133
 30
0.0
 40
1.641128469999999
100
AcDbArc
 50
270.0
 51
342.6912510200032
  0
ARC
  5
19A1
330
1920
100
AcDbEntity
  8
0
 62
     3
100
AcDbCircle
 10
65.32000593992075
 20
276.9221285044133
 30
0.0
 40
2.076876379999998
100
AcDbArc
 50
46.75287960999439
 51
89.74999828999569
  0
ARC
  5
19A2
330
1920
100
AcDbEntity
  8
0
 62
     3
100
AcDbCircle
 10
65.32000593992075
 20
276.9221285044133
 30
0.0
 40
2.076876379999998
100
AcDbArc
 50
273.976333149997
 51
312.8231203899985
  0
ARC
  5
19A3
330
1920
100
AcDbEntity
  8
0
 62
     3
100
AcDbCircle
 10
76.76181387992073
 20
276.8900669744132
 30
0.0
 40
2.755888999999998
100
AcDbArc
 50
0.6665840599997753
 51
23.90392827000157
  0
ARC
  5
19A4
330
1920
100
AcDbEntity
  8
0
 62
     3
100
AcDbCircle
 10
80.67737615992086
 20
276.8900669744132
 30
0.0
 40
2.755888999999998
100
AcDbArc
 50
156.0960717299984
 51
179.3334159400002
  0
ARC
  5
19A5
330
1920
100
AcDbEntity
  8
0
 62
     3
100
AcDbCircle
 10
76.76181387992073
 20
276.9541900344133
 30
0.0
 40
2.755888999999998
100
AcDbArc
 50
336.0960717299984
 51
359.3334159400005
  0
ARC
  5
19A6
330
1920
100
AcDbEntity
  8
0
 62
     3
100
AcDbCircle
 10
80.67737615992086
 20
276.9541900344133
 30
0.0
 40
2.755888999999998
100
AcDbArc
 50
180.6665840599995
 51
203.9039282700016
  0
LINE
  5
19A7
330
1920
100
AcDbEntity
  8
0
 62
     3
100
AcDbLine
 10
85.32766324992078
 20
276.9999996444133
 30
0.0
 11
200.0000006199209
 21
276.9999996444133
 31
0.0
  0
LINE
  5
19A8
330
1920
100
AcDbEntity
  8
0
 62
   254
100
AcDbLine
 10
0.000000619920911
 20
286.9999996444132
 30
0.0
 11
200.0000006199209
 21
286.9999996444132
 31
0.0
  0
LINE
  5
19A9
330
1920
100
AcDbEntity
  8
0
 62
     3
100
AcDbLine
 10
51.91491672992082
 20
276.9999996444133
 30
0.0
 11
20.00000061992091
 21
276.9999996444133
 31
0.0
  0
LINE
  5
19AA
330
1920
100
AcDbEntity
  8
0
 62
     3
100
AcDbLine
 10
148.0000006199209
 20
-0.0000003555867352
 30
0.0
 11
148.0000006199209
 21
39.99999964441328
 31
0.0
  0
LINE
  5
19AB
330
1920
100
AcDbEntity
  8
0
 62
     3
100
AcDbLine
 10
161.0000006199209
 20
9.999999644413263
 30
0.0
 11
161.0000006199209
 21
37.99999964441326
 31
0.0
  0
LINE
  5
19AC
330
1920
100
AcDbEntity
  8
0
 62
     3
100
AcDbLine
 10
121.0000006199209
 20
9.999999644413263
 30
0.0
 11
121.0000006199209
 21
23.99999964441326
 31
0.0
  0
LINE
  5
19AD
330
1920
100
AcDbEntity
  8
0
 62
     3
100
AcDbLine
 10
131.0000006199209
 20
23.99999964441326
 30
0.0
 11
131.0000006199209
 21
-0.0000003555867352
 31
0.0
  0
LINE
  5
19AE
330
1920
100
AcDbEntity
  8
0
 62
     3
100
AcDbLine
 10
102.0000006199209
 20
39.99999964441326
 30
0.0
 11
102.0000006199209
 21
16.99999964441327
 31
0.0
  0
LINE
  5
19AF
330
1920
100
AcDbEntity
  8
0
 62
     3
100
AcDbLine
 10
161.0000006199209
 20
37.99999964441326
 30
0.0
 11
161.0000006199209
 21
39.99999964441328
 31
0.0
  0
LINE
  5
19B0
330
1920
100
AcDbEntity
  8
0
 62
     3
100
AcDbLine
 10
174.0000006199209
 20
16.99999964441327
 30
0.0
 11
174.0000006199209
 21
39.99999964441328
 31
0.0
  0
LINE
  5
19B1
330
1920
100
AcDbEntity
  8
0
 62
     3
100
AcDbLine
 10
200.0000006199209
 20
39.99999964441328
 30
0.0
 11
88.75456597992092
 21
39.99999964441328
 31
0.0
  0
LINE
  5
19B2
330
1920
100
AcDbEntity
  8
0
 62
     3
100
AcDbLine
 10
200.0000006199209
 20
30.99999964441327
 30
0.0
 11
88.75456597992092
 21
30.99999964441327
 31
0.0
  0
LINE
  5
19B3
330
1920
100
AcDbEntity
  8
0
 62
     3
100
AcDbLine
 10
200.0000006199209
 20
16.99999964441327
 30
0.0
 11
88.75456597992092
 21
16.99999964441327
 31
0.0
  0
LINE
  5
19B4
330
1920
100
AcDbEntity
  8
0
 62
     3
100
AcDbLine
 10
200.0000006199209
 20
9.999999644413263
 30
0.0
 11
88.75456597992092
 21
9.999999644413259
 31
0.0
  0
LINE
  5
19B5
330
1920
100
AcDbEntity
  8
0
 62
     3
100
AcDbLine
 10
187.0000006199209
 20
16.99999964441327
 30
0.0
 11
187.0000006199209
 21
39.99999964441328
 31
0.0
  0
LINE
  5
19B6
330
1920
100
AcDbEntity
  8
0
 62
     3
100
AcDbLine
 10
88.75456597992092
 20
39.99999964441328
 30
0.0
 11
88.75456597992092
 21
-0.0000003555867352
 31
0.0
  0
LINE
  5
19B7
330
1920
100
AcDbEntity
  8
0
 62
     3
100
AcDbLine
 10
148.0000006199209
 20
23.99999964441326
 30
0.0
 11
88.75456597992092
 21
23.99999964441325
 31
0.0
  0
LINE
  5
19B8
330
1920
100
AcDbEntity
  8
0
 62
     3
100
AcDbLine
 10
131.2783255499207
 20
4.832860904413252
 30
0.0
 11
148.0000006199209
 21
4.832860904413252
 31
0.0
  0
TEXT
  5
19B9
330
1920
100
AcDbEntity
  8
0
 62
     3
100
AcDbText
 10
132.1643260332364
 20
19.07309649777861
 30
0.0
 40
2.5
  1
******
  7
高2.5
100
AcDbText
  0
TEXT
  5
19BA
330
1920
100
AcDbEntity
  8
0
 62
     3
100
AcDbText
 10
103.1963693151731
 20
19.29781404939717
 30
0.0
 40
2.5
  1
*****
  7
高2.5
100
AcDbText
  0
TEXT
  5
19BB
330
1920
100
AcDbEntity
  8
0
 62
     3
100
AcDbText
 10
103.4612770698704
 20
32.31224916817116
 30
0.0
 40
4.5
  1
**********
  7
高4.5
100
AcDbText
1001
ACAD
1000
ACAD_MTEXT_DEFINED_HEIGHT_BEGIN
1070
    46
1040
0.0
1000
ACAD_MTEXT_DEFINED_HEIGHT_END
  0
TEXT
  5
19BC
330
1920
100
AcDbEntity
  8
0
 62
     3
100
AcDbText
 10
190.0655897133949
 20
36.51369174311686
 30
0.0
 40
2.0
  1
DEF
  7
高2
100
AcDbText
  0
TEXT
  5
19BD
330
1920
100
AcDbEntity
  8
0
 62
     3
100
AcDbText
 10
176.1264913596867
 20
36.51369174311677
 30
0.0
 40
2.0
  1
DESN
  7
高2
100
AcDbText
  0
TEXT
  5
19BE
330
1920
100
AcDbEntity
  8
0
 62
     3
100
AcDbText
 10
149.8721244196865
 20
36.51369174311686
 30
0.0
 40
2.0
  1
APPD
  7
高2
100
AcDbText
  0
TEXT
  5
19BF
330
1920
100
AcDbEntity
  8
0
 62
     3
100
AcDbText
 10
162.9848605199206
 20
36.51369174311689
 30
0.0
 40
2.0
  1
CHCK
  7
高2
100
AcDbText
  0
TEXT
  5
19C0
330
1920
100
AcDbEntity
  8
0
 62
     3
100
AcDbText
 10
121.9271662590734
 20
14.16839846764398
 30
0.0
 40
2.0
  1
SCALE
 41
0.8
  7
高2
100
AcDbText
  0
TEXT
  5
19C1
330
1920
100
AcDbEntity
  8
0
 62
     3
100
AcDbText
 10
90.43914468296705
 20
14.16839846764399
 30
0.0
 40
2.0
  1
3AD　ANGLE
 41
1.5
  7
高2
100
AcDbText
  0
TEXT
  5
19C2
330
1920
100
AcDbEntity
  8
0
 62
     3
100
AcDbText
 10
121.1965719499223
 20
20.91993653660109
 30
0.0
 40
2.0
  1
REMARKS
 41
0.7
  7
高2
100
AcDbText
  0
TEXT
  5
19C3
330
1920
100
AcDbEntity
  8
0
 62
     3
100
AcDbText
 10
90.22223632992085
 20
20.99999964441327
 30
0.0
 40
2.0
  1
MATERIAL
 41
0.7
  7
高2
100
AcDbText
  0
TEXT
  5
19C4
330
1920
100
AcDbEntity
  8
0
 62
     3
100
AcDbText
 10
90.79872353267479
 20
27.99999964441325
 30
0.0
 40
2.0
  1
MODEL
  7
高2
100
AcDbText
  0
TEXT
  5
19C5
330
1920
100
AcDbEntity
  8
0
 62
     3
100
AcDbText
 10
90.43564441400601
 20
36.70702099501229
 30
0.0
 40
2.0
  1
CONPONENTS
 41
0.5
  7
高2
100
AcDbText
  0
TEXT
  5
19C6
330
1920
100
AcDbEntity
  8
0
 62
     3
100
AcDbText
 10
103.142759885173
 20
25.08748077222521
 30
0.0
 40
4.5
  1
********
  7
高4.5
100
AcDbText
  0
TEXT
  5
19C7
330
1920
100
AcDbEntity
  8
0
 62
     3
100
AcDbText
 10
151.0650463505392
 20
2.038461039778852
 30
0.0
 40
6.299999999999998
  1
*-********
 41
0.6
  7
高6.3
100
AcDbText
1001
ACAD
1000
ACAD_MTEXT_DEFINED_HEIGHT_BEGIN
1070
    46
1040
0.0
1000
ACAD_MTEXT_DEFINED_HEIGHT_END
  0
TEXT
  5
19C8
330
1920
100
AcDbEntity
  8
0
 62
     3
100
AcDbText
 10
164.5635103702504
 20
11.10088880264627
 30
0.0
 40
3.2
  1
******
  7
高3.2
100
AcDbText
1001
ACAD
1000
ACAD_MTEXT_DEFINED_HEIGHT_BEGIN
1070
    46
1040
0.0
1000
ACAD_MTEXT_DEFINED_HEIGHT_END
  0
TEXT
  5
19C9
330
1920
100
AcDbEntity
  8
0
 62
     3
100
AcDbText
 10
134.7875985145672
 20
11.10091664698114
 30
0.0
 40
3.2
  1
1/1
  7
高3.2
100
AcDbText
  0
TEXT
  5
19CA
330
1920
100
AcDbEntity
  8
0
 62
     3
100
AcDbText
 10
131.8649274899208
 20
0.8168778175492262
 30
0.0
 40
3.2
  1
ZK-A4Y
 41
0.8
  7
高3.2
100
AcDbText
  0
TEXT
  5
19CB
330
1920
100
AcDbEntity
  8
0
 62
     3
100
AcDbText
 10
89.58526701992083
 20
6.52462006660109
 30
0.0
 40
2.0
  1
NICHIDO IND.CO.LTD
 41
1.3
  7
高2
100
AcDbText
  0
TEXT
  5
19CC
330
1920
100
AcDbEntity
  8
0
 62
     3
100
AcDbText
 10
90.76679028487793
 20
32.1405278522982
 30
0.0
 40
3.2
  1
品 名
  7
高3.2
100
AcDbText
1001
ACAD
1000
ACAD_MTEXT_DEFINED_HEIGHT_BEGIN
1070
    46
1040
0.0
1000
ACAD_MTEXT_DEFINED_HEIGHT_END
  0
TEXT
  5
19CD
330
1920
100
AcDbEntity
  8
0
 62
     3
100
AcDbText
 10
90.76679028487793
 20
24.49999964441325
 30
0.0
 40
3.2
  1
型 式
  7
高3.2
100
AcDbText
1001
ACAD
1000
ACAD_MTEXT_DEFINED_HEIGHT_BEGIN
1070
    46
1040
3.064735913775952
1000
ACAD_MTEXT_DEFINED_HEIGHT_END
  0
TEXT
  5
19CE
330
1920
100
AcDbEntity
  8
0
 62
     3
100
AcDbText
 10
90.76679028487793
 20
17.49999964441327
 30
0.0
 40
3.2
  1
材 質
  7
高3.2
100
AcDbText
1001
ACAD
1000
ACAD_MTEXT_DEFINED_HEIGHT_BEGIN
1070
    46
1040
0.0
1000
ACAD_MTEXT_DEFINED_HEIGHT_END
  0
TEXT
  5
19CF
330
1920
100
AcDbEntity
  8
0
 62
     3
100
AcDbText
 10
90.4617553348778
 20
10.4674396366595
 30
0.0
 40
3.2
  1
第 三 角 法
  7
高3.2
100
AcDbText
1001
ACAD
1000
ACAD_MTEXT_DEFINED_HEIGHT_BEGIN
1070
    46
1040
0.0
1000
ACAD_MTEXT_DEFINED_HEIGHT_END
  0
TEXT
  5
19D0
330
1920
100
AcDbEntity
  8
0
 62
     3
100
AcDbText
 10
88.86828794240683
 20
1.140527852298198
 30
0.0
 40
3.2
  1
日動工業株式会社
 41
1.199999999999999
  7
高3.2
100
AcDbText
1001
ACAD
1000
ACAD_MTEXT_DEFINED_HEIGHT_BEGIN
1070
    46
1040
0.0
1000
ACAD_MTEXT_DEFINED_HEIGHT_END
  0
TEXT
  5
19D1
330
1920
100
AcDbEntity
  8
0
 62
     3
100
AcDbText
 10
122.5039121418851
 20
17.38457817758082
 30
0.0
 40
3.2
  1
備考
  7
高3.2
100
AcDbText
1001
ACAD
1000
ACAD_MTEXT_DEFINED_HEIGHT_BEGIN
1070
    46
1040
0.0
1000
ACAD_MTEXT_DEFINED_HEIGHT_END
  0
TEXT
  5
19D2
330
1920
100
AcDbEntity
  8
0
 62
     3
100
AcDbText
 10
132.1529695889207
 20
6.146229669983557
 30
0.0
 40
2.5
  1
出図コード
  7
高2.5
100
AcDbText
1001
ACAD
1000
ACAD_MTEXT_DEFINED_HEIGHT_BEGIN
1070
    46
1040
0.0
1000
ACAD_MTEXT_DEFINED_HEIGHT_END
  0
TEXT
  5
19D3
330
1920
100
AcDbEntity
  8
0
 62
     3
100
AcDbText
 10
122.3451460237977
 20
10.45323455482618
 30
0.0
 40
3.2
  1
尺度
  7
高3.2
100
AcDbText
1001
ACAD
1000
ACAD_MTEXT_DEFINED_HEIGHT_BEGIN
1070
    46
1040
0.0
1000
ACAD_MTEXT_DEFINED_HEIGHT_END
  0
TEXT
  5
19D4
330
1920
100
AcDbEntity
  8
0
 62
     3
100
AcDbText
 10
149.4914075055765
 20
11.58471300294367
 30
0.0
 40
3.2
  1
作成日
  7
高3.2
100
AcDbText
1001
ACAD
1000
ACAD_MTEXT_DEFINED_HEIGHT_BEGIN
1070
    46
1040
0.0
1000
ACAD_MTEXT_DEFINED_HEIGHT_END
  0
TEXT
  5
19D5
330
1920
100
AcDbEntity
  8
0
 62
     3
100
AcDbText
 10
149.3858815124406
 20
32.1405278522982
 30
0.0
 40
3.2
  1
承 認
  7
高3.2
100
AcDbText
1001
ACAD
1000
ACAD_MTEXT_DEFINED_HEIGHT_BEGIN
1070
    46
1040
0.0
1000
ACAD_MTEXT_DEFINED_HEIGHT_END
  0
TEXT
  5
19D6
330
1920
100
AcDbEntity
  8
0
 62
     3
100
AcDbText
 10
162.3858815124406
 20
32.1405278522982
 30
0.0
 40
3.2
  1
検 図
  7
高3.2
100
AcDbText
1001
ACAD
1000
ACAD_MTEXT_DEFINED_HEIGHT_BEGIN
1070
    46
1040
0.0
1000
ACAD_MTEXT_DEFINED_HEIGHT_END
  0
TEXT
  5
19D7
330
1920
100
AcDbEntity
  8
0
 62
     3
100
AcDbText
 10
175.3858815124406
 20
32.1405278522982
 30
0.0
 40
3.2
  1
設 計
  7
高3.2
100
AcDbText
1001
ACAD
1000
ACAD_MTEXT_DEFINED_HEIGHT_BEGIN
1070
    46
1040
0.0
1000
ACAD_MTEXT_DEFINED_HEIGHT_END
  0
TEXT
  5
19D8
330
1920
100
AcDbEntity
  8
0
 62
     3
100
AcDbText
 10
188.6865180324405
 20
32.1405278522982
 30
0.0
 40
3.2
  1
製 図
  7
高3.2
100
AcDbText
1001
ACAD
1000
ACAD_MTEXT_DEFINED_HEIGHT_BEGIN
1070
    46
1040
0.0
1000
ACAD_MTEXT_DEFINED_HEIGHT_END
  0
TEXT
  5
19D9
330
1920
100
AcDbEntity
  8
0
 62
     3
100
AcDbText
 10
187.5000006199209
 20
267.4999996444133
 30
0.0
 40
3.2
  1
担　当
  7
高3.2
100
AcDbText
  0
TEXT
  5
19DA
330
1920
100
AcDbEntity
  8
0
 62
     3
100
AcDbText
 10
143.5000006199209
 20
267.4999996444133
 30
0.0
 40
3.2
  1
変更・追記内容
  7
高3.2
100
AcDbText
  0
TEXT
  5
19DB
330
1920
100
AcDbEntity
  8
0
 62
     3
100
AcDbText
 10
118.6135156202601
 20
262.829461134505
 30
0.0
 40
2.0
  1
1
  7
高2
100
AcDbText
  0
TEXT
  5
19DC
330
1920
100
AcDbEntity
  8
0
 62
     3
100
AcDbText
 10
118.3050041435028
 20
257.6596444222321
 30
0.0
 40
2.0
  1
2
  7
高2
100
AcDbText
  0
TEXT
  5
19DD
330
1920
100
AcDbEntity
  8
0
 62
     3
100
AcDbText
 10
125.5000006199209
 20
267.4999996444133
 30
0.0
 40
3.2
  1
日　付
  7
高3.2
100
AcDbText
  0
TEXT
  5
19DE
330
1920
100
AcDbEntity
  8
0
 62
     3
100
AcDbText
 10
125.5000006199209
 20
272.4999996444132
 30
0.0
 40
3.2
  1
図　　　　面　　　　略　　　　歴
  7
高3.2
100
AcDbText
  0
TEXT
  5
19DF
330
1920
100
AcDbEntity
  8
0
 62
     3
100
AcDbText
 10
115.5000006199209
 20
267.4999996444133
 30
0.0
 40
3.2
  1
記号
  7
高3.2
100
AcDbText
  0
LINE
  5
19E0
330
1920
100
AcDbEntity
  8
0
 62
     7
100
AcDbLine
 10
119.0000006199209
 20
260.7908956444134
 30
0.0
 11
117.1000006199208
 21
257.4999996444133
 31
0.0
  0
LINE
  5
19E1
330
1920
100
AcDbEntity
  8
0
 62
     7
100
AcDbLine
 10
119.0000006199209
 20
260.7908956444134
 30
0.0
 11
120.9000006199207
 21
257.4999996444133
 31
0.0
  0
LINE
  5
19E2
330
1920
100
AcDbEntity
  8
0
 62
     7
100
AcDbLine
 10
117.1000006199208
 20
257.4999996444133
 30
0.0
 11
120.9000006199207
 21
257.4999996444133
 31
0.0
  0
LINE
  5
19E3
330
1920
100
AcDbEntity
  8
0
 62
     7
100
AcDbLine
 10
119.0000006199209
 20
265.7908966444133
 30
0.0
 11
117.1000006199208
 21
262.4999996444133
 31
0.0
  0
LINE
  5
19E4
330
1920
100
AcDbEntity
  8
0
 62
     7
100
AcDbLine
 10
119.0000006199209
 20
265.7908966444133
 30
0.0
 11
120.9000006199207
 21
262.4999996444133
 31
0.0
  0
LINE
  5
19E5
330
1920
100
AcDbEntity
  8
0
 62
     7
100
AcDbLine
 10
117.1000006199208
 20
262.4999996444133
 30
0.0
 11
120.9000006199207
 21
262.4999996444133
 31
0.0
  0
LINE
  5
19E6
330
1920
100
AcDbEntity
  8
0
 62
     3
100
AcDbLine
 10
114.0000006199209
 20
271.9999996444133
 30
0.0
 11
200.0000006199209
 21
271.9999996444133
 31
0.0
  0
LINE
  5
19E7
330
1920
100
AcDbEntity
  8
0
 62
     3
100
AcDbLine
 10
114.0000006199209
 20
266.9999996444133
 30
0.0
 11
200.0000006199209
 21
266.9999996444133
 31
0.0
  0
LINE
  5
19E8
330
1920
100
AcDbEntity
  8
0
 62
     7
100
AcDbLine
 10
114.0000006199209
 20
261.9999996444132
 30
0.0
 11
200.0000006199209
 21
261.9999996444132
 31
0.0
  0
LINE
  5
19E9
330
1920
100
AcDbEntity
  8
0
 62
     3
100
AcDbLine
 10
114.0000006199209
 20
256.9999996444133
 30
0.0
 11
200.0000006199209
 21
256.9999996444133
 31
0.0
  0
LINE
  5
19EA
330
1920
100
AcDbEntity
  8
0
 62
     7
100
AcDbLine
 10
186.0000006199209
 20
256.9999996444133
 30
0.0
 11
186.0000006199209
 21
271.9999996444133
 31
0.0
  0
LINE
  5
19EB
330
1920
100
AcDbEntity
  8
0
 62
     7
100
AcDbLine
 10
142.0000006199209
 20
256.9999996444133
 30
0.0
 11
142.0000006199209
 21
271.9999996444133
 31
0.0
  0
LINE
  5
19EC
330
1920
100
AcDbEntity
  8
0
 62
     7
100
AcDbLine
 10
124.0000006199209
 20
256.9999996444133
 30
0.0
 11
124.0000006199209
 21
271.9999996444133
 31
0.0
  0
LINE
  5
19ED
330
1920
100
AcDbEntity
  8
0
 62
     3
100
AcDbLine
 10
114.0000006199209
 20
256.9999996444133
 30
0.0
 11
114.0000006199209
 21
276.9999996444133
 31
0.0
  0
ENDBLK
  5
19EE
330
1920
100
AcDbEntity
  8
0
100
AcDbBlockEnd
  0
BLOCK
  5
1A76
330
1A75
100
AcDbEntity
  8
0
100
AcDbBlockBegin
  2
*D19
 70
     1
 10
0.0
 20
0.0
 30
0.0
  3
*D19
  1

  0
LINE
  5
1CDC
330
1A75
100
AcDbEntity
  8
0
 62
     0
370
    -2
100
AcDbLine
 10
1463.855834201067
 20
285.9746279332489
 30
0.0
 11
1463.855834201067
 21
300.9483767856327
 31
0.0
  0
LINE
  5
1CDD
330
1A75
100
AcDbEntity
  8
0
 62
     0
370
    -2
100
AcDbLine
 10
1450.86035416089
 20
287.0052566338907
 30
0.0
 11
1450.86035416089
 21
300.9483767856327
 31
0.0
  0
LINE
  5
1CDE
330
1A75
100
AcDbEntity
  8
0
 62
     0
370
    -2
100
AcDbLine
 10
1461.355834201067
 20
299.6983767856327
 30
0.0
 11
1453.36035416089
 21
299.6983767856327
 31
0.0
  0
INSERT
  5
1CDF
330
1A75
100
AcDbEntity
  8
0
 62
     0
370
    -2
100
AcDbBlockReference
  2
_Open30
 10
1463.855834201067
 20
299.6983767856327
 30
0.0
 41
2.5
 42
2.5
 43
2.5
  0
INSERT
  5
1CE0
330
1A75
100
AcDbEntity
  8
0
 62
     0
370
    -2
100
AcDbBlockReference
  2
_Open30
 10
1450.86035416089
 20
299.6983767856327
 30
0.0
 41
2.5
 42
2.5
 43
2.5
 50
180.0
  0
MTEXT
  5
1CE1
330
1A75
100
AcDbEntity
  8
0
 62
     4
100
AcDbMText
 10
1457.680860165402
 20
301.8233767856327
 30
0.0
 40
3.0
 41
0.0
 71
     5
 72
     1
  1
E26
 73
     1
 44
1.0
1001
ACAD
1000
MTEXTBEGIN
1070
    73
1070
     1
1070
    44
1040
1.0
1070
    74
1070
     0
1000
MTEXTEND
  0
POINT
  5
1CE2
330
1A75
100
AcDbEntity
  8
Defpoints
 62
     0
100
AcDbPoint
 10
1463.855834201067
 20
285.7246279332489
 30
0.0
  0
POINT
  5
1CE3
330
1A75
100
AcDbEntity
  8
Defpoints
 62
     0
100
AcDbPoint
 10
1450.86035416089
 20
286.7552566338907
 30
0.0
  0
POINT
  5
1CE4
330
1A75
100
AcDbEntity
  8
Defpoints
 62
     0
100
AcDbPoint
 10
1450.86035416089
 20
299.6983767856327
 30
0.0
  0
ENDBLK
  5
1A77
330
1A75
100
AcDbEntity
  8
0
100
AcDbBlockEnd
  0
BLOCK
  5
1A82
330
1A81
100
AcDbEntity
  8
0
100
AcDbBlockBegin
  2
*D20
 70
     1
 10
0.0
 20
0.0
 30
0.0
  3
*D20
  1

  0
LINE
  5
1CE5
330
1A81
100
AcDbEntity
  8
0
 62
     0
370
    -2
100
AcDbLine
 10
1470.358843451067
 20
263.6342167447241
 30
0.0
 11
1470.358843451067
 21
308.0479012507659
 31
0.0
  0
LINE
  5
1CE6
330
1A81
100
AcDbEntity
  8
0
 62
     0
370
    -2
100
AcDbLine
 10
1444.358843451067
 20
263.634216744724
 30
0.0
 11
1444.358843451067
 21
308.0479012507659
 31
0.0
  0
LINE
  5
1CE7
330
1A81
100
AcDbEntity
  8
0
 62
     0
370
    -2
100
AcDbLine
 10
1467.858843451067
 20
306.7979012507659
 30
0.0
 11
1446.858843451067
 21
306.7979012507659
 31
0.0
  0
INSERT
  5
1CE8
330
1A81
100
AcDbEntity
  8
0
 62
     0
370
    -2
100
AcDbBlockReference
  2
_Open30
 10
1470.358843451067
 20
306.7979012507659
 30
0.0
 41
2.5
 42
2.5
 43
2.5
  0
INSERT
  5
1CE9
330
1A81
100
AcDbEntity
  8
0
 62
     0
370
    -2
100
AcDbBlockReference
  2
_Open30
 10
1444.358843451067
 20
306.7979012507659
 30
0.0
 41
2.5
 42
2.5
 43
2.5
 50
180.0
  0
MTEXT
  5
1CEA
330
1A81
100
AcDbEntity
  8
0
 62
     4
100
AcDbMText
 10
1457.40973939904
 20
308.9229012507659
 30
0.0
 40
3.0
 41
0.0
 71
     5
 72
     1
  1
%%C52
 73
     1
 44
1.0
1001
ACAD
1000
MTEXTBEGIN
1070
    73
1070
     1
1070
    44
1040
1.0
1070
    74
1070
     0
1000
MTEXTEND
  0
POINT
  5
1CEB
330
1A81
100
AcDbEntity
  8
Defpoints
 62
     0
100
AcDbPoint
 10
1470.358843451067
 20
263.3842167447241
 30
0.0
  0
POINT
  5
1CEC
330
1A81
100
AcDbEntity
  8
Defpoints
 62
     0
100
AcDbPoint
 10
1444.358843451067
 20
263.384216744724
 30
0.0
  0
POINT
  5
1CED
330
1A81
100
AcDbEntity
  8
Defpoints
 62
     0
100
AcDbPoint
 10
1444.358843451067
 20
306.7979012507659
 30
0.0
  0
ENDBLK
  5
1A83
330
1A81
100
AcDbEntity
  8
0
100
AcDbBlockEnd
  0
BLOCK
  5
1A8E
330
1A8D
100
AcDbEntity
  8
0
100
AcDbBlockBegin
  2
*D21
 70
     1
 10
0.0
 20
0.0
 30
0.0
  3
*D21
  1

  0
LINE
  5
1D09
330
1A8D
100
AcDbEntity
  8
0
 62
     0
370
    -2
100
AcDbLine
 10
1457.108843451067
 20
291.6648194332491
 30
0.0
 11
1424.456139023314
 21
291.6648194332491
 31
0.0
  0
LINE
  5
1D0A
330
1A8D
100
AcDbEntity
  8
0
 62
     0
370
    -2
100
AcDbLine
 10
1444.108843451067
 20
255.9148194332491
 30
0.0
 11
1424.456139023314
 21
255.9148194332491
 31
0.0
  0
LINE
  5
1D0B
330
1A8D
100
AcDbEntity
  8
0
 62
     0
370
    -2
100
AcDbLine
 10
1425.706139023314
 20
289.1648194332491
 30
0.0
 11
1425.706139023314
 21
258.4148194332491
 31
0.0
  0
INSERT
  5
1D0C
330
1A8D
100
AcDbEntity
  8
0
 62
     0
370
    -2
100
AcDbBlockReference
  2
_Open30
 10
1425.706139023314
 20
291.6648194332491
 30
0.0
 41
2.5
 42
2.5
 43
2.5
 50
90.0
  0
INSERT
  5
1D0D
330
1A8D
100
AcDbEntity
  8
0
 62
     0
370
    -2
100
AcDbBlockReference
  2
_Open30
 10
1425.706139023314
 20
255.9148194332491
 30
0.0
 41
2.5
 42
2.5
 43
2.5
 50
270.0
  0
MTEXT
  5
1D0E
330
1A8D
100
AcDbEntity
  8
0
 62
     4
100
AcDbMText
 10
1423.581139023314
 20
274.5523618610486
 30
0.0
 40
3.0
 41
0.0
 71
     5
 72
     1
  1
71.5
 11
0.0000000000000001
 21
1.0
 31
0.0
 73
     1
 44
1.0
1001
ACAD
1000
MTEXTBEGIN
1070
    73
1070
     1
1070
    44
1040
1.0
1070
    74
1070
     0
1000
MTEXTEND
  0
POINT
  5
1D0F
330
1A8D
100
AcDbEntity
  8
Defpoints
 62
     0
100
AcDbPoint
 10
1457.358843451067
 20
291.6648194332491
 30
0.0
  0
POINT
  5
1D10
330
1A8D
100
AcDbEntity
  8
Defpoints
 62
     0
100
AcDbPoint
 10
1444.358843451067
 20
255.9148194332491
 30
0.0
  0
POINT
  5
1D11
330
1A8D
100
AcDbEntity
  8
Defpoints
 62
     0
100
AcDbPoint
 10
1425.706139023314
 20
255.9148194332491
 30
0.0
  0
ENDBLK
  5
1A8F
330
1A8D
100
AcDbEntity
  8
0
100
AcDbBlockEnd
  0
BLOCK
  5
1A9A
330
1A99
100
AcDbEntity
  8
0
100
AcDbBlockBegin
  2
*D22
 70
     1
 10
0.0
 20
0.0
 30
0.0
  3
*D22
  1

  0
LINE
  5
1D12
330
1A99
100
AcDbEntity
  8
0
 62
     0
370
    -2
100
AcDbLine
 10
1457.108843451067
 20
291.6648194332491
 30
0.0
 11
1417.481234470738
 21
291.6648194332491
 31
0.0
  0
LINE
  5
1D13
330
1A99
100
AcDbEntity
  8
0
 62
     0
370
    -2
100
AcDbLine
 10
1457.108843451067
 20
221.6648194332492
 30
0.0
 11
1417.481234470738
 21
221.6648194332492
 31
0.0
  0
LINE
  5
1D14
330
1A99
100
AcDbEntity
  8
0
 62
     0
370
    -2
100
AcDbLine
 10
1418.731234470738
 20
289.1648194332491
 30
0.0
 11
1418.731234470738
 21
224.1648194332492
 31
0.0
  0
INSERT
  5
1D15
330
1A99
100
AcDbEntity
  8
0
 62
     0
370
    -2
100
AcDbBlockReference
  2
_Open30
 10
1418.731234470738
 20
291.6648194332491
 30
0.0
 41
2.5
 42
2.5
 43
2.5
 50
90.0
  0
INSERT
  5
1D16
330
1A99
100
AcDbEntity
  8
0
 62
     0
370
    -2
100
AcDbBlockReference
  2
_Open30
 10
1418.731234470738
 20
221.6648194332492
 30
0.0
 41
2.5
 42
2.5
 43
2.5
 50
270.0
  0
MTEXT
  5
1D17
330
1A99
100
AcDbEntity
  8
0
 62
     4
100
AcDbMText
 10
1416.606234470738
 20
257.4584516226438
 30
0.0
 40
3.0
 41
0.0
 71
     5
 72
     1
  1
140
 11
0.0000000000000001
 21
1.0
 31
0.0
 73
     1
 44
1.0
1001
ACAD
1000
MTEXTBEGIN
1070
    73
1070
     1
1070
    44
1040
1.0
1070
    74
1070
     0
1000
MTEXTEND
  0
POINT
  5
1D18
330
1A99
100
AcDbEntity
  8
Defpoints
 62
     0
100
AcDbPoint
 10
1457.358843451067
 20
291.6648194332491
 30
0.0
  0
POINT
  5
1D19
330
1A99
100
AcDbEntity
  8
Defpoints
 62
     0
100
AcDbPoint
 10
1457.358843451067
 20
221.6648194332492
 30
0.0
  0
POINT
  5
1D1A
330
1A99
100
AcDbEntity
  8
Defpoints
 62
     0
100
AcDbPoint
 10
1418.731234470738
 20
221.6648194332492
 30
0.0
  0
ENDBLK
  5
1A9B
330
1A99
100
AcDbEntity
  8
0
100
AcDbBlockEnd
  0
BLOCK
  5
1AA6
330
1AA5
100
AcDbEntity
  8
0
100
AcDbBlockBegin
  2
*D23
 70
     1
 10
0.0
 20
0.0
 30
0.0
  3
*D23
  1

  0
LINE
  5
1D00
330
1AA5
100
AcDbEntity
  8
0
 62
     0
370
    -2
100
AcDbLine
 10
1427.358843451067
 20
225.4148194332491
 30
0.0
 11
1427.358843451067
 21
205.7488219651361
 31
0.0
  0
LINE
  5
1D01
330
1AA5
100
AcDbEntity
  8
0
 62
     0
370
    -2
100
AcDbLine
 10
1487.358843451067
 20
225.4148194332492
 30
0.0
 11
1487.358843451067
 21
205.7488219651361
 31
0.0
  0
LINE
  5
1D02
330
1AA5
100
AcDbEntity
  8
0
 62
     0
370
    -2
100
AcDbLine
 10
1429.858843451067
 20
206.9988219651361
 30
0.0
 11
1484.858843451067
 21
206.9988219651361
 31
0.0
  0
INSERT
  5
1D03
330
1AA5
100
AcDbEntity
  8
0
 62
     0
370
    -2
100
AcDbBlockReference
  2
_Open30
 10
1427.358843451067
 20
206.9988219651361
 30
0.0
 41
2.5
 42
2.5
 43
2.5
 50
180.0
  0
INSERT
  5
1D04
330
1AA5
100
AcDbEntity
  8
0
 62
     0
370
    -2
100
AcDbBlockReference
  2
_Open30
 10
1487.358843451067
 20
206.9988219651361
 30
0.0
 41
2.5
 42
2.5
 43
2.5
  0
MTEXT
  5
1D05
330
1AA5
100
AcDbEntity
  8
0
 62
     4
100
AcDbMText
 10
1457.483520559265
 20
209.1238219651361
 30
0.0
 40
3.0
 41
0.0
 71
     5
 72
     1
  1
%%C120
 73
     1
 44
1.0
1001
ACAD
1000
MTEXTBEGIN
1070
    73
1070
     1
1070
    44
1040
1.0
1070
    74
1070
     0
1000
MTEXTEND
  0
POINT
  5
1D06
330
1AA5
100
AcDbEntity
  8
Defpoints
 62
     0
100
AcDbPoint
 10
1427.358843451067
 20
225.6648194332491
 30
0.0
  0
POINT
  5
1D07
330
1AA5
100
AcDbEntity
  8
Defpoints
 62
     0
100
AcDbPoint
 10
1487.358843451067
 20
225.6648194332492
 30
0.0
  0
POINT
  5
1D08
330
1AA5
100
AcDbEntity
  8
Defpoints
 62
     0
100
AcDbPoint
 10
1487.358843451067
 20
206.9988219651361
 30
0.0
  0
ENDBLK
  5
1AA7
330
1AA5
100
AcDbEntity
  8
0
100
AcDbBlockEnd
  0
BLOCK
  5
1E50
330
1E4F
100
AcDbEntity
  8
0
100
AcDbBlockBegin
  2
*D24
 70
     1
 10
0.0
 20
0.0
 30
0.0
  3
*D24
  1

  0
LINE
  5
2472
330
1E4F
100
AcDbEntity
  8
0
 62
     0
370
    -2
100
AcDbLine
 10
1698.290244077267
 20
285.9746279332489
 30
0.0
 11
1698.290244077267
 21
300.9483767856327
 31
0.0
  0
LINE
  5
2473
330
1E4F
100
AcDbEntity
  8
0
 62
     0
370
    -2
100
AcDbLine
 10
1685.294764037091
 20
287.0052566338907
 30
0.0
 11
1685.294764037091
 21
300.9483767856327
 31
0.0
  0
LINE
  5
2474
330
1E4F
100
AcDbEntity
  8
0
 62
     0
370
    -2
100
AcDbLine
 10
1695.790244077267
 20
299.6983767856327
 30
0.0
 11
1687.794764037091
 21
299.6983767856327
 31
0.0
  0
INSERT
  5
2475
330
1E4F
100
AcDbEntity
  8
0
 62
     0
370
    -2
100
AcDbBlockReference
  2
_Open30
 10
1698.290244077267
 20
299.6983767856327
 30
0.0
 41
2.5
 42
2.5
 43
2.5
  0
INSERT
  5
2476
330
1E4F
100
AcDbEntity
  8
0
 62
     0
370
    -2
100
AcDbBlockReference
  2
_Open30
 10
1685.294764037091
 20
299.6983767856327
 30
0.0
 41
2.5
 42
2.5
 43
2.5
 50
180.0
  0
MTEXT
  5
2477
330
1E4F
100
AcDbEntity
  8
0
 62
     4
100
AcDbMText
 10
1692.115270041602
 20
301.8233767856327
 30
0.0
 40
3.0
 41
0.0
 71
     5
 72
     1
  1
E26
 73
     1
 44
1.0
1001
ACAD
1000
MTEXTBEGIN
1070
    73
1070
     1
1070
    44
1040
1.0
1070
    74
1070
     0
1000
MTEXTEND
  0
POINT
  5
2478
330
1E4F
100
AcDbEntity
  8
Defpoints
 62
     0
100
AcDbPoint
 10
1698.290244077267
 20
285.7246279332489
 30
0.0
  0
POINT
  5
2479
330
1E4F
100
AcDbEntity
  8
Defpoints
 62
     0
100
AcDbPoint
 10
1685.294764037091
 20
286.7552566338907
 30
0.0
  0
POINT
  5
247A
330
1E4F
100
AcDbEntity
  8
Defpoints
 62
     0
100
AcDbPoint
 10
1685.294764037091
 20
299.6983767856327
 30
0.0
  0
ENDBLK
  5
1E51
330
1E4F
100
AcDbEntity
  8
0
100
AcDbBlockEnd
  0
BLOCK
  5
1E5C
330
1E5B
100
AcDbEntity
  8
0
100
AcDbBlockBegin
  2
*D25
 70
     1
 10
0.0
 20
0.0
 30
0.0
  3
*D25
  1

  0
LINE
  5
247B
330
1E5B
100
AcDbEntity
  8
0
 62
     0
370
    -2
100
AcDbLine
 10
1704.793253327267
 20
263.6342167447241
 30
0.0
 11
1704.793253327267
 21
308.0479012507659
 31
0.0
  0
LINE
  5
247C
330
1E5B
100
AcDbEntity
  8
0
 62
     0
370
    -2
100
AcDbLine
 10
1678.793253327268
 20
263.634216744724
 30
0.0
 11
1678.793253327268
 21
308.0479012507659
 31
0.0
  0
LINE
  5
247D
330
1E5B
100
AcDbEntity
  8
0
 62
     0
370
    -2
100
AcDbLine
 10
1702.293253327267
 20
306.7979012507659
 30
0.0
 11
1681.293253327268
 21
306.7979012507659
 31
0.0
  0
INSERT
  5
247E
330
1E5B
100
AcDbEntity
  8
0
 62
     0
370
    -2
100
AcDbBlockReference
  2
_Open30
 10
1704.793253327267
 20
306.7979012507659
 30
0.0
 41
2.5
 42
2.5
 43
2.5
  0
INSERT
  5
247F
330
1E5B
100
AcDbEntity
  8
0
 62
     0
370
    -2
100
AcDbBlockReference
  2
_Open30
 10
1678.793253327268
 20
306.7979012507659
 30
0.0
 41
2.5
 42
2.5
 43
2.5
 50
180.0
  0
MTEXT
  5
2480
330
1E5B
100
AcDbEntity
  8
0
 62
     4
100
AcDbMText
 10
1691.84414927524
 20
308.9229012507659
 30
0.0
 40
3.0
 41
0.0
 71
     5
 72
     1
  1
%%C52
 73
     1
 44
1.0
1001
ACAD
1000
MTEXTBEGIN
1070
    73
1070
     1
1070
    44
1040
1.0
1070
    74
1070
     0
1000
MTEXTEND
  0
POINT
  5
2481
330
1E5B
100
AcDbEntity
  8
Defpoints
 62
     0
100
AcDbPoint
 10
1704.793253327267
 20
263.3842167447241
 30
0.0
  0
POINT
  5
2482
330
1E5B
100
AcDbEntity
  8
Defpoints
 62
     0
100
AcDbPoint
 10
1678.793253327268
 20
263.384216744724
 30
0.0
  0
POINT
  5
2483
330
1E5B
100
AcDbEntity
  8
Defpoints
 62
     0
100
AcDbPoint
 10
1678.793253327268
 20
306.7979012507659
 30
0.0
  0
ENDBLK
  5
1E5D
330
1E5B
100
AcDbEntity
  8
0
100
AcDbBlockEnd
  0
BLOCK
  5
1E68
330
1E67
100
AcDbEntity
  8
0
100
AcDbBlockBegin
  2
*D26
 70
     1
 10
0.0
 20
0.0
 30
0.0
  3
*D26
  1

  0
LINE
  5
2484
330
1E67
100
AcDbEntity
  8
0
 62
     0
370
    -2
100
AcDbLine
 10
1691.543253327267
 20
291.6648194332491
 30
0.0
 11
1658.890548899515
 21
291.6648194332492
 31
0.0
  0
LINE
  5
2485
330
1E67
100
AcDbEntity
  8
0
 62
     0
370
    -2
100
AcDbLine
 10
1678.543253327268
 20
255.9148194332491
 30
0.0
 11
1658.890548899515
 21
255.9148194332491
 31
0.0
  0
LINE
  5
2486
330
1E67
100
AcDbEntity
  8
0
 62
     0
370
    -2
100
AcDbLine
 10
1660.140548899515
 20
289.1648194332492
 30
0.0
 11
1660.140548899515
 21
258.4148194332491
 31
0.0
  0
INSERT
  5
2487
330
1E67
100
AcDbEntity
  8
0
 62
     0
370
    -2
100
AcDbBlockReference
  2
_Open30
 10
1660.140548899515
 20
291.6648194332492
 30
0.0
 41
2.5
 42
2.5
 43
2.5
 50
90.0
  0
INSERT
  5
2488
330
1E67
100
AcDbEntity
  8
0
 62
     0
370
    -2
100
AcDbBlockReference
  2
_Open30
 10
1660.140548899515
 20
255.9148194332491
 30
0.0
 41
2.5
 42
2.5
 43
2.5
 50
270.0
  0
MTEXT
  5
2489
330
1E67
100
AcDbEntity
  8
0
 62
     4
100
AcDbMText
 10
1658.015548899515
 20
274.5523618610486
 30
0.0
 40
3.0
 41
0.0
 71
     5
 72
     1
  1
71.5
 11
0.0000000000000001
 21
1.0
 31
0.0
 73
     1
 44
1.0
1001
ACAD
1000
MTEXTBEGIN
1070
    73
1070
     1
1070
    44
1040
1.0
1070
    74
1070
     0
1000
MTEXTEND
  0
POINT
  5
248A
330
1E67
100
AcDbEntity
  8
Defpoints
 62
     0
100
AcDbPoint
 10
1691.793253327267
 20
291.6648194332491
 30
0.0
  0
POINT
  5
248B
330
1E67
100
AcDbEntity
  8
Defpoints
 62
     0
100
AcDbPoint
 10
1678.793253327268
 20
255.9148194332491
 30
0.0
  0
POINT
  5
248C
330
1E67
100
AcDbEntity
  8
Defpoints
 62
     0
100
AcDbPoint
 10
1660.140548899515
 20
255.9148194332491
 30
0.0
  0
ENDBLK
  5
1E69
330
1E67
100
AcDbEntity
  8
0
100
AcDbBlockEnd
  0
BLOCK
  5
1E74
330
1E73
100
AcDbEntity
  8
0
100
AcDbBlockBegin
  2
*D27
 70
     1
 10
0.0
 20
0.0
 30
0.0
  3
*D27
  1

  0
LINE
  5
248D
330
1E73
100
AcDbEntity
  8
0
 62
     0
370
    -2
100
AcDbLine
 10
1691.543253327267
 20
291.6648194332491
 30
0.0
 11
1651.915644346939
 21
291.6648194332492
 31
0.0
  0
LINE
  5
248E
330
1E73
100
AcDbEntity
  8
0
 62
     0
370
    -2
100
AcDbLine
 10
1691.543253327267
 20
221.6648194332492
 30
0.0
 11
1651.915644346939
 21
221.6648194332492
 31
0.0
  0
LINE
  5
248F
330
1E73
100
AcDbEntity
  8
0
 62
     0
370
    -2
100
AcDbLine
 10
1653.165644346939
 20
289.1648194332492
 30
0.0
 11
1653.165644346939
 21
224.1648194332492
 31
0.0
  0
INSERT
  5
2490
330
1E73
100
AcDbEntity
  8
0
 62
     0
370
    -2
100
AcDbBlockReference
  2
_Open30
 10
1653.165644346939
 20
291.6648194332492
 30
0.0
 41
2.5
 42
2.5
 43
2.5
 50
90.0
  0
INSERT
  5
2491
330
1E73
100
AcDbEntity
  8
0
 62
     0
370
    -2
100
AcDbBlockReference
  2
_Open30
 10
1653.165644346939
 20
221.6648194332492
 30
0.0
 41
2.5
 42
2.5
 43
2.5
 50
270.0
  0
MTEXT
  5
2492
330
1E73
100
AcDbEntity
  8
0
 62
     4
100
AcDbMText
 10
1651.040644346939
 20
257.4584516226438
 30
0.0
 40
3.0
 41
0.0
 71
     5
 72
     1
  1
140
 11
0.0000000000000001
 21
1.0
 31
0.0
 73
     1
 44
1.0
1001
ACAD
1000
MTEXTBEGIN
1070
    73
1070
     1
1070
    44
1040
1.0
1070
    74
1070
     0
1000
MTEXTEND
  0
POINT
  5
2493
330
1E73
100
AcDbEntity
  8
Defpoints
 62
     0
100
AcDbPoint
 10
1691.793253327267
 20
291.6648194332491
 30
0.0
  0
POINT
  5
2494
330
1E73
100
AcDbEntity
  8
Defpoints
 62
     0
100
AcDbPoint
 10
1691.793253327267
 20
221.6648194332492
 30
0.0
  0
POINT
  5
2495
330
1E73
100
AcDbEntity
  8
Defpoints
 62
     0
100
AcDbPoint
 10
1653.165644346939
 20
221.6648194332492
 30
0.0
  0
ENDBLK
  5
1E75
330
1E73
100
AcDbEntity
  8
0
100
AcDbBlockEnd
  0
BLOCK
  5
1E80
330
1E7F
100
AcDbEntity
  8
0
100
AcDbBlockBegin
  2
*D28
 70
     1
 10
0.0
 20
0.0
 30
0.0
  3
*D28
  1

  0
LINE
  5
2496
330
1E7F
100
AcDbEntity
  8
0
 62
     0
370
    -2
100
AcDbLine
 10
1661.793253327267
 20
225.4148194332491
 30
0.0
 11
1661.793253327267
 21
205.7488219651361
 31
0.0
  0
LINE
  5
2497
330
1E7F
100
AcDbEntity
  8
0
 62
     0
370
    -2
100
AcDbLine
 10
1721.793253327267
 20
225.4148194332492
 30
0.0
 11
1721.793253327267
 21
205.7488219651361
 31
0.0
  0
LINE
  5
2498
330
1E7F
100
AcDbEntity
  8
0
 62
     0
370
    -2
100
AcDbLine
 10
1664.293253327267
 20
206.9988219651361
 30
0.0
 11
1719.293253327267
 21
206.9988219651361
 31
0.0
  0
INSERT
  5
2499
330
1E7F
100
AcDbEntity
  8
0
 62
     0
370
    -2
100
AcDbBlockReference
  2
_Open30
 10
1661.793253327267
 20
206.9988219651361
 30
0.0
 41
2.5
 42
2.5
 43
2.5
 50
180.0
  0
INSERT
  5
249A
330
1E7F
100
AcDbEntity
  8
0
 62
     0
370
    -2
100
AcDbBlockReference
  2
_Open30
 10
1721.793253327267
 20
206.9988219651361
 30
0.0
 41
2.5
 42
2.5
 43
2.5
  0
MTEXT
  5
249B
330
1E7F
100
AcDbEntity
  8
0
 62
     4
100
AcDbMText
 10
1691.917930435466
 20
209.1238219651361
 30
0.0
 40
3.0
 41
0.0
 71
     5
 72
     1
  1
%%C120
 73
     1
 44
1.0
1001
ACAD
1000
MTEXTBEGIN
1070
    73
1070
     1
1070
    44
1040
1.0
1070
    74
1070
     0
1000
MTEXTEND
  0
POINT
  5
249C
330
1E7F
100
AcDbEntity
  8
Defpoints
 62
     0
100
AcDbPoint
 10
1661.793253327267
 20
225.6648194332491
 30
0.0
  0
POINT
  5
249D
330
1E7F
100
AcDbEntity
  8
Defpoints
 62
     0
100
AcDbPoint
 10
1721.793253327267
 20
225.6648194332492
 30
0.0
  0
POINT
  5
249E
330
1E7F
100
AcDbEntity
  8
Defpoints
 62
     0
100
AcDbPoint
 10
1721.793253327267
 20
206.9988219651361
 30
0.0
  0
ENDBLK
  5
1E81
330
1E7F
100
AcDbEntity
  8
0
100
AcDbBlockEnd
  0
ENDSEC
  0
SECTION
  2
ENTITIES
  0
LINE
  5
1D77
330
1F
100
AcDbEntity
  8
0
100
AcDbLine
 10
1697.459920077267
 20
282.6372194332488
 30
0.0
 11
1697.459920077267
 21
282.8120369332491
 31
0.0
  0
LINE
  5
1D78
330
1F
100
AcDbEntity
  8
0
100
AcDbLine
 10
1697.459920077267
 20
284.637219433249
 30
0.0
 11
1697.459920077267
 21
284.8120369332491
 31
0.0
  0
LINE
  5
1D79
330
1F
100
AcDbEntity
  8
0
100
AcDbLine
 10
1697.459920077267
 20
286.637219433249
 30
0.0
 11
1697.459920077267
 21
286.8120369332491
 31
0.0
  0
LINE
  5
1D7A
330
1F
100
AcDbEntity
  8
0
100
AcDbLine
 10
1686.126586577267
 20
281.6012399332489
 30
0.0
 11
1686.126586577267
 21
281.811830933249
 31
0.0
  0
LINE
  5
1D7B
330
1F
100
AcDbEntity
  8
0
100
AcDbLine
 10
1686.126586577267
 20
283.637424933249
 30
0.0
 11
1686.126586577267
 21
283.811830933249
 31
0.0
  0
LINE
  5
1D7C
330
1F
100
AcDbEntity
  8
0
100
AcDbLine
 10
1686.126586577267
 20
285.637424933249
 30
0.0
 11
1686.126586577267
 21
285.811830933249
 31
0.0
  0
LINE
  5
1D7D
330
1F
100
AcDbEntity
  8
0
100
AcDbLine
 10
1689.043253327267
 20
290.414819433249
 30
0.0
 11
1687.793253327267
 21
288.414819433249
 31
0.0
  0
LINE
  5
1D7E
330
1F
100
AcDbEntity
  8
0
100
AcDbLine
 10
1694.543253327267
 20
290.414819433249
 30
0.0
 11
1695.793253327267
 21
288.414819433249
 31
0.0
  0
ARC
  5
1D7F
330
1F
100
AcDbEntity
  8
0
100
AcDbCircle
 10
1697.623577577268
 20
285.7246279332489
 30
0.0
 40
0.6666665
100
AcDbArc
 50
275.4047929999874
 51
84.59520700001254
  0
ARC
  5
1D80
330
1F
100
AcDbEntity
  8
0
100
AcDbCircle
 10
1697.709920077268
 20
286.637219433249
 30
0.0
 40
0.25
100
AcDbArc
 50
180.0
 51
264.5952070000126
  0
ARC
  5
1D81
330
1F
100
AcDbEntity
  8
0
100
AcDbCircle
 10
1697.709920077268
 20
284.8120369332491
 30
0.0
 40
0.25
100
AcDbArc
 50
95.40479299998748
 51
180.0
  0
ARC
  5
1D82
330
1F
100
AcDbEntity
  8
0
100
AcDbCircle
 10
1685.960726577268
 20
286.7246279332489
 30
0.0
 40
0.6666665
100
AcDbArc
 50
90.0
 51
264.7334589999874
  0
ARC
  5
1D83
330
1F
100
AcDbEntity
  8
0
100
AcDbCircle
 10
1685.876586577268
 20
285.811830933249
 30
0.0
 40
0.25
100
AcDbArc
 50
0.0
 51
84.7334589999874
  0
ARC
  5
1D84
330
1F
100
AcDbEntity
  8
0
100
AcDbCircle
 10
1685.960726577268
 20
284.7246279332489
 30
0.0
 40
0.6666665
100
AcDbArc
 50
95.26654100001259
 51
264.7334589999874
  0
ARC
  5
1D85
330
1F
100
AcDbEntity
  8
0
100
AcDbCircle
 10
1685.876586577268
 20
285.637424933249
 30
0.0
 40
0.25
100
AcDbArc
 50
275.2665410000126
 51
0.0
  0
ARC
  5
1D86
330
1F
100
AcDbEntity
  8
0
100
AcDbCircle
 10
1685.876586577268
 20
283.811830933249
 30
0.0
 40
0.25
100
AcDbArc
 50
0.0
 51
84.7334589999874
  0
ARC
  5
1D87
330
1F
100
AcDbEntity
  8
0
100
AcDbCircle
 10
1685.960726577268
 20
282.7246279332489
 30
0.0
 40
0.6666665
100
AcDbArc
 50
95.26654100001259
 51
264.7334589999874
  0
ARC
  5
1D88
330
1F
100
AcDbEntity
  8
0
100
AcDbCircle
 10
1685.876586577268
 20
283.637424933249
 30
0.0
 40
0.25
100
AcDbArc
 50
275.2665410000126
 51
0.0
  0
ARC
  5
1D89
330
1F
100
AcDbEntity
  8
0
100
AcDbCircle
 10
1685.876586577268
 20
281.811830933249
 30
0.0
 40
0.25
100
AcDbArc
 50
0.0
 51
84.7334589999874
  0
ARC
  5
1D8A
330
1F
100
AcDbEntity
  8
0
100
AcDbCircle
 10
1685.876586577268
 20
281.6012399332489
 30
0.0
 40
0.25
100
AcDbArc
 50
273.184862999998
 51
0.0
  0
ARC
  5
1D8B
330
1F
100
AcDbEntity
  8
0
100
AcDbCircle
 10
1697.709920077268
 20
282.6372194332488
 30
0.0
 40
0.25
100
AcDbArc
 50
180.0
 51
264.5952070000126
  0
ARC
  5
1D8C
330
1F
100
AcDbEntity
  8
0
100
AcDbCircle
 10
1697.623577577268
 20
283.7246279332489
 30
0.0
 40
0.6666665
100
AcDbArc
 50
275.4047929999874
 51
84.59520700001254
  0
ARC
  5
1D8D
330
1F
100
AcDbEntity
  8
0
100
AcDbCircle
 10
1697.709920077268
 20
284.637219433249
 30
0.0
 40
0.25
100
AcDbArc
 50
180.0
 51
264.5952070000126
  0
ARC
  5
1D8E
330
1F
100
AcDbEntity
  8
0
100
AcDbCircle
 10
1697.709920077268
 20
282.8120369332491
 30
0.0
 40
0.25
100
AcDbArc
 50
95.40479299998748
 51
180.0
  0
LINE
  5
1D8F
330
1F
100
AcDbEntity
  8
0
100
AcDbLine
 10
1685.901702577268
 20
281.3520189332491
 30
0.0
 11
1697.564553577268
 21
282.388676433249
 31
0.0
  0
LINE
  5
1D90
330
1F
100
AcDbEntity
  8
0
100
AcDbLine
 10
1686.017679077268
 20
282.060398433249
 30
0.0
 11
1697.680530577268
 21
283.060398433249
 31
0.0
  0
LINE
  5
1D91
330
1F
100
AcDbEntity
  8
0
100
AcDbLine
 10
1685.903774077267
 20
283.388857433249
 30
0.0
 11
1697.566625077267
 21
284.388857433249
 31
0.0
  0
LINE
  5
1D92
330
1F
100
AcDbEntity
  8
0
100
AcDbLine
 10
1686.017679077268
 20
284.060398433249
 30
0.0
 11
1697.680530577268
 21
285.060398433249
 31
0.0
  0
LINE
  5
1D93
330
1F
100
AcDbEntity
  8
0
100
AcDbLine
 10
1685.903774077267
 20
285.388857433249
 30
0.0
 11
1697.566625077267
 21
286.388857433249
 31
0.0
  0
LINE
  5
1D94
330
1F
100
AcDbEntity
  8
0
100
AcDbLine
 10
1686.017679077268
 20
286.060398433249
 30
0.0
 11
1697.683136013672
 21
287.0606218294233
 31
0.0
  0
LINE
  5
1D95
330
1F
100
AcDbEntity
  8
0
100
AcDbLine
 10
1697.793253577267
 20
278.164819433249
 30
0.0
 11
1697.793253577267
 21
280.414819433249
 31
0.0
  0
LINE
  5
1D96
330
1F
100
AcDbEntity
  8
0
100
AcDbLine
 10
1685.793253577267
 20
278.164819433249
 30
0.0
 11
1685.793253577267
 21
280.414819433249
 31
0.0
  0
ARC
  5
1D97
330
1F
100
AcDbEntity
  8
0
100
AcDbCircle
 10
1697.623577577268
 20
281.7064849332489
 30
0.0
 40
0.6666665
100
AcDbArc
 50
275.4047929999874
 51
84.59520700001254
  0
LINE
  5
1D98
330
1F
100
AcDbEntity
  8
0
100
AcDbLine
 10
1690.362837683514
 20
280.414819433249
 30
0.0
 11
1697.680530577268
 21
281.042255433249
 31
0.0
  0
LINE
  5
1D99
330
1F
100
AcDbEntity
  8
0
  6
CENTER
100
AcDbLine
 10
1691.793253327267
 20
212.3758813957118
 30
0.0
 11
1691.793253327267
 21
295.5821434222145
 31
0.0
  0
LINE
  5
1D9A
330
1F
100
AcDbEntity
  8
0
100
AcDbLine
 10
1687.293253327268
 20
226.664819433249
 30
0.0
 11
1687.293253327268
 21
227.664819433249
 31
0.0
  0
LINE
  5
1D9B
330
1F
100
AcDbEntity
  8
0
100
AcDbLine
 10
1688.293253327267
 20
226.664819433249
 30
0.0
 11
1688.293253327267
 21
227.664819433249
 31
0.0
  0
LINE
  5
1D9C
330
1F
100
AcDbEntity
  8
0
100
AcDbLine
 10
1696.293253327268
 20
226.664819433249
 30
0.0
 11
1696.293253327268
 21
227.664819433249
 31
0.0
  0
LINE
  5
1D9D
330
1F
100
AcDbEntity
  8
0
100
AcDbLine
 10
1695.293253327267
 20
226.664819433249
 30
0.0
 11
1695.293253327267
 21
227.664819433249
 31
0.0
  0
LINE
  5
1D9E
330
1F
100
AcDbEntity
  8
0
 62
     3
100
AcDbLine
 10
1678.793253327268
 20
255.9148192031605
 30
0.0
 11
1678.793253327268
 21
263.384216744724
 31
0.0
  0
ARC
  5
1D9F
330
1F
100
AcDbEntity
  8
0
 62
     3
100
AcDbCircle
 10
1688.793253327267
 20
263.384216744724
 30
0.0
 40
10.0
100
AcDbArc
 50
168.2317110679798
 51
180.0
  0
LINE
  5
1DA0
330
1F
100
AcDbEntity
  8
0
 62
     3
100
AcDbLine
 10
1704.793253327267
 20
255.914819433249
 30
0.0
 11
1704.793253327267
 21
263.3842167447241
 31
0.0
  0
ARC
  5
1DA1
330
1F
100
AcDbEntity
  8
0
 62
     3
100
AcDbCircle
 10
1694.793253327268
 20
263.3842167447241
 30
0.0
 40
10.0
100
AcDbArc
 50
0.0
 51
11.76828893202017
  0
LINE
  5
1DA2
330
1F
100
AcDbEntity
  8
0
 62
     3
100
AcDbLine
 10
1661.793253327267
 20
225.6648194332491
 30
0.0
 11
1661.793253327267
 21
227.6648194332491
 31
0.0
  0
LINE
  5
1DA3
330
1F
100
AcDbEntity
  8
0
 62
     3
100
AcDbLine
 10
1721.793253327267
 20
225.6648194332491
 30
0.0
 11
1721.793253327267
 21
227.6648194332491
 31
0.0
  0
LINE
  5
1DA4
330
1F
100
AcDbEntity
  8
0
100
AcDbLine
 10
1685.793253577267
 20
280.414819433249
 30
0.0
 11
1697.793253577267
 21
280.414819433249
 31
0.0
  0
ARC
  5
1DA5
330
1F
100
AcDbEntity
  8
0
100
AcDbCircle
 10
1685.989855041889
 20
280.8766213459954
 30
0.0
 40
0.501909496331008
100
AcDbArc
 50
100.3671454662602
 51
246.9392441098635
  0
ARC
  5
1DA6
330
1F
100
AcDbEntity
  8
0
100
AcDbCircle
 10
1698.000659630761
 20
280.7759250073321
 30
0.0
 40
0.4164306744936348
100
AcDbArc
 50
140.2413360786358
 51
240.1284900251087
  0
LINE
  5
1DA7
330
1F
100
AcDbEntity
  8
0
 62
     3
100
AcDbLine
 10
1721.793253327267
 20
227.6648194332491
 30
0.0
 11
1661.793253327267
 21
227.6648194332491
 31
0.0
  0
LINE
  5
1DA8
330
1F
100
AcDbEntity
  8
0
100
AcDbLine
 10
1696.293253327268
 20
226.664819433249
 30
0.0
 11
1695.293253327267
 21
226.664819433249
 31
0.0
  0
LINE
  5
1DA9
330
1F
100
AcDbEntity
  8
0
100
AcDbLine
 10
1688.293253327267
 20
226.664819433249
 30
0.0
 11
1687.293253327268
 21
226.664819433249
 31
0.0
  0
LINE
  5
1DAA
330
1F
100
AcDbEntity
  8
0
100
AcDbLine
 10
1721.793253327267
 20
225.6648194332491
 30
0.0
 11
1661.793253327267
 21
225.6648194332491
 31
0.0
  0
LINE
  5
1DAB
330
1F
100
AcDbEntity
  8
0
100
AcDbLine
 10
1704.793253327267
 20
255.914819433249
 30
0.0
 11
1678.793253327268
 21
255.914819433249
 31
0.0
  0
LINE
  5
1DAC
330
1F
100
AcDbEntity
  8
0
 62
     3
100
AcDbLine
 10
1680.043253327268
 20
270.414819433249
 30
0.0
 11
1703.543253327267
 21
270.414819433249
 31
0.0
  0
LINE
  5
1DAD
330
1F
100
AcDbEntity
  8
0
100
AcDbLine
 10
1701.793253327268
 20
273.164819433249
 30
0.0
 11
1681.793253327267
 21
273.164819433249
 31
0.0
  0
LINE
  5
1DAE
330
1F
100
AcDbEntity
  8
0
 62
     3
100
AcDbLine
 10
1698.793253327268
 20
278.164819433249
 30
0.0
 11
1684.793253827268
 21
278.164819433249
 31
0.0
  0
LINE
  5
1DAF
330
1F
100
AcDbEntity
  8
0
100
AcDbLine
 10
1687.066778327267
 20
288.414819433249
 30
0.0
 11
1696.519728327268
 21
288.414819433249
 31
0.0
  0
LINE
  5
1DB0
330
1F
100
AcDbEntity
  8
0
100
AcDbLine
 10
1689.043253327267
 20
290.414819433249
 30
0.0
 11
1694.543253327267
 21
290.414819433249
 31
0.0
  0
ARC
  5
1DB1
330
1F
100
AcDbEntity
  8
0
 62
     3
100
AcDbCircle
 10
1691.793253327267
 20
336.1648194332492
 30
0.0
 40
114.5
100
AcDbArc
 50
254.8107132628145
 51
285.1892867371855
  0
ARC
  5
1DB2
330
1F
100
AcDbEntity
  8
0
 62
     3
100
AcDbCircle
 10
1686.799301714365
 20
227.6648194332491
 30
0.0
 40
33.49395161290321
100
AcDbArc
 50
0.0
 51
57.50473685443296
  0
ARC
  5
1DB3
330
1F
100
AcDbEntity
  8
0
 62
     3
100
AcDbCircle
 10
1696.787205440171
 20
227.6648195216376
 30
0.0
 40
33.4939516129032
100
AcDbArc
 50
122.4952641596617
 51
180.0000010140841
  0
LINE
  5
1DB4
330
1F
100
AcDbEntity
  8
0
 62
     3
100
AcDbLine
 10
1680.043253327268
 20
270.414819433249
 30
0.0
 11
1679.003449129892
 21
265.423759285844
 31
0.0
  0
LINE
  5
1DB5
330
1F
100
AcDbEntity
  8
0
 62
     3
100
AcDbLine
 10
1703.543253327267
 20
270.414819433249
 30
0.0
 11
1704.583057524644
 21
265.4237592858441
 31
0.0
  0
LINE
  5
1DB6
330
1F
100
AcDbEntity
  8
0
 62
     3
100
AcDbLine
 10
1701.793253327268
 20
273.164819433249
 30
0.0
 11
1703.293253327268
 21
270.414819433249
 31
0.0
  0
LINE
  5
1DB7
330
1F
100
AcDbEntity
  8
0
 62
     3
100
AcDbLine
 10
1681.793253327267
 20
273.164819433249
 30
0.0
 11
1680.293253327268
 21
270.414819433249
 31
0.0
  0
ARC
  5
1DB8
330
1F
100
AcDbEntity
  8
0
 62
     3
100
AcDbCircle
 10
1704.459919993935
 20
278.164819433249
 30
0.0
 40
5.666666666666662
100
AcDbArc
 50
180.0
 51
241.9275130641453
  0
ARC
  5
1DB9
330
1F
100
AcDbEntity
  8
0
 62
     3
100
AcDbCircle
 10
1679.126587160601
 20
278.164819433249
 30
0.0
 40
5.666666666666662
100
AcDbArc
 50
298.0724869358547
 51
0.0
  0
LINE
  5
1DBA
330
1F
100
AcDbEntity
  8
0
100
AcDbLine
 10
1692.043253327268
 20
278.164819433249
 30
0.0
 11
1691.793253327267
 21
273.6476889010913
 31
0.0
  0
LINE
  5
1DBB
330
1F
100
AcDbEntity
  8
0
100
AcDbLine
 10
1691.793253327267
 20
273.6476889010913
 30
0.0
 11
1691.549327055584
 21
278.164819433249
 31
0.0
  0
ARC
  5
1DBC
330
1F
100
AcDbEntity
  8
0
100
AcDbCircle
 10
1714.118172579423
 20
277.9072278598773
 30
0.0
 40
19.92731751975376
100
AcDbArc
 50
179.2593423056545
 51
192.3424231578484
  0
ARC
  5
1DBD
330
1F
100
AcDbEntity
  8
0
100
AcDbCircle
 10
1708.617241783739
 20
278.8919301743508
 30
0.0
 40
14.91798045617263
100
AcDbArc
 50
182.7937353524919
 51
200.5814324271033
  0
ARC
  5
1DBE
330
1F
100
AcDbEntity
  8
0
100
AcDbCircle
 10
1711.263424268283
 20
278.8060462719353
 30
0.0
 40
17.39445926675154
100
AcDbArc
 50
182.1126220292434
 51
197.2506105654244
  0
LINE
  5
1DBF
330
1F
100
AcDbEntity
  8
0
100
AcDbLine
 10
1691.793253577268
 20
278.164819433249
 30
0.0
 11
1691.793253577268
 21
273.6476889010913
 31
0.0
  0
ARC
  5
1DC0
330
1F
100
AcDbEntity
  8
0
100
AcDbCircle
 10
1707.443125073541
 20
278.5812817775892
 30
0.0
 40
11.34291277088644
100
AcDbArc
 50
182.1041243495536
 51
205.7820728899889
  0
ARC
  5
1DC1
330
1F
100
AcDbEntity
  8
0
100
AcDbCircle
 10
1703.879677732398
 20
278.3098851711712
 30
0.0
 40
8.121761987813156
100
AcDbArc
 50
181.0234351305757
 51
215.0322583457064
  0
ARC
  5
1DC2
330
1F
100
AcDbEntity
  8
0
100
AcDbCircle
 10
1703.565522696069
 20
278.3035630238706
 30
0.0
 40
7.862844844862689
100
AcDbArc
 50
181.0110634149895
 51
216.3087378805444
  0
ARC
  5
1DC3
330
1F
100
AcDbEntity
  8
0
100
AcDbCircle
 10
1704.520199993143
 20
278.1605106699586
 30
0.0
 40
6.919621597226432
100
AcDbArc
 50
179.9643226202527
 51
220.7059807194076
  0
ARC
  5
1DC4
330
1F
100
AcDbEntity
  8
0
100
AcDbCircle
 10
1703.364460634755
 20
278.1205957680882
 30
0.0
 40
6.060800043928642
100
AcDbArc
 50
179.5819278255986
 51
227.5618342196153
  0
ARC
  5
1DC5
330
1F
100
AcDbEntity
  8
0
100
AcDbCircle
 10
1704.243459021377
 20
278.0468713452214
 30
0.0
 40
5.720238672478057
100
AcDbArc
 50
178.8185096825116
 51
230.2691716137109
  0
ARC
  5
1DC6
330
1F
100
AcDbEntity
  8
0
100
AcDbCircle
 10
1703.739285473761
 20
277.9970107545163
 30
0.0
 40
5.37143599817415
100
AcDbArc
 50
178.2097350248439
 51
234.0679056123387
  0
ARC
  5
1DC7
330
1F
100
AcDbEntity
  8
0
100
AcDbCircle
 10
1704.356363348234
 20
278.1186154699458
 30
0.0
 40
5.567577003477748
100
AcDbArc
 50
179.5245108456416
 51
233.4203452731003
  0
ARC
  5
1DC8
330
1F
100
AcDbEntity
  8
0
100
AcDbCircle
 10
1669.468334575112
 20
277.9072278598773
 30
0.0
 40
19.92731751975376
100
AcDbArc
 50
347.6575768421515
 51
0.7406576943455196
  0
ARC
  5
1DC9
330
1F
100
AcDbEntity
  8
0
100
AcDbCircle
 10
1674.969265370798
 20
278.8919301743508
 30
0.0
 40
14.91798045617263
100
AcDbArc
 50
339.4185675728967
 51
357.2062646475079
  0
ARC
  5
1DCA
330
1F
100
AcDbEntity
  8
0
100
AcDbCircle
 10
1672.323082886254
 20
278.8060462719353
 30
0.0
 40
17.39445926675154
100
AcDbArc
 50
342.7493894345756
 51
357.8873779707564
  0
ARC
  5
1DCB
330
1F
100
AcDbEntity
  8
0
100
AcDbCircle
 10
1676.143382080995
 20
278.5812817775892
 30
0.0
 40
11.34291277088644
100
AcDbArc
 50
334.217927110011
 51
357.8958756504461
  0
ARC
  5
1DCC
330
1F
100
AcDbEntity
  8
0
100
AcDbCircle
 10
1679.706829422137
 20
278.3098851711712
 30
0.0
 40
8.121761987813156
100
AcDbArc
 50
324.9677416542936
 51
358.9765648694276
  0
ARC
  5
1DCD
330
1F
100
AcDbEntity
  8
0
100
AcDbCircle
 10
1680.020984458467
 20
278.3035630238706
 30
0.0
 40
7.862844844862689
100
AcDbArc
 50
323.6912621194556
 51
358.9889365850102
  0
ARC
  5
1DCE
330
1F
100
AcDbEntity
  8
0
100
AcDbCircle
 10
1679.066307161394
 20
278.1605106699586
 30
0.0
 40
6.919621597226432
100
AcDbArc
 50
319.2940192805924
 51
0.0356773797472325
  0
ARC
  5
1DCF
330
1F
100
AcDbEntity
  8
0
100
AcDbCircle
 10
1680.222046519781
 20
278.1205957680882
 30
0.0
 40
6.060800043928642
100
AcDbArc
 50
312.4381657803847
 51
0.4180721744012577
  0
ARC
  5
1DD0
330
1F
100
AcDbEntity
  8
0
100
AcDbCircle
 10
1679.34304813316
 20
278.0468713452214
 30
0.0
 40
5.720238672478057
100
AcDbArc
 50
309.730828386289
 51
1.18149031748828
  0
ARC
  5
1DD1
330
1F
100
AcDbEntity
  8
0
100
AcDbCircle
 10
1679.847221680775
 20
277.9970107545163
 30
0.0
 40
5.37143599817415
100
AcDbArc
 50
305.9320943876613
 51
1.790264975156054
  0
ARC
  5
1DD2
330
1F
100
AcDbEntity
  8
0
100
AcDbCircle
 10
1679.230143806301
 20
278.1186154699458
 30
0.0
 40
5.567577003477748
100
AcDbArc
 50
306.5796547268996
 51
0.4754891543583217
  0
LINE
  5
1DD3
330
1F
100
AcDbEntity
  8
0
100
AcDbLine
 10
1685.960726577268
 20
287.391294433249
 30
0.0
 11
1697.66898565463
 21
287.391294433249
 31
0.0
  0
ARC
  5
1DD4
330
1F
100
AcDbEntity
  8
0
100
AcDbCircle
 10
1697.709920077268
 20
286.8120369332491
 30
0.0
 40
0.25
100
AcDbArc
 50
95.40479299998748
 51
180.0
  0
ARC
  5
1DD5
330
1F
100
AcDbEntity
  8
0
100
AcDbCircle
 10
1697.66898565463
 20
287.2256553656115
 30
0.0
 40
0.1656390676375283
100
AcDbArc
 50
274.9006872474581
 51
90.0
  0
ARC
  5
1DD6
330
1F
100
AcDbEntity
  8
0
100
AcDbCircle
 10
1696.519728327268
 20
287.391294433249
 30
0.0
 40
1.023525000000119
100
AcDbArc
 50
0.0
 51
90.0
  0
ARC
  5
1DD7
330
1F
100
AcDbEntity
  8
0
100
AcDbCircle
 10
1687.066778327267
 20
287.391294433249
 30
0.0
 40
1.023525000000119
100
AcDbArc
 50
90.0
 51
180.0
  0
ARC
  5
1DD8
330
1F
100
AcDbEntity
  8
0
100
AcDbCircle
 10
1691.793253327267
 20
288.0148194332491
 30
0.0
 40
3.650000000000004
100
AcDbArc
 50
41.11209043917073
 51
138.8879095608292
  0
CIRCLE
  5
1DD9
330
1F
100
AcDbEntity
  8
0
 62
     3
100
AcDbCircle
 10
1691.793253327267
 20
160.0953294343856
 30
0.0
 40
30.00000000000002
  0
CIRCLE
  5
1DDA
330
1F
100
AcDbEntity
  8
0
100
AcDbCircle
 10
1691.793253327267
 20
160.0953294343856
 30
0.0
 40
25.25
  0
CIRCLE
  5
1DDB
330
1F
100
AcDbEntity
  8
0
  6
HIDDEN
100
AcDbCircle
 10
1691.793253327267
 20
160.0953294343856
 30
0.0
 40
16.25
  0
LINE
  5
1DDC
330
1F
100
AcDbEntity
  8
0
  6
CENTER
 62
     7
100
AcDbLine
 10
1691.793253327267
 20
122.2203294343856
 30
0.0
 11
1691.793253327267
 21
197.9703294343855
 31
0.0
  0
LINE
  5
1DDD
330
1F
100
AcDbEntity
  8
0
  6
CENTER
 62
     7
100
AcDbLine
 10
1653.918253327267
 20
160.0953294343856
 30
0.0
 11
1729.668253327267
 21
160.0953294343856
 31
0.0
  0
LINE
  5
1DEA
330
1F
100
AcDbEntity
  8
0
100
AcDbLine
 10
1717.043253327268
 20
224.4836325663466
 30
0.0
 11
1666.543253327267
 21
224.4836325663465
 31
0.0
  0
LINE
  5
1DF4
330
1F
100
AcDbEntity
  8
0
 62
     7
100
AcDbLine
 10
1742.371518590448
 20
168.8716761670328
 30
0.0
 11
1818.271518590447
 21
168.8716761670328
 31
0.0
  0
LINE
  5
1DF5
330
1F
100
AcDbEntity
  8
0
 62
     7
100
AcDbLine
 10
1742.371518590448
 20
174.3716761670327
 30
0.0
 11
1818.271518590447
 21
174.3716761670327
 31
0.0
  0
LINE
  5
1DF6
330
1F
100
AcDbEntity
  8
0
 62
     7
100
AcDbLine
 10
1742.371518590448
 20
179.8716761670327
 30
0.0
 11
1818.271518590447
 21
179.8716761670327
 31
0.0
  0
LINE
  5
1DF7
330
1F
100
AcDbEntity
  8
0
 62
     7
100
AcDbLine
 10
1742.371518590448
 20
185.3716761670328
 30
0.0
 11
1818.271518590447
 21
185.3716761670328
 31
0.0
  0
LINE
  5
1DF8
330
1F
100
AcDbEntity
  8
0
 62
     7
100
AcDbLine
 10
1752.762509060116
 20
190.8716761670327
 30
0.0
 11
1818.271518590447
 21
190.8716761670327
 31
0.0
  0
LINE
  5
1DF9
330
1F
100
AcDbEntity
  8
0
 62
     7
100
AcDbLine
 10
1752.762509060116
 20
196.3716761670328
 30
0.0
 11
1818.271518590447
 21
196.3716761670328
 31
0.0
  0
LINE
  5
1DFA
330
1F
100
AcDbEntity
  8
0
 62
     7
100
AcDbLine
 10
1752.762509060116
 20
201.8716761670328
 30
0.0
 11
1818.271518590447
 21
201.8716761670328
 31
0.0
  0
LINE
  5
1DFB
330
1F
100
AcDbEntity
  8
0
 62
     7
100
AcDbLine
 10
1752.762509060116
 20
207.3716761670328
 30
0.0
 11
1818.271518590447
 21
207.3716761670328
 31
0.0
  0
LINE
  5
1DFC
330
1F
100
AcDbEntity
  8
0
 62
     7
100
AcDbLine
 10
1742.371518590448
 20
212.8716761670328
 30
0.0
 11
1818.271518590447
 21
212.8716761670328
 31
0.0
  0
LINE
  5
1DFD
330
1F
100
AcDbEntity
  8
0
 62
     7
100
AcDbLine
 10
1742.371518590448
 20
218.3716761670328
 30
0.0
 11
1818.271518590447
 21
218.3716761670328
 31
0.0
  0
LINE
  5
1DFE
330
1F
100
AcDbEntity
  8
0
 62
     7
100
AcDbLine
 10
1742.371518590448
 20
223.8716761670328
 30
0.0
 11
1818.271518590447
 21
223.8716761670328
 31
0.0
  0
LINE
  5
1DFF
330
1F
100
AcDbEntity
  8
0
 62
     7
100
AcDbLine
 10
1742.371518590448
 20
229.3716761670328
 30
0.0
 11
1818.271518590447
 21
229.3716761670328
 31
0.0
  0
LINE
  5
1E00
330
1F
100
AcDbEntity
  8
0
 62
     7
100
AcDbLine
 10
1742.371518590448
 20
234.8716761670328
 30
0.0
 11
1818.271518590447
 21
234.8716761670328
 31
0.0
  0
LINE
  5
1E01
330
1F
100
AcDbEntity
  8
0
 62
     7
100
AcDbLine
 10
1742.371518590448
 20
240.3716761670328
 30
0.0
 11
1818.271518590447
 21
240.3716761670328
 31
0.0
  0
LINE
  5
1E02
330
1F
100
AcDbEntity
  8
0
 62
     7
100
AcDbLine
 10
1742.371518590448
 20
245.8716761670328
 30
0.0
 11
1818.271518590447
 21
245.8716761670328
 31
0.0
  0
LINE
  5
1E03
330
1F
100
AcDbEntity
  8
0
 62
     7
100
AcDbLine
 10
1742.371518590448
 20
251.3716761670328
 30
0.0
 11
1818.271518590447
 21
251.3716761670328
 31
0.0
  0
TEXT
  5
1E04
330
1F
100
AcDbEntity
  8
0
 62
     3
100
AcDbText
 10
1765.320076258715
 20
164.3716761670328
 30
0.0
 40
3.2
  1
270g
 41
0.8
  7
高3.2
100
AcDbText
  0
TEXT
  5
1E05
330
1F
100
AcDbEntity
  8
0
 62
     3
100
AcDbText
 10
1743.871518590447
 20
164.3716761670328
 30
0.0
 40
3.2
  1
質　　　量
 41
0.8
  7
高3.2
100
AcDbText
  0
TEXT
  5
1E06
330
1F
100
AcDbEntity
  8
0
 62
     3
100
AcDbText
 10
1743.871518590447
 20
175.3716761670327
 30
0.0
 40
3.2
  1
球　寿　命
 41
0.8
  7
高3.2
100
AcDbText
  0
TEXT
  5
1E07
330
1F
100
AcDbEntity
  8
0
 62
     3
100
AcDbText
 10
1743.871518590447
 20
169.8716761670327
 30
0.0
 40
3.2
  1
使用環境温度
 41
0.8
  7
高3.2
100
AcDbText
  0
TEXT
  5
1E08
330
1F
100
AcDbEntity
  8
0
 62
     3
100
AcDbText
 10
1743.871518590447
 20
180.8716761670327
 30
0.0
 40
3.2
  1
本体防水規格
 41
0.8
  7
高3.2
100
AcDbText
  0
TEXT
  5
1E09
330
1F
100
AcDbEntity
  8
0
 62
     3
100
AcDbText
 10
1743.871518590447
 20
213.8716761670328
 30
0.0
 40
3.2
  1
固有エネルギー消費効率
 41
0.4
  7
高3.2
100
AcDbText
  0
TEXT
  5
1E0A
330
1F
100
AcDbEntity
  8
0
 62
     3
100
AcDbText
 10
1743.871518590447
 20
219.3716761670328
 30
0.0
 40
3.2
  1
定格消費電力
 41
0.8
  7
高3.2
100
AcDbText
  0
TEXT
  5
1E0B
330
1F
100
AcDbEntity
  8
0
 62
     3
100
AcDbText
 10
1743.871518590447
 20
224.8716761670328
 30
0.0
 40
3.2
  1
定格　電流
 41
0.8
  7
高3.2
100
AcDbText
  0
TEXT
  5
1E0C
330
1F
100
AcDbEntity
  8
0
 62
     3
100
AcDbText
 10
1743.871518590447
 20
230.3716761670328
 30
0.0
 40
3.2
  1
入力電圧範囲
 41
0.8
  7
高3.2
100
AcDbText
  0
TEXT
  5
1E0D
330
1F
100
AcDbEntity
  8
0
 62
     3
100
AcDbText
 10
1743.871518590447
 20
235.8716761670328
 30
0.0
 40
3.2
  1
周　波　数
 41
0.8
  7
高3.2
100
AcDbText
  0
TEXT
  5
1E0E
330
1F
100
AcDbEntity
  8
0
 62
     3
100
AcDbText
 10
1743.871518590447
 20
241.3716761670328
 30
0.0
 40
3.2
  1
定格　電圧
 41
0.8
  7
高3.2
100
AcDbText
  0
TEXT
  5
1E0F
330
1F
100
AcDbEntity
  8
0
 62
     3
100
AcDbText
 10
1743.871518590447
 20
246.8716761670328
 30
0.0
 40
3.2
  1
照射　角度
 41
0.8
  7
高3.2
100
AcDbText
  0
TEXT
  5
1E10
330
1F
100
AcDbEntity
  8
0
 62
     3
100
AcDbText
 10
1743.871518590447
 20
257.8716761670328
 30
0.0
 40
3.2
  1
色　温　度
 41
0.8
  7
高3.2
100
AcDbText
  0
TEXT
  5
1E11
330
1F
100
AcDbEntity
  8
0
 62
     3
100
AcDbText
 10
1743.871518590447
 20
263.3716761670328
 30
0.0
 40
3.2
  1
定格　光束
 41
0.8
  7
高3.2
100
AcDbText
  0
TEXT
  5
1E12
330
1F
100
AcDbEntity
  8
0
 62
     3
100
AcDbText
 10
1743.871518590447
 20
268.8716761670328
 30
0.0
 40
3.2
  1
光　　　源
 41
0.8
  7
高3.2
100
AcDbText
  0
TEXT
  5
1E13
330
1F
100
AcDbEntity
  8
0
 62
     3
100
AcDbText
 10
1743.871518590448
 20
285.3716761670328
 30
0.0
 40
3.2
  1
本　体　色
 41
0.8
  7
高3.2
100
AcDbText
  0
TEXT
  5
1E14
330
1F
100
AcDbEntity
  8
0
 62
     3
100
AcDbText
 10
1743.871518590447
 20
252.3716761670328
 30
0.0
 40
3.2
  1
平均演色評価数
 41
0.6
  7
高3.2
100
AcDbText
  0
TEXT
  5
1E15
330
1F
100
AcDbEntity
  8
0
 62
     3
100
AcDbText
 10
1743.871518590447
 20
208.3716761670328
 30
0.0
 40
3.2
  1
照度
 41
0.8
  7
高3.2
100
AcDbText
  0
LINE
  5
1E16
330
1F
100
AcDbEntity
  8
0
 62
     7
100
AcDbLine
 10
1742.371518590448
 20
256.8716761670328
 30
0.0
 11
1818.271518590447
 21
256.8716761670328
 31
0.0
  0
LINE
  5
1E17
330
1F
100
AcDbEntity
  8
0
 62
     7
100
AcDbLine
 10
1742.371518590448
 20
262.3716761670328
 30
0.0
 11
1818.271518590447
 21
262.3716761670328
 31
0.0
  0
LINE
  5
1E18
330
1F
100
AcDbEntity
  8
0
 62
     7
100
AcDbLine
 10
1742.371518590448
 20
267.8716761670328
 30
0.0
 11
1818.271518590447
 21
267.8716761670328
 31
0.0
  0
LINE
  5
1E19
330
1F
100
AcDbEntity
  8
0
 62
     7
100
AcDbLine
 10
1742.371518590448
 20
278.8716761670329
 30
0.0
 11
1818.271518590447
 21
278.8716761670329
 31
0.0
  0
LINE
  5
1E1A
330
1F
100
AcDbEntity
  8
0
 62
     7
100
AcDbLine
 10
1742.371518590448
 20
284.3716761670328
 30
0.0
 11
1818.271518590447
 21
284.3716761670328
 31
0.0
  0
TEXT
  5
1E1B
330
1F
100
AcDbEntity
  8
0
 62
     3
100
AcDbText
 10
1743.871518590447
 20
279.8716761670328
 30
0.0
 40
3.2
  1
使用　場所
 41
0.8
  7
高3.2
100
AcDbText
  0
LINE
  5
1E1C
330
1F
100
AcDbEntity
  8
0
 62
     7
100
AcDbLine
 10
1742.371518590448
 20
289.8716761670328
 30
0.0
 11
1818.271518590447
 21
289.8716761670328
 31
0.0
  0
LINE
  5
1E1D
330
1F
100
AcDbEntity
  8
0
100
AcDbLine
 10
1752.762509060116
 20
212.8716761670328
 30
0.0
 11
1752.762509060116
 21
185.3716761670328
 31
0.0
  0
TEXT
  5
1E1E
330
1F
100
AcDbEntity
  8
0
 62
     3
100
AcDbText
 10
1754.262509060116
 20
208.3716761670328
 30
0.0
 40
3.2
  1
1m
 41
0.8
  7
高3.2
100
AcDbText
  0
TEXT
  5
1E1F
330
1F
100
AcDbEntity
  8
0
 62
     3
100
AcDbText
 10
1754.262509060116
 20
202.8716761670328
 30
0.0
 40
3.2
  1
2m
 41
0.8
  7
高3.2
100
AcDbText
  0
TEXT
  5
1E20
330
1F
100
AcDbEntity
  8
0
 62
     3
100
AcDbText
 10
1754.262509060116
 20
197.3716761670327
 30
0.0
 40
3.2
  1
3m
 41
0.8
  7
高3.2
100
AcDbText
  0
TEXT
  5
1E21
330
1F
100
AcDbEntity
  8
0
 62
     3
100
AcDbText
 10
1754.262509060116
 20
191.8716761670328
 30
0.0
 40
3.2
  1
4m
 41
0.8
  7
高3.2
100
AcDbText
  0
TEXT
  5
1E22
330
1F
100
AcDbEntity
  8
0
 62
     3
100
AcDbText
 10
1754.262509060116
 20
186.3716761670328
 30
0.0
 40
3.2
  1
5m
 41
0.8
  7
高3.2
100
AcDbText
  0
LINE
  5
1E23
330
1F
100
AcDbEntity
  8
0
 62
     3
100
AcDbLine
 10
1742.371518590448
 20
163.3716761670328
 30
0.0
 11
1818.271518590447
 21
163.3716761670328
 31
0.0
  0
TEXT
  5
1E24
330
1F
100
AcDbEntity
  8
0
 62
     3
100
AcDbText
 10
1765.320076258715
 20
279.8716761670328
 30
0.0
 40
3.2
  1
屋外型
 41
0.8
  7
高3.2
100
AcDbText
  0
TEXT
  5
1E25
330
1F
100
AcDbEntity
  8
0
 62
     3
100
AcDbText
 10
1765.320076258715
 20
285.3716761670328
 30
0.0
 40
3.2
  1
白
 41
0.8
  7
高3.2
100
AcDbText
  0
TEXT
  5
1E26
330
1F
100
AcDbEntity
  8
0
 62
     3
100
AcDbText
 10
1765.320076258715
 20
268.8716761670328
 30
0.0
 40
3.2
  1
LED14W
 41
0.8
  7
高3.2
100
AcDbText
  0
TEXT
  5
1E27
330
1F
100
AcDbEntity
  8
0
 62
     3
100
AcDbText
 10
1765.320076258715
 20
263.3716761670328
 30
0.0
 40
3.2
  1
1820Lm
 41
0.8
  7
高3.2
100
AcDbText
  0
TEXT
  5
1E28
330
1F
100
AcDbEntity
  8
0
 62
     3
100
AcDbText
 10
1765.320076258715
 20
257.8716761670328
 30
0.0
 40
3.2
  1
5000K
 41
0.8
  7
高3.2
100
AcDbText
  0
TEXT
  5
1E29
330
1F
100
AcDbEntity
  8
0
 62
     3
100
AcDbText
 10
1765.320076258715
 20
252.3716761670328
 30
0.0
 40
3.2
  1
Ra83
 41
0.8
  7
高3.2
100
AcDbText
  0
TEXT
  5
1E2A
330
1F
100
AcDbEntity
  8
0
 62
     3
100
AcDbText
 10
1765.320076258715
 20
246.8716761670328
 30
0.0
 40
3.2
  1
100\U+00B0(1/2ビーム角)　150\U+00B0(1/10ビーム角)
 41
0.6
  7
高3.2
100
AcDbText
  0
TEXT
  5
1E2B
330
1F
100
AcDbEntity
  8
0
 62
     3
100
AcDbText
 10
1765.320076258715
 20
241.3716761670328
 30
0.0
 40
3.2
  1
AC100V (AC200V)
 41
0.8
  7
高3.2
100
AcDbText
  0
TEXT
  5
1E2C
330
1F
100
AcDbEntity
  8
0
 62
     3
100
AcDbText
 10
1765.320076258715
 20
235.8716761670328
 30
0.0
 40
3.2
  1
50/60Hz
 41
0.8
  7
高3.2
100
AcDbText
  0
TEXT
  5
1E2D
330
1F
100
AcDbEntity
  8
0
 62
     3
100
AcDbText
 10
1765.320076258715
 20
230.3716761670328
 30
0.0
 40
3.2
  1
AC90～264V
 41
0.8
  7
高3.2
100
AcDbText
  0
TEXT
  5
1E2E
330
1F
100
AcDbEntity
  8
0
 62
     3
100
AcDbText
 10
1765.320076258715
 20
224.8716761670328
 30
0.0
 40
3.2
  1
0.13A (0.07A)
 41
0.8
  7
高3.2
100
AcDbText
  0
TEXT
  5
1E2F
330
1F
100
AcDbEntity
  8
0
 62
     3
100
AcDbText
 10
1765.320076258715
 20
219.3716761670328
 30
0.0
 40
3.2
  1
13.8W (14.5W)
 41
0.8
  7
高3.2
100
AcDbText
  0
TEXT
  5
1E30
330
1F
100
AcDbEntity
  8
0
 62
     3
100
AcDbText
 10
1765.320076258715
 20
213.8716761670328
 30
0.0
 40
3.2
  1
131.8Lm/W (125.5Lm/W)
 41
0.8
  7
高3.2
100
AcDbText
  0
TEXT
  5
1E31
330
1F
100
AcDbEntity
  8
0
 62
     3
100
AcDbText
 10
1765.320076258715
 20
208.3716761670328
 30
0.0
 40
3.2
  1
644Lx
 41
0.8
  7
高3.2
100
AcDbText
  0
TEXT
  5
1E32
330
1F
100
AcDbEntity
  8
0
 62
     3
100
AcDbText
 10
1765.320076258715
 20
202.8716761670328
 30
0.0
 40
3.2
  1
167Lx
 41
0.8
  7
高3.2
100
AcDbText
  0
TEXT
  5
1E33
330
1F
100
AcDbEntity
  8
0
 62
     3
100
AcDbText
 10
1765.320076258715
 20
197.3716761670327
 30
0.0
 40
3.2
  1
79Lx
 41
0.8
  7
高3.2
100
AcDbText
  0
TEXT
  5
1E34
330
1F
100
AcDbEntity
  8
0
 62
     3
100
AcDbText
 10
1765.320076258715
 20
191.8716761670328
 30
0.0
 40
3.2
  1
46Lx
 41
0.8
  7
高3.2
100
AcDbText
  0
TEXT
  5
1E35
330
1F
100
AcDbEntity
  8
0
 62
     3
100
AcDbText
 10
1765.320076258715
 20
186.3716761670328
 30
0.0
 40
3.2
  1
30Lx
 41
0.8
  7
高3.2
100
AcDbText
  0
TEXT
  5
1E36
330
1F
100
AcDbEntity
  8
0
 62
     3
100
AcDbText
 10
1765.320076258715
 20
180.8716761670327
 30
0.0
 40
3.2
  1
IP65
 41
0.8
  7
高3.2
100
AcDbText
  0
TEXT
  5
1E37
330
1F
100
AcDbEntity
  8
0
 62
     3
100
AcDbText
 10
1765.320076258715
 20
175.3716761670327
 30
0.0
 40
3.2
  1
50000H
 41
0.8
  7
高3.2
100
AcDbText
  0
TEXT
  5
1E38
330
1F
100
AcDbEntity
  8
0
 62
     3
100
AcDbText
 10
1765.320076258715
 20
169.8716761670327
 30
0.0
 40
3.2
  1
-30～45℃
 41
0.8
  7
高3.2
100
AcDbText
  0
LINE
  5
1E39
330
1F
100
AcDbEntity
  8
0
 62
     3
100
AcDbLine
 10
1742.371518590448
 20
295.3716761670328
 30
0.0
 11
1742.371518590448
 21
163.3716761670328
 31
0.0
  0
LINE
  5
1E3A
330
1F
100
AcDbEntity
  8
0
 62
     7
100
AcDbLine
 10
1763.820076258715
 20
163.3716761670328
 30
0.0
 11
1763.820076258715
 21
295.3716761670328
 31
0.0
  0
LINE
  5
1E3B
330
1F
100
AcDbEntity
  8
0
 62
     3
100
AcDbLine
 10
1818.271518590447
 20
163.3716761670328
 30
0.0
 11
1818.271518590448
 21
295.3716761670328
 31
0.0
  0
TEXT
  5
1E3C
330
1F
100
AcDbEntity
  8
0
 62
     3
100
AcDbText
 10
1761.539896072578
 20
300.1054880440627
 30
0.0
 40
4.5
  1
主　　仕　　様
  7
高4.5
100
AcDbText
  0
LINE
  5
1E3D
330
1F
100
AcDbEntity
  8
0
100
AcDbLine
 10
1760.438981704822
 20
299.23973496022
 30
0.0
 11
1799.031201984509
 21
299.23973496022
 31
0.0
  0
TEXT
  5
1E3E
330
1F
100
AcDbEntity
  8
0
 62
     7
100
AcDbText
 10
1741.24160825437
 20
150.0958121265969
 30
0.0
 40
2.0
  1
注４）照度は当社実測値の為、使用環境下により異なります。
  7
高2
100
AcDbText
  0
TEXT
  5
1E3F
330
1F
100
AcDbEntity
  8
0
 62
     7
100
AcDbText
 10
1741.24160825437
 20
147.0958121265969
 30
0.0
 40
2.0
  1
注５）球寿命は光束が70%%%に低下するまでの時間です。
  7
高2
100
AcDbText
  0
TEXT
  5
1E40
330
1F
100
AcDbEntity
  8
0
 62
     7
100
AcDbText
 10
1741.24160825437
 20
144.0958121265969
 30
0.0
 40
2.0
  1
　　　表示は設計値であり、製品の寿命を保証するものではありません。
  7
高2
100
AcDbText
  0
TEXT
  5
1E41
330
1F
100
AcDbEntity
  8
0
 62
     7
100
AcDbText
 10
1741.24160825437
 20
153.0958121265969
 30
0.0
 40
2.0
  1
注３）()内数値は入力200Vでの値です。
  7
高2
100
AcDbText
  0
TEXT
  5
1E42
330
1F
100
AcDbEntity
  8
0
 62
     7
100
AcDbText
 10
1741.24160825437
 20
156.0958121265969
 30
0.0
 40
2.0
  1
注２）LEDの光色、明るさにはバラツキがあります。
  7
高2
100
AcDbText
  0
TEXT
  5
1E43
330
1F
100
AcDbEntity
  8
0
 62
     7
100
AcDbText
 10
1741.24160825437
 20
159.0958121265969
 30
0.0
 40
2.0
  1
注１）当器具のLED素子交換はできません。
  7
高2
100
AcDbText
  0
TEXT
  5
1E44
330
1F
100
AcDbEntity
  8
0
 62
     7
100
AcDbText
 10
1741.24160825437
 20
141.0958121265969
 30
0.0
 40
2.0
  1
注６）安全にご使用いただくため、取扱説明書をご参照ください。
  7
高2
100
AcDbText
  0
TEXT
  5
1E45
330
1F
100
AcDbEntity
  8
0
 62
     3
100
AcDbText
 10
1743.871518590447
 20
290.8716761670328
 30
0.0
 40
3.2
  1
型　　　式
 41
0.8
  7
高3.2
100
AcDbText
  0
LINE
  5
1E46
330
1F
100
AcDbEntity
  8
0
 62
     3
100
AcDbLine
 10
1742.371518590448
 20
295.3716761670328
 30
0.0
 11
1818.271518590447
 21
295.3716761670328
 31
0.0
  0
TEXT
  5
1E47
330
1F
100
AcDbEntity
  8
0
 62
     3
100
AcDbText
 10
1765.320076258715
 20
290.8716761670328
 30
0.0
 40
3.2
  1
L14W-E26-W-50K-N
 41
0.45
  7
高3.2
100
AcDbText
  0
TEXT
  5
1E48
330
1F
100
AcDbEntity
  8
0
 62
     7
100
AcDbText
 10
1741.24160825437
 20
138.0958121265969
 30
0.0
 40
2.0
  1
注７）仕様変更は予告なく行う場合があります。予めご了承ください。
  7
高2
100
AcDbText
  0
TEXT
  5
1E49
330
1F
100
AcDbEntity
  8
0
 62
     3
100
AcDbText
 10
1743.871518590447
 20
274.3716761670328
 30
0.0
 40
3.2
  1
口金サイズ
 41
0.8
  7
高3.2
100
AcDbText
  0
LINE
  5
1E4A
330
1F
100
AcDbEntity
  8
0
 62
     7
100
AcDbLine
 10
1742.371518590448
 20
273.3716761670328
 30
0.0
 11
1818.271518590447
 21
273.3716761670328
 31
0.0
  0
TEXT
  5
1E4B
330
1F
100
AcDbEntity
  8
0
 62
     3
100
AcDbText
 10
1765.320076258715
 20
274.3716761670328
 30
0.0
 40
3.2
  1
E26
 41
0.8
  7
高3.2
100
AcDbText
  0
LINE
  5
1E4C
330
1F
100
AcDbEntity
  8
0
100
AcDbLine
 10
1791.045797424581
 20
284.3716761670328
 30
0.0
 11
1791.045797424581
 21
295.3716761670328
 31
0.0
  0
TEXT
  5
1E4D
330
1F
100
AcDbEntity
  8
0
 62
     3
100
AcDbText
 10
1792.545797424581
 20
290.8716761670328
 30
0.0
 40
3.2
  1
L14W-E26-BK-50K-N
 41
0.45
  7
高3.2
100
AcDbText
  0
TEXT
  5
1E4E
330
1F
100
AcDbEntity
  8
0
 62
     3
100
AcDbText
 10
1792.545797424581
 20
285.3716761670328
 30
0.0
 40
3.2
  1
黒
 41
0.8
  7
高3.2
100
AcDbText
  0
LINE
  5
1E9C
330
1F
100
AcDbEntity
  8
0
 62
     3
100
AcDbLine
 10
1770.528239672985
 20
99.73927213131345
 30
0.0
 11
1770.528239672985
 21
117.7392721313133
 31
0.0
  0
LINE
  5
1E9D
330
1F
100
AcDbEntity
  8
0
 62
     7
100
AcDbLine
 10
1796.528239672985
 20
99.73927213131345
 30
0.0
 11
1796.528239672985
 21
117.7392721313133
 31
0.0
  0
LINE
  5
1E9E
330
1F
100
AcDbEntity
  8
0
 62
     7
100
AcDbLine
 10
1822.528239672985
 20
105.7392721313135
 30
0.0
 11
1770.528239672985
 21
105.7392721313135
 31
0.0
  0
LINE
  5
1E9F
330
1F
100
AcDbEntity
  8
0
 62
     7
100
AcDbLine
 10
1822.528239672985
 20
111.7392721313135
 30
0.0
 11
1770.528239672985
 21
111.7392721313135
 31
0.0
  0
LINE
  5
1EA2
330
1F
100
AcDbEntity
  8
0
 62
     3
100
AcDbLine
 10
1822.528239672985
 20
117.7392721313133
 30
0.0
 11
1770.528239672985
 21
117.7392721313133
 31
0.0
  0
TEXT
  5
1EA3
330
1F
100
AcDbEntity
  8
0
 62
     3
100
AcDbText
 10
1772.028239672985
 20
112.2392721313134
 30
0.0
 40
4.5
  1
型式
  7
高4.5
100
AcDbText
  0
TEXT
  5
1EA4
330
1F
100
AcDbEntity
  8
0
 62
     3
100
AcDbText
 10
1798.028239672985
 20
112.2392721313134
 30
0.0
 40
4.5
  1
コード
  7
高4.5
100
AcDbText
  0
TEXT
  5
1EA9
330
1F
100
AcDbEntity
  8
0
 62
     3
100
AcDbText
 10
1771.607083757991
 20
106.2392721313135
 30
0.0
 40
3.2
  1
L14W-E26-W-50K-N
 41
0.45
  7
高3.2
100
AcDbText
  0
TEXT
  5
1EAA
330
1F
100
AcDbEntity
  8
0
 62
     3
100
AcDbText
 10
1798.028239672985
 20
106.2392721313135
 30
0.0
 40
4.5
  1
14100
  7
高4.5
100
AcDbText
  0
TEXT
  5
1EAB
330
1F
100
AcDbEntity
  8
0
 62
     3
100
AcDbText
 10
1771.607083757991
 20
100.2392721313135
 30
0.0
 40
3.2
  1
L14W-E26-BK-50K-N
 41
0.45
  7
高3.2
100
AcDbText
  0
TEXT
  5
1EAC
330
1F
100
AcDbEntity
  8
0
 62
     3
100
AcDbText
 10
1798.028239672985
 20
100.2392721313135
 30
0.0
 40
4.5
  1
14102
  7
高4.5
100
AcDbText
  0
LINE
  5
1F77
330
1F
100
AcDbEntity
  8
0
 62
     3
100
AcDbLine
 10
1631.016166502985
 20
198.2392721313134
 30
0.0
 11
1630.528239672985
 21
198.2392721313134
 31
0.0
  0
LINE
  5
1F78
330
1F
100
AcDbEntity
  8
0
 62
     3
100
AcDbLine
 10
1642.528239672985
 20
336.7392721313134
 30
0.0
 11
1642.528239672985
 21
59.73927213131344
 31
0.0
  0
LINE
  5
1F7A
330
1F
100
AcDbEntity
  8
0
 62
     3
100
AcDbLine
 10
1822.528239672985
 20
59.73927213131344
 30
0.0
 11
1822.528239672985
 21
336.7392721313134
 31
0.0
  0
LINE
  5
1F7B
330
1F
100
AcDbEntity
  8
0
 62
     3
100
AcDbLine
 10
1642.528239672985
 20
59.73927213131344
 30
0.0
 11
1822.528239672985
 21
59.73927213131344
 31
0.0
  0
LINE
  5
1F7C
330
1F
100
AcDbEntity
  8
0
 62
     3
100
AcDbLine
 10
1679.612591692985
 20
338.5267162313135
 30
0.0
 11
1680.048339602985
 21
338.2992480913133
 31
0.0
  0
LINE
  5
1F7D
330
1F
100
AcDbEntity
  8
0
 62
     3
100
AcDbLine
 10
1679.612591692985
 20
334.7960857513135
 30
0.0
 11
1680.048339602985
 21
335.0235538913135
 31
0.0
  0
LINE
  5
1F7E
330
1F
100
AcDbEntity
  8
0
 62
     3
100
AcDbLine
 10
1680.048339602985
 20
338.2992480913133
 30
0.0
 11
1680.048339602985
 21
335.0235538913135
 31
0.0
  0
LINE
  5
1F7F
330
1F
100
AcDbEntity
  8
0
 62
     3
100
AcDbLine
 10
1681.151857022985
 20
334.7960857513135
 30
0.0
 11
1680.716109112984
 21
335.0235538913135
 31
0.0
  0
LINE
  5
1F80
330
1F
100
AcDbEntity
  8
0
 62
     3
100
AcDbLine
 10
1680.716109112984
 20
337.0204127013134
 30
0.0
 11
1680.716109112984
 21
335.0235538913135
 31
0.0
  0
LINE
  5
1F81
330
1F
100
AcDbEntity
  8
0
 62
     3
100
AcDbLine
 10
1683.693719802985
 20
338.5267162313135
 30
0.0
 11
1683.257971892985
 21
338.2992480913133
 31
0.0
  0
LINE
  5
1F82
330
1F
100
AcDbEntity
  8
0
 62
     3
100
AcDbLine
 10
1682.154454472984
 20
338.5267162313135
 30
0.0
 11
1682.590202382985
 21
338.2992480913133
 31
0.0
  0
LINE
  5
1F83
330
1F
100
AcDbEntity
  8
0
 62
     3
100
AcDbLine
 10
1682.590202382985
 20
338.2992480913133
 30
0.0
 11
1682.590202382985
 21
336.8569110313134
 31
0.0
  0
LINE
  5
1F84
330
1F
100
AcDbEntity
  8
0
 62
     3
100
AcDbLine
 10
1683.257971892985
 20
338.2992480913133
 30
0.0
 11
1683.257971892985
 21
334.5845246113134
 31
0.0
  0
LINE
  5
1F85
330
1F
100
AcDbEntity
  8
0
 62
     3
100
AcDbLine
 10
1683.909017002985
 20
338.5267136013134
 30
0.0
 11
1684.344763342985
 21
338.2992424613135
 31
0.0
  0
LINE
  5
1F86
330
1F
100
AcDbEntity
  8
0
 62
     3
100
AcDbLine
 10
1683.908939032985
 20
334.7961357313135
 30
0.0
 11
1684.344694882985
 21
335.0235886513134
 31
0.0
  0
LINE
  5
1F87
330
1F
100
AcDbEntity
  8
0
 62
     3
100
AcDbLine
 10
1684.344763342985
 20
338.2992424613135
 30
0.0
 11
1684.344763342985
 21
335.0235886513134
 31
0.0
  0
LINE
  5
1F88
330
1F
100
AcDbEntity
  8
0
 62
     3
100
AcDbLine
 10
1685.838553402985
 20
338.5266899313133
 30
0.0
 11
1685.402802312985
 21
338.2992279013134
 31
0.0
  0
LINE
  5
1F89
330
1F
100
AcDbEntity
  8
0
 62
     3
100
AcDbLine
 10
1685.402802312985
 20
338.2992279013134
 30
0.0
 11
1685.402802312985
 21
335.0235740813134
 31
0.0
  0
LINE
  5
1F8A
330
1F
100
AcDbEntity
  8
0
 62
     3
100
AcDbLine
 10
1685.838553402985
 20
334.7961120513135
 30
0.0
 11
1685.402802312985
 21
335.0235740813134
 31
0.0
  0
LINE
  5
1F8B
330
1F
100
AcDbEntity
  8
0
 62
     3
100
AcDbLine
 10
1689.528806842985
 20
338.5266489313135
 30
0.0
 11
1689.964553962985
 21
338.2991792913133
 31
0.0
  0
LINE
  5
1F8C
330
1F
100
AcDbEntity
  8
0
 62
     3
100
AcDbLine
 10
1689.964553962985
 20
338.2991792913133
 30
0.0
 11
1689.964496792985
 21
335.0235254813134
 31
0.0
  0
LINE
  5
1F8D
330
1F
100
AcDbEntity
  8
0
 62
     3
100
AcDbLine
 10
1689.528741732984
 20
334.7960710513135
 30
0.0
 11
1689.964496792985
 21
335.0235254813134
 31
0.0
  0
LINE
  5
1F8E
330
1F
100
AcDbEntity
  8
0
 62
     3
100
AcDbLine
 10
1691.481067802985
 20
338.5266489313135
 30
0.0
 11
1691.045320682985
 21
338.2991792913133
 31
0.0
  0
LINE
  5
1F8F
330
1F
100
AcDbEntity
  8
0
 62
     3
100
AcDbLine
 10
1691.481132912985
 20
334.7960710513135
 30
0.0
 11
1691.045377852985
 21
335.0235254813134
 31
0.0
  0
LINE
  5
1F90
330
1F
100
AcDbEntity
  8
0
 62
     3
100
AcDbLine
 10
1691.684795662984
 20
338.5266489313135
 30
0.0
 11
1692.120542792985
 21
338.2991792913133
 31
0.0
  0
LINE
  5
1F91
330
1F
100
AcDbEntity
  8
0
 62
     3
100
AcDbLine
 10
1691.684730552985
 20
334.7960710513135
 30
0.0
 11
1692.120485612985
 21
335.0235254813134
 31
0.0
  0
LINE
  5
1F92
330
1F
100
AcDbEntity
  8
0
 62
     3
100
AcDbLine
 10
1693.637056632985
 20
338.5266489313135
 30
0.0
 11
1693.201309512985
 21
338.2991792913133
 31
0.0
  0
LINE
  5
1F93
330
1F
100
AcDbEntity
  8
0
 62
     3
100
AcDbLine
 10
1693.201309512985
 20
338.2991792913133
 30
0.0
 11
1693.201366682985
 21
335.0235254813134
 31
0.0
  0
LINE
  5
1F94
330
1F
100
AcDbEntity
  8
0
 62
     3
100
AcDbLine
 10
1693.637121742985
 20
334.7960710513135
 30
0.0
 11
1693.201366682985
 21
335.0235254813134
 31
0.0
  0
LINE
  5
1F95
330
1F
100
AcDbEntity
  8
0
 62
     3
100
AcDbLine
 10
1692.120517882985
 20
336.8720461713134
 30
0.0
 11
1691.045345592985
 21
336.8720461713134
 31
0.0
  0
LINE
  5
1F96
330
1F
100
AcDbEntity
  8
0
 62
     3
100
AcDbLine
 10
1692.120510522985
 20
336.4507558113134
 30
0.0
 11
1691.045352942985
 21
336.4507558113134
 31
0.0
  0
LINE
  5
1F97
330
1F
100
AcDbEntity
  8
0
 62
     3
100
AcDbLine
 10
1692.120542792985
 20
338.2991792913133
 30
0.0
 11
1692.120517882985
 21
336.8720461713134
 31
0.0
  0
LINE
  5
1F98
330
1F
100
AcDbEntity
  8
0
 62
     3
100
AcDbLine
 10
1692.120510522985
 20
336.4507558113134
 30
0.0
 11
1692.120485612985
 21
335.0235254813134
 31
0.0
  0
LINE
  5
1F99
330
1F
100
AcDbEntity
  8
0
 62
     3
100
AcDbLine
 10
1691.045320682985
 20
338.2991792913133
 30
0.0
 11
1691.045345592985
 21
336.8720461713134
 31
0.0
  0
LINE
  5
1F9A
330
1F
100
AcDbEntity
  8
0
 62
     3
100
AcDbLine
 10
1691.045352942985
 20
336.4507558113134
 30
0.0
 11
1691.045377852985
 21
335.0235254813134
 31
0.0
  0
LINE
  5
1F9B
330
1F
100
AcDbEntity
  8
0
 62
     3
100
AcDbLine
 10
1693.844015752985
 20
338.5266489313135
 30
0.0
 11
1694.279762872985
 21
338.2991792913133
 31
0.0
  0
LINE
  5
1F9C
330
1F
100
AcDbEntity
  8
0
 62
     3
100
AcDbLine
 10
1694.279762872985
 20
338.2991792913133
 30
0.0
 11
1694.279705702984
 21
335.0235254813134
 31
0.0
  0
LINE
  5
1F9D
330
1F
100
AcDbEntity
  8
0
 62
     3
100
AcDbLine
 10
1693.843950642985
 20
334.7960710513135
 30
0.0
 11
1694.279705702984
 21
335.0235254813134
 31
0.0
  0
LINE
  5
1F9E
330
1F
100
AcDbEntity
  8
0
 62
     3
100
AcDbLine
 10
1695.773526022984
 20
338.5266489313135
 30
0.0
 11
1695.337778902985
 21
338.2991792913133
 31
0.0
  0
LINE
  5
1F9F
330
1F
100
AcDbEntity
  8
0
 62
     3
100
AcDbLine
 10
1695.337778902985
 20
338.2991792913133
 30
0.0
 11
1695.337836072985
 21
335.0235254813134
 31
0.0
  0
LINE
  5
1FA0
330
1F
100
AcDbEntity
  8
0
 62
     3
100
AcDbLine
 10
1695.773591132985
 20
334.7960710513135
 30
0.0
 11
1695.337836072985
 21
335.0235254813134
 31
0.0
  0
LINE
  5
1FA1
330
1F
100
AcDbEntity
  8
0
 62
     3
100
AcDbLine
 10
1695.987885592985
 20
338.5266489313135
 30
0.0
 11
1696.423632712984
 21
338.2991792913133
 31
0.0
  0
LINE
  5
1FA2
330
1F
100
AcDbEntity
  8
0
 62
     3
100
AcDbLine
 10
1696.423632712984
 20
338.2991792913133
 30
0.0
 11
1696.423575542985
 21
335.0235254813134
 31
0.0
  0
LINE
  5
1FA3
330
1F
100
AcDbEntity
  8
0
 62
     3
100
AcDbLine
 10
1695.987820482985
 20
334.7960710513135
 30
0.0
 11
1696.423575542985
 21
335.0235254813134
 31
0.0
  0
ARC
  5
1FA4
330
1F
100
AcDbEntity
  8
0
 62
     3
100
AcDbCircle
 10
1688.136895572985
 20
336.6707907513135
 30
0.0
 40
2.086285909999999
100
AcDbArc
 50
97.70152350999723
 51
270.0
  0
ARC
  5
1FA5
330
1F
100
AcDbEntity
  8
0
 62
     3
100
AcDbCircle
 10
1701.017496412984
 20
336.6498341213135
 30
0.0
 40
2.108943379999999
100
AcDbArc
 50
0.314250269999259
 51
69.00558244998912
  0
ARC
  5
1FA6
330
1F
100
AcDbEntity
  8
0
 62
     3
100
AcDbCircle
 10
1701.478171732984
 20
336.6498341213135
 30
0.0
 40
2.108943379999999
100
AcDbArc
 50
110.9944175499968
 51
148.1166110200052
  0
ARC
  5
1FA7
330
1F
100
AcDbEntity
  8
0
 62
     3
100
AcDbCircle
 10
1701.017496412984
 20
336.6729678613133
 30
0.0
 40
2.108943379999999
100
AcDbArc
 50
290.9944175499969
 51
359.6857497300007
  0
ARC
  5
1FA8
330
1F
100
AcDbEntity
  8
0
 62
     3
100
AcDbCircle
 10
1701.478171732984
 20
336.6729678613133
 30
0.0
 40
2.108943379999999
100
AcDbArc
 50
211.8833889799947
 51
249.0055824499891
  0
ARC
  5
1FA9
330
1F
100
AcDbEntity
  8
0
 62
     3
100
AcDbCircle
 10
1701.247834072985
 20
337.5242063813134
 30
0.0
 40
1.214070989999997
100
AcDbArc
 50
64.3651718999996
 51
115.6348281000004
  0
ARC
  5
1FAA
330
1F
100
AcDbEntity
  8
0
 62
     3
100
AcDbCircle
 10
1701.247834072985
 20
335.7985956013134
 30
0.0
 40
1.214070989999997
100
AcDbArc
 50
244.3651718999996
 51
295.6348281000004
  0
ARC
  5
1FAB
330
1F
100
AcDbEntity
  8
0
 62
     3
100
AcDbCircle
 10
1701.247834072985
 20
337.5472680613134
 30
0.0
 40
0.59585563
100
AcDbArc
 50
19.48660554000516
 51
160.5133944599948
  0
ARC
  5
1FAC
330
1F
100
AcDbEntity
  8
0
 62
     3
100
AcDbCircle
 10
1701.247834072985
 20
335.7985956013134
 30
0.0
 40
1.214070989999997
100
AcDbArc
 50
244.3651718999996
 51
295.6348281000004
  0
ARC
  5
1FAD
330
1F
100
AcDbEntity
  8
0
 62
     3
100
AcDbCircle
 10
1701.247834072985
 20
335.7755339213135
 30
0.0
 40
0.59585563
100
AcDbArc
 50
199.4866055400051
 51
340.5133944599945
  0
ARC
  5
1FAE
330
1F
100
AcDbEntity
  8
0
 62
     3
100
AcDbCircle
 10
1696.505361572985
 20
314.4333411513135
 30
0.0
 40
26.04
100
AcDbArc
 50
69.50571480000848
 51
81.68998806999734
  0
ARC
  5
1FAF
330
1F
100
AcDbEntity
  8
0
 62
     3
100
AcDbCircle
 10
1696.505361572985
 20
358.8894608313134
 30
0.0
 40
26.04
100
AcDbArc
 50
278.3100119300026
 51
290.4942851999915
  0
ARC
  5
1FB0
330
1F
100
AcDbEntity
  8
0
 62
     3
100
AcDbCircle
 10
1704.813565702985
 20
336.6614009913134
 30
0.0
 40
2.31
100
AcDbArc
 50
290.4942851999915
 51
69.50571480000848
  0
ARC
  5
1FB1
330
1F
100
AcDbEntity
  8
0
 62
     3
100
AcDbCircle
 10
1677.513565702985
 20
336.6614009913134
 30
0.0
 40
2.31
100
AcDbArc
 50
110.4942851999915
 51
249.5057147999946
  0
ARC
  5
1FB2
330
1F
100
AcDbEntity
  8
0
 62
     3
100
AcDbCircle
 10
1685.821769822984
 20
314.4333411513135
 30
0.0
 40
26.04
100
AcDbArc
 50
98.31001192998948
 51
110.4942851999915
  0
ARC
  5
1FB3
330
1F
100
AcDbEntity
  8
0
 62
     3
100
AcDbCircle
 10
1685.821769822984
 20
358.8894608313134
 30
0.0
 40
26.04
100
AcDbArc
 50
249.5057147999946
 51
261.6899880699973
  0
ARC
  5
1FB4
330
1F
100
AcDbEntity
  8
0
 62
     3
100
AcDbCircle
 10
1691.163565702985
 20
277.8614009913134
 30
0.0
 40
62.99999987
100
AcDbArc
 50
81.68998806999734
 51
98.31001192998948
  0
ARC
  5
1FB5
330
1F
100
AcDbEntity
  8
0
 62
     3
100
AcDbCircle
 10
1691.163565702985
 20
395.4614009913134
 30
0.0
 40
62.99999987
100
AcDbArc
 50
261.6899880699973
 51
278.3100119300026
  0
ARC
  5
1FB6
330
1F
100
AcDbEntity
  8
0
 62
     3
100
AcDbCircle
 10
1691.163565702985
 20
277.8614009913134
 30
0.0
 40
62.36999987
100
AcDbArc
 50
81.68998806999734
 51
98.31001192998948
  0
ARC
  5
1FB7
330
1F
100
AcDbEntity
  8
0
 62
     3
100
AcDbCircle
 10
1691.163565702985
 20
395.4614009913134
 30
0.0
 40
62.36999987
100
AcDbArc
 50
261.6899880699973
 51
278.3100119300026
  0
ARC
  5
1FB8
330
1F
100
AcDbEntity
  8
0
 62
     3
100
AcDbCircle
 10
1696.505361572985
 20
358.8894608313134
 30
0.0
 40
25.41
100
AcDbArc
 50
278.3100119300026
 51
290.4942851999915
  0
ARC
  5
1FB9
330
1F
100
AcDbEntity
  8
0
 62
     3
100
AcDbCircle
 10
1696.505361572985
 20
314.4333411513135
 30
0.0
 40
25.41
100
AcDbArc
 50
69.50571480000848
 51
81.68998806999734
  0
ARC
  5
1FBA
330
1F
100
AcDbEntity
  8
0
 62
     3
100
AcDbCircle
 10
1704.813565702985
 20
336.6614009913134
 30
0.0
 40
1.679999999999999
100
AcDbArc
 50
290.4942851999915
 51
69.50571480000848
  0
ARC
  5
1FBB
330
1F
100
AcDbEntity
  8
0
 62
     3
100
AcDbCircle
 10
1677.513565702985
 20
336.6614009913134
 30
0.0
 40
1.679999999999999
100
AcDbArc
 50
110.4942851999915
 51
249.5057147999946
  0
ARC
  5
1FBC
330
1F
100
AcDbEntity
  8
0
 62
     3
100
AcDbCircle
 10
1685.821769822984
 20
314.4333411513135
 30
0.0
 40
25.41
100
AcDbArc
 50
98.31001192998948
 51
110.4942851999915
  0
ARC
  5
1FBD
330
1F
100
AcDbEntity
  8
0
 62
     3
100
AcDbCircle
 10
1685.821769822984
 20
358.8894608313134
 30
0.0
 40
25.41
100
AcDbArc
 50
249.5057147999946
 51
261.6899880699973
  0
LINE
  5
1FBE
330
1F
100
AcDbEntity
  8
0
 62
     3
100
AcDbLine
 10
1695.773526802985
 20
334.5845246113134
 30
0.0
 11
1693.844014972984
 21
334.5845246113134
 31
0.0
  0
LINE
  5
1FBF
330
1F
100
AcDbEntity
  8
0
 62
     3
100
AcDbLine
 10
1695.773526802985
 20
334.7960857513135
 30
0.0
 11
1695.773526802985
 21
334.5845246113134
 31
0.0
  0
LINE
  5
1FC0
330
1F
100
AcDbEntity
  8
0
 62
     3
100
AcDbLine
 10
1693.637057412985
 20
338.7381786513135
 30
0.0
 11
1691.684794882984
 21
338.7381786513135
 31
0.0
  0
LINE
  5
1FC1
330
1F
100
AcDbEntity
  8
0
 62
     3
100
AcDbLine
 10
1693.637057412985
 20
338.7381786513135
 30
0.0
 11
1693.637057412985
 21
338.5267162313135
 31
0.0
  0
LINE
  5
1FC2
330
1F
100
AcDbEntity
  8
0
 62
     3
100
AcDbLine
 10
1693.637057412985
 20
334.7960857513135
 30
0.0
 11
1693.637057412985
 21
334.5844259013134
 31
0.0
  0
LINE
  5
1FC3
330
1F
100
AcDbEntity
  8
0
 62
     3
100
AcDbLine
 10
1693.637057412985
 20
334.5844259013134
 30
0.0
 11
1691.684794882984
 21
334.5844259013134
 31
0.0
  0
LINE
  5
1FC4
330
1F
100
AcDbEntity
  8
0
 62
     3
100
AcDbLine
 10
1695.773526802985
 20
338.7382773713134
 30
0.0
 11
1695.773526802985
 21
338.5267162313135
 31
0.0
  0
LINE
  5
1FC5
330
1F
100
AcDbEntity
  8
0
 62
     3
100
AcDbLine
 10
1695.773526802985
 20
338.7382773713134
 30
0.0
 11
1693.844014972984
 21
338.7382773713134
 31
0.0
  0
LINE
  5
1FC6
330
1F
100
AcDbEntity
  8
0
 62
     3
100
AcDbLine
 10
1693.844014972984
 20
338.7382773713134
 30
0.0
 11
1693.844014972984
 21
338.5267162313135
 31
0.0
  0
LINE
  5
1FC7
330
1F
100
AcDbEntity
  8
0
 62
     3
100
AcDbLine
 10
1695.987884802985
 20
334.7960857513135
 30
0.0
 11
1695.987884802985
 21
334.5845246113134
 31
0.0
  0
LINE
  5
1FC8
330
1F
100
AcDbEntity
  8
0
 62
     3
100
AcDbLine
 10
1697.972185362984
 20
334.5845246113134
 30
0.0
 11
1695.987884802985
 21
334.5845246113134
 31
0.0
  0
LINE
  5
1FC9
330
1F
100
AcDbEntity
  8
0
 62
     3
100
AcDbLine
 10
1697.481648732985
 20
338.0705078513134
 30
0.0
 11
1697.481648732985
 21
335.2522941313134
 31
0.0
  0
LINE
  5
1FCA
330
1F
100
AcDbEntity
  8
0
 62
     3
100
AcDbLine
 10
1697.481648732985
 20
335.2522941313134
 30
0.0
 11
1697.671697702985
 21
335.2522941313134
 31
0.0
  0
ARC
  5
1FCB
330
1F
100
AcDbEntity
  8
0
 62
     3
100
AcDbCircle
 10
1696.699911962985
 20
336.6614009913134
 30
0.0
 40
1.71170957
100
AcDbArc
 50
304.5919552700023
 51
55.40804472999747
  0
LINE
  5
1FCC
330
1F
100
AcDbEntity
  8
0
 62
     3
100
AcDbLine
 10
1697.972185362984
 20
338.7382773713134
 30
0.0
 11
1695.987884802985
 21
338.7382773713134
 31
0.0
  0
LINE
  5
1FCD
330
1F
100
AcDbEntity
  8
0
 62
     3
100
AcDbLine
 10
1695.987884802985
 20
338.7382773713134
 30
0.0
 11
1695.987884802985
 21
338.5267162313135
 31
0.0
  0
LINE
  5
1FCE
330
1F
100
AcDbEntity
  8
0
 62
     3
100
AcDbLine
 10
1693.844014972984
 20
334.7960857513135
 30
0.0
 11
1693.844014972984
 21
334.5845246113134
 31
0.0
  0
LINE
  5
1FCF
330
1F
100
AcDbEntity
  8
0
 62
     3
100
AcDbLine
 10
1697.481648732985
 20
338.0705078513134
 30
0.0
 11
1697.671697702985
 21
338.0705078513134
 31
0.0
  0
LINE
  5
1FD0
330
1F
100
AcDbEntity
  8
0
 62
     3
100
AcDbLine
 10
1685.838489072985
 20
334.7960857513135
 30
0.0
 11
1685.838485382985
 21
334.5845048413135
 31
0.0
  0
LINE
  5
1FD1
330
1F
100
AcDbEntity
  8
0
 62
     3
100
AcDbLine
 10
1683.908973542985
 20
334.5845443813134
 30
0.0
 11
1685.838485382985
 21
334.5845107113134
 31
0.0
  0
LINE
  5
1FD2
330
1F
100
AcDbEntity
  8
0
 62
     3
100
AcDbLine
 10
1679.612591692985
 20
334.5845246113134
 30
0.0
 11
1681.151857022985
 21
334.5845246113134
 31
0.0
  0
ARC
  5
1FD3
330
1F
100
AcDbEntity
  8
0
 62
     3
100
AcDbCircle
 10
1674.630649012985
 20
336.7103076113135
 30
0.0
 40
14.71356563
100
AcDbArc
 50
353.8660061899983
 51
357.6940342600005
  0
LINE
  5
1FD4
330
1F
100
AcDbEntity
  8
0
 62
     3
100
AcDbLine
 10
1688.347228872985
 20
336.1219399613134
 30
0.0
 11
1689.332299762985
 21
336.1182950813135
 31
0.0
  0
LINE
  5
1FD6
330
1F
100
AcDbEntity
  8
0
 62
     3
100
AcDbLine
 10
1688.351207292984
 20
337.1971547013135
 30
0.0
 11
1689.336278172985
 21
337.1935098313135
 31
0.0
  0
ARC
  5
1FD7
330
1F
100
AcDbEntity
  8
0
 62
     3
100
AcDbCircle
 10
1674.630649012985
 20
336.7103076113135
 30
0.0
 40
14.71356563
100
AcDbArc
 50
1.881965739999166
 51
5.709993809998117
  0
LINE
  5
1FD8
330
1F
100
AcDbEntity
  8
0
 62
     3
100
AcDbLine
 10
1685.838557872985
 20
338.7382576013134
 30
0.0
 11
1685.838554182985
 21
338.5267162313135
 31
0.0
  0
LINE
  5
1FD9
330
1F
100
AcDbEntity
  8
0
 62
     3
100
AcDbLine
 10
1683.909046042985
 20
338.7382971413134
 30
0.0
 11
1685.838557872985
 21
338.7382634613134
 31
0.0
  0
LINE
  5
1FDA
330
1F
100
AcDbEntity
  8
0
 62
     3
100
AcDbLine
 10
1683.908977232985
 20
334.7960857513135
 30
0.0
 11
1683.908973542985
 21
334.5845443813134
 31
0.0
  0
LINE
  5
1FDB
330
1F
100
AcDbEntity
  8
0
 62
     3
100
AcDbLine
 10
1683.909046042985
 20
338.7382971413134
 30
0.0
 11
1683.909042352984
 21
338.5267162313135
 31
0.0
  0
LINE
  5
1FDC
330
1F
100
AcDbEntity
  8
0
 62
     3
100
AcDbLine
 10
1681.151857022985
 20
334.7960857513135
 30
0.0
 11
1681.151857022985
 21
334.5845246113134
 31
0.0
  0
LINE
  5
1FDD
330
1F
100
AcDbEntity
  8
0
 62
     3
100
AcDbLine
 10
1680.716109112984
 20
337.0204127013134
 30
0.0
 11
1682.238539172985
 21
334.5845246113134
 31
0.0
  0
LINE
  5
1FDE
330
1F
100
AcDbEntity
  8
0
 62
     3
100
AcDbLine
 10
1682.238539172985
 20
334.5845246113134
 30
0.0
 11
1683.257971892985
 21
334.5845246113134
 31
0.0
  0
LINE
  5
1FDF
330
1F
100
AcDbEntity
  8
0
 62
     3
100
AcDbLine
 10
1683.693719802985
 20
338.7382773713134
 30
0.0
 11
1683.693719802985
 21
338.5267162313135
 31
0.0
  0
LINE
  5
1FE0
330
1F
100
AcDbEntity
  8
0
 62
     3
100
AcDbLine
 10
1682.154454472984
 20
338.7382773713134
 30
0.0
 11
1683.693719802985
 21
338.7382773713134
 31
0.0
  0
LINE
  5
1FE1
330
1F
100
AcDbEntity
  8
0
 62
     3
100
AcDbLine
 10
1682.154454472984
 20
338.7382773713134
 30
0.0
 11
1682.154454472984
 21
338.5267162313135
 31
0.0
  0
LINE
  5
1FE2
330
1F
100
AcDbEntity
  8
0
 62
     3
100
AcDbLine
 10
1682.590202382985
 20
336.8569110313134
 30
0.0
 11
1681.355555712985
 21
338.7382773713134
 31
0.0
  0
LINE
  5
1FE3
330
1F
100
AcDbEntity
  8
0
 62
     3
100
AcDbLine
 10
1679.612591692985
 20
338.7382773713134
 30
0.0
 11
1681.355555712985
 21
338.7382773713134
 31
0.0
  0
LINE
  5
1FE4
330
1F
100
AcDbEntity
  8
0
 62
     3
100
AcDbLine
 10
1689.528806052984
 20
338.7381786513135
 30
0.0
 11
1691.481068592985
 21
338.7381786513135
 31
0.0
  0
LINE
  5
1FE5
330
1F
100
AcDbEntity
  8
0
 62
     3
100
AcDbLine
 10
1689.528806052984
 20
338.5267162313135
 30
0.0
 11
1689.528806052984
 21
338.7381786513135
 31
0.0
  0
LINE
  5
1FE6
330
1F
100
AcDbEntity
  8
0
 62
     3
100
AcDbLine
 10
1689.528806052984
 20
334.5844259013134
 30
0.0
 11
1689.528806052984
 21
334.7960857513135
 31
0.0
  0
LINE
  5
1FE7
330
1F
100
AcDbEntity
  8
0
 62
     3
100
AcDbLine
 10
1689.528806052984
 20
334.5844259013134
 30
0.0
 11
1691.481068592985
 21
334.5844259013134
 31
0.0
  0
LINE
  5
1FE8
330
1F
100
AcDbEntity
  8
0
 62
     3
100
AcDbLine
 10
1691.684794882984
 20
334.7960857513135
 30
0.0
 11
1691.684794882984
 21
334.5844259013134
 31
0.0
  0
LINE
  5
1FE9
330
1F
100
AcDbEntity
  8
0
 62
     3
100
AcDbLine
 10
1691.481068592985
 20
334.7960857513135
 30
0.0
 11
1691.481068592985
 21
334.5844259013134
 31
0.0
  0
LINE
  5
1FEA
330
1F
100
AcDbEntity
  8
0
 62
     3
100
AcDbLine
 10
1691.481068592985
 20
338.5267162313135
 30
0.0
 11
1691.481068592985
 21
338.7381786513135
 31
0.0
  0
LINE
  5
1FEB
330
1F
100
AcDbEntity
  8
0
 62
     3
100
AcDbLine
 10
1691.684794882984
 20
338.5267162313135
 30
0.0
 11
1691.684794882984
 21
338.7381786513135
 31
0.0
  0
LINE
  5
1FEC
330
1F
100
AcDbEntity
  8
0
 62
     3
100
AcDbLine
 10
1679.612591692985
 20
334.7960857513135
 30
0.0
 11
1679.612591692985
 21
334.5845246113134
 31
0.0
  0
LINE
  5
1FED
330
1F
100
AcDbEntity
  8
0
 62
     3
100
AcDbLine
 10
1679.612591692985
 20
338.7382773713134
 30
0.0
 11
1679.612591692985
 21
338.5267162313135
 31
0.0
  0
ARC
  5
1FEE
330
1F
100
AcDbEntity
  8
0
 62
     3
100
AcDbCircle
 10
1698.182185362985
 20
337.0971489013133
 30
0.0
 40
1.641128469999999
100
AcDbArc
 50
17.30874897999528
 51
23.76507095999446
  0
ARC
  5
1FEF
330
1F
100
AcDbEntity
  8
0
 62
     3
100
AcDbCircle
 10
1696.783911962985
 20
336.6614009913134
 30
0.0
 40
3.105725599999998
100
AcDbArc
 50
342.6912510200047
 51
17.30856643999929
  0
ARC
  5
1FF0
330
1F
100
AcDbEntity
  8
0
 62
     3
100
AcDbCircle
 10
1698.182185362985
 20
336.2256530913135
 30
0.0
 40
1.641128469999999
100
AcDbArc
 50
336.2349290400008
 51
342.6912510200047
  0
ARC
  5
1FF1
330
1F
100
AcDbEntity
  8
0
 62
     3
100
AcDbCircle
 10
1697.972185362984
 20
337.0971489013133
 30
0.0
 40
1.641128469999999
100
AcDbArc
 50
17.30874897999528
 51
90.0
  0
ARC
  5
1FF2
330
1F
100
AcDbEntity
  8
0
 62
     3
100
AcDbCircle
 10
1696.573911962985
 20
336.6614009913134
 30
0.0
 40
3.105725599999998
100
AcDbArc
 50
342.6912510200047
 51
17.30856643999929
  0
ARC
  5
1FF3
330
1F
100
AcDbEntity
  8
0
 62
     3
100
AcDbCircle
 10
1697.972185362984
 20
336.2256530913135
 30
0.0
 40
1.641128469999999
100
AcDbArc
 50
270.0
 51
342.6912510200047
  0
ARC
  5
1FF4
330
1F
100
AcDbEntity
  8
0
 62
     3
100
AcDbCircle
 10
1687.848244992984
 20
336.6614009913134
 30
0.0
 40
2.076876379999998
100
AcDbArc
 50
46.75287960999344
 51
89.74999828999569
  0
ARC
  5
1FF5
330
1F
100
AcDbEntity
  8
0
 62
     3
100
AcDbCircle
 10
1687.848244992984
 20
336.6614009913134
 30
0.0
 40
2.076876379999998
100
AcDbArc
 50
273.976333149997
 51
312.8231203899985
  0
ARC
  5
1FF6
330
1F
100
AcDbEntity
  8
0
 62
     3
100
AcDbCircle
 10
1699.290052932985
 20
336.6293394613133
 30
0.0
 40
2.755888999999998
100
AcDbArc
 50
0.6665840599997753
 51
23.90392827000176
  0
ARC
  5
1FF7
330
1F
100
AcDbEntity
  8
0
 62
     3
100
AcDbCircle
 10
1703.205615212985
 20
336.6293394613133
 30
0.0
 40
2.755888999999998
100
AcDbArc
 50
156.0960717299982
 51
179.3334159400002
  0
ARC
  5
1FF8
330
1F
100
AcDbEntity
  8
0
 62
     3
100
AcDbCircle
 10
1699.290052932985
 20
336.6934625213135
 30
0.0
 40
2.755888999999998
100
AcDbArc
 50
336.0960717299982
 51
359.3334159400006
  0
ARC
  5
1FF9
330
1F
100
AcDbEntity
  8
0
 62
     3
100
AcDbCircle
 10
1703.205615212985
 20
336.6934625213135
 30
0.0
 40
2.755888999999998
100
AcDbArc
 50
180.6665840599993
 51
203.9039282700016
  0
LINE
  5
1FFA
330
1F
100
AcDbEntity
  8
0
 62
     3
100
AcDbLine
 10
1707.855902302984
 20
336.7392721313134
 30
0.0
 11
1822.528239672985
 21
336.7392721313134
 31
0.0
  0
LINE
  5
1FFC
330
1F
100
AcDbEntity
  8
0
 62
     3
100
AcDbLine
 10
1674.443155782985
 20
336.7392721313134
 30
0.0
 11
1642.528239672985
 21
336.7392721313134
 31
0.0
  0
LINE
  5
1FFD
330
1F
100
AcDbEntity
  8
0
 62
     3
100
AcDbLine
 10
1770.528239672985
 20
59.73927213131344
 30
0.0
 11
1770.528239672985
 21
99.73927213131345
 31
0.0
  0
LINE
  5
1FFE
330
1F
100
AcDbEntity
  8
0
 62
     3
100
AcDbLine
 10
1783.528239672985
 20
69.73927213131344
 30
0.0
 11
1783.528239672985
 21
99.73927213131345
 31
0.0
  0
LINE
  5
1FFF
330
1F
100
AcDbEntity
  8
0
 62
     3
100
AcDbLine
 10
1743.528239672985
 20
69.73927213131344
 30
0.0
 11
1743.528239672985
 21
83.73927213131343
 31
0.0
  0
LINE
  5
2000
330
1F
100
AcDbEntity
  8
0
 62
     3
100
AcDbLine
 10
1753.528239672985
 20
83.73927213131343
 30
0.0
 11
1753.528239672985
 21
59.73927213131344
 31
0.0
  0
LINE
  5
2001
330
1F
100
AcDbEntity
  8
0
 62
     3
100
AcDbLine
 10
1724.528239672985
 20
99.73927213131345
 30
0.0
 11
1724.528239672985
 21
76.73927213131344
 31
0.0
  0
LINE
  5
2003
330
1F
100
AcDbEntity
  8
0
 62
     3
100
AcDbLine
 10
1796.528239672985
 20
76.73927213131344
 30
0.0
 11
1796.528239672985
 21
99.73927213131345
 31
0.0
  0
LINE
  5
2004
330
1F
100
AcDbEntity
  8
0
 62
     3
100
AcDbLine
 10
1822.528239672985
 20
99.73927213131345
 30
0.0
 11
1711.282805032985
 21
99.73927213131347
 31
0.0
  0
LINE
  5
2005
330
1F
100
AcDbEntity
  8
0
 62
     3
100
AcDbLine
 10
1822.528239672985
 20
90.73927213131344
 30
0.0
 11
1711.282805032985
 21
90.73927213131344
 31
0.0
  0
LINE
  5
2006
330
1F
100
AcDbEntity
  8
0
 62
     3
100
AcDbLine
 10
1822.528239672985
 20
76.73927213131344
 30
0.0
 11
1711.282805032985
 21
76.73927213131344
 31
0.0
  0
LINE
  5
2007
330
1F
100
AcDbEntity
  8
0
 62
     3
100
AcDbLine
 10
1822.528239672985
 20
69.73927213131344
 30
0.0
 11
1711.282805032985
 21
69.73927213131344
 31
0.0
  0
LINE
  5
2008
330
1F
100
AcDbEntity
  8
0
 62
     3
100
AcDbLine
 10
1809.528239672985
 20
76.73927213131344
 30
0.0
 11
1809.528239672985
 21
99.73927213131345
 31
0.0
  0
LINE
  5
2009
330
1F
100
AcDbEntity
  8
0
 62
     3
100
AcDbLine
 10
1711.282805032985
 20
99.73927213131347
 30
0.0
 11
1711.282805032985
 21
59.73927213131344
 31
0.0
  0
LINE
  5
200A
330
1F
100
AcDbEntity
  8
0
 62
     3
100
AcDbLine
 10
1770.528239672985
 20
83.73927213131343
 30
0.0
 11
1711.282805032985
 21
83.73927213131343
 31
0.0
  0
LINE
  5
200B
330
1F
100
AcDbEntity
  8
0
 62
     3
100
AcDbLine
 10
1753.806564602984
 20
64.57213339131341
 30
0.0
 11
1770.528239672985
 21
64.57213339131341
 31
0.0
  0
TEXT
  5
200C
330
1F
100
AcDbEntity
  8
0
 62
     3
100
AcDbText
 10
1754.6925650863
 20
78.8123689846788
 30
0.0
 40
2.5
  1
－
  7
高2.5
100
AcDbText
  0
TEXT
  5
200D
330
1F
100
AcDbEntity
  8
0
 62
     3
100
AcDbText
 10
1725.724608368237
 20
79.03708653629734
 30
0.0
 40
2.5
  1
アルミ/PC
  7
高2.5
100
AcDbText
  0
TEXT
  5
200E
330
1F
100
AcDbEntity
  8
0
 62
     3
100
AcDbText
 10
1725.989516122934
 20
92.05152165507131
 30
0.0
 40
4.5
  1
ハイスペックエコビック14W
 41
0.6
  7
高4.5
100
AcDbText
1001
ACAD
1000
ACAD_MTEXT_DEFINED_HEIGHT_BEGIN
1070
    46
1040
0.0
1000
ACAD_MTEXT_DEFINED_HEIGHT_END
  0
TEXT
  5
200F
330
1F
100
AcDbEntity
  8
0
 62
     3
100
AcDbText
 10
1812.593828766459
 20
96.25296423001707
 30
0.0
 40
2.0
  1
DEF
  7
高2
100
AcDbText
  0
TEXT
  5
2010
330
1F
100
AcDbEntity
  8
0
 62
     3
100
AcDbText
 10
1798.654730412751
 20
96.25296423001694
 30
0.0
 40
2.0
  1
DESN
  7
高2
100
AcDbText
  0
TEXT
  5
2011
330
1F
100
AcDbEntity
  8
0
 62
     3
100
AcDbText
 10
1772.40036347275
 20
96.25296423001707
 30
0.0
 40
2.0
  1
APPD
  7
高2
100
AcDbText
  0
TEXT
  5
2012
330
1F
100
AcDbEntity
  8
0
 62
     3
100
AcDbText
 10
1785.513099572985
 20
96.25296423001707
 30
0.0
 40
2.0
  1
CHCK
  7
高2
100
AcDbText
  0
TEXT
  5
2013
330
1F
100
AcDbEntity
  8
0
 62
     3
100
AcDbText
 10
1744.455405312137
 20
73.90767095454416
 30
0.0
 40
2.0
  1
SCALE
 41
0.8
  7
高2
100
AcDbText
  0
TEXT
  5
2014
330
1F
100
AcDbEntity
  8
0
 62
     3
100
AcDbText
 10
1712.967383736031
 20
73.90767095454418
 30
0.0
 40
2.0
  1
3AD　ANGLE
 41
1.5
  7
高2
100
AcDbText
  0
TEXT
  5
2015
330
1F
100
AcDbEntity
  8
0
 62
     3
100
AcDbText
 10
1743.724811002986
 20
80.65920902350127
 30
0.0
 40
2.0
  1
REMARKS
 41
0.7
  7
高2
100
AcDbText
  0
TEXT
  5
2016
330
1F
100
AcDbEntity
  8
0
 62
     3
100
AcDbText
 10
1712.750475382985
 20
80.73927213131344
 30
0.0
 40
2.0
  1
MATERIAL
 41
0.7
  7
高2
100
AcDbText
  0
TEXT
  5
2017
330
1F
100
AcDbEntity
  8
0
 62
     3
100
AcDbText
 10
1713.326962585739
 20
87.73927213131342
 30
0.0
 40
2.0
  1
MODEL
  7
高2
100
AcDbText
  0
TEXT
  5
2018
330
1F
100
AcDbEntity
  8
0
 62
     3
100
AcDbText
 10
1712.96388346707
 20
96.44629348191244
 30
0.0
 40
2.0
  1
CONPONENTS
 41
0.5
  7
高2
100
AcDbText
  0
TEXT
  5
201B
330
1F
100
AcDbEntity
  8
0
 62
     3
100
AcDbText
 10
1787.091749423314
 20
70.84016128954644
 30
0.0
 40
3.2
  1
2015.09.16
  7
高3.2
100
AcDbText
1001
ACAD
1000
ACAD_MTEXT_DEFINED_HEIGHT_BEGIN
1070
    46
1040
0.0
1000
ACAD_MTEXT_DEFINED_HEIGHT_END
  0
TEXT
  5
201C
330
1F
100
AcDbEntity
  8
0
 62
     3
100
AcDbText
 10
1757.315837567631
 20
70.84018913388131
 30
0.0
 40
3.2
  1
1/2
  7
高3.2
100
AcDbText
  0
TEXT
  5
201D
330
1F
100
AcDbEntity
  8
0
 62
     3
100
AcDbText
 10
1754.393166542985
 20
60.5561503044494
 30
0.0
 40
3.2
  1
ZK-A4Y
 41
0.8
  7
高3.2
100
AcDbText
  0
TEXT
  5
201E
330
1F
100
AcDbEntity
  8
0
 62
     3
100
AcDbText
 10
1712.113506072985
 20
66.26389255350125
 30
0.0
 40
2.0
  1
NICHIDO IND.CO.LTD
 41
1.3
  7
高2
100
AcDbText
  0
TEXT
  5
201F
330
1F
100
AcDbEntity
  8
0
 62
     3
100
AcDbText
 10
1713.295029337942
 20
91.87980033919835
 30
0.0
 40
3.2
  1
品 名
  7
高3.2
100
AcDbText
1001
ACAD
1000
ACAD_MTEXT_DEFINED_HEIGHT_BEGIN
1070
    46
1040
0.0
1000
ACAD_MTEXT_DEFINED_HEIGHT_END
  0
TEXT
  5
2020
330
1F
100
AcDbEntity
  8
0
 62
     3
100
AcDbText
 10
1713.295029337942
 20
84.2392721313134
 30
0.0
 40
3.2
  1
型 式
  7
高3.2
100
AcDbText
1001
ACAD
1000
ACAD_MTEXT_DEFINED_HEIGHT_BEGIN
1070
    46
1040
3.064735913775952
1000
ACAD_MTEXT_DEFINED_HEIGHT_END
  0
TEXT
  5
2021
330
1F
100
AcDbEntity
  8
0
 62
     3
100
AcDbText
 10
1713.295029337942
 20
77.23927213131344
 30
0.0
 40
3.2
  1
材 質
  7
高3.2
100
AcDbText
1001
ACAD
1000
ACAD_MTEXT_DEFINED_HEIGHT_BEGIN
1070
    46
1040
0.0
1000
ACAD_MTEXT_DEFINED_HEIGHT_END
  0
TEXT
  5
2022
330
1F
100
AcDbEntity
  8
0
 62
     3
100
AcDbText
 10
1712.989994387942
 20
70.20671212355967
 30
0.0
 40
3.2
  1
第 三 角 法
  7
高3.2
100
AcDbText
1001
ACAD
1000
ACAD_MTEXT_DEFINED_HEIGHT_BEGIN
1070
    46
1040
0.0
1000
ACAD_MTEXT_DEFINED_HEIGHT_END
  0
TEXT
  5
2023
330
1F
100
AcDbEntity
  8
0
 62
     3
100
AcDbText
 10
1711.396526995471
 20
60.87980033919837
 30
0.0
 40
3.2
  1
日動工業株式会社
 41
1.199999999999999
  7
高3.2
100
AcDbText
1001
ACAD
1000
ACAD_MTEXT_DEFINED_HEIGHT_BEGIN
1070
    46
1040
0.0
1000
ACAD_MTEXT_DEFINED_HEIGHT_END
  0
TEXT
  5
2024
330
1F
100
AcDbEntity
  8
0
 62
     3
100
AcDbText
 10
1745.032151194949
 20
77.12385066448098
 30
0.0
 40
3.2
  1
備考
  7
高3.2
100
AcDbText
1001
ACAD
1000
ACAD_MTEXT_DEFINED_HEIGHT_BEGIN
1070
    46
1040
0.0
1000
ACAD_MTEXT_DEFINED_HEIGHT_END
  0
TEXT
  5
2025
330
1F
100
AcDbEntity
  8
0
 62
     3
100
AcDbText
 10
1754.681208641985
 20
65.88550215688373
 30
0.0
 40
2.5
  1
出図コード
  7
高2.5
100
AcDbText
1001
ACAD
1000
ACAD_MTEXT_DEFINED_HEIGHT_BEGIN
1070
    46
1040
0.0
1000
ACAD_MTEXT_DEFINED_HEIGHT_END
  0
TEXT
  5
2026
330
1F
100
AcDbEntity
  8
0
 62
     3
100
AcDbText
 10
1744.873385076862
 20
70.19250704172636
 30
0.0
 40
3.2
  1
尺度
  7
高3.2
100
AcDbText
1001
ACAD
1000
ACAD_MTEXT_DEFINED_HEIGHT_BEGIN
1070
    46
1040
0.0
1000
ACAD_MTEXT_DEFINED_HEIGHT_END
  0
TEXT
  5
2027
330
1F
100
AcDbEntity
  8
0
 62
     3
100
AcDbText
 10
1772.019646558639
 20
71.32398548984385
 30
0.0
 40
3.2
  1
作成日
  7
高3.2
100
AcDbText
1001
ACAD
1000
ACAD_MTEXT_DEFINED_HEIGHT_BEGIN
1070
    46
1040
0.0
1000
ACAD_MTEXT_DEFINED_HEIGHT_END
  0
TEXT
  5
2028
330
1F
100
AcDbEntity
  8
0
 62
     3
100
AcDbText
 10
1771.914120565504
 20
91.87980033919835
 30
0.0
 40
3.2
  1
承 認
  7
高3.2
100
AcDbText
1001
ACAD
1000
ACAD_MTEXT_DEFINED_HEIGHT_BEGIN
1070
    46
1040
0.0
1000
ACAD_MTEXT_DEFINED_HEIGHT_END
  0
TEXT
  5
2029
330
1F
100
AcDbEntity
  8
0
 62
     3
100
AcDbText
 10
1784.914120565504
 20
91.87980033919835
 30
0.0
 40
3.2
  1
検 図
  7
高3.2
100
AcDbText
1001
ACAD
1000
ACAD_MTEXT_DEFINED_HEIGHT_BEGIN
1070
    46
1040
0.0
1000
ACAD_MTEXT_DEFINED_HEIGHT_END
  0
TEXT
  5
202A
330
1F
100
AcDbEntity
  8
0
 62
     3
100
AcDbText
 10
1797.914120565504
 20
91.87980033919835
 30
0.0
 40
3.2
  1
設 計
  7
高3.2
100
AcDbText
1001
ACAD
1000
ACAD_MTEXT_DEFINED_HEIGHT_BEGIN
1070
    46
1040
0.0
1000
ACAD_MTEXT_DEFINED_HEIGHT_END
  0
TEXT
  5
202B
330
1F
100
AcDbEntity
  8
0
 62
     3
100
AcDbText
 10
1811.214757085505
 20
91.87980033919835
 30
0.0
 40
3.2
  1
製 図
  7
高3.2
100
AcDbText
1001
ACAD
1000
ACAD_MTEXT_DEFINED_HEIGHT_BEGIN
1070
    46
1040
0.0
1000
ACAD_MTEXT_DEFINED_HEIGHT_END
  0
TEXT
  5
2041
330
1F
100
AcDbEntity
  8
0
 62
     3
100
AcDbText
 10
1810.028239672985
 20
327.2392721313134
 30
0.0
 40
3.2
  1
担　当
  7
高3.2
100
AcDbText
  0
TEXT
  5
2042
330
1F
100
AcDbEntity
  8
0
 62
     3
100
AcDbText
 10
1766.028239672985
 20
327.2392721313134
 30
0.0
 40
3.2
  1
変更・追記内容
  7
高3.2
100
AcDbText
  0
TEXT
  5
2043
330
1F
100
AcDbEntity
  8
0
 62
     3
100
AcDbText
 10
1741.141754673324
 20
322.5687336214051
 30
0.0
 40
2.0
  1
1
  7
高2
100
AcDbText
  0
TEXT
  5
2044
330
1F
100
AcDbEntity
  8
0
 62
     3
100
AcDbText
 10
1740.833243196567
 20
317.3989169091322
 30
0.0
 40
2.0
  1
2
  7
高2
100
AcDbText
  0
TEXT
  5
2045
330
1F
100
AcDbEntity
  8
0
 62
     3
100
AcDbText
 10
1748.028239672985
 20
327.2392721313134
 30
0.0
 40
3.2
  1
日　付
  7
高3.2
100
AcDbText
  0
TEXT
  5
2046
330
1F
100
AcDbEntity
  8
0
 62
     3
100
AcDbText
 10
1748.028239672985
 20
332.2392721313136
 30
0.0
 40
3.2
  1
図　　　　面　　　　略　　　　歴
  7
高3.2
100
AcDbText
  0
TEXT
  5
2047
330
1F
100
AcDbEntity
  8
0
 62
     3
100
AcDbText
 10
1738.028239672985
 20
327.2392721313134
 30
0.0
 40
3.2
  1
記号
  7
高3.2
100
AcDbText
  0
LINE
  5
2048
330
1F
100
AcDbEntity
  8
0
100
AcDbLine
 10
1741.528239672985
 20
320.5301681313136
 30
0.0
 11
1739.628239672985
 21
317.2392721313134
 31
0.0
  0
LINE
  5
2049
330
1F
100
AcDbEntity
  8
0
100
AcDbLine
 10
1741.528239672985
 20
320.5301681313136
 30
0.0
 11
1743.428239672985
 21
317.2392721313134
 31
0.0
  0
LINE
  5
204A
330
1F
100
AcDbEntity
  8
0
100
AcDbLine
 10
1739.628239672985
 20
317.2392721313134
 30
0.0
 11
1743.428239672985
 21
317.2392721313134
 31
0.0
  0
LINE
  5
204B
330
1F
100
AcDbEntity
  8
0
100
AcDbLine
 10
1741.528239672985
 20
325.5301691313136
 30
0.0
 11
1739.628239672985
 21
322.2392721313135
 31
0.0
  0
LINE
  5
204C
330
1F
100
AcDbEntity
  8
0
100
AcDbLine
 10
1741.528239672985
 20
325.5301691313136
 30
0.0
 11
1743.428239672985
 21
322.2392721313135
 31
0.0
  0
LINE
  5
204D
330
1F
100
AcDbEntity
  8
0
100
AcDbLine
 10
1739.628239672985
 20
322.2392721313135
 30
0.0
 11
1743.428239672985
 21
322.2392721313135
 31
0.0
  0
LINE
  5
204E
330
1F
100
AcDbEntity
  8
0
 62
     3
100
AcDbLine
 10
1736.528239672985
 20
331.7392721313134
 30
0.0
 11
1822.528239672985
 21
331.7392721313134
 31
0.0
  0
LINE
  5
204F
330
1F
100
AcDbEntity
  8
0
 62
     3
100
AcDbLine
 10
1736.528239672985
 20
326.7392721313135
 30
0.0
 11
1822.528239672985
 21
326.7392721313135
 31
0.0
  0
LINE
  5
2050
330
1F
100
AcDbEntity
  8
0
 62
     7
100
AcDbLine
 10
1736.528239672985
 20
321.7392721313134
 30
0.0
 11
1822.528239672985
 21
321.7392721313134
 31
0.0
  0
LINE
  5
2051
330
1F
100
AcDbEntity
  8
0
 62
     3
100
AcDbLine
 10
1736.528239672985
 20
316.7392721313134
 30
0.0
 11
1822.528239672985
 21
316.7392721313134
 31
0.0
  0
LINE
  5
2052
330
1F
100
AcDbEntity
  8
0
 62
     7
100
AcDbLine
 10
1808.528239672985
 20
316.7392721313134
 30
0.0
 11
1808.528239672985
 21
331.7392721313134
 31
0.0
  0
LINE
  5
2053
330
1F
100
AcDbEntity
  8
0
 62
     7
100
AcDbLine
 10
1764.528239672985
 20
316.7392721313134
 30
0.0
 11
1764.528239672985
 21
331.7392721313134
 31
0.0
  0
LINE
  5
2054
330
1F
100
AcDbEntity
  8
0
 62
     7
100
AcDbLine
 10
1746.528239672985
 20
316.7392721313134
 30
0.0
 11
1746.528239672985
 21
331.7392721313134
 31
0.0
  0
LINE
  5
2055
330
1F
100
AcDbEntity
  8
0
 62
     3
100
AcDbLine
 10
1736.528239672985
 20
316.7392721313134
 30
0.0
 11
1736.528239672985
 21
336.7392721313134
 31
0.0
  0
TEXT
  5
2064
330
1F
100
AcDbEntity
  8
0
 62
     3
100
AcDbText
 10
1772.690422294288
 20
61.17663435630809
 30
0.0
 40
6.299999999999998
  1
L14W-E26-BK(W)-50K-N
 41
0.4
  7
高6.3
100
AcDbText
1001
ACAD
1000
ACAD_MTEXT_DEFINED_HEIGHT_BEGIN
1070
    46
1040
0.0
1000
ACAD_MTEXT_DEFINED_HEIGHT_END
  0
TEXT
  5
2066
330
1F
100
AcDbEntity
  8
0
 62
     3
100
AcDbText
 10
1725.670998938237
 20
84.25249091904765
 30
0.0
 40
2.5
  1
L14W-E26-BK-50K-N
  7
高2.5
100
AcDbText
  0
TEXT
  5
2067
330
1F
100
AcDbEntity
  8
0
 62
     3
100
AcDbText
 10
1725.670998938237
 20
87.24400667806582
 30
0.0
 40
2.5
  1
L14W-E26-W-50K-N
  7
高2.5
100
AcDbText
  0
TEXT
  5
2069
330
1F
100
AcDbEntity
  8
0
100
AcDbText
 10
1815.106850618095
 20
80.54479759516061
 30
0.0
 40
3.2
  1
I
  7
高3.2
100
AcDbText
  0
TEXT
  5
24E4
330
1F
100
AcDbEntity
  8
0
 62
     4
100
AcDbText
 10
1710.515376803792
 20
190.4173137962157
 30
0.0
 40
3.0
  1
PC
100
AcDbText
1001
ACAD
1000
MTEXTBEGIN
1070
    73
1070
     1
1070
    44
1040
1.0
1070
    74
1070
     0
1000
MTEXTEND
  0
TEXT
  5
24E9
330
1F
100
AcDbEntity
  8
0
 62
     4
100
AcDbText
 10
1714.527662283819
 20
271.324620584086
 30
0.0
 40
3.0
  1
アルミ
100
AcDbText
1001
ACAD
1000
MTEXTBEGIN
1070
    73
1070
     1
1070
    44
1040
1.0
1070
    74
1070
     0
1000
MTEXTEND
  0
LINE
  5
24EC
330
1F
100
AcDbEntity
  8
0
100
AcDbLine
 10
1661.793253327267
 20
225.4148194332491
 30
0.0
 11
1661.793253327267
 21
205.7488219651361
 31
0.0
  0
LINE
  5
24ED
330
1F
100
AcDbEntity
  8
0
100
AcDbLine
 10
1721.793253327267
 20
225.4148194332492
 30
0.0
 11
1721.793253327267
 21
205.7488219651361
 31
0.0
  0
LINE
  5
24EE
330
1F
100
AcDbEntity
  8
0
100
AcDbLine
 10
1664.293253327267
 20
206.9988219651361
 30
0.0
 11
1719.293253327267
 21
206.9988219651361
 31
0.0
  0
LINE
  5
24F2
330
1F
100
AcDbEntity
  8
0
100
AcDbLine
 10
1691.543253327267
 20
291.6648194332491
 30
0.0
 11
1651.915644346939
 21
291.6648194332492
 31
0.0
  0
LINE
  5
24F3
330
1F
100
AcDbEntity
  8
0
100
AcDbLine
 10
1691.543253327267
 20
221.6648194332492
 30
0.0
 11
1651.915644346939
 21
221.6648194332492
 31
0.0
  0
LINE
  5
24F4
330
1F
100
AcDbEntity
  8
0
100
AcDbLine
 10
1653.165644346939
 20
289.1648194332492
 30
0.0
 11
1653.165644346939
 21
224.1648194332492
 31
0.0
  0
LINE
  5
24F8
330
1F
100
AcDbEntity
  8
0
100
AcDbLine
 10
1691.543253327267
 20
291.6648194332491
 30
0.0
 11
1658.890548899515
 21
291.6648194332492
 31
0.0
  0
LINE
  5
24F9
330
1F
100
AcDbEntity
  8
0
100
AcDbLine
 10
1678.543253327268
 20
255.9148194332491
 30
0.0
 11
1658.890548899515
 21
255.9148194332491
 31
0.0
  0
LINE
  5
24FA
330
1F
100
AcDbEntity
  8
0
100
AcDbLine
 10
1660.140548899515
 20
289.1648194332492
 30
0.0
 11
1660.140548899515
 21
258.4148194332491
 31
0.0
  0
LINE
  5
24FE
330
1F
100
AcDbEntity
  8
0
100
AcDbLine
 10
1704.793253327267
 20
263.6342167447241
 30
0.0
 11
1704.793253327267
 21
308.0479012507659
 31
0.0
  0
LINE
  5
24FF
330
1F
100
AcDbEntity
  8
0
100
AcDbLine
 10
1678.793253327268
 20
263.634216744724
 30
0.0
 11
1678.793253327268
 21
308.0479012507659
 31
0.0
  0
LINE
  5
2500
330
1F
100
AcDbEntity
  8
0
100
AcDbLine
 10
1702.293253327267
 20
306.7979012507659
 30
0.0
 11
1681.293253327268
 21
306.7979012507659
 31
0.0
  0
LINE
  5
2504
330
1F
100
AcDbEntity
  8
0
100
AcDbLine
 10
1698.290244077267
 20
285.9746279332489
 30
0.0
 11
1698.290244077267
 21
300.9483767856327
 31
0.0
  0
LINE
  5
2505
330
1F
100
AcDbEntity
  8
0
100
AcDbLine
 10
1685.294764037091
 20
287.0052566338907
 30
0.0
 11
1685.294764037091
 21
300.9483767856327
 31
0.0
  0
LINE
  5
2506
330
1F
100
AcDbEntity
  8
0
100
AcDbLine
 10
1695.790244077267
 20
299.6983767856327
 30
0.0
 11
1687.794764037091
 21
299.6983767856327
 31
0.0
  0
LINE
  5
250A
330
1F
100
AcDbEntity
  8
0
 62
     3
100
AcDbLine
 10
1688.351207292984
 20
337.1971547013135
 30
0.0
 11
1688.332579762985
 21
337.3164224713134
 31
0.0
  0
LINE
  5
250B
330
1F
100
AcDbEntity
  8
0
 62
     3
100
AcDbLine
 10
1688.332579762985
 20
337.3164224713134
 30
0.0
 11
1688.310208582985
 21
337.4306272513134
 31
0.0
  0
LINE
  5
250C
330
1F
100
AcDbEntity
  8
0
 62
     3
100
AcDbLine
 10
1688.310208582985
 20
337.4306272513134
 30
0.0
 11
1688.284266652984
 21
337.5388863113134
 31
0.0
  0
LINE
  5
250D
330
1F
100
AcDbEntity
  8
0
 62
     3
100
AcDbLine
 10
1688.284266652984
 20
337.5388863113134
 30
0.0
 11
1688.254954512984
 21
337.6403628613133
 31
0.0
  0
LINE
  5
250E
330
1F
100
AcDbEntity
  8
0
 62
     3
100
AcDbLine
 10
1688.254954512984
 20
337.6403628613133
 30
0.0
 11
1688.222498702985
 21
337.7342725413134
 31
0.0
  0
LINE
  5
250F
330
1F
100
AcDbEntity
  8
0
 62
     3
100
AcDbLine
 10
1688.222498702985
 20
337.7342725413134
 30
0.0
 11
1688.187150112985
 21
337.8198894813134
 31
0.0
  0
LINE
  5
2510
330
1F
100
AcDbEntity
  8
0
 62
     3
100
AcDbLine
 10
1688.187150112985
 20
337.8198894813134
 30
0.0
 11
1688.149181962985
 21
337.8965518913134
 31
0.0
  0
LINE
  5
2511
330
1F
100
AcDbEntity
  8
0
 62
     3
100
AcDbLine
 10
1688.149181962985
 20
337.8965518913134
 30
0.0
 11
1688.108887712985
 21
337.9636672313135
 31
0.0
  0
LINE
  5
2512
330
1F
100
AcDbEntity
  8
0
 62
     3
100
AcDbLine
 10
1688.108887712985
 20
337.9636672313135
 30
0.0
 11
1688.066578842985
 21
338.0207167213133
 31
0.0
  0
LINE
  5
2513
330
1F
100
AcDbEntity
  8
0
 62
     3
100
AcDbLine
 10
1688.066578842985
 20
338.0207167213133
 30
0.0
 11
1688.022582352985
 21
338.0672593913134
 31
0.0
  0
LINE
  5
2514
330
1F
100
AcDbEntity
  8
0
 62
     3
100
AcDbLine
 10
1688.022582352985
 20
338.0672593913134
 30
0.0
 11
1687.977238332984
 21
338.1029355113134
 31
0.0
  0
LINE
  5
2515
330
1F
100
AcDbEntity
  8
0
 62
     3
100
AcDbLine
 10
1687.977238332984
 20
338.1029355113134
 30
0.0
 11
1687.930897262984
 21
338.1274693013135
 31
0.0
  0
LINE
  5
2516
330
1F
100
AcDbEntity
  8
0
 62
     3
100
AcDbLine
 10
1687.930897262984
 20
338.1274693013135
 30
0.0
 11
1687.883917322985
 21
338.1406711513134
 31
0.0
  0
LINE
  5
2517
330
1F
100
AcDbEntity
  8
0
 62
     3
100
AcDbLine
 10
1687.883917322985
 20
338.1406711513134
 30
0.0
 11
1687.836661662984
 21
338.1424389913135
 31
0.0
  0
LINE
  5
2518
330
1F
100
AcDbEntity
  8
0
 62
     3
100
AcDbLine
 10
1687.836661662984
 20
338.1424389913135
 30
0.0
 11
1687.789495532985
 21
338.1327591813134
 31
0.0
  0
LINE
  5
2519
330
1F
100
AcDbEntity
  8
0
 62
     3
100
AcDbLine
 10
1687.789495532985
 20
338.1327591813134
 30
0.0
 11
1687.742783502985
 21
338.1117065213134
 31
0.0
  0
LINE
  5
251A
330
1F
100
AcDbEntity
  8
0
 62
     3
100
AcDbLine
 10
1687.742783502985
 20
338.1117065213134
 30
0.0
 11
1687.696886642985
 21
338.0794437513134
 31
0.0
  0
LINE
  5
251B
330
1F
100
AcDbEntity
  8
0
 62
     3
100
AcDbLine
 10
1687.696886642985
 20
338.0794437513134
 30
0.0
 11
1687.652159702985
 21
338.0362202413135
 31
0.0
  0
LINE
  5
251C
330
1F
100
AcDbEntity
  8
0
 62
     3
100
AcDbLine
 10
1687.652159702985
 20
338.0362202413135
 30
0.0
 11
1687.608948392985
 21
337.9823700813134
 31
0.0
  0
LINE
  5
251D
330
1F
100
AcDbEntity
  8
0
 62
     3
100
AcDbLine
 10
1687.608948392985
 20
337.9823700813134
 30
0.0
 11
1687.567586732985
 21
337.9183095113134
 31
0.0
  0
LINE
  5
251E
330
1F
100
AcDbEntity
  8
0
 62
     3
100
AcDbLine
 10
1687.567586732985
 20
337.9183095113134
 30
0.0
 11
1687.528394412985
 21
337.8445336913135
 31
0.0
  0
LINE
  5
251F
330
1F
100
AcDbEntity
  8
0
 62
     3
100
AcDbLine
 10
1687.528394412985
 20
337.8445336913135
 30
0.0
 11
1687.491674372985
 21
337.7616128613134
 31
0.0
  0
LINE
  5
2520
330
1F
100
AcDbEntity
  8
0
 62
     3
100
AcDbLine
 10
1687.491674372985
 20
337.7616128613134
 30
0.0
 11
1687.457710442984
 21
337.6701879513134
 31
0.0
  0
LINE
  5
2521
330
1F
100
AcDbEntity
  8
0
 62
     3
100
AcDbLine
 10
1687.457710442984
 20
337.6701879513134
 30
0.0
 11
1687.426765142985
 21
337.5709656513134
 31
0.0
  0
LINE
  5
2522
330
1F
100
AcDbEntity
  8
0
 62
     3
100
AcDbLine
 10
1687.426765142985
 20
337.5709656513134
 30
0.0
 11
1687.399077662985
 21
337.4647128813133
 31
0.0
  0
LINE
  5
2523
330
1F
100
AcDbEntity
  8
0
 62
     3
100
AcDbLine
 10
1687.399077662985
 20
337.4647128813133
 30
0.0
 11
1687.374862012985
 21
337.3522509213135
 31
0.0
  0
LINE
  5
2524
330
1F
100
AcDbEntity
  8
0
 62
     3
100
AcDbLine
 10
1687.374862012985
 20
337.3522509213135
 30
0.0
 11
1687.354305372984
 21
337.2344490413134
 31
0.0
  0
LINE
  5
2525
330
1F
100
AcDbEntity
  8
0
 62
     3
100
AcDbLine
 10
1687.354305372984
 20
337.2344490413134
 30
0.0
 11
1687.337566632985
 21
337.1122178013135
 31
0.0
  0
LINE
  5
2526
330
1F
100
AcDbEntity
  8
0
 62
     3
100
AcDbLine
 10
1687.337566632985
 20
337.1122178013135
 30
0.0
 11
1687.324775172985
 21
336.9865019813135
 31
0.0
  0
LINE
  5
2527
330
1F
100
AcDbEntity
  8
0
 62
     3
100
AcDbLine
 10
1687.324775172985
 20
336.9865019813135
 30
0.0
 11
1687.316029862985
 21
336.8582733013135
 31
0.0
  0
LINE
  5
2528
330
1F
100
AcDbEntity
  8
0
 62
     3
100
AcDbLine
 10
1687.316029862985
 20
336.8582733013135
 30
0.0
 11
1687.311398302985
 21
336.7285228913134
 31
0.0
  0
LINE
  5
2529
330
1F
100
AcDbEntity
  8
0
 62
     3
100
AcDbLine
 10
1687.311398302985
 20
336.7285228913134
 30
0.0
 11
1687.310916292984
 21
336.5982536613135
 31
0.0
  0
LINE
  5
252A
330
1F
100
AcDbEntity
  8
0
 62
     3
100
AcDbLine
 10
1687.310916292984
 20
336.5982536613135
 30
0.0
 11
1687.314587552985
 21
336.4684725413134
 31
0.0
  0
LINE
  5
252B
330
1F
100
AcDbEntity
  8
0
 62
     3
100
AcDbLine
 10
1687.314587552985
 20
336.4684725413134
 30
0.0
 11
1687.322383712985
 21
336.3401826513134
 31
0.0
  0
LINE
  5
252C
330
1F
100
AcDbEntity
  8
0
 62
     3
100
AcDbLine
 10
1687.322383712985
 20
336.3401826513134
 30
0.0
 11
1687.334244512985
 21
336.2143756113135
 31
0.0
  0
LINE
  5
252D
330
1F
100
AcDbEntity
  8
0
 62
     3
100
AcDbLine
 10
1687.334244512985
 20
336.2143756113135
 30
0.0
 11
1687.350078272985
 21
336.0920238413135
 31
0.0
  0
LINE
  5
252E
330
1F
100
AcDbEntity
  8
0
 62
     3
100
AcDbLine
 10
1687.350078272985
 20
336.0920238413135
 30
0.0
 11
1687.369762592985
 21
335.9740730713135
 31
0.0
  0
LINE
  5
252F
330
1F
100
AcDbEntity
  8
0
 62
     3
100
AcDbLine
 10
1687.369762592985
 20
335.9740730713135
 30
0.0
 11
1687.393145352985
 21
335.8614350013135
 31
0.0
  0
LINE
  5
2530
330
1F
100
AcDbEntity
  8
0
 62
     3
100
AcDbLine
 10
1687.393145352985
 20
335.8614350013135
 30
0.0
 11
1687.420045782985
 21
335.7549802413134
 31
0.0
  0
LINE
  5
2531
330
1F
100
AcDbEntity
  8
0
 62
     3
100
AcDbLine
 10
1687.420045782985
 20
335.7549802413134
 30
0.0
 11
1687.450255982985
 21
335.6555316513135
 31
0.0
  0
LINE
  5
2532
330
1F
100
AcDbEntity
  8
0
 62
     3
100
AcDbLine
 10
1687.450255982985
 20
335.6555316513135
 30
0.0
 11
1687.483542432985
 21
335.5638579213135
 31
0.0
  0
LINE
  5
2533
330
1F
100
AcDbEntity
  8
0
 62
     3
100
AcDbLine
 10
1687.483542432985
 20
335.5638579213135
 30
0.0
 11
1687.519647832985
 21
335.4806676213134
 31
0.0
  0
LINE
  5
2534
330
1F
100
AcDbEntity
  8
0
 62
     3
100
AcDbLine
 10
1687.519647832985
 20
335.4806676213134
 30
0.0
 11
1687.558293132985
 21
335.4066037913134
 31
0.0
  0
LINE
  5
2535
330
1F
100
AcDbEntity
  8
0
 62
     3
100
AcDbLine
 10
1687.558293132985
 20
335.4066037913134
 30
0.0
 11
1687.599179612984
 21
335.3422389013133
 31
0.0
  0
LINE
  5
2536
330
1F
100
AcDbEntity
  8
0
 62
     3
100
AcDbLine
 10
1687.599179612984
 20
335.3422389013133
 30
0.0
 11
1687.641991232984
 21
335.2880704513134
 31
0.0
  0
LINE
  5
2537
330
1F
100
AcDbEntity
  8
0
 62
     3
100
AcDbLine
 10
1687.641991232984
 20
335.2880704513134
 30
0.0
 11
1687.686397092985
 21
335.2445171313135
 31
0.0
  0
LINE
  5
2538
330
1F
100
AcDbEntity
  8
0
 62
     3
100
AcDbLine
 10
1687.686397092985
 20
335.2445171313135
 30
0.0
 11
1687.732053942985
 21
335.2119156013134
 31
0.0
  0
LINE
  5
2539
330
1F
100
AcDbEntity
  8
0
 62
     3
100
AcDbLine
 10
1687.732053942985
 20
335.2119156013134
 30
0.0
 11
1687.778608902984
 21
335.1905178413133
 31
0.0
  0
LINE
  5
253A
330
1F
100
AcDbEntity
  8
0
 62
     3
100
AcDbLine
 10
1687.778608902984
 20
335.1905178413133
 30
0.0
 11
1687.825702112984
 21
335.1804892613135
 31
0.0
  0
LINE
  5
253B
330
1F
100
AcDbEntity
  8
0
 62
     3
100
AcDbLine
 10
1687.825702112984
 20
335.1804892613135
 30
0.0
 11
1687.872969562985
 21
335.1819073613135
 31
0.0
  0
LINE
  5
253C
330
1F
100
AcDbEntity
  8
0
 62
     3
100
AcDbLine
 10
1687.872969562985
 20
335.1819073613135
 30
0.0
 11
1687.920045902985
 21
335.1947611813134
 31
0.0
  0
LINE
  5
253D
330
1F
100
AcDbEntity
  8
0
 62
     3
100
AcDbLine
 10
1687.920045902985
 20
335.1947611813134
 30
0.0
 11
1687.966567262985
 21
335.2189513813134
 31
0.0
  0
LINE
  5
253E
330
1F
100
AcDbEntity
  8
0
 62
     3
100
AcDbLine
 10
1687.966567262985
 20
335.2189513813134
 30
0.0
 11
1688.012174052985
 21
335.2542909613135
 31
0.0
  0
LINE
  5
253F
330
1F
100
AcDbEntity
  8
0
 62
     3
100
AcDbLine
 10
1688.012174052985
 20
335.2542909613135
 30
0.0
 11
1688.056513752985
 21
335.3005067813133
 31
0.0
  0
LINE
  5
2540
330
1F
100
AcDbEntity
  8
0
 62
     3
100
AcDbLine
 10
1688.056513752985
 20
335.3005067813133
 30
0.0
 11
1688.099243642984
 21
335.3572416213133
 31
0.0
  0
LINE
  5
2541
330
1F
100
AcDbEntity
  8
0
 62
     3
100
AcDbLine
 10
1688.099243642984
 20
335.3572416213133
 30
0.0
 11
1688.140033442985
 21
335.4240569313134
 31
0.0
  0
LINE
  5
2542
330
1F
100
AcDbEntity
  8
0
 62
     3
100
AcDbLine
 10
1688.140033442985
 20
335.4240569313134
 30
0.0
 11
1688.178567872984
 21
335.5004362813135
 31
0.0
  0
LINE
  5
2543
330
1F
100
AcDbEntity
  8
0
 62
     3
100
AcDbLine
 10
1688.178567872984
 20
335.5004362813135
 30
0.0
 11
1688.214549072985
 21
335.5857892913133
 31
0.0
  0
LINE
  5
2544
330
1F
100
AcDbEntity
  8
0
 62
     3
100
AcDbLine
 10
1688.214549072985
 20
335.5857892913133
 30
0.0
 11
1688.247698932985
 21
335.6794562213134
 31
0.0
  0
LINE
  5
2545
330
1F
100
AcDbEntity
  8
0
 62
     3
100
AcDbLine
 10
1688.247698932985
 20
335.6794562213134
 30
0.0
 11
1688.277761212985
 21
335.7807130813136
 31
0.0
  0
LINE
  5
2546
330
1F
100
AcDbEntity
  8
0
 62
     3
100
AcDbLine
 10
1688.277761212985
 20
335.7807130813136
 30
0.0
 11
1688.304503562985
 21
335.8887772013135
 31
0.0
  0
LINE
  5
2547
330
1F
100
AcDbEntity
  8
0
 62
     3
100
AcDbLine
 10
1688.304503562985
 20
335.8887772013135
 30
0.0
 11
1688.327719262985
 21
336.0028133113134
 31
0.0
  0
LINE
  5
2548
330
1F
100
AcDbEntity
  8
0
 62
     3
100
AcDbLine
 10
1688.327719262985
 20
336.0028133113134
 30
0.0
 11
1688.347228872985
 21
336.1219399613134
 31
0.0
  0
LINE
  5
2549
330
1F
100
AcDbEntity
  8
0
100
AcDbLine
 10
1699.789891789165
 20
179.7529106538907
 30
0.0
 11
1707.390376803792
 21
191.9173137962157
 31
0.0
1001
ACAD
1000
DSTYLE
1002
{
1070
   341
1005
AE4
1070
   147
1040
0.625
1070
    77
1070
     0
1002
}
  0
LINE
  5
254A
330
1F
100
AcDbEntity
  8
0
100
AcDbLine
 10
1707.390376803792
 20
191.9173137962157
 30
0.0
 11
1709.890376803792
 21
191.9173137962157
 31
0.0
1001
ACAD
1000
DSTYLE
1002
{
1070
   341
1005
AE4
1070
   147
1040
0.625
1070
    77
1070
     0
1002
}
  0
LINE
  5
254C
330
1F
100
AcDbEntity
  8
0
100
AcDbLine
 10
1705.914252100376
 20
261.884101215811
 30
0.0
 11
1711.402662283819
 21
272.8246205840859
 31
0.0
1001
ACAD
1000
DSTYLE
1002
{
1070
   147
1040
0.625
1070
    77
1070
     0
1002
}
  0
LINE
  5
254D
330
1F
100
AcDbEntity
  8
0
100
AcDbLine
 10
1711.402662283819
 20
272.8246205840859
 30
0.0
 11
1713.902662283819
 21
272.8246205840859
 31
0.0
1001
ACAD
1000
DSTYLE
1002
{
1070
   147
1040
0.625
1070
    77
1070
     0
1002
}
  0
LINE
  5
254E
330
1F
100
AcDbEntity
  8
0
  6
ByBlock
 62
     0
370
    -2
100
AcDbLine
 10
1706.513006414625
 20
261.5837307155551
 30
0.0
 11
1704.793253327267
 21
259.6495180889866
 31
0.0
  0
LINE
  5
254F
330
1F
100
AcDbEntity
  8
0
  6
ByBlock
 62
     0
370
    -2
100
AcDbLine
 10
1704.793253327267
 20
259.6495180889866
 30
0.0
 11
1705.315497786127
 21
262.1844717160668
 31
0.0
  0
LINE
  5
2550
330
1F
100
AcDbEntity
  8
0
  6
ByBlock
 62
     0
370
    -2
100
AcDbLine
 10
1704.793253327267
 20
259.6495180889866
 30
0.0
 11
1705.914252100376
 21
261.884101215811
 31
0.0
  0
TEXT
  5
2551
330
1F
100
AcDbEntity
  8
0
 62
     4
100
AcDbText
 10
1687.167930435466
 20
207.6238219651361
 30
0.0
 40
3.0
  1
\U+2205120
100
AcDbText
  0
LINE
  5
2552
330
1F
100
AcDbEntity
  8
0
  6
ByBlock
 62
     0
370
    -2
100
AcDbLine
 10
1719.293253327267
 20
207.6686944651361
 30
0.0
 11
1721.793253327267
 21
206.9988219651361
 31
0.0
  0
LINE
  5
2553
330
1F
100
AcDbEntity
  8
0
  6
ByBlock
 62
     0
370
    -2
100
AcDbLine
 10
1721.793253327267
 20
206.9988219651361
 30
0.0
 11
1719.293253327267
 21
206.3289494651361
 31
0.0
  0
LINE
  5
2554
330
1F
100
AcDbEntity
  8
0
  6
ByBlock
 62
     0
370
    -2
100
AcDbLine
 10
1721.793253327267
 20
206.9988219651361
 30
0.0
 11
1719.293253327267
 21
206.9988219651361
 31
0.0
  0
LINE
  5
2555
330
1F
100
AcDbEntity
  8
0
  6
ByBlock
 62
     0
370
    -2
100
AcDbLine
 10
1664.293253327267
 20
206.3289494651361
 30
0.0
 11
1661.793253327267
 21
206.9988219651361
 31
0.0
  0
LINE
  5
2556
330
1F
100
AcDbEntity
  8
0
  6
ByBlock
 62
     0
370
    -2
100
AcDbLine
 10
1661.793253327267
 20
206.9988219651361
 30
0.0
 11
1664.293253327267
 21
207.6686944651361
 31
0.0
  0
LINE
  5
2557
330
1F
100
AcDbEntity
  8
0
  6
ByBlock
 62
     0
370
    -2
100
AcDbLine
 10
1661.793253327267
 20
206.9988219651361
 30
0.0
 11
1664.293253327267
 21
206.9988219651361
 31
0.0
  0
TEXT
  5
2558
330
1F
100
AcDbEntity
  8
0
 62
     4
100
AcDbText
 10
1652.540644346939
 20
254.2084516226438
 30
0.0
 40
3.0
  1
140
 50
90.0
100
AcDbText
  0
LINE
  5
2559
330
1F
100
AcDbEntity
  8
0
  6
ByBlock
 62
     0
370
    -2
100
AcDbLine
 10
1653.835516846939
 20
224.1648194332492
 30
0.0
 11
1653.165644346939
 21
221.6648194332492
 31
0.0
  0
LINE
  5
255A
330
1F
100
AcDbEntity
  8
0
  6
ByBlock
 62
     0
370
    -2
100
AcDbLine
 10
1653.165644346939
 20
221.6648194332492
 30
0.0
 11
1652.495771846939
 21
224.1648194332492
 31
0.0
  0
LINE
  5
255B
330
1F
100
AcDbEntity
  8
0
  6
ByBlock
 62
     0
370
    -2
100
AcDbLine
 10
1653.165644346939
 20
221.6648194332492
 30
0.0
 11
1653.165644346939
 21
224.1648194332492
 31
0.0
  0
LINE
  5
255C
330
1F
100
AcDbEntity
  8
0
  6
ByBlock
 62
     0
370
    -2
100
AcDbLine
 10
1652.495771846939
 20
289.1648194332492
 30
0.0
 11
1653.165644346939
 21
291.6648194332492
 31
0.0
  0
LINE
  5
255D
330
1F
100
AcDbEntity
  8
0
  6
ByBlock
 62
     0
370
    -2
100
AcDbLine
 10
1653.165644346939
 20
291.6648194332492
 30
0.0
 11
1653.835516846939
 21
289.1648194332492
 31
0.0
  0
LINE
  5
255E
330
1F
100
AcDbEntity
  8
0
  6
ByBlock
 62
     0
370
    -2
100
AcDbLine
 10
1653.165644346939
 20
291.6648194332492
 30
0.0
 11
1653.165644346939
 21
289.1648194332492
 31
0.0
  0
TEXT
  5
255F
330
1F
100
AcDbEntity
  8
0
 62
     4
100
AcDbText
 10
1659.515548899515
 20
270.5523618610486
 30
0.0
 40
3.0
  1
71.5
 50
90.0
100
AcDbText
  0
LINE
  5
2560
330
1F
100
AcDbEntity
  8
0
  6
ByBlock
 62
     0
370
    -2
100
AcDbLine
 10
1660.810421399515
 20
258.4148194332491
 30
0.0
 11
1660.140548899515
 21
255.9148194332491
 31
0.0
  0
LINE
  5
2561
330
1F
100
AcDbEntity
  8
0
  6
ByBlock
 62
     0
370
    -2
100
AcDbLine
 10
1660.140548899515
 20
255.9148194332491
 30
0.0
 11
1659.470676399515
 21
258.4148194332491
 31
0.0
  0
LINE
  5
2562
330
1F
100
AcDbEntity
  8
0
  6
ByBlock
 62
     0
370
    -2
100
AcDbLine
 10
1660.140548899515
 20
255.9148194332491
 30
0.0
 11
1660.140548899515
 21
258.4148194332491
 31
0.0
  0
LINE
  5
2563
330
1F
100
AcDbEntity
  8
0
  6
ByBlock
 62
     0
370
    -2
100
AcDbLine
 10
1659.470676399515
 20
289.1648194332492
 30
0.0
 11
1660.140548899515
 21
291.6648194332492
 31
0.0
  0
LINE
  5
2564
330
1F
100
AcDbEntity
  8
0
  6
ByBlock
 62
     0
370
    -2
100
AcDbLine
 10
1660.140548899515
 20
291.6648194332492
 30
0.0
 11
1660.810421399515
 21
289.1648194332492
 31
0.0
  0
LINE
  5
2565
330
1F
100
AcDbEntity
  8
0
  6
ByBlock
 62
     0
370
    -2
100
AcDbLine
 10
1660.140548899515
 20
291.6648194332492
 30
0.0
 11
1660.140548899515
 21
289.1648194332492
 31
0.0
  0
TEXT
  5
2566
330
1F
100
AcDbEntity
  8
0
 62
     4
100
AcDbText
 10
1687.84414927524
 20
307.4229012507659
 30
0.0
 40
3.0
  1
\U+220552
100
AcDbText
  0
LINE
  5
2567
330
1F
100
AcDbEntity
  8
0
  6
ByBlock
 62
     0
370
    -2
100
AcDbLine
 10
1681.293253327268
 20
306.1280287507659
 30
0.0
 11
1678.793253327268
 21
306.7979012507659
 31
0.0
  0
LINE
  5
2568
330
1F
100
AcDbEntity
  8
0
  6
ByBlock
 62
     0
370
    -2
100
AcDbLine
 10
1678.793253327268
 20
306.7979012507659
 30
0.0
 11
1681.293253327268
 21
307.4677737507659
 31
0.0
  0
LINE
  5
2569
330
1F
100
AcDbEntity
  8
0
  6
ByBlock
 62
     0
370
    -2
100
AcDbLine
 10
1678.793253327268
 20
306.7979012507659
 30
0.0
 11
1681.293253327268
 21
306.7979012507659
 31
0.0
  0
LINE
  5
256A
330
1F
100
AcDbEntity
  8
0
  6
ByBlock
 62
     0
370
    -2
100
AcDbLine
 10
1702.293253327267
 20
307.4677737507659
 30
0.0
 11
1704.793253327267
 21
306.7979012507659
 31
0.0
  0
LINE
  5
256B
330
1F
100
AcDbEntity
  8
0
  6
ByBlock
 62
     0
370
    -2
100
AcDbLine
 10
1704.793253327267
 20
306.7979012507659
 30
0.0
 11
1702.293253327267
 21
306.1280287507659
 31
0.0
  0
LINE
  5
256C
330
1F
100
AcDbEntity
  8
0
  6
ByBlock
 62
     0
370
    -2
100
AcDbLine
 10
1704.793253327267
 20
306.7979012507659
 30
0.0
 11
1702.293253327267
 21
306.7979012507659
 31
0.0
  0
TEXT
  5
256D
330
1F
100
AcDbEntity
  8
0
 62
     4
100
AcDbText
 10
1688.115270041602
 20
300.3233767856327
 30
0.0
 40
3.0
  1
E26
100
AcDbText
  0
LINE
  5
256E
330
1F
100
AcDbEntity
  8
0
  6
ByBlock
 62
     0
370
    -2
100
AcDbLine
 10
1687.794764037091
 20
299.0285042856327
 30
0.0
 11
1685.294764037091
 21
299.6983767856327
 31
0.0
  0
LINE
  5
256F
330
1F
100
AcDbEntity
  8
0
  6
ByBlock
 62
     0
370
    -2
100
AcDbLine
 10
1685.294764037091
 20
299.6983767856327
 30
0.0
 11
1687.794764037091
 21
300.3682492856327
 31
0.0
  0
LINE
  5
2570
330
1F
100
AcDbEntity
  8
0
  6
ByBlock
 62
     0
370
    -2
100
AcDbLine
 10
1685.294764037091
 20
299.6983767856327
 30
0.0
 11
1687.794764037091
 21
299.6983767856327
 31
0.0
  0
LINE
  5
2571
330
1F
100
AcDbEntity
  8
0
  6
ByBlock
 62
     0
370
    -2
100
AcDbLine
 10
1695.790244077267
 20
300.3682492856327
 30
0.0
 11
1698.290244077267
 21
299.6983767856327
 31
0.0
  0
LINE
  5
2572
330
1F
100
AcDbEntity
  8
0
  6
ByBlock
 62
     0
370
    -2
100
AcDbLine
 10
1698.290244077267
 20
299.6983767856327
 30
0.0
 11
1695.790244077267
 21
299.0285042856327
 31
0.0
  0
LINE
  5
2573
330
1F
100
AcDbEntity
  8
0
  6
ByBlock
 62
     0
370
    -2
100
AcDbLine
 10
1698.290244077267
 20
299.6983767856327
 30
0.0
 11
1695.790244077267
 21
299.6983767856327
 31
0.0
  0
ARC
  5
2574
330
1F
100
AcDbEntity
  8
0
  6
ByBlock
 62
     0
100
AcDbCircle
 10
1699.789891789165
 20
179.7529106538907
 30
0.0
 40
0.1562499999999614
100
AcDbArc
 50
58.0022957090767
 51
238.0022957090767
  0
ARC
  5
2575
330
1F
100
AcDbEntity
  8
0
  6
ByBlock
 62
     0
100
AcDbCircle
 10
1699.789891789165
 20
179.7529106538907
 30
0.0
 40
0.1562499999999614
100
AcDbArc
 50
238.0022957090767
 51
58.0022957090767
  0
ENDSEC
  0
SECTION
  2
OBJECTS
  0
DICTIONARY
  5
C
330
0
100
AcDbDictionary
281
     1
  3
ACAD_2007HEADERVARS_RT
350
2579
  3
ACAD_COLOR
350
73
  3
ACAD_GROUP
350
D
  3
ACAD_LAYOUT
350
1A
  3
ACAD_MATERIAL
350
72
  3
ACAD_MLEADERSTYLE
350
168
  3
ACAD_MLINESTYLE
350
17
  3
ACAD_PLOTSETTINGS
350
19
  3
ACAD_PLOTSTYLENAME
350
E
  3
ACAD_SCALELIST
350
156
  3
ACAD_TABLESTYLE
350
86
  3
ACAD_VISUALSTYLE
350
99
  3
ACDB_RECOMPOSE_DATA
350
2577
  3
AcDbVariableDictionary
350
66
  3
DWGPROPS
350
2578
  0
DICTIONARY
  5
DD
330
2
100
AcDbDictionary
280
     1
281
     1
  3
ACAD_LAYERSTATES
360
DE
  0
DICTIONARY
  5
8E9
330
10
100
AcDbDictionary
280
     1
281
     1
  3
ADSK_XREC_LAYER_RECONCILED
360
1421
  0
DICTIONARY
  5
324
330
1F
100
AcDbDictionary
280
     1
281
     1
  3
ACAD_SORTENTS
360
325
  0
DICTIONARY
  5
1921
330
1920
100
AcDbDictionary
280
     1
281
     1
  3
ACAD_SORTENTS
360
1922
  0
DICTIONARY
  5
2579
102
{ACAD_REACTORS
330
C
102
}
330
C
100
AcDbDictionary
281
     1
  3
DIMARCSYM
350
257B
  3
DIMFXL
350
257A
  3
DIMJOGANG
350
257C
  0
DICTIONARY
  5
73
102
{ACAD_REACTORS
330
C
102
}
330
C
100
AcDbDictionary
281
     1
  0
DICTIONARY
  5
D
102
{ACAD_REACTORS
330
C
102
}
330
C
100
AcDbDictionary
281
     1
  0
DICTIONARY
  5
1A
102
{ACAD_REACTORS
330
C
102
}
330
C
100
AcDbDictionary
281
     1
  3
Model
350
22
  3
レイアウト1
350
59
  3
レイアウト2
350
5E
  0
DICTIONARY
  5
72
102
{ACAD_REACTORS
330
C
102
}
330
C
100
AcDbDictionary
281
     1
  3
ByBlock
350
97
  3
ByLayer
350
96
  3
Global
350
98
  0
DICTIONARY
  5
168
102
{ACAD_REACTORS
330
C
102
}
330
C
100
AcDbDictionary
281
     1
  3
Standard
350
169
  0
DICTIONARY
  5
17
102
{ACAD_REACTORS
330
C
102
}
330
C
100
AcDbDictionary
281
     1
  3
Standard
350
18
  0
DICTIONARY
  5
19
102
{ACAD_REACTORS
330
C
102
}
330
C
100
AcDbDictionary
281
     1
  0
ACDBDICTIONARYWDFLT
  5
E
102
{ACAD_REACTORS
330
C
102
}
330
C
100
AcDbDictionary
281
     1
  3
Normal
350
F
100
AcDbDictionaryWithDefault
340
F
  0
DICTIONARY
  5
156
102
{ACAD_REACTORS
330
C
102
}
330
C
100
AcDbDictionary
281
     1
  3
A0
350
157
  3
A1
350
158
  3
A2
350
159
  3
A3
350
15A
  3
A4
350
15B
  3
A5
350
15C
  3
A6
350
15D
  3
A7
350
15E
  3
A8
350
15F
  3
A9
350
160
  3
B0
350
161
  3
B1
350
162
  3
B2
350
163
  3
B3
350
164
  3
B4
350
165
  3
B5
350
166
  3
B6
350
167
  0
DICTIONARY
  5
86
102
{ACAD_REACTORS
330
C
102
}
330
C
100
AcDbDictionary
281
     1
  3
Standard
350
87
  0
DICTIONARY
  5
99
102
{ACAD_REACTORS
330
C
102
}
330
C
100
AcDbDictionary
281
     1
  3
2dWireframe
350
9F
  3
3D Hidden
350
A1
  3
3dWireframe
350
A0
  3
Basic
350
9E
  3
Brighten
350
A5
  3
ColorChange
350
A9
  3
Conceptual
350
A2
  3
Dim
350
A4
  3
EdgeColorOff
350
155
  3
Facepattern
350
A8
  3
Flat
350
9A
  3
FlatWithEdges
350
9B
  3
Gouraud
350
9C
  3
GouraudWithEdges
350
9D
  3
Hidden
350
14D
  3
JitterOff
350
153
  3
Linepattern
350
A7
  3
OverhangOff
350
154
  3
Realistic
350
A3
  3
Shaded
350
152
  3
Shaded with edges
350
151
  3
Shades of Gray
350
14E
  3
Sketchy
350
14F
  3
Thicken
350
A6
  3
Wireframe
350
14C
  3
X-Ray
350
150
  0
XRECORD
  5
2577
102
{ACAD_REACTORS
330
C
102
}
330
C
100
AcDbXrecord
280
     1
 90
        1
330
87
  0
DICTIONARY
  5
66
102
{ACAD_REACTORS
330
C
102
}
330
C
100
AcDbDictionary
281
     1
  3
CANNOSCALE
350
24A
  3
CMLEADERSTYLE
350
248
  3
CTABLESTYLE
350
89
  3
DIMASSOC
350
67
  3
HIDETEXT
350
6B
  3
INDEXCTL
350
1424
  3
LAYEREVAL
350
24C
  3
LAYERNOTIFY
350
24D
  3
LIGHTINGUNITS
350
24B
  3
MSLTSCALE
350
249
  3
SORTENTS
350
1423
  3
XCLIPFRAME
350
24A1
  0
XRECORD
  5
2578
102
{ACAD_REACTORS
330
C
102
}
330
C
100
AcDbXrecord
280
     1
  1
DWGPROPS COOKIE
  2

  3

  4

  6

  7

  8
imamura
  9

300
=
301
=
302
=
303
=
304
=
305
=
306
=
307
=
308
=
309
=
 40
0.2285282060185185
 41
2456477.398258588
 42
2457317.68827095
  1

 90
        0
  0
DICTIONARY
  5
DE
102
{ACAD_REACTORS
330
DD
102
}
330
DD
100
AcDbDictionary
281
     1
  0
XRECORD
  5
1421
102
{ACAD_REACTORS
330
8E9
102
}
330
8E9
100
AcDbXrecord
280
     1
290
     1
  0
SORTENTSTABLE
  5
325
102
{ACAD_REACTORS
330
324
102
}
330
324
100
AcDbSortentsTable
330
1F
331
1D84
  5
1FA5
331
1D80
  5
1FA1
331
24EE
  5
2066
331
1D95
  5
1FB6
331
1D91
  5
1FB2
331
1DC4
  5
1FEE
331
1D8D
  5
1FAE
331
1DC0
  5
1FEA
331
1D89
  5
1FAA
331
252C
  5
1F10
331
2567
  5
2036
331
2027
  5
1F93
331
2528
  5
1F0C
331
2563
  5
2043
331
2023
  5
1F8F
331
2524
  5
1F08
331
201F
  5
1F8B
331
2520
  5
1F04
331
201B
  5
1F87
331
1E24
  5
2527
331
1FAE
  5
1EC6
331
1E20
  5
2523
331
1FAA
  5
1EC2
331
1EAB
  5
255B
331
1E1C
  5
251F
331
1FE5
  5
1F40
331
1FA6
  5
1EBE
331
1E18
  5
251B
331
1FE1
  5
1F3C
331
1FA2
  5
1EBA
331
1D7C
  5
1F9D
331
1D78
  5
1F99
331
1DBC
  5
1FE6
331
1DB8
  5
1FE2
331
1DB4
  5
1FDE
331
255F
  5
2049
331
1DB0
  5
1FDA
331
255B
  5
2052
331
251C
  5
1F00
331
2557
  5
24E4
331
2017
  5
1F85
331
2518
  5
1EFC
331
2553
  5
24E8
331
2013
  5
1F81
331
2514
  5
1EF8
331
2066
  5
2573
331
2510
  5
1EF4
331
200F
  5
1F7D
331
200B
  5
1F79
331
1EA3
  5
2557
331
1E14
  5
2517
331
1FDD
  5
1F38
331
1F9E
  5
1EB6
331
1E9F
  5
2555
331
1E10
  5
2513
331
1FD9
  5
1F34
331
1F9A
  5
1EB2
331
1E0C
  5
250F
331
1F96
  5
1EAE
331
1E08
  5
250B
331
1F92
  5
1EAA
331
1FD1
  5
1EE9
331
1E4D
  5
2550
331
1E49
  5
254C
331
1DAC
  5
1FD6
331
1DA8
  5
1FD2
331
1DA4
  5
1FCE
331
254F
  5
24EC
331
1DA0
  5
1FCA
331
250C
  5
1EF0
331
2547
  5
1F2D
331
2007
  5
1F75
331
2052
  5
256E
331
2504
  5
2008
331
2543
  5
1F29
331
2003
  5
1F71
331
204E
  5
256A
331
2500
  5
2020
331
1FFF
  5
1F6E
331
204A
  5
2566
331
1E47
  5
254A
331
1E43
  5
2546
331
1E04
  5
2507
331
1F8E
  5
1EA6
331
1FCD
  5
1EE5
331
1E3F
  5
2542
331
1E00
  5
2503
331
1F8A
  5
1EA2
331
1FC9
  5
1EE1
331
1E3B
  5
253E
331
1DFC
  5
24FF
331
1FC5
  5
1EDD
331
1F86
  5
1E9E
331
1DF8
  5
24FB
331
1FC1
  5
1ED9
331
1F82
  5
1E96
331
1DDC
  5
2006
331
1DD8
  5
2002
331
1DF4
  5
24F7
331
1D9C
  5
1FBD
331
1D98
  5
1FB9
331
253F
  5
1F25
331
253B
  5
1F21
331
2046
  5
2562
331
24F8
  5
2040
331
2537
  5
1F1D
331
1FF7
  5
1F67
331
2042
  5
255E
331
24F4
  5
204C
331
2533
  5
1F18
331
2575
  5
24F3
331
1FF3
  5
1F63
331
2571
  5
200E
331
1FEF
  5
1F5F
331
202A
  5
1F96
331
256D
  5
201A
331
1FEB
  5
1F5B
331
2569
  5
203E
331
1E37
  5
253A
331
1E33
  5
2536
331
1DD4
  5
1FFE
331
1F7E
  5
1E92
331
1FBD
  5
1ED5
331
1E2F
  5
2532
331
1DD0
  5
1FFA
331
1F7A
  5
1E8C
331
1FB9
  5
1ED1
331
1E2B
  5
252E
331
1DCC
  5
1FF6
331
1FB5
  5
1ECD
331
1DC8
  5
1FF2
331
1FB1
  5
1EC9
331
1D87
  5
1FA8
331
1D83
  5
1FA4
331
24ED
  5
2064
331
1D94
  5
1FB5
331
24E9
  5
24F0
331
1DC7
  5
1FF1
331
1D90
  5
1FB1
331
1DC3
  5
1FED
331
1D8C
  5
1FAD
331
1D88
  5
1FA9
331
252F
  5
1F14
331
252B
  5
1F0F
331
2566
  5
203F
331
2026
  5
1F92
331
2527
  5
1F0B
331
2562
  5
2048
331
2022
  5
1F8E
331
2523
  5
1F07
331
201E
  5
1F8A
331
1E27
  5
252A
331
1E23
  5
2526
331
1FAD
  5
1EC5
331
1E1F
  5
2522
331
1FA9
  5
1EC1
331
1EAA
  5
255A
331
1E1B
  5
251E
331
1FE4
  5
1F3F
331
1FA5
  5
1EBD
331
1FE0
  5
1F3B
331
1FA1
  5
1EB9
331
1D7F
  5
1FA0
331
1D7B
  5
1F9C
331
1D77
  5
1F98
331
1DBF
  5
1FE9
331
1DBB
  5
1FE5
331
1DB7
  5
1FE1
331
1DB3
  5
1FDD
331
255E
  5
204F
331
251F
  5
1F03
331
255A
  5
2051
331
251B
  5
1EFF
331
2556
  5
2069
331
2016
  5
1F84
331
2517
  5
1EFB
331
2552
  5
24E5
331
2069
  5
2575
331
2513
  5
1EF7
331
2012
  5
1F80
331
200E
  5
1F7C
331
200A
  5
1F78
331
1E17
  5
251A
331
1EA2
  5
2556
331
1E13
  5
2516
331
1FDC
  5
1F37
331
1F9D
  5
1EB5
331
1E9E
  5
2554
331
1E0F
  5
2512
331
1FD8
  5
1F33
331
1F99
  5
1EB1
331
1E0B
  5
250E
331
1FD4
  5
1EEC
331
1F95
  5
1EAD
331
1F91
  5
1EA9
331
1FD0
  5
1EE8
331
1E4C
  5
254F
331
1E48
  5
254B
331
1DAF
  5
1FD9
331
1DAB
  5
1FD5
331
1DA7
  5
1FD1
331
1DA3
  5
1FCD
331
254E
  5
24EB
331
250F
  5
1EF3
331
254A
  5
24F5
331
250B
  5
1EEF
331
2055
  5
2571
331
2546
  5
1F2C
331
2006
  5
1F74
331
2051
  5
256D
331
2542
  5
1F28
331
204D
  5
2569
331
1FFE
  5
1F6D
331
2049
  5
2565
331
1FFA
  5
1F6A
331
1E46
  5
2549
331
1E07
  5
250A
331
1E42
  5
2545
331
1E03
  5
2506
331
1F8D
  5
1EA5
331
1FCC
  5
1EE4
331
1E3E
  5
2541
331
1DFF
  5
2502
331
1F89
  5
1EA1
331
1FC8
  5
1EE0
331
1E3A
  5
253D
331
1DFB
  5
24FE
331
1FC4
  5
1EDC
331
1F85
  5
1E9D
331
1F81
  5
1E95
331
1FC0
  5
1ED8
331
1DDB
  5
2005
331
1DF7
  5
24FA
331
1D9F
  5
1FC4
331
1D9B
  5
1FBC
331
24FF
  5
201C
331
253E
  5
1F24
331
253A
  5
1F20
331
2045
  5
2561
331
2536
  5
1F1C
331
1FF6
  5
1F66
331
2041
  5
255D
331
24F3
  5
204B
331
2532
  5
1F17
331
2574
  5
24F2
331
1FF2
  5
1F62
331
2570
  5
2016
331
1FEE
  5
1F5E
331
2029
  5
1F95
331
256C
  5
2023
331
1FEA
  5
1F5A
331
2568
  5
203D
331
1E36
  5
2539
331
1DD7
  5
2001
331
1E32
  5
2535
331
1DD3
  5
1FFD
331
1F7D
  5
1E91
331
1FBC
  5
1ED4
331
1E2E
  5
2531
331
1DCF
  5
1FF9
331
1FB8
  5
1ED0
331
1E2A
  5
252D
331
1DCB
  5
1FF5
331
1FB4
  5
1ECC
331
1FB0
  5
1EC8
331
1D86
  5
1FA7
331
1D82
  5
1FA3
331
1D97
  5
1FB8
331
24EC
  5
2055
331
1D93
  5
1FB4
331
1DC6
  5
1FF0
331
1D8F
  5
1FB0
331
1DC2
  5
1FEC
331
1D8B
  5
1FAC
331
252E
  5
1F12
331
252A
  5
1F0E
331
2565
  5
2045
331
2025
  5
1F91
331
2526
  5
1F0A
331
2561
  5
2047
331
2021
  5
1F8D
331
2522
  5
1F06
331
201D
  5
1F89
331
1E26
  5
2529
331
1E22
  5
2525
331
1FAC
  5
1EC4
331
1E1E
  5
2521
331
1FE7
  5
1F42
331
1FA8
  5
1EC0
331
1EA9
  5
2559
331
1E1A
  5
251D
331
1FE3
  5
1F3E
331
1FA4
  5
1EBC
331
1FA0
  5
1EB8
331
1D7E
  5
1F9F
331
1D7A
  5
1F9B
331
24E4
  5
24F6
331
1DBE
  5
1FE8
331
1DBA
  5
1FE4
331
1DB6
  5
1FE0
331
1DB2
  5
1FDC
331
255D
  5
204E
331
251E
  5
1F02
331
2559
  5
2050
331
251A
  5
1EFE
331
2555
  5
2067
331
2015
  5
1F83
331
2516
  5
1EFA
331
2551
  5
24EA
331
2011
  5
1F7F
331
2512
  5
1EF6
331
2064
  5
2572
331
200D
  5
1F7B
331
2009
  5
1F77
331
1E16
  5
2519
331
1FDF
  5
1F3A
331
1E12
  5
2515
331
1FDB
  5
1F36
331
1F9C
  5
1EB4
331
1E9D
  5
2553
331
1E0E
  5
2511
331
1FD7
  5
1F30
331
1F98
  5
1EB0
331
1E0A
  5
250D
331
1FD3
  5
1EEB
331
1F94
  5
1EAC
331
1F90
  5
1EA8
331
1DEA
  5
2054
331
1E4B
  5
254E
331
1DAE
  5
1FD8
331
1DAA
  5
1FD4
331
1DA6
  5
1FD0
331
1DA2
  5
1FCC
331
254D
  5
24EF
331
250E
  5
1EF2
331
2549
  5
24F4
331
250A
  5
1EEE
331
2054
  5
2570
331
2506
  5
200A
331
2545
  5
1F2B
331
2005
  5
1F73
331
2050
  5
256C
331
2541
  5
1F27
331
2001
  5
1F70
331
204C
  5
2568
331
1FFD
  5
1F6C
331
2048
  5
2564
331
1FF9
  5
1F69
331
1E45
  5
2548
331
1E06
  5
2509
331
1FCF
  5
1EE7
331
1E41
  5
2544
331
1E02
  5
2505
331
1F8C
  5
1EA4
331
1FCB
  5
1EE3
331
1E3D
  5
2540
331
1DFE
  5
2501
331
1F88
  5
1EA0
331
1FC7
  5
1EDF
331
1E39
  5
253C
331
1DFA
  5
24FD
331
1FC3
  5
1EDB
331
1F84
  5
1E9C
331
1F80
  5
1E94
331
1DDA
  5
2004
331
1DF6
  5
24F9
331
1D9E
  5
1FBF
331
1D9A
  5
1FBB
331
24FE
  5
201B
331
253D
  5
1F23
331
24FA
  5
2042
331
2539
  5
1F1F
331
2044
  5
2560
331
2535
  5
1F1B
331
1FF5
  5
1F65
331
24F2
  5
204A
331
2531
  5
1F16
331
2573
  5
2010
331
1FF1
  5
1F61
331
256F
  5
2015
331
1FED
  5
1F5D
331
2028
  5
1F94
331
256B
  5
2022
331
1FE9
  5
1F59
331
1E35
  5
2538
331
1DD6
  5
2000
331
1FBF
  5
1ED7
331
1E31
  5
2534
331
1DD2
  5
1FFC
331
1F7C
  5
1E90
331
1FBB
  5
1ED3
331
1E2D
  5
2530
331
1DCE
  5
1FF8
331
1F78
  5
1E4E
331
1FB7
  5
1ECF
331
1E29
  5
252C
331
1DCA
  5
1FF4
331
1FB3
  5
1ECB
331
1D85
  5
1FA6
331
1D81
  5
1FA2
331
1D96
  5
1FB7
331
1D92
  5
1FB3
331
1DC5
  5
1FEF
331
1D8E
  5
1FAF
331
1DC1
  5
1FEB
331
1D8A
  5
1FAB
331
252D
  5
1F11
331
2529
  5
1F0D
331
2564
  5
2044
331
2024
  5
1F90
331
2525
  5
1F09
331
2560
  5
2046
331
2020
  5
1F8C
331
2521
  5
1F05
331
201C
  5
1F88
331
2018
  5
1F86
331
1E25
  5
2528
331
1FAF
  5
1EC7
331
1E21
  5
2524
331
1FAB
  5
1EC3
331
1EAC
  5
255C
331
1E1D
  5
2520
331
1FE6
  5
1F41
331
1FA7
  5
1EBF
331
1E19
  5
251C
331
1FE2
  5
1F3D
331
1FA3
  5
1EBB
331
1D7D
  5
1F9E
331
1D79
  5
1F9A
331
1DBD
  5
1FE7
331
1DB9
  5
1FE3
331
1DB5
  5
1FDF
331
1DB1
  5
1FDB
331
255C
  5
204D
331
251D
  5
1F01
331
2558
  5
2053
331
2519
  5
1EFD
331
2554
  5
24E9
331
2014
  5
1F82
331
2515
  5
1EF9
331
2550
  5
24ED
331
2067
  5
2574
331
2511
  5
1EF5
331
2010
  5
1F7E
331
200C
  5
1F7A
331
2008
  5
1F76
331
1EA4
  5
2558
331
1E15
  5
2518
331
1FDE
  5
1F39
331
1F9F
  5
1EB7
331
1E11
  5
2514
331
1FDA
  5
1F35
331
1F9B
  5
1EB3
331
1E9C
  5
2552
331
1E0D
  5
2510
331
1FD6
  5
1F2F
331
1F97
  5
1EAF
331
1E09
  5
250C
331
1FD2
  5
1EEA
331
1F93
  5
1EAB
331
1E4E
  5
2551
331
1E4A
  5
254D
331
1DAD
  5
1FD7
331
1DA9
  5
1FD3
331
1DA5
  5
1FCF
331
1DA1
  5
1FCB
331
254C
  5
24EE
331
250D
  5
1EF1
331
2548
  5
1F2E
331
2053
  5
256F
331
2505
  5
2009
331
2544
  5
1F2A
331
2004
  5
1F72
331
204F
  5
256B
331
2540
  5
1F26
331
2000
  5
1F6F
331
204B
  5
2567
331
1FFC
  5
1F6B
331
1FF8
  5
1F68
331
1E44
  5
2547
331
1E05
  5
2508
331
1F8F
  5
1EA7
331
1FCE
  5
1EE6
331
1E40
  5
2543
331
1E01
  5
2504
331
1F8B
  5
1EA3
331
1FCA
  5
1EE2
331
1E3C
  5
253F
331
1DFD
  5
2500
331
1F87
  5
1E9F
331
1FC6
  5
1EDE
331
1E38
  5
253B
331
1DF9
  5
24FC
331
1FC2
  5
1EDA
331
1F83
  5
1E97
331
1DDD
  5
2007
331
1DD9
  5
2003
331
1DF5
  5
24F8
331
1D9D
  5
1FBE
331
1D99
  5
1FBA
331
253C
  5
1F22
331
2047
  5
2563
331
24F9
  5
2041
331
2538
  5
1F1E
331
2043
  5
255F
331
2534
  5
1F19
331
1FF4
  5
1F64
331
2530
  5
1F15
331
2572
  5
200F
331
1FF0
  5
1F60
331
202B
  5
1F97
331
256E
  5
2014
331
1FEC
  5
1F5C
331
256A
  5
2021
331
1FE8
  5
1F43
331
1E34
  5
2537
331
1DD5
  5
1FFF
331
1F7F
  5
1E93
331
1FBE
  5
1ED6
331
1E30
  5
2533
331
1DD1
  5
1FFB
331
1F7B
  5
1E8F
331
1FBA
  5
1ED2
331
1E2C
  5
252F
331
1DCD
  5
1FF7
331
1F77
  5
1E4D
331
1FB6
  5
1ECE
331
1E28
  5
252B
331
1DC9
  5
1FF3
331
1FB2
  5
1ECA
  0
SORTENTSTABLE
  5
1922
102
{ACAD_REACTORS
330
1921
102
}
330
1921
100
AcDbSortentsTable
330
1920
  0
XRECORD
  5
257B
102
{ACAD_REACTORS
330
2579
102
}
330
2579
100
AcDbXrecord
280
     1
 70
     2
  0
XRECORD
  5
257A
102
{ACAD_REACTORS
330
2579
102
}
330
2579
100
AcDbXrecord
280
     1
 40
1.25
  0
XRECORD
  5
257C
102
{ACAD_REACTORS
330
2579
102
}
330
2579
100
AcDbXrecord
280
     1
 40
1.570796326794896
  0
LAYOUT
  5
22
102
{ACAD_XDICTIONARY
360
257D
102
}
102
{ACAD_REACTORS
330
1A
102
}
330
1A
100
AcDbPlotSettings
  1

  2
none_device
  4
ANSI_A_(8.50_x_11.00_Inches)
  6

 40
6.349999904632567
 41
19.04999923706055
 42
6.350006103515625
 43
19.04998779296875
 44
215.8999938964844
 45
279.3999938964844
 46
0.0
 47
0.0
 48
0.0
 49
0.0
140
0.0
141
0.0
142
1.0
143
2.584895464708373
 70
 11952
 72
     0
 73
     1
 74
     0
  7

 75
     0
147
0.3868628397755418
148
0.0
149
0.0
100
AcDbLayout
  1
Model
 70
     1
 71
     0
 10
0.0
 20
0.0
 11
12.0
 21
9.0
 12
0.0
 22
0.0
 32
0.0
 14
0.0
 24
0.0
 34
0.0
 15
0.0
 25
0.0
 35
0.0
146
0.0
 13
0.0
 23
0.0
 33
0.0
 16
1.0
 26
0.0
 36
0.0
 17
0.0
 27
1.0
 37
0.0
 76
     0
330
1F
331
94
  0
LAYOUT
  5
59
102
{ACAD_XDICTIONARY
360
257F
102
}
102
{ACAD_REACTORS
330
1A
102
}
330
1A
100
AcDbPlotSettings
  1

  2
None
  4

  6

 40
0.0
 41
0.0
 42
0.0
 43
0.0
 44
0.0
 45
0.0
 46
0.0
 47
0.0
 48
0.0
 49
0.0
140
0.0
141
0.0
142
1.0
143
1.0
 70
   688
 72
     0
 73
     0
 74
     5
  7

 75
    16
147
1.0
148
0.0
149
0.0
100
AcDbLayout
  1
レイアウト1
 70
     1
 71
     1
 10
0.0
 20
0.0
 11
12.0
 21
9.0
 12
0.0
 22
0.0
 32
0.0
 14
0.0
 24
0.0
 34
0.0
 15
0.0
 25
0.0
 35
0.0
146
0.0
 13
0.0
 23
0.0
 33
0.0
 16
1.0
 26
0.0
 36
0.0
 17
0.0
 27
1.0
 37
0.0
 76
     0
330
58
  0
LAYOUT
  5
5E
102
{ACAD_XDICTIONARY
360
2581
102
}
102
{ACAD_REACTORS
330
1A
102
}
330
1A
100
AcDbPlotSettings
  1

  2
None
  4

  6

 40
0.0
 41
0.0
 42
0.0
 43
0.0
 44
0.0
 45
0.0
 46
0.0
 47
0.0
 48
0.0
 49
0.0
140
0.0
141
0.0
142
1.0
143
1.0
 70
   688
 72
     0
 73
     0
 74
     5
  7

 75
    16
147
1.0
148
0.0
149
0.0
100
AcDbLayout
  1
レイアウト2
 70
     1
 71
     2
 10
0.0
 20
0.0
 11
12.0
 21
9.0
 12
0.0
 22
0.0
 32
0.0
 14
0.0
 24
0.0
 34
0.0
 15
0.0
 25
0.0
 35
0.0
146
0.0
 13
0.0
 23
0.0
 33
0.0
 16
1.0
 26
0.0
 36
0.0
 17
0.0
 27
1.0
 37
0.0
 76
     0
330
5D
  0
MATERIAL
  5
97
102
{ACAD_XDICTIONARY
360
14D7
102
}
102
{ACAD_REACTORS
330
72
102
}
330
72
100
AcDbMaterial
  1
ByBlock
 73
     1
 78
     1
172
     1
176
     1
270
     1
274
     1
  0
MATERIAL
  5
96
102
{ACAD_XDICTIONARY
360
14D5
102
}
102
{ACAD_REACTORS
330
72
102
}
330
72
100
AcDbMaterial
  1
ByLayer
 73
     1
 78
     1
172
     1
176
     1
270
     1
274
     1
  0
MATERIAL
  5
98
102
{ACAD_XDICTIONARY
360
14D9
102
}
102
{ACAD_REACTORS
330
72
102
}
330
72
100
AcDbMaterial
  1
Global
 73
     1
 78
     1
172
     1
176
     1
270
     1
274
     1
  0
MLEADERSTYLE
  5
169
102
{ACAD_REACTORS
330
168
102
}
330
168
100
AcDbMLeaderStyle
170
     2
171
     1
172
     0
 90
        2
 40
0.0
 41
0.0
173
     1
 91
-1056964608
340
14
 92
       -2
290
     1
 42
2.0
291
     1
 43
0.36
  3
Standard
 44
4.0
300

342
11
174
     1
178
     6
175
     1
176
     0
 93
-1056964608
 45
4.0
292
     0
297
     0
 46
4.0
 94
-1056964608
 47
1.0
 49
1.0
140
1.0
293
     1
141
0.0
294
     1
177
     0
142
1.0
295
     0
296
     0
143
0.125
1001
ACAD_MLEADERVER
1070
     2
  0
MLINESTYLE
  5
18
102
{ACAD_REACTORS
330
17
102
}
330
17
100
AcDbMlineStyle
  2
STANDARD
 70
     0
  3

 62
   256
 51
90.0
 52
90.0
 71
     2
 49
0.5
 62
   256
  6
BYLAYER
 49
-0.5
 62
   256
  6
BYLAYER
  0
ACDBPLACEHOLDER
  5
F
102
{ACAD_REACTORS
330
E
102
}
330
E
  0
SCALE
  5
157
102
{ACAD_REACTORS
330
156
102
}
330
156
100
AcDbScale
 70
     0
300
1:1
140
1.0
141
1.0
290
     1
  0
SCALE
  5
158
102
{ACAD_REACTORS
330
156
102
}
330
156
100
AcDbScale
 70
     0
300
1:2
140
1.0
141
2.0
290
     0
  0
SCALE
  5
159
102
{ACAD_REACTORS
330
156
102
}
330
156
100
AcDbScale
 70
     0
300
1:4
140
1.0
141
4.0
290
     0
  0
SCALE
  5
15A
102
{ACAD_REACTORS
330
156
102
}
330
156
100
AcDbScale
 70
     0
300
1:5
140
1.0
141
5.0
290
     0
  0
SCALE
  5
15B
102
{ACAD_REACTORS
330
156
102
}
330
156
100
AcDbScale
 70
     0
300
1:8
140
1.0
141
8.0
290
     0
  0
SCALE
  5
15C
102
{ACAD_REACTORS
330
156
102
}
330
156
100
AcDbScale
 70
     0
300
1:10
140
1.0
141
10.0
290
     0
  0
SCALE
  5
15D
102
{ACAD_REACTORS
330
156
102
}
330
156
100
AcDbScale
 70
     0
300
1:16
140
1.0
141
16.0
290
     0
  0
SCALE
  5
15E
102
{ACAD_REACTORS
330
156
102
}
330
156
100
AcDbScale
 70
     0
300
1:20
140
1.0
141
20.0
290
     0
  0
SCALE
  5
15F
102
{ACAD_REACTORS
330
156
102
}
330
156
100
AcDbScale
 70
     0
300
1:30
140
1.0
141
30.0
290
     0
  0
SCALE
  5
160
102
{ACAD_REACTORS
330
156
102
}
330
156
100
AcDbScale
 70
     0
300
1:40
140
1.0
141
40.0
290
     0
  0
SCALE
  5
161
102
{ACAD_REACTORS
330
156
102
}
330
156
100
AcDbScale
 70
     0
300
1:50
140
1.0
141
50.0
290
     0
  0
SCALE
  5
162
102
{ACAD_REACTORS
330
156
102
}
330
156
100
AcDbScale
 70
     0
300
1:100
140
1.0
141
100.0
290
     0
  0
SCALE
  5
163
102
{ACAD_REACTORS
330
156
102
}
330
156
100
AcDbScale
 70
     0
300
2:1
140
2.0
141
1.0
290
     0
  0
SCALE
  5
164
102
{ACAD_REACTORS
330
156
102
}
330
156
100
AcDbScale
 70
     0
300
4:1
140
4.0
141
1.0
290
     0
  0
SCALE
  5
165
102
{ACAD_REACTORS
330
156
102
}
330
156
100
AcDbScale
 70
     0
300
8:1
140
8.0
141
1.0
290
     0
  0
SCALE
  5
166
102
{ACAD_REACTORS
330
156
102
}
330
156
100
AcDbScale
 70
     0
300
10:1
140
10.0
141
1.0
290
     0
  0
SCALE
  5
167
102
{ACAD_REACTORS
330
156
102
}
330
156
100
AcDbScale
 70
     0
300
100:1
140
100.0
141
1.0
290
     0
  0
TABLESTYLE
  5
87
102
{ACAD_XDICTIONARY
360
14C6
102
}
102
{ACAD_REACTORS
330
86
102
}
330
86
100
AcDbTableStyle
  3
Standard
 70
     0
 71
     0
 40
0.06
 41
0.06
280
     0
281
     0
  7
Standard
140
0.18
170
     2
 62
     0
 63
     7
283
     0
274
    -2
284
     1
 64
     0
275
    -2
285
     1
 65
     0
276
    -2
286
     1
 66
     0
277
    -2
287
     1
 67
     0
278
    -2
288
     1
 68
     0
279
    -2
289
     1
 69
     0
  7
Standard
140
0.25
170
     5
 62
     0
 63
     7
283
     0
274
    -2
284
     1
 64
     0
275
    -2
285
     1
 65
     0
276
    -2
286
     1
 66
     0
277
    -2
287
     1
 67
     0
278
    -2
288
     1
 68
     0
279
    -2
289
     1
 69
     0
  7
Standard
140
0.18
170
     5
 62
     0
 63
     7
283
     0
274
    -2
284
     1
 64
     0
275
    -2
285
     1
 65
     0
276
    -2
286
     1
 66
     0
277
    -2
287
     1
 67
     0
278
    -2
288
     1
 68
     0
279
    -2
289
     1
 69
     0
  0
VISUALSTYLE
  5
9F
102
{ACAD_XDICTIONARY
360
258E
102
}
102
{ACAD_REACTORS
330
99
102
}
330
99
100
AcDbVisualStyle
  2

 70
     4
 71
     0
 72
     2
 73
     1
 90
        0
 40
-0.6
 41
-30.0
 62
     5
 63
     7
 74
     1
 91
        4
 64
     7
 65
   257
 75
     1
175
     1
 42
1.0
 92
        0
 66
   257
 43
1.0
 76
     1
 77
     6
 78
     2
 67
     7
 79
     5
170
     0
171
     0
290
     0
174
     0
 93
        1
 44
0.0
173
     0
291
     0
 45
0.0
1001
ACAD
1000
AcDbSavedByObjectVersion
1070
     0
  0
VISUALSTYLE
  5
A1
102
{ACAD_XDICTIONARY
360
2592
102
}
102
{ACAD_REACTORS
330
99
102
}
330
99
100
AcDbVisualStyle
  2

 70
     6
 71
     1
 72
     2
 73
     2
 90
        0
 40
-0.6
 41
-30.0
 62
     5
 63
     7
 74
     2
 91
        2
 64
     7
 65
   257
 75
     2
175
     1
 42
40.0
 92
        0
 66
   257
 43
1.0
 76
     1
 77
     6
 78
     2
 67
     7
 79
     3
170
     0
171
     0
290
     0
174
     0
 93
        1
 44
0.0
173
     0
291
     0
 45
0.0
1001
ACAD
1000
AcDbSavedByObjectVersion
1070
     0
  0
VISUALSTYLE
  5
A0
102
{ACAD_XDICTIONARY
360
2590
102
}
102
{ACAD_REACTORS
330
99
102
}
330
99
100
AcDbVisualStyle
  2

 70
     5
 71
     0
 72
     2
 73
     1
 90
        0
 40
-0.6
 41
-30.0
 62
     5
 63
     7
 74
     1
 91
        4
 64
     7
 65
   257
 75
     1
175
     1
 42
1.0
 92
        0
 66
   257
 43
1.0
 76
     1
 77
     6
 78
     2
 67
     7
 79
     5
170
     0
171
     0
290
     0
174
     0
 93
        1
 44
0.0
173
     0
291
     0
 45
0.0
1001
ACAD
1000
AcDbSavedByObjectVersion
1070
     0
  0
VISUALSTYLE
  5
9E
102
{ACAD_XDICTIONARY
360
258C
102
}
102
{ACAD_REACTORS
330
99
102
}
330
99
100
AcDbVisualStyle
  2

 70
     7
 71
     1
 72
     0
 73
     1
 90
        0
 40
-0.6
 41
-30.0
 62
     5
 63
     7
 74
     0
 91
        4
 64
     7
 65
   257
 75
     1
175
     1
 42
1.0
 92
        8
 66
     7
 43
1.0
 76
     1
 77
     6
 78
     2
 67
     7
 79
     5
170
     0
171
     0
290
     0
174
     0
 93
        1
 44
0.0
173
     0
291
     1
 45
0.0
1001
ACAD
1000
AcDbSavedByObjectVersion
1070
     0
  0
VISUALSTYLE
  5
A5
102
{ACAD_XDICTIONARY
360
259A
102
}
102
{ACAD_REACTORS
330
99
102
}
330
99
100
AcDbVisualStyle
  2

 70
    12
 71
     2
 72
     2
 73
     1
 90
        0
 40
-0.6
 41
-30.0
 62
     5
 63
     7
 74
     1
 91
        4
 64
     7
 65
   257
 75
     1
175
     1
 42
1.0
 92
        8
 66
     7
 43
1.0
 76
     1
 77
     6
 78
     2
 67
     7
 79
     5
170
     0
171
     0
290
     0
174
     0
 93
        1
 44
50.0
173
     0
291
     1
 45
0.0
1001
ACAD
1000
AcDbSavedByObjectVersion
1070
     0
  0
VISUALSTYLE
  5
A9
102
{ACAD_XDICTIONARY
360
25A2
102
}
102
{ACAD_REACTORS
330
99
102
}
330
99
100
AcDbVisualStyle
  2

 70
    16
 71
     2
 72
     2
 73
     3
 90
        0
 40
-0.6
 41
-30.0
 62
     5
 63
     8
 74
     1
 91
        4
 64
     7
 65
   257
 75
     1
175
     1
 42
1.0
 92
        8
 66
     8
 43
1.0
 76
     1
 77
     6
 78
     2
 67
     7
 79
     5
170
     0
171
     0
290
     0
174
     0
 93
        1
 44
0.0
173
     0
291
     1
 45
0.0
1001
ACAD
1000
AcDbSavedByObjectVersion
1070
     0
  0
VISUALSTYLE
  5
A2
102
{ACAD_XDICTIONARY
360
2594
102
}
102
{ACAD_REACTORS
330
99
102
}
330
99
100
AcDbVisualStyle
  2

 70
     9
 71
     3
 72
     2
 73
     1
 90
        0
 40
-0.6
 41
-30.0
 62
     5
 63
     7
 74
     2
 91
        2
 64
     7
 65
   257
 75
     1
175
     1
 42
40.0
 92
        8
 66
     7
 43
1.0
 76
     1
 77
     6
 78
     2
 67
     7
 79
     3
170
     0
171
     0
290
     0
174
     0
 93
        1
 44
0.0
173
     0
291
     0
 45
0.0
1001
ACAD
1000
AcDbSavedByObjectVersion
1070
     0
  0
VISUALSTYLE
  5
A4
102
{ACAD_XDICTIONARY
360
2598
102
}
102
{ACAD_REACTORS
330
99
102
}
330
99
100
AcDbVisualStyle
  2

 70
    11
 71
     2
 72
     2
 73
     1
 90
        0
 40
-0.6
 41
-30.0
 62
     5
 63
     7
 74
     1
 91
        4
 64
     7
 65
   257
 75
     1
175
     1
 42
1.0
 92
        8
 66
     7
 43
1.0
 76
     1
 77
     6
 78
     2
 67
     7
 79
     5
170
     0
171
     0
290
     0
174
     0
 93
        1
 44
-50.0
173
     0
291
     1
 45
0.0
1001
ACAD
1000
AcDbSavedByObjectVersion
1070
     0
  0
VISUALSTYLE
  5
155
102
{ACAD_XDICTIONARY
360
25B6
102
}
102
{ACAD_REACTORS
330
99
102
}
330
99
100
AcDbVisualStyle
  2

 70
    22
 71
     2
 72
     2
 73
     0
 90
        0
 40
-0.6
 41
-30.0
 62
     5
 63
     7
 74
     1
 91
        4
 64
     7
 65
   257
 75
     1
175
     1
 42
1.0
 92
        8
 66
     7
 43
1.0
 76
     1
 77
     6
 78
     2
 67
     7
 79
     5
170
     0
171
     0
290
     0
174
     0
 93
        1
 44
0.0
173
     0
291
     1
 45
0.0
1001
ACAD
1000
AcDbSavedByObjectVersion
1070
     0
  0
VISUALSTYLE
  5
A8
102
{ACAD_XDICTIONARY
360
25A0
102
}
102
{ACAD_REACTORS
330
99
102
}
330
99
100
AcDbVisualStyle
  2

 70
    15
 71
     2
 72
     2
 73
     1
 90
        0
 40
-0.6
 41
-30.0
 62
     5
 63
     7
 74
     1
 91
        4
 64
     7
 65
   257
 75
     1
175
     1
 42
1.0
 92
        8
 66
     7
 43
1.0
 76
     1
 77
     6
 78
     2
 67
     7
 79
     5
170
     0
171
     0
290
     0
174
     0
 93
        1
 44
0.0
173
     0
291
     1
 45
0.0
1001
ACAD
1000
AcDbSavedByObjectVersion
1070
     0
  0
VISUALSTYLE
  5
9A
102
{ACAD_XDICTIONARY
360
2584
102
}
102
{ACAD_REACTORS
330
99
102
}
330
99
100
AcDbVisualStyle
  2

 70
     0
 71
     2
 72
     1
 73
     1
 90
        2
 40
-0.6
 41
30.0
 62
     5
 63
     7
 74
     0
 91
        4
 64
     7
 65
   257
 75
     1
175
     1
 42
1.0
 92
        8
 66
     7
 43
1.0
 76
     1
 77
     6
 78
     2
 67
     7
 79
     5
170
     0
171
     0
290
     0
174
     0
 93
        1
 44
0.0
173
     0
291
     1
 45
0.0
1001
ACAD
1000
AcDbSavedByObjectVersion
1070
     0
  0
VISUALSTYLE
  5
9B
102
{ACAD_XDICTIONARY
360
2586
102
}
102
{ACAD_REACTORS
330
99
102
}
330
99
100
AcDbVisualStyle
  2

 70
     1
 71
     2
 72
     1
 73
     1
 90
        2
 40
-0.6
 41
30.0
 62
     5
 63
     7
 74
     1
 91
        4
 64
     7
 65
   257
 75
     1
175
     1
 42
1.0
 92
        0
 66
   257
 43
1.0
 76
     1
 77
     6
 78
     2
 67
     7
 79
     5
170
     0
171
     0
290
     0
174
     0
 93
        1
 44
0.0
173
     0
291
     1
 45
0.0
1001
ACAD
1000
AcDbSavedByObjectVersion
1070
     0
  0
VISUALSTYLE
  5
9C
102
{ACAD_XDICTIONARY
360
2588
102
}
102
{ACAD_REACTORS
330
99
102
}
330
99
100
AcDbVisualStyle
  2

 70
     2
 71
     2
 72
     2
 73
     1
 90
        2
 40
-0.6
 41
30.0
 62
     5
 63
     7
 74
     0
 91
        4
 64
     7
 65
   257
 75
     1
175
     1
 42
1.0
 92
        0
 66
     7
 43
1.0
 76
     1
 77
     6
 78
     2
 67
     7
 79
     5
170
     0
171
     0
290
     0
174
     0
 93
        1
 44
0.0
173
     0
291
     1
 45
0.0
1001
ACAD
1000
AcDbSavedByObjectVersion
1070
     0
  0
VISUALSTYLE
  5
9D
102
{ACAD_XDICTIONARY
360
258A
102
}
102
{ACAD_REACTORS
330
99
102
}
330
99
100
AcDbVisualStyle
  2

 70
     3
 71
     2
 72
     2
 73
     1
 90
        2
 40
-0.6
 41
30.0
 62
     5
 63
     7
 74
     1
 91
        4
 64
     7
 65
   257
 75
     1
175
     1
 42
1.0
 92
        0
 66
   257
 43
1.0
 76
     1
 77
     6
 78
     2
 67
     7
 79
     5
170
     0
171
     0
290
     0
174
     0
 93
        1
 44
0.0
173
     0
291
     1
 45
0.0
1001
ACAD
1000
AcDbSavedByObjectVersion
1070
     0
  0
VISUALSTYLE
  5
14D
102
{ACAD_XDICTIONARY
360
25A6
102
}
102
{ACAD_REACTORS
330
99
102
}
330
99
100
AcDbVisualStyle
  2

 70
     6
 71
     1
 72
     2
 73
     2
 90
        0
 40
-0.6
 41
-30.0
 62
     5
 63
     7
 74
     2
 91
        2
 64
     7
 65
   257
 75
     2
175
     1
 42
40.0
 92
        0
 66
   257
 43
1.0
 76
     1
 77
     6
 78
     2
 67
     7
 79
     3
170
     0
171
     0
290
     0
174
     0
 93
        1
 44
0.0
173
     0
291
     0
 45
0.0
1001
ACAD
1000
AcDbSavedByObjectVersion
1070
     0
  0
VISUALSTYLE
  5
153
102
{ACAD_XDICTIONARY
360
25B2
102
}
102
{ACAD_REACTORS
330
99
102
}
330
99
100
AcDbVisualStyle
  2

 70
    20
 71
     2
 72
     2
 73
     0
 90
        0
 40
-0.6
 41
-30.0
 62
     5
 63
     7
 74
     1
 91
        4
 64
     7
 65
   257
 75
     1
175
     1
 42
1.0
 92
       10
 66
     7
 43
1.0
 76
     1
 77
     6
 78
     2
 67
     7
 79
     5
170
     0
171
     0
290
     0
174
     0
 93
        1
 44
0.0
173
     0
291
     1
 45
0.0
1001
ACAD
1000
AcDbSavedByObjectVersion
1070
     0
  0
VISUALSTYLE
  5
A7
102
{ACAD_XDICTIONARY
360
259E
102
}
102
{ACAD_REACTORS
330
99
102
}
330
99
100
AcDbVisualStyle
  2

 70
    14
 71
     2
 72
     2
 73
     1
 90
        0
 40
-0.6
 41
-30.0
 62
     5
 63
     7
 74
     1
 91
        4
 64
     7
 65
   257
 75
     7
175
     7
 42
1.0
 92
        8
 66
     7
 43
1.0
 76
     1
 77
     6
 78
     2
 67
     7
 79
     5
170
     0
171
     0
290
     0
174
     0
 93
        1
 44
0.0
173
     0
291
     1
 45
0.0
1001
ACAD
1000
AcDbSavedByObjectVersion
1070
     0
  0
VISUALSTYLE
  5
154
102
{ACAD_XDICTIONARY
360
25B4
102
}
102
{ACAD_REACTORS
330
99
102
}
330
99
100
AcDbVisualStyle
  2

 70
    21
 71
     2
 72
     2
 73
     0
 90
        0
 40
-0.6
 41
-30.0
 62
     5
 63
     7
 74
     1
 91
        4
 64
     7
 65
   257
 75
     1
175
     1
 42
1.0
 92
        9
 66
     7
 43
1.0
 76
     1
 77
     6
 78
     2
 67
     7
 79
     5
170
     0
171
     0
290
     0
174
     0
 93
        1
 44
0.0
173
     0
291
     1
 45
0.0
1001
ACAD
1000
AcDbSavedByObjectVersion
1070
     0
  0
VISUALSTYLE
  5
A3
102
{ACAD_XDICTIONARY
360
2596
102
}
102
{ACAD_REACTORS
330
99
102
}
330
99
100
AcDbVisualStyle
  2

 70
     8
 71
     2
 72
     2
 73
     1
 90
        0
 40
-0.6
 41
-30.0
 62
     5
 63
     7
 74
     1
 91
        0
 64
     7
 65
   257
 75
     1
175
     1
 42
1.0
 92
        8
 66
     8
 43
1.0
 76
     1
 77
     6
 78
     2
 67
     7
 79
     5
170
     0
171
     0
290
     0
174
     0
 93
       13
 44
0.0
173
     0
291
     0
 45
0.0
1001
ACAD
1000
AcDbSavedByObjectVersion
1070
     0
  0
VISUALSTYLE
  5
152
102
{ACAD_XDICTIONARY
360
25B0
102
}
102
{ACAD_REACTORS
330
99
102
}
330
99
100
AcDbVisualStyle
  2

 70
    27
 71
     2
 72
     2
 73
     1
 90
        2
 40
-0.6
 41
30.0
 62
     5
 63
     7
 74
     0
 91
        4
 64
     7
 65
   257
 75
     1
175
     1
 42
1.0
 92
        8
 66
   257
 43
1.0
 76
     1
 77
     6
 78
     2
 67
     8
 79
     3
170
     0
171
     0
290
     0
174
     0
 93
        5
 44
0.0
173
     0
291
     0
 45
0.0
1001
ACAD
1000
AcDbSavedByObjectVersion
1070
     0
  0
VISUALSTYLE
  5
151
102
{ACAD_XDICTIONARY
360
25AE
102
}
102
{ACAD_REACTORS
330
99
102
}
330
99
100
AcDbVisualStyle
  2

 70
    26
 71
     2
 72
     2
 73
     1
 90
        2
 40
-0.6
 41
30.0
 62
     5
 63
     7
 74
     1
 91
       10
 64
     7
 65
   257
 75
     2
175
     1
 42
1.0
 92
        8
 66
   257
 43
1.0
 76
     1
 77
     6
 78
     2
 67
     7
 79
     3
170
     0
171
     0
290
     0
174
     0
 93
        5
 44
0.0
173
     0
291
     0
 45
0.0
1001
ACAD
1000
AcDbSavedByObjectVersion
1070
     0
  0
VISUALSTYLE
  5
14E
102
{ACAD_XDICTIONARY
360
25A8
102
}
102
{ACAD_REACTORS
330
99
102
}
330
99
100
AcDbVisualStyle
  2

 70
    23
 71
     2
 72
     2
 73
     3
 90
        0
 40
-0.6
 41
-30.0
 62
     5
 63
     7
 74
     2
 91
        2
 64
     7
 65
     7
 75
     1
175
     1
 42
40.0
 92
        8
 66
     7
 43
1.0
 76
     1
 77
     6
 78
     2
 67
     7
 79
     3
170
     0
171
     0
290
     0
174
     0
 93
        1
 44
0.0
173
     0
291
     0
 45
0.0
1001
ACAD
1000
AcDbSavedByObjectVersion
1070
     0
  0
VISUALSTYLE
  5
14F
102
{ACAD_XDICTIONARY
360
25AA
102
}
102
{ACAD_REACTORS
330
99
102
}
330
99
100
AcDbVisualStyle
  2

 70
    24
 71
     1
 72
     2
 73
     2
 90
        0
 40
-0.6
 41
-30.0
 62
     5
 63
     7
 74
     2
 91
        2
 64
     7
 65
     7
 75
     1
175
     1
 42
40.0
 92
       11
 66
     7
 43
1.0
 76
     1
 77
     6
 78
     2
 67
     7
 79
     6
170
     0
171
     0
290
     0
174
     0
 93
        1
 44
0.0
173
     0
291
     0
 45
0.0
1001
ACAD
1000
AcDbSavedByObjectVersion
1070
     0
  0
VISUALSTYLE
  5
A6
102
{ACAD_XDICTIONARY
360
259C
102
}
102
{ACAD_REACTORS
330
99
102
}
330
99
100
AcDbVisualStyle
  2

 70
    13
 71
     2
 72
     2
 73
     1
 90
        0
 40
-0.6
 41
-30.0
 62
     5
 63
     7
 74
     1
 91
        4
 64
     7
 65
   257
 75
     1
175
     1
 42
1.0
 92
       12
 66
     7
 43
1.0
 76
     1
 77
     6
 78
     2
 67
     7
 79
     5
170
     0
171
     0
290
     0
174
     0
 93
        1
 44
0.0
173
     0
291
     1
 45
0.0
1001
ACAD
1000
AcDbSavedByObjectVersion
1070
     0
  0
VISUALSTYLE
  5
14C
102
{ACAD_XDICTIONARY
360
25A4
102
}
102
{ACAD_REACTORS
330
99
102
}
330
99
100
AcDbVisualStyle
  2

 70
     5
 71
     0
 72
     2
 73
     0
 90
        0
 40
-0.6
 41
-30.0
 62
     5
 63
     7
 74
     1
 91
        4
 64
     7
 65
   257
 75
     1
175
     1
 42
1.0
 92
        0
 66
   257
 43
1.0
 76
     1
 77
     6
 78
     2
 67
     7
 79
     3
170
     0
171
     0
290
     0
174
     0
 93
        1
 44
0.0
173
     0
291
     0
 45
0.0
1001
ACAD
1000
AcDbSavedByObjectVersion
1070
     0
  0
VISUALSTYLE
  5
150
102
{ACAD_XDICTIONARY
360
25AC
102
}
102
{ACAD_REACTORS
330
99
102
}
330
99
100
AcDbVisualStyle
  2

 70
    25
 71
     2
 72
     2
 73
     1
 90
        1
 40
0.5
 41
-30.0
 62
     5
 63
     7
 74
     1
 91
        0
 64
     7
 65
   257
 75
     1
175
     1
 42
1.0
 92
        8
 66
     7
 43
1.0
 76
     1
 77
     6
 78
     2
 67
     7
 79
     3
170
     0
171
     0
290
     0
174
     0
 93
       13
 44
0.0
173
     0
291
     0
 45
0.0
1001
ACAD
1000
AcDbSavedByObjectVersion
1070
     0
  0
DICTIONARYVAR
  5
24A
102
{ACAD_REACTORS
330
66
102
}
330
66
100
DictionaryVariables
280
     0
  1
1:1
  0
DICTIONARYVAR
  5
248
102
{ACAD_REACTORS
330
66
102
}
330
66
100
DictionaryVariables
280
     0
  1
STANDARD
  0
DICTIONARYVAR
  5
89
102
{ACAD_REACTORS
330
66
102
}
330
66
100
DictionaryVariables
280
     0
  1
STANDARD
  0
DICTIONARYVAR
  5
67
102
{ACAD_REACTORS
330
66
102
}
330
66
100
DictionaryVariables
280
     0
  1
2
  0
DICTIONARYVAR
  5
6B
102
{ACAD_REACTORS
330
66
102
}
330
66
100
DictionaryVariables
280
     0
  1
1
  0
DICTIONARYVAR
  5
1424
102
{ACAD_REACTORS
330
66
102
}
330
66
100
DictionaryVariables
280
     0
  1
0
  0
DICTIONARYVAR
  5
24C
102
{ACAD_REACTORS
330
66
102
}
330
66
100
DictionaryVariables
280
     0
  1
1
  0
DICTIONARYVAR
  5
24D
102
{ACAD_REACTORS
330
66
102
}
330
66
100
DictionaryVariables
280
     0
  1
15
  0
DICTIONARYVAR
  5
24B
102
{ACAD_REACTORS
330
66
102
}
330
66
100
DictionaryVariables
280
     0
  1
0
  0
DICTIONARYVAR
  5
249
102
{ACAD_REACTORS
330
66
102
}
330
66
100
DictionaryVariables
280
     0
  1
0
  0
DICTIONARYVAR
  5
1423
102
{ACAD_REACTORS
330
66
102
}
330
66
100
DictionaryVariables
280
     0
  1
127
  0
DICTIONARYVAR
  5
24A1
102
{ACAD_REACTORS
330
66
102
}
330
66
100
DictionaryVariables
280
     0
  1
2
  0
DICTIONARY
  5
257D
330
22
100
AcDbDictionary
280
     1
281
     1
  3
ACAD_XREC_ROUNDTRIP
360
257E
  0
DICTIONARY
  5
257F
330
59
100
AcDbDictionary
280
     1
281
     1
  3
ACAD_XREC_ROUNDTRIP
360
2580
  0
DICTIONARY
  5
2581
330
5E
100
AcDbDictionary
280
     1
281
     1
  3
ACAD_XREC_ROUNDTRIP
360
2582
  0
DICTIONARY
  5
14D7
330
97
100
AcDbDictionary
280
     1
281
     1
  3
ACAD_XREC_ROUNDTRIP
360
14D8
  0
DICTIONARY
  5
14D5
330
96
100
AcDbDictionary
280
     1
281
     1
  3
ACAD_XREC_ROUNDTRIP
360
14D6
  0
DICTIONARY
  5
14D9
330
98
100
AcDbDictionary
280
     1
281
     1
  3
ACAD_XREC_ROUNDTRIP
360
14DA
  0
DICTIONARY
  5
14C6
330
87
100
AcDbDictionary
280
     1
281
     1
  3
ACAD_ROUNDTRIP_2008_TABLESTYLE_CELLSTYLEMAP
360
2576
  3
ACAD_XREC_ROUNDTRIP
360
2583
  0
DICTIONARY
  5
258E
330
9F
100
AcDbDictionary
280
     1
281
     1
  3
ACAD_XREC_ROUNDTRIP
360
258F
  0
DICTIONARY
  5
2592
330
A1
100
AcDbDictionary
280
     1
281
     1
  3
ACAD_XREC_ROUNDTRIP
360
2593
  0
DICTIONARY
  5
2590
330
A0
100
AcDbDictionary
280
     1
281
     1
  3
ACAD_XREC_ROUNDTRIP
360
2591
  0
DICTIONARY
  5
258C
330
9E
100
AcDbDictionary
280
     1
281
     1
  3
ACAD_XREC_ROUNDTRIP
360
258D
  0
DICTIONARY
  5
259A
330
A5
100
AcDbDictionary
280
     1
281
     1
  3
ACAD_XREC_ROUNDTRIP
360
259B
  0
DICTIONARY
  5
25A2
330
A9
100
AcDbDictionary
280
     1
281
     1
  3
ACAD_XREC_ROUNDTRIP
360
25A3
  0
DICTIONARY
  5
2594
330
A2
100
AcDbDictionary
280
     1
281
     1
  3
ACAD_XREC_ROUNDTRIP
360
2595
  0
DICTIONARY
  5
2598
330
A4
100
AcDbDictionary
280
     1
281
     1
  3
ACAD_XREC_ROUNDTRIP
360
2599
  0
DICTIONARY
  5
25B6
330
155
100
AcDbDictionary
280
     1
281
     1
  3
ACAD_XREC_ROUNDTRIP
360
25B7
  0
DICTIONARY
  5
25A0
330
A8
100
AcDbDictionary
280
     1
281
     1
  3
ACAD_XREC_ROUNDTRIP
360
25A1
  0
DICTIONARY
  5
2584
330
9A
100
AcDbDictionary
280
     1
281
     1
  3
ACAD_XREC_ROUNDTRIP
360
2585
  0
DICTIONARY
  5
2586
330
9B
100
AcDbDictionary
280
     1
281
     1
  3
ACAD_XREC_ROUNDTRIP
360
2587
  0
DICTIONARY
  5
2588
330
9C
100
AcDbDictionary
280
     1
281
     1
  3
ACAD_XREC_ROUNDTRIP
360
2589
  0
DICTIONARY
  5
258A
330
9D
100
AcDbDictionary
280
     1
281
     1
  3
ACAD_XREC_ROUNDTRIP
360
258B
  0
DICTIONARY
  5
25A6
330
14D
100
AcDbDictionary
280
     1
281
     1
  3
ACAD_XREC_ROUNDTRIP
360
25A7
  0
DICTIONARY
  5
25B2
330
153
100
AcDbDictionary
280
     1
281
     1
  3
ACAD_XREC_ROUNDTRIP
360
25B3
  0
DICTIONARY
  5
259E
330
A7
100
AcDbDictionary
280
     1
281
     1
  3
ACAD_XREC_ROUNDTRIP
360
259F
  0
DICTIONARY
  5
25B4
330
154
100
AcDbDictionary
280
     1
281
     1
  3
ACAD_XREC_ROUNDTRIP
360
25B5
  0
DICTIONARY
  5
2596
330
A3
100
AcDbDictionary
280
     1
281
     1
  3
ACAD_XREC_ROUNDTRIP
360
2597
  0
DICTIONARY
  5
25B0
330
152
100
AcDbDictionary
280
     1
281
     1
  3
ACAD_XREC_ROUNDTRIP
360
25B1
  0
DICTIONARY
  5
25AE
330
151
100
AcDbDictionary
280
     1
281
     1
  3
ACAD_XREC_ROUNDTRIP
360
25AF
  0
DICTIONARY
  5
25A8
330
14E
100
AcDbDictionary
280
     1
281
     1
  3
ACAD_XREC_ROUNDTRIP
360
25A9
  0
DICTIONARY
  5
25AA
330
14F
100
AcDbDictionary
280
     1
281
     1
  3
ACAD_XREC_ROUNDTRIP
360
25AB
  0
DICTIONARY
  5
259C
330
A6
100
AcDbDictionary
280
     1
281
     1
  3
ACAD_XREC_ROUNDTRIP
360
259D
  0
DICTIONARY
  5
25A4
330
14C
100
AcDbDictionary
280
     1
281
     1
  3
ACAD_XREC_ROUNDTRIP
360
25A5
  0
DICTIONARY
  5
25AC
330
150
100
AcDbDictionary
280
     1
281
     1
  3
ACAD_XREC_ROUNDTRIP
360
25AD
  0
XRECORD
  5
257E
102
{ACAD_REACTORS
330
257D
102
}
330
257D
100
AcDbXrecord
280
     1
102
SHADEPLOT
 70
     0
102
SHADEPLOTRESLEVEL
 70
     2
102
SHADEPLOTCUSTOMDPI
 70
   300
  0
XRECORD
  5
2580
102
{ACAD_REACTORS
330
257F
102
}
330
257F
100
AcDbXrecord
280
     1
102
SHADEPLOT
 70
     0
102
SHADEPLOTRESLEVEL
 70
     2
102
SHADEPLOTCUSTOMDPI
 70
   300
  0
XRECORD
  5
2582
102
{ACAD_REACTORS
330
2581
102
}
330
2581
100
AcDbXrecord
280
     1
102
SHADEPLOT
 70
     0
102
SHADEPLOTRESLEVEL
 70
     2
102
SHADEPLOTCUSTOMDPI
 70
   300
  0
XRECORD
  5
14D8
102
{ACAD_REACTORS
330
14D7
102
}
330
14D7
100
AcDbXrecord
280
     1
102
MATERIAL
148
0.0
149
0.0
149
0.0
 93
        0
 94
      127
282
     0
 72
     1
 77
     1
171
     1
175
     1
179
     1
273
     0
  0
XRECORD
  5
14D6
102
{ACAD_REACTORS
330
14D5
102
}
330
14D5
100
AcDbXrecord
280
     1
102
MATERIAL
148
0.0
149
0.0
149
0.0
 93
        0
 94
      127
282
     0
 72
     1
 77
     1
171
     1
175
     1
179
     1
273
     0
  0
XRECORD
  5
14DA
102
{ACAD_REACTORS
330
14D9
102
}
330
14D9
100
AcDbXrecord
280
     1
102
MATERIAL
148
0.0
149
0.0
149
0.0
 93
        0
 94
      127
282
     0
 72
     1
 77
     1
171
     1
175
     1
179
     1
273
     0
  0
CELLSTYLEMAP
  5
2576
102
{ACAD_REACTORS
330
14C6
102
}
330
14C6
100
AcDbCellStyleMap
 90
        3
300
CELLSTYLE
  1
TABLEFORMAT_BEGIN
 90
        5
170
     1
 91
        0
 92
    32768
 62
   257
 93
        1
300
CONTENTFORMAT
  1
CONTENTFORMAT_BEGIN
 90
        0
 91
        0
 92
      512
 93
        0
300

 40
0.0
140
1.0
 94
        5
 62
     0
340
11
144
0.25
309
CONTENTFORMAT_END
171
     1
301
MARGIN
  1
CELLMARGIN_BEGIN
 40
0.06
 40
0.06
 40
0.06
 40
0.06
 40
0.18
 40
0.18
309
CELLMARGIN_END
 94
        6
 95
        1
302
GRIDFORMAT
  1
GRIDFORMAT_BEGIN
 90
        0
 91
        1
 62
     0
 92
       -2
340
0
 93
        0
 40
0.045
309
GRIDFORMAT_END
 95
        2
302
GRIDFORMAT
  1
GRIDFORMAT_BEGIN
 90
        0
 91
        1
 62
     0
 92
       -2
340
0
 93
        0
 40
0.045
309
GRIDFORMAT_END
 95
        4
302
GRIDFORMAT
  1
GRIDFORMAT_BEGIN
 90
        0
 91
        1
 62
     0
 92
       -2
340
0
 93
        0
 40
0.045
309
GRIDFORMAT_END
 95
        8
302
GRIDFORMAT
  1
GRIDFORMAT_BEGIN
 90
        0
 91
        1
 62
     0
 92
       -2
340
0
 93
        0
 40
0.045
309
GRIDFORMAT_END
 95
       16
302
GRIDFORMAT
  1
GRIDFORMAT_BEGIN
 90
        0
 91
        1
 62
     0
 92
       -2
340
0
 93
        0
 40
0.045
309
GRIDFORMAT_END
 95
       32
302
GRIDFORMAT
  1
GRIDFORMAT_BEGIN
 90
        0
 91
        1
 62
     0
 92
       -2
340
0
 93
        0
 40
0.045
309
GRIDFORMAT_END
309
TABLEFORMAT_END
  1
CELLSTYLE_BEGIN
 90
        1
 91
        1
300
_TITLE
309
CELLSTYLE_END
300
CELLSTYLE
  1
TABLEFORMAT_BEGIN
 90
        5
170
     1
 91
        0
 92
        0
 62
   257
 93
        1
300
CONTENTFORMAT
  1
CONTENTFORMAT_BEGIN
 90
        0
 91
        0
 92
      512
 93
        0
300

 40
0.0
140
1.0
 94
        5
 62
     0
340
11
144
0.18
309
CONTENTFORMAT_END
171
     1
301
MARGIN
  1
CELLMARGIN_BEGIN
 40
0.06
 40
0.06
 40
0.06
 40
0.06
 40
0.18
 40
0.18
309
CELLMARGIN_END
 94
        6
 95
        1
302
GRIDFORMAT
  1
GRIDFORMAT_BEGIN
 90
        0
 91
        1
 62
     0
 92
       -2
340
0
 93
        0
 40
0.045
309
GRIDFORMAT_END
 95
        2
302
GRIDFORMAT
  1
GRIDFORMAT_BEGIN
 90
        0
 91
        1
 62
     0
 92
       -2
340
0
 93
        0
 40
0.045
309
GRIDFORMAT_END
 95
        4
302
GRIDFORMAT
  1
GRIDFORMAT_BEGIN
 90
        0
 91
        1
 62
     0
 92
       -2
340
0
 93
        0
 40
0.045
309
GRIDFORMAT_END
 95
        8
302
GRIDFORMAT
  1
GRIDFORMAT_BEGIN
 90
        0
 91
        1
 62
     0
 92
       -2
340
0
 93
        0
 40
0.045
309
GRIDFORMAT_END
 95
       16
302
GRIDFORMAT
  1
GRIDFORMAT_BEGIN
 90
        0
 91
        1
 62
     0
 92
       -2
340
0
 93
        0
 40
0.045
309
GRIDFORMAT_END
 95
       32
302
GRIDFORMAT
  1
GRIDFORMAT_BEGIN
 90
        0
 91
        1
 62
     0
 92
       -2
340
0
 93
        0
 40
0.045
309
GRIDFORMAT_END
309
TABLEFORMAT_END
  1
CELLSTYLE_BEGIN
 90
        2
 91
        1
300
_HEADER
309
CELLSTYLE_END
300
CELLSTYLE
  1
TABLEFORMAT_BEGIN
 90
        5
170
     1
 91
        0
 92
        0
 62
   257
 93
        1
300
CONTENTFORMAT
  1
CONTENTFORMAT_BEGIN
 90
        0
 91
        0
 92
      512
 93
        0
300

 40
0.0
140
1.0
 94
        2
 62
     0
340
11
144
0.18
309
CONTENTFORMAT_END
171
     1
301
MARGIN
  1
CELLMARGIN_BEGIN
 40
0.06
 40
0.06
 40
0.06
 40
0.06
 40
0.18
 40
0.18
309
CELLMARGIN_END
 94
        6
 95
        1
302
GRIDFORMAT
  1
GRIDFORMAT_BEGIN
 90
        0
 91
        1
 62
     0
 92
       -2
340
0
 93
        0
 40
0.045
309
GRIDFORMAT_END
 95
        2
302
GRIDFORMAT
  1
GRIDFORMAT_BEGIN
 90
        0
 91
        1
 62
     0
 92
       -2
340
0
 93
        0
 40
0.045
309
GRIDFORMAT_END
 95
        4
302
GRIDFORMAT
  1
GRIDFORMAT_BEGIN
 90
        0
 91
        1
 62
     0
 92
       -2
340
0
 93
        0
 40
0.045
309
GRIDFORMAT_END
 95
        8
302
GRIDFORMAT
  1
GRIDFORMAT_BEGIN
 90
        0
 91
        1
 62
     0
 92
       -2
340
0
 93
        0
 40
0.045
309
GRIDFORMAT_END
 95
       16
302
GRIDFORMAT
  1
GRIDFORMAT_BEGIN
 90
        0
 91
        1
 62
     0
 92
       -2
340
0
 93
        0
 40
0.045
309
GRIDFORMAT_END
 95
       32
302
GRIDFORMAT
  1
GRIDFORMAT_BEGIN
 90
        0
 91
        1
 62
     0
 92
       -2
340
0
 93
        0
 40
0.045
309
GRIDFORMAT_END
309
TABLEFORMAT_END
  1
CELLSTYLE_BEGIN
 90
        3
 91
        2
300
_DATA
309
CELLSTYLE_END
  0
XRECORD
  5
2583
102
{ACAD_REACTORS
330
14C6
102
}
330
14C6
100
AcDbXrecord
280
     1
102
ACAD_ROUNDTRIP_PRE2007_TABLESTYLE
 90
      512
 91
        0
  1

 92
      512
 93
        0
  2

 94
      512
 95
        0
  3

  0
XRECORD
  5
258F
102
{ACAD_REACTORS
330
258E
102
}
330
258E
100
AcDbXrecord
280
     1
102
RTVSPropertyOp0
 70
     1
102
RTVSPropertyOp1
 70
     1
102
RTVSPropertyOp2
 70
     1
102
RTVSPropertyOp3
 70
     1
102
RTVSPropertyOp4
 70
     1
102
RTVSPropertyOp5
 70
     1
102
RTVSPropertyOp6
 70
     1
102
RTVSPropertyOp7
 70
     1
102
RTVSPropertyOp8
 70
     1
102
RTVSPropertyOp9
 70
     1
102
RTVSPropertyOp10
 70
     1
102
RTVSPropertyOp11
 70
     1
102
RTVSPropertyOp12
 70
     1
102
RTVSPropertyOp13
 70
     1
102
RTVSPropertyOp14
 70
     1
102
RTVSPropertyOp15
 70
     1
102
RTVSPropertyOp16
 70
     1
102
RTVSPropertyOp17
 70
     1
102
RTVSPropertyOp18
 70
     1
102
RTVSPropertyOp19
 70
     1
102
RTVSPropertyOp20
 70
     1
102
RTVSPropertyOp21
 70
     1
102
RTVSPropertyOp22
 70
     1
102
RTVSPropertyOp23
 70
     1
102
RTVSPropertyOp24
 70
     1
102
RTVSPropertyOp25
 70
     1
102
RTVSPropertyOp26
 70
     1
102
RTVSPropertyOp27
 70
     1
102
RTVSPropertyOp28
 70
     1
102
RTVSPropertyOp29
 70
     1
102
RTVSPropertyOp30
 70
     1
102
RTVSPropertyOp31
 70
     1
102
RTVSPropertyOp32
 70
     1
  0
XRECORD
  5
2593
102
{ACAD_REACTORS
330
2592
102
}
330
2592
100
AcDbXrecord
280
     1
102
RTVSPropertyOp0
 70
     1
102
RTVSPropertyOp1
 70
     1
102
RTVSPropertyOp2
 70
     1
102
RTVSPropertyOp3
 70
     1
102
RTVSPropertyOp4
 70
     1
102
RTVSPropertyOp5
 70
     1
102
RTVSPropertyOp6
 70
     1
102
RTVSPropertyOp7
 70
     1
102
RTVSPropertyOp8
 70
     1
102
RTVSPropertyOp9
 70
     1
102
RTVSPropertyOp10
 70
     1
102
RTVSPropertyOp11
 70
     1
102
RTVSPropertyOp12
 70
     1
102
RTVSPropertyOp13
 70
     1
102
RTVSPropertyOp14
 70
     1
102
RTVSPropertyOp15
 70
     1
102
RTVSPropertyOp16
 70
     1
102
RTVSPropertyOp17
 70
     1
102
RTVSPropertyOp18
 70
     1
102
RTVSPropertyOp19
 70
     1
102
RTVSPropertyOp20
 70
     1
102
RTVSPropertyOp21
 70
     1
102
RTVSPropertyOp22
 70
     1
102
RTVSPropertyOp23
 70
     1
102
RTVSPropertyOp24
 70
     1
102
RTVSPropertyOp25
 70
     1
102
RTVSPropertyOp26
 70
     1
102
RTVSPropertyOp27
 70
     1
102
RTVSPropertyOp28
 70
     1
102
RTVSPropertyOp29
 70
     1
102
RTVSPropertyOp30
 70
     1
102
RTVSPropertyOp31
 70
     1
102
RTVSPropertyOp32
 70
     1
  0
XRECORD
  5
2591
102
{ACAD_REACTORS
330
2590
102
}
330
2590
100
AcDbXrecord
280
     1
102
RTVSPropertyOp0
 70
     1
102
RTVSPropertyOp1
 70
     1
102
RTVSPropertyOp2
 70
     1
102
RTVSPropertyOp3
 70
     1
102
RTVSPropertyOp4
 70
     1
102
RTVSPropertyOp5
 70
     1
102
RTVSPropertyOp6
 70
     1
102
RTVSPropertyOp7
 70
     1
102
RTVSPropertyOp8
 70
     1
102
RTVSPropertyOp9
 70
     1
102
RTVSPropertyOp10
 70
     1
102
RTVSPropertyOp11
 70
     1
102
RTVSPropertyOp12
 70
     1
102
RTVSPropertyOp13
 70
     1
102
RTVSPropertyOp14
 70
     1
102
RTVSPropertyOp15
 70
     1
102
RTVSPropertyOp16
 70
     1
102
RTVSPropertyOp17
 70
     1
102
RTVSPropertyOp18
 70
     1
102
RTVSPropertyOp19
 70
     1
102
RTVSPropertyOp20
 70
     1
102
RTVSPropertyOp21
 70
     1
102
RTVSPropertyOp22
 70
     1
102
RTVSPropertyOp23
 70
     1
102
RTVSPropertyOp24
 70
     1
102
RTVSPropertyOp25
 70
     1
102
RTVSPropertyOp26
 70
     1
102
RTVSPropertyOp27
 70
     1
102
RTVSPropertyOp28
 70
     1
102
RTVSPropertyOp29
 70
     1
102
RTVSPropertyOp30
 70
     1
102
RTVSPropertyOp31
 70
     1
102
RTVSPropertyOp32
 70
     1
  0
XRECORD
  5
258D
102
{ACAD_REACTORS
330
258C
102
}
330
258C
100
AcDbXrecord
280
     1
102
RTVSPropertyOp0
 70
     1
102
RTVSPropertyOp1
 70
     1
102
RTVSPropertyOp2
 70
     1
102
RTVSPropertyOp3
 70
     1
102
RTVSPropertyOp4
 70
     1
102
RTVSPropertyOp5
 70
     1
102
RTVSPropertyOp6
 70
     1
102
RTVSPropertyOp7
 70
     1
102
RTVSPropertyOp8
 70
     1
102
RTVSPropertyOp9
 70
     1
102
RTVSPropertyOp10
 70
     1
102
RTVSPropertyOp11
 70
     1
102
RTVSPropertyOp12
 70
     1
102
RTVSPropertyOp13
 70
     1
102
RTVSPropertyOp14
 70
     1
102
RTVSPropertyOp15
 70
     1
102
RTVSPropertyOp16
 70
     1
102
RTVSPropertyOp17
 70
     1
102
RTVSPropertyOp18
 70
     1
102
RTVSPropertyOp19
 70
     1
102
RTVSPropertyOp20
 70
     1
102
RTVSPropertyOp21
 70
     1
102
RTVSPropertyOp22
 70
     1
102
RTVSPropertyOp23
 70
     1
102
RTVSPropertyOp24
 70
     1
102
RTVSPropertyOp25
 70
     1
102
RTVSPropertyOp26
 70
     1
102
RTVSPropertyOp27
 70
     1
102
RTVSPropertyOp28
 70
     1
102
RTVSPropertyOp29
 70
     1
102
RTVSPropertyOp30
 70
     1
102
RTVSPropertyOp31
 70
     1
102
RTVSPropertyOp32
 70
     1
  0
XRECORD
  5
259B
102
{ACAD_REACTORS
330
259A
102
}
330
259A
100
AcDbXrecord
280
     1
102
RTVSPropertyOp0
 70
     1
102
RTVSPropertyOp1
 70
     1
102
RTVSPropertyOp2
 70
     1
102
RTVSPropertyOp3
 70
     1
102
RTVSPropertyOp4
 70
     1
102
RTVSPropertyOp5
 70
     1
102
RTVSPropertyOp6
 70
     1
102
RTVSPropertyOp7
 70
     1
102
RTVSPropertyOp8
 70
     1
102
RTVSPropertyOp9
 70
     1
102
RTVSPropertyOp10
 70
     1
102
RTVSPropertyOp11
 70
     1
102
RTVSPropertyOp12
 70
     1
102
RTVSPropertyOp13
 70
     1
102
RTVSPropertyOp14
 70
     1
102
RTVSPropertyOp15
 70
     1
102
RTVSPropertyOp16
 70
     1
102
RTVSPropertyOp17
 70
     1
102
RTVSPropertyOp18
 70
     1
102
RTVSPropertyOp19
 70
     1
102
RTVSPropertyOp20
 70
     1
102
RTVSPropertyOp21
 70
     1
102
RTVSPropertyOp22
 70
     1
102
RTVSPropertyOp23
 70
     1
102
RTVSPropertyOp24
 70
     1
102
RTVSPropertyOp25
 70
     1
102
RTVSPropertyOp26
 70
     1
102
RTVSPropertyOp27
 70
     1
102
RTVSPropertyOp28
 70
     1
102
RTVSPropertyOp29
 70
     1
102
RTVSPropertyOp30
 70
     1
102
RTVSPropertyOp31
 70
     1
102
RTVSPropertyOp32
 70
     1
  0
XRECORD
  5
25A3
102
{ACAD_REACTORS
330
25A2
102
}
330
25A2
100
AcDbXrecord
280
     1
102
RTVSPropertyOp0
 70
     1
102
RTVSPropertyOp1
 70
     1
102
RTVSPropertyOp2
 70
     1
102
RTVSPropertyOp3
 70
     1
102
RTVSPropertyOp4
 70
     1
102
RTVSPropertyOp5
 70
     1
102
RTVSPropertyOp6
 70
     1
102
RTVSPropertyOp7
 70
     1
102
RTVSPropertyOp8
 70
     1
102
RTVSPropertyOp9
 70
     1
102
RTVSPropertyOp10
 70
     1
102
RTVSPropertyOp11
 70
     1
102
RTVSPropertyOp12
 70
     1
102
RTVSPropertyOp13
 70
     1
102
RTVSPropertyOp14
 70
     1
102
RTVSPropertyOp15
 70
     1
102
RTVSPropertyOp16
 70
     1
102
RTVSPropertyOp17
 70
     1
102
RTVSPropertyOp18
 70
     1
102
RTVSPropertyOp19
 70
     1
102
RTVSPropertyOp20
 70
     1
102
RTVSPropertyOp21
 70
     1
102
RTVSPropertyOp22
 70
     1
102
RTVSPropertyOp23
 70
     1
102
RTVSPropertyOp24
 70
     1
102
RTVSPropertyOp25
 70
     1
102
RTVSPropertyOp26
 70
     1
102
RTVSPropertyOp27
 70
     1
102
RTVSPropertyOp28
 70
     1
102
RTVSPropertyOp29
 70
     1
102
RTVSPropertyOp30
 70
     1
102
RTVSPropertyOp31
 70
     1
102
RTVSPropertyOp32
 70
     1
  0
XRECORD
  5
2595
102
{ACAD_REACTORS
330
2594
102
}
330
2594
100
AcDbXrecord
280
     1
102
RTVSPropertyOp0
 70
     1
102
RTVSPropertyOp1
 70
     1
102
RTVSPropertyOp2
 70
     1
102
RTVSPropertyOp3
 70
     1
102
RTVSPropertyOp4
 70
     1
102
RTVSPropertyOp5
 70
     1
102
RTVSPropertyOp6
 70
     1
102
RTVSPropertyOp7
 70
     1
102
RTVSPropertyOp8
 70
     1
102
RTVSPropertyOp9
 70
     1
102
RTVSPropertyOp10
 70
     1
102
RTVSPropertyOp11
 70
     1
102
RTVSPropertyOp12
 70
     1
102
RTVSPropertyOp13
 70
     1
102
RTVSPropertyOp14
 70
     1
102
RTVSPropertyOp15
 70
     1
102
RTVSPropertyOp16
 70
     1
102
RTVSPropertyOp17
 70
     1
102
RTVSPropertyOp18
 70
     1
102
RTVSPropertyOp19
 70
     1
102
RTVSPropertyOp20
 70
     1
102
RTVSPropertyOp21
 70
     1
102
RTVSPropertyOp22
 70
     1
102
RTVSPropertyOp23
 70
     1
102
RTVSPropertyOp24
 70
     1
102
RTVSPropertyOp25
 70
     1
102
RTVSPropertyOp26
 70
     1
102
RTVSPropertyOp27
 70
     1
102
RTVSPropertyOp28
 70
     1
102
RTVSPropertyOp29
 70
     1
102
RTVSPropertyOp30
 70
     1
102
RTVSPropertyOp31
 70
     1
102
RTVSPropertyOp32
 70
     1
  0
XRECORD
  5
2599
102
{ACAD_REACTORS
330
2598
102
}
330
2598
100
AcDbXrecord
280
     1
102
RTVSPropertyOp0
 70
     1
102
RTVSPropertyOp1
 70
     1
102
RTVSPropertyOp2
 70
     1
102
RTVSPropertyOp3
 70
     1
102
RTVSPropertyOp4
 70
     1
102
RTVSPropertyOp5
 70
     1
102
RTVSPropertyOp6
 70
     1
102
RTVSPropertyOp7
 70
     1
102
RTVSPropertyOp8
 70
     1
102
RTVSPropertyOp9
 70
     1
102
RTVSPropertyOp10
 70
     1
102
RTVSPropertyOp11
 70
     1
102
RTVSPropertyOp12
 70
     1
102
RTVSPropertyOp13
 70
     1
102
RTVSPropertyOp14
 70
     1
102
RTVSPropertyOp15
 70
     1
102
RTVSPropertyOp16
 70
     1
102
RTVSPropertyOp17
 70
     1
102
RTVSPropertyOp18
 70
     1
102
RTVSPropertyOp19
 70
     1
102
RTVSPropertyOp20
 70
     1
102
RTVSPropertyOp21
 70
     1
102
RTVSPropertyOp22
 70
     1
102
RTVSPropertyOp23
 70
     1
102
RTVSPropertyOp24
 70
     1
102
RTVSPropertyOp25
 70
     1
102
RTVSPropertyOp26
 70
     1
102
RTVSPropertyOp27
 70
     1
102
RTVSPropertyOp28
 70
     1
102
RTVSPropertyOp29
 70
     1
102
RTVSPropertyOp30
 70
     1
102
RTVSPropertyOp31
 70
     1
102
RTVSPropertyOp32
 70
     1
  0
XRECORD
  5
25B7
102
{ACAD_REACTORS
330
25B6
102
}
330
25B6
100
AcDbXrecord
280
     1
102
RTVSPropertyOp0
 70
     0
102
RTVSPropertyOp1
 70
     0
102
RTVSPropertyOp2
 70
     0
102
RTVSPropertyOp3
 70
     0
102
RTVSPropertyOp4
 70
     0
102
RTVSPropertyOp5
 70
     0
102
RTVSPropertyOp6
 70
     0
102
RTVSPropertyOp7
 70
     0
102
RTVSPropertyOp8
 70
     0
102
RTVSPropertyOp9
 70
     0
102
RTVSPropertyOp10
 70
     0
102
RTVSPropertyOp11
 70
     0
102
RTVSPropertyOp12
 70
     0
102
RTVSPropertyOp13
 70
     0
102
RTVSPropertyOp14
 70
     2
102
RTVSPropertyOp15
 70
     0
102
RTVSPropertyOp16
 70
     0
102
RTVSPropertyOp17
 70
     0
102
RTVSPropertyOp18
 70
     0
102
RTVSPropertyOp19
 70
     0
102
RTVSPropertyOp20
 70
     0
102
RTVSPropertyOp21
 70
     0
102
RTVSPropertyOp22
 70
     0
102
RTVSPropertyOp23
 70
     0
102
RTVSPropertyOp24
 70
     0
102
RTVSPropertyOp25
 70
     0
102
RTVSPropertyOp26
 70
     0
102
RTVSPropertyOp27
 70
     0
102
RTVSPropertyOp28
 70
     1
102
RTVSPropertyOp29
 70
     1
102
RTVSPropertyOp30
 70
     1
102
RTVSPropertyOp31
 70
     1
102
RTVSPropertyOp32
 70
     1
  0
XRECORD
  5
25A1
102
{ACAD_REACTORS
330
25A0
102
}
330
25A0
100
AcDbXrecord
280
     1
102
RTVSPropertyOp0
 70
     1
102
RTVSPropertyOp1
 70
     1
102
RTVSPropertyOp2
 70
     1
102
RTVSPropertyOp3
 70
     1
102
RTVSPropertyOp4
 70
     1
102
RTVSPropertyOp5
 70
     1
102
RTVSPropertyOp6
 70
     1
102
RTVSPropertyOp7
 70
     1
102
RTVSPropertyOp8
 70
     1
102
RTVSPropertyOp9
 70
     1
102
RTVSPropertyOp10
 70
     1
102
RTVSPropertyOp11
 70
     1
102
RTVSPropertyOp12
 70
     1
102
RTVSPropertyOp13
 70
     1
102
RTVSPropertyOp14
 70
     1
102
RTVSPropertyOp15
 70
     1
102
RTVSPropertyOp16
 70
     1
102
RTVSPropertyOp17
 70
     1
102
RTVSPropertyOp18
 70
     1
102
RTVSPropertyOp19
 70
     1
102
RTVSPropertyOp20
 70
     1
102
RTVSPropertyOp21
 70
     1
102
RTVSPropertyOp22
 70
     1
102
RTVSPropertyOp23
 70
     1
102
RTVSPropertyOp24
 70
     1
102
RTVSPropertyOp25
 70
     1
102
RTVSPropertyOp26
 70
     1
102
RTVSPropertyOp27
 70
     1
102
RTVSPropertyOp28
 70
     1
102
RTVSPropertyOp29
 70
     1
102
RTVSPropertyOp30
 70
     1
102
RTVSPropertyOp31
 70
     1
102
RTVSPropertyOp32
 70
     1
  0
XRECORD
  5
2585
102
{ACAD_REACTORS
330
2584
102
}
330
2584
100
AcDbXrecord
280
     1
102
RTVSPropertyOp0
 70
     1
102
RTVSPropertyOp1
 70
     1
102
RTVSPropertyOp2
 70
     1
102
RTVSPropertyOp3
 70
     1
102
RTVSPropertyOp4
 70
     1
102
RTVSPropertyOp5
 70
     1
102
RTVSPropertyOp6
 70
     1
102
RTVSPropertyOp7
 70
     1
102
RTVSPropertyOp8
 70
     1
102
RTVSPropertyOp9
 70
     1
102
RTVSPropertyOp10
 70
     1
102
RTVSPropertyOp11
 70
     1
102
RTVSPropertyOp12
 70
     1
102
RTVSPropertyOp13
 70
     1
102
RTVSPropertyOp14
 70
     1
102
RTVSPropertyOp15
 70
     1
102
RTVSPropertyOp16
 70
     1
102
RTVSPropertyOp17
 70
     1
102
RTVSPropertyOp18
 70
     1
102
RTVSPropertyOp19
 70
     1
102
RTVSPropertyOp20
 70
     1
102
RTVSPropertyOp21
 70
     1
102
RTVSPropertyOp22
 70
     1
102
RTVSPropertyOp23
 70
     1
102
RTVSPropertyOp24
 70
     1
102
RTVSPropertyOp25
 70
     1
102
RTVSPropertyOp26
 70
     1
102
RTVSPropertyOp27
 70
     1
102
RTVSPropertyOp28
 70
     1
102
RTVSPropertyOp29
 70
     1
102
RTVSPropertyOp30
 70
     1
102
RTVSPropertyOp31
 70
     1
102
RTVSPropertyOp32
 70
     1
  0
XRECORD
  5
2587
102
{ACAD_REACTORS
330
2586
102
}
330
2586
100
AcDbXrecord
280
     1
102
RTVSPropertyOp0
 70
     1
102
RTVSPropertyOp1
 70
     1
102
RTVSPropertyOp2
 70
     1
102
RTVSPropertyOp3
 70
     1
102
RTVSPropertyOp4
 70
     1
102
RTVSPropertyOp5
 70
     1
102
RTVSPropertyOp6
 70
     1
102
RTVSPropertyOp7
 70
     1
102
RTVSPropertyOp8
 70
     1
102
RTVSPropertyOp9
 70
     1
102
RTVSPropertyOp10
 70
     1
102
RTVSPropertyOp11
 70
     1
102
RTVSPropertyOp12
 70
     1
102
RTVSPropertyOp13
 70
     1
102
RTVSPropertyOp14
 70
     1
102
RTVSPropertyOp15
 70
     1
102
RTVSPropertyOp16
 70
     1
102
RTVSPropertyOp17
 70
     1
102
RTVSPropertyOp18
 70
     1
102
RTVSPropertyOp19
 70
     1
102
RTVSPropertyOp20
 70
     1
102
RTVSPropertyOp21
 70
     1
102
RTVSPropertyOp22
 70
     1
102
RTVSPropertyOp23
 70
     1
102
RTVSPropertyOp24
 70
     1
102
RTVSPropertyOp25
 70
     1
102
RTVSPropertyOp26
 70
     1
102
RTVSPropertyOp27
 70
     1
102
RTVSPropertyOp28
 70
     1
102
RTVSPropertyOp29
 70
     1
102
RTVSPropertyOp30
 70
     1
102
RTVSPropertyOp31
 70
     1
102
RTVSPropertyOp32
 70
     1
  0
XRECORD
  5
2589
102
{ACAD_REACTORS
330
2588
102
}
330
2588
100
AcDbXrecord
280
     1
102
RTVSPropertyOp0
 70
     1
102
RTVSPropertyOp1
 70
     1
102
RTVSPropertyOp2
 70
     1
102
RTVSPropertyOp3
 70
     1
102
RTVSPropertyOp4
 70
     1
102
RTVSPropertyOp5
 70
     1
102
RTVSPropertyOp6
 70
     1
102
RTVSPropertyOp7
 70
     1
102
RTVSPropertyOp8
 70
     1
102
RTVSPropertyOp9
 70
     1
102
RTVSPropertyOp10
 70
     1
102
RTVSPropertyOp11
 70
     1
102
RTVSPropertyOp12
 70
     1
102
RTVSPropertyOp13
 70
     1
102
RTVSPropertyOp14
 70
     1
102
RTVSPropertyOp15
 70
     1
102
RTVSPropertyOp16
 70
     1
102
RTVSPropertyOp17
 70
     1
102
RTVSPropertyOp18
 70
     1
102
RTVSPropertyOp19
 70
     1
102
RTVSPropertyOp20
 70
     1
102
RTVSPropertyOp21
 70
     1
102
RTVSPropertyOp22
 70
     1
102
RTVSPropertyOp23
 70
     1
102
RTVSPropertyOp24
 70
     1
102
RTVSPropertyOp25
 70
     1
102
RTVSPropertyOp26
 70
     1
102
RTVSPropertyOp27
 70
     1
102
RTVSPropertyOp28
 70
     1
102
RTVSPropertyOp29
 70
     1
102
RTVSPropertyOp30
 70
     1
102
RTVSPropertyOp31
 70
     1
102
RTVSPropertyOp32
 70
     1
  0
XRECORD
  5
258B
102
{ACAD_REACTORS
330
258A
102
}
330
258A
100
AcDbXrecord
280
     1
102
RTVSPropertyOp0
 70
     1
102
RTVSPropertyOp1
 70
     1
102
RTVSPropertyOp2
 70
     1
102
RTVSPropertyOp3
 70
     1
102
RTVSPropertyOp4
 70
     1
102
RTVSPropertyOp5
 70
     1
102
RTVSPropertyOp6
 70
     1
102
RTVSPropertyOp7
 70
     1
102
RTVSPropertyOp8
 70
     1
102
RTVSPropertyOp9
 70
     1
102
RTVSPropertyOp10
 70
     1
102
RTVSPropertyOp11
 70
     1
102
RTVSPropertyOp12
 70
     1
102
RTVSPropertyOp13
 70
     1
102
RTVSPropertyOp14
 70
     1
102
RTVSPropertyOp15
 70
     1
102
RTVSPropertyOp16
 70
     1
102
RTVSPropertyOp17
 70
     1
102
RTVSPropertyOp18
 70
     1
102
RTVSPropertyOp19
 70
     1
102
RTVSPropertyOp20
 70
     1
102
RTVSPropertyOp21
 70
     1
102
RTVSPropertyOp22
 70
     1
102
RTVSPropertyOp23
 70
     1
102
RTVSPropertyOp24
 70
     1
102
RTVSPropertyOp25
 70
     1
102
RTVSPropertyOp26
 70
     1
102
RTVSPropertyOp27
 70
     1
102
RTVSPropertyOp28
 70
     1
102
RTVSPropertyOp29
 70
     1
102
RTVSPropertyOp30
 70
     1
102
RTVSPropertyOp31
 70
     1
102
RTVSPropertyOp32
 70
     1
  0
XRECORD
  5
25A7
102
{ACAD_REACTORS
330
25A6
102
}
330
25A6
100
AcDbXrecord
280
     1
102
RTVSPropertyOp0
 70
     1
102
RTVSPropertyOp1
 70
     1
102
RTVSPropertyOp2
 70
     1
102
RTVSPropertyOp3
 70
     1
102
RTVSPropertyOp4
 70
     1
102
RTVSPropertyOp5
 70
     1
102
RTVSPropertyOp6
 70
     1
102
RTVSPropertyOp7
 70
     1
102
RTVSPropertyOp8
 70
     1
102
RTVSPropertyOp9
 70
     1
102
RTVSPropertyOp10
 70
     1
102
RTVSPropertyOp11
 70
     1
102
RTVSPropertyOp12
 70
     1
102
RTVSPropertyOp13
 70
     1
102
RTVSPropertyOp14
 70
     1
102
RTVSPropertyOp15
 70
     1
102
RTVSPropertyOp16
 70
     1
102
RTVSPropertyOp17
 70
     1
102
RTVSPropertyOp18
 70
     1
102
RTVSPropertyOp19
 70
     1
102
RTVSPropertyOp20
 70
     1
102
RTVSPropertyOp21
 70
     1
102
RTVSPropertyOp22
 70
     1
102
RTVSPropertyOp23
 70
     1
102
RTVSPropertyOp24
 70
     1
102
RTVSPropertyOp25
 70
     1
102
RTVSPropertyOp26
 70
     1
102
RTVSPropertyOp27
 70
     1
102
RTVSPropertyOp28
 70
     1
102
RTVSPropertyOp29
 70
     1
102
RTVSPropertyOp30
 70
     1
102
RTVSPropertyOp31
 70
     1
102
RTVSPropertyOp32
 70
     1
  0
XRECORD
  5
25B3
102
{ACAD_REACTORS
330
25B2
102
}
330
25B2
100
AcDbXrecord
280
     1
102
RTVSPropertyOp0
 70
     0
102
RTVSPropertyOp1
 70
     0
102
RTVSPropertyOp2
 70
     0
102
RTVSPropertyOp3
 70
     0
102
RTVSPropertyOp4
 70
     0
102
RTVSPropertyOp5
 70
     0
102
RTVSPropertyOp6
 70
     0
102
RTVSPropertyOp7
 70
     0
102
RTVSPropertyOp8
 70
     0
102
RTVSPropertyOp9
 70
     0
102
RTVSPropertyOp10
 70
     0
102
RTVSPropertyOp11
 70
     0
102
RTVSPropertyOp12
 70
     0
102
RTVSPropertyOp13
 70
     0
102
RTVSPropertyOp14
 70
     2
102
RTVSPropertyOp15
 70
     0
102
RTVSPropertyOp16
 70
     0
102
RTVSPropertyOp17
 70
     0
102
RTVSPropertyOp18
 70
     0
102
RTVSPropertyOp19
 70
     0
102
RTVSPropertyOp20
 70
     0
102
RTVSPropertyOp21
 70
     0
102
RTVSPropertyOp22
 70
     0
102
RTVSPropertyOp23
 70
     0
102
RTVSPropertyOp24
 70
     0
102
RTVSPropertyOp25
 70
     0
102
RTVSPropertyOp26
 70
     0
102
RTVSPropertyOp27
 70
     0
102
RTVSPropertyOp28
 70
     1
102
RTVSPropertyOp29
 70
     1
102
RTVSPropertyOp30
 70
     1
102
RTVSPropertyOp31
 70
     1
102
RTVSPropertyOp32
 70
     1
  0
XRECORD
  5
259F
102
{ACAD_REACTORS
330
259E
102
}
330
259E
100
AcDbXrecord
280
     1
102
RTVSPropertyOp0
 70
     1
102
RTVSPropertyOp1
 70
     1
102
RTVSPropertyOp2
 70
     1
102
RTVSPropertyOp3
 70
     1
102
RTVSPropertyOp4
 70
     1
102
RTVSPropertyOp5
 70
     1
102
RTVSPropertyOp6
 70
     1
102
RTVSPropertyOp7
 70
     1
102
RTVSPropertyOp8
 70
     1
102
RTVSPropertyOp9
 70
     1
102
RTVSPropertyOp10
 70
     1
102
RTVSPropertyOp11
 70
     1
102
RTVSPropertyOp12
 70
     1
102
RTVSPropertyOp13
 70
     1
102
RTVSPropertyOp14
 70
     1
102
RTVSPropertyOp15
 70
     1
102
RTVSPropertyOp16
 70
     1
102
RTVSPropertyOp17
 70
     1
102
RTVSPropertyOp18
 70
     1
102
RTVSPropertyOp19
 70
     1
102
RTVSPropertyOp20
 70
     1
102
RTVSPropertyOp21
 70
     1
102
RTVSPropertyOp22
 70
     1
102
RTVSPropertyOp23
 70
     1
102
RTVSPropertyOp24
 70
     1
102
RTVSPropertyOp25
 70
     1
102
RTVSPropertyOp26
 70
     1
102
RTVSPropertyOp27
 70
     1
102
RTVSPropertyOp28
 70
     1
102
RTVSPropertyOp29
 70
     1
102
RTVSPropertyOp30
 70
     1
102
RTVSPropertyOp31
 70
     1
102
RTVSPropertyOp32
 70
     1
  0
XRECORD
  5
25B5
102
{ACAD_REACTORS
330
25B4
102
}
330
25B4
100
AcDbXrecord
280
     1
102
RTVSPropertyOp0
 70
     0
102
RTVSPropertyOp1
 70
     0
102
RTVSPropertyOp2
 70
     0
102
RTVSPropertyOp3
 70
     0
102
RTVSPropertyOp4
 70
     0
102
RTVSPropertyOp5
 70
     0
102
RTVSPropertyOp6
 70
     0
102
RTVSPropertyOp7
 70
     0
102
RTVSPropertyOp8
 70
     0
102
RTVSPropertyOp9
 70
     0
102
RTVSPropertyOp10
 70
     0
102
RTVSPropertyOp11
 70
     0
102
RTVSPropertyOp12
 70
     0
102
RTVSPropertyOp13
 70
     0
102
RTVSPropertyOp14
 70
     2
102
RTVSPropertyOp15
 70
     0
102
RTVSPropertyOp16
 70
     0
102
RTVSPropertyOp17
 70
     0
102
RTVSPropertyOp18
 70
     0
102
RTVSPropertyOp19
 70
     0
102
RTVSPropertyOp20
 70
     0
102
RTVSPropertyOp21
 70
     0
102
RTVSPropertyOp22
 70
     0
102
RTVSPropertyOp23
 70
     0
102
RTVSPropertyOp24
 70
     0
102
RTVSPropertyOp25
 70
     0
102
RTVSPropertyOp26
 70
     0
102
RTVSPropertyOp27
 70
     0
102
RTVSPropertyOp28
 70
     1
102
RTVSPropertyOp29
 70
     1
102
RTVSPropertyOp30
 70
     1
102
RTVSPropertyOp31
 70
     1
102
RTVSPropertyOp32
 70
     1
  0
XRECORD
  5
2597
102
{ACAD_REACTORS
330
2596
102
}
330
2596
100
AcDbXrecord
280
     1
102
RTVSPropertyOp0
 70
     1
102
RTVSPropertyOp1
 70
     1
102
RTVSPropertyOp2
 70
     1
102
RTVSPropertyOp3
 70
     1
102
RTVSPropertyOp4
 70
     1
102
RTVSPropertyOp5
 70
     1
102
RTVSPropertyOp6
 70
     1
102
RTVSPropertyOp7
 70
     1
102
RTVSPropertyOp8
 70
     1
102
RTVSPropertyOp9
 70
     1
102
RTVSPropertyOp10
 70
     1
102
RTVSPropertyOp11
 70
     1
102
RTVSPropertyOp12
 70
     1
102
RTVSPropertyOp13
 70
     1
102
RTVSPropertyOp14
 70
     1
102
RTVSPropertyOp15
 70
     1
102
RTVSPropertyOp16
 70
     1
102
RTVSPropertyOp17
 70
     1
102
RTVSPropertyOp18
 70
     1
102
RTVSPropertyOp19
 70
     1
102
RTVSPropertyOp20
 70
     1
102
RTVSPropertyOp21
 70
     1
102
RTVSPropertyOp22
 70
     1
102
RTVSPropertyOp23
 70
     1
102
RTVSPropertyOp24
 70
     1
102
RTVSPropertyOp25
 70
     1
102
RTVSPropertyOp26
 70
     1
102
RTVSPropertyOp27
 70
     1
102
RTVSPropertyOp28
 70
     1
102
RTVSPropertyOp29
 70
     1
102
RTVSPropertyOp30
 70
     1
102
RTVSPropertyOp31
 70
     1
102
RTVSPropertyOp32
 70
     1
  0
XRECORD
  5
25B1
102
{ACAD_REACTORS
330
25B0
102
}
330
25B0
100
AcDbXrecord
280
     1
102
RTVSPropertyOp0
 70
     1
102
RTVSPropertyOp1
 70
     1
102
RTVSPropertyOp2
 70
     1
102
RTVSPropertyOp3
 70
     1
102
RTVSPropertyOp4
 70
     1
102
RTVSPropertyOp5
 70
     1
102
RTVSPropertyOp6
 70
     1
102
RTVSPropertyOp7
 70
     1
102
RTVSPropertyOp8
 70
     1
102
RTVSPropertyOp9
 70
     1
102
RTVSPropertyOp10
 70
     1
102
RTVSPropertyOp11
 70
     1
102
RTVSPropertyOp12
 70
     1
102
RTVSPropertyOp13
 70
     1
102
RTVSPropertyOp14
 70
     1
102
RTVSPropertyOp15
 70
     1
102
RTVSPropertyOp16
 70
     1
102
RTVSPropertyOp17
 70
     1
102
RTVSPropertyOp18
 70
     1
102
RTVSPropertyOp19
 70
     1
102
RTVSPropertyOp20
 70
     1
102
RTVSPropertyOp21
 70
     1
102
RTVSPropertyOp22
 70
     1
102
RTVSPropertyOp23
 70
     1
102
RTVSPropertyOp24
 70
     1
102
RTVSPropertyOp25
 70
     1
102
RTVSPropertyOp26
 70
     1
102
RTVSPropertyOp27
 70
     1
102
RTVSPropertyOp28
 70
     1
102
RTVSPropertyOp29
 70
     1
102
RTVSPropertyOp30
 70
     1
102
RTVSPropertyOp31
 70
     1
102
RTVSPropertyOp32
 70
     1
  0
XRECORD
  5
25AF
102
{ACAD_REACTORS
330
25AE
102
}
330
25AE
100
AcDbXrecord
280
     1
102
RTVSPropertyOp0
 70
     1
102
RTVSPropertyOp1
 70
     1
102
RTVSPropertyOp2
 70
     1
102
RTVSPropertyOp3
 70
     1
102
RTVSPropertyOp4
 70
     1
102
RTVSPropertyOp5
 70
     1
102
RTVSPropertyOp6
 70
     1
102
RTVSPropertyOp7
 70
     1
102
RTVSPropertyOp8
 70
     1
102
RTVSPropertyOp9
 70
     1
102
RTVSPropertyOp10
 70
     1
102
RTVSPropertyOp11
 70
     1
102
RTVSPropertyOp12
 70
     1
102
RTVSPropertyOp13
 70
     1
102
RTVSPropertyOp14
 70
     1
102
RTVSPropertyOp15
 70
     1
102
RTVSPropertyOp16
 70
     1
102
RTVSPropertyOp17
 70
     1
102
RTVSPropertyOp18
 70
     1
102
RTVSPropertyOp19
 70
     1
102
RTVSPropertyOp20
 70
     1
102
RTVSPropertyOp21
 70
     1
102
RTVSPropertyOp22
 70
     1
102
RTVSPropertyOp23
 70
     1
102
RTVSPropertyOp24
 70
     1
102
RTVSPropertyOp25
 70
     1
102
RTVSPropertyOp26
 70
     1
102
RTVSPropertyOp27
 70
     1
102
RTVSPropertyOp28
 70
     1
102
RTVSPropertyOp29
 70
     1
102
RTVSPropertyOp30
 70
     1
102
RTVSPropertyOp31
 70
     1
102
RTVSPropertyOp32
 70
     1
  0
XRECORD
  5
25A9
102
{ACAD_REACTORS
330
25A8
102
}
330
25A8
100
AcDbXrecord
280
     1
102
RTVSPropertyOp0
 70
     1
102
RTVSPropertyOp1
 70
     1
102
RTVSPropertyOp2
 70
     1
102
RTVSPropertyOp3
 70
     1
102
RTVSPropertyOp4
 70
     1
102
RTVSPropertyOp5
 70
     1
102
RTVSPropertyOp6
 70
     1
102
RTVSPropertyOp7
 70
     1
102
RTVSPropertyOp8
 70
     1
102
RTVSPropertyOp9
 70
     1
102
RTVSPropertyOp10
 70
     1
102
RTVSPropertyOp11
 70
     1
102
RTVSPropertyOp12
 70
     1
102
RTVSPropertyOp13
 70
     1
102
RTVSPropertyOp14
 70
     1
102
RTVSPropertyOp15
 70
     1
102
RTVSPropertyOp16
 70
     1
102
RTVSPropertyOp17
 70
     1
102
RTVSPropertyOp18
 70
     1
102
RTVSPropertyOp19
 70
     1
102
RTVSPropertyOp20
 70
     1
102
RTVSPropertyOp21
 70
     1
102
RTVSPropertyOp22
 70
     1
102
RTVSPropertyOp23
 70
     1
102
RTVSPropertyOp24
 70
     1
102
RTVSPropertyOp25
 70
     1
102
RTVSPropertyOp26
 70
     1
102
RTVSPropertyOp27
 70
     1
102
RTVSPropertyOp28
 70
     1
102
RTVSPropertyOp29
 70
     1
102
RTVSPropertyOp30
 70
     1
102
RTVSPropertyOp31
 70
     1
102
RTVSPropertyOp32
 70
     1
  0
XRECORD
  5
25AB
102
{ACAD_REACTORS
330
25AA
102
}
330
25AA
100
AcDbXrecord
280
     1
102
RTVSPropertyOp0
 70
     1
102
RTVSPropertyOp1
 70
     1
102
RTVSPropertyOp2
 70
     1
102
RTVSPropertyOp3
 70
     1
102
RTVSPropertyOp4
 70
     1
102
RTVSPropertyOp5
 70
     1
102
RTVSPropertyOp6
 70
     1
102
RTVSPropertyOp7
 70
     1
102
RTVSPropertyOp8
 70
     1
102
RTVSPropertyOp9
 70
     1
102
RTVSPropertyOp10
 70
     1
102
RTVSPropertyOp11
 70
     1
102
RTVSPropertyOp12
 70
     1
102
RTVSPropertyOp13
 70
     1
102
RTVSPropertyOp14
 70
     1
102
RTVSPropertyOp15
 70
     1
102
RTVSPropertyOp16
 70
     1
102
RTVSPropertyOp17
 70
     1
102
RTVSPropertyOp18
 70
     1
102
RTVSPropertyOp19
 70
     1
102
RTVSPropertyOp20
 70
     1
102
RTVSPropertyOp21
 70
     1
102
RTVSPropertyOp22
 70
     1
102
RTVSPropertyOp23
 70
     1
102
RTVSPropertyOp24
 70
     1
102
RTVSPropertyOp25
 70
     1
102
RTVSPropertyOp26
 70
     1
102
RTVSPropertyOp27
 70
     1
102
RTVSPropertyOp28
 70
     1
102
RTVSPropertyOp29
 70
     1
102
RTVSPropertyOp30
 70
     1
102
RTVSPropertyOp31
 70
     1
102
RTVSPropertyOp32
 70
     1
  0
XRECORD
  5
259D
102
{ACAD_REACTORS
330
259C
102
}
330
259C
100
AcDbXrecord
280
     1
102
RTVSPropertyOp0
 70
     1
102
RTVSPropertyOp1
 70
     1
102
RTVSPropertyOp2
 70
     1
102
RTVSPropertyOp3
 70
     1
102
RTVSPropertyOp4
 70
     1
102
RTVSPropertyOp5
 70
     1
102
RTVSPropertyOp6
 70
     1
102
RTVSPropertyOp7
 70
     1
102
RTVSPropertyOp8
 70
     1
102
RTVSPropertyOp9
 70
     1
102
RTVSPropertyOp10
 70
     1
102
RTVSPropertyOp11
 70
     1
102
RTVSPropertyOp12
 70
     1
102
RTVSPropertyOp13
 70
     1
102
RTVSPropertyOp14
 70
     1
102
RTVSPropertyOp15
 70
     1
102
RTVSPropertyOp16
 70
     1
102
RTVSPropertyOp17
 70
     1
102
RTVSPropertyOp18
 70
     1
102
RTVSPropertyOp19
 70
     1
102
RTVSPropertyOp20
 70
     1
102
RTVSPropertyOp21
 70
     1
102
RTVSPropertyOp22
 70
     1
102
RTVSPropertyOp23
 70
     1
102
RTVSPropertyOp24
 70
     1
102
RTVSPropertyOp25
 70
     1
102
RTVSPropertyOp26
 70
     1
102
RTVSPropertyOp27
 70
     1
102
RTVSPropertyOp28
 70
     1
102
RTVSPropertyOp29
 70
     1
102
RTVSPropertyOp30
 70
     1
102
RTVSPropertyOp31
 70
     1
102
RTVSPropertyOp32
 70
     1
  0
XRECORD
  5
25A5
102
{ACAD_REACTORS
330
25A4
102
}
330
25A4
100
AcDbXrecord
280
     1
102
RTVSPropertyOp0
 70
     1
102
RTVSPropertyOp1
 70
     1
102
RTVSPropertyOp2
 70
     1
102
RTVSPropertyOp3
 70
     1
102
RTVSPropertyOp4
 70
     1
102
RTVSPropertyOp5
 70
     1
102
RTVSPropertyOp6
 70
     1
102
RTVSPropertyOp7
 70
     1
102
RTVSPropertyOp8
 70
     1
102
RTVSPropertyOp9
 70
     1
102
RTVSPropertyOp10
 70
     1
102
RTVSPropertyOp11
 70
     1
102
RTVSPropertyOp12
 70
     1
102
RTVSPropertyOp13
 70
     1
102
RTVSPropertyOp14
 70
     1
102
RTVSPropertyOp15
 70
     1
102
RTVSPropertyOp16
 70
     1
102
RTVSPropertyOp17
 70
     1
102
RTVSPropertyOp18
 70
     1
102
RTVSPropertyOp19
 70
     1
102
RTVSPropertyOp20
 70
     1
102
RTVSPropertyOp21
 70
     1
102
RTVSPropertyOp22
 70
     1
102
RTVSPropertyOp23
 70
     1
102
RTVSPropertyOp24
 70
     1
102
RTVSPropertyOp25
 70
     1
102
RTVSPropertyOp26
 70
     1
102
RTVSPropertyOp27
 70
     1
102
RTVSPropertyOp28
 70
     1
102
RTVSPropertyOp29
 70
     1
102
RTVSPropertyOp30
 70
     1
102
RTVSPropertyOp31
 70
     1
102
RTVSPropertyOp32
 70
     1
  0
XRECORD
  5
25AD
102
{ACAD_REACTORS
330
25AC
102
}
330
25AC
100
AcDbXrecord
280
     1
102
RTVSPropertyOp0
 70
     1
102
RTVSPropertyOp1
 70
     1
102
RTVSPropertyOp2
 70
     1
102
RTVSPropertyOp3
 70
     1
102
RTVSPropertyOp4
 70
     1
102
RTVSPropertyOp5
 70
     1
102
RTVSPropertyOp6
 70
     1
102
RTVSPropertyOp7
 70
     1
102
RTVSPropertyOp8
 70
     1
102
RTVSPropertyOp9
 70
     1
102
RTVSPropertyOp10
 70
     1
102
RTVSPropertyOp11
 70
     1
102
RTVSPropertyOp12
 70
     1
102
RTVSPropertyOp13
 70
     1
102
RTVSPropertyOp14
 70
     1
102
RTVSPropertyOp15
 70
     1
102
RTVSPropertyOp16
 70
     1
102
RTVSPropertyOp17
 70
     1
102
RTVSPropertyOp18
 70
     1
102
RTVSPropertyOp19
 70
     1
102
RTVSPropertyOp20
 70
     1
102
RTVSPropertyOp21
 70
     1
102
RTVSPropertyOp22
 70
     1
102
RTVSPropertyOp23
 70
     1
102
RTVSPropertyOp24
 70
     1
102
RTVSPropertyOp25
 70
     1
102
RTVSPropertyOp26
 70
     1
102
RTVSPropertyOp27
 70
     1
102
RTVSPropertyOp28
 70
     1
102
RTVSPropertyOp29
 70
     1
102
RTVSPropertyOp30
 70
     1
102
RTVSPropertyOp31
 70
     1
102
RTVSPropertyOp32
 70
     1
  0
ENDSEC
  0
EOF
