  0
SECTION
  2
HEADER
  9
$ACADVER
  1
AC1015
  9
$ACADMAINTVER
 70
    20
  9
$DWGCODEPAGE
  3
ANSI_932
  9
$INSBASE
 10
0.0
 20
0.0
 30
0.0
  9
$EXTMIN
 10
1308.936421734743
 20
-473.5522463971246
 30
0.0
  9
$EXTMAX
 10
1500.936421734743
 20
-192.4301176671247
 30
0.0
  9
$LIMMIN
 10
0.0
 20
0.0
  9
$LIMMAX
 10
12.0
 20
9.0
  9
$ORTHOMODE
 70
     0
  9
$REGENMODE
 70
     1
  9
$FILLMODE
 70
     1
  9
$QTEXTMODE
 70
     0
  9
$MIRRTEXT
 70
     0
  9
$LTSCALE
 40
0.2
  9
$ATTMODE
 70
     1
  9
$TEXTSIZE
 40
3.2
  9
$TRACEWID
 40
0.05
  9
$TEXTSTYLE
  7
高3.2
  9
$CLAYER
  8
0
  9
$CELTYPE
  6
ByLayer
  9
$CECOLOR
 62
   256
  9
$CELTSCALE
 40
1.0
  9
$DISPSILH
 70
     0
  9
$DIMSCALE
 40
1.0
  9
$DIMASZ
 40
2.5
  9
$DIMEXO
 40
0.25
  9
$DIMDLI
 40
0.2
  9
$DIMRND
 40
0.0
  9
$DIMDLE
 40
0.0
  9
$DIMEXE
 40
1.25
  9
$DIMTP
 40
0.0
  9
$DIMTM
 40
0.0
  9
$DIMTXT
 40
3.0
  9
$DIMCEN
 40
0.0
  9
$DIMTSZ
 40
0.0
  9
$DIMTOL
 70
     0
  9
$DIMLIM
 70
     0
  9
$DIMTIH
 70
     0
  9
$DIMTOH
 70
     0
  9
$DIMSE1
 70
     0
  9
$DIMSE2
 70
     0
  9
$DIMTAD
 70
     3
  9
$DIMZIN
 70
     8
  9
$DIMBLK
  1
Open30
  9
$DIMASO
 70
     1
  9
$DIMSHO
 70
     1
  9
$DIMPOST
  1

  9
$DIMAPOST
  1

  9
$DIMALT
 70
     0
  9
$DIMALTD
 70
     3
  9
$DIMALTF
 40
0.03937007874016
  9
$DIMLFAC
 40
1.0
  9
$DIMTOFL
 70
     1
  9
$DIMTVP
 40
0.0
  9
$DIMTIX
 70
     0
  9
$DIMSOXD
 70
     0
  9
$DIMSAH
 70
     0
  9
$DIMBLK1
  1

  9
$DIMBLK2
  1

  9
$DIMSTYLE
  2
1：1
  9
$DIMCLRD
 70
     0
  9
$DIMCLRE
 70
     0
  9
$DIMCLRT
 70
     4
  9
$DIMTFAC
 40
1.0
  9
$DIMGAP
 40
0.625
  9
$DIMJUST
 70
     0
  9
$DIMSD1
 70
     0
  9
$DIMSD2
 70
     0
  9
$DIMTOLJ
 70
     0
  9
$DIMTZIN
 70
     8
  9
$DIMALTZ
 70
     0
  9
$DIMALTTZ
 70
     0
  9
$DIMUPT
 70
     1
  9
$DIMDEC
 70
     2
  9
$DIMTDEC
 70
     2
  9
$DIMALTU
 70
     2
  9
$DIMALTTD
 70
     3
  9
$DIMTXSTY
  7
Standard
  9
$DIMAUNIT
 70
     0
  9
$DIMADEC
 70
     1
  9
$DIMALTRND
 40
0.0
  9
$DIMAZIN
 70
     2
  9
$DIMDSEP
 70
    46
  9
$DIMATFIT
 70
     0
  9
$DIMFRAC
 70
     0
  9
$DIMLDRBLK
  1
Open30
  9
$DIMLUNIT
 70
     2
  9
$DIMLWD
 70
    -2
  9
$DIMLWE
 70
    -2
  9
$DIMTMOVE
 70
     0
  9
$LUNITS
 70
     2
  9
$LUPREC
 70
     4
  9
$SKETCHINC
 40
0.1
  9
$FILLETRAD
 40
0.0
  9
$AUNITS
 70
     0
  9
$AUPREC
 70
     0
  9
$MENU
  1
.
  9
$ELEVATION
 40
0.0
  9
$PELEVATION
 40
0.0
  9
$THICKNESS
 40
0.0
  9
$LIMCHECK
 70
     0
  9
$CHAMFERA
 40
70.0
  9
$CHAMFERB
 40
70.0
  9
$CHAMFERC
 40
0.0
  9
$CHAMFERD
 40
0.0
  9
$SKPOLY
 70
     0
  9
$TDCREATE
 40
2457617.595081215
  9
$TDUCREATE
 40
2457617.220081215
  9
$TDUPDATE
 40
2457717.845773311
  9
$TDUUPDATE
 40
2457717.470773310
  9
$TDINDWG
 40
0.1059337037
  9
$TDUSRTIMER
 40
0.1059336806
  9
$USRTIMER
 70
     1
  9
$ANGBASE
 50
0.0
  9
$ANGDIR
 70
     0
  9
$PDMODE
 70
     0
  9
$PDSIZE
 40
0.0
  9
$PLINEWID
 40
0.0
  9
$SPLFRAME
 70
     0
  9
$SPLINETYPE
 70
     6
  9
$SPLINESEGS
 70
     8
  9
$HANDSEED
  5
1B75
  9
$SURFTAB1
 70
     6
  9
$SURFTAB2
 70
     6
  9
$SURFTYPE
 70
     6
  9
$SURFU
 70
     6
  9
$SURFV
 70
     6
  9
$UCSBASE
  2

  9
$UCSNAME
  2

  9
$UCSORG
 10
0.0
 20
0.0
 30
0.0
  9
$UCSXDIR
 10
1.0
 20
0.0
 30
0.0
  9
$UCSYDIR
 10
0.0
 20
1.0
 30
0.0
  9
$UCSORTHOREF
  2

  9
$UCSORTHOVIEW
 70
     0
  9
$UCSORGTOP
 10
0.0
 20
0.0
 30
0.0
  9
$UCSORGBOTTOM
 10
0.0
 20
0.0
 30
0.0
  9
$UCSORGLEFT
 10
0.0
 20
0.0
 30
0.0
  9
$UCSORGRIGHT
 10
0.0
 20
0.0
 30
0.0
  9
$UCSORGFRONT
 10
0.0
 20
0.0
 30
0.0
  9
$UCSORGBACK
 10
0.0
 20
0.0
 30
0.0
  9
$PUCSBASE
  2

  9
$PUCSNAME
  2

  9
$PUCSORG
 10
0.0
 20
0.0
 30
0.0
  9
$PUCSXDIR
 10
1.0
 20
0.0
 30
0.0
  9
$PUCSYDIR
 10
0.0
 20
1.0
 30
0.0
  9
$PUCSORTHOREF
  2

  9
$PUCSORTHOVIEW
 70
     0
  9
$PUCSORGTOP
 10
0.0
 20
0.0
 30
0.0
  9
$PUCSORGBOTTOM
 10
0.0
 20
0.0
 30
0.0
  9
$PUCSORGLEFT
 10
0.0
 20
0.0
 30
0.0
  9
$PUCSORGRIGHT
 10
0.0
 20
0.0
 30
0.0
  9
$PUCSORGFRONT
 10
0.0
 20
0.0
 30
0.0
  9
$PUCSORGBACK
 10
0.0
 20
0.0
 30
0.0
  9
$USERI1
 70
     0
  9
$USERI2
 70
     0
  9
$USERI3
 70
     0
  9
$USERI4
 70
     0
  9
$USERI5
 70
     0
  9
$USERR1
 40
0.0
  9
$USERR2
 40
0.0
  9
$USERR3
 40
0.0
  9
$USERR4
 40
0.0
  9
$USERR5
 40
0.0
  9
$WORLDVIEW
 70
     1
  9
$SHADEDGE
 70
     3
  9
$SHADEDIF
 70
    70
  9
$TILEMODE
 70
     1
  9
$MAXACTVP
 70
    64
  9
$PINSBASE
 10
0.0
 20
0.0
 30
0.0
  9
$PLIMCHECK
 70
     0
  9
$PEXTMIN
 10
0.0
 20
0.0
 30
0.0
  9
$PEXTMAX
 10
0.0
 20
0.0
 30
0.0
  9
$PLIMMIN
 10
0.0
 20
0.0
  9
$PLIMMAX
 10
12.0
 20
9.0
  9
$UNITMODE
 70
     0
  9
$VISRETAIN
 70
     1
  9
$PLINEGEN
 70
     0
  9
$PSLTSCALE
 70
     1
  9
$TREEDEPTH
 70
  3020
  9
$CMLSTYLE
  2
Standard
  9
$CMLJUST
 70
     0
  9
$CMLSCALE
 40
1.0
  9
$PROXYGRAPHICS
 70
     1
  9
$MEASUREMENT
 70
     1
  9
$CELWEIGHT
370
    -1
  9
$ENDCAPS
280
     0
  9
$JOINSTYLE
280
     0
  9
$LWDISPLAY
290
     0
  9
$INSUNITS
 70
     1
  9
$HYPERLINKBASE
  1

  9
$STYLESHEET
  1
n-plot.ctb
  9
$XEDIT
290
     1
  9
$CEPSNTYPE
380
     0
  9
$PSTYLEMODE
290
     1
  9
$FINGERPRINTGUID
  2
{B7A45A52-3F33-4807-BC78-3DC886308D19}
  9
$VERSIONGUID
  2
{8C2AE4CD-605A-4915-AE67-D497DE07756A}
  9
$EXTNAMES
290
     1
  9
$PSVPSCALE
 40
0.0
  9
$OLESTARTUP
290
     0
  0
ENDSEC
  0
SECTION
  2
CLASSES
  0
CLASS
  1
ACDBDICTIONARYWDFLT
  2
AcDbDictionaryWithDefault
  3
ObjectDBX Classes
 90
        0
280
     0
281
     0
  0
CLASS
  1
ACDBPLACEHOLDER
  2
AcDbPlaceHolder
  3
ObjectDBX Classes
 90
        0
280
     0
281
     0
  0
CLASS
  1
LAYOUT
  2
AcDbLayout
  3
ObjectDBX Classes
 90
        0
280
     0
281
     0
  0
CLASS
  1
DICTIONARYVAR
  2
AcDbDictionaryVar
  3
ObjectDBX Classes
 90
        0
280
     0
281
     0
  0
CLASS
  1
TABLESTYLE
  2
AcDbTableStyle
  3
ObjectDBX Classes
 90
     4095
280
     0
281
     0
  0
CLASS
  1
MATERIAL
  2
AcDbMaterial
  3
ObjectDBX Classes
 90
     1153
280
     0
281
     0
  0
CLASS
  1
VISUALSTYLE
  2
AcDbVisualStyle
  3
ObjectDBX Classes
 90
     4095
280
     0
281
     0
  0
CLASS
  1
SORTENTSTABLE
  2
AcDbSortentsTable
  3
ObjectDBX Classes
 90
        0
280
     0
281
     0
  0
CLASS
  1
DIMASSOC
  2
AcDbDimAssoc
  3
"AcDbDimAssoc|Product Desc:     AcDim ARX App For Dimension|Company:          Autodesk, Inc.|WEB Address:      www.autodesk.com"
 90
        0
280
     0
281
     0
  0
CLASS
  1
SCALE
  2
AcDbScale
  3
ObjectDBX Classes
 90
     1153
280
     0
281
     0
  0
CLASS
  1
MLEADERSTYLE
  2
AcDbMLeaderStyle
  3
ACDB_MLEADERSTYLE_CLASS
 90
     4095
280
     0
281
     0
  0
CLASS
  1
CELLSTYLEMAP
  2
AcDbCellStyleMap
  3
ObjectDBX Classes
 90
     1152
280
     0
281
     0
  0
CLASS
  1
AEC_REFEDIT_STATUS_TRACKER
  2
AecDbRefEditStatusTracker
  3
AecArchBase60|Product Desc: Autodesk Architectural Desktop 2007 |Company: Autodesk,Inc. |WEB Address: www.autodesk.com
 90
      129
280
     0
281
     0
  0
CLASS
  1
NPOCOLLECTION
  2
AcDbImpNonPersistentObjectsCollection
  3
ObjectDBX Classes
 90
     1153
280
     0
281
     0
  0
ENDSEC
  0
SECTION
  2
TABLES
  0
TABLE
  2
VPORT
  5
8
102
{ACAD_XDICTIONARY
360
17B7
102
}
330
0
100
AcDbSymbolTable
 70
     1
  0
VPORT
  5
94
330
8
100
AcDbSymbolTableRecord
100
AcDbViewportTableRecord
  2
*Active
 70
     0
 10
0.0
 20
0.0
 11
1.0
 21
1.0
 12
1457.97314813241
 22
-358.4077341187257
 13
0.0
 23
0.0
 14
0.5
 24
0.5
 15
0.5
 25
0.5
 16
0.0
 26
0.0
 36
1.0
 17
0.0
 27
0.0
 37
0.0
 40
409.9658084906852
 41
1.357549857549857
 42
50.0
 43
0.0
 44
0.0
 50
0.0
 51
0.0
 71
     0
 72
  1000
 73
     1
 74
     2
 75
     0
 76
     0
 77
     0
 78
     0
281
     0
 65
     1
110
0.0
120
0.0
130
0.0
111
1.0
121
0.0
131
0.0
112
0.0
122
1.0
132
0.0
 79
     0
146
0.0
  0
ENDTAB
  0
TABLE
  2
LTYPE
  5
5
330
0
100
AcDbSymbolTable
 70
     5
  0
LTYPE
  5
14
330
5
100
AcDbSymbolTableRecord
100
AcDbLinetypeTableRecord
  2
ByBlock
 70
     0
  3

 72
    65
 73
     0
 40
0.0
  0
LTYPE
  5
15
330
5
100
AcDbSymbolTableRecord
100
AcDbLinetypeTableRecord
  2
ByLayer
 70
     0
  3

 72
    65
 73
     0
 40
0.0
  0
LTYPE
  5
16
330
5
100
AcDbSymbolTableRecord
100
AcDbLinetypeTableRecord
  2
Continuous
 70
     0
  3
Solid line
 72
    65
 73
     0
 40
0.0
  0
LTYPE
  5
119D
330
5
100
AcDbSymbolTableRecord
100
AcDbLinetypeTableRecord
  2
CENTER
 70
     0
  3
Center ____ _ ____ _ ____ _ ____ _ ____ _ ____
 72
    65
 73
     4
 40
50.8
 49
31.75
 74
     0
 49
-6.349999999999999
 74
     0
 49
6.349999999999999
 74
     0
 49
-6.349999999999999
 74
     0
  0
LTYPE
  5
119E
330
5
100
AcDbSymbolTableRecord
100
AcDbLinetypeTableRecord
  2
HIDDEN
 70
     0
  3
Hidden __ __ __ __ __ __ __ __ __ __ __ __ __ _
 72
    65
 73
     2
 40
9.524999999999998
 49
6.349999999999999
 74
     0
 49
-3.174999999999999
 74
     0
  0
LTYPE
  5
119F
330
5
100
AcDbSymbolTableRecord
100
AcDbLinetypeTableRecord
  2
PHANTOM
 70
     0
  3
Phantom ______  __  __  ______  __  __  ______
 72
    65
 73
     6
 40
63.5
 49
31.75
 74
     0
 49
-6.349999999999999
 74
     0
 49
6.349999999999999
 74
     0
 49
-6.349999999999999
 74
     0
 49
6.349999999999999
 74
     0
 49
-6.349999999999999
 74
     0
  0
ENDTAB
  0
TABLE
  2
LAYER
  5
2
102
{ACAD_XDICTIONARY
360
DD
102
}
330
0
100
AcDbSymbolTable
 70
     2
  0
LAYER
  5
10
102
{ACAD_XDICTIONARY
360
8E9
102
}
330
2
100
AcDbSymbolTableRecord
100
AcDbLayerTableRecord
  2
0
 70
     0
 62
     7
  6
Continuous
370
    -3
390
F
  0
LAYER
  5
D8
330
2
100
AcDbSymbolTableRecord
100
AcDbLayerTableRecord
  2
Defpoints
 70
     0
 62
     7
  6
Continuous
290
     0
370
    -3
390
F
  0
ENDTAB
  0
TABLE
  2
STYLE
  5
3
330
0
100
AcDbSymbolTable
 70
     7
  0
STYLE
  5
11
330
3
100
AcDbSymbolTableRecord
100
AcDbTextStyleTableRecord
  2
Standard
 70
     0
 40
0.0
 41
1.0
 50
0.0
 71
     0
 42
0.2
  3
txt.shx
  4
bigfont.shx
  0
STYLE
  5
11D
330
3
100
AcDbSymbolTableRecord
100
AcDbTextStyleTableRecord
  2
高3.2
 70
     0
 40
3.2
 41
1.0
 50
0.0
 71
     0
 42
3.2
  3
txt.shx
  4
bigfont.shx
  0
STYLE
  5
11E
330
3
100
AcDbSymbolTableRecord
100
AcDbTextStyleTableRecord
  2
高6.3
 70
     0
 40
6.299999999999999
 41
1.0
 50
0.0
 71
     0
 42
6.299999999999999
  3
txt.shx
  4
bigfont.shx
  0
STYLE
  5
11F
330
3
100
AcDbSymbolTableRecord
100
AcDbTextStyleTableRecord
  2
高2.5
 70
     0
 40
2.5
 41
1.0
 50
0.0
 71
     0
 42
0.2
  3
txt.shx
  4
bigfont.shx
  0
STYLE
  5
146
330
3
100
AcDbSymbolTableRecord
100
AcDbTextStyleTableRecord
  2
高4.5
 70
     0
 40
4.5
 41
1.0
 50
0.0
 71
     0
 42
6.299999999999999
  3
txt.shx
  4
bigfont.shx
  0
STYLE
  5
171
330
3
100
AcDbSymbolTableRecord
100
AcDbTextStyleTableRecord
  2
高2
 70
     0
 40
2.0
 41
1.0
 50
0.0
 71
     0
 42
6.299999999999999
  3
txt.shx
  4
bigfont.shx
  0
STYLE
  5
119C
330
3
100
AcDbSymbolTableRecord
100
AcDbTextStyleTableRecord
  2

 70
     1
 40
0.0
 41
1.0
 50
0.0
 71
     0
 42
6.299999999999999
  3
ltypeshp.shx
  4

  0
ENDTAB
  0
TABLE
  2
VIEW
  5
6
330
0
100
AcDbSymbolTable
 70
     0
  0
ENDTAB
  0
TABLE
  2
UCS
  5
7
330
0
100
AcDbSymbolTable
 70
     0
  0
ENDTAB
  0
TABLE
  2
APPID
  5
9
330
0
100
AcDbSymbolTable
 70
    10
  0
APPID
  5
12
330
9
100
AcDbSymbolTableRecord
100
AcDbRegAppTableRecord
  2
ACAD
 70
     0
  0
APPID
  5
DC
330
9
100
AcDbSymbolTableRecord
100
AcDbRegAppTableRecord
  2
ACAD_DSTYLE_DIMJOGGED_JOGANGLE_SYMBOL
 70
     0
  0
APPID
  5
3A5
330
9
100
AcDbSymbolTableRecord
100
AcDbRegAppTableRecord
  2
ACAD_EXEMPT_FROM_CAD_STANDARDS
 70
     0
  0
APPID
  5
70D
330
9
100
AcDbSymbolTableRecord
100
AcDbRegAppTableRecord
  2
ACAD_DSTYLE_DIMJAG
 70
     0
  0
APPID
  5
70E
330
9
100
AcDbSymbolTableRecord
100
AcDbRegAppTableRecord
  2
ACAD_DSTYLE_DIMBREAK
 70
     0
  0
APPID
  5
70F
330
9
100
AcDbSymbolTableRecord
100
AcDbRegAppTableRecord
  2
ACAD_DSTYLE_DIMTALN
 70
     0
  0
APPID
  5
13FC
330
9
100
AcDbSymbolTableRecord
100
AcDbRegAppTableRecord
  2
ACAD_DSTYLE_DIMRADIAL_EXTENSION
 70
     0
  0
APPID
  5
17E6
330
9
100
AcDbSymbolTableRecord
100
AcDbRegAppTableRecord
  2
ACAD_DSTYLE_DIMARC_LENGTH_SYMBOL
 70
     0
  0
APPID
  5
17E7
330
9
100
AcDbSymbolTableRecord
100
AcDbRegAppTableRecord
  2
ACAD_DSTYLE_DIMEXT_LENGTH
 70
     0
  0
APPID
  5
17FC
330
9
100
AcDbSymbolTableRecord
100
AcDbRegAppTableRecord
  2
ACAD_MLEADERVER
 70
     0
  0
ENDTAB
  0
TABLE
  2
DIMSTYLE
  5
A
330
0
100
AcDbSymbolTable
 70
    10
100
AcDbDimStyleTable
 71
     2
340
C3F
340
D9
  0
DIMSTYLE
105
D9
330
A
100
AcDbSymbolTableRecord
100
AcDbDimStyleTableRecord
  2
1：1
 70
     0
 41
2.5
 42
0.25
 43
0.2
 44
1.25
 73
     0
 74
     0
 77
     3
 78
     8
 79
     2
140
3.0
141
0.0
143
0.03937007874016
147
0.625
171
     3
172
     1
178
     4
179
     1
271
     2
272
     2
274
     3
283
     0
284
     8
288
     1
289
     0
340
11
341
C6
342
C6
1001
ACAD_DSTYLE_DIMARC_LENGTH_SYMBOL
1070
   379
1070
     2
1001
ACAD_DSTYLE_DIMEXT_LENGTH
1070
   378
1040
1.25
1001
ACAD_DSTYLE_DIMJOGGED_JOGANGLE_SYMBOL
1070
   384
1040
1.570796326794896
  0
DIMSTYLE
105
C3C
330
A
100
AcDbSymbolTableRecord
100
AcDbDimStyleTableRecord
  2
2：1
 70
     0
 41
2.5
 42
0.25
 43
0.2
 44
1.25
 73
     0
 74
     0
 77
     3
 78
     8
 79
     2
140
3.0
141
0.0
143
0.03937007874016
144
0.5
147
0.625
171
     3
172
     1
178
     4
179
     1
271
     2
272
     2
274
     3
283
     0
284
     8
288
     1
289
     0
340
11
341
C6
342
C6
1001
ACAD_DSTYLE_DIMARC_LENGTH_SYMBOL
1070
   379
1070
     2
1001
ACAD_DSTYLE_DIMEXT_LENGTH
1070
   378
1040
1.25
1001
ACAD_DSTYLE_DIMJOGGED_JOGANGLE_SYMBOL
1070
   384
1040
1.570796326794896
  0
DIMSTYLE
105
C3D
330
A
100
AcDbSymbolTableRecord
100
AcDbDimStyleTableRecord
  2
5：1
 70
     0
 41
2.5
 42
0.25
 43
0.2
 44
1.25
 73
     0
 74
     0
 77
     3
 78
     8
 79
     2
140
3.0
141
0.0
143
0.03937007874016
144
0.2
147
0.625
171
     3
172
     1
178
     4
179
     1
271
     2
272
     2
274
     3
283
     0
284
     8
288
     1
289
     0
340
11
341
C6
342
C6
1001
ACAD_DSTYLE_DIMARC_LENGTH_SYMBOL
1070
   379
1070
     2
1001
ACAD_DSTYLE_DIMEXT_LENGTH
1070
   378
1040
1.25
1001
ACAD_DSTYLE_DIMJOGGED_JOGANGLE_SYMBOL
1070
   384
1040
1.570796326794896
  0
DIMSTYLE
105
C3E
330
A
100
AcDbSymbolTableRecord
100
AcDbDimStyleTableRecord
  2
10：1
 70
     0
 41
2.5
 42
0.25
 43
0.2
 44
1.25
 73
     0
 74
     0
 77
     3
 78
     8
 79
     2
140
3.0
141
0.0
143
0.03937007874016
144
0.1
147
0.625
171
     3
172
     1
178
     4
179
     1
271
     2
272
     2
274
     3
283
     0
284
     8
288
     1
289
     0
340
11
341
C6
342
C6
1001
ACAD_DSTYLE_DIMARC_LENGTH_SYMBOL
1070
   379
1070
     2
1001
ACAD_DSTYLE_DIMEXT_LENGTH
1070
   378
1040
1.25
1001
ACAD_DSTYLE_DIMJOGGED_JOGANGLE_SYMBOL
1070
   384
1040
1.570796326794896
  0
DIMSTYLE
105
C3F
330
A
100
AcDbSymbolTableRecord
100
AcDbDimStyleTableRecord
  2
1／2
 70
     0
 41
2.5
 42
0.25
 43
0.2
 44
1.25
 73
     0
 74
     0
 77
     3
 78
     8
 79
     2
140
3.0
141
0.0
143
0.03937007874016
144
2.0
147
0.625
171
     3
172
     1
178
     4
179
     1
271
     2
272
     2
274
     3
283
     0
284
     8
288
     1
289
     0
340
11
341
C6
342
C6
1001
ACAD_DSTYLE_DIMARC_LENGTH_SYMBOL
1070
   379
1070
     2
1001
ACAD_DSTYLE_DIMEXT_LENGTH
1070
   378
1040
1.25
1001
ACAD_DSTYLE_DIMJOGGED_JOGANGLE_SYMBOL
1070
   384
1040
1.570796326794896
  0
DIMSTYLE
105
C40
330
A
100
AcDbSymbolTableRecord
100
AcDbDimStyleTableRecord
  2
1／5
 70
     0
 41
2.5
 42
0.25
 43
0.2
 44
1.25
 73
     0
 74
     0
 77
     3
 78
     8
 79
     2
140
3.0
141
0.0
143
0.03937007874016
144
5.0
147
0.625
171
     3
172
     1
178
     4
179
     1
271
     2
272
     2
274
     3
283
     0
284
     8
288
     1
289
     0
340
11
341
C6
342
C6
1001
ACAD_DSTYLE_DIMARC_LENGTH_SYMBOL
1070
   379
1070
     2
1001
ACAD_DSTYLE_DIMEXT_LENGTH
1070
   378
1040
1.25
1001
ACAD_DSTYLE_DIMJOGGED_JOGANGLE_SYMBOL
1070
   384
1040
1.570796326794896
  0
DIMSTYLE
105
C41
330
A
100
AcDbSymbolTableRecord
100
AcDbDimStyleTableRecord
  2
1／10
 70
     0
 41
2.5
 42
0.25
 43
0.2
 44
1.25
 73
     0
 74
     0
 77
     3
 78
     8
 79
     2
140
3.0
141
0.0
143
0.03937007874016
144
10.0
147
0.625
171
     3
172
     1
178
     4
179
     1
271
     2
272
     2
274
     3
283
     0
284
     8
288
     1
289
     0
340
11
341
C6
342
C6
1001
ACAD_DSTYLE_DIMARC_LENGTH_SYMBOL
1070
   379
1070
     2
1001
ACAD_DSTYLE_DIMEXT_LENGTH
1070
   378
1040
1.25
1001
ACAD_DSTYLE_DIMJOGGED_JOGANGLE_SYMBOL
1070
   384
1040
1.570796326794896
  0
DIMSTYLE
105
C42
330
A
100
AcDbSymbolTableRecord
100
AcDbDimStyleTableRecord
  2
1／4
 70
     0
 41
2.5
 42
0.25
 43
0.2
 44
1.25
 73
     0
 74
     0
 77
     3
 78
     8
 79
     2
140
3.0
141
0.0
143
0.03937007874016
144
4.0
147
0.625
171
     3
172
     1
178
     4
179
     1
271
     2
272
     2
274
     3
283
     0
284
     8
288
     1
289
     0
340
11
341
C6
342
C6
1001
ACAD_DSTYLE_DIMARC_LENGTH_SYMBOL
1070
   379
1070
     2
1001
ACAD_DSTYLE_DIMEXT_LENGTH
1070
   378
1040
1.25
1001
ACAD_DSTYLE_DIMJOGGED_JOGANGLE_SYMBOL
1070
   384
1040
1.570796326794896
  0
DIMSTYLE
105
C43
330
A
100
AcDbSymbolTableRecord
100
AcDbDimStyleTableRecord
  2
1／3
 70
     0
 41
2.5
 42
0.25
 43
0.2
 44
1.25
 73
     0
 74
     0
 77
     3
 78
     8
 79
     2
140
3.0
141
0.0
143
0.03937007874016
144
3.0
147
0.625
171
     3
172
     1
178
     4
179
     1
271
     2
272
     2
274
     3
283
     0
284
     8
288
     1
289
     0
340
11
341
C6
342
C6
1001
ACAD_DSTYLE_DIMARC_LENGTH_SYMBOL
1070
   379
1070
     2
1001
ACAD_DSTYLE_DIMEXT_LENGTH
1070
   378
1040
1.25
1001
ACAD_DSTYLE_DIMJOGGED_JOGANGLE_SYMBOL
1070
   384
1040
1.570796326794896
  0
DIMSTYLE
105
C44
330
A
100
AcDbSymbolTableRecord
100
AcDbDimStyleTableRecord
  2
FREE
 70
     0
 41
2.5
 42
0.25
 43
0.2
 44
1.25
 73
     0
 74
     0
 77
     3
 78
     8
 79
     2
140
3.0
141
0.0
143
0.03937007874016
147
0.625
171
     3
172
     1
178
     4
179
     1
271
     2
272
     2
274
     3
283
     0
284
     8
288
     1
289
     0
340
11
341
C6
342
C6
1001
ACAD_DSTYLE_DIMBREAK
1070
   391
1040
3.75
1001
ACAD_DSTYLE_DIMJAG
1070
   388
1040
1.5
1001
ACAD_DSTYLE_DIMTALN
1070
   392
1070
     0
1001
ACAD_DSTYLE_DIMARC_LENGTH_SYMBOL
1070
   379
1070
     2
1001
ACAD_DSTYLE_DIMEXT_LENGTH
1070
   378
1040
1.25
1001
ACAD_DSTYLE_DIMJOGGED_JOGANGLE_SYMBOL
1070
   384
1040
1.570796326794896
  0
ENDTAB
  0
TABLE
  2
BLOCK_RECORD
  5
1
330
0
100
AcDbSymbolTable
 70
    19
  0
BLOCK_RECORD
  5
1F
102
{ACAD_XDICTIONARY
360
324
102
}
330
1
100
AcDbSymbolTableRecord
100
AcDbBlockTableRecord
  2
*Model_Space
340
22
  0
BLOCK_RECORD
  5
58
330
1
100
AcDbSymbolTableRecord
100
AcDbBlockTableRecord
  2
*Paper_Space
340
59
  0
BLOCK_RECORD
  5
5D
330
1
100
AcDbSymbolTableRecord
100
AcDbBlockTableRecord
  2
*Paper_Space0
340
5E
  0
BLOCK_RECORD
  5
C6
330
1
100
AcDbSymbolTableRecord
100
AcDbBlockTableRecord
  2
_Open30
340
0
102
{BLKREFS
331
12A8
331
12A9
331
12C7
331
12C8
331
1877
331
1878
331
18AB
331
18AC
331
18B4
331
18B5
331
18C7
331
18C8
331
18D0
331
18D1
331
18D8
331
18D9
331
18E1
331
18E2
331
194E
331
194F
331
1957
331
1958
331
19AE
331
19AF
331
19D2
331
19D3
331
19E1
331
19E2
102
}
  0
BLOCK_RECORD
  5
D57
102
{ACAD_XDICTIONARY
360
E25
102
}
330
1
100
AcDbSymbolTableRecord
100
AcDbBlockTableRecord
  2
A$C7A1143B0
340
0
1001
ACAD
1000
DesignCenter Data
1002
{
1070
     1
1070
     1
1002
}
  0
BLOCK_RECORD
  5
10C4
102
{ACAD_XDICTIONARY
360
1191
102
}
330
1
100
AcDbSymbolTableRecord
100
AcDbBlockTableRecord
  2
A$C478E5F75
340
0
1001
ACAD
1000
DesignCenter Data
1002
{
1070
     1
1070
     1
1002
}
  0
BLOCK_RECORD
  5
11A8
102
{ACAD_XDICTIONARY
360
11A9
102
}
330
1
100
AcDbSymbolTableRecord
100
AcDbBlockTableRecord
  2
A$C369B3533
340
0
1001
ACAD
1000
DesignCenter Data
1002
{
1070
     1
1070
     1
1002
}
  0
BLOCK_RECORD
  5
12E0
330
1
100
AcDbSymbolTableRecord
100
AcDbBlockTableRecord
  2
*D7
340
0
  0
BLOCK_RECORD
  5
12F8
330
1
100
AcDbSymbolTableRecord
100
AcDbBlockTableRecord
  2
*D8
340
0
  0
BLOCK_RECORD
  5
1310
330
1
100
AcDbSymbolTableRecord
100
AcDbBlockTableRecord
  2
*D9
340
0
  0
BLOCK_RECORD
  5
1328
330
1
100
AcDbSymbolTableRecord
100
AcDbBlockTableRecord
  2
*D10
340
0
  0
BLOCK_RECORD
  5
136D
330
1
100
AcDbSymbolTableRecord
100
AcDbBlockTableRecord
  2
*D11
340
0
  0
BLOCK_RECORD
  5
138E
330
1
100
AcDbSymbolTableRecord
100
AcDbBlockTableRecord
  2
*D12
340
0
  0
BLOCK_RECORD
  5
13A6
330
1
100
AcDbSymbolTableRecord
100
AcDbBlockTableRecord
  2
*D13
340
0
  0
BLOCK_RECORD
  5
13BE
330
1
100
AcDbSymbolTableRecord
100
AcDbBlockTableRecord
  2
*D14
340
0
  0
BLOCK_RECORD
  5
13D6
330
1
100
AcDbSymbolTableRecord
100
AcDbBlockTableRecord
  2
*D15
340
0
  0
BLOCK_RECORD
  5
13FE
330
1
100
AcDbSymbolTableRecord
100
AcDbBlockTableRecord
  2
*D16
340
0
  0
BLOCK_RECORD
  5
18FA
330
1
100
AcDbSymbolTableRecord
100
AcDbBlockTableRecord
  2
*D17
340
0
  0
BLOCK_RECORD
  5
1982
330
1
100
AcDbSymbolTableRecord
100
AcDbBlockTableRecord
  2
*D18
340
0
  0
ENDTAB
  0
ENDSEC
  0
SECTION
  2
BLOCKS
  0
BLOCK
  5
20
330
1F
100
AcDbEntity
  8
0
100
AcDbBlockBegin
  2
*Model_Space
 70
     0
 10
0.0
 20
0.0
 30
0.0
  3
*Model_Space
  1

  0
ENDBLK
  5
21
330
1F
100
AcDbEntity
  8
0
100
AcDbBlockEnd
  0
BLOCK
  5
5A
330
58
100
AcDbEntity
 67
     1
  8
0
100
AcDbBlockBegin
  2
*Paper_Space
 70
     0
 10
0.0
 20
0.0
 30
0.0
  3
*Paper_Space
  1

  0
ENDBLK
  5
5B
330
58
100
AcDbEntity
 67
     1
  8
0
100
AcDbBlockEnd
  0
BLOCK
  5
5F
330
5D
100
AcDbEntity
 67
     1
  8
0
100
AcDbBlockBegin
  2
*Paper_Space0
 70
     0
 10
0.0
 20
0.0
 30
0.0
  3
*Paper_Space0
  1

  0
ENDBLK
  5
60
330
5D
100
AcDbEntity
 67
     1
  8
0
100
AcDbBlockEnd
  0
BLOCK
  5
C7
330
C6
100
AcDbEntity
  8
0
100
AcDbBlockBegin
  2
_Open30
 70
     0
 10
0.0
 20
0.0
 30
0.0
  3
_Open30
  1

  0
LINE
  5
C8
330
C6
100
AcDbEntity
  8
0
  6
ByBlock
 62
     0
370
    -2
100
AcDbLine
 10
-1.0
 20
0.267949
 30
0.0
 11
0.0
 21
0.0
 31
0.0
  0
LINE
  5
C9
330
C6
100
AcDbEntity
  8
0
  6
ByBlock
 62
     0
370
    -2
100
AcDbLine
 10
0.0
 20
0.0
 30
0.0
 11
-1.0
 21
-0.267949
 31
0.0
  0
LINE
  5
CA
330
C6
100
AcDbEntity
  8
0
  6
ByBlock
 62
     0
370
    -2
100
AcDbLine
 10
0.0
 20
0.0
 30
0.0
 11
-1.0
 21
0.0
 31
0.0
  0
ENDBLK
  5
CB
330
C6
100
AcDbEntity
  8
0
100
AcDbBlockEnd
  0
BLOCK
  5
E27
330
D57
100
AcDbEntity
  8
0
100
AcDbBlockBegin
  2
A$C7A1143B0
 70
     0
 10
0.0
 20
0.0
 30
0.0
  3
A$C7A1143B0
  1

  0
LINE
  5
D58
330
D57
100
AcDbEntity
  8
0
 62
     3
100
AcDbLine
 10
20.00000057328668
 20
283.9999999862201
 30
0.0
 11
20.00000057328668
 21
9.99999998622016
 31
0.0
  0
LINE
  5
D59
330
D57
100
AcDbEntity
  8
0
 62
     3
100
AcDbLine
 10
410.0000005732868
 20
9.99999998622016
 30
0.0
 11
410.0000005732868
 21
283.9999999862201
 31
0.0
  0
LINE
  5
D5A
330
D57
100
AcDbEntity
  8
0
 62
     3
100
AcDbLine
 10
20.00000057328668
 20
9.99999998622016
 30
0.0
 11
410.0000005732868
 21
9.99999998622016
 31
0.0
  0
LINE
  5
D5B
330
D57
100
AcDbEntity
  8
0
 62
     3
100
AcDbLine
 10
197.7748900432866
 20
286.4400021262202
 30
0.0
 11
198.3973870532866
 21
286.1150476462201
 31
0.0
  0
LINE
  5
D5C
330
D57
100
AcDbEntity
  8
0
 62
     3
100
AcDbLine
 10
197.7748900432866
 20
281.1105300262201
 30
0.0
 11
198.3973870532866
 21
281.4354845062202
 31
0.0
  0
LINE
  5
D5D
330
D57
100
AcDbEntity
  8
0
 62
     3
100
AcDbLine
 10
198.3973870532866
 20
286.1150476462201
 30
0.0
 11
198.3973870532866
 21
281.4354845062202
 31
0.0
  0
LINE
  5
D5E
330
D57
100
AcDbEntity
  8
0
 62
     3
100
AcDbLine
 10
199.9738405132866
 20
281.1105300262201
 30
0.0
 11
199.3513435032866
 21
281.4354845062202
 31
0.0
  0
LINE
  5
D5F
330
D57
100
AcDbEntity
  8
0
 62
     3
100
AcDbLine
 10
199.3513435032866
 20
284.2881399562201
 30
0.0
 11
199.3513435032866
 21
281.4354845062202
 31
0.0
  0
LINE
  5
D60
330
D57
100
AcDbEntity
  8
0
 62
     3
100
AcDbLine
 10
203.6050730532868
 20
286.4400021262202
 30
0.0
 11
202.9825760532867
 21
286.1150476462201
 31
0.0
  0
LINE
  5
D61
330
D57
100
AcDbEntity
  8
0
 62
     3
100
AcDbLine
 10
201.4061225832868
 20
286.4400021262202
 30
0.0
 11
202.0286195932868
 21
286.1150476462201
 31
0.0
  0
LINE
  5
D62
330
D57
100
AcDbEntity
  8
0
 62
     3
100
AcDbLine
 10
202.0286195932868
 20
286.1150476462201
 30
0.0
 11
202.0286195932868
 21
284.0545661262201
 31
0.0
  0
LINE
  5
D63
330
D57
100
AcDbEntity
  8
0
 62
     3
100
AcDbLine
 10
202.9825760532867
 20
286.1150476462201
 30
0.0
 11
202.9825760532867
 21
280.8082998162202
 31
0.0
  0
LINE
  5
D64
330
D57
100
AcDbEntity
  8
0
 62
     3
100
AcDbLine
 10
203.9126404932868
 20
286.4399983762202
 30
0.0
 11
204.5351352532866
 21
286.1150396062201
 31
0.0
  0
LINE
  5
D65
330
D57
100
AcDbEntity
  8
0
 62
     3
100
AcDbLine
 10
203.9125291032867
 20
281.1106014162201
 30
0.0
 11
204.5350374532866
 21
281.4355341662201
 31
0.0
  0
LINE
  5
D66
330
D57
100
AcDbEntity
  8
0
 62
     3
100
AcDbLine
 10
204.5351352532866
 20
286.1150396062201
 30
0.0
 11
204.5351352532866
 21
281.4355341662201
 31
0.0
  0
LINE
  5
D67
330
D57
100
AcDbEntity
  8
0
 62
     3
100
AcDbLine
 10
206.6691210532868
 20
286.4399645562201
 30
0.0
 11
206.0466194932867
 21
286.1150187962202
 31
0.0
  0
LINE
  5
D68
330
D57
100
AcDbEntity
  8
0
 62
     3
100
AcDbLine
 10
206.0466194932867
 20
286.1150187962202
 30
0.0
 11
206.0466194932867
 21
281.4355133562201
 31
0.0
  0
LINE
  5
D69
330
D57
100
AcDbEntity
  8
0
 62
     3
100
AcDbLine
 10
206.6691210532868
 20
281.1105675962201
 30
0.0
 11
206.0466194932867
 21
281.4355133562201
 31
0.0
  0
LINE
  5
D6A
330
D57
100
AcDbEntity
  8
0
 62
     3
100
AcDbLine
 10
211.9409116832867
 20
286.4399059862201
 30
0.0
 11
212.5634075632868
 21
286.1149493662201
 31
0.0
  0
LINE
  5
D6B
330
D57
100
AcDbEntity
  8
0
 62
     3
100
AcDbLine
 10
212.5634075632868
 20
286.1149493662201
 30
0.0
 11
212.5633258932867
 21
281.4354439162201
 31
0.0
  0
LINE
  5
D6C
330
D57
100
AcDbEntity
  8
0
 62
     3
100
AcDbLine
 10
211.9408186632866
 20
281.1105090262202
 30
0.0
 11
212.5633258932867
 21
281.4354439162201
 31
0.0
  0
LINE
  5
D6D
330
D57
100
AcDbEntity
  8
0
 62
     3
100
AcDbLine
 10
214.7298559232865
 20
286.4399059862201
 30
0.0
 11
214.1073600332868
 21
286.1149493662201
 31
0.0
  0
LINE
  5
D6E
330
D57
100
AcDbEntity
  8
0
 62
     3
100
AcDbLine
 10
214.7299489332866
 20
281.1105090262202
 30
0.0
 11
214.1074417032867
 21
281.4354439162201
 31
0.0
  0
LINE
  5
D6F
330
D57
100
AcDbEntity
  8
0
 62
     3
100
AcDbLine
 10
215.0208957232867
 20
286.4399059862201
 30
0.0
 11
215.6433916032868
 21
286.1149493662201
 31
0.0
  0
LINE
  5
D70
330
D57
100
AcDbEntity
  8
0
 62
     3
100
AcDbLine
 10
215.0208027032866
 20
281.1105090262202
 30
0.0
 11
215.6433099332867
 21
281.4354439162201
 31
0.0
  0
LINE
  5
D71
330
D57
100
AcDbEntity
  8
0
 62
     3
100
AcDbLine
 10
217.8098399532867
 20
286.4399059862201
 30
0.0
 11
217.1873440732868
 21
286.1149493662201
 31
0.0
  0
LINE
  5
D72
330
D57
100
AcDbEntity
  8
0
 62
     3
100
AcDbLine
 10
217.1873440732868
 20
286.1149493662201
 30
0.0
 11
217.1874257432867
 21
281.4354439162201
 31
0.0
  0
LINE
  5
D73
330
D57
100
AcDbEntity
  8
0
 62
     3
100
AcDbLine
 10
217.8099329732865
 20
281.1105090262202
 30
0.0
 11
217.1874257432867
 21
281.4354439162201
 31
0.0
  0
LINE
  5
D74
330
D57
100
AcDbEntity
  8
0
 62
     3
100
AcDbLine
 10
215.6433560232867
 20
284.0761877662202
 30
0.0
 11
214.1073956132866
 21
284.0761877662202
 31
0.0
  0
LINE
  5
D75
330
D57
100
AcDbEntity
  8
0
 62
     3
100
AcDbLine
 10
215.6433455232866
 20
283.4743443862201
 30
0.0
 11
214.1074061132867
 21
283.4743443862201
 31
0.0
  0
LINE
  5
D76
330
D57
100
AcDbEntity
  8
0
 62
     3
100
AcDbLine
 10
215.6433916032868
 20
286.1149493662201
 30
0.0
 11
215.6433560232867
 21
284.0761877662202
 31
0.0
  0
LINE
  5
D77
330
D57
100
AcDbEntity
  8
0
 62
     3
100
AcDbLine
 10
215.6433455232866
 20
283.4743443862201
 30
0.0
 11
215.6433099332867
 21
281.4354439162201
 31
0.0
  0
LINE
  5
D78
330
D57
100
AcDbEntity
  8
0
 62
     3
100
AcDbLine
 10
214.1073600332868
 20
286.1149493662201
 30
0.0
 11
214.1073956132866
 21
284.0761877662202
 31
0.0
  0
LINE
  5
D79
330
D57
100
AcDbEntity
  8
0
 62
     3
100
AcDbLine
 10
214.1074061132867
 20
283.4743443862201
 30
0.0
 11
214.1074417032867
 21
281.4354439162201
 31
0.0
  0
LINE
  5
D7A
330
D57
100
AcDbEntity
  8
0
 62
     3
100
AcDbLine
 10
218.1054958432867
 20
286.4399059862201
 30
0.0
 11
218.7279917332867
 21
286.1149493662201
 31
0.0
  0
LINE
  5
D7B
330
D57
100
AcDbEntity
  8
0
 62
     3
100
AcDbLine
 10
218.7279917332867
 20
286.1149493662201
 30
0.0
 11
218.7279100532867
 21
281.4354439162201
 31
0.0
  0
LINE
  5
D7C
330
D57
100
AcDbEntity
  8
0
 62
     3
100
AcDbLine
 10
218.1054028232868
 20
281.1105090262202
 30
0.0
 11
218.7279100532867
 21
281.4354439162201
 31
0.0
  0
LINE
  5
D7D
330
D57
100
AcDbEntity
  8
0
 62
     3
100
AcDbLine
 10
220.8619390832867
 20
286.4399059862201
 30
0.0
 11
220.2394431932867
 21
286.1149493662201
 31
0.0
  0
LINE
  5
D7E
330
D57
100
AcDbEntity
  8
0
 62
     3
100
AcDbLine
 10
220.2394431932867
 20
286.1149493662201
 30
0.0
 11
220.2395248732866
 21
281.4354439162201
 31
0.0
  0
LINE
  5
D7F
330
D57
100
AcDbEntity
  8
0
 62
     3
100
AcDbLine
 10
220.8620321032865
 20
281.1105090262202
 30
0.0
 11
220.2395248732866
 21
281.4354439162201
 31
0.0
  0
LINE
  5
D80
330
D57
100
AcDbEntity
  8
0
 62
     3
100
AcDbLine
 10
221.1681670332867
 20
286.4399059862201
 30
0.0
 11
221.7906629232866
 21
286.1149493662201
 31
0.0
  0
LINE
  5
D81
330
D57
100
AcDbEntity
  8
0
 62
     3
100
AcDbLine
 10
221.7906629232866
 20
286.1149493662201
 30
0.0
 11
221.7905812532868
 21
281.4354439162201
 31
0.0
  0
LINE
  5
D82
330
D57
100
AcDbEntity
  8
0
 62
     3
100
AcDbLine
 10
221.1680740232866
 20
281.1105090262202
 30
0.0
 11
221.7905812532868
 21
281.4354439162201
 31
0.0
  0
ARC
  5
D83
330
D57
100
AcDbEntity
  8
0
 62
     3
100
AcDbCircle
 10
209.9524670132867
 20
283.7886800162202
 30
0.0
 40
2.98040844
100
AcDbArc
 50
97.70152351000378
 51
270.0
  0
ARC
  5
D84
330
D57
100
AcDbEntity
  8
0
 62
     3
100
AcDbCircle
 10
228.3533253532866
 20
283.7587419762201
 30
0.0
 40
3.012776259999999
100
AcDbArc
 50
0.3142502699992948
 51
69.00558244999621
  0
ARC
  5
D85
330
D57
100
AcDbEntity
  8
0
 62
     3
100
AcDbCircle
 10
229.0114329632868
 20
283.7587419762201
 30
0.0
 40
3.012776259999999
100
AcDbArc
 50
110.9944175500038
 51
148.1166110200028
  0
ARC
  5
D86
330
D57
100
AcDbEntity
  8
0
 62
     3
100
AcDbCircle
 10
228.3533253532866
 20
283.7917901762202
 30
0.0
 40
3.012776259999999
100
AcDbArc
 50
290.9944175500038
 51
359.6857497300007
  0
ARC
  5
D87
330
D57
100
AcDbEntity
  8
0
 62
     3
100
AcDbCircle
 10
229.0114329632868
 20
283.7917901762202
 30
0.0
 40
3.012776259999999
100
AcDbArc
 50
211.8833889799972
 51
249.0055824499962
  0
ARC
  5
D88
330
D57
100
AcDbEntity
  8
0
 62
     3
100
AcDbCircle
 10
228.6823791632867
 20
285.0078452062202
 30
0.0
 40
1.73438712
100
AcDbArc
 50
64.3651718999996
 51
115.6348281000004
  0
ARC
  5
D89
330
D57
100
AcDbEntity
  8
0
 62
     3
100
AcDbCircle
 10
228.6823791632867
 20
282.5426869462201
 30
0.0
 40
1.73438712
100
AcDbArc
 50
244.3651718999996
 51
295.6348281000004
  0
ARC
  5
D8A
330
D57
100
AcDbEntity
  8
0
 62
     3
100
AcDbCircle
 10
228.6823791632867
 20
285.0407904662201
 30
0.0
 40
0.85122233
100
AcDbArc
 50
19.48660554000209
 51
160.5133944599979
  0
ARC
  5
D8B
330
D57
100
AcDbEntity
  8
0
 62
     3
100
AcDbCircle
 10
228.6823791632867
 20
282.5426869462201
 30
0.0
 40
1.73438712
100
AcDbArc
 50
244.3651718999996
 51
295.6348281000004
  0
ARC
  5
D8C
330
D57
100
AcDbEntity
  8
0
 62
     3
100
AcDbCircle
 10
228.6823791632867
 20
282.5097416862201
 30
0.0
 40
0.85122233
100
AcDbArc
 50
199.4866055400021
 51
340.5133944599979
  0
ARC
  5
D8D
330
D57
100
AcDbEntity
  8
0
 62
     3
100
AcDbCircle
 10
221.9074184432868
 20
252.0208948762201
 30
0.0
 40
37.20000000000001
100
AcDbArc
 50
69.50571480000153
 51
81.68998807000395
  0
ARC
  5
D8E
330
D57
100
AcDbEntity
  8
0
 62
     3
100
AcDbCircle
 10
221.9074184432868
 20
315.5296372762201
 30
0.0
 40
37.20000000000001
100
AcDbArc
 50
278.3100119299961
 51
290.4942851999985
  0
ARC
  5
D8F
330
D57
100
AcDbEntity
  8
0
 62
     3
100
AcDbCircle
 10
233.7762814832865
 20
283.7752660762201
 30
0.0
 40
3.299999999999999
100
AcDbArc
 50
290.4942851999985
 51
69.50571480000153
  0
ARC
  5
D90
330
D57
100
AcDbEntity
  8
0
 62
     3
100
AcDbCircle
 10
194.7762814832865
 20
283.7752660762201
 30
0.0
 40
3.299999999999999
100
AcDbArc
 50
110.4942851999985
 51
249.5057148000015
  0
ARC
  5
D91
330
D57
100
AcDbEntity
  8
0
 62
     3
100
AcDbCircle
 10
206.6451445132868
 20
252.0208948762201
 30
0.0
 40
37.20000000000001
100
AcDbArc
 50
98.31001192999604
 51
110.4942851999985
  0
ARC
  5
D92
330
D57
100
AcDbEntity
  8
0
 62
     3
100
AcDbCircle
 10
206.6451445132868
 20
315.5296372762201
 30
0.0
 40
37.20000000000001
100
AcDbArc
 50
249.5057148000015
 51
261.6899880699973
  0
ARC
  5
D93
330
D57
100
AcDbEntity
  8
0
 62
     3
100
AcDbCircle
 10
214.2762814832865
 20
199.7752660762201
 30
0.0
 40
89.99999981
100
AcDbArc
 50
81.68998807000395
 51
98.31001192999604
  0
ARC
  5
D94
330
D57
100
AcDbEntity
  8
0
 62
     3
100
AcDbCircle
 10
214.2762814832865
 20
367.7752660762201
 30
0.0
 40
89.99999981
100
AcDbArc
 50
261.6899880699973
 51
278.3100119299961
  0
ARC
  5
D95
330
D57
100
AcDbEntity
  8
0
 62
     3
100
AcDbCircle
 10
214.2762814832865
 20
199.7752660762201
 30
0.0
 40
89.09999981
100
AcDbArc
 50
81.68998807000395
 51
98.31001192999604
  0
ARC
  5
D96
330
D57
100
AcDbEntity
  8
0
 62
     3
100
AcDbCircle
 10
214.2762814832865
 20
367.7752660762201
 30
0.0
 40
89.09999981
100
AcDbArc
 50
261.6899880699973
 51
278.3100119299961
  0
ARC
  5
D97
330
D57
100
AcDbEntity
  8
0
 62
     3
100
AcDbCircle
 10
221.9074184432868
 20
315.5296372762201
 30
0.0
 40
36.3
100
AcDbArc
 50
278.3100119299961
 51
290.4942851999985
  0
ARC
  5
D98
330
D57
100
AcDbEntity
  8
0
 62
     3
100
AcDbCircle
 10
221.9074184432868
 20
252.0208948762201
 30
0.0
 40
36.3
100
AcDbArc
 50
69.50571480000153
 51
81.68998807000395
  0
ARC
  5
D99
330
D57
100
AcDbEntity
  8
0
 62
     3
100
AcDbCircle
 10
233.7762814832865
 20
283.7752660762201
 30
0.0
 40
2.399999999999999
100
AcDbArc
 50
290.4942851999985
 51
69.50571480000153
  0
ARC
  5
D9A
330
D57
100
AcDbEntity
  8
0
 62
     3
100
AcDbCircle
 10
194.7762814832865
 20
283.7752660762201
 30
0.0
 40
2.399999999999999
100
AcDbArc
 50
110.4942851999985
 51
249.5057148000015
  0
ARC
  5
D9B
330
D57
100
AcDbEntity
  8
0
 62
     3
100
AcDbCircle
 10
206.6451445132868
 20
252.0208948762201
 30
0.0
 40
36.3
100
AcDbArc
 50
98.31001192999604
 51
110.4942851999985
  0
ARC
  5
D9C
330
D57
100
AcDbEntity
  8
0
 62
     3
100
AcDbCircle
 10
206.6451445132868
 20
315.5296372762201
 30
0.0
 40
36.3
100
AcDbArc
 50
249.5057148000015
 51
261.6899880699973
  0
LINE
  5
D9D
330
D57
100
AcDbEntity
  8
0
 62
     3
100
AcDbLine
 10
220.8619402032866
 20
280.8082998162202
 30
0.0
 11
218.1054947232867
 21
280.8082998162202
 31
0.0
  0
LINE
  5
D9E
330
D57
100
AcDbEntity
  8
0
 62
     3
100
AcDbLine
 10
220.8619402032866
 20
281.1105300262201
 30
0.0
 11
220.8619402032866
 21
280.8082998162202
 31
0.0
  0
LINE
  5
D9F
330
D57
100
AcDbEntity
  8
0
 62
     3
100
AcDbLine
 10
217.8098410732866
 20
286.7420913062201
 30
0.0
 11
215.0208946032867
 21
286.7420913062201
 31
0.0
  0
LINE
  5
DA0
330
D57
100
AcDbEntity
  8
0
 62
     3
100
AcDbLine
 10
217.8098410732866
 20
286.7420913062201
 30
0.0
 11
217.8098410732866
 21
286.4400021262202
 31
0.0
  0
LINE
  5
DA1
330
D57
100
AcDbEntity
  8
0
 62
     3
100
AcDbLine
 10
217.8098410732866
 20
281.1105300262201
 30
0.0
 11
217.8098410732866
 21
280.8081587962202
 31
0.0
  0
LINE
  5
DA2
330
D57
100
AcDbEntity
  8
0
 62
     3
100
AcDbLine
 10
217.8098410732866
 20
280.8081587962202
 30
0.0
 11
215.0208946032867
 21
280.8081587962202
 31
0.0
  0
LINE
  5
DA3
330
D57
100
AcDbEntity
  8
0
 62
     3
100
AcDbLine
 10
220.8619402032866
 20
286.7422323362201
 30
0.0
 11
220.8619402032866
 21
286.4400021262202
 31
0.0
  0
LINE
  5
DA4
330
D57
100
AcDbEntity
  8
0
 62
     3
100
AcDbLine
 10
220.8619402032866
 20
286.7422323362201
 30
0.0
 11
218.1054947232867
 21
286.7422323362201
 31
0.0
  0
LINE
  5
DA5
330
D57
100
AcDbEntity
  8
0
 62
     3
100
AcDbLine
 10
218.1054947232867
 20
286.7422323362201
 30
0.0
 11
218.1054947232867
 21
286.4400021262202
 31
0.0
  0
LINE
  5
DA6
330
D57
100
AcDbEntity
  8
0
 62
     3
100
AcDbLine
 10
221.1681659132866
 20
281.1105300262201
 30
0.0
 11
221.1681659132866
 21
280.8082998162202
 31
0.0
  0
LINE
  5
DA7
330
D57
100
AcDbEntity
  8
0
 62
     3
100
AcDbLine
 10
224.0028810032866
 20
280.8082998162202
 30
0.0
 11
221.1681659132866
 21
280.8082998162202
 31
0.0
  0
LINE
  5
DA8
330
D57
100
AcDbEntity
  8
0
 62
     3
100
AcDbLine
 10
223.3021143932867
 20
285.7882758762201
 30
0.0
 11
223.3021143932867
 21
281.7622562762201
 31
0.0
  0
LINE
  5
DA9
330
D57
100
AcDbEntity
  8
0
 62
     3
100
AcDbLine
 10
223.3021143932867
 20
281.7622562762201
 30
0.0
 11
223.5736129132868
 21
281.7622562762201
 31
0.0
  0
ARC
  5
DAA
330
D57
100
AcDbEntity
  8
0
 62
     3
100
AcDbCircle
 10
222.1853475732867
 20
283.7752660762201
 30
0.0
 40
2.44529939
100
AcDbArc
 50
304.5919552699948
 51
55.40804473000515
  0
LINE
  5
DAB
330
D57
100
AcDbEntity
  8
0
 62
     3
100
AcDbLine
 10
224.0028810032866
 20
286.7422323362201
 30
0.0
 11
221.1681659132866
 21
286.7422323362201
 31
0.0
  0
LINE
  5
DAC
330
D57
100
AcDbEntity
  8
0
 62
     3
100
AcDbLine
 10
221.1681659132866
 20
286.7422323362201
 30
0.0
 11
221.1681659132866
 21
286.4400021262202
 31
0.0
  0
LINE
  5
DAD
330
D57
100
AcDbEntity
  8
0
 62
     3
100
AcDbLine
 10
218.1054947232867
 20
281.1105300262201
 30
0.0
 11
218.1054947232867
 21
280.8082998162202
 31
0.0
  0
LINE
  5
DAE
330
D57
100
AcDbEntity
  8
0
 62
     3
100
AcDbLine
 10
223.3021143932867
 20
285.7882758762201
 30
0.0
 11
223.5736129132868
 21
285.7882758762201
 31
0.0
  0
LINE
  5
DAF
330
D57
100
AcDbEntity
  8
0
 62
     3
100
AcDbLine
 10
206.6690291532866
 20
281.1105300262201
 30
0.0
 11
206.6690238832866
 21
280.8082715762201
 31
0.0
  0
LINE
  5
DB0
330
D57
100
AcDbEntity
  8
0
 62
     3
100
AcDbLine
 10
203.9125784032867
 20
280.8083280662202
 30
0.0
 11
206.6690238832866
 21
280.8082799562201
 31
0.0
  0
LINE
  5
DB1
330
D57
100
AcDbEntity
  8
0
 62
     3
100
AcDbLine
 10
197.7748900432866
 20
280.8082998162202
 30
0.0
 11
199.9738405132866
 21
280.8082998162202
 31
0.0
  0
ARC
  5
DB2
330
D57
100
AcDbEntity
  8
0
 62
     3
100
AcDbCircle
 10
190.6578290732866
 20
283.8451326862202
 30
0.0
 40
21.01937947
100
AcDbArc
 50
353.8660061899995
 51
357.6940342600001
  0
LINE
  5
DB3
330
D57
100
AcDbEntity
  8
0
 62
     3
100
AcDbLine
 10
210.2529431632868
 20
283.0046074662202
 30
0.0
 11
211.6601872832866
 21
282.9994004962201
 31
0.0
  0
LWPOLYLINE
  5
DB4
330
D57
100
AcDbEntity
  8
0
 62
     3
100
AcDbPolyline
 90
       64
 70
     0
 43
0.0
 10
210.2586266132866
 20
284.5406285262201
 10
210.2320158632867
 20
284.7110110462202
 10
210.2000570332868
 20
284.8741607362201
 10
210.1629971332866
 20
285.0288165362201
 10
210.1211226332866
 20
285.1737830362201
 10
210.0747572032867
 20
285.3079397262202
 10
210.0242592132866
 20
285.4302496262201
 10
209.9700189932867
 20
285.5397673662201
 10
209.9124557932867
 20
285.6356464162201
 10
209.8520145432867
 20
285.71714568622
 10
209.7891624232868
 20
285.7836352262201
 10
209.7243852432866
 20
285.8346011062201
 10
209.6581837132867
 20
285.8696493862201
 10
209.5910695232867
 20
285.8885091562202
 10
209.5235614332866
 20
285.8910346562201
 10
209.4561812432867
 20
285.8772063462201
 10
209.3894497732867
 20
285.8471311162201
 10
209.3238828332867
 20
285.8010414462201
 10
209.2599871932866
 20
285.7392935662201
 10
209.1982567632868
 20
285.6623647762201
 10
209.1391686732866
 20
285.5708496762202
 10
209.0831796432867
 20
285.4654556462201
 10
209.0307224432865
 20
285.3469973162201
 10
208.9822025432866
 20
285.2163903062201
 10
208.9379949632867
 20
285.0746441562201
 10
208.8984414232866
 20
284.9228544862201
 10
208.8638476432868
 20
284.7621945462202
 10
208.8344810132867
 20
284.5939061562201
 10
208.8105685232867
 20
284.4192900962202
 10
208.7922950132868
 20
284.2396960662202
 10
208.7798017132866
 20
284.0565122262201
 10
208.7731852032866
 20
283.8711545062201
 10
208.7724966132867
 20
283.6850556062201
 10
208.7777412732866
 20
283.4996539962201
 10
208.7888786432866
 20
283.3163827262201
 10
208.8058226432865
 20
283.1366583862201
 10
208.8284422932868
 20
282.9618701562201
 10
208.8565627632868
 20
282.7933690562202
 10
208.8899666932866
 20
282.6324575162201
 10
208.9283958932867
 20
282.4803792962201
 10
208.9715533132867
 20
282.3383098862201
 10
209.0191053832866
 20
282.2073474062202
 10
209.0706845332868
 20
282.0885041262202
 10
209.1258921032866
 20
281.9826986562201
 10
209.1843013532866
 20
281.8907487962201
 10
209.2454608132866
 20
281.8133652962201
 10
209.3088977532868
 20
281.7511462762201
 10
209.3741218332868
 20
281.7045726662201
 10
209.4406289132867
 20
281.6740044362201
 10
209.5079049232865
 20
281.6596778862201
 10
209.5754298532868
 20
281.6617037462202
 10
209.6426817732865
 20
281.6800663462201
 10
209.7091408532867
 20
281.7146237662202
 10
209.7742934132866
 20
281.7651088962201
 10
209.8376358432868
 20
281.8311314962201
 10
209.8986785432867
 20
281.9121812562201
 10
209.9569496832867
 20
282.0076317062201
 10
210.0119988632866
 20
282.1167450662201
 10
210.0634005832867
 20
282.2386779262201
 10
210.1107575232866
 20
282.3724878362201
 10
210.1537036432867
 20
282.5171404862201
 10
210.1919069932867
 20
282.6715178062201
 10
210.2250722832866
 20
282.8344265362201
 10
210.2529431632868
 20
283.0046074662202
  0
LINE
  5
DB5
330
D57
100
AcDbEntity
  8
0
 62
     3
100
AcDbLine
 10
210.2586266132866
 20
284.5406285262201
 30
0.0
 11
211.6658707332867
 21
284.5354215562202
 31
0.0
  0
ARC
  5
DB6
330
D57
100
AcDbEntity
  8
0
 62
     3
100
AcDbCircle
 10
190.6578290732866
 20
283.8451326862202
 30
0.0
 40
21.01937947
100
AcDbArc
 50
1.881965739999572
 51
5.709993809999576
  0
LINE
  5
DB7
330
D57
100
AcDbEntity
  8
0
 62
     3
100
AcDbLine
 10
206.6691274432867
 20
286.7422040862201
 30
0.0
 11
206.6691221732867
 21
286.4400021262202
 31
0.0
  0
LINE
  5
DB8
330
D57
100
AcDbEntity
  8
0
 62
     3
100
AcDbLine
 10
203.9126819632868
 20
286.7422605762201
 30
0.0
 11
206.6691274432867
 21
286.7422124662202
 31
0.0
  0
LINE
  5
DB9
330
D57
100
AcDbEntity
  8
0
 62
     3
100
AcDbLine
 10
203.9125836732867
 20
281.1105300262201
 30
0.0
 11
203.9125784032867
 21
280.8083280662202
 31
0.0
  0
LINE
  5
DBA
330
D57
100
AcDbEntity
  8
0
 62
     3
100
AcDbLine
 10
203.9126819632868
 20
286.7422605762201
 30
0.0
 11
203.9126766932866
 21
286.4400021262202
 31
0.0
  0
LINE
  5
DBB
330
D57
100
AcDbEntity
  8
0
 62
     3
100
AcDbLine
 10
199.9738405132866
 20
281.1105300262201
 30
0.0
 11
199.9738405132866
 21
280.8082998162202
 31
0.0
  0
LINE
  5
DBC
330
D57
100
AcDbEntity
  8
0
 62
     3
100
AcDbLine
 10
199.3513435032866
 20
284.2881399562201
 30
0.0
 11
201.5262435832867
 21
280.8082998162202
 31
0.0
  0
LINE
  5
DBD
330
D57
100
AcDbEntity
  8
0
 62
     3
100
AcDbLine
 10
201.5262435832867
 20
280.8082998162202
 30
0.0
 11
202.9825760532867
 21
280.8082998162202
 31
0.0
  0
LINE
  5
DBE
330
D57
100
AcDbEntity
  8
0
 62
     3
100
AcDbLine
 10
203.6050730532868
 20
286.7422323362201
 30
0.0
 11
203.6050730532868
 21
286.4400021262202
 31
0.0
  0
LINE
  5
DBF
330
D57
100
AcDbEntity
  8
0
 62
     3
100
AcDbLine
 10
201.4061225832868
 20
286.7422323362201
 30
0.0
 11
203.6050730532868
 21
286.7422323362201
 31
0.0
  0
LINE
  5
DC0
330
D57
100
AcDbEntity
  8
0
 62
     3
100
AcDbLine
 10
201.4061225832868
 20
286.7422323362201
 30
0.0
 11
201.4061225832868
 21
286.4400021262202
 31
0.0
  0
LINE
  5
DC1
330
D57
100
AcDbEntity
  8
0
 62
     3
100
AcDbLine
 10
202.0286195932868
 20
284.0545661262201
 30
0.0
 11
200.2648386532867
 21
286.7422323362201
 31
0.0
  0
LINE
  5
DC2
330
D57
100
AcDbEntity
  8
0
 62
     3
100
AcDbLine
 10
197.7748900432866
 20
286.7422323362201
 30
0.0
 11
200.2648386532867
 21
286.7422323362201
 31
0.0
  0
LINE
  5
DC3
330
D57
100
AcDbEntity
  8
0
 62
     3
100
AcDbLine
 10
211.9409105632867
 20
286.7420913062201
 30
0.0
 11
214.7298570432865
 21
286.7420913062201
 31
0.0
  0
LINE
  5
DC4
330
D57
100
AcDbEntity
  8
0
 62
     3
100
AcDbLine
 10
211.9409105632867
 20
286.4400021262202
 30
0.0
 11
211.9409105632867
 21
286.7420913062201
 31
0.0
  0
LINE
  5
DC5
330
D57
100
AcDbEntity
  8
0
 62
     3
100
AcDbLine
 10
211.9409105632867
 20
280.8081587962202
 30
0.0
 11
211.9409105632867
 21
281.1105300262201
 31
0.0
  0
LINE
  5
DC6
330
D57
100
AcDbEntity
  8
0
 62
     3
100
AcDbLine
 10
211.9409105632867
 20
280.8081587962202
 30
0.0
 11
214.7298570432865
 21
280.8081587962202
 31
0.0
  0
LINE
  5
DC7
330
D57
100
AcDbEntity
  8
0
 62
     3
100
AcDbLine
 10
215.0208946032867
 20
281.1105300262201
 30
0.0
 11
215.0208946032867
 21
280.8081587962202
 31
0.0
  0
LINE
  5
DC8
330
D57
100
AcDbEntity
  8
0
 62
     3
100
AcDbLine
 10
214.7298570432865
 20
281.1105300262201
 30
0.0
 11
214.7298570432865
 21
280.8081587962202
 31
0.0
  0
LINE
  5
DC9
330
D57
100
AcDbEntity
  8
0
 62
     3
100
AcDbLine
 10
214.7298570432865
 20
286.4400021262202
 30
0.0
 11
214.7298570432865
 21
286.7420913062201
 31
0.0
  0
LINE
  5
DCA
330
D57
100
AcDbEntity
  8
0
 62
     3
100
AcDbLine
 10
215.0208946032867
 20
286.4400021262202
 30
0.0
 11
215.0208946032867
 21
286.7420913062201
 31
0.0
  0
LINE
  5
DCB
330
D57
100
AcDbEntity
  8
0
 62
     3
100
AcDbLine
 10
197.7748900432866
 20
281.1105300262201
 30
0.0
 11
197.7748900432866
 21
280.8082998162202
 31
0.0
  0
LINE
  5
DCC
330
D57
100
AcDbEntity
  8
0
 62
     3
100
AcDbLine
 10
197.7748900432866
 20
286.7422323362201
 30
0.0
 11
197.7748900432866
 21
286.4400021262202
 31
0.0
  0
ARC
  5
DCD
330
D57
100
AcDbEntity
  8
0
 62
     3
100
AcDbCircle
 10
224.3028810032868
 20
284.3977630862202
 30
0.0
 40
2.344469249999999
100
AcDbArc
 50
17.30874897999993
 51
23.76507095999782
  0
ARC
  5
DCE
330
D57
100
AcDbEntity
  8
0
 62
     3
100
AcDbCircle
 10
222.3053475732866
 20
283.7752660762201
 30
0.0
 40
4.43675086
100
AcDbArc
 50
342.6912510200001
 51
17.30856644000161
  0
ARC
  5
DCF
330
D57
100
AcDbEntity
  8
0
 62
     3
100
AcDbCircle
 10
224.3028810032868
 20
283.1527690662201
 30
0.0
 40
2.344469249999999
100
AcDbArc
 50
336.2349290399969
 51
342.6912510200001
  0
ARC
  5
DD0
330
D57
100
AcDbEntity
  8
0
 62
     3
100
AcDbCircle
 10
224.0028810032866
 20
284.3977630862202
 30
0.0
 40
2.344469249999999
100
AcDbArc
 50
17.30874897999993
 51
90.0
  0
ARC
  5
DD1
330
D57
100
AcDbEntity
  8
0
 62
     3
100
AcDbCircle
 10
222.0053475732868
 20
283.7752660762201
 30
0.0
 40
4.43675086
100
AcDbArc
 50
342.6912510200001
 51
17.30856644000161
  0
ARC
  5
DD2
330
D57
100
AcDbEntity
  8
0
 62
     3
100
AcDbCircle
 10
224.0028810032866
 20
283.1527690662201
 30
0.0
 40
2.344469249999999
100
AcDbArc
 50
270.0
 51
342.6912510200001
  0
ARC
  5
DD3
330
D57
100
AcDbEntity
  8
0
 62
     3
100
AcDbCircle
 10
209.5401090332866
 20
283.7752660762201
 30
0.0
 40
2.966966259999999
100
AcDbArc
 50
46.75287961000124
 51
89.74999828999569
  0
ARC
  5
DD4
330
D57
100
AcDbEntity
  8
0
 62
     3
100
AcDbCircle
 10
209.5401090332866
 20
283.7752660762201
 30
0.0
 40
2.966966259999999
100
AcDbArc
 50
273.976333149997
 51
312.8231203899988
  0
ARC
  5
DD5
330
D57
100
AcDbEntity
  8
0
 62
     3
100
AcDbCircle
 10
225.8855489632868
 20
283.7294638962202
 30
0.0
 40
3.936984289999999
100
AcDbArc
 50
0.6665840599997753
 51
23.90392827000138
  0
ARC
  5
DD6
330
D57
100
AcDbEntity
  8
0
 62
     3
100
AcDbCircle
 10
231.4792093532867
 20
283.7294638962202
 30
0.0
 40
3.936984289999999
100
AcDbArc
 50
156.0960717299986
 51
179.3334159400002
  0
ARC
  5
DD7
330
D57
100
AcDbEntity
  8
0
 62
     3
100
AcDbCircle
 10
225.8855489632868
 20
283.8210682562201
 30
0.0
 40
3.936984289999999
100
AcDbArc
 50
336.0960717299986
 51
359.3334159400003
  0
ARC
  5
DD8
330
D57
100
AcDbEntity
  8
0
 62
     3
100
AcDbCircle
 10
231.4792093532867
 20
283.8210682562201
 30
0.0
 40
3.936984289999999
100
AcDbArc
 50
180.6665840599997
 51
203.9039282700014
  0
LINE
  5
DD9
330
D57
100
AcDbEntity
  8
0
 62
     3
100
AcDbLine
 10
238.6567257532868
 20
283.9999999862201
 30
0.0
 11
410.0000005732865
 21
283.9999999862201
 31
0.0
  0
LINE
  5
DDA
330
D57
100
AcDbEntity
  8
0
 62
     3
100
AcDbLine
 10
190.1026910832868
 20
283.9999999862201
 30
0.0
 11
20.00000057328668
 21
283.9999999862201
 31
0.0
  0
LINE
  5
DDB
330
D57
100
AcDbEntity
  8
0
 62
     3
100
AcDbLine
 10
7.598076783286614
 20
150.4446389362201
 30
0.0
 11
5.000000573286683
 21
148.9446389362201
 31
0.0
  0
LINE
  5
DDC
330
D57
100
AcDbEntity
  8
0
 62
     3
100
AcDbLine
 10
7.598076783286614
 20
150.4446389362201
 30
0.0
 11
5.000000573286683
 21
151.9446389362201
 31
0.0
  0
LINE
  5
DDD
330
D57
100
AcDbEntity
  8
0
 62
     3
100
AcDbLine
 10
5.000000573286683
 20
148.9446389362201
 30
0.0
 11
5.000000573286683
 21
151.9446389362201
 31
0.0
  0
LINE
  5
DDE
330
D57
100
AcDbEntity
  8
0
 62
   254
370
     0
100
AcDbLine
 10
0.0000005732867976
 20
-0.0000000137798395
 30
0.0
 11
0.0000005732867976
 21
291.9999999862201
 31
0.0
  0
LINE
  5
DDF
330
D57
100
AcDbEntity
  8
0
 62
   254
370
     0
100
AcDbLine
 10
0.0000005732867976
 20
291.9999999862201
 30
0.0
 11
420.0000005732867
 21
291.9999999862201
 31
0.0
  0
LINE
  5
DE0
330
D57
100
AcDbEntity
  8
0
 62
     3
100
AcDbLine
 10
358.0000005732868
 20
9.99999998622016
 30
0.0
 11
358.0000005732868
 21
49.99999998622016
 31
0.0
  0
LINE
  5
DE1
330
D57
100
AcDbEntity
  8
0
 62
     3
100
AcDbLine
 10
371.0000005732868
 20
19.99999998622016
 30
0.0
 11
371.0000005732868
 21
47.99999998622015
 31
0.0
  0
LINE
  5
DE2
330
D57
100
AcDbEntity
  8
0
 62
     3
100
AcDbLine
 10
331.0000005732868
 20
19.99999998622016
 30
0.0
 11
331.0000005732868
 21
33.99999998622016
 31
0.0
  0
LINE
  5
DE3
330
D57
100
AcDbEntity
  8
0
 62
     3
100
AcDbLine
 10
341.0000005732868
 20
33.99999998622016
 30
0.0
 11
341.0000005732868
 21
9.99999998622016
 31
0.0
  0
LINE
  5
DE4
330
D57
100
AcDbEntity
  8
0
 62
     3
100
AcDbLine
 10
312.0000005732868
 20
49.99999998622016
 30
0.0
 11
312.0000005732868
 21
26.99999998622016
 31
0.0
  0
LINE
  5
DE5
330
D57
100
AcDbEntity
  8
0
 62
     3
100
AcDbLine
 10
371.0000005732868
 20
47.99999998622015
 30
0.0
 11
371.0000005732868
 21
49.99999998622016
 31
0.0
  0
LINE
  5
DE6
330
D57
100
AcDbEntity
  8
0
 62
     3
100
AcDbLine
 10
384.0000005732868
 20
26.99999998622016
 30
0.0
 11
384.0000005732868
 21
49.99999998622016
 31
0.0
  0
LINE
  5
DE7
330
D57
100
AcDbEntity
  8
0
 62
     3
100
AcDbLine
 10
410.0000005732868
 20
49.99999998622016
 30
0.0
 11
298.7545659332868
 21
49.99999998622017
 31
0.0
  0
LINE
  5
DE8
330
D57
100
AcDbEntity
  8
0
 62
     3
100
AcDbLine
 10
410.0000005732868
 20
40.99999998622016
 30
0.0
 11
298.7545659332868
 21
40.99999998622016
 31
0.0
  0
LINE
  5
DE9
330
D57
100
AcDbEntity
  8
0
 62
     3
100
AcDbLine
 10
410.0000005732868
 20
26.99999998622016
 30
0.0
 11
298.7545659332868
 21
26.99999998622016
 31
0.0
  0
LINE
  5
DEA
330
D57
100
AcDbEntity
  8
0
 62
     3
100
AcDbLine
 10
410.0000005732868
 20
19.99999998622016
 30
0.0
 11
298.6965580732867
 21
19.99999998622016
 31
0.0
  0
LINE
  5
DEB
330
D57
100
AcDbEntity
  8
0
 62
     3
100
AcDbLine
 10
397.0000005732868
 20
26.99999998622016
 30
0.0
 11
397.0000005732868
 21
49.99999998622016
 31
0.0
  0
LINE
  5
DEC
330
D57
100
AcDbEntity
  8
0
 62
     3
100
AcDbLine
 10
298.7545659332868
 20
49.99999998622017
 30
0.0
 11
298.7545659332868
 21
9.99999998622016
 31
0.0
  0
LINE
  5
DED
330
D57
100
AcDbEntity
  8
0
 62
     3
100
AcDbLine
 10
358.0000005732868
 20
33.99999998622016
 30
0.0
 11
298.7545659332868
 21
33.99999998622015
 31
0.0
  0
LINE
  5
DEE
330
D57
100
AcDbEntity
  8
0
 62
     3
100
AcDbLine
 10
341.2783255032866
 20
14.83286124622015
 30
0.0
 11
358.0000005732868
 21
14.83286124622015
 31
0.0
  0
LINE
  5
DEF
330
D57
100
AcDbEntity
  8
0
 62
     3
100
AcDbLine
 10
345.0000005732868
 20
40.99999998622016
 30
0.0
 11
353.0000005732868
 21
40.99999998622016
 31
0.0
  0
TEXT
  5
DF0
330
D57
100
AcDbEntity
  8
0
 62
     3
100
AcDbText
 10
342.1643259866026
 20
29.0730968395855
 30
0.0
 40
2.5
  1
******
  7
高2.5
100
AcDbText
  0
TEXT
  5
DF1
330
D57
100
AcDbEntity
  8
0
 62
     3
100
AcDbText
 10
313.196369268539
 20
29.29781439120407
 30
0.0
 40
2.5
  1
*****
  7
高2.5
100
AcDbText
  0
TEXT
  5
DF2
330
D57
100
AcDbEntity
  8
0
 62
     3
100
AcDbText
 10
313.4612770232363
 20
42.31224950997805
 30
0.0
 40
4.5
  1
**********
  7
高4.5
100
AcDbText
1001
ACAD
1000
ACAD_MTEXT_DEFINED_HEIGHT_BEGIN
1070
    46
1040
0.0
1000
ACAD_MTEXT_DEFINED_HEIGHT_END
  0
TEXT
  5
DF3
330
D57
100
AcDbEntity
  8
0
 62
     3
100
AcDbText
 10
400.0655896667608
 20
46.51369208492375
 30
0.0
 40
2.0
  1
DEF
  7
高2
100
AcDbText
  0
TEXT
  5
DF4
330
D57
100
AcDbEntity
  8
0
 62
     3
100
AcDbText
 10
386.1264913130526
 20
46.51369208492366
 30
0.0
 40
2.0
  1
DESN
  7
高2
100
AcDbText
  0
TEXT
  5
DF5
330
D57
100
AcDbEntity
  8
0
 62
     3
100
AcDbText
 10
359.8721243730524
 20
46.51369208492375
 30
0.0
 40
2.0
  1
APPD
  7
高2
100
AcDbText
  0
TEXT
  5
DF6
330
D57
100
AcDbEntity
  8
0
 62
     3
100
AcDbText
 10
372.9848604732867
 20
46.51369208492377
 30
0.0
 40
2.0
  1
CHCK
  7
高2
100
AcDbText
  0
TEXT
  5
DF7
330
D57
100
AcDbEntity
  8
0
 62
     3
100
AcDbText
 10
331.9271662124395
 20
24.16839880945088
 30
0.0
 40
2.0
  1
SCALE
 41
0.8
  7
高2
100
AcDbText
  0
TEXT
  5
DF8
330
D57
100
AcDbEntity
  8
0
 62
     3
100
AcDbText
 10
300.4391446363329
 20
24.16839880945089
 30
0.0
 40
2.0
  1
3AD　ANGLE
 41
1.5
  7
高2
100
AcDbText
  0
TEXT
  5
DF9
330
D57
100
AcDbEntity
  8
0
 62
     3
100
AcDbText
 10
331.1965719032883
 20
30.91993687840798
 30
0.0
 40
2.0
  1
REMARKS
 41
0.7
  7
高2
100
AcDbText
  0
TEXT
  5
DFA
330
D57
100
AcDbEntity
  8
0
 62
     3
100
AcDbText
 10
300.2222362832867
 20
30.99999998622016
 30
0.0
 40
2.0
  1
MATERIAL
 41
0.7
  7
高2
100
AcDbText
  0
TEXT
  5
DFB
330
D57
100
AcDbEntity
  8
0
 62
     3
100
AcDbText
 10
300.7987234860409
 20
37.99999998622015
 30
0.0
 40
2.0
  1
MODEL
  7
高2
100
AcDbText
  0
TEXT
  5
DFC
330
D57
100
AcDbEntity
  8
0
 62
     3
100
AcDbText
 10
300.4356443673721
 20
46.70702133681916
 30
0.0
 40
2.0
  1
CONPONENTS
 41
0.5
  7
高2
100
AcDbText
  0
TEXT
  5
DFD
330
D57
100
AcDbEntity
  8
0
 62
     3
100
AcDbText
 10
313.142759838539
 20
35.0874811140321
 30
0.0
 40
4.5
  1
********
  7
高4.5
100
AcDbText
  0
TEXT
  5
DFE
330
D57
100
AcDbEntity
  8
0
 62
     3
100
AcDbText
 10
361.0650463039053
 20
12.03846138158574
 30
0.0
 40
6.299999999999999
  1
*-********
 41
0.6
  7
高6.3
100
AcDbText
1001
ACAD
1000
ACAD_MTEXT_DEFINED_HEIGHT_BEGIN
1070
    46
1040
0.0
1000
ACAD_MTEXT_DEFINED_HEIGHT_END
  0
TEXT
  5
DFF
330
D57
100
AcDbEntity
  8
0
 62
     3
100
AcDbText
 10
374.5635103236164
 20
21.10088914445316
 30
0.0
 40
3.2
  1
******
  7
高3.2
100
AcDbText
1001
ACAD
1000
ACAD_MTEXT_DEFINED_HEIGHT_BEGIN
1070
    46
1040
0.0
1000
ACAD_MTEXT_DEFINED_HEIGHT_END
  0
TEXT
  5
E00
330
D57
100
AcDbEntity
  8
0
 62
     3
100
AcDbText
 10
344.7875984679331
 20
21.10091698878803
 30
0.0
 40
3.2
  1
1/1
  7
高3.2
100
AcDbText
  0
TEXT
  5
E01
330
D57
100
AcDbEntity
  8
0
 62
     3
100
AcDbText
 10
341.8649274432866
 20
10.81687815935612
 30
0.0
 40
3.2
  1
ZK-A3X
 41
0.8
  7
高3.2
100
AcDbText
  0
TEXT
  5
E02
330
D57
100
AcDbEntity
  8
0
 62
     3
100
AcDbText
 10
299.5852669732867
 20
16.52462040840798
 30
0.0
 40
2.0
  1
NICHIDO IND.CO.LTD
 41
1.3
  7
高2
100
AcDbText
  0
TEXT
  5
E03
330
D57
100
AcDbEntity
  8
0
 62
     3
100
AcDbText
 10
300.7667902382439
 20
42.14052819410508
 30
0.0
 40
3.2
  1
品 名
  7
高3.2
100
AcDbText
1001
ACAD
1000
ACAD_MTEXT_DEFINED_HEIGHT_BEGIN
1070
    46
1040
0.0
1000
ACAD_MTEXT_DEFINED_HEIGHT_END
  0
TEXT
  5
E04
330
D57
100
AcDbEntity
  8
0
 62
     3
100
AcDbText
 10
300.7667902382439
 20
34.49999998622015
 30
0.0
 40
3.2
  1
型 式
  7
高3.2
100
AcDbText
1001
ACAD
1000
ACAD_MTEXT_DEFINED_HEIGHT_BEGIN
1070
    46
1040
3.064735913775955
1000
ACAD_MTEXT_DEFINED_HEIGHT_END
  0
TEXT
  5
E05
330
D57
100
AcDbEntity
  8
0
 62
     3
100
AcDbText
 10
300.7667902382439
 20
27.49999998622016
 30
0.0
 40
3.2
  1
材 質
  7
高3.2
100
AcDbText
1001
ACAD
1000
ACAD_MTEXT_DEFINED_HEIGHT_BEGIN
1070
    46
1040
0.0
1000
ACAD_MTEXT_DEFINED_HEIGHT_END
  0
TEXT
  5
E06
330
D57
100
AcDbEntity
  8
0
 62
     3
100
AcDbText
 10
300.4617552882439
 20
20.4674399784664
 30
0.0
 40
3.2
  1
第 三 角 法
  7
高3.2
100
AcDbText
1001
ACAD
1000
ACAD_MTEXT_DEFINED_HEIGHT_BEGIN
1070
    46
1040
0.0
1000
ACAD_MTEXT_DEFINED_HEIGHT_END
  0
TEXT
  5
E07
330
D57
100
AcDbEntity
  8
0
 62
     3
100
AcDbText
 10
298.8682878957727
 20
11.14052819410509
 30
0.0
 40
3.2
  1
日動工業株式会社
 41
1.199999999999999
  7
高3.2
100
AcDbText
1001
ACAD
1000
ACAD_MTEXT_DEFINED_HEIGHT_BEGIN
1070
    46
1040
0.0
1000
ACAD_MTEXT_DEFINED_HEIGHT_END
  0
TEXT
  5
E08
330
D57
100
AcDbEntity
  8
0
 62
     3
100
AcDbText
 10
332.5039120952513
 20
27.38457851938772
 30
0.0
 40
3.2
  1
備考
  7
高3.2
100
AcDbText
1001
ACAD
1000
ACAD_MTEXT_DEFINED_HEIGHT_BEGIN
1070
    46
1040
0.0
1000
ACAD_MTEXT_DEFINED_HEIGHT_END
  0
TEXT
  5
E09
330
D57
100
AcDbEntity
  8
0
 62
     3
100
AcDbText
 10
342.1529695422866
 20
16.14623001179045
 30
0.0
 40
2.5
  1
出図コード
  7
高2.5
100
AcDbText
1001
ACAD
1000
ACAD_MTEXT_DEFINED_HEIGHT_BEGIN
1070
    46
1040
0.0
1000
ACAD_MTEXT_DEFINED_HEIGHT_END
  0
TEXT
  5
E0A
330
D57
100
AcDbEntity
  8
0
 62
     3
100
AcDbText
 10
332.3451459771638
 20
20.45323489663308
 30
0.0
 40
3.2
  1
尺度
  7
高3.2
100
AcDbText
1001
ACAD
1000
ACAD_MTEXT_DEFINED_HEIGHT_BEGIN
1070
    46
1040
0.0
1000
ACAD_MTEXT_DEFINED_HEIGHT_END
  0
TEXT
  5
E0B
330
D57
100
AcDbEntity
  8
0
 62
     3
100
AcDbText
 10
359.4914074589426
 20
21.58471334475057
 30
0.0
 40
3.2
  1
作成日
  7
高3.2
100
AcDbText
1001
ACAD
1000
ACAD_MTEXT_DEFINED_HEIGHT_BEGIN
1070
    46
1040
0.0
1000
ACAD_MTEXT_DEFINED_HEIGHT_END
  0
TEXT
  5
E0C
330
D57
100
AcDbEntity
  8
0
 62
     3
100
AcDbText
 10
359.3858814658065
 20
42.14052819410508
 30
0.0
 40
3.2
  1
承 認
  7
高3.2
100
AcDbText
1001
ACAD
1000
ACAD_MTEXT_DEFINED_HEIGHT_BEGIN
1070
    46
1040
0.0
1000
ACAD_MTEXT_DEFINED_HEIGHT_END
  0
TEXT
  5
E0D
330
D57
100
AcDbEntity
  8
0
 62
     3
100
AcDbText
 10
372.3858814658065
 20
42.14052819410508
 30
0.0
 40
3.2
  1
検 図
  7
高3.2
100
AcDbText
1001
ACAD
1000
ACAD_MTEXT_DEFINED_HEIGHT_BEGIN
1070
    46
1040
0.0
1000
ACAD_MTEXT_DEFINED_HEIGHT_END
  0
TEXT
  5
E0E
330
D57
100
AcDbEntity
  8
0
 62
     3
100
AcDbText
 10
385.3858814658065
 20
42.14052819410508
 30
0.0
 40
3.2
  1
設 計
  7
高3.2
100
AcDbText
1001
ACAD
1000
ACAD_MTEXT_DEFINED_HEIGHT_BEGIN
1070
    46
1040
0.0
1000
ACAD_MTEXT_DEFINED_HEIGHT_END
  0
TEXT
  5
E0F
330
D57
100
AcDbEntity
  8
0
 62
     3
100
AcDbText
 10
398.6865179858064
 20
42.14052819410508
 30
0.0
 40
3.2
  1
製 図
  7
高3.2
100
AcDbText
1001
ACAD
1000
ACAD_MTEXT_DEFINED_HEIGHT_BEGIN
1070
    46
1040
0.0
1000
ACAD_MTEXT_DEFINED_HEIGHT_END
  0
TEXT
  5
E10
330
D57
100
AcDbEntity
  8
0
 62
     3
100
AcDbText
 10
397.5000005732866
 20
274.4999999862201
 30
0.0
 40
3.2
  1
担　当
  7
高3.2
100
AcDbText
  0
TEXT
  5
E11
330
D57
100
AcDbEntity
  8
0
 62
     3
100
AcDbText
 10
353.5000005732866
 20
274.4999999862201
 30
0.0
 40
3.2
  1
変更・追記内容
  7
高3.2
100
AcDbText
  0
TEXT
  5
E12
330
D57
100
AcDbEntity
  8
0
 62
     3
100
AcDbText
 10
328.6135155736258
 20
269.8294614763118
 30
0.0
 40
2.0
  1
1
  7
高2
100
AcDbText
  0
TEXT
  5
E13
330
D57
100
AcDbEntity
  8
0
 62
     3
100
AcDbText
 10
328.3050040968685
 20
264.6596447640389
 30
0.0
 40
2.0
  1
2
  7
高2
100
AcDbText
  0
TEXT
  5
E14
330
D57
100
AcDbEntity
  8
0
 62
     3
100
AcDbText
 10
335.5000005732866
 20
274.4999999862201
 30
0.0
 40
3.2
  1
日　付
  7
高3.2
100
AcDbText
  0
TEXT
  5
E15
330
D57
100
AcDbEntity
  8
0
 62
     3
100
AcDbText
 10
335.5000005732866
 20
279.4999999862201
 30
0.0
 40
3.2
  1
図　　　　面　　　　略　　　　歴
  7
高3.2
100
AcDbText
  0
TEXT
  5
E16
330
D57
100
AcDbEntity
  8
0
 62
     3
100
AcDbText
 10
325.5000005732866
 20
274.4999999862201
 30
0.0
 40
3.2
  1
記号
  7
高3.2
100
AcDbText
  0
LINE
  5
E17
330
D57
100
AcDbEntity
  8
0
 62
     7
100
AcDbLine
 10
329.0000005732866
 20
267.7908959862202
 30
0.0
 11
327.1000005732867
 21
264.4999999862201
 31
0.0
  0
LINE
  5
E18
330
D57
100
AcDbEntity
  8
0
 62
     7
100
AcDbLine
 10
329.0000005732866
 20
267.7908959862202
 30
0.0
 11
330.9000005732867
 21
264.4999999862201
 31
0.0
  0
LINE
  5
E19
330
D57
100
AcDbEntity
  8
0
 62
     7
100
AcDbLine
 10
327.1000005732867
 20
264.4999999862201
 30
0.0
 11
330.9000005732867
 21
264.4999999862201
 31
0.0
  0
LINE
  5
E1A
330
D57
100
AcDbEntity
  8
0
 62
     7
100
AcDbLine
 10
329.0000005732866
 20
272.7908969862202
 30
0.0
 11
327.1000005732867
 21
269.4999999862201
 31
0.0
  0
LINE
  5
E1B
330
D57
100
AcDbEntity
  8
0
 62
     7
100
AcDbLine
 10
329.0000005732866
 20
272.7908969862202
 30
0.0
 11
330.9000005732867
 21
269.4999999862201
 31
0.0
  0
LINE
  5
E1C
330
D57
100
AcDbEntity
  8
0
 62
     7
100
AcDbLine
 10
327.1000005732867
 20
269.4999999862201
 30
0.0
 11
330.9000005732867
 21
269.4999999862201
 31
0.0
  0
LINE
  5
E1D
330
D57
100
AcDbEntity
  8
0
 62
     3
100
AcDbLine
 10
324.0000005732866
 20
278.9999999862201
 30
0.0
 11
410.0000005732865
 21
278.9999999862201
 31
0.0
  0
LINE
  5
E1E
330
D57
100
AcDbEntity
  8
0
 62
     3
100
AcDbLine
 10
324.0000005732866
 20
273.9999999862201
 30
0.0
 11
410.0000005732865
 21
273.9999999862201
 31
0.0
  0
LINE
  5
E1F
330
D57
100
AcDbEntity
  8
0
 62
     7
100
AcDbLine
 10
324.0000005732866
 20
268.9999999862201
 30
0.0
 11
410.0000005732865
 21
268.9999999862201
 31
0.0
  0
LINE
  5
E20
330
D57
100
AcDbEntity
  8
0
 62
     3
100
AcDbLine
 10
324.0000005732866
 20
263.9999999862201
 30
0.0
 11
410.0000005732865
 21
263.9999999862201
 31
0.0
  0
LINE
  5
E21
330
D57
100
AcDbEntity
  8
0
 62
     7
100
AcDbLine
 10
396.0000005732866
 20
263.9999999862201
 30
0.0
 11
396.0000005732866
 21
278.9999999862201
 31
0.0
  0
LINE
  5
E22
330
D57
100
AcDbEntity
  8
0
 62
     7
100
AcDbLine
 10
352.0000005732866
 20
263.9999999862201
 30
0.0
 11
352.0000005732866
 21
278.9999999862201
 31
0.0
  0
LINE
  5
E23
330
D57
100
AcDbEntity
  8
0
 62
     7
100
AcDbLine
 10
334.0000005732866
 20
263.9999999862201
 30
0.0
 11
334.0000005732866
 21
278.9999999862201
 31
0.0
  0
LINE
  5
E24
330
D57
100
AcDbEntity
  8
0
 62
     3
100
AcDbLine
 10
324.0000005732866
 20
263.9999999862201
 30
0.0
 11
324.0000005732866
 21
283.9999999862201
 31
0.0
  0
ENDBLK
  5
E28
330
D57
100
AcDbEntity
  8
0
100
AcDbBlockEnd
  0
BLOCK
  5
1193
330
10C4
100
AcDbEntity
  8
0
100
AcDbBlockBegin
  2
A$C478E5F75
 70
     0
 10
0.0
 20
0.0
 30
0.0
  3
A$C478E5F75
  1

  0
LINE
  5
10C5
330
10C4
100
AcDbEntity
  8
0
 62
     3
100
AcDbLine
 10
19.99999956930423
 20
283.9999999780495
 30
0.0
 11
19.99999956930423
 21
9.999999978049487
 31
0.0
  0
LINE
  5
10C6
330
10C4
100
AcDbEntity
  8
0
 62
     3
100
AcDbLine
 10
409.9999995693044
 20
9.999999978049487
 30
0.0
 11
409.9999995693044
 21
283.9999999780495
 31
0.0
  0
LINE
  5
10C7
330
10C4
100
AcDbEntity
  8
0
 62
     3
100
AcDbLine
 10
19.99999956930423
 20
9.999999978049487
 30
0.0
 11
409.9999995693044
 21
9.999999978049487
 31
0.0
  0
LINE
  5
10C8
330
10C4
100
AcDbEntity
  8
0
 62
     3
100
AcDbLine
 10
197.7748890393043
 20
286.4400021180495
 30
0.0
 11
198.3973860493042
 21
286.1150476380494
 31
0.0
  0
LINE
  5
10C9
330
10C4
100
AcDbEntity
  8
0
 62
     3
100
AcDbLine
 10
197.7748890393043
 20
281.1105300180494
 30
0.0
 11
198.3973860493042
 21
281.4354844980495
 31
0.0
  0
LINE
  5
10CA
330
10C4
100
AcDbEntity
  8
0
 62
     3
100
AcDbLine
 10
198.3973860493042
 20
286.1150476380494
 30
0.0
 11
198.3973860493042
 21
281.4354844980495
 31
0.0
  0
LINE
  5
10CB
330
10C4
100
AcDbEntity
  8
0
 62
     3
100
AcDbLine
 10
199.9738395093043
 20
281.1105300180494
 30
0.0
 11
199.3513424993043
 21
281.4354844980495
 31
0.0
  0
LINE
  5
10CC
330
10C4
100
AcDbEntity
  8
0
 62
     3
100
AcDbLine
 10
199.3513424993043
 20
284.2881399480494
 30
0.0
 11
199.3513424993043
 21
281.4354844980495
 31
0.0
  0
LINE
  5
10CD
330
10C4
100
AcDbEntity
  8
0
 62
     3
100
AcDbLine
 10
203.6050720493045
 20
286.4400021180495
 30
0.0
 11
202.9825750493044
 21
286.1150476380494
 31
0.0
  0
LINE
  5
10CE
330
10C4
100
AcDbEntity
  8
0
 62
     3
100
AcDbLine
 10
201.4061215793045
 20
286.4400021180495
 30
0.0
 11
202.0286185893044
 21
286.1150476380494
 31
0.0
  0
LINE
  5
10CF
330
10C4
100
AcDbEntity
  8
0
 62
     3
100
AcDbLine
 10
202.0286185893044
 20
286.1150476380494
 30
0.0
 11
202.0286185893044
 21
284.0545661180495
 31
0.0
  0
LINE
  5
10D0
330
10C4
100
AcDbEntity
  8
0
 62
     3
100
AcDbLine
 10
202.9825750493044
 20
286.1150476380494
 30
0.0
 11
202.9825750493044
 21
280.8082998080495
 31
0.0
  0
LINE
  5
10D1
330
10C4
100
AcDbEntity
  8
0
 62
     3
100
AcDbLine
 10
203.9126394893044
 20
286.4399983680495
 30
0.0
 11
204.5351342493043
 21
286.1150395980494
 31
0.0
  0
LINE
  5
10D2
330
10C4
100
AcDbEntity
  8
0
 62
     3
100
AcDbLine
 10
203.9125280993044
 20
281.1106014080494
 30
0.0
 11
204.5350364493042
 21
281.4355341580494
 31
0.0
  0
LINE
  5
10D3
330
10C4
100
AcDbEntity
  8
0
 62
     3
100
AcDbLine
 10
204.5351342493043
 20
286.1150395980494
 30
0.0
 11
204.5351342493043
 21
281.4355341580494
 31
0.0
  0
LINE
  5
10D4
330
10C4
100
AcDbEntity
  8
0
 62
     3
100
AcDbLine
 10
206.6691200493044
 20
286.4399645480495
 30
0.0
 11
206.0466184893044
 21
286.1150187880495
 31
0.0
  0
LINE
  5
10D5
330
10C4
100
AcDbEntity
  8
0
 62
     3
100
AcDbLine
 10
206.0466184893044
 20
286.1150187880495
 30
0.0
 11
206.0466184893044
 21
281.4355133480494
 31
0.0
  0
LINE
  5
10D6
330
10C4
100
AcDbEntity
  8
0
 62
     3
100
AcDbLine
 10
206.6691200493044
 20
281.1105675880494
 30
0.0
 11
206.0466184893044
 21
281.4355133480494
 31
0.0
  0
LINE
  5
10D7
330
10C4
100
AcDbEntity
  8
0
 62
     3
100
AcDbLine
 10
211.9409106793043
 20
286.4399059780494
 30
0.0
 11
212.5634065593045
 21
286.1149493580494
 31
0.0
  0
LINE
  5
10D8
330
10C4
100
AcDbEntity
  8
0
 62
     3
100
AcDbLine
 10
212.5634065593045
 20
286.1149493580494
 30
0.0
 11
212.5633248893044
 21
281.4354439080495
 31
0.0
  0
LINE
  5
10D9
330
10C4
100
AcDbEntity
  8
0
 62
     3
100
AcDbLine
 10
211.9408176593042
 20
281.1105090180495
 30
0.0
 11
212.5633248893044
 21
281.4354439080495
 31
0.0
  0
LINE
  5
10DA
330
10C4
100
AcDbEntity
  8
0
 62
     3
100
AcDbLine
 10
214.7298549193042
 20
286.4399059780494
 30
0.0
 11
214.1073590293045
 21
286.1149493580494
 31
0.0
  0
LINE
  5
10DB
330
10C4
100
AcDbEntity
  8
0
 62
     3
100
AcDbLine
 10
214.7299479293042
 20
281.1105090180495
 30
0.0
 11
214.1074406993043
 21
281.4354439080495
 31
0.0
  0
LINE
  5
10DC
330
10C4
100
AcDbEntity
  8
0
 62
     3
100
AcDbLine
 10
215.0208947193044
 20
286.4399059780494
 30
0.0
 11
215.6433905993044
 21
286.1149493580494
 31
0.0
  0
LINE
  5
10DD
330
10C4
100
AcDbEntity
  8
0
 62
     3
100
AcDbLine
 10
215.0208016993042
 20
281.1105090180495
 30
0.0
 11
215.6433089293043
 21
281.4354439080495
 31
0.0
  0
LINE
  5
10DE
330
10C4
100
AcDbEntity
  8
0
 62
     3
100
AcDbLine
 10
217.8098389493043
 20
286.4399059780494
 30
0.0
 11
217.1873430693044
 21
286.1149493580494
 31
0.0
  0
LINE
  5
10DF
330
10C4
100
AcDbEntity
  8
0
 62
     3
100
AcDbLine
 10
217.1873430693044
 20
286.1149493580494
 30
0.0
 11
217.1874247393043
 21
281.4354439080495
 31
0.0
  0
LINE
  5
10E0
330
10C4
100
AcDbEntity
  8
0
 62
     3
100
AcDbLine
 10
217.8099319693042
 20
281.1105090180495
 30
0.0
 11
217.1874247393043
 21
281.4354439080495
 31
0.0
  0
LINE
  5
10E1
330
10C4
100
AcDbEntity
  8
0
 62
     3
100
AcDbLine
 10
215.6433550193044
 20
284.0761877580495
 30
0.0
 11
214.1073946093043
 21
284.0761877580495
 31
0.0
  0
LINE
  5
10E2
330
10C4
100
AcDbEntity
  8
0
 62
     3
100
AcDbLine
 10
215.6433445193043
 20
283.4743443780494
 30
0.0
 11
214.1074051093044
 21
283.4743443780494
 31
0.0
  0
LINE
  5
10E3
330
10C4
100
AcDbEntity
  8
0
 62
     3
100
AcDbLine
 10
215.6433905993044
 20
286.1149493580494
 30
0.0
 11
215.6433550193044
 21
284.0761877580495
 31
0.0
  0
LINE
  5
10E4
330
10C4
100
AcDbEntity
  8
0
 62
     3
100
AcDbLine
 10
215.6433445193043
 20
283.4743443780494
 30
0.0
 11
215.6433089293043
 21
281.4354439080495
 31
0.0
  0
LINE
  5
10E5
330
10C4
100
AcDbEntity
  8
0
 62
     3
100
AcDbLine
 10
214.1073590293045
 20
286.1149493580494
 30
0.0
 11
214.1073946093043
 21
284.0761877580495
 31
0.0
  0
LINE
  5
10E6
330
10C4
100
AcDbEntity
  8
0
 62
     3
100
AcDbLine
 10
214.1074051093044
 20
283.4743443780494
 30
0.0
 11
214.1074406993043
 21
281.4354439080495
 31
0.0
  0
LINE
  5
10E7
330
10C4
100
AcDbEntity
  8
0
 62
     3
100
AcDbLine
 10
218.1054948393044
 20
286.4399059780494
 30
0.0
 11
218.7279907293044
 21
286.1149493580494
 31
0.0
  0
LINE
  5
10E8
330
10C4
100
AcDbEntity
  8
0
 62
     3
100
AcDbLine
 10
218.7279907293044
 20
286.1149493580494
 30
0.0
 11
218.7279090493043
 21
281.4354439080495
 31
0.0
  0
LINE
  5
10E9
330
10C4
100
AcDbEntity
  8
0
 62
     3
100
AcDbLine
 10
218.1054018193044
 20
281.1105090180495
 30
0.0
 11
218.7279090493043
 21
281.4354439080495
 31
0.0
  0
LINE
  5
10EA
330
10C4
100
AcDbEntity
  8
0
 62
     3
100
AcDbLine
 10
220.8619380793043
 20
286.4399059780494
 30
0.0
 11
220.2394421893043
 21
286.1149493580494
 31
0.0
  0
LINE
  5
10EB
330
10C4
100
AcDbEntity
  8
0
 62
     3
100
AcDbLine
 10
220.2394421893043
 20
286.1149493580494
 30
0.0
 11
220.2395238693043
 21
281.4354439080495
 31
0.0
  0
LINE
  5
10EC
330
10C4
100
AcDbEntity
  8
0
 62
     3
100
AcDbLine
 10
220.8620310993042
 20
281.1105090180495
 30
0.0
 11
220.2395238693043
 21
281.4354439080495
 31
0.0
  0
LINE
  5
10ED
330
10C4
100
AcDbEntity
  8
0
 62
     3
100
AcDbLine
 10
221.1681660293043
 20
286.4399059780494
 30
0.0
 11
221.7906619193043
 21
286.1149493580494
 31
0.0
  0
LINE
  5
10EE
330
10C4
100
AcDbEntity
  8
0
 62
     3
100
AcDbLine
 10
221.7906619193043
 20
286.1149493580494
 30
0.0
 11
221.7905802493044
 21
281.4354439080495
 31
0.0
  0
LINE
  5
10EF
330
10C4
100
AcDbEntity
  8
0
 62
     3
100
AcDbLine
 10
221.1680730193043
 20
281.1105090180495
 30
0.0
 11
221.7905802493044
 21
281.4354439080495
 31
0.0
  0
ARC
  5
10F0
330
10C4
100
AcDbEntity
  8
0
 62
     3
100
AcDbCircle
 10
209.9524660093043
 20
283.7886800080495
 30
0.0
 40
2.98040844
100
AcDbArc
 50
97.70152350999723
 51
270.0
  0
ARC
  5
10F1
330
10C4
100
AcDbEntity
  8
0
 62
     3
100
AcDbCircle
 10
228.3533243493043
 20
283.7587419680494
 30
0.0
 40
3.012776259999999
100
AcDbArc
 50
0.314250269999259
 51
69.00558245000303
  0
ARC
  5
10F2
330
10C4
100
AcDbEntity
  8
0
 62
     3
100
AcDbCircle
 10
229.0114319593044
 20
283.7587419680494
 30
0.0
 40
3.012776259999999
100
AcDbArc
 50
110.9944175499969
 51
148.1166110200042
  0
ARC
  5
10F3
330
10C4
100
AcDbEntity
  8
0
 62
     3
100
AcDbCircle
 10
228.3533243493043
 20
283.7917901680495
 30
0.0
 40
3.012776259999999
100
AcDbArc
 50
290.9944175499969
 51
359.6857497300007
  0
ARC
  5
10F4
330
10C4
100
AcDbEntity
  8
0
 62
     3
100
AcDbCircle
 10
229.0114319593044
 20
283.7917901680495
 30
0.0
 40
3.012776259999999
100
AcDbArc
 50
211.8833889799958
 51
249.005582450003
  0
ARC
  5
10F5
330
10C4
100
AcDbEntity
  8
0
 62
     3
100
AcDbCircle
 10
228.6823781593043
 20
285.0078451980495
 30
0.0
 40
1.73438712
100
AcDbArc
 50
64.3651718999996
 51
115.6348281000004
  0
ARC
  5
10F6
330
10C4
100
AcDbEntity
  8
0
 62
     3
100
AcDbCircle
 10
228.6823781593043
 20
282.5426869380494
 30
0.0
 40
1.73438712
100
AcDbArc
 50
244.3651718999996
 51
295.6348281000004
  0
ARC
  5
10F7
330
10C4
100
AcDbEntity
  8
0
 62
     3
100
AcDbCircle
 10
228.6823781593043
 20
285.0407904580494
 30
0.0
 40
0.85122233
100
AcDbArc
 50
19.48660554000363
 51
160.5133944599963
  0
ARC
  5
10F8
330
10C4
100
AcDbEntity
  8
0
 62
     3
100
AcDbCircle
 10
228.6823781593043
 20
282.5426869380494
 30
0.0
 40
1.73438712
100
AcDbArc
 50
244.3651718999996
 51
295.6348281000004
  0
ARC
  5
10F9
330
10C4
100
AcDbEntity
  8
0
 62
     3
100
AcDbCircle
 10
228.6823781593043
 20
282.5097416780494
 30
0.0
 40
0.85122233
100
AcDbArc
 50
199.4866055400036
 51
340.5133944599964
  0
ARC
  5
10FA
330
10C4
100
AcDbEntity
  8
0
 62
     3
100
AcDbCircle
 10
221.9074174393045
 20
252.0208948680495
 30
0.0
 40
37.20000000000001
100
AcDbArc
 50
69.50571480000833
 51
81.68998807001051
  0
ARC
  5
10FB
330
10C4
100
AcDbEntity
  8
0
 62
     3
100
AcDbCircle
 10
221.9074174393045
 20
315.5296372680494
 30
0.0
 40
37.20000000000001
100
AcDbArc
 50
278.3100119299894
 51
290.4942851999917
  0
ARC
  5
10FC
330
10C4
100
AcDbEntity
  8
0
 62
     3
100
AcDbCircle
 10
233.7762804793042
 20
283.7752660680494
 30
0.0
 40
3.299999999999999
100
AcDbArc
 50
290.4942851999917
 51
69.50571480000833
  0
ARC
  5
10FD
330
10C4
100
AcDbEntity
  8
0
 62
     3
100
AcDbCircle
 10
194.7762804793042
 20
283.7752660680494
 30
0.0
 40
3.299999999999999
100
AcDbArc
 50
110.4942851999916
 51
249.5057148000083
  0
ARC
  5
10FE
330
10C4
100
AcDbEntity
  8
0
 62
     3
100
AcDbCircle
 10
206.6451435093045
 20
252.0208948680495
 30
0.0
 40
37.20000000000001
100
AcDbArc
 50
98.31001192998947
 51
110.4942851999916
  0
ARC
  5
10FF
330
10C4
100
AcDbEntity
  8
0
 62
     3
100
AcDbCircle
 10
206.6451435093045
 20
315.5296372680494
 30
0.0
 40
37.20000000000001
100
AcDbArc
 50
249.5057148000083
 51
261.6899880699973
  0
ARC
  5
1100
330
10C4
100
AcDbEntity
  8
0
 62
     3
100
AcDbCircle
 10
214.2762804793042
 20
199.7752660680494
 30
0.0
 40
89.99999981
100
AcDbArc
 50
81.68998807001051
 51
98.31001192998947
  0
ARC
  5
1101
330
10C4
100
AcDbEntity
  8
0
 62
     3
100
AcDbCircle
 10
214.2762804793042
 20
367.7752660680494
 30
0.0
 40
89.99999981
100
AcDbArc
 50
261.6899880699973
 51
278.3100119299894
  0
ARC
  5
1102
330
10C4
100
AcDbEntity
  8
0
 62
     3
100
AcDbCircle
 10
214.2762804793042
 20
199.7752660680494
 30
0.0
 40
89.09999981
100
AcDbArc
 50
81.68998807001051
 51
98.31001192998947
  0
ARC
  5
1103
330
10C4
100
AcDbEntity
  8
0
 62
     3
100
AcDbCircle
 10
214.2762804793042
 20
367.7752660680494
 30
0.0
 40
89.09999981
100
AcDbArc
 50
261.6899880699973
 51
278.3100119299894
  0
ARC
  5
1104
330
10C4
100
AcDbEntity
  8
0
 62
     3
100
AcDbCircle
 10
221.9074174393045
 20
315.5296372680494
 30
0.0
 40
36.3
100
AcDbArc
 50
278.3100119299894
 51
290.4942851999917
  0
ARC
  5
1105
330
10C4
100
AcDbEntity
  8
0
 62
     3
100
AcDbCircle
 10
221.9074174393045
 20
252.0208948680495
 30
0.0
 40
36.3
100
AcDbArc
 50
69.50571480000833
 51
81.68998807001051
  0
ARC
  5
1106
330
10C4
100
AcDbEntity
  8
0
 62
     3
100
AcDbCircle
 10
233.7762804793042
 20
283.7752660680494
 30
0.0
 40
2.399999999999999
100
AcDbArc
 50
290.4942851999917
 51
69.50571480000833
  0
ARC
  5
1107
330
10C4
100
AcDbEntity
  8
0
 62
     3
100
AcDbCircle
 10
194.7762804793042
 20
283.7752660680494
 30
0.0
 40
2.399999999999999
100
AcDbArc
 50
110.4942851999916
 51
249.5057148000083
  0
ARC
  5
1108
330
10C4
100
AcDbEntity
  8
0
 62
     3
100
AcDbCircle
 10
206.6451435093045
 20
252.0208948680495
 30
0.0
 40
36.3
100
AcDbArc
 50
98.31001192998947
 51
110.4942851999916
  0
ARC
  5
1109
330
10C4
100
AcDbEntity
  8
0
 62
     3
100
AcDbCircle
 10
206.6451435093045
 20
315.5296372680494
 30
0.0
 40
36.3
100
AcDbArc
 50
249.5057148000083
 51
261.6899880699973
  0
LINE
  5
110A
330
10C4
100
AcDbEntity
  8
0
 62
     3
100
AcDbLine
 10
220.8619391993043
 20
280.8082998080495
 30
0.0
 11
218.1054937193044
 21
280.8082998080495
 31
0.0
  0
LINE
  5
110B
330
10C4
100
AcDbEntity
  8
0
 62
     3
100
AcDbLine
 10
220.8619391993043
 20
281.1105300180494
 30
0.0
 11
220.8619391993043
 21
280.8082998080495
 31
0.0
  0
LINE
  5
110C
330
10C4
100
AcDbEntity
  8
0
 62
     3
100
AcDbLine
 10
217.8098400693043
 20
286.7420912980494
 30
0.0
 11
215.0208935993044
 21
286.7420912980494
 31
0.0
  0
LINE
  5
110D
330
10C4
100
AcDbEntity
  8
0
 62
     3
100
AcDbLine
 10
217.8098400693043
 20
286.7420912980494
 30
0.0
 11
217.8098400693043
 21
286.4400021180495
 31
0.0
  0
LINE
  5
110E
330
10C4
100
AcDbEntity
  8
0
 62
     3
100
AcDbLine
 10
217.8098400693043
 20
281.1105300180494
 30
0.0
 11
217.8098400693043
 21
280.8081587880495
 31
0.0
  0
LINE
  5
110F
330
10C4
100
AcDbEntity
  8
0
 62
     3
100
AcDbLine
 10
217.8098400693043
 20
280.8081587880495
 30
0.0
 11
215.0208935993044
 21
280.8081587880495
 31
0.0
  0
LINE
  5
1110
330
10C4
100
AcDbEntity
  8
0
 62
     3
100
AcDbLine
 10
220.8619391993043
 20
286.7422323280495
 30
0.0
 11
220.8619391993043
 21
286.4400021180495
 31
0.0
  0
LINE
  5
1111
330
10C4
100
AcDbEntity
  8
0
 62
     3
100
AcDbLine
 10
220.8619391993043
 20
286.7422323280495
 30
0.0
 11
218.1054937193044
 21
286.7422323280495
 31
0.0
  0
LINE
  5
1112
330
10C4
100
AcDbEntity
  8
0
 62
     3
100
AcDbLine
 10
218.1054937193044
 20
286.7422323280495
 30
0.0
 11
218.1054937193044
 21
286.4400021180495
 31
0.0
  0
LINE
  5
1113
330
10C4
100
AcDbEntity
  8
0
 62
     3
100
AcDbLine
 10
221.1681649093043
 20
281.1105300180494
 30
0.0
 11
221.1681649093043
 21
280.8082998080495
 31
0.0
  0
LINE
  5
1114
330
10C4
100
AcDbEntity
  8
0
 62
     3
100
AcDbLine
 10
224.0028799993043
 20
280.8082998080495
 30
0.0
 11
221.1681649093043
 21
280.8082998080495
 31
0.0
  0
LINE
  5
1115
330
10C4
100
AcDbEntity
  8
0
 62
     3
100
AcDbLine
 10
223.3021133893044
 20
285.7882758680495
 30
0.0
 11
223.3021133893044
 21
281.7622562680494
 31
0.0
  0
LINE
  5
1116
330
10C4
100
AcDbEntity
  8
0
 62
     3
100
AcDbLine
 10
223.3021133893044
 20
281.7622562680494
 30
0.0
 11
223.5736119093044
 21
281.7622562680494
 31
0.0
  0
ARC
  5
1117
330
10C4
100
AcDbEntity
  8
0
 62
     3
100
AcDbCircle
 10
222.1853465693043
 20
283.7752660680494
 30
0.0
 40
2.44529939
100
AcDbArc
 50
304.5919552700016
 51
55.40804472999841
  0
LINE
  5
1118
330
10C4
100
AcDbEntity
  8
0
 62
     3
100
AcDbLine
 10
224.0028799993043
 20
286.7422323280495
 30
0.0
 11
221.1681649093043
 21
286.7422323280495
 31
0.0
  0
LINE
  5
1119
330
10C4
100
AcDbEntity
  8
0
 62
     3
100
AcDbLine
 10
221.1681649093043
 20
286.7422323280495
 30
0.0
 11
221.1681649093043
 21
286.4400021180495
 31
0.0
  0
LINE
  5
111A
330
10C4
100
AcDbEntity
  8
0
 62
     3
100
AcDbLine
 10
218.1054937193044
 20
281.1105300180494
 30
0.0
 11
218.1054937193044
 21
280.8082998080495
 31
0.0
  0
LINE
  5
111B
330
10C4
100
AcDbEntity
  8
0
 62
     3
100
AcDbLine
 10
223.3021133893044
 20
285.7882758680495
 30
0.0
 11
223.5736119093044
 21
285.7882758680495
 31
0.0
  0
LINE
  5
111C
330
10C4
100
AcDbEntity
  8
0
 62
     3
100
AcDbLine
 10
206.6690281493043
 20
281.1105300180494
 30
0.0
 11
206.6690228793043
 21
280.8082715680495
 31
0.0
  0
LINE
  5
111D
330
10C4
100
AcDbEntity
  8
0
 62
     3
100
AcDbLine
 10
203.9125773993044
 20
280.8083280580495
 30
0.0
 11
206.6690228793043
 21
280.8082799480494
 31
0.0
  0
LINE
  5
111E
330
10C4
100
AcDbEntity
  8
0
 62
     3
100
AcDbLine
 10
197.7748890393043
 20
280.8082998080495
 30
0.0
 11
199.9738395093043
 21
280.8082998080495
 31
0.0
  0
ARC
  5
111F
330
10C4
100
AcDbEntity
  8
0
 62
     3
100
AcDbCircle
 10
190.6578280693043
 20
283.8451326780495
 30
0.0
 40
21.01937947
100
AcDbArc
 50
353.8660061899987
 51
357.6940342600001
  0
LINE
  5
1120
330
10C4
100
AcDbEntity
  8
0
 62
     3
100
AcDbLine
 10
210.2529421593045
 20
283.0046074580494
 30
0.0
 11
211.6601862793043
 21
282.9994004880494
 31
0.0
  0
LWPOLYLINE
  5
1121
330
10C4
100
AcDbEntity
  8
0
 62
     3
100
AcDbPolyline
 90
       64
 70
     0
 43
0.0
 10
210.2586256093043
 20
284.5406285180494
 10
210.2320148593044
 20
284.7110110380495
 10
210.2000560293045
 20
284.8741607280494
 10
210.1629961293042
 20
285.0288165280495
 10
210.1211216293043
 20
285.1737830280494
 10
210.0747561993044
 20
285.3079397180495
 10
210.0242582093042
 20
285.4302496180494
 10
209.9700179893043
 20
285.5397673580494
 10
209.9124547893043
 20
285.6356464080494
 10
209.8520135393044
 20
285.7171456780494
 10
209.7891614193045
 20
285.7836352180494
 10
209.7243842393043
 20
285.8346010980495
 10
209.6581827093043
 20
285.8696493780494
 10
209.5910685193044
 20
285.8885091480495
 10
209.5235604293043
 20
285.8910346480494
 10
209.4561802393043
 20
285.8772063380494
 10
209.3894487693044
 20
285.8471311080494
 10
209.3238818293043
 20
285.8010414380494
 10
209.2599861893043
 20
285.7392935580494
 10
209.1982557593044
 20
285.6623647680494
 10
209.1391676693042
 20
285.5708496680495
 10
209.0831786393044
 20
285.4654556380495
 10
209.0307214393042
 20
285.3469973080495
 10
208.9822015393042
 20
285.2163902980494
 10
208.9379939593043
 20
285.0746441480494
 10
208.8984404193043
 20
284.9228544780494
 10
208.8638466393045
 20
284.7621945380495
 10
208.8344800093044
 20
284.5939061480494
 10
208.8105675193044
 20
284.4192900880495
 10
208.7922940093045
 20
284.2396960580495
 10
208.7798007093042
 20
284.0565122180494
 10
208.7731841993043
 20
283.8711544980494
 10
208.7724956093043
 20
283.6850555980494
 10
208.7777402693043
 20
283.4996539880494
 10
208.7888776393043
 20
283.3163827180495
 10
208.8058216393042
 20
283.1366583780495
 10
208.8284412893045
 20
282.9618701480494
 10
208.8565617593044
 20
282.7933690480495
 10
208.8899656893043
 20
282.6324575080495
 10
208.9283948893044
 20
282.4803792880494
 10
208.9715523093043
 20
282.3383098780495
 10
209.0191043793043
 20
282.2073473980495
 10
209.0706835293044
 20
282.0885041180495
 10
209.1258910993042
 20
281.9826986480494
 10
209.1843003493043
 20
281.8907487880494
 10
209.2454598093043
 20
281.8133652880494
 10
209.3088967493045
 20
281.7511462680494
 10
209.3741208293045
 20
281.7045726580494
 10
209.4406279093043
 20
281.6740044280495
 10
209.5079039193042
 20
281.6596778780495
 10
209.5754288493044
 20
281.6617037380495
 10
209.6426807693042
 20
281.6800663380494
 10
209.7091398493044
 20
281.7146237580494
 10
209.7742924093043
 20
281.7651088880495
 10
209.8376348393044
 20
281.8311314880494
 10
209.8986775393044
 20
281.9121812480495
 10
209.9569486793043
 20
282.0076316980494
 10
210.0119978593043
 20
282.1167450580495
 10
210.0633995793044
 20
282.2386779180495
 10
210.1107565193042
 20
282.3724878280494
 10
210.1537026393044
 20
282.5171404780494
 10
210.1919059893043
 20
282.6715177980494
 10
210.2250712793043
 20
282.8344265280494
 10
210.2529421593045
 20
283.0046074580494
  0
LINE
  5
1122
330
10C4
100
AcDbEntity
  8
0
 62
     3
100
AcDbLine
 10
210.2586256093043
 20
284.5406285180494
 30
0.0
 11
211.6658697293044
 21
284.5354215480495
 31
0.0
  0
ARC
  5
1123
330
10C4
100
AcDbEntity
  8
0
 62
     3
100
AcDbCircle
 10
190.6578280693043
 20
283.8451326780495
 30
0.0
 40
21.01937947
100
AcDbArc
 50
1.881965739999572
 51
5.709993809998523
  0
LINE
  5
1124
330
10C4
100
AcDbEntity
  8
0
 62
     3
100
AcDbLine
 10
206.6691264393043
 20
286.7422040780494
 30
0.0
 11
206.6691211693044
 21
286.4400021180495
 31
0.0
  0
LINE
  5
1125
330
10C4
100
AcDbEntity
  8
0
 62
     3
100
AcDbLine
 10
203.9126809593045
 20
286.7422605680495
 30
0.0
 11
206.6691264393043
 21
286.7422124580495
 31
0.0
  0
LINE
  5
1126
330
10C4
100
AcDbEntity
  8
0
 62
     3
100
AcDbLine
 10
203.9125826693044
 20
281.1105300180494
 30
0.0
 11
203.9125773993044
 21
280.8083280580495
 31
0.0
  0
LINE
  5
1127
330
10C4
100
AcDbEntity
  8
0
 62
     3
100
AcDbLine
 10
203.9126809593045
 20
286.7422605680495
 30
0.0
 11
203.9126756893042
 21
286.4400021180495
 31
0.0
  0
LINE
  5
1128
330
10C4
100
AcDbEntity
  8
0
 62
     3
100
AcDbLine
 10
199.9738395093043
 20
281.1105300180494
 30
0.0
 11
199.9738395093043
 21
280.8082998080495
 31
0.0
  0
LINE
  5
1129
330
10C4
100
AcDbEntity
  8
0
 62
     3
100
AcDbLine
 10
199.3513424993043
 20
284.2881399480494
 30
0.0
 11
201.5262425793044
 21
280.8082998080495
 31
0.0
  0
LINE
  5
112A
330
10C4
100
AcDbEntity
  8
0
 62
     3
100
AcDbLine
 10
201.5262425793044
 20
280.8082998080495
 30
0.0
 11
202.9825750493044
 21
280.8082998080495
 31
0.0
  0
LINE
  5
112B
330
10C4
100
AcDbEntity
  8
0
 62
     3
100
AcDbLine
 10
203.6050720493045
 20
286.7422323280495
 30
0.0
 11
203.6050720493045
 21
286.4400021180495
 31
0.0
  0
LINE
  5
112C
330
10C4
100
AcDbEntity
  8
0
 62
     3
100
AcDbLine
 10
201.4061215793045
 20
286.7422323280495
 30
0.0
 11
203.6050720493045
 21
286.7422323280495
 31
0.0
  0
LINE
  5
112D
330
10C4
100
AcDbEntity
  8
0
 62
     3
100
AcDbLine
 10
201.4061215793045
 20
286.7422323280495
 30
0.0
 11
201.4061215793045
 21
286.4400021180495
 31
0.0
  0
LINE
  5
112E
330
10C4
100
AcDbEntity
  8
0
 62
     3
100
AcDbLine
 10
202.0286185893044
 20
284.0545661180495
 30
0.0
 11
200.2648376493044
 21
286.7422323280495
 31
0.0
  0
LINE
  5
112F
330
10C4
100
AcDbEntity
  8
0
 62
     3
100
AcDbLine
 10
197.7748890393043
 20
286.7422323280495
 30
0.0
 11
200.2648376493044
 21
286.7422323280495
 31
0.0
  0
LINE
  5
1130
330
10C4
100
AcDbEntity
  8
0
 62
     3
100
AcDbLine
 10
211.9409095593044
 20
286.7420912980494
 30
0.0
 11
214.7298560393042
 21
286.7420912980494
 31
0.0
  0
LINE
  5
1131
330
10C4
100
AcDbEntity
  8
0
 62
     3
100
AcDbLine
 10
211.9409095593044
 20
286.4400021180495
 30
0.0
 11
211.9409095593044
 21
286.7420912980494
 31
0.0
  0
LINE
  5
1132
330
10C4
100
AcDbEntity
  8
0
 62
     3
100
AcDbLine
 10
211.9409095593044
 20
280.8081587880495
 30
0.0
 11
211.9409095593044
 21
281.1105300180494
 31
0.0
  0
LINE
  5
1133
330
10C4
100
AcDbEntity
  8
0
 62
     3
100
AcDbLine
 10
211.9409095593044
 20
280.8081587880495
 30
0.0
 11
214.7298560393042
 21
280.8081587880495
 31
0.0
  0
LINE
  5
1134
330
10C4
100
AcDbEntity
  8
0
 62
     3
100
AcDbLine
 10
215.0208935993044
 20
281.1105300180494
 30
0.0
 11
215.0208935993044
 21
280.8081587880495
 31
0.0
  0
LINE
  5
1135
330
10C4
100
AcDbEntity
  8
0
 62
     3
100
AcDbLine
 10
214.7298560393042
 20
281.1105300180494
 30
0.0
 11
214.7298560393042
 21
280.8081587880495
 31
0.0
  0
LINE
  5
1136
330
10C4
100
AcDbEntity
  8
0
 62
     3
100
AcDbLine
 10
214.7298560393042
 20
286.4400021180495
 30
0.0
 11
214.7298560393042
 21
286.7420912980494
 31
0.0
  0
LINE
  5
1137
330
10C4
100
AcDbEntity
  8
0
 62
     3
100
AcDbLine
 10
215.0208935993044
 20
286.4400021180495
 30
0.0
 11
215.0208935993044
 21
286.7420912980494
 31
0.0
  0
LINE
  5
1138
330
10C4
100
AcDbEntity
  8
0
 62
     3
100
AcDbLine
 10
197.7748890393043
 20
281.1105300180494
 30
0.0
 11
197.7748890393043
 21
280.8082998080495
 31
0.0
  0
LINE
  5
1139
330
10C4
100
AcDbEntity
  8
0
 62
     3
100
AcDbLine
 10
197.7748890393043
 20
286.7422323280495
 30
0.0
 11
197.7748890393043
 21
286.4400021180495
 31
0.0
  0
ARC
  5
113A
330
10C4
100
AcDbEntity
  8
0
 62
     3
100
AcDbCircle
 10
224.3028799993044
 20
284.3977630780495
 30
0.0
 40
2.344469249999999
100
AcDbArc
 50
17.30874897999644
 51
23.76507095999633
  0
ARC
  5
113B
330
10C4
100
AcDbEntity
  8
0
 62
     3
100
AcDbCircle
 10
222.3053465693042
 20
283.7752660680494
 30
0.0
 40
4.43675086
100
AcDbArc
 50
342.6912510200036
 51
17.30856643999929
  0
ARC
  5
113C
330
10C4
100
AcDbEntity
  8
0
 62
     3
100
AcDbCircle
 10
224.3028799993044
 20
283.1527690580495
 30
0.0
 40
2.344469249999999
100
AcDbArc
 50
336.2349290400003
 51
342.6912510200036
  0
ARC
  5
113D
330
10C4
100
AcDbEntity
  8
0
 62
     3
100
AcDbCircle
 10
224.0028799993043
 20
284.3977630780495
 30
0.0
 40
2.344469249999999
100
AcDbArc
 50
17.30874897999644
 51
90.0
  0
ARC
  5
113E
330
10C4
100
AcDbEntity
  8
0
 62
     3
100
AcDbCircle
 10
222.0053465693045
 20
283.7752660680494
 30
0.0
 40
4.43675086
100
AcDbArc
 50
342.6912510200036
 51
17.30856643999929
  0
ARC
  5
113F
330
10C4
100
AcDbEntity
  8
0
 62
     3
100
AcDbCircle
 10
224.0028799993043
 20
283.1527690580495
 30
0.0
 40
2.344469249999999
100
AcDbArc
 50
270.0
 51
342.6912510200036
  0
ARC
  5
1140
330
10C4
100
AcDbEntity
  8
0
 62
     3
100
AcDbCircle
 10
209.5401080293043
 20
283.7752660680494
 30
0.0
 40
2.966966259999999
100
AcDbArc
 50
46.75287960999425
 51
89.74999828999569
  0
ARC
  5
1141
330
10C4
100
AcDbEntity
  8
0
 62
     3
100
AcDbCircle
 10
209.5401080293043
 20
283.7752660680494
 30
0.0
 40
2.966966259999999
100
AcDbArc
 50
273.976333149997
 51
312.8231203899988
  0
ARC
  5
1142
330
10C4
100
AcDbEntity
  8
0
 62
     3
100
AcDbCircle
 10
225.8855479593044
 20
283.7294638880495
 30
0.0
 40
3.936984289999999
100
AcDbArc
 50
0.6665840599997753
 51
23.90392827000138
  0
ARC
  5
1143
330
10C4
100
AcDbEntity
  8
0
 62
     3
100
AcDbCircle
 10
231.4792083493044
 20
283.7294638880495
 30
0.0
 40
3.936984289999999
100
AcDbArc
 50
156.0960717299986
 51
179.3334159400002
  0
ARC
  5
1144
330
10C4
100
AcDbEntity
  8
0
 62
     3
100
AcDbCircle
 10
225.8855479593044
 20
283.8210682480494
 30
0.0
 40
3.936984289999999
100
AcDbArc
 50
336.0960717299986
 51
359.3334159400003
  0
ARC
  5
1145
330
10C4
100
AcDbEntity
  8
0
 62
     3
100
AcDbCircle
 10
231.4792083493044
 20
283.8210682480494
 30
0.0
 40
3.936984289999999
100
AcDbArc
 50
180.6665840599997
 51
203.9039282700014
  0
LINE
  5
1146
330
10C4
100
AcDbEntity
  8
0
 62
     3
100
AcDbLine
 10
238.6567247493044
 20
283.9999999780495
 30
0.0
 11
409.9999995693042
 21
283.9999999780495
 31
0.0
  0
LINE
  5
1147
330
10C4
100
AcDbEntity
  8
0
 62
     3
100
AcDbLine
 10
190.1026900793045
 20
283.9999999780495
 30
0.0
 11
19.99999956930423
 21
283.9999999780495
 31
0.0
  0
LINE
  5
1148
330
10C4
100
AcDbEntity
  8
0
 62
     3
100
AcDbLine
 10
7.598075779304281
 20
150.4446389280494
 30
0.0
 11
4.999999569304236
 21
148.9446389280494
 31
0.0
  0
LINE
  5
1149
330
10C4
100
AcDbEntity
  8
0
 62
     3
100
AcDbLine
 10
7.598075779304281
 20
150.4446389280494
 30
0.0
 11
4.999999569304236
 21
151.9446389280494
 31
0.0
  0
LINE
  5
114A
330
10C4
100
AcDbEntity
  8
0
 62
     3
100
AcDbLine
 10
4.999999569304236
 20
148.9446389280494
 30
0.0
 11
4.999999569304236
 21
151.9446389280494
 31
0.0
  0
LINE
  5
114B
330
10C4
100
AcDbEntity
  8
0
 62
   254
370
     0
100
AcDbLine
 10
-0.0000004306955361
 20
-0.0000000219505125
 30
0.0
 11
-0.0000004306955361
 21
291.9999999780495
 31
0.0
  0
LINE
  5
114C
330
10C4
100
AcDbEntity
  8
0
 62
   254
370
     0
100
AcDbLine
 10
-0.0000004306955361
 20
291.9999999780495
 30
0.0
 11
419.9999995693044
 21
291.9999999780495
 31
0.0
  0
LINE
  5
114D
330
10C4
100
AcDbEntity
  8
0
 62
     3
100
AcDbLine
 10
357.9999995693045
 20
9.999999978049487
 30
0.0
 11
357.9999995693045
 21
49.99999997804948
 31
0.0
  0
LINE
  5
114E
330
10C4
100
AcDbEntity
  8
0
 62
     3
100
AcDbLine
 10
370.9999995693045
 20
19.99999997804948
 30
0.0
 11
370.9999995693045
 21
47.99999997804948
 31
0.0
  0
LINE
  5
114F
330
10C4
100
AcDbEntity
  8
0
 62
     3
100
AcDbLine
 10
330.9999995693045
 20
19.99999997804948
 30
0.0
 11
330.9999995693045
 21
33.99999997804949
 31
0.0
  0
LINE
  5
1150
330
10C4
100
AcDbEntity
  8
0
 62
     3
100
AcDbLine
 10
340.9999995693045
 20
33.99999997804949
 30
0.0
 11
340.9999995693045
 21
9.999999978049487
 31
0.0
  0
LINE
  5
1151
330
10C4
100
AcDbEntity
  8
0
 62
     3
100
AcDbLine
 10
311.9999995693045
 20
49.99999997804948
 30
0.0
 11
311.9999995693045
 21
26.99999997804949
 31
0.0
  0
LINE
  5
1152
330
10C4
100
AcDbEntity
  8
0
 62
     3
100
AcDbLine
 10
370.9999995693045
 20
47.99999997804948
 30
0.0
 11
370.9999995693045
 21
49.99999997804948
 31
0.0
  0
LINE
  5
1153
330
10C4
100
AcDbEntity
  8
0
 62
     3
100
AcDbLine
 10
383.9999995693045
 20
26.99999997804949
 30
0.0
 11
383.9999995693045
 21
49.99999997804948
 31
0.0
  0
LINE
  5
1154
330
10C4
100
AcDbEntity
  8
0
 62
     3
100
AcDbLine
 10
409.9999995693044
 20
49.99999997804948
 30
0.0
 11
298.7545649293045
 21
49.9999999780495
 31
0.0
  0
LINE
  5
1155
330
10C4
100
AcDbEntity
  8
0
 62
     3
100
AcDbLine
 10
409.9999995693044
 20
40.99999997804949
 30
0.0
 11
298.7545649293045
 21
40.99999997804949
 31
0.0
  0
LINE
  5
1156
330
10C4
100
AcDbEntity
  8
0
 62
     3
100
AcDbLine
 10
409.9999995693044
 20
26.99999997804949
 30
0.0
 11
298.7545649293045
 21
26.99999997804949
 31
0.0
  0
LINE
  5
1157
330
10C4
100
AcDbEntity
  8
0
 62
     3
100
AcDbLine
 10
409.9999995693044
 20
19.99999997804948
 30
0.0
 11
298.6965570693044
 21
19.99999997804948
 31
0.0
  0
LINE
  5
1158
330
10C4
100
AcDbEntity
  8
0
 62
     3
100
AcDbLine
 10
396.9999995693044
 20
26.99999997804949
 30
0.0
 11
396.9999995693044
 21
49.99999997804948
 31
0.0
  0
LINE
  5
1159
330
10C4
100
AcDbEntity
  8
0
 62
     3
100
AcDbLine
 10
298.7545649293045
 20
49.9999999780495
 30
0.0
 11
298.7545649293045
 21
9.999999978049487
 31
0.0
  0
LINE
  5
115A
330
10C4
100
AcDbEntity
  8
0
 62
     3
100
AcDbLine
 10
357.9999995693045
 20
33.99999997804949
 30
0.0
 11
298.7545649293045
 21
33.99999997804947
 31
0.0
  0
LINE
  5
115B
330
10C4
100
AcDbEntity
  8
0
 62
     3
100
AcDbLine
 10
341.2783244993043
 20
14.83286123804947
 30
0.0
 11
357.9999995693045
 21
14.83286123804947
 31
0.0
  0
TEXT
  5
115C
330
10C4
100
AcDbEntity
  8
0
 62
     3
100
AcDbText
 10
342.1643249826202
 20
29.07309683141483
 30
0.0
 40
2.5
  1
******
  7
高2.5
100
AcDbText
  0
TEXT
  5
115D
330
10C4
100
AcDbEntity
  8
0
 62
     3
100
AcDbText
 10
313.1963682645567
 20
29.2978143830334
 30
0.0
 40
2.5
  1
*****
  7
高2.5
100
AcDbText
  0
TEXT
  5
115E
330
10C4
100
AcDbEntity
  8
0
 62
     3
100
AcDbText
 10
313.461276019254
 20
42.31224950180737
 30
0.0
 40
4.5
  1
**********
  7
高4.5
100
AcDbText
1001
ACAD
1000
ACAD_MTEXT_DEFINED_HEIGHT_BEGIN
1070
    46
1040
0.0
1000
ACAD_MTEXT_DEFINED_HEIGHT_END
  0
TEXT
  5
115F
330
10C4
100
AcDbEntity
  8
0
 62
     3
100
AcDbText
 10
400.0655886627785
 20
46.51369207675307
 30
0.0
 40
2.0
  1
DEF
  7
高2
100
AcDbText
  0
TEXT
  5
1160
330
10C4
100
AcDbEntity
  8
0
 62
     3
100
AcDbText
 10
386.1264903090703
 20
46.51369207675299
 30
0.0
 40
2.0
  1
DESN
  7
高2
100
AcDbText
  0
TEXT
  5
1161
330
10C4
100
AcDbEntity
  8
0
 62
     3
100
AcDbText
 10
359.8721233690701
 20
46.51369207675307
 30
0.0
 40
2.0
  1
APPD
  7
高2
100
AcDbText
  0
TEXT
  5
1162
330
10C4
100
AcDbEntity
  8
0
 62
     3
100
AcDbText
 10
372.9848594693044
 20
46.5136920767531
 30
0.0
 40
2.0
  1
CHCK
  7
高2
100
AcDbText
  0
TEXT
  5
1163
330
10C4
100
AcDbEntity
  8
0
 62
     3
100
AcDbText
 10
331.9271652084572
 20
24.16839880128021
 30
0.0
 40
2.0
  1
SCALE
 41
0.8
  7
高2
100
AcDbText
  0
TEXT
  5
1164
330
10C4
100
AcDbEntity
  8
0
 62
     3
100
AcDbText
 10
300.4391436323506
 20
24.16839880128022
 30
0.0
 40
2.0
  1
3AD　ANGLE
 41
1.5
  7
高2
100
AcDbText
  0
TEXT
  5
1165
330
10C4
100
AcDbEntity
  8
0
 62
     3
100
AcDbText
 10
331.1965708993059
 20
30.91993687023731
 30
0.0
 40
2.0
  1
REMARKS
 41
0.7
  7
高2
100
AcDbText
  0
TEXT
  5
1166
330
10C4
100
AcDbEntity
  8
0
 62
     3
100
AcDbText
 10
300.2222352793044
 20
30.99999997804949
 30
0.0
 40
2.0
  1
MATERIAL
 41
0.7
  7
高2
100
AcDbText
  0
TEXT
  5
1167
330
10C4
100
AcDbEntity
  8
0
 62
     3
100
AcDbText
 10
300.7987224820586
 20
37.99999997804948
 30
0.0
 40
2.0
  1
MODEL
  7
高2
100
AcDbText
  0
TEXT
  5
1168
330
10C4
100
AcDbEntity
  8
0
 62
     3
100
AcDbText
 10
300.4356433633898
 20
46.70702132864849
 30
0.0
 40
2.0
  1
CONPONENTS
 41
0.5
  7
高2
100
AcDbText
  0
TEXT
  5
1169
330
10C4
100
AcDbEntity
  8
0
 62
     3
100
AcDbText
 10
313.1427588345566
 20
35.08748110586143
 30
0.0
 40
4.5
  1
********
  7
高4.5
100
AcDbText
  0
TEXT
  5
116A
330
10C4
100
AcDbEntity
  8
0
 62
     3
100
AcDbText
 10
361.065045299923
 20
12.03846137341507
 30
0.0
 40
6.299999999999999
  1
*-********
 41
0.6
  7
高6.3
100
AcDbText
1001
ACAD
1000
ACAD_MTEXT_DEFINED_HEIGHT_BEGIN
1070
    46
1040
0.0
1000
ACAD_MTEXT_DEFINED_HEIGHT_END
  0
TEXT
  5
116B
330
10C4
100
AcDbEntity
  8
0
 62
     3
100
AcDbText
 10
374.563509319634
 20
21.10088913628249
 30
0.0
 40
3.2
  1
******
  7
高3.2
100
AcDbText
1001
ACAD
1000
ACAD_MTEXT_DEFINED_HEIGHT_BEGIN
1070
    46
1040
0.0
1000
ACAD_MTEXT_DEFINED_HEIGHT_END
  0
TEXT
  5
116C
330
10C4
100
AcDbEntity
  8
0
 62
     3
100
AcDbText
 10
344.7875974639508
 20
21.10091698061736
 30
0.0
 40
3.2
  1
1/1
  7
高3.2
100
AcDbText
  0
TEXT
  5
116D
330
10C4
100
AcDbEntity
  8
0
 62
     3
100
AcDbText
 10
341.8649264393043
 20
10.81687815118545
 30
0.0
 40
3.2
  1
ZK-A3X
 41
0.8
  7
高3.2
100
AcDbText
  0
TEXT
  5
116E
330
10C4
100
AcDbEntity
  8
0
 62
     3
100
AcDbText
 10
299.5852659693044
 20
16.52462040023731
 30
0.0
 40
2.0
  1
NICHIDO IND.CO.LTD
 41
1.3
  7
高2
100
AcDbText
  0
TEXT
  5
116F
330
10C4
100
AcDbEntity
  8
0
 62
     3
100
AcDbText
 10
300.7667892342615
 20
42.14052818593441
 30
0.0
 40
3.2
  1
品 名
  7
高3.2
100
AcDbText
1001
ACAD
1000
ACAD_MTEXT_DEFINED_HEIGHT_BEGIN
1070
    46
1040
0.0
1000
ACAD_MTEXT_DEFINED_HEIGHT_END
  0
TEXT
  5
1170
330
10C4
100
AcDbEntity
  8
0
 62
     3
100
AcDbText
 10
300.7667892342615
 20
34.49999997804948
 30
0.0
 40
3.2
  1
型 式
  7
高3.2
100
AcDbText
1001
ACAD
1000
ACAD_MTEXT_DEFINED_HEIGHT_BEGIN
1070
    46
1040
3.064735913775955
1000
ACAD_MTEXT_DEFINED_HEIGHT_END
  0
TEXT
  5
1171
330
10C4
100
AcDbEntity
  8
0
 62
     3
100
AcDbText
 10
300.7667892342615
 20
27.49999997804949
 30
0.0
 40
3.2
  1
材 質
  7
高3.2
100
AcDbText
1001
ACAD
1000
ACAD_MTEXT_DEFINED_HEIGHT_BEGIN
1070
    46
1040
0.0
1000
ACAD_MTEXT_DEFINED_HEIGHT_END
  0
TEXT
  5
1172
330
10C4
100
AcDbEntity
  8
0
 62
     3
100
AcDbText
 10
300.4617542842616
 20
20.46743997029573
 30
0.0
 40
3.2
  1
第 三 角 法
  7
高3.2
100
AcDbText
1001
ACAD
1000
ACAD_MTEXT_DEFINED_HEIGHT_BEGIN
1070
    46
1040
0.0
1000
ACAD_MTEXT_DEFINED_HEIGHT_END
  0
TEXT
  5
1173
330
10C4
100
AcDbEntity
  8
0
 62
     3
100
AcDbText
 10
298.8682868917904
 20
11.14052818593441
 30
0.0
 40
3.2
  1
日動工業株式会社
 41
1.199999999999999
  7
高3.2
100
AcDbText
1001
ACAD
1000
ACAD_MTEXT_DEFINED_HEIGHT_BEGIN
1070
    46
1040
0.0
1000
ACAD_MTEXT_DEFINED_HEIGHT_END
  0
TEXT
  5
1174
330
10C4
100
AcDbEntity
  8
0
 62
     3
100
AcDbText
 10
332.5039110912689
 20
27.38457851121705
 30
0.0
 40
3.2
  1
備考
  7
高3.2
100
AcDbText
1001
ACAD
1000
ACAD_MTEXT_DEFINED_HEIGHT_BEGIN
1070
    46
1040
0.0
1000
ACAD_MTEXT_DEFINED_HEIGHT_END
  0
TEXT
  5
1175
330
10C4
100
AcDbEntity
  8
0
 62
     3
100
AcDbText
 10
342.1529685383043
 20
16.14623000361978
 30
0.0
 40
2.5
  1
出図コード
  7
高2.5
100
AcDbText
1001
ACAD
1000
ACAD_MTEXT_DEFINED_HEIGHT_BEGIN
1070
    46
1040
0.0
1000
ACAD_MTEXT_DEFINED_HEIGHT_END
  0
TEXT
  5
1176
330
10C4
100
AcDbEntity
  8
0
 62
     3
100
AcDbText
 10
332.3451449731815
 20
20.45323488846241
 30
0.0
 40
3.2
  1
尺度
  7
高3.2
100
AcDbText
1001
ACAD
1000
ACAD_MTEXT_DEFINED_HEIGHT_BEGIN
1070
    46
1040
0.0
1000
ACAD_MTEXT_DEFINED_HEIGHT_END
  0
TEXT
  5
1177
330
10C4
100
AcDbEntity
  8
0
 62
     3
100
AcDbText
 10
359.4914064549603
 20
21.5847133365799
 30
0.0
 40
3.2
  1
作成日
  7
高3.2
100
AcDbText
1001
ACAD
1000
ACAD_MTEXT_DEFINED_HEIGHT_BEGIN
1070
    46
1040
0.0
1000
ACAD_MTEXT_DEFINED_HEIGHT_END
  0
TEXT
  5
1178
330
10C4
100
AcDbEntity
  8
0
 62
     3
100
AcDbText
 10
359.3858804618242
 20
42.14052818593441
 30
0.0
 40
3.2
  1
承 認
  7
高3.2
100
AcDbText
1001
ACAD
1000
ACAD_MTEXT_DEFINED_HEIGHT_BEGIN
1070
    46
1040
0.0
1000
ACAD_MTEXT_DEFINED_HEIGHT_END
  0
TEXT
  5
1179
330
10C4
100
AcDbEntity
  8
0
 62
     3
100
AcDbText
 10
372.3858804618242
 20
42.14052818593441
 30
0.0
 40
3.2
  1
検 図
  7
高3.2
100
AcDbText
1001
ACAD
1000
ACAD_MTEXT_DEFINED_HEIGHT_BEGIN
1070
    46
1040
0.0
1000
ACAD_MTEXT_DEFINED_HEIGHT_END
  0
TEXT
  5
117A
330
10C4
100
AcDbEntity
  8
0
 62
     3
100
AcDbText
 10
385.3858804618242
 20
42.14052818593441
 30
0.0
 40
3.2
  1
設 計
  7
高3.2
100
AcDbText
1001
ACAD
1000
ACAD_MTEXT_DEFINED_HEIGHT_BEGIN
1070
    46
1040
0.0
1000
ACAD_MTEXT_DEFINED_HEIGHT_END
  0
TEXT
  5
117B
330
10C4
100
AcDbEntity
  8
0
 62
     3
100
AcDbText
 10
398.6865169818241
 20
42.14052818593441
 30
0.0
 40
3.2
  1
製 図
  7
高3.2
100
AcDbText
1001
ACAD
1000
ACAD_MTEXT_DEFINED_HEIGHT_BEGIN
1070
    46
1040
0.0
1000
ACAD_MTEXT_DEFINED_HEIGHT_END
  0
TEXT
  5
117C
330
10C4
100
AcDbEntity
  8
0
 62
     3
100
AcDbText
 10
397.4999995693043
 20
274.4999999780495
 30
0.0
 40
3.2
  1
担　当
  7
高3.2
100
AcDbText
  0
TEXT
  5
117D
330
10C4
100
AcDbEntity
  8
0
 62
     3
100
AcDbText
 10
353.4999995693042
 20
274.4999999780495
 30
0.0
 40
3.2
  1
変更・追記内容
  7
高3.2
100
AcDbText
  0
TEXT
  5
117E
330
10C4
100
AcDbEntity
  8
0
 62
     3
100
AcDbText
 10
328.6135145696435
 20
269.8294614681412
 30
0.0
 40
2.0
  1
1
  7
高2
100
AcDbText
  0
TEXT
  5
117F
330
10C4
100
AcDbEntity
  8
0
 62
     3
100
AcDbText
 10
328.3050030928862
 20
264.6596447558683
 30
0.0
 40
2.0
  1
2
  7
高2
100
AcDbText
  0
TEXT
  5
1180
330
10C4
100
AcDbEntity
  8
0
 62
     3
100
AcDbText
 10
335.4999995693042
 20
274.4999999780495
 30
0.0
 40
3.2
  1
日　付
  7
高3.2
100
AcDbText
  0
TEXT
  5
1181
330
10C4
100
AcDbEntity
  8
0
 62
     3
100
AcDbText
 10
335.4999995693042
 20
279.4999999780495
 30
0.0
 40
3.2
  1
図　　　　面　　　　略　　　　歴
  7
高3.2
100
AcDbText
  0
TEXT
  5
1182
330
10C4
100
AcDbEntity
  8
0
 62
     3
100
AcDbText
 10
325.4999995693042
 20
274.4999999780495
 30
0.0
 40
3.2
  1
記号
  7
高3.2
100
AcDbText
  0
LINE
  5
1183
330
10C4
100
AcDbEntity
  8
0
 62
     7
100
AcDbLine
 10
328.9999995693043
 20
267.7908959780495
 30
0.0
 11
327.0999995693044
 21
264.4999999780495
 31
0.0
  0
LINE
  5
1184
330
10C4
100
AcDbEntity
  8
0
 62
     7
100
AcDbLine
 10
328.9999995693043
 20
267.7908959780495
 30
0.0
 11
330.8999995693043
 21
264.4999999780495
 31
0.0
  0
LINE
  5
1185
330
10C4
100
AcDbEntity
  8
0
 62
     7
100
AcDbLine
 10
327.0999995693044
 20
264.4999999780495
 30
0.0
 11
330.8999995693043
 21
264.4999999780495
 31
0.0
  0
LINE
  5
1186
330
10C4
100
AcDbEntity
  8
0
 62
     7
100
AcDbLine
 10
328.9999995693043
 20
272.7908969780496
 30
0.0
 11
327.0999995693044
 21
269.4999999780494
 31
0.0
  0
LINE
  5
1187
330
10C4
100
AcDbEntity
  8
0
 62
     7
100
AcDbLine
 10
328.9999995693043
 20
272.7908969780496
 30
0.0
 11
330.8999995693043
 21
269.4999999780494
 31
0.0
  0
LINE
  5
1188
330
10C4
100
AcDbEntity
  8
0
 62
     7
100
AcDbLine
 10
327.0999995693044
 20
269.4999999780494
 30
0.0
 11
330.8999995693043
 21
269.4999999780494
 31
0.0
  0
LINE
  5
1189
330
10C4
100
AcDbEntity
  8
0
 62
     3
100
AcDbLine
 10
323.9999995693042
 20
278.9999999780495
 30
0.0
 11
409.9999995693042
 21
278.9999999780495
 31
0.0
  0
LINE
  5
118A
330
10C4
100
AcDbEntity
  8
0
 62
     3
100
AcDbLine
 10
323.9999995693042
 20
273.9999999780494
 30
0.0
 11
409.9999995693042
 21
273.9999999780494
 31
0.0
  0
LINE
  5
118B
330
10C4
100
AcDbEntity
  8
0
 62
     7
100
AcDbLine
 10
323.9999995693042
 20
268.9999999780495
 30
0.0
 11
409.9999995693042
 21
268.9999999780495
 31
0.0
  0
LINE
  5
118C
330
10C4
100
AcDbEntity
  8
0
 62
     3
100
AcDbLine
 10
323.9999995693042
 20
263.9999999780495
 30
0.0
 11
409.9999995693042
 21
263.9999999780495
 31
0.0
  0
LINE
  5
118D
330
10C4
100
AcDbEntity
  8
0
 62
     7
100
AcDbLine
 10
395.9999995693042
 20
263.9999999780495
 30
0.0
 11
395.9999995693042
 21
278.9999999780495
 31
0.0
  0
LINE
  5
118E
330
10C4
100
AcDbEntity
  8
0
 62
     7
100
AcDbLine
 10
351.9999995693043
 20
263.9999999780495
 30
0.0
 11
351.9999995693043
 21
278.9999999780495
 31
0.0
  0
LINE
  5
118F
330
10C4
100
AcDbEntity
  8
0
 62
     7
100
AcDbLine
 10
333.9999995693042
 20
263.9999999780495
 30
0.0
 11
333.9999995693042
 21
278.9999999780495
 31
0.0
  0
LINE
  5
1190
330
10C4
100
AcDbEntity
  8
0
 62
     3
100
AcDbLine
 10
323.9999995693042
 20
263.9999999780495
 30
0.0
 11
323.9999995693042
 21
283.9999999780495
 31
0.0
  0
ENDBLK
  5
1194
330
10C4
100
AcDbEntity
  8
0
100
AcDbBlockEnd
  0
BLOCK
  5
11AB
330
11A8
100
AcDbEntity
  8
0
100
AcDbBlockBegin
  2
A$C369B3533
 70
     0
 10
0.0
 20
0.0
 30
0.0
  3
A$C369B3533
  1

  0
LINE
  5
11AC
330
11A8
100
AcDbEntity
  8
0
 62
     3
100
AcDbLine
 10
8.487927449920789
 20
138.4999996444132
 30
0.0
 11
8.000000619920911
 21
138.4999996444132
 31
0.0
  0
LINE
  5
11AD
330
11A8
100
AcDbEntity
  8
0
 62
     3
100
AcDbLine
 10
20.00000061992091
 20
276.9999996444133
 30
0.0
 11
20.00000061992091
 21
-0.0000003555867352
 31
0.0
  0
LINE
  5
11AE
330
11A8
100
AcDbEntity
  8
0
 62
   254
100
AcDbLine
 10
0.000000619920911
 20
286.9999996444132
 30
0.0
 11
0.000000619920911
 21
-0.0000003555867352
 31
0.0
  0
LINE
  5
11AF
330
11A8
100
AcDbEntity
  8
0
 62
     3
100
AcDbLine
 10
200.0000006199209
 20
-0.0000003555867352
 30
0.0
 11
200.0000006199209
 21
276.9999996444133
 31
0.0
  0
LINE
  5
11B0
330
11A8
100
AcDbEntity
  8
0
 62
     3
100
AcDbLine
 10
20.00000061992091
 20
-0.0000003555867352
 30
0.0
 11
200.0000006199209
 21
-0.0000003555867352
 31
0.0
  0
LINE
  5
11B1
330
11A8
100
AcDbEntity
  8
0
 62
     3
100
AcDbLine
 10
57.08435263992078
 20
278.7874437444133
 30
0.0
 11
57.52010054992092
 21
278.5599756044133
 31
0.0
  0
LINE
  5
11B2
330
11A8
100
AcDbEntity
  8
0
 62
     3
100
AcDbLine
 10
57.08435263992078
 20
275.0568132644133
 30
0.0
 11
57.52010054992092
 21
275.2842814044133
 31
0.0
  0
LINE
  5
11B3
330
11A8
100
AcDbEntity
  8
0
 62
     3
100
AcDbLine
 10
57.52010054992092
 20
278.5599756044133
 30
0.0
 11
57.52010054992092
 21
275.2842814044133
 31
0.0
  0
LINE
  5
11B4
330
11A8
100
AcDbEntity
  8
0
 62
     3
100
AcDbLine
 10
58.62361796992082
 20
275.0568132644133
 30
0.0
 11
58.18787005992067
 21
275.2842814044133
 31
0.0
  0
LINE
  5
11B5
330
11A8
100
AcDbEntity
  8
0
 62
     3
100
AcDbLine
 10
58.18787005992067
 20
277.2811402144133
 30
0.0
 11
58.18787005992067
 21
275.2842814044133
 31
0.0
  0
LINE
  5
11B6
330
11A8
100
AcDbEntity
  8
0
 62
     3
100
AcDbLine
 10
61.16548074992079
 20
278.7874437444133
 30
0.0
 11
60.72973283992087
 21
278.5599756044133
 31
0.0
  0
LINE
  5
11B7
330
11A8
100
AcDbEntity
  8
0
 62
     3
100
AcDbLine
 10
59.62621541992075
 20
278.7874437444133
 30
0.0
 11
60.06196332992089
 21
278.5599756044133
 31
0.0
  0
LINE
  5
11B8
330
11A8
100
AcDbEntity
  8
0
 62
     3
100
AcDbLine
 10
60.06196332992089
 20
278.5599756044133
 30
0.0
 11
60.06196332992089
 21
277.1176385444132
 31
0.0
  0
LINE
  5
11B9
330
11A8
100
AcDbEntity
  8
0
 62
     3
100
AcDbLine
 10
60.72973283992087
 20
278.5599756044133
 30
0.0
 11
60.72973283992087
 21
274.8452521244133
 31
0.0
  0
LINE
  5
11BA
330
11A8
100
AcDbEntity
  8
0
 62
     3
100
AcDbLine
 10
61.38077794992091
 20
278.7874411144132
 30
0.0
 11
61.81652428992084
 21
278.5599699744133
 31
0.0
  0
LINE
  5
11BB
330
11A8
100
AcDbEntity
  8
0
 62
     3
100
AcDbLine
 10
61.38069997992079
 20
275.0568632444133
 30
0.0
 11
61.81645582992087
 21
275.2843161644133
 31
0.0
  0
LINE
  5
11BC
330
11A8
100
AcDbEntity
  8
0
 62
     3
100
AcDbLine
 10
61.81652428992084
 20
278.5599699744133
 30
0.0
 11
61.81652428992084
 21
275.2843161644133
 31
0.0
  0
LINE
  5
11BD
330
11A8
100
AcDbEntity
  8
0
 62
     3
100
AcDbLine
 10
63.31031434992087
 20
278.7874174444132
 30
0.0
 11
62.87456325992093
 21
278.5599554144133
 31
0.0
  0
LINE
  5
11BE
330
11A8
100
AcDbEntity
  8
0
 62
     3
100
AcDbLine
 10
62.87456325992093
 20
278.5599554144133
 30
0.0
 11
62.87456325992093
 21
275.2843015944133
 31
0.0
  0
LINE
  5
11BF
330
11A8
100
AcDbEntity
  8
0
 62
     3
100
AcDbLine
 10
63.31031434992087
 20
275.0568395644133
 30
0.0
 11
62.87456325992093
 21
275.2843015944133
 31
0.0
  0
LINE
  5
11C0
330
11A8
100
AcDbEntity
  8
0
 62
     3
100
AcDbLine
 10
67.00056778992075
 20
278.7873764444133
 30
0.0
 11
67.43631490992084
 21
278.5599068044132
 31
0.0
  0
LINE
  5
11C1
330
11A8
100
AcDbEntity
  8
0
 62
     3
100
AcDbLine
 10
67.43631490992084
 20
278.5599068044132
 30
0.0
 11
67.43625773992085
 21
275.2842529944132
 31
0.0
  0
LINE
  5
11C2
330
11A8
100
AcDbEntity
  8
0
 62
     3
100
AcDbLine
 10
67.00050267992082
 20
275.0567985644133
 30
0.0
 11
67.43625773992085
 21
275.2842529944132
 31
0.0
  0
LINE
  5
11C3
330
11A8
100
AcDbEntity
  8
0
 62
     3
100
AcDbLine
 10
68.95282874992085
 20
278.7873764444133
 30
0.0
 11
68.51708162992077
 21
278.5599068044132
 31
0.0
  0
LINE
  5
11C4
330
11A8
100
AcDbEntity
  8
0
 62
     3
100
AcDbLine
 10
68.95289385992078
 20
275.0567985644133
 30
0.0
 11
68.51713879992075
 21
275.2842529944132
 31
0.0
  0
LINE
  5
11C5
330
11A8
100
AcDbEntity
  8
0
 62
     3
100
AcDbLine
 10
69.15655660992093
 20
278.7873764444133
 30
0.0
 11
69.59230373992091
 21
278.5599068044132
 31
0.0
  0
LINE
  5
11C6
330
11A8
100
AcDbEntity
  8
0
 62
     3
100
AcDbLine
 10
69.15649149992077
 20
275.0567985644133
 30
0.0
 11
69.5922465599208
 21
275.2842529944132
 31
0.0
  0
LINE
  5
11C7
330
11A8
100
AcDbEntity
  8
0
 62
     3
100
AcDbLine
 10
71.1088175799207
 20
278.7873764444133
 30
0.0
 11
70.67307045992084
 21
278.5599068044132
 31
0.0
  0
LINE
  5
11C8
330
11A8
100
AcDbEntity
  8
0
 62
     3
100
AcDbLine
 10
70.67307045992084
 20
278.5599068044132
 30
0.0
 11
70.67312762992083
 21
275.2842529944132
 31
0.0
  0
LINE
  5
11C9
330
11A8
100
AcDbEntity
  8
0
 62
     3
100
AcDbLine
 10
71.10888268992084
 20
275.0567985644133
 30
0.0
 11
70.67312762992083
 21
275.2842529944132
 31
0.0
  0
LINE
  5
11CA
330
11A8
100
AcDbEntity
  8
0
 62
     3
100
AcDbLine
 10
69.59227882992081
 20
277.1327736844132
 30
0.0
 11
68.51710653992086
 21
277.1327736844132
 31
0.0
  0
LINE
  5
11CB
330
11A8
100
AcDbEntity
  8
0
 62
     3
100
AcDbLine
 10
69.59227146992066
 20
276.7114833244133
 30
0.0
 11
68.51711388992066
 21
276.7114833244133
 31
0.0
  0
LINE
  5
11CC
330
11A8
100
AcDbEntity
  8
0
 62
     3
100
AcDbLine
 10
69.59230373992091
 20
278.5599068044132
 30
0.0
 11
69.59227882992081
 21
277.1327736844132
 31
0.0
  0
LINE
  5
11CD
330
11A8
100
AcDbEntity
  8
0
 62
     3
100
AcDbLine
 10
69.59227146992066
 20
276.7114833244133
 30
0.0
 11
69.5922465599208
 21
275.2842529944132
 31
0.0
  0
LINE
  5
11CE
330
11A8
100
AcDbEntity
  8
0
 62
     3
100
AcDbLine
 10
68.51708162992077
 20
278.5599068044132
 30
0.0
 11
68.51710653992086
 21
277.1327736844132
 31
0.0
  0
LINE
  5
11CF
330
11A8
100
AcDbEntity
  8
0
 62
     3
100
AcDbLine
 10
68.51711388992066
 20
276.7114833244133
 30
0.0
 11
68.51713879992075
 21
275.2842529944132
 31
0.0
  0
LINE
  5
11D0
330
11A8
100
AcDbEntity
  8
0
 62
     3
100
AcDbLine
 10
71.31577669992089
 20
278.7873764444133
 30
0.0
 11
71.75152381992075
 21
278.5599068044132
 31
0.0
  0
LINE
  5
11D1
330
11A8
100
AcDbEntity
  8
0
 62
     3
100
AcDbLine
 10
71.75152381992075
 20
278.5599068044132
 30
0.0
 11
71.75146664992076
 21
275.2842529944132
 31
0.0
  0
LINE
  5
11D2
330
11A8
100
AcDbEntity
  8
0
 62
     3
100
AcDbLine
 10
71.31571158992073
 20
275.0567985644133
 30
0.0
 11
71.75146664992076
 21
275.2842529944132
 31
0.0
  0
LINE
  5
11D3
330
11A8
100
AcDbEntity
  8
0
 62
     3
100
AcDbLine
 10
73.2452869699207
 20
278.7873764444133
 30
0.0
 11
72.80953984992084
 21
278.5599068044132
 31
0.0
  0
LINE
  5
11D4
330
11A8
100
AcDbEntity
  8
0
 62
     3
100
AcDbLine
 10
72.80953984992084
 20
278.5599068044132
 30
0.0
 11
72.80959701992083
 21
275.2842529944132
 31
0.0
  0
LINE
  5
11D5
330
11A8
100
AcDbEntity
  8
0
 62
     3
100
AcDbLine
 10
73.24535207992084
 20
275.0567985644133
 30
0.0
 11
72.80959701992083
 21
275.2842529944132
 31
0.0
  0
LINE
  5
11D6
330
11A8
100
AcDbEntity
  8
0
 62
     3
100
AcDbLine
 10
73.45964653992087
 20
278.7873764444133
 30
0.0
 11
73.89539365992073
 21
278.5599068044132
 31
0.0
  0
LINE
  5
11D7
330
11A8
100
AcDbEntity
  8
0
 62
     3
100
AcDbLine
 10
73.89539365992073
 20
278.5599068044132
 30
0.0
 11
73.89533648992074
 21
275.2842529944132
 31
0.0
  0
LINE
  5
11D8
330
11A8
100
AcDbEntity
  8
0
 62
     3
100
AcDbLine
 10
73.45958142992071
 20
275.0567985644133
 30
0.0
 11
73.89533648992074
 21
275.2842529944132
 31
0.0
  0
ARC
  5
11D9
330
11A8
100
AcDbEntity
  8
0
 62
     3
100
AcDbCircle
 10
65.60865651992094
 20
276.9315182644133
 30
0.0
 40
2.086285909999999
100
AcDbArc
 50
97.70152350999723
 51
270.0
  0
ARC
  5
11DA
330
11A8
100
AcDbEntity
  8
0
 62
     3
100
AcDbCircle
 10
78.48925735992065
 20
276.9105616344133
 30
0.0
 40
2.108943379999999
100
AcDbArc
 50
0.314250269999259
 51
69.00558244998928
  0
ARC
  5
11DB
330
11A8
100
AcDbEntity
  8
0
 62
     3
100
AcDbCircle
 10
78.94993267992072
 20
276.9105616344133
 30
0.0
 40
2.108943379999999
100
AcDbArc
 50
110.9944175499969
 51
148.1166110200049
  0
ARC
  5
11DC
330
11A8
100
AcDbEntity
  8
0
 62
     3
100
AcDbCircle
 10
78.48925735992065
 20
276.9336953744133
 30
0.0
 40
2.108943379999999
100
AcDbArc
 50
290.9944175499969
 51
359.6857497300005
  0
ARC
  5
11DD
330
11A8
100
AcDbEntity
  8
0
 62
     3
100
AcDbCircle
 10
78.94993267992072
 20
276.9336953744133
 30
0.0
 40
2.108943379999999
100
AcDbArc
 50
211.8833889799949
 51
249.0055824499893
  0
ARC
  5
11DE
330
11A8
100
AcDbEntity
  8
0
 62
     3
100
AcDbCircle
 10
78.71959501992091
 20
277.7849338944132
 30
0.0
 40
1.214070989999999
100
AcDbArc
 50
64.36517189999968
 51
115.6348281000003
  0
ARC
  5
11DF
330
11A8
100
AcDbEntity
  8
0
 62
     3
100
AcDbCircle
 10
78.71959501992091
 20
276.0593231144132
 30
0.0
 40
1.214070989999999
100
AcDbArc
 50
244.3651718999997
 51
295.6348281000003
  0
ARC
  5
11E0
330
11A8
100
AcDbEntity
  8
0
 62
     3
100
AcDbCircle
 10
78.71959501992091
 20
277.8079955744133
 30
0.0
 40
0.59585563
100
AcDbArc
 50
19.48660554000477
 51
160.5133944599952
  0
ARC
  5
11E1
330
11A8
100
AcDbEntity
  8
0
 62
     3
100
AcDbCircle
 10
78.71959501992091
 20
276.0593231144132
 30
0.0
 40
1.214070989999999
100
AcDbArc
 50
244.3651718999997
 51
295.6348281000003
  0
ARC
  5
11E2
330
11A8
100
AcDbEntity
  8
0
 62
     3
100
AcDbCircle
 10
78.71959501992091
 20
276.0362614344133
 30
0.0
 40
0.59585563
100
AcDbArc
 50
199.4866055400047
 51
340.513394459995
  0
ARC
  5
11E3
330
11A8
100
AcDbEntity
  8
0
 62
     3
100
AcDbCircle
 10
73.97712251992084
 20
254.6940686644133
 30
0.0
 40
26.04
100
AcDbArc
 50
69.50571480000833
 51
81.68998806999736
  0
ARC
  5
11E4
330
11A8
100
AcDbEntity
  8
0
 62
     3
100
AcDbCircle
 10
73.97712251992084
 20
299.1501883444133
 30
0.0
 40
26.04
100
AcDbArc
 50
278.3100119300026
 51
290.4942851999917
  0
ARC
  5
11E5
330
11A8
100
AcDbEntity
  8
0
 62
     3
100
AcDbCircle
 10
82.28532664992076
 20
276.9221285044133
 30
0.0
 40
2.31
100
AcDbArc
 50
290.4942851999917
 51
69.50571480000833
  0
ARC
  5
11E6
330
11A8
100
AcDbEntity
  8
0
 62
     3
100
AcDbCircle
 10
54.9853266499208
 20
276.9221285044133
 30
0.0
 40
2.31
100
AcDbArc
 50
110.4942851999916
 51
249.5057147999945
  0
ARC
  5
11E7
330
11A8
100
AcDbEntity
  8
0
 62
     3
100
AcDbCircle
 10
63.29353076992084
 20
254.6940686644133
 30
0.0
 40
26.04
100
AcDbArc
 50
98.31001192998947
 51
110.4942851999916
  0
ARC
  5
11E8
330
11A8
100
AcDbEntity
  8
0
 62
     3
100
AcDbCircle
 10
63.29353076992084
 20
299.1501883444133
 30
0.0
 40
26.04
100
AcDbArc
 50
249.5057147999945
 51
261.6899880699973
  0
ARC
  5
11E9
330
11A8
100
AcDbEntity
  8
0
 62
     3
100
AcDbCircle
 10
68.63532664992067
 20
218.1221285044133
 30
0.0
 40
62.99999987
100
AcDbArc
 50
81.68998806999736
 51
98.31001192998947
  0
ARC
  5
11EA
330
11A8
100
AcDbEntity
  8
0
 62
     3
100
AcDbCircle
 10
68.63532664992067
 20
335.7221285044133
 30
0.0
 40
62.99999987
100
AcDbArc
 50
261.6899880699973
 51
278.3100119300026
  0
ARC
  5
11EB
330
11A8
100
AcDbEntity
  8
0
 62
     3
100
AcDbCircle
 10
68.63532664992067
 20
218.1221285044133
 30
0.0
 40
62.36999987
100
AcDbArc
 50
81.68998806999736
 51
98.31001192998947
  0
ARC
  5
11EC
330
11A8
100
AcDbEntity
  8
0
 62
     3
100
AcDbCircle
 10
68.63532664992067
 20
335.7221285044133
 30
0.0
 40
62.36999987
100
AcDbArc
 50
261.6899880699973
 51
278.3100119300026
  0
ARC
  5
11ED
330
11A8
100
AcDbEntity
  8
0
 62
     3
100
AcDbCircle
 10
73.97712251992084
 20
299.1501883444133
 30
0.0
 40
25.41
100
AcDbArc
 50
278.3100119300026
 51
290.4942851999917
  0
ARC
  5
11EE
330
11A8
100
AcDbEntity
  8
0
 62
     3
100
AcDbCircle
 10
73.97712251992084
 20
254.6940686644133
 30
0.0
 40
25.41
100
AcDbArc
 50
69.50571480000833
 51
81.68998806999736
  0
ARC
  5
11EF
330
11A8
100
AcDbEntity
  8
0
 62
     3
100
AcDbCircle
 10
82.28532664992076
 20
276.9221285044133
 30
0.0
 40
1.679999999999999
100
AcDbArc
 50
290.4942851999917
 51
69.50571480000833
  0
ARC
  5
11F0
330
11A8
100
AcDbEntity
  8
0
 62
     3
100
AcDbCircle
 10
54.9853266499208
 20
276.9221285044133
 30
0.0
 40
1.679999999999999
100
AcDbArc
 50
110.4942851999916
 51
249.5057147999945
  0
ARC
  5
11F1
330
11A8
100
AcDbEntity
  8
0
 62
     3
100
AcDbCircle
 10
63.29353076992084
 20
254.6940686644133
 30
0.0
 40
25.41
100
AcDbArc
 50
98.31001192998947
 51
110.4942851999916
  0
ARC
  5
11F2
330
11A8
100
AcDbEntity
  8
0
 62
     3
100
AcDbCircle
 10
63.29353076992084
 20
299.1501883444133
 30
0.0
 40
25.41
100
AcDbArc
 50
249.5057147999945
 51
261.6899880699973
  0
LINE
  5
11F3
330
11A8
100
AcDbEntity
  8
0
 62
     3
100
AcDbLine
 10
73.24528774992086
 20
274.8452521244133
 30
0.0
 11
71.31577591992073
 21
274.8452521244133
 31
0.0
  0
LINE
  5
11F4
330
11A8
100
AcDbEntity
  8
0
 62
     3
100
AcDbLine
 10
73.24528774992086
 20
275.0568132644133
 30
0.0
 11
73.24528774992086
 21
274.8452521244133
 31
0.0
  0
LINE
  5
11F5
330
11A8
100
AcDbEntity
  8
0
 62
     3
100
AcDbLine
 10
71.10881835992086
 20
278.9989061644133
 30
0.0
 11
69.15655582992076
 21
278.9989061644133
 31
0.0
  0
LINE
  5
11F6
330
11A8
100
AcDbEntity
  8
0
 62
     3
100
AcDbLine
 10
71.10881835992086
 20
278.9989061644133
 30
0.0
 11
71.10881835992086
 21
278.7874437444133
 31
0.0
  0
LINE
  5
11F7
330
11A8
100
AcDbEntity
  8
0
 62
     3
100
AcDbLine
 10
71.10881835992086
 20
275.0568132644133
 30
0.0
 11
71.10881835992086
 21
274.8451534144133
 31
0.0
  0
LINE
  5
11F8
330
11A8
100
AcDbEntity
  8
0
 62
     3
100
AcDbLine
 10
71.10881835992086
 20
274.8451534144133
 30
0.0
 11
69.15655582992076
 21
274.8451534144133
 31
0.0
  0
LINE
  5
11F9
330
11A8
100
AcDbEntity
  8
0
 62
     3
100
AcDbLine
 10
73.24528774992086
 20
278.9990048844132
 30
0.0
 11
73.24528774992086
 21
278.7874437444133
 31
0.0
  0
LINE
  5
11FA
330
11A8
100
AcDbEntity
  8
0
 62
     3
100
AcDbLine
 10
73.24528774992086
 20
278.9990048844132
 30
0.0
 11
71.31577591992073
 21
278.9990048844132
 31
0.0
  0
LINE
  5
11FB
330
11A8
100
AcDbEntity
  8
0
 62
     3
100
AcDbLine
 10
71.31577591992073
 20
278.9990048844132
 30
0.0
 11
71.31577591992073
 21
278.7874437444133
 31
0.0
  0
LINE
  5
11FC
330
11A8
100
AcDbEntity
  8
0
 62
     3
100
AcDbLine
 10
73.4596457499208
 20
275.0568132644133
 30
0.0
 11
73.4596457499208
 21
274.8452521244133
 31
0.0
  0
LINE
  5
11FD
330
11A8
100
AcDbEntity
  8
0
 62
     3
100
AcDbLine
 10
75.44394630992087
 20
274.8452521244133
 30
0.0
 11
73.4596457499208
 21
274.8452521244133
 31
0.0
  0
LINE
  5
11FE
330
11A8
100
AcDbEntity
  8
0
 62
     3
100
AcDbLine
 10
74.95340967992092
 20
278.3312353644133
 30
0.0
 11
74.95340967992092
 21
275.5130216444133
 31
0.0
  0
LINE
  5
11FF
330
11A8
100
AcDbEntity
  8
0
 62
     3
100
AcDbLine
 10
74.95340967992092
 20
275.5130216444133
 30
0.0
 11
75.14345864992083
 21
275.5130216444133
 31
0.0
  0
ARC
  5
1200
330
11A8
100
AcDbEntity
  8
0
 62
     3
100
AcDbCircle
 10
74.17167290992074
 20
276.9221285044133
 30
0.0
 40
1.71170957
100
AcDbArc
 50
304.5919552700024
 51
55.40804472999759
  0
LINE
  5
1201
330
11A8
100
AcDbEntity
  8
0
 62
     3
100
AcDbLine
 10
75.44394630992087
 20
278.9990048844132
 30
0.0
 11
73.4596457499208
 21
278.9990048844132
 31
0.0
  0
LINE
  5
1202
330
11A8
100
AcDbEntity
  8
0
 62
     3
100
AcDbLine
 10
73.4596457499208
 20
278.9990048844132
 30
0.0
 11
73.4596457499208
 21
278.7874437444133
 31
0.0
  0
LINE
  5
1203
330
11A8
100
AcDbEntity
  8
0
 62
     3
100
AcDbLine
 10
71.31577591992073
 20
275.0568132644133
 30
0.0
 11
71.31577591992073
 21
274.8452521244133
 31
0.0
  0
LINE
  5
1204
330
11A8
100
AcDbEntity
  8
0
 62
     3
100
AcDbLine
 10
74.95340967992092
 20
278.3312353644133
 30
0.0
 11
75.14345864992083
 21
278.3312353644133
 31
0.0
  0
LINE
  5
1205
330
11A8
100
AcDbEntity
  8
0
 62
     3
100
AcDbLine
 10
63.31025001992088
 20
275.0568132644133
 30
0.0
 11
63.3102463299208
 21
274.8452323544133
 31
0.0
  0
LINE
  5
1206
330
11A8
100
AcDbEntity
  8
0
 62
     3
100
AcDbLine
 10
61.38073448992077
 20
274.8452718944133
 30
0.0
 11
63.3102463299208
 21
274.8452382244133
 31
0.0
  0
LINE
  5
1207
330
11A8
100
AcDbEntity
  8
0
 62
     3
100
AcDbLine
 10
57.08435263992078
 20
274.8452521244133
 30
0.0
 11
58.62361796992082
 21
274.8452521244133
 31
0.0
  0
ARC
  5
1208
330
11A8
100
AcDbEntity
  8
0
 62
     3
100
AcDbCircle
 10
52.1024099599208
 20
276.9710351244133
 30
0.0
 40
14.71356563
100
AcDbArc
 50
353.8660061899987
 51
357.6940342600003
  0
LINE
  5
1209
330
11A8
100
AcDbEntity
  8
0
 62
     3
100
AcDbLine
 10
65.81898981992094
 20
276.3826674744133
 30
0.0
 11
66.80406070992081
 21
276.3790225944133
 31
0.0
  0
LWPOLYLINE
  5
120A
330
11A8
100
AcDbEntity
  8
0
 62
     3
100
AcDbPolyline
 90
       64
 70
     0
 43
0.0
 10
65.82296823992078
 20
277.4578822144133
 10
65.80434070992078
 20
277.5771499844132
 10
65.78196952992084
 20
277.6913547644133
 10
65.75602759992079
 20
277.7996138244132
 10
65.72671545992079
 20
277.9010903744132
 10
65.69425964992092
 20
277.9950000544133
 10
65.65891105992091
 20
278.0806169944133
 10
65.62094290992082
 20
278.1572794044133
 10
65.58064865992083
 20
278.2243947444133
 10
65.53833978992066
 20
278.2814442344132
 10
65.49434329992073
 20
278.3279869044132
 10
65.44899927992083
 20
278.3636630244132
 10
65.40265820992067
 20
278.3881968144133
 10
65.35567826992087
 20
278.4013986644132
 10
65.30842260992085
 20
278.4031665044133
 10
65.2612564799208
 20
278.3934866944132
 10
65.21454444992082
 20
278.3724340344132
 10
65.16864758992074
 20
278.3401712644133
 10
65.12392064992082
 20
278.2969477544133
 10
65.08070933992076
 20
278.2430975944133
 10
65.03934767992086
 20
278.1790370244133
 10
65.00015535992066
 20
278.1052612044133
 10
64.96343531992079
 20
278.0223403744133
 10
64.92947138992076
 20
277.9309154644133
 10
64.89852608992078
 20
277.8316931644133
 10
64.87083860992084
 20
277.7254403944132
 10
64.84662295992075
 20
277.6129784344133
 10
64.82606631992076
 20
277.4951765544133
 10
64.80932757992082
 20
277.3729453144133
 10
64.7965361199208
 20
277.2472294944133
 10
64.7877908099208
 20
277.1190008144133
 10
64.7831592499208
 20
276.9892504044133
 10
64.78267723992075
 20
276.8589811744133
 10
64.7863484999209
 20
276.7292000544133
 10
64.7941446599209
 20
276.6009101644133
 10
64.8060054599207
 20
276.4751031244133
 10
64.82183921992078
 20
276.3527513544133
 10
64.8415235399209
 20
276.2348005844133
 10
64.8649062999209
 20
276.1221625144133
 10
64.89180672992074
 20
276.0157077544132
 10
64.9220169299208
 20
275.9162591644133
 10
64.9553033799209
 20
275.8245854344133
 10
64.9914087799209
 20
275.7413951344133
 10
65.03005407992077
 20
275.6673313044132
 10
65.0709405599207
 20
275.6029664144132
 10
65.11375217992076
 20
275.5487979644133
 10
65.15815803992087
 20
275.5052446444133
 10
65.20381488992075
 20
275.4726431144133
 10
65.25036984992084
 20
275.4512453544132
 10
65.2974630599208
 20
275.4412167744133
 10
65.34473050992073
 20
275.4426348744133
 10
65.39180684992084
 20
275.4554886944132
 10
65.43832820992088
 20
275.4796788944133
 10
65.48393499992084
 20
275.5150184744133
 10
65.52827469992076
 20
275.5612342944132
 10
65.57100458992067
 20
275.6179691344133
 10
65.61179438992076
 20
275.6847844444132
 10
65.65032881992078
 20
275.7611637944133
 10
65.68631001992094
 20
275.8465168044132
 10
65.7194598799208
 20
275.9401837344133
 10
65.74952215992084
 20
276.0414405944133
 10
65.77626450992079
 20
276.1495047144133
 10
65.79948020992083
 20
276.2635408244133
 10
65.81898981992094
 20
276.3826674744133
  0
LINE
  5
120B
330
11A8
100
AcDbEntity
  8
0
 62
     3
100
AcDbLine
 10
65.82296823992078
 20
277.4578822144133
 30
0.0
 11
66.80803911992075
 21
277.4542373444133
 31
0.0
  0
ARC
  5
120C
330
11A8
100
AcDbEntity
  8
0
 62
     3
100
AcDbCircle
 10
52.1024099599208
 20
276.9710351244133
 30
0.0
 40
14.71356563
100
AcDbArc
 50
1.881965739999166
 51
5.709993809998727
  0
LINE
  5
120D
330
11A8
100
AcDbEntity
  8
0
 62
     3
100
AcDbLine
 10
63.31031881992089
 20
278.9989851144132
 30
0.0
 11
63.31031512992081
 21
278.7874437444133
 31
0.0
  0
LINE
  5
120E
330
11A8
100
AcDbEntity
  8
0
 62
     3
100
AcDbLine
 10
61.38080698992076
 20
278.9990246544132
 30
0.0
 11
63.31031881992089
 21
278.9989909744132
 31
0.0
  0
LINE
  5
120F
330
11A8
100
AcDbEntity
  8
0
 62
     3
100
AcDbLine
 10
61.38073817992085
 20
275.0568132644133
 30
0.0
 11
61.38073448992077
 21
274.8452718944133
 31
0.0
  0
LINE
  5
1210
330
11A8
100
AcDbEntity
  8
0
 62
     3
100
AcDbLine
 10
61.38080698992076
 20
278.9990246544132
 30
0.0
 11
61.38080329992067
 21
278.7874437444133
 31
0.0
  0
LINE
  5
1211
330
11A8
100
AcDbEntity
  8
0
 62
     3
100
AcDbLine
 10
58.62361796992082
 20
275.0568132644133
 30
0.0
 11
58.62361796992082
 21
274.8452521244133
 31
0.0
  0
LINE
  5
1212
330
11A8
100
AcDbEntity
  8
0
 62
     3
100
AcDbLine
 10
58.18787005992067
 20
277.2811402144133
 30
0.0
 11
59.71030011992093
 21
274.8452521244133
 31
0.0
  0
LINE
  5
1213
330
11A8
100
AcDbEntity
  8
0
 62
     3
100
AcDbLine
 10
59.71030011992093
 20
274.8452521244133
 30
0.0
 11
60.72973283992087
 21
274.8452521244133
 31
0.0
  0
LINE
  5
1214
330
11A8
100
AcDbEntity
  8
0
 62
     3
100
AcDbLine
 10
61.16548074992079
 20
278.9990048844132
 30
0.0
 11
61.16548074992079
 21
278.7874437444133
 31
0.0
  0
LINE
  5
1215
330
11A8
100
AcDbEntity
  8
0
 62
     3
100
AcDbLine
 10
59.62621541992075
 20
278.9990048844132
 30
0.0
 11
61.16548074992079
 21
278.9990048844132
 31
0.0
  0
LINE
  5
1216
330
11A8
100
AcDbEntity
  8
0
 62
     3
100
AcDbLine
 10
59.62621541992075
 20
278.9990048844132
 30
0.0
 11
59.62621541992075
 21
278.7874437444133
 31
0.0
  0
LINE
  5
1217
330
11A8
100
AcDbEntity
  8
0
 62
     3
100
AcDbLine
 10
60.06196332992089
 20
277.1176385444132
 30
0.0
 11
58.82731665992082
 21
278.9990048844132
 31
0.0
  0
LINE
  5
1218
330
11A8
100
AcDbEntity
  8
0
 62
     3
100
AcDbLine
 10
57.08435263992078
 20
278.9990048844132
 30
0.0
 11
58.82731665992082
 21
278.9990048844132
 31
0.0
  0
LINE
  5
1219
330
11A8
100
AcDbEntity
  8
0
 62
     3
100
AcDbLine
 10
67.00056699992069
 20
278.9989061644133
 30
0.0
 11
68.95282953992069
 21
278.9989061644133
 31
0.0
  0
LINE
  5
121A
330
11A8
100
AcDbEntity
  8
0
 62
     3
100
AcDbLine
 10
67.00056699992069
 20
278.7874437444133
 30
0.0
 11
67.00056699992069
 21
278.9989061644133
 31
0.0
  0
LINE
  5
121B
330
11A8
100
AcDbEntity
  8
0
 62
     3
100
AcDbLine
 10
67.00056699992069
 20
274.8451534144133
 30
0.0
 11
67.00056699992069
 21
275.0568132644133
 31
0.0
  0
LINE
  5
121C
330
11A8
100
AcDbEntity
  8
0
 62
     3
100
AcDbLine
 10
67.00056699992069
 20
274.8451534144133
 30
0.0
 11
68.95282953992069
 21
274.8451534144133
 31
0.0
  0
LINE
  5
121D
330
11A8
100
AcDbEntity
  8
0
 62
     3
100
AcDbLine
 10
69.15655582992076
 20
275.0568132644133
 30
0.0
 11
69.15655582992076
 21
274.8451534144133
 31
0.0
  0
LINE
  5
121E
330
11A8
100
AcDbEntity
  8
0
 62
     3
100
AcDbLine
 10
68.95282953992069
 20
275.0568132644133
 30
0.0
 11
68.95282953992069
 21
274.8451534144133
 31
0.0
  0
LINE
  5
121F
330
11A8
100
AcDbEntity
  8
0
 62
     3
100
AcDbLine
 10
68.95282953992069
 20
278.7874437444133
 30
0.0
 11
68.95282953992069
 21
278.9989061644133
 31
0.0
  0
LINE
  5
1220
330
11A8
100
AcDbEntity
  8
0
 62
     3
100
AcDbLine
 10
69.15655582992076
 20
278.7874437444133
 30
0.0
 11
69.15655582992076
 21
278.9989061644133
 31
0.0
  0
LINE
  5
1221
330
11A8
100
AcDbEntity
  8
0
 62
     3
100
AcDbLine
 10
57.08435263992078
 20
275.0568132644133
 30
0.0
 11
57.08435263992078
 21
274.8452521244133
 31
0.0
  0
LINE
  5
1222
330
11A8
100
AcDbEntity
  8
0
 62
     3
100
AcDbLine
 10
57.08435263992078
 20
278.9990048844132
 30
0.0
 11
57.08435263992078
 21
278.7874437444133
 31
0.0
  0
ARC
  5
1223
330
11A8
100
AcDbEntity
  8
0
 62
     3
100
AcDbCircle
 10
75.65394630992091
 20
277.3578764144132
 30
0.0
 40
1.641128469999999
100
AcDbArc
 50
17.30874897999683
 51
23.76507095999502
  0
ARC
  5
1224
330
11A8
100
AcDbEntity
  8
0
 62
     3
100
AcDbCircle
 10
74.25567290992081
 20
276.9221285044133
 30
0.0
 40
3.105725599999999
100
AcDbArc
 50
342.6912510200032
 51
17.30856644000026
  0
ARC
  5
1225
330
11A8
100
AcDbEntity
  8
0
 62
     3
100
AcDbCircle
 10
75.65394630992091
 20
276.4863806044133
 30
0.0
 40
1.641128469999999
100
AcDbArc
 50
336.2349290399992
 51
342.6912510200032
  0
ARC
  5
1226
330
11A8
100
AcDbEntity
  8
0
 62
     3
100
AcDbCircle
 10
75.44394630992087
 20
277.3578764144132
 30
0.0
 40
1.641128469999999
100
AcDbArc
 50
17.30874897999683
 51
90.0
  0
ARC
  5
1227
330
11A8
100
AcDbEntity
  8
0
 62
     3
100
AcDbCircle
 10
74.04567290992076
 20
276.9221285044133
 30
0.0
 40
3.105725599999999
100
AcDbArc
 50
342.6912510200032
 51
17.30856644000026
  0
ARC
  5
1228
330
11A8
100
AcDbEntity
  8
0
 62
     3
100
AcDbCircle
 10
75.44394630992087
 20
276.4863806044133
 30
0.0
 40
1.641128469999999
100
AcDbArc
 50
270.0
 51
342.6912510200032
  0
ARC
  5
1229
330
11A8
100
AcDbEntity
  8
0
 62
     3
100
AcDbCircle
 10
65.32000593992075
 20
276.9221285044133
 30
0.0
 40
2.076876379999999
100
AcDbArc
 50
46.75287960999439
 51
89.74999828999569
  0
ARC
  5
122A
330
11A8
100
AcDbEntity
  8
0
 62
     3
100
AcDbCircle
 10
65.32000593992075
 20
276.9221285044133
 30
0.0
 40
2.076876379999999
100
AcDbArc
 50
273.976333149997
 51
312.8231203899985
  0
ARC
  5
122B
330
11A8
100
AcDbEntity
  8
0
 62
     3
100
AcDbCircle
 10
76.76181387992073
 20
276.8900669744132
 30
0.0
 40
2.755888999999999
100
AcDbArc
 50
0.6665840599997753
 51
23.90392827000157
  0
ARC
  5
122C
330
11A8
100
AcDbEntity
  8
0
 62
     3
100
AcDbCircle
 10
80.67737615992086
 20
276.8900669744132
 30
0.0
 40
2.755888999999999
100
AcDbArc
 50
156.0960717299984
 51
179.3334159400002
  0
ARC
  5
122D
330
11A8
100
AcDbEntity
  8
0
 62
     3
100
AcDbCircle
 10
76.76181387992073
 20
276.9541900344133
 30
0.0
 40
2.755888999999999
100
AcDbArc
 50
336.0960717299984
 51
359.3334159400005
  0
ARC
  5
122E
330
11A8
100
AcDbEntity
  8
0
 62
     3
100
AcDbCircle
 10
80.67737615992086
 20
276.9541900344133
 30
0.0
 40
2.755888999999999
100
AcDbArc
 50
180.6665840599995
 51
203.9039282700016
  0
LINE
  5
122F
330
11A8
100
AcDbEntity
  8
0
 62
     3
100
AcDbLine
 10
85.32766324992076
 20
276.9999996444133
 30
0.0
 11
200.0000006199209
 21
276.9999996444133
 31
0.0
  0
LINE
  5
1230
330
11A8
100
AcDbEntity
  8
0
 62
   254
100
AcDbLine
 10
0.000000619920911
 20
286.9999996444132
 30
0.0
 11
200.0000006199209
 21
286.9999996444132
 31
0.0
  0
LINE
  5
1231
330
11A8
100
AcDbEntity
  8
0
 62
     3
100
AcDbLine
 10
51.91491672992083
 20
276.9999996444133
 30
0.0
 11
20.00000061992091
 21
276.9999996444133
 31
0.0
  0
LINE
  5
1232
330
11A8
100
AcDbEntity
  8
0
 62
     3
100
AcDbLine
 10
148.0000006199209
 20
-0.0000003555867352
 30
0.0
 11
148.0000006199209
 21
39.99999964441327
 31
0.0
  0
LINE
  5
1233
330
11A8
100
AcDbEntity
  8
0
 62
     3
100
AcDbLine
 10
161.0000006199209
 20
9.999999644413264
 30
0.0
 11
161.0000006199209
 21
37.99999964441326
 31
0.0
  0
LINE
  5
1234
330
11A8
100
AcDbEntity
  8
0
 62
     3
100
AcDbLine
 10
121.0000006199209
 20
9.999999644413264
 30
0.0
 11
121.0000006199209
 21
23.99999964441326
 31
0.0
  0
LINE
  5
1235
330
11A8
100
AcDbEntity
  8
0
 62
     3
100
AcDbLine
 10
131.0000006199209
 20
23.99999964441326
 30
0.0
 11
131.0000006199209
 21
-0.0000003555867352
 31
0.0
  0
LINE
  5
1236
330
11A8
100
AcDbEntity
  8
0
 62
     3
100
AcDbLine
 10
102.0000006199209
 20
39.99999964441326
 30
0.0
 11
102.0000006199209
 21
16.99999964441327
 31
0.0
  0
LINE
  5
1237
330
11A8
100
AcDbEntity
  8
0
 62
     3
100
AcDbLine
 10
161.0000006199209
 20
37.99999964441326
 30
0.0
 11
161.0000006199209
 21
39.99999964441327
 31
0.0
  0
LINE
  5
1238
330
11A8
100
AcDbEntity
  8
0
 62
     3
100
AcDbLine
 10
174.0000006199209
 20
16.99999964441327
 30
0.0
 11
174.0000006199209
 21
39.99999964441327
 31
0.0
  0
LINE
  5
1239
330
11A8
100
AcDbEntity
  8
0
 62
     3
100
AcDbLine
 10
200.0000006199209
 20
39.99999964441327
 30
0.0
 11
88.75456597992092
 21
39.99999964441328
 31
0.0
  0
LINE
  5
123A
330
11A8
100
AcDbEntity
  8
0
 62
     3
100
AcDbLine
 10
200.0000006199209
 20
30.99999964441327
 30
0.0
 11
88.75456597992092
 21
30.99999964441327
 31
0.0
  0
LINE
  5
123B
330
11A8
100
AcDbEntity
  8
0
 62
     3
100
AcDbLine
 10
200.0000006199209
 20
16.99999964441327
 30
0.0
 11
88.75456597992092
 21
16.99999964441327
 31
0.0
  0
LINE
  5
123C
330
11A8
100
AcDbEntity
  8
0
 62
     3
100
AcDbLine
 10
200.0000006199209
 20
9.999999644413264
 30
0.0
 11
88.75456597992092
 21
9.999999644413261
 31
0.0
  0
LINE
  5
123D
330
11A8
100
AcDbEntity
  8
0
 62
     3
100
AcDbLine
 10
187.0000006199209
 20
16.99999964441327
 30
0.0
 11
187.0000006199209
 21
39.99999964441327
 31
0.0
  0
LINE
  5
123E
330
11A8
100
AcDbEntity
  8
0
 62
     3
100
AcDbLine
 10
88.75456597992092
 20
39.99999964441328
 30
0.0
 11
88.75456597992092
 21
-0.0000003555867352
 31
0.0
  0
LINE
  5
123F
330
11A8
100
AcDbEntity
  8
0
 62
     3
100
AcDbLine
 10
148.0000006199209
 20
23.99999964441326
 30
0.0
 11
88.75456597992092
 21
23.99999964441325
 31
0.0
  0
LINE
  5
1240
330
11A8
100
AcDbEntity
  8
0
 62
     3
100
AcDbLine
 10
131.2783255499207
 20
4.832860904413252
 30
0.0
 11
148.0000006199209
 21
4.832860904413252
 31
0.0
  0
TEXT
  5
1241
330
11A8
100
AcDbEntity
  8
0
 62
     3
100
AcDbText
 10
132.1643260332364
 20
19.07309649777861
 30
0.0
 40
2.5
  1
******
  7
高2.5
100
AcDbText
  0
TEXT
  5
1242
330
11A8
100
AcDbEntity
  8
0
 62
     3
100
AcDbText
 10
103.1963693151731
 20
19.29781404939717
 30
0.0
 40
2.5
  1
*****
  7
高2.5
100
AcDbText
  0
TEXT
  5
1243
330
11A8
100
AcDbEntity
  8
0
 62
     3
100
AcDbText
 10
103.4612770698704
 20
32.31224916817116
 30
0.0
 40
4.5
  1
**********
  7
高4.5
100
AcDbText
1001
ACAD
1000
ACAD_MTEXT_DEFINED_HEIGHT_BEGIN
1070
    46
1040
0.0
1000
ACAD_MTEXT_DEFINED_HEIGHT_END
  0
TEXT
  5
1244
330
11A8
100
AcDbEntity
  8
0
 62
     3
100
AcDbText
 10
190.0655897133949
 20
36.51369174311686
 30
0.0
 40
2.0
  1
DEF
  7
高2
100
AcDbText
  0
TEXT
  5
1245
330
11A8
100
AcDbEntity
  8
0
 62
     3
100
AcDbText
 10
176.1264913596867
 20
36.51369174311677
 30
0.0
 40
2.0
  1
DESN
  7
高2
100
AcDbText
  0
TEXT
  5
1246
330
11A8
100
AcDbEntity
  8
0
 62
     3
100
AcDbText
 10
149.8721244196865
 20
36.51369174311686
 30
0.0
 40
2.0
  1
APPD
  7
高2
100
AcDbText
  0
TEXT
  5
1247
330
11A8
100
AcDbEntity
  8
0
 62
     3
100
AcDbText
 10
162.9848605199206
 20
36.51369174311688
 30
0.0
 40
2.0
  1
CHCK
  7
高2
100
AcDbText
  0
TEXT
  5
1248
330
11A8
100
AcDbEntity
  8
0
 62
     3
100
AcDbText
 10
121.9271662590734
 20
14.16839846764398
 30
0.0
 40
2.0
  1
SCALE
 41
0.8
  7
高2
100
AcDbText
  0
TEXT
  5
1249
330
11A8
100
AcDbEntity
  8
0
 62
     3
100
AcDbText
 10
90.43914468296703
 20
14.16839846764399
 30
0.0
 40
2.0
  1
3AD　ANGLE
 41
1.5
  7
高2
100
AcDbText
  0
TEXT
  5
124A
330
11A8
100
AcDbEntity
  8
0
 62
     3
100
AcDbText
 10
121.1965719499223
 20
20.91993653660109
 30
0.0
 40
2.0
  1
REMARKS
 41
0.7
  7
高2
100
AcDbText
  0
TEXT
  5
124B
330
11A8
100
AcDbEntity
  8
0
 62
     3
100
AcDbText
 10
90.22223632992085
 20
20.99999964441327
 30
0.0
 40
2.0
  1
MATERIAL
 41
0.7
  7
高2
100
AcDbText
  0
TEXT
  5
124C
330
11A8
100
AcDbEntity
  8
0
 62
     3
100
AcDbText
 10
90.79872353267479
 20
27.99999964441325
 30
0.0
 40
2.0
  1
MODEL
  7
高2
100
AcDbText
  0
TEXT
  5
124D
330
11A8
100
AcDbEntity
  8
0
 62
     3
100
AcDbText
 10
90.43564441400599
 20
36.70702099501228
 30
0.0
 40
2.0
  1
CONPONENTS
 41
0.5
  7
高2
100
AcDbText
  0
TEXT
  5
124E
330
11A8
100
AcDbEntity
  8
0
 62
     3
100
AcDbText
 10
103.142759885173
 20
25.08748077222521
 30
0.0
 40
4.5
  1
********
  7
高4.5
100
AcDbText
  0
TEXT
  5
124F
330
11A8
100
AcDbEntity
  8
0
 62
     3
100
AcDbText
 10
151.0650463505392
 20
2.038461039778852
 30
0.0
 40
6.299999999999999
  1
*-********
 41
0.6
  7
高6.3
100
AcDbText
1001
ACAD
1000
ACAD_MTEXT_DEFINED_HEIGHT_BEGIN
1070
    46
1040
0.0
1000
ACAD_MTEXT_DEFINED_HEIGHT_END
  0
TEXT
  5
1250
330
11A8
100
AcDbEntity
  8
0
 62
     3
100
AcDbText
 10
164.5635103702504
 20
11.10088880264627
 30
0.0
 40
3.2
  1
******
  7
高3.2
100
AcDbText
1001
ACAD
1000
ACAD_MTEXT_DEFINED_HEIGHT_BEGIN
1070
    46
1040
0.0
1000
ACAD_MTEXT_DEFINED_HEIGHT_END
  0
TEXT
  5
1251
330
11A8
100
AcDbEntity
  8
0
 62
     3
100
AcDbText
 10
134.7875985145672
 20
11.10091664698114
 30
0.0
 40
3.2
  1
1/1
  7
高3.2
100
AcDbText
  0
TEXT
  5
1252
330
11A8
100
AcDbEntity
  8
0
 62
     3
100
AcDbText
 10
131.8649274899208
 20
0.8168778175492263
 30
0.0
 40
3.2
  1
ZK-A4Y
 41
0.8
  7
高3.2
100
AcDbText
  0
TEXT
  5
1253
330
11A8
100
AcDbEntity
  8
0
 62
     3
100
AcDbText
 10
89.58526701992083
 20
6.524620066601091
 30
0.0
 40
2.0
  1
NICHIDO IND.CO.LTD
 41
1.3
  7
高2
100
AcDbText
  0
TEXT
  5
1254
330
11A8
100
AcDbEntity
  8
0
 62
     3
100
AcDbText
 10
90.76679028487797
 20
32.1405278522982
 30
0.0
 40
3.2
  1
品 名
  7
高3.2
100
AcDbText
1001
ACAD
1000
ACAD_MTEXT_DEFINED_HEIGHT_BEGIN
1070
    46
1040
0.0
1000
ACAD_MTEXT_DEFINED_HEIGHT_END
  0
TEXT
  5
1255
330
11A8
100
AcDbEntity
  8
0
 62
     3
100
AcDbText
 10
90.76679028487797
 20
24.49999964441325
 30
0.0
 40
3.2
  1
型 式
  7
高3.2
100
AcDbText
1001
ACAD
1000
ACAD_MTEXT_DEFINED_HEIGHT_BEGIN
1070
    46
1040
3.064735913775955
1000
ACAD_MTEXT_DEFINED_HEIGHT_END
  0
TEXT
  5
1256
330
11A8
100
AcDbEntity
  8
0
 62
     3
100
AcDbText
 10
90.76679028487797
 20
17.49999964441327
 30
0.0
 40
3.2
  1
材 質
  7
高3.2
100
AcDbText
1001
ACAD
1000
ACAD_MTEXT_DEFINED_HEIGHT_BEGIN
1070
    46
1040
0.0
1000
ACAD_MTEXT_DEFINED_HEIGHT_END
  0
TEXT
  5
1257
330
11A8
100
AcDbEntity
  8
0
 62
     3
100
AcDbText
 10
90.46175533487781
 20
10.4674396366595
 30
0.0
 40
3.2
  1
第 三 角 法
  7
高3.2
100
AcDbText
1001
ACAD
1000
ACAD_MTEXT_DEFINED_HEIGHT_BEGIN
1070
    46
1040
0.0
1000
ACAD_MTEXT_DEFINED_HEIGHT_END
  0
TEXT
  5
1258
330
11A8
100
AcDbEntity
  8
0
 62
     3
100
AcDbText
 10
88.86828794240683
 20
1.140527852298198
 30
0.0
 40
3.2
  1
日動工業株式会社
 41
1.199999999999999
  7
高3.2
100
AcDbText
1001
ACAD
1000
ACAD_MTEXT_DEFINED_HEIGHT_BEGIN
1070
    46
1040
0.0
1000
ACAD_MTEXT_DEFINED_HEIGHT_END
  0
TEXT
  5
1259
330
11A8
100
AcDbEntity
  8
0
 62
     3
100
AcDbText
 10
122.5039121418851
 20
17.38457817758082
 30
0.0
 40
3.2
  1
備考
  7
高3.2
100
AcDbText
1001
ACAD
1000
ACAD_MTEXT_DEFINED_HEIGHT_BEGIN
1070
    46
1040
0.0
1000
ACAD_MTEXT_DEFINED_HEIGHT_END
  0
TEXT
  5
125A
330
11A8
100
AcDbEntity
  8
0
 62
     3
100
AcDbText
 10
132.1529695889207
 20
6.146229669983558
 30
0.0
 40
2.5
  1
出図コード
  7
高2.5
100
AcDbText
1001
ACAD
1000
ACAD_MTEXT_DEFINED_HEIGHT_BEGIN
1070
    46
1040
0.0
1000
ACAD_MTEXT_DEFINED_HEIGHT_END
  0
TEXT
  5
125B
330
11A8
100
AcDbEntity
  8
0
 62
     3
100
AcDbText
 10
122.3451460237977
 20
10.45323455482618
 30
0.0
 40
3.2
  1
尺度
  7
高3.2
100
AcDbText
1001
ACAD
1000
ACAD_MTEXT_DEFINED_HEIGHT_BEGIN
1070
    46
1040
0.0
1000
ACAD_MTEXT_DEFINED_HEIGHT_END
  0
TEXT
  5
125C
330
11A8
100
AcDbEntity
  8
0
 62
     3
100
AcDbText
 10
149.4914075055765
 20
11.58471300294367
 30
0.0
 40
3.2
  1
作成日
  7
高3.2
100
AcDbText
1001
ACAD
1000
ACAD_MTEXT_DEFINED_HEIGHT_BEGIN
1070
    46
1040
0.0
1000
ACAD_MTEXT_DEFINED_HEIGHT_END
  0
TEXT
  5
125D
330
11A8
100
AcDbEntity
  8
0
 62
     3
100
AcDbText
 10
149.3858815124406
 20
32.1405278522982
 30
0.0
 40
3.2
  1
承 認
  7
高3.2
100
AcDbText
1001
ACAD
1000
ACAD_MTEXT_DEFINED_HEIGHT_BEGIN
1070
    46
1040
0.0
1000
ACAD_MTEXT_DEFINED_HEIGHT_END
  0
TEXT
  5
125E
330
11A8
100
AcDbEntity
  8
0
 62
     3
100
AcDbText
 10
162.3858815124406
 20
32.1405278522982
 30
0.0
 40
3.2
  1
検 図
  7
高3.2
100
AcDbText
1001
ACAD
1000
ACAD_MTEXT_DEFINED_HEIGHT_BEGIN
1070
    46
1040
0.0
1000
ACAD_MTEXT_DEFINED_HEIGHT_END
  0
TEXT
  5
125F
330
11A8
100
AcDbEntity
  8
0
 62
     3
100
AcDbText
 10
175.3858815124406
 20
32.1405278522982
 30
0.0
 40
3.2
  1
設 計
  7
高3.2
100
AcDbText
1001
ACAD
1000
ACAD_MTEXT_DEFINED_HEIGHT_BEGIN
1070
    46
1040
0.0
1000
ACAD_MTEXT_DEFINED_HEIGHT_END
  0
TEXT
  5
1260
330
11A8
100
AcDbEntity
  8
0
 62
     3
100
AcDbText
 10
188.6865180324405
 20
32.1405278522982
 30
0.0
 40
3.2
  1
製 図
  7
高3.2
100
AcDbText
1001
ACAD
1000
ACAD_MTEXT_DEFINED_HEIGHT_BEGIN
1070
    46
1040
0.0
1000
ACAD_MTEXT_DEFINED_HEIGHT_END
  0
TEXT
  5
1261
330
11A8
100
AcDbEntity
  8
0
 62
     3
100
AcDbText
 10
187.5000006199209
 20
267.4999996444133
 30
0.0
 40
3.2
  1
担　当
  7
高3.2
100
AcDbText
  0
TEXT
  5
1262
330
11A8
100
AcDbEntity
  8
0
 62
     3
100
AcDbText
 10
143.5000006199209
 20
267.4999996444133
 30
0.0
 40
3.2
  1
変更・追記内容
  7
高3.2
100
AcDbText
  0
TEXT
  5
1263
330
11A8
100
AcDbEntity
  8
0
 62
     3
100
AcDbText
 10
118.6135156202601
 20
262.829461134505
 30
0.0
 40
2.0
  1
1
  7
高2
100
AcDbText
  0
TEXT
  5
1264
330
11A8
100
AcDbEntity
  8
0
 62
     3
100
AcDbText
 10
118.3050041435028
 20
257.6596444222321
 30
0.0
 40
2.0
  1
2
  7
高2
100
AcDbText
  0
TEXT
  5
1265
330
11A8
100
AcDbEntity
  8
0
 62
     3
100
AcDbText
 10
125.5000006199209
 20
267.4999996444133
 30
0.0
 40
3.2
  1
日　付
  7
高3.2
100
AcDbText
  0
TEXT
  5
1266
330
11A8
100
AcDbEntity
  8
0
 62
     3
100
AcDbText
 10
125.5000006199209
 20
272.4999996444132
 30
0.0
 40
3.2
  1
図　　　　面　　　　略　　　　歴
  7
高3.2
100
AcDbText
  0
TEXT
  5
1267
330
11A8
100
AcDbEntity
  8
0
 62
     3
100
AcDbText
 10
115.5000006199209
 20
267.4999996444133
 30
0.0
 40
3.2
  1
記号
  7
高3.2
100
AcDbText
  0
LINE
  5
1268
330
11A8
100
AcDbEntity
  8
0
 62
     7
100
AcDbLine
 10
119.0000006199209
 20
260.7908956444134
 30
0.0
 11
117.1000006199208
 21
257.4999996444133
 31
0.0
  0
LINE
  5
1269
330
11A8
100
AcDbEntity
  8
0
 62
     7
100
AcDbLine
 10
119.0000006199209
 20
260.7908956444134
 30
0.0
 11
120.9000006199207
 21
257.4999996444133
 31
0.0
  0
LINE
  5
126A
330
11A8
100
AcDbEntity
  8
0
 62
     7
100
AcDbLine
 10
117.1000006199208
 20
257.4999996444133
 30
0.0
 11
120.9000006199207
 21
257.4999996444133
 31
0.0
  0
LINE
  5
126B
330
11A8
100
AcDbEntity
  8
0
 62
     7
100
AcDbLine
 10
119.0000006199209
 20
265.7908966444133
 30
0.0
 11
117.1000006199208
 21
262.4999996444133
 31
0.0
  0
LINE
  5
126C
330
11A8
100
AcDbEntity
  8
0
 62
     7
100
AcDbLine
 10
119.0000006199209
 20
265.7908966444133
 30
0.0
 11
120.9000006199207
 21
262.4999996444133
 31
0.0
  0
LINE
  5
126D
330
11A8
100
AcDbEntity
  8
0
 62
     7
100
AcDbLine
 10
117.1000006199208
 20
262.4999996444133
 30
0.0
 11
120.9000006199207
 21
262.4999996444133
 31
0.0
  0
LINE
  5
126E
330
11A8
100
AcDbEntity
  8
0
 62
     3
100
AcDbLine
 10
114.0000006199209
 20
271.9999996444133
 30
0.0
 11
200.0000006199209
 21
271.9999996444133
 31
0.0
  0
LINE
  5
126F
330
11A8
100
AcDbEntity
  8
0
 62
     3
100
AcDbLine
 10
114.0000006199209
 20
266.9999996444133
 30
0.0
 11
200.0000006199209
 21
266.9999996444133
 31
0.0
  0
LINE
  5
1270
330
11A8
100
AcDbEntity
  8
0
 62
     7
100
AcDbLine
 10
114.0000006199209
 20
261.9999996444132
 30
0.0
 11
200.0000006199209
 21
261.9999996444132
 31
0.0
  0
LINE
  5
1271
330
11A8
100
AcDbEntity
  8
0
 62
     3
100
AcDbLine
 10
114.0000006199209
 20
256.9999996444133
 30
0.0
 11
200.0000006199209
 21
256.9999996444133
 31
0.0
  0
LINE
  5
1272
330
11A8
100
AcDbEntity
  8
0
 62
     7
100
AcDbLine
 10
186.0000006199209
 20
256.9999996444133
 30
0.0
 11
186.0000006199209
 21
271.9999996444133
 31
0.0
  0
LINE
  5
1273
330
11A8
100
AcDbEntity
  8
0
 62
     7
100
AcDbLine
 10
142.0000006199209
 20
256.9999996444133
 30
0.0
 11
142.0000006199209
 21
271.9999996444133
 31
0.0
  0
LINE
  5
1274
330
11A8
100
AcDbEntity
  8
0
 62
     7
100
AcDbLine
 10
124.0000006199209
 20
256.9999996444133
 30
0.0
 11
124.0000006199209
 21
271.9999996444133
 31
0.0
  0
LINE
  5
1275
330
11A8
100
AcDbEntity
  8
0
 62
     3
100
AcDbLine
 10
114.0000006199209
 20
256.9999996444133
 30
0.0
 11
114.0000006199209
 21
276.9999996444133
 31
0.0
  0
ENDBLK
  5
1276
330
11A8
100
AcDbEntity
  8
0
100
AcDbBlockEnd
  0
BLOCK
  5
12E1
330
12E0
100
AcDbEntity
  8
0
100
AcDbBlockBegin
  2
*D7
 70
     1
 10
0.0
 20
0.0
 30
0.0
  3
*D7
  1

  0
LINE
  5
1874
330
12E0
100
AcDbEntity
  8
0
 62
     0
370
    -2
100
AcDbLine
 10
1420.619954224432
 20
-259.5532133057037
 30
0.0
 11
1392.878411336907
 21
-231.8116704181745
 31
0.0
  0
LINE
  5
1875
330
12E0
100
AcDbEntity
  8
0
 62
     0
370
    -2
100
AcDbLine
 10
1356.98034391764
 20
-323.192823612487
 30
0.0
 11
1329.238801030114
 21
-295.451280724957
 31
0.0
  0
LINE
  5
1876
330
12E0
100
AcDbEntity
  8
0
 62
     0
370
    -2
100
AcDbLine
 10
1391.994527860424
 20
-234.463320847624
 30
0.0
 11
1331.890451459564
 21
-294.5673972484741
 31
0.0
  0
INSERT
  5
1877
330
12E0
100
AcDbEntity
  8
0
 62
     0
370
    -2
100
AcDbBlockReference
  2
_Open30
 10
1393.76229481339
 20
-232.6955538946578
 30
0.0
 41
2.5
 42
2.5
 43
2.5
 50
44.99999999999536
  0
INSERT
  5
1878
330
12E0
100
AcDbEntity
  8
0
 62
     0
370
    -2
100
AcDbBlockReference
  2
_Open30
 10
1330.122684506597
 20
-296.3351642014403
 30
0.0
 41
2.5
 42
2.5
 43
2.5
 50
224.9999999999954
  0
MTEXT
  5
1879
330
12E0
100
AcDbEntity
  8
0
 62
     4
100
AcDbMText
 10
1360.634056731192
 20
-262.8185881568078
 30
0.0
 40
3.0
 41
0.0
 71
     5
 72
     1
  1
180
 11
0.7071067811866044
 21
0.7071067811864907
 31
0.0
 73
     1
 44
1.0
1001
ACAD
1000
MTEXTBEGIN
1070
    73
1070
     1
1070
    44
1040
1.0
1070
    74
1070
     0
1000
MTEXTEND
  0
POINT
  5
187A
330
12E0
100
AcDbEntity
  8
Defpoints
 62
     0
100
AcDbPoint
 10
1420.796730919728
 20
-259.7299900010004
 30
0.0
  0
POINT
  5
187B
330
12E0
100
AcDbEntity
  8
Defpoints
 62
     0
100
AcDbPoint
 10
1357.157120612936
 20
-323.3696003077837
 30
0.0
  0
POINT
  5
187C
330
12E0
100
AcDbEntity
  8
Defpoints
 62
     0
100
AcDbPoint
 10
1330.122684506597
 20
-296.3351642014403
 30
0.0
  0
ENDBLK
  5
12E2
330
12E0
100
AcDbEntity
  8
0
100
AcDbBlockEnd
  0
BLOCK
  5
12F9
330
12F8
100
AcDbEntity
  8
0
100
AcDbBlockBegin
  2
*D8
 70
     1
 10
0.0
 20
0.0
 30
0.0
  3
*D8
  1

  0
LINE
  5
18C4
330
12F8
100
AcDbEntity
  8
0
 62
     0
370
    -2
100
AcDbLine
 10
1393.694287001444
 20
-259.553213305704
 30
0.0
 11
1435.442827916361
 21
-217.8046723907798
 31
0.0
  0
LINE
  5
18C5
330
12F8
100
AcDbEntity
  8
0
 62
     0
370
    -2
100
AcDbLine
 10
1457.333897308233
 20
-323.1928236124897
 30
0.0
 11
1499.082438223154
 21
-281.4442826975622
 31
0.0
  0
LINE
  5
18C6
330
12F8
100
AcDbEntity
  8
0
 62
     0
370
    -2
100
AcDbLine
 10
1436.326711392845
 20
-220.4563228202293
 30
0.0
 11
1496.430787793704
 21
-280.5603992210793
 31
0.0
  0
INSERT
  5
18C7
330
12F8
100
AcDbEntity
  8
0
 62
     0
370
    -2
100
AcDbBlockReference
  2
_Open30
 10
1434.558944439878
 20
-218.6885558672631
 30
0.0
 41
2.5
 42
2.5
 43
2.5
 50
135.0000000000046
  0
INSERT
  5
18C8
330
12F8
100
AcDbEntity
  8
0
 62
     0
370
    -2
100
AcDbBlockReference
  2
_Open30
 10
1498.198554746671
 20
-282.3281661740455
 30
0.0
 41
2.5
 42
2.5
 43
2.5
 50
315.0000000000046
  0
MTEXT
  5
18C9
330
12F8
100
AcDbEntity
  8
0
 62
     4
100
AcDbMText
 10
1468.15941152206
 20
-249.283819129397
 30
0.0
 40
3.0
 41
0.0
 71
     5
 72
     1
  1
180
 11
0.7071067811866048
 21
-0.7071067811864904
 31
0.0
 73
     1
 44
1.0
1001
ACAD
1000
MTEXTBEGIN
1070
    73
1070
     1
1070
    44
1040
1.0
1070
    74
1070
     0
1000
MTEXTEND
  0
POINT
  5
18CA
330
12F8
100
AcDbEntity
  8
Defpoints
 62
     0
100
AcDbPoint
 10
1393.517510306147
 20
-259.7299900010006
 30
0.0
  0
POINT
  5
18CB
330
12F8
100
AcDbEntity
  8
Defpoints
 62
     0
100
AcDbPoint
 10
1457.157120612937
 20
-323.3696003077864
 30
0.0
  0
POINT
  5
18CC
330
12F8
100
AcDbEntity
  8
Defpoints
 62
     0
100
AcDbPoint
 10
1498.198554746671
 20
-282.3281661740455
 30
0.0
  0
ENDBLK
  5
12FA
330
12F8
100
AcDbEntity
  8
0
100
AcDbBlockEnd
  0
BLOCK
  5
1311
330
1310
100
AcDbEntity
  8
0
100
AcDbBlockBegin
  2
*D9
 70
     1
 10
0.0
 20
0.0
 30
0.0
  3
*D9
  1

  0
LINE
  5
194B
330
1310
100
AcDbEntity
  8
0
 62
     0
370
    -2
100
AcDbLine
 10
1421.046730919727
 20
-259.7299900010016
 30
0.0
 11
1488.88528673469
 21
-259.7299900010016
 31
0.0
  0
LINE
  5
194C
330
1310
100
AcDbEntity
  8
0
 62
     0
370
    -2
100
AcDbLine
 10
1421.046730919728
 20
-359.7299900009971
 30
0.0
 11
1488.88528673469
 21
-359.7299900009971
 31
0.0
  0
LINE
  5
194D
330
1310
100
AcDbEntity
  8
0
 62
     0
370
    -2
100
AcDbLine
 10
1487.63528673469
 20
-262.2299900010016
 30
0.0
 11
1487.63528673469
 21
-357.2299900009971
 31
0.0
  0
INSERT
  5
194E
330
1310
100
AcDbEntity
  8
0
 62
     0
370
    -2
100
AcDbBlockReference
  2
_Open30
 10
1487.63528673469
 20
-259.7299900010016
 30
0.0
 41
2.5
 42
2.5
 43
2.5
 50
90.0
  0
INSERT
  5
194F
330
1310
100
AcDbEntity
  8
0
 62
     0
370
    -2
100
AcDbBlockReference
  2
_Open30
 10
1487.63528673469
 20
-359.7299900009971
 30
0.0
 41
2.5
 42
2.5
 43
2.5
 50
270.0
  0
MTEXT
  5
1950
330
1310
100
AcDbEntity
  8
0
 62
     4
100
AcDbMText
 10
1485.51028673469
 20
-309.1394049675859
 30
0.0
 40
3.0
 41
0.0
 71
     5
 72
     1
  1
200
 11
0.0000000000000001
 21
1.0
 31
0.0
 73
     1
 44
1.0
1001
ACAD
1000
MTEXTBEGIN
1070
    73
1070
     1
1070
    44
1040
1.0
1070
    74
1070
     0
1000
MTEXTEND
  0
POINT
  5
1951
330
1310
100
AcDbEntity
  8
Defpoints
 62
     0
100
AcDbPoint
 10
1420.796730919727
 20
-259.7299900010016
 30
0.0
  0
POINT
  5
1952
330
1310
100
AcDbEntity
  8
Defpoints
 62
     0
100
AcDbPoint
 10
1420.796730919729
 20
-359.7299900009971
 30
0.0
  0
POINT
  5
1953
330
1310
100
AcDbEntity
  8
Defpoints
 62
     0
100
AcDbPoint
 10
1487.63528673469
 20
-359.7299900009971
 30
0.0
  0
ENDBLK
  5
1312
330
1310
100
AcDbEntity
  8
0
100
AcDbBlockEnd
  0
BLOCK
  5
1329
330
1328
100
AcDbEntity
  8
0
100
AcDbBlockBegin
  2
*D10
 70
     1
 10
0.0
 20
0.0
 30
0.0
  3
*D10
  1

  0
LINE
  5
18D5
330
1328
100
AcDbEntity
  8
0
 62
     0
370
    -2
100
AcDbLine
 10
1457.157120612936
 20
-323.6196003077865
 30
0.0
 11
1457.157120612938
 21
-375.5250366808067
 31
0.0
  0
LINE
  5
18D6
330
1328
100
AcDbEntity
  8
0
 62
     0
370
    -2
100
AcDbLine
 10
1357.157120612936
 20
-323.6196003077894
 30
0.0
 11
1357.157120612938
 21
-375.5250366808095
 31
0.0
  0
LINE
  5
18D7
330
1328
100
AcDbEntity
  8
0
 62
     0
370
    -2
100
AcDbLine
 10
1454.657120612938
 20
-374.2750366808068
 30
0.0
 11
1359.657120612938
 21
-374.2750366808095
 31
0.0
  0
INSERT
  5
18D8
330
1328
100
AcDbEntity
  8
0
 62
     0
370
    -2
100
AcDbBlockReference
  2
_Open30
 10
1457.157120612938
 20
-374.2750366808067
 30
0.0
 41
2.5
 42
2.5
 43
2.5
 50
0.0000000000015987
  0
INSERT
  5
18D9
330
1328
100
AcDbEntity
  8
0
 62
     0
370
    -2
100
AcDbBlockReference
  2
_Open30
 10
1357.157120612938
 20
-374.2750366808095
 30
0.0
 41
2.5
 42
2.5
 43
2.5
 50
180.0000000000016
  0
MTEXT
  5
18DA
330
1328
100
AcDbEntity
  8
0
 62
     4
100
AcDbMText
 10
1406.736815474427
 20
-372.1500366808082
 30
0.0
 40
3.0
 41
0.0
 71
     5
 72
     1
  1
200
 73
     1
 44
1.0
1001
ACAD
1000
MTEXTBEGIN
1070
    73
1070
     1
1070
    44
1040
1.0
1070
    74
1070
     0
1000
MTEXTEND
  0
POINT
  5
18DB
330
1328
100
AcDbEntity
  8
Defpoints
 62
     0
100
AcDbPoint
 10
1457.157120612936
 20
-323.3696003077865
 30
0.0
  0
POINT
  5
18DC
330
1328
100
AcDbEntity
  8
Defpoints
 62
     0
100
AcDbPoint
 10
1357.157120612936
 20
-323.3696003077894
 30
0.0
  0
POINT
  5
18DD
330
1328
100
AcDbEntity
  8
Defpoints
 62
     0
100
AcDbPoint
 10
1357.157120612938
 20
-374.2750366808095
 30
0.0
  0
ENDBLK
  5
132A
330
1328
100
AcDbEntity
  8
0
100
AcDbBlockEnd
  0
BLOCK
  5
136E
330
136D
100
AcDbEntity
  8
0
100
AcDbBlockBegin
  2
*D11
 70
     1
 10
0.0
 20
0.0
 30
0.0
  3
*D11
  1

  0
LINE
  5
1954
330
136D
100
AcDbEntity
  8
0
 62
     0
370
    -2
100
AcDbLine
 10
1416.784886175614
 20
-275.9799900010003
 30
0.0
 11
1480.608602883255
 21
-275.9799900010003
 31
0.0
  0
LINE
  5
1955
330
136D
100
AcDbEntity
  8
0
 62
     0
370
    -2
100
AcDbLine
 10
1416.784886175614
 20
-343.4799900010005
 30
0.0
 11
1480.608602883255
 21
-343.4799900010005
 31
0.0
  0
LINE
  5
1956
330
136D
100
AcDbEntity
  8
0
 62
     0
370
    -2
100
AcDbLine
 10
1479.358602883255
 20
-278.4799900010002
 30
0.0
 11
1479.358602883255
 21
-340.9799900010005
 31
0.0
  0
INSERT
  5
1957
330
136D
100
AcDbEntity
  8
0
 62
     0
370
    -2
100
AcDbBlockReference
  2
_Open30
 10
1479.358602883255
 20
-275.9799900010003
 30
0.0
 41
2.5
 42
2.5
 43
2.5
 50
90.0
  0
INSERT
  5
1958
330
136D
100
AcDbEntity
  8
0
 62
     0
370
    -2
100
AcDbBlockReference
  2
_Open30
 10
1479.358602883255
 20
-343.4799900010005
 30
0.0
 41
2.5
 42
2.5
 43
2.5
 50
270.0
  0
MTEXT
  5
1959
330
136D
100
AcDbEntity
  8
0
 62
     4
100
AcDbMText
 10
1477.233602883255
 20
-309.3421654564358
 30
0.0
 40
3.0
 41
0.0
 71
     5
 72
     1
  1
135
 11
0.0000000000000001
 21
1.0
 31
0.0
 73
     1
 44
1.0
1001
ACAD
1000
MTEXTBEGIN
1070
    73
1070
     1
1070
    44
1040
1.0
1070
    74
1070
     0
1000
MTEXTEND
  0
POINT
  5
195A
330
136D
100
AcDbEntity
  8
Defpoints
 62
     0
100
AcDbPoint
 10
1416.534886175614
 20
-275.9799900010003
 30
0.0
  0
POINT
  5
195B
330
136D
100
AcDbEntity
  8
Defpoints
 62
     0
100
AcDbPoint
 10
1416.534886175614
 20
-343.4799900010005
 30
0.0
  0
POINT
  5
195C
330
136D
100
AcDbEntity
  8
Defpoints
 62
     0
100
AcDbPoint
 10
1479.358602883255
 20
-343.4799900010005
 30
0.0
  0
ENDBLK
  5
136F
330
136D
100
AcDbEntity
  8
0
100
AcDbBlockEnd
  0
BLOCK
  5
138F
330
138E
100
AcDbEntity
  8
0
100
AcDbBlockBegin
  2
*D12
 70
     1
 10
0.0
 20
0.0
 30
0.0
  3
*D12
  1

  0
LINE
  5
18DE
330
138E
100
AcDbEntity
  8
0
 62
     0
370
    -2
100
AcDbLine
 10
1373.407120612937
 20
-319.3577555636772
 30
0.0
 11
1373.407120612937
 21
-368.5973047658667
 31
0.0
  0
LINE
  5
18DF
330
138E
100
AcDbEntity
  8
0
 62
     0
370
    -2
100
AcDbLine
 10
1440.907120612936
 20
-319.3577555636784
 30
0.0
 11
1440.907120612936
 21
-368.5973047658667
 31
0.0
  0
LINE
  5
18E0
330
138E
100
AcDbEntity
  8
0
 62
     0
370
    -2
100
AcDbLine
 10
1375.907120612936
 20
-367.3473047658668
 30
0.0
 11
1438.407120612936
 21
-367.3473047658668
 31
0.0
  0
INSERT
  5
18E1
330
138E
100
AcDbEntity
  8
0
 62
     0
370
    -2
100
AcDbBlockReference
  2
_Open30
 10
1373.407120612937
 20
-367.3473047658668
 30
0.0
 41
2.5
 42
2.5
 43
2.5
 50
180.0
  0
INSERT
  5
18E2
330
138E
100
AcDbEntity
  8
0
 62
     0
370
    -2
100
AcDbBlockReference
  2
_Open30
 10
1440.907120612936
 20
-367.3473047658668
 30
0.0
 41
2.5
 42
2.5
 43
2.5
  0
MTEXT
  5
18E3
330
138E
100
AcDbEntity
  8
0
 62
     4
100
AcDbMText
 10
1406.544019000822
 20
-365.2223047658667
 30
0.0
 40
3.0
 41
0.0
 71
     5
 72
     1
  1
135
 73
     1
 44
1.0
1001
ACAD
1000
MTEXTBEGIN
1070
    73
1070
     1
1070
    44
1040
1.0
1070
    74
1070
     0
1000
MTEXTEND
  0
POINT
  5
18E4
330
138E
100
AcDbEntity
  8
Defpoints
 62
     0
100
AcDbPoint
 10
1373.407120612937
 20
-319.1077555636772
 30
0.0
  0
POINT
  5
18E5
330
138E
100
AcDbEntity
  8
Defpoints
 62
     0
100
AcDbPoint
 10
1440.907120612936
 20
-319.1077555636784
 30
0.0
  0
POINT
  5
18E6
330
138E
100
AcDbEntity
  8
Defpoints
 62
     0
100
AcDbPoint
 10
1440.907120612936
 20
-367.3473047658668
 30
0.0
  0
ENDBLK
  5
1390
330
138E
100
AcDbEntity
  8
0
100
AcDbBlockEnd
  0
BLOCK
  5
13A7
330
13A6
100
AcDbEntity
  8
0
100
AcDbBlockBegin
  2
*D13
 70
     1
 10
0.0
 20
0.0
 30
0.0
  3
*D13
  1

  0
ARC
  5
18AA
330
13A6
100
AcDbEntity
  8
0
 62
     0
370
    -2
100
AcDbCircle
 10
1407.157120612936
 20
-309.7299900010002
 30
0.0
 40
25.26629135866766
100
AcDbArc
 50
50.67150686603156
 51
84.3284931339688
  0
INSERT
  5
18AB
330
13A6
100
AcDbEntity
  8
0
 62
     0
370
    -2
100
AcDbBlockReference
  2
_Open30
 10
1425.023086568085
 20
-291.8640240458513
 30
0.0
 41
2.5
 42
2.5
 43
2.5
 50
317.8357534330158
  0
INSERT
  5
18AC
330
13A6
100
AcDbEntity
  8
0
 62
     0
370
    -2
100
AcDbBlockReference
  2
_Open30
 10
1407.157120612936
 20
-284.4636986423328
 30
0.0
 41
2.5
 42
2.5
 43
2.5
 50
177.1642465669845
  0
MTEXT
  5
18AD
330
13A6
100
AcDbEntity
  8
0
 62
     4
100
AcDbMText
 10
1418.212978445581
 20
-284.6690472837006
 30
0.0
 40
3.0
 41
0.0
 71
     5
 72
     1
  1
45\U+00B0
 11
0.9149237394157909
 21
-0.4036267471977369
 31
0.0
 73
     1
 44
1.0
1001
ACAD
1000
MTEXTBEGIN
1070
    73
1070
     1
1070
    44
1040
1.0
1070
    74
1070
     0
1000
MTEXTEND
  0
POINT
  5
18AE
330
13A6
100
AcDbEntity
  8
Defpoints
 62
     0
100
AcDbPoint
 10
1413.696518015669
 20
-285.3246266431188
 30
0.0
  0
POINT
  5
18AF
330
13A6
100
AcDbEntity
  8
Defpoints
 62
     0
100
AcDbPoint
 10
1407.157120612936
 20
-352.8577555636774
 30
0.0
  0
POINT
  5
18B0
330
13A6
100
AcDbEntity
  8
Defpoints
 62
     0
100
AcDbPoint
 10
1364.494273578389
 20
-352.3928370355478
 30
0.0
  0
POINT
  5
18B1
330
13A6
100
AcDbEntity
  8
Defpoints
 62
     0
100
AcDbPoint
 10
1449.819967647484
 20
-267.0671429664527
 30
0.0
  0
POINT
  5
18B2
330
13A6
100
AcDbEntity
  8
Defpoints
 62
     0
100
AcDbPoint
 10
1407.157120612936
 20
-266.6022244383234
 30
0.0
  0
ENDBLK
  5
13A8
330
13A6
100
AcDbEntity
  8
0
100
AcDbBlockEnd
  0
BLOCK
  5
13BF
330
13BE
100
AcDbEntity
  8
0
100
AcDbBlockBegin
  2
*D14
 70
     1
 10
0.0
 20
0.0
 30
0.0
  3
*D14
  1

  0
ARC
  5
18B3
330
13BE
100
AcDbEntity
  8
0
 62
     0
370
    -2
100
AcDbCircle
 10
1407.157120612936
 20
-309.7299900010001
 30
0.0
 40
25.13107879061236
100
AcDbArc
 50
185.7020463770674
 51
219.2979536229325
  0
INSERT
  5
18B4
330
13BE
100
AcDbEntity
  8
0
 62
     0
370
    -2
100
AcDbBlockReference
  2
_Open30
 10
1382.026041822324
 20
-309.7299900010001
 30
0.0
 41
2.5
 42
2.5
 43
2.5
 50
92.85102318853359
  0
INSERT
  5
18B5
330
13BE
100
AcDbEntity
  8
0
 62
     0
370
    -2
100
AcDbBlockReference
  2
_Open30
 10
1389.386764381561
 20
-327.5003462323756
 30
0.0
 41
2.5
 42
2.5
 43
2.5
 50
312.1489768114664
  0
MTEXT
  5
18B6
330
13BE
100
AcDbEntity
  8
0
 62
     4
100
AcDbMText
 10
1385.971823858936
 20
-318.700099407513
 30
0.0
 40
3.0
 41
0.0
 71
     5
 72
     1
  1
45\U+00B0
 11
0.3899017076379341
 21
-0.9208564808812624
 31
0.0
 73
     1
 44
1.0
1001
ACAD
1000
MTEXTBEGIN
1070
    73
1070
     1
1070
    44
1040
1.0
1070
    74
1070
     0
1000
MTEXTEND
  0
POINT
  5
18B7
330
13BE
100
AcDbEntity
  8
Defpoints
 62
     0
100
AcDbPoint
 10
1382.882362566579
 20
-316.2343918159824
 30
0.0
  0
POINT
  5
18B8
330
13BE
100
AcDbEntity
  8
Defpoints
 62
     0
100
AcDbPoint
 10
1450.284886175613
 20
-309.7299900010002
 30
0.0
  0
POINT
  5
18B9
330
13BE
100
AcDbEntity
  8
Defpoints
 62
     0
100
AcDbPoint
 10
1364.494273578389
 20
-352.3928370355478
 30
0.0
  0
POINT
  5
18BA
330
13BE
100
AcDbEntity
  8
Defpoints
 62
     0
100
AcDbPoint
 10
1449.819967647484
 20
-267.0671429664527
 30
0.0
  0
POINT
  5
18BB
330
13BE
100
AcDbEntity
  8
Defpoints
 62
     0
100
AcDbPoint
 10
1364.029355050259
 20
-309.7299900009999
 30
0.0
  0
ENDBLK
  5
13C0
330
13BE
100
AcDbEntity
  8
0
100
AcDbBlockEnd
  0
BLOCK
  5
13D7
330
13D6
100
AcDbEntity
  8
0
100
AcDbBlockBegin
  2
*D15
 70
     1
 10
0.0
 20
0.0
 30
0.0
  3
*D15
  1

  0
LINE
  5
19DC
330
13D6
100
AcDbEntity
  8
0
 62
     0
370
    -2
100
AcDbLine
 10
1457.407120612936
 20
-410.7689868395091
 30
0.0
 11
1463.700575752093
 21
-410.7689868395091
 31
0.0
  0
LINE
  5
19DD
330
13D6
100
AcDbEntity
  8
0
 62
     0
370
    -2
100
AcDbLine
 10
1457.407120612936
 20
-407.7689868395091
 30
0.0
 11
1463.700575752093
 21
-407.7689868395091
 31
0.0
  0
LINE
  5
19DE
330
13D6
100
AcDbEntity
  8
0
 62
     0
370
    -2
100
AcDbLine
 10
1462.450575752093
 20
-413.2689868395091
 30
0.0
 11
1462.450575752093
 21
-415.7689868395091
 31
0.0
  0
LINE
  5
19DF
330
13D6
100
AcDbEntity
  8
0
 62
     0
370
    -2
100
AcDbLine
 10
1462.450575752093
 20
-405.268986839509
 30
0.0
 11
1462.450575752093
 21
-393.518986839509
 31
0.0
  0
LINE
  5
19E0
330
13D6
100
AcDbEntity
  8
0
 62
     0
370
    -2
100
AcDbLine
 10
1462.450575752093
 20
-410.7689868395091
 30
0.0
 11
1462.450575752093
 21
-407.7689868395091
 31
0.0
  0
INSERT
  5
19E1
330
13D6
100
AcDbEntity
  8
0
 62
     0
370
    -2
100
AcDbBlockReference
  2
_Open30
 10
1462.450575752093
 20
-410.7689868395091
 30
0.0
 41
2.5
 42
2.5
 43
2.5
 50
90.0
  0
INSERT
  5
19E2
330
13D6
100
AcDbEntity
  8
0
 62
     0
370
    -2
100
AcDbBlockReference
  2
_Open30
 10
1462.450575752093
 20
-407.7689868395091
 30
0.0
 41
2.5
 42
2.5
 43
2.5
 50
270.0
  0
MTEXT
  5
19E3
330
13D6
100
AcDbEntity
  8
0
 62
     4
100
AcDbMText
 10
1460.325575752093
 20
-398.1439868395088
 30
0.0
 40
3.0
 41
0.0
 71
     5
 72
     1
  1
t=6
 11
0.0000000000000001
 21
1.0
 31
0.0
 73
     1
 44
1.0
1001
ACAD
1000
MTEXTBEGIN
1070
    73
1070
     1
1070
    44
1040
1.0
1070
    74
1070
     0
1000
MTEXTEND
  0
POINT
  5
19E4
330
13D6
100
AcDbEntity
  8
Defpoints
 62
     0
100
AcDbPoint
 10
1457.157120612936
 20
-410.7689868395091
 30
0.0
  0
POINT
  5
19E5
330
13D6
100
AcDbEntity
  8
Defpoints
 62
     0
100
AcDbPoint
 10
1457.157120612936
 20
-407.7689868395091
 30
0.0
  0
POINT
  5
19E6
330
13D6
100
AcDbEntity
  8
Defpoints
 62
     0
100
AcDbPoint
 10
1462.450575752093
 20
-407.7689868395091
 30
0.0
  0
ENDBLK
  5
13D8
330
13D6
100
AcDbEntity
  8
0
100
AcDbBlockEnd
  0
BLOCK
  5
13FF
330
13FE
100
AcDbEntity
  8
0
100
AcDbBlockBegin
  2
*D16
 70
     1
 10
0.0
 20
0.0
 30
0.0
  3
*D16
  1

  0
LINE
  5
18CD
330
13FE
100
AcDbEntity
  8
0
 62
     0
370
    -2
100
AcDbLine
 10
1376.974552350177
 20
-305.8782461361861
 30
0.0
 11
1378.67332936791
 21
-304.0440823910367
 31
0.0
  0
LINE
  5
18CE
330
13FE
100
AcDbEntity
  8
0
 62
     0
370
    -2
100
AcDbLine
 10
1369.839688875696
 20
-313.581733865814
 30
0.0
 11
1343.148965379578
 21
-342.3996168824461
 31
0.0
  0
LINE
  5
18CF
330
13FE
100
AcDbEntity
  8
0
 62
     0
370
    -2
100
AcDbLine
 10
1375.275775332444
 20
-307.7124098813356
 30
0.0
 11
1371.53846589343
 21
-311.7475701206646
 31
0.0
  0
INSERT
  5
18D0
330
13FE
100
AcDbEntity
  8
0
 62
     0
370
    -2
100
AcDbBlockReference
  2
_Open30
 10
1375.275775332444
 20
-307.7124098813356
 30
0.0
 41
2.5
 42
2.5
 43
2.5
 50
227.1945723981011
  0
INSERT
  5
18D1
330
13FE
100
AcDbEntity
  8
0
 62
     0
370
    -2
100
AcDbBlockReference
  2
_Open30
 10
1371.53846589343
 20
-311.7475701206646
 30
0.0
 41
2.5
 42
2.5
 43
2.5
 50
47.19457239810107
  0
MTEXT
  5
18D2
102
{ACAD_XDICTIONARY
360
1B73
102
}
330
13FE
100
AcDbEntity
  8
0
 62
     4
100
AcDbMText
 10
1347.382755826671
 20
-334.7011580464124
 30
0.0
 40
3.0
 41
0.0
 71
     5
 72
     1
  1
5-\U+220511穴
 11
0.6795108070934003
 21
0.73366549805976
 31
0.0
 73
     1
 44
1.0
1001
ACAD
1000
MTEXTBEGIN
1070
    73
1070
     1
1070
    44
1040
1.0
1070
    74
1070
     0
1000
MTEXTEND
  0
POINT
  5
18D3
330
13FE
100
AcDbEntity
  8
Defpoints
 62
     0
100
AcDbPoint
 10
1371.53846589343
 20
-311.7475701206646
 30
0.0
  0
POINT
  5
18D4
330
13FE
100
AcDbEntity
  8
Defpoints
 62
     0
100
AcDbPoint
 10
1375.275775332444
 20
-307.7124098813356
 30
0.0
  0
ENDBLK
  5
1400
330
13FE
100
AcDbEntity
  8
0
100
AcDbBlockEnd
  0
BLOCK
  5
18FB
330
18FA
100
AcDbEntity
  8
0
100
AcDbBlockBegin
  2
*D17
 70
     1
 10
0.0
 20
0.0
 30
0.0
  3
*D17
  1

  0
LINE
  5
19AB
330
18FA
100
AcDbEntity
  8
0
 62
     0
370
    -2
100
AcDbLine
 10
1457.333897308233
 20
-323.19282361249
 30
0.0
 11
1473.543539930821
 21
-306.9831809899001
 31
0.0
  0
LINE
  5
19AC
330
18FA
100
AcDbEntity
  8
0
 62
     0
370
    -2
100
AcDbLine
 10
1393.694287001443
 20
-259.5532133057048
 30
0.0
 11
1409.903929624031
 21
-243.343570683115
 31
0.0
  0
LINE
  5
19AD
330
18FA
100
AcDbEntity
  8
0
 62
     0
370
    -2
100
AcDbLine
 10
1470.891889501372
 20
-306.099297513417
 30
0.0
 11
1410.787813100514
 21
-245.9952211125645
 31
0.0
  0
INSERT
  5
19AE
330
18FA
100
AcDbEntity
  8
0
 62
     0
370
    -2
100
AcDbBlockReference
  2
_Open30
 10
1472.659656454338
 20
-307.8670644663834
 30
0.0
 41
2.5
 42
2.5
 43
2.5
 50
315.0000000000023
  0
INSERT
  5
19AF
330
18FA
100
AcDbEntity
  8
0
 62
     0
370
    -2
100
AcDbBlockReference
  2
_Open30
 10
1409.020046147548
 20
-244.2274541595982
 30
0.0
 41
2.5
 42
2.5
 43
2.5
 50
135.0000000000023
  0
MTEXT
  5
19B0
330
18FA
100
AcDbEntity
  8
0
 62
     4
100
AcDbMText
 10
1451.990616584224
 20
-284.1928207762279
 30
0.0
 40
3.0
 41
0.0
 71
     5
 72
     1
  1
180
 11
0.7071067811865765
 21
-0.7071067811865186
 31
0.0
 73
     1
 44
1.0
1001
ACAD
1000
MTEXTBEGIN
1070
    73
1070
     1
1070
    44
1040
1.0
1070
    74
1070
     0
1000
MTEXTEND
  0
POINT
  5
19B1
330
18FA
100
AcDbEntity
  8
Defpoints
 62
     0
100
AcDbPoint
 10
1457.157120612936
 20
-323.3696003077866
 30
0.0
  0
POINT
  5
19B2
330
18FA
100
AcDbEntity
  8
Defpoints
 62
     0
100
AcDbPoint
 10
1393.517510306146
 20
-259.7299900010015
 30
0.0
  0
POINT
  5
19B3
330
18FA
100
AcDbEntity
  8
Defpoints
 62
     0
100
AcDbPoint
 10
1409.020046147548
 20
-244.2274541595982
 30
0.0
  0
ENDBLK
  5
18FC
330
18FA
100
AcDbEntity
  8
0
100
AcDbBlockEnd
  0
BLOCK
  5
1983
330
1982
100
AcDbEntity
  8
0
100
AcDbBlockBegin
  2
*D18
 70
     1
 10
0.0
 20
0.0
 30
0.0
  3
*D18
  1

  0
LINE
  5
19CF
330
1982
100
AcDbEntity
  8
0
 62
     0
370
    -2
100
AcDbLine
 10
1420.619954224429
 20
-259.5532133057037
 30
0.0
 11
1404.255198399341
 21
-243.1884574806137
 31
0.0
  0
LINE
  5
19D0
330
1982
100
AcDbEntity
  8
0
 62
     0
370
    -2
100
AcDbLine
 10
1356.980343917639
 20
-323.192823612487
 30
0.0
 11
1340.615588092551
 21
-306.828067787397
 31
0.0
  0
LINE
  5
19D1
330
1982
100
AcDbEntity
  8
0
 62
     0
370
    -2
100
AcDbLine
 10
1403.371314922857
 20
-245.8401079100631
 30
0.0
 11
1343.267238522001
 21
-305.9441843109139
 31
0.0
  0
INSERT
  5
19D2
330
1982
100
AcDbEntity
  8
0
 62
     0
370
    -2
100
AcDbBlockReference
  2
_Open30
 10
1405.139081875824
 20
-244.0723409570969
 30
0.0
 41
2.5
 42
2.5
 43
2.5
 50
44.99999999999712
  0
INSERT
  5
19D3
330
1982
100
AcDbEntity
  8
0
 62
     0
370
    -2
100
AcDbBlockReference
  2
_Open30
 10
1341.499471569034
 20
-307.7119512638802
 30
0.0
 41
2.5
 42
2.5
 43
2.5
 50
224.9999999999971
  0
MTEXT
  5
19D4
330
1982
100
AcDbEntity
  8
0
 62
     4
100
AcDbMText
 10
1360.379928903327
 20
-285.8262901095462
 30
0.0
 40
3.0
 41
0.0
 71
     5
 72
     1
  1
180
 11
0.7071067811865834
 21
0.7071067811865117
 31
0.0
 73
     1
 44
1.0
1001
ACAD
1000
MTEXTBEGIN
1070
    73
1070
     1
1070
    44
1040
1.0
1070
    74
1070
     0
1000
MTEXTEND
  0
POINT
  5
19D5
330
1982
100
AcDbEntity
  8
Defpoints
 62
     0
100
AcDbPoint
 10
1420.796730919726
 20
-259.7299900010002
 30
0.0
  0
POINT
  5
19D6
330
1982
100
AcDbEntity
  8
Defpoints
 62
     0
100
AcDbPoint
 10
1357.157120612936
 20
-323.3696003077836
 30
0.0
  0
POINT
  5
19D7
330
1982
100
AcDbEntity
  8
Defpoints
 62
     0
100
AcDbPoint
 10
1341.499471569034
 20
-307.7119512638802
 30
0.0
  0
ENDBLK
  5
1984
330
1982
100
AcDbEntity
  8
0
100
AcDbBlockEnd
  0
ENDSEC
  0
SECTION
  2
ENTITIES
  0
LINE
  5
11A6
330
1F
100
AcDbEntity
  8
0
  6
CENTER
 62
     7
100
AcDbLine
 10
1407.157120612937
 20
-352.8577555636774
 30
0.0
 11
1407.157120612936
 21
-266.6022244383234
 31
0.0
  0
LINE
  5
11A7
330
1F
100
AcDbEntity
  8
0
  6
CENTER
 62
     7
100
AcDbLine
 10
1450.284886175614
 20
-309.7299900010002
 30
0.0
 11
1364.029355050259
 21
-309.729990001
 31
0.0
  0
LINE
  5
1282
330
1F
100
AcDbEntity
  8
0
  6
CENTER
 62
     7
100
AcDbLine
 10
1397.779355050259
 20
-275.9799900010001
 30
0.0
 11
1416.534886175614
 21
-275.9799900010003
 31
0.0
  0
LINE
  5
1283
330
1F
100
AcDbEntity
  8
0
  6
CENTER
 62
     7
100
AcDbLine
 10
1397.779355050259
 20
-343.4799900010002
 30
0.0
 11
1416.534886175614
 21
-343.4799900010005
 31
0.0
  0
LINE
  5
1284
330
1F
100
AcDbEntity
  8
0
  6
CENTER
 62
     7
100
AcDbLine
 10
1373.407120612936
 20
-300.352224438323
 30
0.0
 11
1373.407120612937
 21
-319.1077555636772
 31
0.0
  0
LINE
  5
1285
330
1F
100
AcDbEntity
  8
0
  6
CENTER
 62
     7
100
AcDbLine
 10
1440.907120612936
 20
-300.3522244383237
 30
0.0
 11
1440.907120612936
 21
-319.1077555636784
 31
0.0
  0
CIRCLE
  5
1286
330
1F
100
AcDbEntity
  8
0
 62
     3
100
AcDbCircle
 10
1407.157120612936
 20
-275.9799900010004
 30
0.0
 40
2.75
  0
CIRCLE
  5
1287
330
1F
100
AcDbEntity
  8
0
 62
     3
100
AcDbCircle
 10
1407.157120612936
 20
-309.7299900010002
 30
0.0
 40
2.75
  0
CIRCLE
  5
1288
330
1F
100
AcDbEntity
  8
0
 62
     3
100
AcDbCircle
 10
1407.157120612936
 20
-343.4799900010002
 30
0.0
 40
2.75
  0
CIRCLE
  5
1289
330
1F
100
AcDbEntity
  8
0
 62
     3
100
AcDbCircle
 10
1373.407120612937
 20
-309.7299900010002
 30
0.0
 40
2.75
  0
CIRCLE
  5
128A
330
1F
100
AcDbEntity
  8
0
 62
     3
100
AcDbCircle
 10
1440.907120612936
 20
-309.7299900010002
 30
0.0
 40
2.75
  0
LINE
  5
128D
330
1F
100
AcDbEntity
  8
0
 62
     3
100
AcDbLine
 10
1357.157120612936
 20
-296.0903796942168
 30
0.0
 11
1357.157120612936
 21
-323.3696003077837
 31
0.0
  0
LINE
  5
128E
330
1F
100
AcDbEntity
  8
0
 62
     3
100
AcDbLine
 10
1457.157120612936
 20
-323.3696003077865
 30
0.0
 11
1457.157120612936
 21
-296.0903796942168
 31
0.0
  0
LINE
  5
1290
330
1F
100
AcDbEntity
  8
0
 62
     3
100
AcDbLine
 10
1393.517510306144
 20
-259.7299900010005
 30
0.0
 11
1420.796730919728
 21
-259.7299900010004
 31
0.0
  0
LINE
  5
1292
330
1F
100
AcDbEntity
  8
0
 62
     3
100
AcDbLine
 10
1393.517510306145
 20
-359.7299900010002
 30
0.0
 11
1420.796730919731
 21
-359.7299900010005
 31
0.0
  0
LINE
  5
12B1
330
1F
100
AcDbEntity
  8
0
 62
     3
100
AcDbLine
 10
1393.517510306146
 20
-259.7299900010015
 30
0.0
 11
1357.157120612934
 21
-296.090379694214
 31
0.0
  0
LINE
  5
12B2
330
1F
100
AcDbEntity
  8
0
 62
     3
100
AcDbLine
 10
1457.157120612938
 20
-323.3696003077881
 30
0.0
 11
1420.796730919729
 21
-359.7299900009971
 31
0.0
  0
LINE
  5
12B3
330
1F
100
AcDbEntity
  8
0
 62
     3
100
AcDbLine
 10
1420.796730919727
 20
-259.7299900010016
 30
0.0
 11
1457.157120612939
 21
-296.090379694214
 31
0.0
  0
LINE
  5
12B4
330
1F
100
AcDbEntity
  8
0
 62
     3
100
AcDbLine
 10
1393.517510306146
 20
-359.7299900009989
 30
0.0
 11
1357.157120612934
 21
-323.3696003077866
 31
0.0
  0
LINE
  5
12D9
330
1F
100
AcDbEntity
  8
0
 62
     3
100
AcDbLine
 10
1457.157120612936
 20
-410.7689868395091
 30
0.0
 11
1457.157120612936
 21
-407.7689868395091
 31
0.0
  0
LINE
  5
12DA
330
1F
100
AcDbEntity
  8
0
 62
     3
100
AcDbLine
 10
1420.796730919731
 20
-410.7689868395091
 30
0.0
 11
1420.796730919731
 21
-407.7689868395091
 31
0.0
  0
LINE
  5
12DB
330
1F
100
AcDbEntity
  8
0
 62
     3
100
AcDbLine
 10
1393.517510306145
 20
-410.7689868395091
 30
0.0
 11
1393.517510306145
 21
-407.7689868395091
 31
0.0
  0
LINE
  5
12DC
330
1F
100
AcDbEntity
  8
0
 62
     3
100
AcDbLine
 10
1357.157120612936
 20
-410.7689868395091
 30
0.0
 11
1357.157120612936
 21
-407.7689868395091
 31
0.0
  0
LINE
  5
12DD
330
1F
100
AcDbEntity
  8
0
 62
     3
100
AcDbLine
 10
1357.157120612936
 20
-407.7689868395091
 30
0.0
 11
1457.157120612936
 21
-407.7689868395091
 31
0.0
  0
LINE
  5
12DE
330
1F
100
AcDbEntity
  8
0
 62
     3
100
AcDbLine
 10
1357.157120612936
 20
-410.7689868395091
 30
0.0
 11
1457.157120612936
 21
-410.7689868395091
 31
0.0
  0
LINE
  5
1623
330
1F
100
AcDbEntity
  8
0
 62
     3
100
AcDbLine
 10
1309.424348564743
 20
-335.0522463971247
 30
0.0
 11
1308.936421734743
 21
-335.0522463971247
 31
0.0
  0
LINE
  5
1624
330
1F
100
AcDbEntity
  8
0
 62
     3
100
AcDbLine
 10
1320.936421734743
 20
-196.5522463971247
 30
0.0
 11
1320.936421734743
 21
-473.5522463971246
 31
0.0
  0
LINE
  5
1626
330
1F
100
AcDbEntity
  8
0
 62
     3
100
AcDbLine
 10
1500.936421734743
 20
-473.5522463971246
 30
0.0
 11
1500.936421734743
 21
-196.5522463971247
 31
0.0
  0
LINE
  5
1627
330
1F
100
AcDbEntity
  8
0
 62
     3
100
AcDbLine
 10
1320.936421734743
 20
-473.5522463971246
 30
0.0
 11
1500.936421734743
 21
-473.5522463971246
 31
0.0
  0
LINE
  5
1628
330
1F
100
AcDbEntity
  8
0
 62
     3
100
AcDbLine
 10
1358.020773754742
 20
-194.7648022971246
 30
0.0
 11
1358.456521664743
 21
-194.9922704371247
 31
0.0
  0
LINE
  5
1629
330
1F
100
AcDbEntity
  8
0
 62
     3
100
AcDbLine
 10
1358.020773754742
 20
-198.4954327771247
 30
0.0
 11
1358.456521664743
 21
-198.2679646371247
 31
0.0
  0
LINE
  5
162A
330
1F
100
AcDbEntity
  8
0
 62
     3
100
AcDbLine
 10
1358.456521664743
 20
-194.9922704371247
 30
0.0
 11
1358.456521664743
 21
-198.2679646371247
 31
0.0
  0
LINE
  5
162B
330
1F
100
AcDbEntity
  8
0
 62
     3
100
AcDbLine
 10
1359.560039084743
 20
-198.4954327771247
 30
0.0
 11
1359.124291174742
 21
-198.2679646371247
 31
0.0
  0
LINE
  5
162C
330
1F
100
AcDbEntity
  8
0
 62
     3
100
AcDbLine
 10
1359.124291174742
 20
-196.2711058271247
 30
0.0
 11
1359.124291174742
 21
-198.2679646371247
 31
0.0
  0
LINE
  5
162D
330
1F
100
AcDbEntity
  8
0
 62
     3
100
AcDbLine
 10
1362.101901864743
 20
-194.7648022971246
 30
0.0
 11
1361.666153954743
 21
-194.9922704371247
 31
0.0
  0
LINE
  5
162E
330
1F
100
AcDbEntity
  8
0
 62
     3
100
AcDbLine
 10
1360.562636534743
 20
-194.7648022971246
 30
0.0
 11
1360.998384444743
 21
-194.9922704371247
 31
0.0
  0
LINE
  5
162F
330
1F
100
AcDbEntity
  8
0
 62
     3
100
AcDbLine
 10
1360.998384444743
 20
-194.9922704371247
 30
0.0
 11
1360.998384444743
 21
-196.4346074971247
 31
0.0
  0
LINE
  5
1630
330
1F
100
AcDbEntity
  8
0
 62
     3
100
AcDbLine
 10
1361.666153954743
 20
-194.9922704371247
 30
0.0
 11
1361.666153954743
 21
-198.7069939171247
 31
0.0
  0
LINE
  5
1631
330
1F
100
AcDbEntity
  8
0
 62
     3
100
AcDbLine
 10
1362.317199064743
 20
-194.7648049271247
 30
0.0
 11
1362.752945404743
 21
-194.9922760671247
 31
0.0
  0
LINE
  5
1632
330
1F
100
AcDbEntity
  8
0
 62
     3
100
AcDbLine
 10
1362.317121094743
 20
-198.4953827971246
 30
0.0
 11
1362.752876944743
 21
-198.2679298771247
 31
0.0
  0
LINE
  5
1633
330
1F
100
AcDbEntity
  8
0
 62
     3
100
AcDbLine
 10
1362.752945404743
 20
-194.9922760671247
 30
0.0
 11
1362.752945404743
 21
-198.2679298771247
 31
0.0
  0
LINE
  5
1634
330
1F
100
AcDbEntity
  8
0
 62
     3
100
AcDbLine
 10
1364.246735464743
 20
-194.7648285971247
 30
0.0
 11
1363.810984374743
 21
-194.9922906271247
 31
0.0
  0
LINE
  5
1635
330
1F
100
AcDbEntity
  8
0
 62
     3
100
AcDbLine
 10
1363.810984374743
 20
-194.9922906271247
 30
0.0
 11
1363.810984374743
 21
-198.2679444471247
 31
0.0
  0
LINE
  5
1636
330
1F
100
AcDbEntity
  8
0
 62
     3
100
AcDbLine
 10
1364.246735464743
 20
-198.4954064771246
 30
0.0
 11
1363.810984374743
 21
-198.2679444471247
 31
0.0
  0
LINE
  5
1637
330
1F
100
AcDbEntity
  8
0
 62
     3
100
AcDbLine
 10
1367.936988904743
 20
-194.7648695971247
 30
0.0
 11
1368.372736024743
 21
-194.9923392371247
 31
0.0
  0
LINE
  5
1638
330
1F
100
AcDbEntity
  8
0
 62
     3
100
AcDbLine
 10
1368.372736024743
 20
-194.9923392371247
 30
0.0
 11
1368.372678854743
 21
-198.2679930471247
 31
0.0
  0
LINE
  5
1639
330
1F
100
AcDbEntity
  8
0
 62
     3
100
AcDbLine
 10
1367.936923794743
 20
-198.4954474771247
 30
0.0
 11
1368.372678854743
 21
-198.2679930471247
 31
0.0
  0
LINE
  5
163A
330
1F
100
AcDbEntity
  8
0
 62
     3
100
AcDbLine
 10
1369.889249864743
 20
-194.7648695971247
 30
0.0
 11
1369.453502744742
 21
-194.9923392371247
 31
0.0
  0
LINE
  5
163B
330
1F
100
AcDbEntity
  8
0
 62
     3
100
AcDbLine
 10
1369.889314974743
 20
-198.4954474771247
 30
0.0
 11
1369.453559914743
 21
-198.2679930471247
 31
0.0
  0
LINE
  5
163C
330
1F
100
AcDbEntity
  8
0
 62
     3
100
AcDbLine
 10
1370.092977724743
 20
-194.7648695971247
 30
0.0
 11
1370.528724854743
 21
-194.9923392371247
 31
0.0
  0
LINE
  5
163D
330
1F
100
AcDbEntity
  8
0
 62
     3
100
AcDbLine
 10
1370.092912614743
 20
-198.4954474771247
 30
0.0
 11
1370.528667674743
 21
-198.2679930471247
 31
0.0
  0
LINE
  5
163E
330
1F
100
AcDbEntity
  8
0
 62
     3
100
AcDbLine
 10
1372.045238694743
 20
-194.7648695971247
 30
0.0
 11
1371.609491574743
 21
-194.9923392371247
 31
0.0
  0
LINE
  5
163F
330
1F
100
AcDbEntity
  8
0
 62
     3
100
AcDbLine
 10
1371.609491574743
 20
-194.9923392371247
 30
0.0
 11
1371.609548744743
 21
-198.2679930471247
 31
0.0
  0
LINE
  5
1640
330
1F
100
AcDbEntity
  8
0
 62
     3
100
AcDbLine
 10
1372.045303804743
 20
-198.4954474771247
 30
0.0
 11
1371.609548744743
 21
-198.2679930471247
 31
0.0
  0
LINE
  5
1641
330
1F
100
AcDbEntity
  8
0
 62
     3
100
AcDbLine
 10
1370.528699944743
 20
-196.4194723571247
 30
0.0
 11
1369.453527654743
 21
-196.4194723571247
 31
0.0
  0
LINE
  5
1642
330
1F
100
AcDbEntity
  8
0
 62
     3
100
AcDbLine
 10
1370.528692584742
 20
-196.8407627171247
 30
0.0
 11
1369.453535004742
 21
-196.8407627171247
 31
0.0
  0
LINE
  5
1643
330
1F
100
AcDbEntity
  8
0
 62
     3
100
AcDbLine
 10
1370.528724854743
 20
-194.9923392371247
 30
0.0
 11
1370.528699944743
 21
-196.4194723571247
 31
0.0
  0
LINE
  5
1644
330
1F
100
AcDbEntity
  8
0
 62
     3
100
AcDbLine
 10
1370.528692584742
 20
-196.8407627171247
 30
0.0
 11
1370.528667674743
 21
-198.2679930471247
 31
0.0
  0
LINE
  5
1645
330
1F
100
AcDbEntity
  8
0
 62
     3
100
AcDbLine
 10
1369.453502744742
 20
-194.9923392371247
 30
0.0
 11
1369.453527654743
 21
-196.4194723571247
 31
0.0
  0
LINE
  5
1646
330
1F
100
AcDbEntity
  8
0
 62
     3
100
AcDbLine
 10
1369.453535004742
 20
-196.8407627171247
 30
0.0
 11
1369.453559914743
 21
-198.2679930471247
 31
0.0
  0
LINE
  5
1647
330
1F
100
AcDbEntity
  8
0
 62
     3
100
AcDbLine
 10
1372.252197814743
 20
-194.7648695971247
 30
0.0
 11
1372.687944934743
 21
-194.9923392371247
 31
0.0
  0
LINE
  5
1648
330
1F
100
AcDbEntity
  8
0
 62
     3
100
AcDbLine
 10
1372.687944934743
 20
-194.9923392371247
 30
0.0
 11
1372.687887764743
 21
-198.2679930471247
 31
0.0
  0
LINE
  5
1649
330
1F
100
AcDbEntity
  8
0
 62
     3
100
AcDbLine
 10
1372.252132704742
 20
-198.4954474771247
 30
0.0
 11
1372.687887764743
 21
-198.2679930471247
 31
0.0
  0
LINE
  5
164A
330
1F
100
AcDbEntity
  8
0
 62
     3
100
AcDbLine
 10
1374.181708084743
 20
-194.7648695971247
 30
0.0
 11
1373.745960964743
 21
-194.9923392371247
 31
0.0
  0
LINE
  5
164B
330
1F
100
AcDbEntity
  8
0
 62
     3
100
AcDbLine
 10
1373.745960964743
 20
-194.9923392371247
 30
0.0
 11
1373.746018134743
 21
-198.2679930471247
 31
0.0
  0
LINE
  5
164C
330
1F
100
AcDbEntity
  8
0
 62
     3
100
AcDbLine
 10
1374.181773194743
 20
-198.4954474771247
 30
0.0
 11
1373.746018134743
 21
-198.2679930471247
 31
0.0
  0
LINE
  5
164D
330
1F
100
AcDbEntity
  8
0
 62
     3
100
AcDbLine
 10
1374.396067654743
 20
-194.7648695971247
 30
0.0
 11
1374.831814774743
 21
-194.9923392371247
 31
0.0
  0
LINE
  5
164E
330
1F
100
AcDbEntity
  8
0
 62
     3
100
AcDbLine
 10
1374.831814774743
 20
-194.9923392371247
 30
0.0
 11
1374.831757604743
 21
-198.2679930471247
 31
0.0
  0
LINE
  5
164F
330
1F
100
AcDbEntity
  8
0
 62
     3
100
AcDbLine
 10
1374.396002544743
 20
-198.4954474771247
 30
0.0
 11
1374.831757604743
 21
-198.2679930471247
 31
0.0
  0
ARC
  5
1650
330
1F
100
AcDbEntity
  8
0
 62
     3
100
AcDbCircle
 10
1366.545077634743
 20
-196.6207277771246
 30
0.0
 40
2.086285909999999
100
AcDbArc
 50
97.70152350999701
 51
270.0
  0
ARC
  5
1651
330
1F
100
AcDbEntity
  8
0
 62
     3
100
AcDbCircle
 10
1379.425678474742
 20
-196.6416844071247
 30
0.0
 40
2.108943379999999
100
AcDbArc
 50
0.3142502699976307
 51
69.0055824499897
  0
ARC
  5
1652
330
1F
100
AcDbEntity
  8
0
 62
     3
100
AcDbCircle
 10
1379.886353794743
 20
-196.6416844071247
 30
0.0
 40
2.108943379999999
100
AcDbArc
 50
110.9944175499969
 51
148.1166110200056
  0
ARC
  5
1653
330
1F
100
AcDbEntity
  8
0
 62
     3
100
AcDbCircle
 10
1379.425678474742
 20
-196.6185506671246
 30
0.0
 40
2.108943379999999
100
AcDbArc
 50
290.9944175499969
 51
359.6857497299991
  0
ARC
  5
1654
330
1F
100
AcDbEntity
  8
0
 62
     3
100
AcDbCircle
 10
1379.886353794743
 20
-196.6185506671246
 30
0.0
 40
2.108943379999999
100
AcDbArc
 50
211.8833889799944
 51
249.0055824499897
  0
ARC
  5
1655
330
1F
100
AcDbEntity
  8
0
 62
     3
100
AcDbCircle
 10
1379.656016134743
 20
-195.7673121471247
 30
0.0
 40
1.214070989999999
100
AcDbArc
 50
64.36517189999924
 51
115.6348281000007
  0
ARC
  5
1656
330
1F
100
AcDbEntity
  8
0
 62
     3
100
AcDbCircle
 10
1379.656016134743
 20
-197.4929229271247
 30
0.0
 40
1.214070989999999
100
AcDbArc
 50
244.3651718999992
 51
295.6348281000007
  0
ARC
  5
1657
330
1F
100
AcDbEntity
  8
0
 62
     3
100
AcDbCircle
 10
1379.656016134743
 20
-195.7442504671247
 30
0.0
 40
0.59585563
100
AcDbArc
 50
19.48660554000593
 51
160.5133944599941
  0
ARC
  5
1658
330
1F
100
AcDbEntity
  8
0
 62
     3
100
AcDbCircle
 10
1379.656016134743
 20
-197.4929229271247
 30
0.0
 40
1.214070989999999
100
AcDbArc
 50
244.3651718999992
 51
295.6348281000007
  0
ARC
  5
1659
330
1F
100
AcDbEntity
  8
0
 62
     3
100
AcDbCircle
 10
1379.656016134743
 20
-197.5159846071246
 30
0.0
 40
0.59585563
100
AcDbArc
 50
199.4866055400059
 51
340.5133944599941
  0
ARC
  5
165A
330
1F
100
AcDbEntity
  8
0
 62
     3
100
AcDbCircle
 10
1374.913543634743
 20
-218.8581773771247
 30
0.0
 40
26.04
100
AcDbArc
 50
69.50571480000876
 51
81.6899880699974
  0
ARC
  5
165B
330
1F
100
AcDbEntity
  8
0
 62
     3
100
AcDbCircle
 10
1374.913543634743
 20
-174.4020576971247
 30
0.0
 40
26.04
100
AcDbArc
 50
278.3100119300026
 51
290.4942851999913
  0
ARC
  5
165C
330
1F
100
AcDbEntity
  8
0
 62
     3
100
AcDbCircle
 10
1383.221747764743
 20
-196.6301175371247
 30
0.0
 40
2.31
100
AcDbArc
 50
290.4942851999913
 51
69.50571480000876
  0
ARC
  5
165D
330
1F
100
AcDbEntity
  8
0
 62
     3
100
AcDbCircle
 10
1355.921747764743
 20
-196.6301175371247
 30
0.0
 40
2.31
100
AcDbArc
 50
110.4942851999912
 51
249.5057147999943
  0
ARC
  5
165E
330
1F
100
AcDbEntity
  8
0
 62
     3
100
AcDbCircle
 10
1364.229951884743
 20
-218.8581773771247
 30
0.0
 40
26.04
100
AcDbArc
 50
98.31001192998924
 51
110.4942851999912
  0
ARC
  5
165F
330
1F
100
AcDbEntity
  8
0
 62
     3
100
AcDbCircle
 10
1364.229951884743
 20
-174.4020576971247
 30
0.0
 40
26.04
100
AcDbArc
 50
249.5057147999943
 51
261.6899880699974
  0
ARC
  5
1660
330
1F
100
AcDbEntity
  8
0
 62
     3
100
AcDbCircle
 10
1369.571747764743
 20
-255.4301175371247
 30
0.0
 40
62.99999987
100
AcDbArc
 50
81.6899880699974
 51
98.31001192998924
  0
ARC
  5
1661
330
1F
100
AcDbEntity
  8
0
 62
     3
100
AcDbCircle
 10
1369.571747764743
 20
-137.8301175371247
 30
0.0
 40
62.99999987
100
AcDbArc
 50
261.6899880699974
 51
278.3100119300026
  0
ARC
  5
1662
330
1F
100
AcDbEntity
  8
0
 62
     3
100
AcDbCircle
 10
1369.571747764743
 20
-255.4301175371247
 30
0.0
 40
62.36999987
100
AcDbArc
 50
81.6899880699974
 51
98.31001192998924
  0
ARC
  5
1663
330
1F
100
AcDbEntity
  8
0
 62
     3
100
AcDbCircle
 10
1369.571747764743
 20
-137.8301175371247
 30
0.0
 40
62.36999987
100
AcDbArc
 50
261.6899880699974
 51
278.3100119300026
  0
ARC
  5
1664
330
1F
100
AcDbEntity
  8
0
 62
     3
100
AcDbCircle
 10
1374.913543634743
 20
-174.4020576971247
 30
0.0
 40
25.41
100
AcDbArc
 50
278.3100119300026
 51
290.4942851999913
  0
ARC
  5
1665
330
1F
100
AcDbEntity
  8
0
 62
     3
100
AcDbCircle
 10
1374.913543634743
 20
-218.8581773771247
 30
0.0
 40
25.41
100
AcDbArc
 50
69.50571480000876
 51
81.6899880699974
  0
ARC
  5
1666
330
1F
100
AcDbEntity
  8
0
 62
     3
100
AcDbCircle
 10
1383.221747764743
 20
-196.6301175371247
 30
0.0
 40
1.679999999999999
100
AcDbArc
 50
290.4942851999913
 51
69.50571480000876
  0
ARC
  5
1667
330
1F
100
AcDbEntity
  8
0
 62
     3
100
AcDbCircle
 10
1355.921747764743
 20
-196.6301175371247
 30
0.0
 40
1.679999999999999
100
AcDbArc
 50
110.4942851999912
 51
249.5057147999943
  0
ARC
  5
1668
330
1F
100
AcDbEntity
  8
0
 62
     3
100
AcDbCircle
 10
1364.229951884743
 20
-218.8581773771247
 30
0.0
 40
25.41
100
AcDbArc
 50
98.31001192998924
 51
110.4942851999912
  0
ARC
  5
1669
330
1F
100
AcDbEntity
  8
0
 62
     3
100
AcDbCircle
 10
1364.229951884743
 20
-174.4020576971247
 30
0.0
 40
25.41
100
AcDbArc
 50
249.5057147999943
 51
261.6899880699974
  0
LINE
  5
166A
330
1F
100
AcDbEntity
  8
0
 62
     3
100
AcDbLine
 10
1374.181708864743
 20
-198.7069939171247
 30
0.0
 11
1372.252197034742
 21
-198.7069939171247
 31
0.0
  0
LINE
  5
166B
330
1F
100
AcDbEntity
  8
0
 62
     3
100
AcDbLine
 10
1374.181708864743
 20
-198.4954327771247
 30
0.0
 11
1374.181708864743
 21
-198.7069939171247
 31
0.0
  0
LINE
  5
166C
330
1F
100
AcDbEntity
  8
0
 62
     3
100
AcDbLine
 10
1372.045239474743
 20
-194.5533398771247
 30
0.0
 11
1370.092976944742
 21
-194.5533398771247
 31
0.0
  0
LINE
  5
166D
330
1F
100
AcDbEntity
  8
0
 62
     3
100
AcDbLine
 10
1372.045239474743
 20
-194.5533398771247
 30
0.0
 11
1372.045239474743
 21
-194.7648022971246
 31
0.0
  0
LINE
  5
166E
330
1F
100
AcDbEntity
  8
0
 62
     3
100
AcDbLine
 10
1372.045239474743
 20
-198.4954327771247
 30
0.0
 11
1372.045239474743
 21
-198.7070926271247
 31
0.0
  0
LINE
  5
166F
330
1F
100
AcDbEntity
  8
0
 62
     3
100
AcDbLine
 10
1372.045239474743
 20
-198.7070926271247
 30
0.0
 11
1370.092976944742
 21
-198.7070926271247
 31
0.0
  0
LINE
  5
1670
330
1F
100
AcDbEntity
  8
0
 62
     3
100
AcDbLine
 10
1374.181708864743
 20
-194.5532411571247
 30
0.0
 11
1374.181708864743
 21
-194.7648022971246
 31
0.0
  0
LINE
  5
1671
330
1F
100
AcDbEntity
  8
0
 62
     3
100
AcDbLine
 10
1374.181708864743
 20
-194.5532411571247
 30
0.0
 11
1372.252197034742
 21
-194.5532411571247
 31
0.0
  0
LINE
  5
1672
330
1F
100
AcDbEntity
  8
0
 62
     3
100
AcDbLine
 10
1372.252197034742
 20
-194.5532411571247
 30
0.0
 11
1372.252197034742
 21
-194.7648022971246
 31
0.0
  0
LINE
  5
1673
330
1F
100
AcDbEntity
  8
0
 62
     3
100
AcDbLine
 10
1374.396066864743
 20
-198.4954327771247
 30
0.0
 11
1374.396066864743
 21
-198.7069939171247
 31
0.0
  0
LINE
  5
1674
330
1F
100
AcDbEntity
  8
0
 62
     3
100
AcDbLine
 10
1376.380367424743
 20
-198.7069939171247
 30
0.0
 11
1374.396066864743
 21
-198.7069939171247
 31
0.0
  0
LINE
  5
1675
330
1F
100
AcDbEntity
  8
0
 62
     3
100
AcDbLine
 10
1375.889830794743
 20
-195.2210106771247
 30
0.0
 11
1375.889830794743
 21
-198.0392243971247
 31
0.0
  0
LINE
  5
1676
330
1F
100
AcDbEntity
  8
0
 62
     3
100
AcDbLine
 10
1375.889830794743
 20
-198.0392243971247
 30
0.0
 11
1376.079879764743
 21
-198.0392243971247
 31
0.0
  0
ARC
  5
1677
330
1F
100
AcDbEntity
  8
0
 62
     3
100
AcDbCircle
 10
1375.108094024743
 20
-196.6301175371247
 30
0.0
 40
1.71170957
100
AcDbArc
 50
304.5919552700032
 51
55.40804472999678
  0
LINE
  5
1678
330
1F
100
AcDbEntity
  8
0
 62
     3
100
AcDbLine
 10
1376.380367424743
 20
-194.5532411571247
 30
0.0
 11
1374.396066864743
 21
-194.5532411571247
 31
0.0
  0
LINE
  5
1679
330
1F
100
AcDbEntity
  8
0
 62
     3
100
AcDbLine
 10
1374.396066864743
 20
-194.5532411571247
 30
0.0
 11
1374.396066864743
 21
-194.7648022971246
 31
0.0
  0
LINE
  5
167A
330
1F
100
AcDbEntity
  8
0
 62
     3
100
AcDbLine
 10
1372.252197034742
 20
-198.4954327771247
 30
0.0
 11
1372.252197034742
 21
-198.7069939171247
 31
0.0
  0
LINE
  5
167B
330
1F
100
AcDbEntity
  8
0
 62
     3
100
AcDbLine
 10
1375.889830794743
 20
-195.2210106771247
 30
0.0
 11
1376.079879764743
 21
-195.2210106771247
 31
0.0
  0
LINE
  5
167C
330
1F
100
AcDbEntity
  8
0
 62
     3
100
AcDbLine
 10
1364.246671134743
 20
-198.4954327771247
 30
0.0
 11
1364.246667444743
 21
-198.7070136871247
 31
0.0
  0
LINE
  5
167D
330
1F
100
AcDbEntity
  8
0
 62
     3
100
AcDbLine
 10
1362.317155604743
 20
-198.7069741471247
 30
0.0
 11
1364.246667444743
 21
-198.7070078171247
 31
0.0
  0
LINE
  5
167E
330
1F
100
AcDbEntity
  8
0
 62
     3
100
AcDbLine
 10
1358.020773754742
 20
-198.7069939171247
 30
0.0
 11
1359.560039084743
 21
-198.7069939171247
 31
0.0
  0
ARC
  5
167F
330
1F
100
AcDbEntity
  8
0
 62
     3
100
AcDbCircle
 10
1353.038831074743
 20
-196.5812109171247
 30
0.0
 40
14.71356563
100
AcDbArc
 50
353.8660061899983
 51
357.6940342600001
  0
LINE
  5
1680
330
1F
100
AcDbEntity
  8
0
 62
     3
100
AcDbLine
 10
1366.755410934743
 20
-197.1695785671247
 30
0.0
 11
1367.740481824743
 21
-197.1732234471246
 31
0.0
  0
LINE
  5
1682
330
1F
100
AcDbEntity
  8
0
 62
     3
100
AcDbLine
 10
1366.759389354743
 20
-196.0943638271246
 30
0.0
 11
1367.744460234743
 21
-196.0980086971247
 31
0.0
  0
ARC
  5
1683
330
1F
100
AcDbEntity
  8
0
 62
     3
100
AcDbCircle
 10
1353.038831074743
 20
-196.5812109171247
 30
0.0
 40
14.71356563
100
AcDbArc
 50
1.881965739997945
 51
5.709993809997308
  0
LINE
  5
1684
330
1F
100
AcDbEntity
  8
0
 62
     3
100
AcDbLine
 10
1364.246739934743
 20
-194.5532609271247
 30
0.0
 11
1364.246736244743
 21
-194.7648022971246
 31
0.0
  0
LINE
  5
1685
330
1F
100
AcDbEntity
  8
0
 62
     3
100
AcDbLine
 10
1362.317228104743
 20
-194.5532213871247
 30
0.0
 11
1364.246739934743
 21
-194.5532550671247
 31
0.0
  0
LINE
  5
1686
330
1F
100
AcDbEntity
  8
0
 62
     3
100
AcDbLine
 10
1362.317159294743
 20
-198.4954327771247
 30
0.0
 11
1362.317155604743
 21
-198.7069741471247
 31
0.0
  0
LINE
  5
1687
330
1F
100
AcDbEntity
  8
0
 62
     3
100
AcDbLine
 10
1362.317228104743
 20
-194.5532213871247
 30
0.0
 11
1362.317224414743
 21
-194.7648022971246
 31
0.0
  0
LINE
  5
1688
330
1F
100
AcDbEntity
  8
0
 62
     3
100
AcDbLine
 10
1359.560039084743
 20
-198.4954327771247
 30
0.0
 11
1359.560039084743
 21
-198.7069939171247
 31
0.0
  0
LINE
  5
1689
330
1F
100
AcDbEntity
  8
0
 62
     3
100
AcDbLine
 10
1359.124291174742
 20
-196.2711058271247
 30
0.0
 11
1360.646721234743
 21
-198.7069939171247
 31
0.0
  0
LINE
  5
168A
330
1F
100
AcDbEntity
  8
0
 62
     3
100
AcDbLine
 10
1360.646721234743
 20
-198.7069939171247
 30
0.0
 11
1361.666153954743
 21
-198.7069939171247
 31
0.0
  0
LINE
  5
168B
330
1F
100
AcDbEntity
  8
0
 62
     3
100
AcDbLine
 10
1362.101901864743
 20
-194.5532411571247
 30
0.0
 11
1362.101901864743
 21
-194.7648022971246
 31
0.0
  0
LINE
  5
168C
330
1F
100
AcDbEntity
  8
0
 62
     3
100
AcDbLine
 10
1360.562636534743
 20
-194.5532411571247
 30
0.0
 11
1362.101901864743
 21
-194.5532411571247
 31
0.0
  0
LINE
  5
168D
330
1F
100
AcDbEntity
  8
0
 62
     3
100
AcDbLine
 10
1360.562636534743
 20
-194.5532411571247
 30
0.0
 11
1360.562636534743
 21
-194.7648022971246
 31
0.0
  0
LINE
  5
168E
330
1F
100
AcDbEntity
  8
0
 62
     3
100
AcDbLine
 10
1360.998384444743
 20
-196.4346074971247
 30
0.0
 11
1359.763737774743
 21
-194.5532411571247
 31
0.0
  0
LINE
  5
168F
330
1F
100
AcDbEntity
  8
0
 62
     3
100
AcDbLine
 10
1358.020773754742
 20
-194.5532411571247
 30
0.0
 11
1359.763737774743
 21
-194.5532411571247
 31
0.0
  0
LINE
  5
1690
330
1F
100
AcDbEntity
  8
0
 62
     3
100
AcDbLine
 10
1367.936988114742
 20
-194.5533398771247
 30
0.0
 11
1369.889250654743
 21
-194.5533398771247
 31
0.0
  0
LINE
  5
1691
330
1F
100
AcDbEntity
  8
0
 62
     3
100
AcDbLine
 10
1367.936988114742
 20
-194.7648022971246
 30
0.0
 11
1367.936988114742
 21
-194.5533398771247
 31
0.0
  0
LINE
  5
1692
330
1F
100
AcDbEntity
  8
0
 62
     3
100
AcDbLine
 10
1367.936988114742
 20
-198.7070926271247
 30
0.0
 11
1367.936988114742
 21
-198.4954327771247
 31
0.0
  0
LINE
  5
1693
330
1F
100
AcDbEntity
  8
0
 62
     3
100
AcDbLine
 10
1367.936988114742
 20
-198.7070926271247
 30
0.0
 11
1369.889250654743
 21
-198.7070926271247
 31
0.0
  0
LINE
  5
1694
330
1F
100
AcDbEntity
  8
0
 62
     3
100
AcDbLine
 10
1370.092976944742
 20
-198.4954327771247
 30
0.0
 11
1370.092976944742
 21
-198.7070926271247
 31
0.0
  0
LINE
  5
1695
330
1F
100
AcDbEntity
  8
0
 62
     3
100
AcDbLine
 10
1369.889250654743
 20
-198.4954327771247
 30
0.0
 11
1369.889250654743
 21
-198.7070926271247
 31
0.0
  0
LINE
  5
1696
330
1F
100
AcDbEntity
  8
0
 62
     3
100
AcDbLine
 10
1369.889250654743
 20
-194.7648022971246
 30
0.0
 11
1369.889250654743
 21
-194.5533398771247
 31
0.0
  0
LINE
  5
1697
330
1F
100
AcDbEntity
  8
0
 62
     3
100
AcDbLine
 10
1370.092976944742
 20
-194.7648022971246
 30
0.0
 11
1370.092976944742
 21
-194.5533398771247
 31
0.0
  0
LINE
  5
1698
330
1F
100
AcDbEntity
  8
0
 62
     3
100
AcDbLine
 10
1358.020773754742
 20
-198.4954327771247
 30
0.0
 11
1358.020773754742
 21
-198.7069939171247
 31
0.0
  0
LINE
  5
1699
330
1F
100
AcDbEntity
  8
0
 62
     3
100
AcDbLine
 10
1358.020773754742
 20
-194.5532411571247
 30
0.0
 11
1358.020773754742
 21
-194.7648022971246
 31
0.0
  0
ARC
  5
169A
330
1F
100
AcDbEntity
  8
0
 62
     3
100
AcDbCircle
 10
1376.590367424743
 20
-196.1943696271247
 30
0.0
 40
1.641128469999999
100
AcDbArc
 50
17.30874897999605
 51
23.76507095999595
  0
ARC
  5
169B
330
1F
100
AcDbEntity
  8
0
 62
     3
100
AcDbCircle
 10
1375.192094024743
 20
-196.6301175371247
 30
0.0
 40
3.105725599999999
100
AcDbArc
 50
342.691251020004
 51
17.30856643999929
  0
ARC
  5
169C
330
1F
100
AcDbEntity
  8
0
 62
     3
100
AcDbCircle
 10
1376.590367424743
 20
-197.0658654371247
 30
0.0
 40
1.641128469999999
100
AcDbArc
 50
336.2349290400011
 51
342.691251020004
  0
ARC
  5
169D
330
1F
100
AcDbEntity
  8
0
 62
     3
100
AcDbCircle
 10
1376.380367424743
 20
-196.1943696271247
 30
0.0
 40
1.641128469999999
100
AcDbArc
 50
17.30874897999605
 51
90.0
  0
ARC
  5
169E
330
1F
100
AcDbEntity
  8
0
 62
     3
100
AcDbCircle
 10
1374.982094024743
 20
-196.6301175371247
 30
0.0
 40
3.105725599999999
100
AcDbArc
 50
342.691251020004
 51
17.30856643999929
  0
ARC
  5
169F
330
1F
100
AcDbEntity
  8
0
 62
     3
100
AcDbCircle
 10
1376.380367424743
 20
-197.0658654371247
 30
0.0
 40
1.641128469999999
100
AcDbArc
 50
270.0
 51
342.691251020004
  0
ARC
  5
16A0
330
1F
100
AcDbEntity
  8
0
 62
     3
100
AcDbCircle
 10
1366.256427054743
 20
-196.6301175371247
 30
0.0
 40
2.076876379999999
100
AcDbArc
 50
46.75287960999258
 51
89.74999828999569
  0
ARC
  5
16A1
330
1F
100
AcDbEntity
  8
0
 62
     3
100
AcDbCircle
 10
1366.256427054743
 20
-196.6301175371247
 30
0.0
 40
2.076876379999999
100
AcDbArc
 50
273.976333149997
 51
312.8231203899991
  0
ARC
  5
16A2
330
1F
100
AcDbEntity
  8
0
 62
     3
100
AcDbCircle
 10
1377.698234994743
 20
-196.6621790671247
 30
0.0
 40
2.755888999999999
100
AcDbArc
 50
0.6665840599981471
 51
23.90392827000101
  0
ARC
  5
16A3
330
1F
100
AcDbEntity
  8
0
 62
     3
100
AcDbCircle
 10
1381.613797274743
 20
-196.6621790671247
 30
0.0
 40
2.755888999999999
100
AcDbArc
 50
156.096071729999
 51
179.3334159400018
  0
ARC
  5
16A4
330
1F
100
AcDbEntity
  8
0
 62
     3
100
AcDbCircle
 10
1377.698234994743
 20
-196.5980560071247
 30
0.0
 40
2.755888999999999
100
AcDbArc
 50
336.096071729999
 51
359.3334159400019
  0
ARC
  5
16A5
330
1F
100
AcDbEntity
  8
0
 62
     3
100
AcDbCircle
 10
1381.613797274743
 20
-196.5980560071247
 30
0.0
 40
2.755888999999999
100
AcDbArc
 50
180.6665840599981
 51
203.903928270001
  0
LINE
  5
16A6
330
1F
100
AcDbEntity
  8
0
 62
     3
100
AcDbLine
 10
1386.264084364743
 20
-196.5522463971247
 30
0.0
 11
1500.936421734743
 21
-196.5522463971247
 31
0.0
  0
LINE
  5
16A8
330
1F
100
AcDbEntity
  8
0
 62
     3
100
AcDbLine
 10
1352.851337844743
 20
-196.5522463971247
 30
0.0
 11
1320.936421734743
 21
-196.5522463971247
 31
0.0
  0
LINE
  5
16A9
330
1F
100
AcDbEntity
  8
0
 62
     3
100
AcDbLine
 10
1448.936421734743
 20
-473.5522463971246
 30
0.0
 11
1448.936421734743
 21
-433.5522463971247
 31
0.0
  0
LINE
  5
16AA
330
1F
100
AcDbEntity
  8
0
 62
     3
100
AcDbLine
 10
1461.936421734743
 20
-463.5522463971247
 30
0.0
 11
1461.936421734743
 21
-435.5522463971246
 31
0.0
  0
LINE
  5
16AB
330
1F
100
AcDbEntity
  8
0
 62
     3
100
AcDbLine
 10
1421.936421734743
 20
-463.5522463971247
 30
0.0
 11
1421.936421734743
 21
-449.5522463971247
 31
0.0
  0
LINE
  5
16AC
330
1F
100
AcDbEntity
  8
0
 62
     3
100
AcDbLine
 10
1431.936421734743
 20
-449.5522463971247
 30
0.0
 11
1431.936421734743
 21
-473.5522463971246
 31
0.0
  0
LINE
  5
16AD
330
1F
100
AcDbEntity
  8
0
 62
     3
100
AcDbLine
 10
1402.936421734743
 20
-433.5522463971247
 30
0.0
 11
1402.936421734743
 21
-456.5522463971246
 31
0.0
  0
LINE
  5
16AE
330
1F
100
AcDbEntity
  8
0
 62
     3
100
AcDbLine
 10
1461.936421734743
 20
-435.5522463971246
 30
0.0
 11
1461.936421734743
 21
-433.5522463971247
 31
0.0
  0
LINE
  5
16AF
330
1F
100
AcDbEntity
  8
0
 62
     3
100
AcDbLine
 10
1474.936421734743
 20
-456.5522463971246
 30
0.0
 11
1474.936421734743
 21
-433.5522463971247
 31
0.0
  0
LINE
  5
16B0
330
1F
100
AcDbEntity
  8
0
 62
     3
100
AcDbLine
 10
1500.936421734743
 20
-433.5522463971247
 30
0.0
 11
1389.690987094743
 21
-433.5522463971247
 31
0.0
  0
LINE
  5
16B1
330
1F
100
AcDbEntity
  8
0
 62
     3
100
AcDbLine
 10
1500.936421734743
 20
-442.5522463971247
 30
0.0
 11
1389.690987094743
 21
-442.5522463971247
 31
0.0
  0
LINE
  5
16B2
330
1F
100
AcDbEntity
  8
0
 62
     3
100
AcDbLine
 10
1500.936421734743
 20
-456.5522463971246
 30
0.0
 11
1389.690987094743
 21
-456.5522463971246
 31
0.0
  0
LINE
  5
16B3
330
1F
100
AcDbEntity
  8
0
 62
     3
100
AcDbLine
 10
1500.936421734743
 20
-463.5522463971247
 30
0.0
 11
1389.690987094743
 21
-463.5522463971247
 31
0.0
  0
LINE
  5
16B4
330
1F
100
AcDbEntity
  8
0
 62
     3
100
AcDbLine
 10
1487.936421734743
 20
-456.5522463971246
 30
0.0
 11
1487.936421734743
 21
-433.5522463971247
 31
0.0
  0
LINE
  5
16B5
330
1F
100
AcDbEntity
  8
0
 62
     3
100
AcDbLine
 10
1389.690987094743
 20
-433.5522463971247
 30
0.0
 11
1389.690987094743
 21
-473.5522463971246
 31
0.0
  0
LINE
  5
16B6
330
1F
100
AcDbEntity
  8
0
 62
     3
100
AcDbLine
 10
1448.936421734743
 20
-449.5522463971247
 30
0.0
 11
1389.690987094743
 21
-449.5522463971247
 31
0.0
  0
LINE
  5
16B7
330
1F
100
AcDbEntity
  8
0
 62
     3
100
AcDbLine
 10
1432.214746664743
 20
-468.7193851371246
 30
0.0
 11
1448.936421734743
 21
-468.7193851371246
 31
0.0
  0
TEXT
  5
16B8
330
1F
100
AcDbEntity
  8
0
 62
     3
100
AcDbText
 10
1433.100747148058
 20
-454.4791495437593
 30
0.0
 40
2.5
  1
溶融亜鉛メッキ
 41
0.7
  7
高2.5
100
AcDbText
  0
TEXT
  5
16B9
330
1F
100
AcDbEntity
  8
0
 62
     3
100
AcDbText
 10
1404.132790429995
 20
-454.2544319921407
 30
0.0
 40
2.5
  1
SS400
  7
高2.5
100
AcDbText
  0
TEXT
  5
16BA
330
1F
100
AcDbEntity
  8
0
 62
     3
100
AcDbText
 10
1404.397698184692
 20
-441.2399968733668
 30
0.0
 40
4.5
  1
ディスクライト用角度変換ベース
 41
0.55
  7
高4.5
100
AcDbText
1001
ACAD
1000
ACAD_MTEXT_DEFINED_HEIGHT_BEGIN
1070
    46
1040
0.0
1000
ACAD_MTEXT_DEFINED_HEIGHT_END
  0
TEXT
  5
16BB
330
1F
100
AcDbEntity
  8
0
 62
     3
100
AcDbText
 10
1491.002010828217
 20
-437.0385542984211
 30
0.0
 40
2.0
  1
DEF
  7
高2
100
AcDbText
  0
TEXT
  5
16BC
330
1F
100
AcDbEntity
  8
0
 62
     3
100
AcDbText
 10
1477.062912474508
 20
-437.0385542984212
 30
0.0
 40
2.0
  1
DESN
  7
高2
100
AcDbText
  0
TEXT
  5
16BD
330
1F
100
AcDbEntity
  8
0
 62
     3
100
AcDbText
 10
1450.808545534508
 20
-437.0385542984211
 30
0.0
 40
2.0
  1
APPD
  7
高2
100
AcDbText
  0
TEXT
  5
16BE
330
1F
100
AcDbEntity
  8
0
 62
     3
100
AcDbText
 10
1463.921281634742
 20
-437.0385542984211
 30
0.0
 40
2.0
  1
CHCK
  7
高2
100
AcDbText
  0
TEXT
  5
16BF
330
1F
100
AcDbEntity
  8
0
 62
     3
100
AcDbText
 10
1422.863587373895
 20
-459.3838475738939
 30
0.0
 40
2.0
  1
SCALE
 41
0.8
  7
高2
100
AcDbText
  0
TEXT
  5
16C0
330
1F
100
AcDbEntity
  8
0
 62
     3
100
AcDbText
 10
1391.375565797789
 20
-459.3838475738939
 30
0.0
 40
2.0
  1
3AD　ANGLE
 41
1.5
  7
高2
100
AcDbText
  0
TEXT
  5
16C1
330
1F
100
AcDbEntity
  8
0
 62
     3
100
AcDbText
 10
1422.132993064744
 20
-452.6323095049368
 30
0.0
 40
2.0
  1
REMARKS
 41
0.7
  7
高2
100
AcDbText
  0
TEXT
  5
16C2
330
1F
100
AcDbEntity
  8
0
 62
     3
100
AcDbText
 10
1391.158657444743
 20
-452.5522463971246
 30
0.0
 40
2.0
  1
MATERIAL
 41
0.7
  7
高2
100
AcDbText
  0
TEXT
  5
16C3
330
1F
100
AcDbEntity
  8
0
 62
     3
100
AcDbText
 10
1391.735144647497
 20
-445.5522463971247
 30
0.0
 40
2.0
  1
MODEL
  7
高2
100
AcDbText
  0
TEXT
  5
16C4
330
1F
100
AcDbEntity
  8
0
 62
     3
100
AcDbText
 10
1391.372065528828
 20
-436.8452250465256
 30
0.0
 40
2.0
  1
CONPONENTS
 41
0.5
  7
高2
100
AcDbText
  0
TEXT
  5
16C5
330
1F
100
AcDbEntity
  8
0
 62
     3
100
AcDbText
 10
1404.079180999995
 20
-448.4647652693127
 30
0.0
 40
4.5
  1
L-BR-DA
  7
高4.5
100
AcDbText
  0
TEXT
  5
16C6
330
1F
100
AcDbEntity
  8
0
 62
     3
100
AcDbText
 10
1452.001467465361
 20
-471.513785001759
 30
0.0
 40
6.299999999999999
  1
L-BR-DA
  7
高6.3
100
AcDbText
1001
ACAD
1000
ACAD_MTEXT_DEFINED_HEIGHT_BEGIN
1070
    46
1040
0.0
1000
ACAD_MTEXT_DEFINED_HEIGHT_END
  0
TEXT
  5
16C7
330
1F
100
AcDbEntity
  8
0
 62
     3
100
AcDbText
 10
1465.499931485072
 20
-462.4513572388917
 30
0.0
 40
3.2
  1
2016.11.24
  7
高3.2
100
AcDbText
1001
ACAD
1000
ACAD_MTEXT_DEFINED_HEIGHT_BEGIN
1070
    46
1040
0.0
1000
ACAD_MTEXT_DEFINED_HEIGHT_END
  0
TEXT
  5
16C8
330
1F
100
AcDbEntity
  8
0
 62
     3
100
AcDbText
 10
1435.724019629389
 20
-462.4513293945567
 30
0.0
 40
3.2
  1
1/2
  7
高3.2
100
AcDbText
  0
TEXT
  5
16C9
330
1F
100
AcDbEntity
  8
0
 62
     3
100
AcDbText
 10
1432.801348604743
 20
-472.7353682239887
 30
0.0
 40
3.2
  1
ZK-A4Y
 41
0.8
  7
高3.2
100
AcDbText
  0
TEXT
  5
16CA
330
1F
100
AcDbEntity
  8
0
 62
     3
100
AcDbText
 10
1390.521688134743
 20
-467.0276259749368
 30
0.0
 40
2.0
  1
NICHIDO IND.CO.LTD
 41
1.3
  7
高2
100
AcDbText
  0
TEXT
  5
16CB
330
1F
100
AcDbEntity
  8
0
 62
     3
100
AcDbText
 10
1391.7032113997
 20
-441.4117181892398
 30
0.0
 40
3.2
  1
品 名
  7
高3.2
100
AcDbText
1001
ACAD
1000
ACAD_MTEXT_DEFINED_HEIGHT_BEGIN
1070
    46
1040
0.0
1000
ACAD_MTEXT_DEFINED_HEIGHT_END
  0
TEXT
  5
16CC
330
1F
100
AcDbEntity
  8
0
 62
     3
100
AcDbText
 10
1391.7032113997
 20
-449.0522463971246
 30
0.0
 40
3.2
  1
型 式
  7
高3.2
100
AcDbText
1001
ACAD
1000
ACAD_MTEXT_DEFINED_HEIGHT_BEGIN
1070
    46
1040
3.064735913775955
1000
ACAD_MTEXT_DEFINED_HEIGHT_END
  0
TEXT
  5
16CD
330
1F
100
AcDbEntity
  8
0
 62
     3
100
AcDbText
 10
1391.7032113997
 20
-456.0522463971246
 30
0.0
 40
3.2
  1
材 質
  7
高3.2
100
AcDbText
1001
ACAD
1000
ACAD_MTEXT_DEFINED_HEIGHT_BEGIN
1070
    46
1040
0.0
1000
ACAD_MTEXT_DEFINED_HEIGHT_END
  0
TEXT
  5
16CE
330
1F
100
AcDbEntity
  8
0
 62
     3
100
AcDbText
 10
1391.3981764497
 20
-463.0848064048784
 30
0.0
 40
3.2
  1
第 三 角 法
  7
高3.2
100
AcDbText
1001
ACAD
1000
ACAD_MTEXT_DEFINED_HEIGHT_BEGIN
1070
    46
1040
0.0
1000
ACAD_MTEXT_DEFINED_HEIGHT_END
  0
TEXT
  5
16CF
330
1F
100
AcDbEntity
  8
0
 62
     3
100
AcDbText
 10
1389.804709057229
 20
-472.4117181892397
 30
0.0
 40
3.2
  1
日動工業株式会社
 41
1.199999999999999
  7
高3.2
100
AcDbText
1001
ACAD
1000
ACAD_MTEXT_DEFINED_HEIGHT_BEGIN
1070
    46
1040
0.0
1000
ACAD_MTEXT_DEFINED_HEIGHT_END
  0
TEXT
  5
16D0
330
1F
100
AcDbEntity
  8
0
 62
     3
100
AcDbText
 10
1423.440333256707
 20
-456.1676678639571
 30
0.0
 40
3.2
  1
備考
  7
高3.2
100
AcDbText
1001
ACAD
1000
ACAD_MTEXT_DEFINED_HEIGHT_BEGIN
1070
    46
1040
0.0
1000
ACAD_MTEXT_DEFINED_HEIGHT_END
  0
TEXT
  5
16D1
330
1F
100
AcDbEntity
  8
0
 62
     3
100
AcDbText
 10
1433.089390703743
 20
-467.4060163715544
 30
0.0
 40
2.5
  1
出図コード
  7
高2.5
100
AcDbText
1001
ACAD
1000
ACAD_MTEXT_DEFINED_HEIGHT_BEGIN
1070
    46
1040
0.0
1000
ACAD_MTEXT_DEFINED_HEIGHT_END
  0
TEXT
  5
16D2
330
1F
100
AcDbEntity
  8
0
 62
     3
100
AcDbText
 10
1423.28156713862
 20
-463.0990114867118
 30
0.0
 40
3.2
  1
尺度
  7
高3.2
100
AcDbText
1001
ACAD
1000
ACAD_MTEXT_DEFINED_HEIGHT_BEGIN
1070
    46
1040
0.0
1000
ACAD_MTEXT_DEFINED_HEIGHT_END
  0
TEXT
  5
16D3
330
1F
100
AcDbEntity
  8
0
 62
     3
100
AcDbText
 10
1450.427828620398
 20
-461.9675330385943
 30
0.0
 40
3.2
  1
作成日
  7
高3.2
100
AcDbText
1001
ACAD
1000
ACAD_MTEXT_DEFINED_HEIGHT_BEGIN
1070
    46
1040
0.0
1000
ACAD_MTEXT_DEFINED_HEIGHT_END
  0
TEXT
  5
16D4
330
1F
100
AcDbEntity
  8
0
 62
     3
100
AcDbText
 10
1450.322302627262
 20
-441.4117181892398
 30
0.0
 40
3.2
  1
承 認
  7
高3.2
100
AcDbText
1001
ACAD
1000
ACAD_MTEXT_DEFINED_HEIGHT_BEGIN
1070
    46
1040
0.0
1000
ACAD_MTEXT_DEFINED_HEIGHT_END
  0
TEXT
  5
16D5
330
1F
100
AcDbEntity
  8
0
 62
     3
100
AcDbText
 10
1463.322302627262
 20
-441.4117181892398
 30
0.0
 40
3.2
  1
検 図
  7
高3.2
100
AcDbText
1001
ACAD
1000
ACAD_MTEXT_DEFINED_HEIGHT_BEGIN
1070
    46
1040
0.0
1000
ACAD_MTEXT_DEFINED_HEIGHT_END
  0
TEXT
  5
16D6
330
1F
100
AcDbEntity
  8
0
 62
     3
100
AcDbText
 10
1476.322302627262
 20
-441.4117181892398
 30
0.0
 40
3.2
  1
設 計
  7
高3.2
100
AcDbText
1001
ACAD
1000
ACAD_MTEXT_DEFINED_HEIGHT_BEGIN
1070
    46
1040
0.0
1000
ACAD_MTEXT_DEFINED_HEIGHT_END
  0
TEXT
  5
16D7
330
1F
100
AcDbEntity
  8
0
 62
     3
100
AcDbText
 10
1489.622939147262
 20
-441.4117181892398
 30
0.0
 40
3.2
  1
製 図
  7
高3.2
100
AcDbText
1001
ACAD
1000
ACAD_MTEXT_DEFINED_HEIGHT_BEGIN
1070
    46
1040
0.0
1000
ACAD_MTEXT_DEFINED_HEIGHT_END
  0
TEXT
  5
16D8
330
1F
100
AcDbEntity
  8
0
 62
     3
100
AcDbText
 10
1488.436421734743
 20
-206.0522463971247
 30
0.0
 40
3.2
  1
担　当
  7
高3.2
100
AcDbText
  0
TEXT
  5
16D9
330
1F
100
AcDbEntity
  8
0
 62
     3
100
AcDbText
 10
1444.436421734743
 20
-206.0522463971247
 30
0.0
 40
3.2
  1
変更・追記内容
  7
高3.2
100
AcDbText
  0
TEXT
  5
16DA
330
1F
100
AcDbEntity
  8
0
 62
     3
100
AcDbText
 10
1419.549936735082
 20
-210.722784907033
 30
0.0
 40
2.0
  1
1
  7
高2
100
AcDbText
  0
TEXT
  5
16DB
330
1F
100
AcDbEntity
  8
0
 62
     3
100
AcDbText
 10
1419.241425258325
 20
-215.8926016193059
 30
0.0
 40
2.0
  1
2
  7
高2
100
AcDbText
  0
TEXT
  5
16DC
330
1F
100
AcDbEntity
  8
0
 62
     3
100
AcDbText
 10
1426.436421734743
 20
-206.0522463971247
 30
0.0
 40
3.2
  1
日　付
  7
高3.2
100
AcDbText
  0
TEXT
  5
16DD
330
1F
100
AcDbEntity
  8
0
 62
     3
100
AcDbText
 10
1426.436421734743
 20
-201.0522463971247
 30
0.0
 40
3.2
  1
図　　　　面　　　　略　　　　歴
  7
高3.2
100
AcDbText
  0
TEXT
  5
16DE
330
1F
100
AcDbEntity
  8
0
 62
     3
100
AcDbText
 10
1416.436421734743
 20
-206.0522463971247
 30
0.0
 40
3.2
  1
記号
  7
高3.2
100
AcDbText
  0
LINE
  5
16DF
330
1F
100
AcDbEntity
  8
0
 62
     7
100
AcDbLine
 10
1419.936421734743
 20
-212.7613503971246
 30
0.0
 11
1418.036421734743
 21
-216.0522463971247
 31
0.0
  0
LINE
  5
16E0
330
1F
100
AcDbEntity
  8
0
 62
     7
100
AcDbLine
 10
1419.936421734743
 20
-212.7613503971246
 30
0.0
 11
1421.836421734743
 21
-216.0522463971247
 31
0.0
  0
LINE
  5
16E1
330
1F
100
AcDbEntity
  8
0
 62
     7
100
AcDbLine
 10
1418.036421734743
 20
-216.0522463971247
 30
0.0
 11
1421.836421734743
 21
-216.0522463971247
 31
0.0
  0
LINE
  5
16E2
330
1F
100
AcDbEntity
  8
0
 62
     7
100
AcDbLine
 10
1419.936421734743
 20
-207.7613493971246
 30
0.0
 11
1418.036421734743
 21
-211.0522463971247
 31
0.0
  0
LINE
  5
16E3
330
1F
100
AcDbEntity
  8
0
 62
     7
100
AcDbLine
 10
1419.936421734743
 20
-207.7613493971246
 30
0.0
 11
1421.836421734743
 21
-211.0522463971247
 31
0.0
  0
LINE
  5
16E4
330
1F
100
AcDbEntity
  8
0
 62
     7
100
AcDbLine
 10
1418.036421734743
 20
-211.0522463971247
 30
0.0
 11
1421.836421734743
 21
-211.0522463971247
 31
0.0
  0
LINE
  5
16E5
330
1F
100
AcDbEntity
  8
0
 62
     3
100
AcDbLine
 10
1414.936421734743
 20
-201.5522463971247
 30
0.0
 11
1500.936421734743
 21
-201.5522463971247
 31
0.0
  0
LINE
  5
16E6
330
1F
100
AcDbEntity
  8
0
 62
     3
100
AcDbLine
 10
1414.936421734743
 20
-206.5522463971247
 30
0.0
 11
1500.936421734743
 21
-206.5522463971247
 31
0.0
  0
LINE
  5
16E7
330
1F
100
AcDbEntity
  8
0
 62
     7
100
AcDbLine
 10
1414.936421734743
 20
-211.5522463971247
 30
0.0
 11
1500.936421734743
 21
-211.5522463971247
 31
0.0
  0
LINE
  5
16E8
330
1F
100
AcDbEntity
  8
0
 62
     3
100
AcDbLine
 10
1414.936421734743
 20
-216.5522463971247
 30
0.0
 11
1500.936421734743
 21
-216.5522463971247
 31
0.0
  0
LINE
  5
16E9
330
1F
100
AcDbEntity
  8
0
 62
     7
100
AcDbLine
 10
1486.936421734743
 20
-216.5522463971247
 30
0.0
 11
1486.936421734743
 21
-201.5522463971247
 31
0.0
  0
LINE
  5
16EA
330
1F
100
AcDbEntity
  8
0
 62
     7
100
AcDbLine
 10
1442.936421734743
 20
-216.5522463971247
 30
0.0
 11
1442.936421734743
 21
-201.5522463971247
 31
0.0
  0
LINE
  5
16EB
330
1F
100
AcDbEntity
  8
0
 62
     7
100
AcDbLine
 10
1424.936421734743
 20
-216.5522463971247
 30
0.0
 11
1424.936421734743
 21
-201.5522463971247
 31
0.0
  0
LINE
  5
16EC
330
1F
100
AcDbEntity
  8
0
 62
     3
100
AcDbLine
 10
1414.936421734743
 20
-216.5522463971247
 30
0.0
 11
1414.936421734743
 21
-196.5522463971247
 31
0.0
  0
TEXT
  5
16ED
330
1F
100
AcDbEntity
  8
0
100
AcDbText
 10
1493.792205954989
 20
-451.5352781429124
 30
0.0
 40
3.2
  1
I
  7
高3.2
100
AcDbText
  0
LINE
  5
1808
330
1F
100
AcDbEntity
  8
0
 62
     3
100
AcDbLine
 10
1500.936421734743
 20
-427.5522463971246
 30
0.0
 11
1448.936421734743
 21
-427.5522463971246
 31
0.0
  0
LINE
  5
180B
330
1F
100
AcDbEntity
  8
0
 62
     3
100
AcDbLine
 10
1474.936421734743
 20
-433.5522463971247
 30
0.0
 11
1474.936421734743
 21
-427.5522463971246
 31
0.0
  0
LINE
  5
180C
330
1F
100
AcDbEntity
  8
0
 62
     3
100
AcDbLine
 10
1448.936421734743
 20
-433.5522463971247
 30
0.0
 11
1448.936421734743
 21
-427.5522463971246
 31
0.0
  0
TEXT
  5
180E
330
1F
100
AcDbEntity
  8
0
 62
     3
100
AcDbText
 10
1454.773105429082
 20
-432.8946422948275
 30
0.0
 40
4.5
  1
コード
  7
高4.5
100
AcDbText
  0
TEXT
  5
180F
330
1F
100
AcDbEntity
  8
0
 62
     3
100
AcDbText
 10
1477.232703304274
 20
-432.8946422948275
 30
0.0
 40
4.5
  1
56419
  7
高4.5
100
AcDbText
  0
LINE
  5
1A80
330
1F
100
AcDbEntity
  8
0
100
AcDbLine
 10
1420.619954224429
 20
-259.5532133057037
 30
0.0
 11
1404.255198399341
 21
-243.1884574806137
 31
0.0
  0
LINE
  5
1A81
330
1F
100
AcDbEntity
  8
0
100
AcDbLine
 10
1356.980343917639
 20
-323.192823612487
 30
0.0
 11
1340.615588092551
 21
-306.828067787397
 31
0.0
  0
LINE
  5
1A82
330
1F
100
AcDbEntity
  8
0
100
AcDbLine
 10
1403.371314922857
 20
-245.8401079100631
 30
0.0
 11
1343.267238522001
 21
-305.9441843109139
 31
0.0
  0
LINE
  5
1A86
330
1F
100
AcDbEntity
  8
0
100
AcDbLine
 10
1457.333897308233
 20
-323.19282361249
 30
0.0
 11
1473.543539930821
 21
-306.9831809899001
 31
0.0
  0
LINE
  5
1A87
330
1F
100
AcDbEntity
  8
0
100
AcDbLine
 10
1393.694287001443
 20
-259.5532133057048
 30
0.0
 11
1409.903929624031
 21
-243.343570683115
 31
0.0
  0
LINE
  5
1A88
330
1F
100
AcDbEntity
  8
0
100
AcDbLine
 10
1470.891889501372
 20
-306.099297513417
 30
0.0
 11
1410.787813100514
 21
-245.9952211125645
 31
0.0
  0
LINE
  5
1A8C
330
1F
100
AcDbEntity
  8
0
100
AcDbLine
 10
1376.974552350177
 20
-305.8782461361861
 30
0.0
 11
1378.67332936791
 21
-304.0440823910367
 31
0.0
  0
LINE
  5
1A8D
330
1F
100
AcDbEntity
  8
0
100
AcDbLine
 10
1369.839688875696
 20
-313.581733865814
 30
0.0
 11
1343.148965379578
 21
-342.3996168824461
 31
0.0
  0
LINE
  5
1A8E
330
1F
100
AcDbEntity
  8
0
100
AcDbLine
 10
1375.275775332444
 20
-307.7124098813356
 30
0.0
 11
1371.53846589343
 21
-311.7475701206646
 31
0.0
  0
LINE
  5
1A92
330
1F
100
AcDbEntity
  8
0
100
AcDbLine
 10
1457.407120612936
 20
-410.7689868395091
 30
0.0
 11
1463.700575752093
 21
-410.7689868395091
 31
0.0
  0
LINE
  5
1A93
330
1F
100
AcDbEntity
  8
0
100
AcDbLine
 10
1457.407120612936
 20
-407.7689868395091
 30
0.0
 11
1463.700575752093
 21
-407.7689868395091
 31
0.0
  0
LINE
  5
1A94
330
1F
100
AcDbEntity
  8
0
100
AcDbLine
 10
1462.450575752093
 20
-413.2689868395091
 30
0.0
 11
1462.450575752093
 21
-415.7689868395091
 31
0.0
  0
LINE
  5
1A95
330
1F
100
AcDbEntity
  8
0
100
AcDbLine
 10
1462.450575752093
 20
-405.268986839509
 30
0.0
 11
1462.450575752093
 21
-393.518986839509
 31
0.0
  0
LINE
  5
1A96
330
1F
100
AcDbEntity
  8
0
100
AcDbLine
 10
1462.450575752093
 20
-410.7689868395091
 30
0.0
 11
1462.450575752093
 21
-407.7689868395091
 31
0.0
  0
LINE
  5
1A9A
330
1F
100
AcDbEntity
  8
0
100
AcDbLine
 10
1373.407120612937
 20
-319.3577555636772
 30
0.0
 11
1373.407120612937
 21
-368.5973047658667
 31
0.0
  0
LINE
  5
1A9B
330
1F
100
AcDbEntity
  8
0
100
AcDbLine
 10
1440.907120612936
 20
-319.3577555636784
 30
0.0
 11
1440.907120612936
 21
-368.5973047658667
 31
0.0
  0
LINE
  5
1A9C
330
1F
100
AcDbEntity
  8
0
100
AcDbLine
 10
1375.907120612936
 20
-367.3473047658668
 30
0.0
 11
1438.407120612936
 21
-367.3473047658668
 31
0.0
  0
LINE
  5
1AA0
330
1F
100
AcDbEntity
  8
0
100
AcDbLine
 10
1416.784886175614
 20
-275.9799900010003
 30
0.0
 11
1480.608602883255
 21
-275.9799900010003
 31
0.0
  0
LINE
  5
1AA1
330
1F
100
AcDbEntity
  8
0
100
AcDbLine
 10
1416.784886175614
 20
-343.4799900010005
 30
0.0
 11
1480.608602883255
 21
-343.4799900010005
 31
0.0
  0
LINE
  5
1AA2
330
1F
100
AcDbEntity
  8
0
100
AcDbLine
 10
1479.358602883255
 20
-278.4799900010002
 30
0.0
 11
1479.358602883255
 21
-340.9799900010005
 31
0.0
  0
LINE
  5
1AA6
330
1F
100
AcDbEntity
  8
0
100
AcDbLine
 10
1457.157120612936
 20
-323.6196003077865
 30
0.0
 11
1457.157120612938
 21
-375.5250366808067
 31
0.0
  0
LINE
  5
1AA7
330
1F
100
AcDbEntity
  8
0
100
AcDbLine
 10
1357.157120612936
 20
-323.6196003077894
 30
0.0
 11
1357.157120612938
 21
-375.5250366808095
 31
0.0
  0
LINE
  5
1AA8
330
1F
100
AcDbEntity
  8
0
100
AcDbLine
 10
1454.657120612938
 20
-374.2750366808068
 30
0.0
 11
1359.657120612938
 21
-374.2750366808095
 31
0.0
  0
LINE
  5
1AAC
330
1F
100
AcDbEntity
  8
0
100
AcDbLine
 10
1421.046730919727
 20
-259.7299900010016
 30
0.0
 11
1488.88528673469
 21
-259.7299900010016
 31
0.0
  0
LINE
  5
1AAD
330
1F
100
AcDbEntity
  8
0
100
AcDbLine
 10
1421.046730919728
 20
-359.7299900009971
 30
0.0
 11
1488.88528673469
 21
-359.7299900009971
 31
0.0
  0
LINE
  5
1AAE
330
1F
100
AcDbEntity
  8
0
100
AcDbLine
 10
1487.63528673469
 20
-262.2299900010016
 30
0.0
 11
1487.63528673469
 21
-357.2299900009971
 31
0.0
  0
LINE
  5
1AB2
330
1F
100
AcDbEntity
  8
0
 62
     3
100
AcDbLine
 10
1366.759389354743
 20
-196.0943638271246
 30
0.0
 11
1366.740761824743
 21
-195.9750960571247
 31
0.0
  0
LINE
  5
1AB3
330
1F
100
AcDbEntity
  8
0
 62
     3
100
AcDbLine
 10
1366.740761824743
 20
-195.9750960571247
 30
0.0
 11
1366.718390644743
 21
-195.8608912771246
 31
0.0
  0
LINE
  5
1AB4
330
1F
100
AcDbEntity
  8
0
 62
     3
100
AcDbLine
 10
1366.718390644743
 20
-195.8608912771246
 30
0.0
 11
1366.692448714743
 21
-195.7526322171247
 31
0.0
  0
LINE
  5
1AB5
330
1F
100
AcDbEntity
  8
0
 62
     3
100
AcDbLine
 10
1366.692448714743
 20
-195.7526322171247
 30
0.0
 11
1366.663136574743
 21
-195.6511556671247
 31
0.0
  0
LINE
  5
1AB6
330
1F
100
AcDbEntity
  8
0
 62
     3
100
AcDbLine
 10
1366.663136574743
 20
-195.6511556671247
 30
0.0
 11
1366.630680764743
 21
-195.5572459871247
 31
0.0
  0
LINE
  5
1AB7
330
1F
100
AcDbEntity
  8
0
 62
     3
100
AcDbLine
 10
1366.630680764743
 20
-195.5572459871247
 30
0.0
 11
1366.595332174743
 21
-195.4716290471246
 31
0.0
  0
LINE
  5
1AB8
330
1F
100
AcDbEntity
  8
0
 62
     3
100
AcDbLine
 10
1366.595332174743
 20
-195.4716290471246
 30
0.0
 11
1366.557364024743
 21
-195.3949666371247
 31
0.0
  0
LINE
  5
1AB9
330
1F
100
AcDbEntity
  8
0
 62
     3
100
AcDbLine
 10
1366.557364024743
 20
-195.3949666371247
 30
0.0
 11
1366.517069774743
 21
-195.3278512971246
 31
0.0
  0
LINE
  5
1ABA
330
1F
100
AcDbEntity
  8
0
 62
     3
100
AcDbLine
 10
1366.517069774743
 20
-195.3278512971246
 30
0.0
 11
1366.474760904742
 21
-195.2708018071247
 31
0.0
  0
LINE
  5
1ABB
330
1F
100
AcDbEntity
  8
0
 62
     3
100
AcDbLine
 10
1366.474760904742
 20
-195.2708018071247
 30
0.0
 11
1366.430764414743
 21
-195.2242591371247
 31
0.0
  0
LINE
  5
1ABC
330
1F
100
AcDbEntity
  8
0
 62
     3
100
AcDbLine
 10
1366.430764414743
 20
-195.2242591371247
 30
0.0
 11
1366.385420394743
 21
-195.1885830171247
 31
0.0
  0
LINE
  5
1ABD
330
1F
100
AcDbEntity
  8
0
 62
     3
100
AcDbLine
 10
1366.385420394743
 20
-195.1885830171247
 30
0.0
 11
1366.339079324742
 21
-195.1640492271247
 31
0.0
  0
LINE
  5
1ABE
330
1F
100
AcDbEntity
  8
0
 62
     3
100
AcDbLine
 10
1366.339079324742
 20
-195.1640492271247
 30
0.0
 11
1366.292099384743
 21
-195.1508473771247
 31
0.0
  0
LINE
  5
1ABF
330
1F
100
AcDbEntity
  8
0
 62
     3
100
AcDbLine
 10
1366.292099384743
 20
-195.1508473771247
 30
0.0
 11
1366.244843724743
 21
-195.1490795371247
 31
0.0
  0
LINE
  5
1AC0
330
1F
100
AcDbEntity
  8
0
 62
     3
100
AcDbLine
 10
1366.244843724743
 20
-195.1490795371247
 30
0.0
 11
1366.197677594743
 21
-195.1587593471247
 31
0.0
  0
LINE
  5
1AC1
330
1F
100
AcDbEntity
  8
0
 62
     3
100
AcDbLine
 10
1366.197677594743
 20
-195.1587593471247
 30
0.0
 11
1366.150965564743
 21
-195.1798120071247
 31
0.0
  0
LINE
  5
1AC2
330
1F
100
AcDbEntity
  8
0
 62
     3
100
AcDbLine
 10
1366.150965564743
 20
-195.1798120071247
 30
0.0
 11
1366.105068704743
 21
-195.2120747771247
 31
0.0
  0
LINE
  5
1AC3
330
1F
100
AcDbEntity
  8
0
 62
     3
100
AcDbLine
 10
1366.105068704743
 20
-195.2120747771247
 30
0.0
 11
1366.060341764743
 21
-195.2552982871246
 31
0.0
  0
LINE
  5
1AC4
330
1F
100
AcDbEntity
  8
0
 62
     3
100
AcDbLine
 10
1366.060341764743
 20
-195.2552982871246
 30
0.0
 11
1366.017130454743
 21
-195.3091484471247
 31
0.0
  0
LINE
  5
1AC5
330
1F
100
AcDbEntity
  8
0
 62
     3
100
AcDbLine
 10
1366.017130454743
 20
-195.3091484471247
 30
0.0
 11
1365.975768794743
 21
-195.3732090171247
 31
0.0
  0
LINE
  5
1AC6
330
1F
100
AcDbEntity
  8
0
 62
     3
100
AcDbLine
 10
1365.975768794743
 20
-195.3732090171247
 30
0.0
 11
1365.936576474743
 21
-195.4469848371246
 31
0.0
  0
LINE
  5
1AC7
330
1F
100
AcDbEntity
  8
0
 62
     3
100
AcDbLine
 10
1365.936576474743
 20
-195.4469848371246
 30
0.0
 11
1365.899856434743
 21
-195.5299056671247
 31
0.0
  0
LINE
  5
1AC8
330
1F
100
AcDbEntity
  8
0
 62
     3
100
AcDbLine
 10
1365.899856434743
 20
-195.5299056671247
 30
0.0
 11
1365.865892504743
 21
-195.6213305771247
 31
0.0
  0
LINE
  5
1AC9
330
1F
100
AcDbEntity
  8
0
 62
     3
100
AcDbLine
 10
1365.865892504743
 20
-195.6213305771247
 30
0.0
 11
1365.834947204743
 21
-195.7205528771247
 31
0.0
  0
LINE
  5
1ACA
330
1F
100
AcDbEntity
  8
0
 62
     3
100
AcDbLine
 10
1365.834947204743
 20
-195.7205528771247
 30
0.0
 11
1365.807259724743
 21
-195.8268056471247
 31
0.0
  0
LINE
  5
1ACB
330
1F
100
AcDbEntity
  8
0
 62
     3
100
AcDbLine
 10
1365.807259724743
 20
-195.8268056471247
 30
0.0
 11
1365.783044074743
 21
-195.9392676071247
 31
0.0
  0
LINE
  5
1ACC
330
1F
100
AcDbEntity
  8
0
 62
     3
100
AcDbLine
 10
1365.783044074743
 20
-195.9392676071247
 30
0.0
 11
1365.762487434743
 21
-196.0570694871247
 31
0.0
  0
LINE
  5
1ACD
330
1F
100
AcDbEntity
  8
0
 62
     3
100
AcDbLine
 10
1365.762487434743
 20
-196.0570694871247
 30
0.0
 11
1365.745748694743
 21
-196.1793007271246
 31
0.0
  0
LINE
  5
1ACE
330
1F
100
AcDbEntity
  8
0
 62
     3
100
AcDbLine
 10
1365.745748694743
 20
-196.1793007271246
 30
0.0
 11
1365.732957234743
 21
-196.3050165471247
 31
0.0
  0
LINE
  5
1ACF
330
1F
100
AcDbEntity
  8
0
 62
     3
100
AcDbLine
 10
1365.732957234743
 20
-196.3050165471247
 30
0.0
 11
1365.724211924743
 21
-196.4332452271247
 31
0.0
  0
LINE
  5
1AD0
330
1F
100
AcDbEntity
  8
0
 62
     3
100
AcDbLine
 10
1365.724211924743
 20
-196.4332452271247
 30
0.0
 11
1365.719580364743
 21
-196.5629956371247
 31
0.0
  0
LINE
  5
1AD1
330
1F
100
AcDbEntity
  8
0
 62
     3
100
AcDbLine
 10
1365.719580364743
 20
-196.5629956371247
 30
0.0
 11
1365.719098354743
 21
-196.6932648671247
 31
0.0
  0
LINE
  5
1AD2
330
1F
100
AcDbEntity
  8
0
 62
     3
100
AcDbLine
 10
1365.719098354743
 20
-196.6932648671247
 30
0.0
 11
1365.722769614743
 21
-196.8230459871247
 31
0.0
  0
LINE
  5
1AD3
330
1F
100
AcDbEntity
  8
0
 62
     3
100
AcDbLine
 10
1365.722769614743
 20
-196.8230459871247
 30
0.0
 11
1365.730565774743
 21
-196.9513358771246
 31
0.0
  0
LINE
  5
1AD4
330
1F
100
AcDbEntity
  8
0
 62
     3
100
AcDbLine
 10
1365.730565774743
 20
-196.9513358771246
 30
0.0
 11
1365.742426574742
 21
-197.0771429171246
 31
0.0
  0
LINE
  5
1AD5
330
1F
100
AcDbEntity
  8
0
 62
     3
100
AcDbLine
 10
1365.742426574742
 20
-197.0771429171246
 30
0.0
 11
1365.758260334743
 21
-197.1994946871247
 31
0.0
  0
LINE
  5
1AD6
330
1F
100
AcDbEntity
  8
0
 62
     3
100
AcDbLine
 10
1365.758260334743
 20
-197.1994946871247
 30
0.0
 11
1365.777944654743
 21
-197.3174454571246
 31
0.0
  0
LINE
  5
1AD7
330
1F
100
AcDbEntity
  8
0
 62
     3
100
AcDbLine
 10
1365.777944654743
 20
-197.3174454571246
 30
0.0
 11
1365.801327414743
 21
-197.4300835271247
 31
0.0
  0
LINE
  5
1AD8
330
1F
100
AcDbEntity
  8
0
 62
     3
100
AcDbLine
 10
1365.801327414743
 20
-197.4300835271247
 30
0.0
 11
1365.828227844743
 21
-197.5365382871247
 31
0.0
  0
LINE
  5
1AD9
330
1F
100
AcDbEntity
  8
0
 62
     3
100
AcDbLine
 10
1365.828227844743
 20
-197.5365382871247
 30
0.0
 11
1365.858438044743
 21
-197.6359868771246
 31
0.0
  0
LINE
  5
1ADA
330
1F
100
AcDbEntity
  8
0
 62
     3
100
AcDbLine
 10
1365.858438044743
 20
-197.6359868771246
 30
0.0
 11
1365.891724494743
 21
-197.7276606071247
 31
0.0
  0
LINE
  5
1ADB
330
1F
100
AcDbEntity
  8
0
 62
     3
100
AcDbLine
 10
1365.891724494743
 20
-197.7276606071247
 30
0.0
 11
1365.927829894743
 21
-197.8108509071247
 31
0.0
  0
LINE
  5
1ADC
330
1F
100
AcDbEntity
  8
0
 62
     3
100
AcDbLine
 10
1365.927829894743
 20
-197.8108509071247
 30
0.0
 11
1365.966475194743
 21
-197.8849147371247
 31
0.0
  0
LINE
  5
1ADD
330
1F
100
AcDbEntity
  8
0
 62
     3
100
AcDbLine
 10
1365.966475194743
 20
-197.8849147371247
 30
0.0
 11
1366.007361674743
 21
-197.9492796271247
 31
0.0
  0
LINE
  5
1ADE
330
1F
100
AcDbEntity
  8
0
 62
     3
100
AcDbLine
 10
1366.007361674743
 20
-197.9492796271247
 30
0.0
 11
1366.050173294742
 21
-198.0034480771247
 31
0.0
  0
LINE
  5
1ADF
330
1F
100
AcDbEntity
  8
0
 62
     3
100
AcDbLine
 10
1366.050173294742
 20
-198.0034480771247
 30
0.0
 11
1366.094579154743
 21
-198.0470013971247
 31
0.0
  0
LINE
  5
1AE0
330
1F
100
AcDbEntity
  8
0
 62
     3
100
AcDbLine
 10
1366.094579154743
 20
-198.0470013971247
 30
0.0
 11
1366.140236004742
 21
-198.0796029271247
 31
0.0
  0
LINE
  5
1AE1
330
1F
100
AcDbEntity
  8
0
 62
     3
100
AcDbLine
 10
1366.140236004742
 20
-198.0796029271247
 30
0.0
 11
1366.186790964743
 21
-198.1010006871247
 31
0.0
  0
LINE
  5
1AE2
330
1F
100
AcDbEntity
  8
0
 62
     3
100
AcDbLine
 10
1366.186790964743
 20
-198.1010006871247
 30
0.0
 11
1366.233884174743
 21
-198.1110292671246
 31
0.0
  0
LINE
  5
1AE3
330
1F
100
AcDbEntity
  8
0
 62
     3
100
AcDbLine
 10
1366.233884174743
 20
-198.1110292671246
 30
0.0
 11
1366.281151624743
 21
-198.1096111671247
 31
0.0
  0
LINE
  5
1AE4
330
1F
100
AcDbEntity
  8
0
 62
     3
100
AcDbLine
 10
1366.281151624743
 20
-198.1096111671247
 30
0.0
 11
1366.328227964743
 21
-198.0967573471247
 31
0.0
  0
LINE
  5
1AE5
330
1F
100
AcDbEntity
  8
0
 62
     3
100
AcDbLine
 10
1366.328227964743
 20
-198.0967573471247
 30
0.0
 11
1366.374749324743
 21
-198.0725671471247
 31
0.0
  0
LINE
  5
1AE6
330
1F
100
AcDbEntity
  8
0
 62
     3
100
AcDbLine
 10
1366.374749324743
 20
-198.0725671471247
 30
0.0
 11
1366.420356114743
 21
-198.0372275671246
 31
0.0
  0
LINE
  5
1AE7
330
1F
100
AcDbEntity
  8
0
 62
     3
100
AcDbLine
 10
1366.420356114743
 20
-198.0372275671246
 30
0.0
 11
1366.464695814743
 21
-197.9910117471247
 31
0.0
  0
LINE
  5
1AE8
330
1F
100
AcDbEntity
  8
0
 62
     3
100
AcDbLine
 10
1366.464695814743
 20
-197.9910117471247
 30
0.0
 11
1366.507425704743
 21
-197.9342769071246
 31
0.0
  0
LINE
  5
1AE9
330
1F
100
AcDbEntity
  8
0
 62
     3
100
AcDbLine
 10
1366.507425704743
 20
-197.9342769071246
 30
0.0
 11
1366.548215504743
 21
-197.8674615971247
 31
0.0
  0
LINE
  5
1AEA
330
1F
100
AcDbEntity
  8
0
 62
     3
100
AcDbLine
 10
1366.548215504743
 20
-197.8674615971247
 30
0.0
 11
1366.586749934743
 21
-197.7910822471246
 31
0.0
  0
LINE
  5
1AEB
330
1F
100
AcDbEntity
  8
0
 62
     3
100
AcDbLine
 10
1366.586749934743
 20
-197.7910822471246
 30
0.0
 11
1366.622731134743
 21
-197.7057292371247
 31
0.0
  0
LINE
  5
1AEC
330
1F
100
AcDbEntity
  8
0
 62
     3
100
AcDbLine
 10
1366.622731134743
 20
-197.7057292371247
 30
0.0
 11
1366.655880994743
 21
-197.6120623071247
 31
0.0
  0
LINE
  5
1AED
330
1F
100
AcDbEntity
  8
0
 62
     3
100
AcDbLine
 10
1366.655880994743
 20
-197.6120623071247
 30
0.0
 11
1366.685943274743
 21
-197.5108054471246
 31
0.0
  0
LINE
  5
1AEE
330
1F
100
AcDbEntity
  8
0
 62
     3
100
AcDbLine
 10
1366.685943274743
 20
-197.5108054471246
 30
0.0
 11
1366.712685624743
 21
-197.4027413271246
 31
0.0
  0
LINE
  5
1AEF
330
1F
100
AcDbEntity
  8
0
 62
     3
100
AcDbLine
 10
1366.712685624743
 20
-197.4027413271246
 30
0.0
 11
1366.735901324743
 21
-197.2887052171247
 31
0.0
  0
LINE
  5
1AF0
330
1F
100
AcDbEntity
  8
0
 62
     3
100
AcDbLine
 10
1366.735901324743
 20
-197.2887052171247
 30
0.0
 11
1366.755410934743
 21
-197.1695785671247
 31
0.0
  0
TEXT
  5
1AF1
330
1F
100
AcDbEntity
  8
0
 62
     4
100
AcDbText
 10
1359.14249203625
 20
-289.1850473201823
 30
0.0
 40
3.0
  1
180
 50
44.9999999999971
100
AcDbText
  0
LINE
  5
1AF2
330
1F
100
AcDbEntity
  8
0
  6
ByBlock
 62
     0
370
    -2
100
AcDbLine
 10
1343.740909909281
 20
-306.4178556981943
 30
0.0
 11
1341.499471569034
 21
-307.7119512638802
 31
0.0
  0
LINE
  5
1AF3
330
1F
100
AcDbEntity
  8
0
  6
ByBlock
 62
     0
370
    -2
100
AcDbLine
 10
1341.499471569034
 20
-307.7119512638802
 30
0.0
 11
1342.79356713472
 21
-305.4705129236335
 31
0.0
  0
LINE
  5
1AF4
330
1F
100
AcDbEntity
  8
0
  6
ByBlock
 62
     0
370
    -2
100
AcDbLine
 10
1341.499471569034
 20
-307.7119512638802
 30
0.0
 11
1343.267238522001
 21
-305.9441843109139
 31
0.0
  0
LINE
  5
1AF5
330
1F
100
AcDbEntity
  8
0
  6
ByBlock
 62
     0
370
    -2
100
AcDbLine
 10
1402.897643535577
 20
-245.3664365227828
 30
0.0
 11
1405.139081875824
 21
-244.0723409570969
 31
0.0
  0
LINE
  5
1AF6
330
1F
100
AcDbEntity
  8
0
  6
ByBlock
 62
     0
370
    -2
100
AcDbLine
 10
1405.139081875824
 20
-244.0723409570969
 30
0.0
 11
1403.844986310138
 21
-246.3137792973436
 31
0.0
  0
LINE
  5
1AF7
330
1F
100
AcDbEntity
  8
0
  6
ByBlock
 62
     0
370
    -2
100
AcDbLine
 10
1405.139081875824
 20
-244.0723409570969
 30
0.0
 11
1403.371314922857
 21
-245.8401079100632
 31
0.0
  0
TEXT
  5
1AF8
330
1F
100
AcDbEntity
  8
0
 62
     4
100
AcDbText
 10
1448.631859373588
 20
-282.9553839091515
 30
0.0
 40
3.0
  1
180
 50
315.0000000000023
100
AcDbText
  0
LINE
  5
1AF9
330
1F
100
AcDbEntity
  8
0
  6
ByBlock
 62
     0
370
    -2
100
AcDbLine
 10
1410.314141713234
 20
-246.4688924998449
 30
0.0
 11
1409.020046147548
 21
-244.2274541595982
 31
0.0
  0
LINE
  5
1AFA
330
1F
100
AcDbEntity
  8
0
  6
ByBlock
 62
     0
370
    -2
100
AcDbLine
 10
1409.020046147548
 20
-244.2274541595982
 30
0.0
 11
1411.261484487794
 21
-245.5215497252841
 31
0.0
  0
LINE
  5
1AFB
330
1F
100
AcDbEntity
  8
0
  6
ByBlock
 62
     0
370
    -2
100
AcDbLine
 10
1409.020046147548
 20
-244.2274541595982
 30
0.0
 11
1410.787813100514
 21
-245.9952211125645
 31
0.0
  0
LINE
  5
1AFC
330
1F
100
AcDbEntity
  8
0
  6
ByBlock
 62
     0
370
    -2
100
AcDbLine
 10
1471.365560888652
 20
-305.6256261261367
 30
0.0
 11
1472.659656454338
 21
-307.8670644663834
 31
0.0
  0
LINE
  5
1AFD
330
1F
100
AcDbEntity
  8
0
  6
ByBlock
 62
     0
370
    -2
100
AcDbLine
 10
1472.659656454338
 20
-307.8670644663834
 30
0.0
 11
1470.418218114091
 21
-306.5729689006975
 31
0.0
  0
LINE
  5
1AFE
330
1F
100
AcDbEntity
  8
0
  6
ByBlock
 62
     0
370
    -2
100
AcDbLine
 10
1472.659656454338
 20
-307.8670644663834
 30
0.0
 11
1470.891889501372
 21
-306.0992975134171
 31
0.0
  0
TEXT
  5
1AFF
330
1F
100
AcDbEntity
  8
0
 62
     4
100
AcDbText
 10
1343.115118697723
 20
-341.5163816917246
 30
0.0
 40
3.0
  1
5-\U+220511穴
 50
47.19457239810107
100
AcDbText
  0
LINE
  5
1B00
330
1F
100
AcDbEntity
  8
0
  6
ByBlock
 62
     0
370
    -2
100
AcDbLine
 10
1369.348226534347
 20
-313.1265482626893
 30
0.0
 11
1371.53846589343
 21
-311.7475701206646
 31
0.0
  0
LINE
  5
1B01
330
1F
100
AcDbEntity
  8
0
  6
ByBlock
 62
     0
370
    -2
100
AcDbLine
 10
1371.53846589343
 20
-311.7475701206646
 30
0.0
 11
1370.331151217045
 21
-314.0369194689387
 31
0.0
  0
LINE
  5
1B02
330
1F
100
AcDbEntity
  8
0
  6
ByBlock
 62
     0
370
    -2
100
AcDbLine
 10
1371.53846589343
 20
-311.7475701206646
 30
0.0
 11
1369.839688875696
 21
-313.581733865814
 31
0.0
  0
LINE
  5
1B03
330
1F
100
AcDbEntity
  8
0
  6
ByBlock
 62
     0
370
    -2
100
AcDbLine
 10
1377.466014691526
 20
-306.3334317393109
 30
0.0
 11
1375.275775332444
 21
-307.7124098813356
 31
0.0
  0
LINE
  5
1B04
330
1F
100
AcDbEntity
  8
0
  6
ByBlock
 62
     0
370
    -2
100
AcDbLine
 10
1375.275775332444
 20
-307.7124098813356
 30
0.0
 11
1376.483090008828
 21
-305.4230605330615
 31
0.0
  0
LINE
  5
1B05
330
1F
100
AcDbEntity
  8
0
  6
ByBlock
 62
     0
370
    -2
100
AcDbLine
 10
1375.275775332444
 20
-307.7124098813356
 30
0.0
 11
1376.974552350177
 21
-305.8782461361862
 31
0.0
  0
TEXT
  5
1B06
330
1F
100
AcDbEntity
  8
0
 62
     4
100
AcDbText
 10
1461.825575752093
 20
-402.1439868395088
 30
0.0
 40
3.0
  1
t=6
 50
90.0
100
AcDbText
  0
LINE
  5
1B07
330
1F
100
AcDbEntity
  8
0
  6
ByBlock
 62
     0
370
    -2
100
AcDbLine
 10
1463.120448252093
 20
-405.268986839509
 30
0.0
 11
1462.450575752093
 21
-407.7689868395091
 31
0.0
  0
LINE
  5
1B08
330
1F
100
AcDbEntity
  8
0
  6
ByBlock
 62
     0
370
    -2
100
AcDbLine
 10
1462.450575752093
 20
-407.7689868395091
 30
0.0
 11
1461.780703252093
 21
-405.268986839509
 31
0.0
  0
LINE
  5
1B09
330
1F
100
AcDbEntity
  8
0
  6
ByBlock
 62
     0
370
    -2
100
AcDbLine
 10
1462.450575752093
 20
-407.7689868395091
 30
0.0
 11
1462.450575752093
 21
-405.268986839509
 31
0.0
  0
LINE
  5
1B0A
330
1F
100
AcDbEntity
  8
0
  6
ByBlock
 62
     0
370
    -2
100
AcDbLine
 10
1461.780703252093
 20
-413.2689868395091
 30
0.0
 11
1462.450575752093
 21
-410.7689868395091
 31
0.0
  0
LINE
  5
1B0B
330
1F
100
AcDbEntity
  8
0
  6
ByBlock
 62
     0
370
    -2
100
AcDbLine
 10
1462.450575752093
 20
-410.7689868395091
 30
0.0
 11
1463.120448252093
 21
-413.2689868395091
 31
0.0
  0
LINE
  5
1B0C
330
1F
100
AcDbEntity
  8
0
  6
ByBlock
 62
     0
370
    -2
100
AcDbLine
 10
1462.450575752093
 20
-410.7689868395091
 30
0.0
 11
1462.450575752093
 21
-413.2689868395091
 31
0.0
  0
TEXT
  5
1B0D
330
1F
100
AcDbEntity
  8
0
 62
     4
100
AcDbText
 10
1403.044019000821
 20
-366.7223047658668
 30
0.0
 40
3.0
  1
135
100
AcDbText
  0
LINE
  5
1B0E
330
1F
100
AcDbEntity
  8
0
  6
ByBlock
 62
     0
370
    -2
100
AcDbLine
 10
1438.407120612936
 20
-366.6774322658667
 30
0.0
 11
1440.907120612936
 21
-367.3473047658668
 31
0.0
  0
LINE
  5
1B0F
330
1F
100
AcDbEntity
  8
0
  6
ByBlock
 62
     0
370
    -2
100
AcDbLine
 10
1440.907120612936
 20
-367.3473047658668
 30
0.0
 11
1438.407120612936
 21
-368.0171772658667
 31
0.0
  0
LINE
  5
1B10
330
1F
100
AcDbEntity
  8
0
  6
ByBlock
 62
     0
370
    -2
100
AcDbLine
 10
1440.907120612936
 20
-367.3473047658668
 30
0.0
 11
1438.407120612936
 21
-367.3473047658668
 31
0.0
  0
LINE
  5
1B11
330
1F
100
AcDbEntity
  8
0
  6
ByBlock
 62
     0
370
    -2
100
AcDbLine
 10
1375.907120612936
 20
-368.0171772658667
 30
0.0
 11
1373.407120612937
 21
-367.3473047658668
 31
0.0
  0
LINE
  5
1B12
330
1F
100
AcDbEntity
  8
0
  6
ByBlock
 62
     0
370
    -2
100
AcDbLine
 10
1373.407120612937
 20
-367.3473047658668
 30
0.0
 11
1375.907120612936
 21
-366.6774322658667
 31
0.0
  0
LINE
  5
1B13
330
1F
100
AcDbEntity
  8
0
  6
ByBlock
 62
     0
370
    -2
100
AcDbLine
 10
1373.407120612937
 20
-367.3473047658668
 30
0.0
 11
1375.907120612936
 21
-367.3473047658668
 31
0.0
  0
TEXT
  5
1B14
330
1F
100
AcDbEntity
  8
0
 62
     4
100
AcDbText
 10
1478.733602883255
 20
-312.8421654564359
 30
0.0
 40
3.0
  1
135
 50
90.0
100
AcDbText
  0
LINE
  5
1B15
330
1F
100
AcDbEntity
  8
0
  6
ByBlock
 62
     0
370
    -2
100
AcDbLine
 10
1480.028475383256
 20
-340.9799900010005
 30
0.0
 11
1479.358602883255
 21
-343.4799900010005
 31
0.0
  0
LINE
  5
1B16
330
1F
100
AcDbEntity
  8
0
  6
ByBlock
 62
     0
370
    -2
100
AcDbLine
 10
1479.358602883255
 20
-343.4799900010005
 30
0.0
 11
1478.688730383255
 21
-340.9799900010005
 31
0.0
  0
LINE
  5
1B17
330
1F
100
AcDbEntity
  8
0
  6
ByBlock
 62
     0
370
    -2
100
AcDbLine
 10
1479.358602883255
 20
-343.4799900010005
 30
0.0
 11
1479.358602883255
 21
-340.9799900010005
 31
0.0
  0
LINE
  5
1B18
330
1F
100
AcDbEntity
  8
0
  6
ByBlock
 62
     0
370
    -2
100
AcDbLine
 10
1478.688730383255
 20
-278.4799900010002
 30
0.0
 11
1479.358602883255
 21
-275.9799900010003
 31
0.0
  0
LINE
  5
1B19
330
1F
100
AcDbEntity
  8
0
  6
ByBlock
 62
     0
370
    -2
100
AcDbLine
 10
1479.358602883255
 20
-275.9799900010003
 30
0.0
 11
1480.028475383256
 21
-278.4799900010002
 31
0.0
  0
LINE
  5
1B1A
330
1F
100
AcDbEntity
  8
0
  6
ByBlock
 62
     0
370
    -2
100
AcDbLine
 10
1479.358602883255
 20
-275.9799900010003
 30
0.0
 11
1479.358602883255
 21
-278.4799900010002
 31
0.0
  0
TEXT
  5
1B1B
330
1F
100
AcDbEntity
  8
0
 62
     4
100
AcDbText
 10
1403.236815474427
 20
-373.6500366808083
 30
0.0
 40
3.0
  1
200
 50
0.0000000000016284
100
AcDbText
  0
LINE
  5
1B1C
330
1F
100
AcDbEntity
  8
0
  6
ByBlock
 62
     0
370
    -2
100
AcDbLine
 10
1359.657120612938
 20
-374.9449091808095
 30
0.0
 11
1357.157120612938
 21
-374.2750366808095
 31
0.0
  0
LINE
  5
1B1D
330
1F
100
AcDbEntity
  8
0
  6
ByBlock
 62
     0
370
    -2
100
AcDbLine
 10
1357.157120612938
 20
-374.2750366808095
 30
0.0
 11
1359.657120612938
 21
-373.6051641808095
 31
0.0
  0
LINE
  5
1B1E
330
1F
100
AcDbEntity
  8
0
  6
ByBlock
 62
     0
370
    -2
100
AcDbLine
 10
1357.157120612938
 20
-374.2750366808095
 30
0.0
 11
1359.657120612938
 21
-374.2750366808095
 31
0.0
  0
LINE
  5
1B1F
330
1F
100
AcDbEntity
  8
0
  6
ByBlock
 62
     0
370
    -2
100
AcDbLine
 10
1454.657120612938
 20
-373.6051641808067
 30
0.0
 11
1457.157120612938
 21
-374.2750366808067
 31
0.0
  0
LINE
  5
1B20
330
1F
100
AcDbEntity
  8
0
  6
ByBlock
 62
     0
370
    -2
100
AcDbLine
 10
1457.157120612938
 20
-374.2750366808067
 30
0.0
 11
1454.657120612938
 21
-374.9449091808067
 31
0.0
  0
LINE
  5
1B21
330
1F
100
AcDbEntity
  8
0
  6
ByBlock
 62
     0
370
    -2
100
AcDbLine
 10
1457.157120612938
 20
-374.2750366808067
 30
0.0
 11
1454.657120612938
 21
-374.2750366808067
 31
0.0
  0
TEXT
  5
1B22
330
1F
100
AcDbEntity
  8
0
 62
     4
100
AcDbText
 10
1487.01028673469
 20
-312.6394049675858
 30
0.0
 40
3.0
  1
200
 50
90.0
100
AcDbText
  0
LINE
  5
1B23
330
1F
100
AcDbEntity
  8
0
  6
ByBlock
 62
     0
370
    -2
100
AcDbLine
 10
1488.30515923469
 20
-357.2299900009971
 30
0.0
 11
1487.63528673469
 21
-359.7299900009971
 31
0.0
  0
LINE
  5
1B24
330
1F
100
AcDbEntity
  8
0
  6
ByBlock
 62
     0
370
    -2
100
AcDbLine
 10
1487.63528673469
 20
-359.7299900009971
 30
0.0
 11
1486.96541423469
 21
-357.2299900009971
 31
0.0
  0
LINE
  5
1B25
330
1F
100
AcDbEntity
  8
0
  6
ByBlock
 62
     0
370
    -2
100
AcDbLine
 10
1487.63528673469
 20
-359.7299900009971
 30
0.0
 11
1487.63528673469
 21
-357.2299900009971
 31
0.0
  0
LINE
  5
1B26
330
1F
100
AcDbEntity
  8
0
  6
ByBlock
 62
     0
370
    -2
100
AcDbLine
 10
1486.96541423469
 20
-262.2299900010016
 30
0.0
 11
1487.63528673469
 21
-259.7299900010016
 31
0.0
  0
LINE
  5
1B27
330
1F
100
AcDbEntity
  8
0
  6
ByBlock
 62
     0
370
    -2
100
AcDbLine
 10
1487.63528673469
 20
-259.7299900010016
 30
0.0
 11
1488.30515923469
 21
-262.2299900010016
 31
0.0
  0
LINE
  5
1B28
330
1F
100
AcDbEntity
  8
0
  6
ByBlock
 62
     0
370
    -2
100
AcDbLine
 10
1487.63528673469
 20
-259.7299900010016
 30
0.0
 11
1487.63528673469
 21
-262.2299900010016
 31
0.0
  0
ENDSEC
  0
SECTION
  2
OBJECTS
  0
DICTIONARY
  5
C
330
0
100
AcDbDictionary
281
     1
  3
ACAD_2007HEADERVARS_RT
350
1B2D
  3
ACAD_COLOR
350
73
  3
ACAD_GROUP
350
D
  3
ACAD_LAYOUT
350
1A
  3
ACAD_MATERIAL
350
72
  3
ACAD_MLEADERSTYLE
350
168
  3
ACAD_MLINESTYLE
350
17
  3
ACAD_PLOTSETTINGS
350
19
  3
ACAD_PLOTSTYLENAME
350
E
  3
ACAD_SCALELIST
350
156
  3
ACAD_TABLESTYLE
350
86
  3
ACAD_VISUALSTYLE
350
99
  3
ACDB_RECOMPOSE_DATA
350
1B2B
  3
AcDbVariableDictionary
350
66
  3
AEC_PROPERTY_SET_DEFS
350
127D
  3
DWGPROPS
350
1B2C
  0
DICTIONARY
  5
17B7
330
8
100
AcDbDictionary
280
     1
281
     1
  0
DICTIONARY
  5
DD
330
2
100
AcDbDictionary
280
     1
281
     1
  3
ACAD_LAYERSTATES
360
DE
  0
DICTIONARY
  5
8E9
330
10
100
AcDbDictionary
280
     1
281
     1
  3
ADSK_XREC_LAYER_RECONCILED
360
16F9
  0
DICTIONARY
  5
324
330
1F
100
AcDbDictionary
280
     1
281
     1
  3
ACAD_SORTENTS
360
325
  0
DICTIONARY
  5
E25
330
D57
100
AcDbDictionary
280
     1
281
     1
  3
ACAD_SORTENTS
360
E26
  0
DICTIONARY
  5
1191
330
10C4
100
AcDbDictionary
280
     1
281
     1
  3
ACAD_SORTENTS
360
1192
  0
DICTIONARY
  5
11A9
330
11A8
100
AcDbDictionary
280
     1
281
     1
  3
ACAD_SORTENTS
360
11AA
  0
DICTIONARY
  5
1B73
330
18D2
100
AcDbDictionary
280
     1
281
     1
  3
ACAD_MTEXT_RT
360
1B74
  0
DICTIONARY
  5
1B2D
102
{ACAD_REACTORS
330
C
102
}
330
C
100
AcDbDictionary
281
     1
  3
DIMARCSYM
350
1B2F
  3
DIMFXL
350
1B2E
  3
DIMJOGANG
350
1B30
  0
DICTIONARY
  5
73
102
{ACAD_REACTORS
330
C
102
}
330
C
100
AcDbDictionary
281
     1
  0
DICTIONARY
  5
D
102
{ACAD_REACTORS
330
C
102
}
330
C
100
AcDbDictionary
281
     1
  0
DICTIONARY
  5
1A
102
{ACAD_REACTORS
330
C
102
}
330
C
100
AcDbDictionary
281
     1
  3
Model
350
22
  3
レイアウト1
350
59
  3
レイアウト2
350
5E
  0
DICTIONARY
  5
72
102
{ACAD_REACTORS
330
C
102
}
330
C
100
AcDbDictionary
281
     1
  3
ByBlock
350
97
  3
ByLayer
350
96
  3
Global
350
98
  0
DICTIONARY
  5
168
102
{ACAD_REACTORS
330
C
102
}
330
C
100
AcDbDictionary
281
     1
  3
Standard
350
169
  0
DICTIONARY
  5
17
102
{ACAD_REACTORS
330
C
102
}
330
C
100
AcDbDictionary
281
     1
  3
Standard
350
18
  0
DICTIONARY
  5
19
102
{ACAD_REACTORS
330
C
102
}
330
C
100
AcDbDictionary
281
     1
  0
ACDBDICTIONARYWDFLT
  5
E
102
{ACAD_REACTORS
330
C
102
}
330
C
100
AcDbDictionary
281
     1
  3
Normal
350
F
100
AcDbDictionaryWithDefault
340
F
  0
DICTIONARY
  5
156
102
{ACAD_REACTORS
330
C
102
}
330
C
100
AcDbDictionary
281
     1
  3
A0
350
157
  3
A1
350
158
  3
A2
350
159
  3
A3
350
15A
  3
A4
350
15B
  3
A5
350
15C
  3
A6
350
15D
  3
A7
350
15E
  3
A8
350
15F
  3
A9
350
160
  3
B0
350
161
  3
B1
350
162
  3
B2
350
163
  3
B3
350
164
  3
B4
350
165
  3
B5
350
166
  3
B6
350
167
  0
DICTIONARY
  5
86
102
{ACAD_REACTORS
330
C
102
}
330
C
100
AcDbDictionary
281
     1
  3
Standard
350
87
  3
部品表
350
C45
  0
DICTIONARY
  5
99
102
{ACAD_REACTORS
330
C
102
}
330
C
100
AcDbDictionary
281
     1
  3
2dWireframe
350
9F
  3
3D Hidden
350
A1
  3
3dWireframe
350
A0
  3
Basic
350
9E
  3
Brighten
350
A5
  3
ColorChange
350
A9
  3
Conceptual
350
A2
  3
Dim
350
A4
  3
EdgeColorOff
350
155
  3
Facepattern
350
A8
  3
Flat
350
9A
  3
FlatWithEdges
350
9B
  3
Gouraud
350
9C
  3
GouraudWithEdges
350
9D
  3
Hidden
350
14D
  3
JitterOff
350
153
  3
Linepattern
350
A7
  3
OverhangOff
350
154
  3
Realistic
350
A3
  3
Shaded
350
152
  3
Shaded with edges
350
151
  3
Shades of Gray
350
14E
  3
Sketchy
350
14F
  3
Thicken
350
A6
  3
Wireframe
350
14C
  3
X-Ray
350
150
  0
XRECORD
  5
1B2B
102
{ACAD_REACTORS
330
C
102
}
330
C
100
AcDbXrecord
280
     1
 90
        1
330
87
330
C45
  0
DICTIONARY
  5
66
102
{ACAD_REACTORS
330
C
102
}
330
C
100
AcDbDictionary
281
     1
  3
CANNOSCALE
350
24A
  3
CMLEADERSTYLE
350
248
  3
CTABLESTYLE
350
89
  3
DIMASSOC
350
67
  3
HIDETEXT
350
6B
  3
INDEXCTL
350
1801
  3
LAYEREVAL
350
24C
  3
LAYERNOTIFY
350
24D
  3
LIGHTINGUNITS
350
24B
  3
MSLTSCALE
350
249
  3
SORTENTS
350
1800
  3
XCLIPFRAME
350
19E7
  0
DICTIONARY
  5
127D
102
{ACAD_REACTORS
330
C
102
}
330
C
100
AcDbDictionary
281
     1
  0
XRECORD
  5
1B2C
102
{ACAD_REACTORS
330
C
102
}
330
C
100
AcDbXrecord
280
     1
  1
DWGPROPS COOKIE
  2

  3

  4

  6

  7

  8
imamura
  9

300
=
301
=
302
=
303
=
304
=
305
=
306
=
307
=
308
=
309
=
 40
0.1059335300925926
 41
2457617.595081215
 42
2457717.845773311
  1

 90
        0
  0
DICTIONARY
  5
DE
102
{ACAD_REACTORS
330
DD
102
}
330
DD
100
AcDbDictionary
281
     1
  0
XRECORD
  5
16F9
102
{ACAD_REACTORS
330
8E9
102
}
330
8E9
100
AcDbXrecord
280
     1
290
     1
  0
SORTENTSTABLE
  5
325
102
{ACAD_REACTORS
330
324
102
}
330
324
100
AcDbSortentsTable
330
1F
331
1AF7
  5
1B24
331
1AF3
  5
1B26
331
1AEF
  5
16A5
331
1AB4
  5
1669
331
1AEB
  5
16A1
331
11A7
  5
1287
331
169E
  5
16C3
331
1624
  5
1290
331
169A
  5
16BF
331
165F
  5
1644
331
16D5
  5
1A93
331
1696
  5
16BB
331
165B
  5
1640
331
16D1
  5
1A8F
331
1692
  5
16B7
331
1B26
  5
1AC0
331
1AAC
  5
1ABA
331
1AE7
  5
169D
331
1AA8
  5
1AD2
331
1B22
  5
1ACC
331
1AE3
  5
1699
331
1B1E
  5
1ADB
331
180F
  5
1B14
331
1ADF
  5
1695
331
1B1A
  5
1AE5
331
1AA0
  5
1AE0
331
180B
  5
1B11
331
1ADB
  5
1691
331
1657
  5
163C
331
16CD
  5
1A8B
331
168E
  5
16B3
331
1653
  5
1638
331
1287
  5
1AAC
331
16C9
  5
1A87
331
168A
  5
16AF
331
164F
  5
1634
331
16C5
  5
1A83
331
1686
  5
16AB
331
164B
  5
1630
331
1283
  5
128B
331
16C1
  5
180F
331
1682
  5
16A7
331
1A9C
  5
1AF2
331
1B16
  5
1AE7
331
1AD7
  5
168D
331
1B12
  5
1AF4
331
1AD3
  5
1688
331
16ED
  5
1B10
331
1A94
  5
1AFC
331
1B0E
  5
1AF6
331
1ACF
  5
1684
331
1B0A
  5
1AFF
331
16E9
  5
1AA7
331
1ACB
  5
1680
331
1647
  5
162C
331
16BD
  5
1808
331
1643
  5
1628
331
167E
  5
1663
331
12B2
  5
1AB2
331
16B9
  5
16E0
331
163F
  5
1624
331
167A
  5
165F
331
16B5
  5
16DA
331
1676
  5
165B
331
163B
  5
13BD
331
16B1
  5
16D6
331
1672
  5
1657
331
1A8C
  5
1B06
331
1B06
  5
1B05
331
16E5
  5
1AA3
331
1AC7
  5
167C
331
1A88
  5
1B17
331
1B02
  5
1B0E
331
16E1
  5
1A9F
331
1AC3
  5
1678
331
1AFE
  5
1B1A
331
16DD
  5
1A9B
331
1ABF
  5
1674
331
1A80
  5
1B1F
331
1AFA
  5
1B1C
331
16D9
  5
1A97
331
1ABB
  5
1670
331
1637
  5
1327
331
16AD
  5
16D1
331
1633
  5
12DE
331
166E
  5
1653
331
16A9
  5
16CD
331
162F
  5
12DA
331
166A
  5
164F
331
12DD
  5
1AB8
331
16A5
  5
16CA
331
1666
  5
164B
331
162B
  5
12B5
331
12D9
  5
1AB4
331
16A1
  5
16C6
331
1662
  5
1647
331
1AF6
  5
1B23
331
1AF2
  5
1B25
331
1AB7
  5
166C
331
1AEE
  5
16A4
331
1AB3
  5
1668
331
1AEA
  5
16A0
331
11A6
  5
11A6
331
1627
  5
1293
331
169D
  5
16C2
331
1623
  5
128F
331
1699
  5
16BE
331
165E
  5
1643
331
1292
  5
1288
331
16D4
  5
1A92
331
1695
  5
16BA
331
165A
  5
163F
331
16D0
  5
1A8E
331
1691
  5
16B6
331
1B25
  5
1AC8
331
1AE6
  5
169C
331
1B21
  5
1AD5
331
1AA7
  5
1ACE
331
1AE2
  5
1698
331
1B1D
  5
1ADA
331
180E
  5
1B13
331
1ADE
  5
1694
331
1B19
  5
1AE4
331
1ADA
  5
1690
331
1656
  5
163B
331
128E
  5
1282
331
128A
  5
1AAF
331
16CC
  5
1A8A
331
168D
  5
16B2
331
1652
  5
1637
331
1286
  5
1AAB
331
16C8
  5
1A86
331
1689
  5
16AE
331
164E
  5
1633
331
16C4
  5
1A82
331
1685
  5
16AA
331
164A
  5
162F
331
1282
  5
128D
331
16C0
  5
180E
331
1A9B
  5
1AF1
331
1B15
  5
1AE6
331
1AD6
  5
168B
331
1B11
  5
1AF3
331
1AD2
  5
1687
331
1A93
  5
1AFB
331
1B0D
  5
1AF9
331
16EC
  5
1AAA
331
1ACE
  5
1683
331
1B09
  5
1B04
331
16E8
  5
1AA6
331
1ACA
  5
167F
331
1646
  5
162B
331
16BC
  5
16E3
331
1642
  5
1627
331
167D
  5
1662
331
12B1
  5
1AB3
331
16B8
  5
16DF
331
163E
  5
1623
331
1679
  5
165E
331
16B4
  5
16D9
331
163A
  5
13A5
331
1675
  5
165A
331
16B0
  5
16D4
331
1671
  5
1656
331
1B05
  5
1B0B
331
16E4
  5
1AA2
331
1AC6
  5
167B
331
1A87
  5
1B16
331
1B01
  5
1B0D
331
16E0
  5
1A9E
331
1AC2
  5
1677
331
1AFD
  5
1B19
331
16DC
  5
1A9A
331
1ABE
  5
1673
331
1AF9
  5
1B1B
331
16D8
  5
1A96
331
1ABA
  5
166F
331
1636
  5
130F
331
16AC
  5
16D0
331
1632
  5
12DD
331
166D
  5
1652
331
16A8
  5
16CC
331
162E
  5
12D9
331
1669
  5
164E
331
12DC
  5
1AB7
331
16A4
  5
16C9
331
1665
  5
164A
331
162A
  5
12B4
331
16A0
  5
16C5
331
1661
  5
1646
331
1AF5
  5
1B22
331
1AF1
  5
1B28
331
1AB6
  5
166B
331
1AED
  5
16A3
331
1AB2
  5
1667
331
1B28
  5
1AC2
331
1AE9
  5
169F
331
1626
  5
1292
331
169C
  5
16C1
331
16D7
  5
1A95
331
165D
  5
1642
331
1698
  5
16BD
331
16D3
  5
1A91
331
1694
  5
16B9
331
1659
  5
163E
331
1690
  5
16B5
331
1AAE
  5
1ABC
331
1B24
  5
1AC7
331
1AE5
  5
169B
331
1B20
  5
1AD4
331
1AA6
  5
1ACD
331
1AE1
  5
1697
331
1AA2
  5
1AE2
331
1B1C
  5
1AD6
331
1ADD
  5
1693
331
1B18
  5
1AE3
331
1AD9
  5
168F
331
16CF
  5
1A8D
331
1655
  5
163A
331
128D
  5
1284
331
1289
  5
1AAE
331
16CB
  5
1A89
331
168C
  5
16B1
331
1651
  5
1636
331
1285
  5
1285
331
16C7
  5
1A85
331
1688
  5
16AD
331
164D
  5
1632
331
16C3
  5
1A81
331
1684
  5
16A9
331
1649
  5
162E
331
1680
  5
1665
331
1A9A
  5
1AED
331
1B14
  5
1AEC
331
1AD5
  5
168A
331
1A96
  5
1AFE
331
1B10
  5
1AF8
331
1AD1
  5
1686
331
1A92
  5
1AFA
331
1B0C
  5
1B01
331
16EB
  5
1AA9
331
1ACD
  5
1682
331
1B08
  5
1B03
331
1AC9
  5
167E
331
16BF
  5
180C
331
1645
  5
162A
331
12B4
  5
1AB0
331
16BB
  5
16E2
331
1641
  5
1626
331
167C
  5
1661
331
16B7
  5
16DE
331
163D
  5
13FD
331
1678
  5
165D
331
16B3
  5
16D8
331
1639
  5
138D
331
1674
  5
1659
331
1670
  5
1655
331
1A8E
  5
1B08
331
16E7
  5
1AA5
331
1B04
  5
1B0A
331
16E3
  5
1AA1
331
1AC5
  5
167A
331
1A86
  5
1B15
331
1B00
  5
1B0C
331
16DF
  5
1A9D
331
1AC1
  5
1676
331
1A82
  5
1B21
331
1AFC
  5
1B18
331
16DB
  5
1A99
331
1ABD
  5
1672
331
1AF8
  5
1B1E
331
1AB9
  5
166E
331
16AF
  5
16D3
331
1635
  5
12F7
331
16AB
  5
16CF
331
1631
  5
12DC
331
166C
  5
1651
331
162D
  5
12D4
331
1668
  5
164D
331
12DB
  5
1AB6
331
16A3
  5
16C8
331
1629
  5
12B2
331
1664
  5
1649
331
1660
  5
1645
331
1AF4
  5
1B27
331
1AF0
  5
16A6
331
1AB5
  5
166A
331
1AEC
  5
16A2
331
1AE8
  5
169E
331
169F
  5
16C4
331
169B
  5
16C0
331
16D6
  5
1A94
331
1697
  5
16BC
331
165C
  5
1641
331
1290
  5
1289
331
16D2
  5
1A90
331
1693
  5
16B8
331
1658
  5
163D
331
1B27
  5
1AC1
331
1AAD
  5
1ABB
331
1B23
  5
1AC6
331
1AE4
  5
169A
331
1B1F
  5
1AD3
331
1AE0
  5
1696
331
1AA1
  5
1AE1
331
1B1B
  5
1ADC
331
180C
  5
1B12
331
1ADC
  5
1692
331
1808
  5
16D5
331
1AD8
  5
168E
331
16CE
  5
1A8C
331
168F
  5
16B4
331
1654
  5
1639
331
1288
  5
1AAD
331
16CA
  5
1A88
331
168B
  5
16B0
331
1650
  5
1635
331
1284
  5
1286
331
16C6
  5
1A84
331
1687
  5
16AC
331
164C
  5
1631
331
16C2
  5
1A80
331
1683
  5
16A8
331
1648
  5
162D
331
1B17
  5
1AEB
331
1B13
  5
1AF5
331
1AD4
  5
1689
331
1A95
  5
1AFD
331
1B0F
  5
1AF7
331
1AD0
  5
1685
331
1B0B
  5
1B00
331
16EA
  5
1AA8
331
1ACC
  5
1681
331
1AC8
  5
167D
331
16BE
  5
180B
331
1644
  5
1629
331
167F
  5
1664
331
12B3
  5
1AB1
331
16BA
  5
16E1
331
1640
  5
1625
331
167B
  5
1660
331
16B6
  5
16DB
331
1677
  5
165C
331
163C
  5
13D5
331
16B2
  5
16D7
331
1638
  5
136C
331
1673
  5
1658
331
1A8D
  5
1B07
331
1B07
  5
1B02
331
16E6
  5
1AA4
331
1B03
  5
1B09
331
16E2
  5
1AA0
331
1AC4
  5
1679
331
1AFF
  5
1B0F
331
16DE
  5
1A9C
331
1AC0
  5
1675
331
1A81
  5
1B20
331
1AFB
  5
1B1D
331
16DA
  5
1A98
331
1ABC
  5
1671
331
1AB8
  5
166D
331
16AE
  5
16D2
331
1634
  5
12DF
331
166F
  5
1654
331
16AA
  5
16CE
331
1630
  5
12DB
331
166B
  5
1650
331
12DE
  5
1AB9
331
16A6
  5
16CB
331
162C
  5
12D3
331
1667
  5
164C
331
12DA
  5
1AB5
331
16A2
  5
16C7
331
1628
  5
12B1
331
1663
  5
1648
  0
SORTENTSTABLE
  5
E26
102
{ACAD_REACTORS
330
E25
102
}
330
E25
100
AcDbSortentsTable
330
D57
  0
SORTENTSTABLE
  5
1192
102
{ACAD_REACTORS
330
1191
102
}
330
1191
100
AcDbSortentsTable
330
10C4
  0
SORTENTSTABLE
  5
11AA
102
{ACAD_REACTORS
330
11A9
102
}
330
11A9
100
AcDbSortentsTable
330
11A8
  0
XRECORD
  5
1B74
102
{ACAD_REACTORS
330
1B73
102
}
330
1B73
100
AcDbXrecord
280
     1
 40
588.0
  1
5-\U+220511穴
  0
XRECORD
  5
1B2F
102
{ACAD_REACTORS
330
1B2D
102
}
330
1B2D
100
AcDbXrecord
280
     1
 70
     2
  0
XRECORD
  5
1B2E
102
{ACAD_REACTORS
330
1B2D
102
}
330
1B2D
100
AcDbXrecord
280
     1
 40
1.25
  0
XRECORD
  5
1B30
102
{ACAD_REACTORS
330
1B2D
102
}
330
1B2D
100
AcDbXrecord
280
     1
 40
1.570796326794896
  0
LAYOUT
  5
22
102
{ACAD_XDICTIONARY
360
1B31
102
}
102
{ACAD_REACTORS
330
1A
102
}
330
1A
100
AcDbPlotSettings
  1

  2
none_device
  4
ANSI_A_(8.50_x_11.00_Inches)
  6

 40
6.349999904632568
 41
19.04999923706055
 42
6.350006103515625
 43
19.04998779296875
 44
215.8999938964844
 45
279.3999938964844
 46
0.0
 47
0.0
 48
0.0
 49
0.0
140
0.0
141
0.0
142
1.0
143
2.584895464708373
 70
 11952
 72
     0
 73
     1
 74
     0
  7

 75
     0
147
0.3868628397755418
148
0.0
149
0.0
100
AcDbLayout
  1
Model
 70
     1
 71
     0
 10
0.0
 20
0.0
 11
12.0
 21
9.0
 12
0.0
 22
0.0
 32
0.0
 14
0.0
 24
0.0
 34
0.0
 15
0.0
 25
0.0
 35
0.0
146
0.0
 13
0.0
 23
0.0
 33
0.0
 16
1.0
 26
0.0
 36
0.0
 17
0.0
 27
1.0
 37
0.0
 76
     0
330
1F
331
94
  0
LAYOUT
  5
59
102
{ACAD_XDICTIONARY
360
1B33
102
}
102
{ACAD_REACTORS
330
1A
102
}
330
1A
100
AcDbPlotSettings
  1

  2
None
  4

  6

 40
0.0
 41
0.0
 42
0.0
 43
0.0
 44
0.0
 45
0.0
 46
0.0
 47
0.0
 48
0.0
 49
0.0
140
0.0
141
0.0
142
1.0
143
1.0
 70
   688
 72
     0
 73
     0
 74
     5
  7

 75
    16
147
1.0
148
0.0
149
0.0
100
AcDbLayout
  1
レイアウト1
 70
     1
 71
     1
 10
0.0
 20
0.0
 11
12.0
 21
9.0
 12
0.0
 22
0.0
 32
0.0
 14
0.0
 24
0.0
 34
0.0
 15
0.0
 25
0.0
 35
0.0
146
0.0
 13
0.0
 23
0.0
 33
0.0
 16
1.0
 26
0.0
 36
0.0
 17
0.0
 27
1.0
 37
0.0
 76
     0
330
58
  0
LAYOUT
  5
5E
102
{ACAD_XDICTIONARY
360
1B35
102
}
102
{ACAD_REACTORS
330
1A
102
}
330
1A
100
AcDbPlotSettings
  1

  2
None
  4

  6

 40
0.0
 41
0.0
 42
0.0
 43
0.0
 44
0.0
 45
0.0
 46
0.0
 47
0.0
 48
0.0
 49
0.0
140
0.0
141
0.0
142
1.0
143
1.0
 70
   688
 72
     0
 73
     0
 74
     5
  7

 75
    16
147
1.0
148
0.0
149
0.0
100
AcDbLayout
  1
レイアウト2
 70
     1
 71
     2
 10
0.0
 20
0.0
 11
12.0
 21
9.0
 12
0.0
 22
0.0
 32
0.0
 14
0.0
 24
0.0
 34
0.0
 15
0.0
 25
0.0
 35
0.0
146
0.0
 13
0.0
 23
0.0
 33
0.0
 16
1.0
 26
0.0
 36
0.0
 17
0.0
 27
1.0
 37
0.0
 76
     0
330
5D
  0
MATERIAL
  5
97
102
{ACAD_XDICTIONARY
360
1B3A
102
}
102
{ACAD_REACTORS
330
72
102
}
330
72
100
AcDbMaterial
  1
ByBlock
 73
     1
 78
     1
172
     1
176
     1
270
     1
274
     1
  0
MATERIAL
  5
96
102
{ACAD_XDICTIONARY
360
1B38
102
}
102
{ACAD_REACTORS
330
72
102
}
330
72
100
AcDbMaterial
  1
ByLayer
 73
     1
 78
     1
172
     1
176
     1
270
     1
274
     1
  0
MATERIAL
  5
98
102
{ACAD_XDICTIONARY
360
1B3C
102
}
102
{ACAD_REACTORS
330
72
102
}
330
72
100
AcDbMaterial
  1
Global
 73
     1
 78
     1
172
     1
176
     1
270
     1
274
     1
  0
MLEADERSTYLE
  5
169
102
{ACAD_REACTORS
330
168
102
}
330
168
100
AcDbMLeaderStyle
170
     2
171
     1
172
     0
 90
        2
 40
0.0
 41
0.0
173
     1
 91
-1056964608
340
14
 92
       -2
290
     1
 42
2.0
291
     1
 43
0.36
  3
Standard
 44
4.0
300

342
11
174
     1
178
     6
175
     1
176
     0
 93
-1056964608
 45
4.0
292
     0
297
     0
 46
4.0
 94
-1056964608
 47
1.0
 49
1.0
140
1.0
293
     1
141
0.0
294
     1
177
     0
142
1.0
295
     0
296
     0
143
0.125
1001
ACAD_MLEADERVER
1070
     2
  0
MLINESTYLE
  5
18
102
{ACAD_REACTORS
330
17
102
}
330
17
100
AcDbMlineStyle
  2
STANDARD
 70
     0
  3

 62
   256
 51
90.0
 52
90.0
 71
     2
 49
0.5
 62
   256
  6
BYLAYER
 49
-0.5
 62
   256
  6
BYLAYER
  0
ACDBPLACEHOLDER
  5
F
102
{ACAD_REACTORS
330
E
102
}
330
E
  0
SCALE
  5
157
102
{ACAD_REACTORS
330
156
102
}
330
156
100
AcDbScale
 70
     0
300
1:1
140
1.0
141
1.0
290
     1
  0
SCALE
  5
158
102
{ACAD_REACTORS
330
156
102
}
330
156
100
AcDbScale
 70
     0
300
1:2
140
1.0
141
2.0
290
     0
  0
SCALE
  5
159
102
{ACAD_REACTORS
330
156
102
}
330
156
100
AcDbScale
 70
     0
300
1:4
140
1.0
141
4.0
290
     0
  0
SCALE
  5
15A
102
{ACAD_REACTORS
330
156
102
}
330
156
100
AcDbScale
 70
     0
300
1:5
140
1.0
141
5.0
290
     0
  0
SCALE
  5
15B
102
{ACAD_REACTORS
330
156
102
}
330
156
100
AcDbScale
 70
     0
300
1:8
140
1.0
141
8.0
290
     0
  0
SCALE
  5
15C
102
{ACAD_REACTORS
330
156
102
}
330
156
100
AcDbScale
 70
     0
300
1:10
140
1.0
141
10.0
290
     0
  0
SCALE
  5
15D
102
{ACAD_REACTORS
330
156
102
}
330
156
100
AcDbScale
 70
     0
300
1:16
140
1.0
141
16.0
290
     0
  0
SCALE
  5
15E
102
{ACAD_REACTORS
330
156
102
}
330
156
100
AcDbScale
 70
     0
300
1:20
140
1.0
141
20.0
290
     0
  0
SCALE
  5
15F
102
{ACAD_REACTORS
330
156
102
}
330
156
100
AcDbScale
 70
     0
300
1:30
140
1.0
141
30.0
290
     0
  0
SCALE
  5
160
102
{ACAD_REACTORS
330
156
102
}
330
156
100
AcDbScale
 70
     0
300
1:40
140
1.0
141
40.0
290
     0
  0
SCALE
  5
161
102
{ACAD_REACTORS
330
156
102
}
330
156
100
AcDbScale
 70
     0
300
1:50
140
1.0
141
50.0
290
     0
  0
SCALE
  5
162
102
{ACAD_REACTORS
330
156
102
}
330
156
100
AcDbScale
 70
     0
300
1:100
140
1.0
141
100.0
290
     0
  0
SCALE
  5
163
102
{ACAD_REACTORS
330
156
102
}
330
156
100
AcDbScale
 70
     0
300
2:1
140
2.0
141
1.0
290
     0
  0
SCALE
  5
164
102
{ACAD_REACTORS
330
156
102
}
330
156
100
AcDbScale
 70
     0
300
4:1
140
4.0
141
1.0
290
     0
  0
SCALE
  5
165
102
{ACAD_REACTORS
330
156
102
}
330
156
100
AcDbScale
 70
     0
300
8:1
140
8.0
141
1.0
290
     0
  0
SCALE
  5
166
102
{ACAD_REACTORS
330
156
102
}
330
156
100
AcDbScale
 70
     0
300
10:1
140
10.0
141
1.0
290
     0
  0
SCALE
  5
167
102
{ACAD_REACTORS
330
156
102
}
330
156
100
AcDbScale
 70
     0
300
100:1
140
100.0
141
1.0
290
     0
  0
TABLESTYLE
  5
87
102
{ACAD_XDICTIONARY
360
17AE
102
}
102
{ACAD_REACTORS
330
86
102
}
330
86
100
AcDbTableStyle
  3
Standard
 70
     0
 71
     0
 40
0.06
 41
0.06
280
     0
281
     0
  7
Standard
140
0.18
170
     2
 62
     0
 63
     7
283
     0
274
    -2
284
     1
 64
     0
275
    -2
285
     1
 65
     0
276
    -2
286
     1
 66
     0
277
    -2
287
     1
 67
     0
278
    -2
288
     1
 68
     0
279
    -2
289
     1
 69
     0
  7
Standard
140
0.25
170
     5
 62
     0
 63
     7
283
     0
274
    -2
284
     1
 64
     0
275
    -2
285
     1
 65
     0
276
    -2
286
     1
 66
     0
277
    -2
287
     1
 67
     0
278
    -2
288
     1
 68
     0
279
    -2
289
     1
 69
     0
  7
Standard
140
0.18
170
     5
 62
     0
 63
     7
283
     0
274
    -2
284
     1
 64
     0
275
    -2
285
     1
 65
     0
276
    -2
286
     1
 66
     0
277
    -2
287
     1
 67
     0
278
    -2
288
     1
 68
     0
279
    -2
289
     1
 69
     0
  0
TABLESTYLE
  5
C45
102
{ACAD_XDICTIONARY
360
C46
102
}
102
{ACAD_REACTORS
330
86
102
}
330
86
100
AcDbTableStyle
  3
Standard
 70
     1
 71
     0
 40
1.5
 41
0.5
280
     0
281
     0
  7
高3.2
140
0.18
170
     7
 62
     3
 63
     7
283
     0
274
    -2
284
     1
 64
     3
275
    -2
285
     1
 65
     7
276
    -2
286
     1
 66
     3
277
    -2
287
     1
 67
     3
278
    -2
288
     1
 68
     7
279
    -2
289
     1
 69
     3
  7
高3.2
140
0.25
170
     8
 62
     3
 63
     7
283
     0
274
    -2
284
     1
 64
     0
275
    -2
285
     1
 65
     0
276
    -2
286
     1
 66
     0
277
    -2
287
     1
 67
     0
278
    -2
288
     1
 68
     0
279
    -2
289
     1
 69
     0
  7
高3.2
140
0.18
170
     7
 62
     3
 63
     7
283
     0
274
    -2
284
     1
 64
     3
275
    -2
285
     1
 65
     7
276
    -2
286
     1
 66
     3
277
    -2
287
     1
 67
     3
278
    -2
288
     1
 68
     7
279
    -2
289
     1
 69
     3
  0
VISUALSTYLE
  5
9F
102
{ACAD_XDICTIONARY
360
1B48
102
}
102
{ACAD_REACTORS
330
99
102
}
330
99
100
AcDbVisualStyle
  2
2dWireframe
 70
     4
 71
     0
 72
     2
 73
     1
 90
        0
 40
-0.6
 41
-30.0
 62
     5
 63
     7
 74
     1
 91
        4
 64
     7
 65
   257
 75
     1
175
     1
 42
1.0
 92
        0
 66
   257
 43
1.0
 76
     1
 77
     6
 78
     2
 67
     7
 79
     5
170
     0
171
     0
290
     0
174
     0
 93
        1
 44
0.0
173
     0
291
     0
 45
0.0
1001
ACAD
1000
AcDbSavedByObjectVersion
1070
     0
  0
VISUALSTYLE
  5
A1
102
{ACAD_XDICTIONARY
360
1B4C
102
}
102
{ACAD_REACTORS
330
99
102
}
330
99
100
AcDbVisualStyle
  2
3D Hidden
 70
     6
 71
     1
 72
     2
 73
     2
 90
        0
 40
-0.6
 41
-30.0
 62
     5
 63
     7
 74
     2
 91
        2
 64
     7
 65
   257
 75
     2
175
     1
 42
40.0
 92
        0
 66
   257
 43
1.0
 76
     1
 77
     6
 78
     2
 67
     7
 79
     3
170
     0
171
     0
290
     0
174
     0
 93
        1
 44
0.0
173
     0
291
     0
 45
0.0
1001
ACAD
1000
AcDbSavedByObjectVersion
1070
     0
  0
VISUALSTYLE
  5
A0
102
{ACAD_XDICTIONARY
360
1B4A
102
}
102
{ACAD_REACTORS
330
99
102
}
330
99
100
AcDbVisualStyle
  2
3dWireframe
 70
     5
 71
     0
 72
     2
 73
     1
 90
        0
 40
-0.6
 41
-30.0
 62
     5
 63
     7
 74
     1
 91
        4
 64
     7
 65
   257
 75
     1
175
     1
 42
1.0
 92
        0
 66
   257
 43
1.0
 76
     1
 77
     6
 78
     2
 67
     7
 79
     5
170
     0
171
     0
290
     0
174
     0
 93
        1
 44
0.0
173
     0
291
     0
 45
0.0
1001
ACAD
1000
AcDbSavedByObjectVersion
1070
     0
  0
VISUALSTYLE
  5
9E
102
{ACAD_XDICTIONARY
360
1B46
102
}
102
{ACAD_REACTORS
330
99
102
}
330
99
100
AcDbVisualStyle
  2
Basic
 70
     7
 71
     1
 72
     0
 73
     1
 90
        0
 40
-0.6
 41
-30.0
 62
     5
 63
     7
 74
     0
 91
        4
 64
     7
 65
   257
 75
     1
175
     1
 42
1.0
 92
        8
 66
     7
 43
1.0
 76
     1
 77
     6
 78
     2
 67
     7
 79
     5
170
     0
171
     0
290
     0
174
     0
 93
        1
 44
0.0
173
     0
291
     1
 45
0.0
1001
ACAD
1000
AcDbSavedByObjectVersion
1070
     0
  0
VISUALSTYLE
  5
A5
102
{ACAD_XDICTIONARY
360
1B54
102
}
102
{ACAD_REACTORS
330
99
102
}
330
99
100
AcDbVisualStyle
  2
Brighten
 70
    12
 71
     2
 72
     2
 73
     1
 90
        0
 40
-0.6
 41
-30.0
 62
     5
 63
     7
 74
     1
 91
        4
 64
     7
 65
   257
 75
     1
175
     1
 42
1.0
 92
        8
 66
     7
 43
1.0
 76
     1
 77
     6
 78
     2
 67
     7
 79
     5
170
     0
171
     0
290
     0
174
     0
 93
        1
 44
50.0
173
     0
291
     1
 45
0.0
1001
ACAD
1000
AcDbSavedByObjectVersion
1070
     0
  0
VISUALSTYLE
  5
A9
102
{ACAD_XDICTIONARY
360
1B5C
102
}
102
{ACAD_REACTORS
330
99
102
}
330
99
100
AcDbVisualStyle
  2
ColorChange
 70
    16
 71
     2
 72
     2
 73
     3
 90
        0
 40
-0.6
 41
-30.0
 62
     5
 63
     8
 74
     1
 91
        4
 64
     7
 65
   257
 75
     1
175
     1
 42
1.0
 92
        8
 66
     8
 43
1.0
 76
     1
 77
     6
 78
     2
 67
     7
 79
     5
170
     0
171
     0
290
     0
174
     0
 93
        1
 44
0.0
173
     0
291
     1
 45
0.0
1001
ACAD
1000
AcDbSavedByObjectVersion
1070
     0
  0
VISUALSTYLE
  5
A2
102
{ACAD_XDICTIONARY
360
1B4E
102
}
102
{ACAD_REACTORS
330
99
102
}
330
99
100
AcDbVisualStyle
  2
Conceptual
 70
     9
 71
     3
 72
     2
 73
     1
 90
        0
 40
-0.6
 41
-30.0
 62
     5
 63
     7
 74
     2
 91
        2
 64
     7
 65
   257
 75
     1
175
     1
 42
40.0
 92
        8
 66
     7
 43
1.0
 76
     1
 77
     6
 78
     2
 67
     7
 79
     3
170
     0
171
     0
290
     0
174
     0
 93
        1
 44
0.0
173
     0
291
     0
 45
0.0
1001
ACAD
1000
AcDbSavedByObjectVersion
1070
     0
  0
VISUALSTYLE
  5
A4
102
{ACAD_XDICTIONARY
360
1B52
102
}
102
{ACAD_REACTORS
330
99
102
}
330
99
100
AcDbVisualStyle
  2
Dim
 70
    11
 71
     2
 72
     2
 73
     1
 90
        0
 40
-0.6
 41
-30.0
 62
     5
 63
     7
 74
     1
 91
        4
 64
     7
 65
   257
 75
     1
175
     1
 42
1.0
 92
        8
 66
     7
 43
1.0
 76
     1
 77
     6
 78
     2
 67
     7
 79
     5
170
     0
171
     0
290
     0
174
     0
 93
        1
 44
-50.0
173
     0
291
     1
 45
0.0
1001
ACAD
1000
AcDbSavedByObjectVersion
1070
     0
  0
VISUALSTYLE
  5
155
102
{ACAD_XDICTIONARY
360
1B70
102
}
102
{ACAD_REACTORS
330
99
102
}
330
99
100
AcDbVisualStyle
  2
EdgeColorOff
 70
    22
 71
     2
 72
     2
 73
     0
 90
        0
 40
-0.6
 41
-30.0
 62
     5
 63
     7
 74
     1
 91
        4
 64
     7
 65
   257
 75
     1
175
     1
 42
1.0
 92
        8
 66
     7
 43
1.0
 76
     1
 77
     6
 78
     2
 67
     7
 79
     5
170
     0
171
     0
290
     0
174
     0
 93
        1
 44
0.0
173
     0
291
     1
 45
0.0
1001
ACAD
1000
AcDbSavedByObjectVersion
1070
     0
  0
VISUALSTYLE
  5
A8
102
{ACAD_XDICTIONARY
360
1B5A
102
}
102
{ACAD_REACTORS
330
99
102
}
330
99
100
AcDbVisualStyle
  2
Facepattern
 70
    15
 71
     2
 72
     2
 73
     1
 90
        0
 40
-0.6
 41
-30.0
 62
     5
 63
     7
 74
     1
 91
        4
 64
     7
 65
   257
 75
     1
175
     1
 42
1.0
 92
        8
 66
     7
 43
1.0
 76
     1
 77
     6
 78
     2
 67
     7
 79
     5
170
     0
171
     0
290
     0
174
     0
 93
        1
 44
0.0
173
     0
291
     1
 45
0.0
1001
ACAD
1000
AcDbSavedByObjectVersion
1070
     0
  0
VISUALSTYLE
  5
9A
102
{ACAD_XDICTIONARY
360
1B3E
102
}
102
{ACAD_REACTORS
330
99
102
}
330
99
100
AcDbVisualStyle
  2
Flat
 70
     0
 71
     2
 72
     1
 73
     1
 90
        2
 40
-0.6
 41
30.0
 62
     5
 63
     7
 74
     0
 91
        4
 64
     7
 65
   257
 75
     1
175
     1
 42
1.0
 92
        8
 66
     7
 43
1.0
 76
     1
 77
     6
 78
     2
 67
     7
 79
     5
170
     0
171
     0
290
     0
174
     0
 93
        1
 44
0.0
173
     0
291
     1
 45
0.0
1001
ACAD
1000
AcDbSavedByObjectVersion
1070
     0
  0
VISUALSTYLE
  5
9B
102
{ACAD_XDICTIONARY
360
1B40
102
}
102
{ACAD_REACTORS
330
99
102
}
330
99
100
AcDbVisualStyle
  2
FlatWithEdges
 70
     1
 71
     2
 72
     1
 73
     1
 90
        2
 40
-0.6
 41
30.0
 62
     5
 63
     7
 74
     1
 91
        4
 64
     7
 65
   257
 75
     1
175
     1
 42
1.0
 92
        0
 66
   257
 43
1.0
 76
     1
 77
     6
 78
     2
 67
     7
 79
     5
170
     0
171
     0
290
     0
174
     0
 93
        1
 44
0.0
173
     0
291
     1
 45
0.0
1001
ACAD
1000
AcDbSavedByObjectVersion
1070
     0
  0
VISUALSTYLE
  5
9C
102
{ACAD_XDICTIONARY
360
1B42
102
}
102
{ACAD_REACTORS
330
99
102
}
330
99
100
AcDbVisualStyle
  2
Gouraud
 70
     2
 71
     2
 72
     2
 73
     1
 90
        2
 40
-0.6
 41
30.0
 62
     5
 63
     7
 74
     0
 91
        4
 64
     7
 65
   257
 75
     1
175
     1
 42
1.0
 92
        0
 66
     7
 43
1.0
 76
     1
 77
     6
 78
     2
 67
     7
 79
     5
170
     0
171
     0
290
     0
174
     0
 93
        1
 44
0.0
173
     0
291
     1
 45
0.0
1001
ACAD
1000
AcDbSavedByObjectVersion
1070
     0
  0
VISUALSTYLE
  5
9D
102
{ACAD_XDICTIONARY
360
1B44
102
}
102
{ACAD_REACTORS
330
99
102
}
330
99
100
AcDbVisualStyle
  2
GouraudWithEdges
 70
     3
 71
     2
 72
     2
 73
     1
 90
        2
 40
-0.6
 41
30.0
 62
     5
 63
     7
 74
     1
 91
        4
 64
     7
 65
   257
 75
     1
175
     1
 42
1.0
 92
        0
 66
   257
 43
1.0
 76
     1
 77
     6
 78
     2
 67
     7
 79
     5
170
     0
171
     0
290
     0
174
     0
 93
        1
 44
0.0
173
     0
291
     1
 45
0.0
1001
ACAD
1000
AcDbSavedByObjectVersion
1070
     0
  0
VISUALSTYLE
  5
14D
102
{ACAD_XDICTIONARY
360
1B60
102
}
102
{ACAD_REACTORS
330
99
102
}
330
99
100
AcDbVisualStyle
  2
Hidden
 70
     6
 71
     1
 72
     2
 73
     2
 90
        0
 40
-0.6
 41
-30.0
 62
     5
 63
     7
 74
     2
 91
        2
 64
     7
 65
   257
 75
     2
175
     1
 42
40.0
 92
        0
 66
   257
 43
1.0
 76
     1
 77
     6
 78
     2
 67
     7
 79
     3
170
     0
171
     0
290
     0
174
     0
 93
        1
 44
0.0
173
     0
291
     0
 45
0.0
1001
ACAD
1000
AcDbSavedByObjectVersion
1070
     0
  0
VISUALSTYLE
  5
153
102
{ACAD_XDICTIONARY
360
1B6C
102
}
102
{ACAD_REACTORS
330
99
102
}
330
99
100
AcDbVisualStyle
  2
JitterOff
 70
    20
 71
     2
 72
     2
 73
     0
 90
        0
 40
-0.6
 41
-30.0
 62
     5
 63
     7
 74
     1
 91
        4
 64
     7
 65
   257
 75
     1
175
     1
 42
1.0
 92
       10
 66
     7
 43
1.0
 76
     1
 77
     6
 78
     2
 67
     7
 79
     5
170
     0
171
     0
290
     0
174
     0
 93
        1
 44
0.0
173
     0
291
     1
 45
0.0
1001
ACAD
1000
AcDbSavedByObjectVersion
1070
     0
  0
VISUALSTYLE
  5
A7
102
{ACAD_XDICTIONARY
360
1B58
102
}
102
{ACAD_REACTORS
330
99
102
}
330
99
100
AcDbVisualStyle
  2
Linepattern
 70
    14
 71
     2
 72
     2
 73
     1
 90
        0
 40
-0.6
 41
-30.0
 62
     5
 63
     7
 74
     1
 91
        4
 64
     7
 65
   257
 75
     7
175
     7
 42
1.0
 92
        8
 66
     7
 43
1.0
 76
     1
 77
     6
 78
     2
 67
     7
 79
     5
170
     0
171
     0
290
     0
174
     0
 93
        1
 44
0.0
173
     0
291
     1
 45
0.0
1001
ACAD
1000
AcDbSavedByObjectVersion
1070
     0
  0
VISUALSTYLE
  5
154
102
{ACAD_XDICTIONARY
360
1B6E
102
}
102
{ACAD_REACTORS
330
99
102
}
330
99
100
AcDbVisualStyle
  2
OverhangOff
 70
    21
 71
     2
 72
     2
 73
     0
 90
        0
 40
-0.6
 41
-30.0
 62
     5
 63
     7
 74
     1
 91
        4
 64
     7
 65
   257
 75
     1
175
     1
 42
1.0
 92
        9
 66
     7
 43
1.0
 76
     1
 77
     6
 78
     2
 67
     7
 79
     5
170
     0
171
     0
290
     0
174
     0
 93
        1
 44
0.0
173
     0
291
     1
 45
0.0
1001
ACAD
1000
AcDbSavedByObjectVersion
1070
     0
  0
VISUALSTYLE
  5
A3
102
{ACAD_XDICTIONARY
360
1B50
102
}
102
{ACAD_REACTORS
330
99
102
}
330
99
100
AcDbVisualStyle
  2
Realistic
 70
     8
 71
     2
 72
     2
 73
     1
 90
        0
 40
-0.6
 41
-30.0
 62
     5
 63
     7
 74
     1
 91
        0
 64
     7
 65
   257
 75
     1
175
     1
 42
1.0
 92
        8
 66
     8
 43
1.0
 76
     1
 77
     6
 78
     2
 67
     7
 79
     5
170
     0
171
     0
290
     0
174
     0
 93
       13
 44
0.0
173
     0
291
     0
 45
0.0
1001
ACAD
1000
AcDbSavedByObjectVersion
1070
     0
  0
VISUALSTYLE
  5
152
102
{ACAD_XDICTIONARY
360
1B6A
102
}
102
{ACAD_REACTORS
330
99
102
}
330
99
100
AcDbVisualStyle
  2
Shaded
 70
    27
 71
     2
 72
     2
 73
     1
 90
        2
 40
-0.6
 41
30.0
 62
     5
 63
     7
 74
     0
 91
        4
 64
     7
 65
   257
 75
     1
175
     1
 42
1.0
 92
        8
 66
   257
 43
1.0
 76
     1
 77
     6
 78
     2
 67
     8
 79
     3
170
     0
171
     0
290
     0
174
     0
 93
        5
 44
0.0
173
     0
291
     0
 45
0.0
1001
ACAD
1000
AcDbSavedByObjectVersion
1070
     0
  0
VISUALSTYLE
  5
151
102
{ACAD_XDICTIONARY
360
1B68
102
}
102
{ACAD_REACTORS
330
99
102
}
330
99
100
AcDbVisualStyle
  2
Shaded with edges
 70
    26
 71
     2
 72
     2
 73
     1
 90
        2
 40
-0.6
 41
30.0
 62
     5
 63
     7
 74
     1
 91
       10
 64
     7
 65
   257
 75
     2
175
     1
 42
1.0
 92
        8
 66
   257
 43
1.0
 76
     1
 77
     6
 78
     2
 67
     7
 79
     3
170
     0
171
     0
290
     0
174
     0
 93
        5
 44
0.0
173
     0
291
     0
 45
0.0
1001
ACAD
1000
AcDbSavedByObjectVersion
1070
     0
  0
VISUALSTYLE
  5
14E
102
{ACAD_XDICTIONARY
360
1B62
102
}
102
{ACAD_REACTORS
330
99
102
}
330
99
100
AcDbVisualStyle
  2
Shades of Gray
 70
    23
 71
     2
 72
     2
 73
     3
 90
        0
 40
-0.6
 41
-30.0
 62
     5
 63
     7
 74
     2
 91
        2
 64
     7
 65
     7
 75
     1
175
     1
 42
40.0
 92
        8
 66
     7
 43
1.0
 76
     1
 77
     6
 78
     2
 67
     7
 79
     3
170
     0
171
     0
290
     0
174
     0
 93
        1
 44
0.0
173
     0
291
     0
 45
0.0
1001
ACAD
1000
AcDbSavedByObjectVersion
1070
     0
  0
VISUALSTYLE
  5
14F
102
{ACAD_XDICTIONARY
360
1B64
102
}
102
{ACAD_REACTORS
330
99
102
}
330
99
100
AcDbVisualStyle
  2
Sketchy
 70
    24
 71
     1
 72
     2
 73
     2
 90
        0
 40
-0.6
 41
-30.0
 62
     5
 63
     7
 74
     2
 91
        2
 64
     7
 65
     7
 75
     1
175
     1
 42
40.0
 92
       11
 66
     7
 43
1.0
 76
     1
 77
     6
 78
     2
 67
     7
 79
     6
170
     0
171
     0
290
     0
174
     0
 93
        1
 44
0.0
173
     0
291
     0
 45
0.0
1001
ACAD
1000
AcDbSavedByObjectVersion
1070
     0
  0
VISUALSTYLE
  5
A6
102
{ACAD_XDICTIONARY
360
1B56
102
}
102
{ACAD_REACTORS
330
99
102
}
330
99
100
AcDbVisualStyle
  2
Thicken
 70
    13
 71
     2
 72
     2
 73
     1
 90
        0
 40
-0.6
 41
-30.0
 62
     5
 63
     7
 74
     1
 91
        4
 64
     7
 65
   257
 75
     1
175
     1
 42
1.0
 92
       12
 66
     7
 43
1.0
 76
     1
 77
     6
 78
     2
 67
     7
 79
     5
170
     0
171
     0
290
     0
174
     0
 93
        1
 44
0.0
173
     0
291
     1
 45
0.0
1001
ACAD
1000
AcDbSavedByObjectVersion
1070
     0
  0
VISUALSTYLE
  5
14C
102
{ACAD_XDICTIONARY
360
1B5E
102
}
102
{ACAD_REACTORS
330
99
102
}
330
99
100
AcDbVisualStyle
  2
Wireframe
 70
     5
 71
     0
 72
     2
 73
     0
 90
        0
 40
-0.6
 41
-30.0
 62
     5
 63
     7
 74
     1
 91
        4
 64
     7
 65
   257
 75
     1
175
     1
 42
1.0
 92
        0
 66
   257
 43
1.0
 76
     1
 77
     6
 78
     2
 67
     7
 79
     3
170
     0
171
     0
290
     0
174
     0
 93
        1
 44
0.0
173
     0
291
     0
 45
0.0
1001
ACAD
1000
AcDbSavedByObjectVersion
1070
     0
  0
VISUALSTYLE
  5
150
102
{ACAD_XDICTIONARY
360
1B66
102
}
102
{ACAD_REACTORS
330
99
102
}
330
99
100
AcDbVisualStyle
  2
X-Ray
 70
    25
 71
     2
 72
     2
 73
     1
 90
        1
 40
0.5
 41
-30.0
 62
     5
 63
     7
 74
     1
 91
        0
 64
     7
 65
   257
 75
     1
175
     1
 42
1.0
 92
        8
 66
     7
 43
1.0
 76
     1
 77
     6
 78
     2
 67
     7
 79
     3
170
     0
171
     0
290
     0
174
     0
 93
       13
 44
0.0
173
     0
291
     0
 45
0.0
1001
ACAD
1000
AcDbSavedByObjectVersion
1070
     0
  0
DICTIONARYVAR
  5
24A
102
{ACAD_REACTORS
330
66
102
}
330
66
100
DictionaryVariables
280
     0
  1
1:1
  0
DICTIONARYVAR
  5
248
102
{ACAD_REACTORS
330
66
102
}
330
66
100
DictionaryVariables
280
     0
  1
STANDARD
  0
DICTIONARYVAR
  5
89
102
{ACAD_REACTORS
330
66
102
}
330
66
100
DictionaryVariables
280
     0
  1
STANDARD
  0
DICTIONARYVAR
  5
67
102
{ACAD_REACTORS
330
66
102
}
330
66
100
DictionaryVariables
280
     0
  1
2
  0
DICTIONARYVAR
  5
6B
102
{ACAD_REACTORS
330
66
102
}
330
66
100
DictionaryVariables
280
     0
  1
1
  0
DICTIONARYVAR
  5
1801
102
{ACAD_REACTORS
330
66
102
}
330
66
100
DictionaryVariables
280
     0
  1
0
  0
DICTIONARYVAR
  5
24C
102
{ACAD_REACTORS
330
66
102
}
330
66
100
DictionaryVariables
280
     0
  1
1
  0
DICTIONARYVAR
  5
24D
102
{ACAD_REACTORS
330
66
102
}
330
66
100
DictionaryVariables
280
     0
  1
15
  0
DICTIONARYVAR
  5
24B
102
{ACAD_REACTORS
330
66
102
}
330
66
100
DictionaryVariables
280
     0
  1
0
  0
DICTIONARYVAR
  5
249
102
{ACAD_REACTORS
330
66
102
}
330
66
100
DictionaryVariables
280
     0
  1
0
  0
DICTIONARYVAR
  5
1800
102
{ACAD_REACTORS
330
66
102
}
330
66
100
DictionaryVariables
280
     0
  1
127
  0
DICTIONARYVAR
  5
19E7
102
{ACAD_REACTORS
330
66
102
}
330
66
100
DictionaryVariables
280
     0
  1
2
  0
DICTIONARY
  5
1B31
330
22
100
AcDbDictionary
280
     1
281
     1
  3
ACAD_XREC_ROUNDTRIP
360
1B32
  0
DICTIONARY
  5
1B33
330
59
100
AcDbDictionary
280
     1
281
     1
  3
ACAD_XREC_ROUNDTRIP
360
1B34
  0
DICTIONARY
  5
1B35
330
5E
100
AcDbDictionary
280
     1
281
     1
  3
ACAD_XREC_ROUNDTRIP
360
1B36
  0
DICTIONARY
  5
1B3A
330
97
100
AcDbDictionary
280
     1
281
     1
  3
ACAD_XREC_ROUNDTRIP
360
1B3B
  0
DICTIONARY
  5
1B38
330
96
100
AcDbDictionary
280
     1
281
     1
  3
ACAD_XREC_ROUNDTRIP
360
1B39
  0
DICTIONARY
  5
1B3C
330
98
100
AcDbDictionary
280
     1
281
     1
  3
ACAD_XREC_ROUNDTRIP
360
1B3D
  0
DICTIONARY
  5
17AE
330
87
100
AcDbDictionary
280
     1
281
     1
  3
ACAD_ROUNDTRIP_2008_TABLESTYLE_CELLSTYLEMAP
360
1B29
  3
ACAD_XREC_ROUNDTRIP
360
1B37
  0
DICTIONARY
  5
C46
330
C45
100
AcDbDictionary
280
     1
281
     1
  3
ACAD_ROUNDTRIP_2008_TABLESTYLE_CELLSTYLEMAP
360
1B2A
  3
ACAD_XREC_ROUNDTRIP
360
1B72
  0
DICTIONARY
  5
1B48
330
9F
100
AcDbDictionary
280
     1
281
     1
  3
ACAD_XREC_ROUNDTRIP
360
1B49
  0
DICTIONARY
  5
1B4C
330
A1
100
AcDbDictionary
280
     1
281
     1
  3
ACAD_XREC_ROUNDTRIP
360
1B4D
  0
DICTIONARY
  5
1B4A
330
A0
100
AcDbDictionary
280
     1
281
     1
  3
ACAD_XREC_ROUNDTRIP
360
1B4B
  0
DICTIONARY
  5
1B46
330
9E
100
AcDbDictionary
280
     1
281
     1
  3
ACAD_XREC_ROUNDTRIP
360
1B47
  0
DICTIONARY
  5
1B54
330
A5
100
AcDbDictionary
280
     1
281
     1
  3
ACAD_XREC_ROUNDTRIP
360
1B55
  0
DICTIONARY
  5
1B5C
330
A9
100
AcDbDictionary
280
     1
281
     1
  3
ACAD_XREC_ROUNDTRIP
360
1B5D
  0
DICTIONARY
  5
1B4E
330
A2
100
AcDbDictionary
280
     1
281
     1
  3
ACAD_XREC_ROUNDTRIP
360
1B4F
  0
DICTIONARY
  5
1B52
330
A4
100
AcDbDictionary
280
     1
281
     1
  3
ACAD_XREC_ROUNDTRIP
360
1B53
  0
DICTIONARY
  5
1B70
330
155
100
AcDbDictionary
280
     1
281
     1
  3
ACAD_XREC_ROUNDTRIP
360
1B71
  0
DICTIONARY
  5
1B5A
330
A8
100
AcDbDictionary
280
     1
281
     1
  3
ACAD_XREC_ROUNDTRIP
360
1B5B
  0
DICTIONARY
  5
1B3E
330
9A
100
AcDbDictionary
280
     1
281
     1
  3
ACAD_XREC_ROUNDTRIP
360
1B3F
  0
DICTIONARY
  5
1B40
330
9B
100
AcDbDictionary
280
     1
281
     1
  3
ACAD_XREC_ROUNDTRIP
360
1B41
  0
DICTIONARY
  5
1B42
330
9C
100
AcDbDictionary
280
     1
281
     1
  3
ACAD_XREC_ROUNDTRIP
360
1B43
  0
DICTIONARY
  5
1B44
330
9D
100
AcDbDictionary
280
     1
281
     1
  3
ACAD_XREC_ROUNDTRIP
360
1B45
  0
DICTIONARY
  5
1B60
330
14D
100
AcDbDictionary
280
     1
281
     1
  3
ACAD_XREC_ROUNDTRIP
360
1B61
  0
DICTIONARY
  5
1B6C
330
153
100
AcDbDictionary
280
     1
281
     1
  3
ACAD_XREC_ROUNDTRIP
360
1B6D
  0
DICTIONARY
  5
1B58
330
A7
100
AcDbDictionary
280
     1
281
     1
  3
ACAD_XREC_ROUNDTRIP
360
1B59
  0
DICTIONARY
  5
1B6E
330
154
100
AcDbDictionary
280
     1
281
     1
  3
ACAD_XREC_ROUNDTRIP
360
1B6F
  0
DICTIONARY
  5
1B50
330
A3
100
AcDbDictionary
280
     1
281
     1
  3
ACAD_XREC_ROUNDTRIP
360
1B51
  0
DICTIONARY
  5
1B6A
330
152
100
AcDbDictionary
280
     1
281
     1
  3
ACAD_XREC_ROUNDTRIP
360
1B6B
  0
DICTIONARY
  5
1B68
330
151
100
AcDbDictionary
280
     1
281
     1
  3
ACAD_XREC_ROUNDTRIP
360
1B69
  0
DICTIONARY
  5
1B62
330
14E
100
AcDbDictionary
280
     1
281
     1
  3
ACAD_XREC_ROUNDTRIP
360
1B63
  0
DICTIONARY
  5
1B64
330
14F
100
AcDbDictionary
280
     1
281
     1
  3
ACAD_XREC_ROUNDTRIP
360
1B65
  0
DICTIONARY
  5
1B56
330
A6
100
AcDbDictionary
280
     1
281
     1
  3
ACAD_XREC_ROUNDTRIP
360
1B57
  0
DICTIONARY
  5
1B5E
330
14C
100
AcDbDictionary
280
     1
281
     1
  3
ACAD_XREC_ROUNDTRIP
360
1B5F
  0
DICTIONARY
  5
1B66
330
150
100
AcDbDictionary
280
     1
281
     1
  3
ACAD_XREC_ROUNDTRIP
360
1B67
  0
XRECORD
  5
1B32
102
{ACAD_REACTORS
330
1B31
102
}
330
1B31
100
AcDbXrecord
280
     1
102
SHADEPLOT
 70
     0
102
SHADEPLOTRESLEVEL
 70
     2
102
SHADEPLOTCUSTOMDPI
 70
   300
  0
XRECORD
  5
1B34
102
{ACAD_REACTORS
330
1B33
102
}
330
1B33
100
AcDbXrecord
280
     1
102
SHADEPLOT
 70
     0
102
SHADEPLOTRESLEVEL
 70
     2
102
SHADEPLOTCUSTOMDPI
 70
   300
  0
XRECORD
  5
1B36
102
{ACAD_REACTORS
330
1B35
102
}
330
1B35
100
AcDbXrecord
280
     1
102
SHADEPLOT
 70
     0
102
SHADEPLOTRESLEVEL
 70
     2
102
SHADEPLOTCUSTOMDPI
 70
   300
  0
XRECORD
  5
1B3B
102
{ACAD_REACTORS
330
1B3A
102
}
330
1B3A
100
AcDbXrecord
280
     1
102
MATERIAL
148
0.0
149
0.0
149
0.0
 93
        0
 94
       63
282
     0
 72
     1
 77
     1
171
     1
175
     1
179
     1
273
     0
  0
XRECORD
  5
1B39
102
{ACAD_REACTORS
330
1B38
102
}
330
1B38
100
AcDbXrecord
280
     1
102
MATERIAL
148
0.0
149
0.0
149
0.0
 93
        0
 94
       63
282
     0
 72
     1
 77
     1
171
     1
175
     1
179
     1
273
     0
  0
XRECORD
  5
1B3D
102
{ACAD_REACTORS
330
1B3C
102
}
330
1B3C
100
AcDbXrecord
280
     1
102
MATERIAL
148
0.0
149
0.0
149
0.0
 93
        0
 94
       63
282
     0
 72
     1
 77
     1
171
     1
175
     1
179
     1
273
     0
  0
CELLSTYLEMAP
  5
1B29
102
{ACAD_REACTORS
330
17AE
102
}
330
17AE
100
AcDbCellStyleMap
 90
        3
300
CELLSTYLE
  1
TABLEFORMAT_BEGIN
 90
        5
170
     1
 91
        0
 92
    32768
 62
   257
 93
        1
300
CONTENTFORMAT
  1
CONTENTFORMAT_BEGIN
 90
        0
 91
        0
 92
      512
 93
        0
300

 40
0.0
140
1.0
 94
        5
 62
     0
340
11
144
0.25
309
CONTENTFORMAT_END
171
     0
 94
        6
 95
        1
302
GRIDFORMAT
  1
GRIDFORMAT_BEGIN
 90
        0
 91
        1
 62
     0
 92
       -2
340
0
 93
        0
 40
0.045
309
GRIDFORMAT_END
 95
        2
302
GRIDFORMAT
  1
GRIDFORMAT_BEGIN
 90
        0
 91
        1
 62
     0
 92
       -2
340
0
 93
        0
 40
0.045
309
GRIDFORMAT_END
 95
        4
302
GRIDFORMAT
  1
GRIDFORMAT_BEGIN
 90
        0
 91
        1
 62
     0
 92
       -2
340
0
 93
        0
 40
0.045
309
GRIDFORMAT_END
 95
        8
302
GRIDFORMAT
  1
GRIDFORMAT_BEGIN
 90
        0
 91
        1
 62
     0
 92
       -2
340
0
 93
        0
 40
0.045
309
GRIDFORMAT_END
 95
       16
302
GRIDFORMAT
  1
GRIDFORMAT_BEGIN
 90
        0
 91
        1
 62
     0
 92
       -2
340
0
 93
        0
 40
0.045
309
GRIDFORMAT_END
 95
       32
302
GRIDFORMAT
  1
GRIDFORMAT_BEGIN
 90
        0
 91
        1
 62
     0
 92
       -2
340
0
 93
        0
 40
0.045
309
GRIDFORMAT_END
309
TABLEFORMAT_END
  1
CELLSTYLE_BEGIN
 90
        1
 91
        1
300
_TITLE
309
CELLSTYLE_END
300
CELLSTYLE
  1
TABLEFORMAT_BEGIN
 90
        5
170
     1
 91
        0
 92
        0
 62
   257
 93
        1
300
CONTENTFORMAT
  1
CONTENTFORMAT_BEGIN
 90
        0
 91
        0
 92
      512
 93
        0
300

 40
0.0
140
1.0
 94
        5
 62
     0
340
11
144
0.18
309
CONTENTFORMAT_END
171
     0
 94
        6
 95
        1
302
GRIDFORMAT
  1
GRIDFORMAT_BEGIN
 90
        0
 91
        1
 62
     0
 92
       -2
340
0
 93
        0
 40
0.045
309
GRIDFORMAT_END
 95
        2
302
GRIDFORMAT
  1
GRIDFORMAT_BEGIN
 90
        0
 91
        1
 62
     0
 92
       -2
340
0
 93
        0
 40
0.045
309
GRIDFORMAT_END
 95
        4
302
GRIDFORMAT
  1
GRIDFORMAT_BEGIN
 90
        0
 91
        1
 62
     0
 92
       -2
340
0
 93
        0
 40
0.045
309
GRIDFORMAT_END
 95
        8
302
GRIDFORMAT
  1
GRIDFORMAT_BEGIN
 90
        0
 91
        1
 62
     0
 92
       -2
340
0
 93
        0
 40
0.045
309
GRIDFORMAT_END
 95
       16
302
GRIDFORMAT
  1
GRIDFORMAT_BEGIN
 90
        0
 91
        1
 62
     0
 92
       -2
340
0
 93
        0
 40
0.045
309
GRIDFORMAT_END
 95
       32
302
GRIDFORMAT
  1
GRIDFORMAT_BEGIN
 90
        0
 91
        1
 62
     0
 92
       -2
340
0
 93
        0
 40
0.045
309
GRIDFORMAT_END
309
TABLEFORMAT_END
  1
CELLSTYLE_BEGIN
 90
        2
 91
        1
300
_HEADER
309
CELLSTYLE_END
300
CELLSTYLE
  1
TABLEFORMAT_BEGIN
 90
        5
170
     1
 91
        0
 92
        0
 62
   257
 93
        1
300
CONTENTFORMAT
  1
CONTENTFORMAT_BEGIN
 90
        0
 91
        0
 92
      512
 93
        0
300

 40
0.0
140
1.0
 94
        2
 62
     0
340
11
144
0.18
309
CONTENTFORMAT_END
171
     0
 94
        6
 95
        1
302
GRIDFORMAT
  1
GRIDFORMAT_BEGIN
 90
        0
 91
        1
 62
     0
 92
       -2
340
0
 93
        0
 40
0.045
309
GRIDFORMAT_END
 95
        2
302
GRIDFORMAT
  1
GRIDFORMAT_BEGIN
 90
        0
 91
        1
 62
     0
 92
       -2
340
0
 93
        0
 40
0.045
309
GRIDFORMAT_END
 95
        4
302
GRIDFORMAT
  1
GRIDFORMAT_BEGIN
 90
        0
 91
        1
 62
     0
 92
       -2
340
0
 93
        0
 40
0.045
309
GRIDFORMAT_END
 95
        8
302
GRIDFORMAT
  1
GRIDFORMAT_BEGIN
 90
        0
 91
        1
 62
     0
 92
       -2
340
0
 93
        0
 40
0.045
309
GRIDFORMAT_END
 95
       16
302
GRIDFORMAT
  1
GRIDFORMAT_BEGIN
 90
        0
 91
        1
 62
     0
 92
       -2
340
0
 93
        0
 40
0.045
309
GRIDFORMAT_END
 95
       32
302
GRIDFORMAT
  1
GRIDFORMAT_BEGIN
 90
        0
 91
        1
 62
     0
 92
       -2
340
0
 93
        0
 40
0.045
309
GRIDFORMAT_END
309
TABLEFORMAT_END
  1
CELLSTYLE_BEGIN
 90
        3
 91
        2
300
_DATA
309
CELLSTYLE_END
  0
XRECORD
  5
1B37
102
{ACAD_REACTORS
330
17AE
102
}
330
17AE
100
AcDbXrecord
280
     1
102
ACAD_ROUNDTRIP_PRE2007_TABLESTYLE
 90
      512
 91
        0
  1

 92
      512
 93
        0
  2

 94
      512
 95
        0
  3

  0
CELLSTYLEMAP
  5
1B2A
102
{ACAD_REACTORS
330
C46
102
}
330
C46
100
AcDbCellStyleMap
 90
        3
300
CELLSTYLE
  1
TABLEFORMAT_BEGIN
 90
        5
170
     1
 91
        0
 92
    32768
 62
   257
 93
        1
300
CONTENTFORMAT
  1
CONTENTFORMAT_BEGIN
 90
        0
 91
        0
 92
      512
 93
        0
300

 40
0.0
140
1.0
 94
        8
 62
     3
340
11D
144
0.25
309
CONTENTFORMAT_END
171
     1
301
MARGIN
  1
CELLMARGIN_BEGIN
 40
0.5
 40
10.0
 40
0.06
 40
0.06
 40
0.18
 40
0.18
309
CELLMARGIN_END
 94
        6
 95
        1
302
GRIDFORMAT
  1
GRIDFORMAT_BEGIN
 90
        0
 91
        1
 62
     0
 92
       -2
340
0
 93
        0
 40
0.045
309
GRIDFORMAT_END
 95
        2
302
GRIDFORMAT
  1
GRIDFORMAT_BEGIN
 90
        0
 91
        1
 62
     0
 92
       -2
340
0
 93
        0
 40
0.045
309
GRIDFORMAT_END
 95
        4
302
GRIDFORMAT
  1
GRIDFORMAT_BEGIN
 90
        0
 91
        1
 62
     0
 92
       -2
340
0
 93
        0
 40
0.045
309
GRIDFORMAT_END
 95
        8
302
GRIDFORMAT
  1
GRIDFORMAT_BEGIN
 90
        0
 91
        1
 62
     0
 92
       -2
340
0
 93
        0
 40
0.045
309
GRIDFORMAT_END
 95
       16
302
GRIDFORMAT
  1
GRIDFORMAT_BEGIN
 90
        0
 91
        1
 62
     0
 92
       -2
340
0
 93
        0
 40
0.045
309
GRIDFORMAT_END
 95
       32
302
GRIDFORMAT
  1
GRIDFORMAT_BEGIN
 90
        0
 91
        1
 62
     0
 92
       -2
340
0
 93
        0
 40
0.045
309
GRIDFORMAT_END
309
TABLEFORMAT_END
  1
CELLSTYLE_BEGIN
 90
        1
 91
        1
300
_TITLE
309
CELLSTYLE_END
300
CELLSTYLE
  1
TABLEFORMAT_BEGIN
 90
        5
170
     1
 91
        0
 92
        0
 62
   257
 93
        1
300
CONTENTFORMAT
  1
CONTENTFORMAT_BEGIN
 90
        0
 91
        0
 92
      512
 93
        0
300

 40
0.0
140
1.0
 94
        7
 62
     3
340
11D
144
0.18
309
CONTENTFORMAT_END
171
     1
301
MARGIN
  1
CELLMARGIN_BEGIN
 40
0.5
 40
1.5
 40
0.06
 40
0.06
 40
0.18
 40
0.18
309
CELLMARGIN_END
 94
        6
 95
        1
302
GRIDFORMAT
  1
GRIDFORMAT_BEGIN
 90
        0
 91
        1
 62
     3
 92
       -2
340
14
 93
        0
 40
0.045
309
GRIDFORMAT_END
 95
        2
302
GRIDFORMAT
  1
GRIDFORMAT_BEGIN
 90
        0
 91
        1
 62
     7
 92
       -2
340
14
 93
        0
 40
0.045
309
GRIDFORMAT_END
 95
        4
302
GRIDFORMAT
  1
GRIDFORMAT_BEGIN
 90
        0
 91
        1
 62
     3
 92
       -2
340
14
 93
        0
 40
0.045
309
GRIDFORMAT_END
 95
        8
302
GRIDFORMAT
  1
GRIDFORMAT_BEGIN
 90
        0
 91
        1
 62
     3
 92
       -2
340
14
 93
        0
 40
0.045
309
GRIDFORMAT_END
 95
       16
302
GRIDFORMAT
  1
GRIDFORMAT_BEGIN
 90
        0
 91
        1
 62
     7
 92
       -2
340
14
 93
        0
 40
0.045
309
GRIDFORMAT_END
 95
       32
302
GRIDFORMAT
  1
GRIDFORMAT_BEGIN
 90
        0
 91
        1
 62
     3
 92
       -2
340
14
 93
        0
 40
0.045
309
GRIDFORMAT_END
309
TABLEFORMAT_END
  1
CELLSTYLE_BEGIN
 90
        2
 91
        1
300
_HEADER
309
CELLSTYLE_END
300
CELLSTYLE
  1
TABLEFORMAT_BEGIN
 90
        5
170
     1
 91
        0
 92
        0
 62
   257
 93
        1
300
CONTENTFORMAT
  1
CONTENTFORMAT_BEGIN
 90
        0
 91
        0
 92
      512
 93
        0
300

 40
0.0
140
1.0
 94
        7
 62
     3
340
11D
144
0.18
309
CONTENTFORMAT_END
171
     1
301
MARGIN
  1
CELLMARGIN_BEGIN
 40
0.5
 40
1.5
 40
0.06
 40
0.06
 40
0.18
 40
0.18
309
CELLMARGIN_END
 94
        6
 95
        1
302
GRIDFORMAT
  1
GRIDFORMAT_BEGIN
 90
        0
 91
        1
 62
     3
 92
       -2
340
14
 93
        0
 40
0.045
309
GRIDFORMAT_END
 95
        2
302
GRIDFORMAT
  1
GRIDFORMAT_BEGIN
 90
        0
 91
        1
 62
     7
 92
       -2
340
14
 93
        0
 40
0.045
309
GRIDFORMAT_END
 95
        4
302
GRIDFORMAT
  1
GRIDFORMAT_BEGIN
 90
        0
 91
        1
 62
     3
 92
       -2
340
14
 93
        0
 40
0.045
309
GRIDFORMAT_END
 95
        8
302
GRIDFORMAT
  1
GRIDFORMAT_BEGIN
 90
        0
 91
        1
 62
     3
 92
       -2
340
14
 93
        0
 40
0.045
309
GRIDFORMAT_END
 95
       16
302
GRIDFORMAT
  1
GRIDFORMAT_BEGIN
 90
        0
 91
        1
 62
     7
 92
       -2
340
14
 93
        0
 40
0.045
309
GRIDFORMAT_END
 95
       32
302
GRIDFORMAT
  1
GRIDFORMAT_BEGIN
 90
        0
 91
        1
 62
     3
 92
       -2
340
14
 93
        0
 40
0.045
309
GRIDFORMAT_END
309
TABLEFORMAT_END
  1
CELLSTYLE_BEGIN
 90
        3
 91
        2
300
_DATA
309
CELLSTYLE_END
  0
XRECORD
  5
1B72
102
{ACAD_REACTORS
330
C46
102
}
330
C46
100
AcDbXrecord
280
     1
102
ACAD_ROUNDTRIP_PRE2007_TABLESTYLE
 90
      512
 91
        0
  1

 92
      512
 93
        0
  2

 94
      512
 95
        0
  3

  0
XRECORD
  5
1B49
102
{ACAD_REACTORS
330
1B48
102
}
330
1B48
100
AcDbXrecord
280
     1
102
RTVSPropertyOp0
 70
     1
102
RTVSPropertyOp1
 70
     1
102
RTVSPropertyOp2
 70
     1
102
RTVSPropertyOp3
 70
     1
102
RTVSPropertyOp4
 70
     1
102
RTVSPropertyOp5
 70
     1
102
RTVSPropertyOp6
 70
     1
102
RTVSPropertyOp7
 70
     1
102
RTVSPropertyOp8
 70
     1
102
RTVSPropertyOp9
 70
     1
102
RTVSPropertyOp10
 70
     1
102
RTVSPropertyOp11
 70
     1
102
RTVSPropertyOp12
 70
     1
102
RTVSPropertyOp13
 70
     1
102
RTVSPropertyOp14
 70
     1
102
RTVSPropertyOp15
 70
     1
102
RTVSPropertyOp16
 70
     1
102
RTVSPropertyOp17
 70
     1
102
RTVSPropertyOp18
 70
     1
102
RTVSPropertyOp19
 70
     1
102
RTVSPropertyOp20
 70
     1
102
RTVSPropertyOp21
 70
     1
102
RTVSPropertyOp22
 70
     1
102
RTVSPropertyOp23
 70
     1
102
RTVSPropertyOp24
 70
     1
102
RTVSPropertyOp25
 70
     1
102
RTVSPropertyOp26
 70
     1
102
RTVSPropertyOp27
 70
     1
102
RTVSPropertyOp28
 70
     1
102
RTVSPropertyOp29
 70
     1
102
RTVSPropertyOp30
 70
     1
102
RTVSPropertyOp31
 70
     1
102
RTVSPropertyOp32
 70
     1
  0
XRECORD
  5
1B4D
102
{ACAD_REACTORS
330
1B4C
102
}
330
1B4C
100
AcDbXrecord
280
     1
102
RTVSPropertyOp0
 70
     1
102
RTVSPropertyOp1
 70
     1
102
RTVSPropertyOp2
 70
     1
102
RTVSPropertyOp3
 70
     1
102
RTVSPropertyOp4
 70
     1
102
RTVSPropertyOp5
 70
     1
102
RTVSPropertyOp6
 70
     1
102
RTVSPropertyOp7
 70
     1
102
RTVSPropertyOp8
 70
     1
102
RTVSPropertyOp9
 70
     1
102
RTVSPropertyOp10
 70
     1
102
RTVSPropertyOp11
 70
     1
102
RTVSPropertyOp12
 70
     1
102
RTVSPropertyOp13
 70
     1
102
RTVSPropertyOp14
 70
     1
102
RTVSPropertyOp15
 70
     1
102
RTVSPropertyOp16
 70
     1
102
RTVSPropertyOp17
 70
     1
102
RTVSPropertyOp18
 70
     1
102
RTVSPropertyOp19
 70
     1
102
RTVSPropertyOp20
 70
     1
102
RTVSPropertyOp21
 70
     1
102
RTVSPropertyOp22
 70
     1
102
RTVSPropertyOp23
 70
     1
102
RTVSPropertyOp24
 70
     1
102
RTVSPropertyOp25
 70
     1
102
RTVSPropertyOp26
 70
     1
102
RTVSPropertyOp27
 70
     1
102
RTVSPropertyOp28
 70
     1
102
RTVSPropertyOp29
 70
     1
102
RTVSPropertyOp30
 70
     1
102
RTVSPropertyOp31
 70
     1
102
RTVSPropertyOp32
 70
     1
  0
XRECORD
  5
1B4B
102
{ACAD_REACTORS
330
1B4A
102
}
330
1B4A
100
AcDbXrecord
280
     1
102
RTVSPropertyOp0
 70
     1
102
RTVSPropertyOp1
 70
     1
102
RTVSPropertyOp2
 70
     1
102
RTVSPropertyOp3
 70
     1
102
RTVSPropertyOp4
 70
     1
102
RTVSPropertyOp5
 70
     1
102
RTVSPropertyOp6
 70
     1
102
RTVSPropertyOp7
 70
     1
102
RTVSPropertyOp8
 70
     1
102
RTVSPropertyOp9
 70
     1
102
RTVSPropertyOp10
 70
     1
102
RTVSPropertyOp11
 70
     1
102
RTVSPropertyOp12
 70
     1
102
RTVSPropertyOp13
 70
     1
102
RTVSPropertyOp14
 70
     1
102
RTVSPropertyOp15
 70
     1
102
RTVSPropertyOp16
 70
     1
102
RTVSPropertyOp17
 70
     1
102
RTVSPropertyOp18
 70
     1
102
RTVSPropertyOp19
 70
     1
102
RTVSPropertyOp20
 70
     1
102
RTVSPropertyOp21
 70
     1
102
RTVSPropertyOp22
 70
     1
102
RTVSPropertyOp23
 70
     1
102
RTVSPropertyOp24
 70
     1
102
RTVSPropertyOp25
 70
     1
102
RTVSPropertyOp26
 70
     1
102
RTVSPropertyOp27
 70
     1
102
RTVSPropertyOp28
 70
     1
102
RTVSPropertyOp29
 70
     1
102
RTVSPropertyOp30
 70
     1
102
RTVSPropertyOp31
 70
     1
102
RTVSPropertyOp32
 70
     1
  0
XRECORD
  5
1B47
102
{ACAD_REACTORS
330
1B46
102
}
330
1B46
100
AcDbXrecord
280
     1
102
RTVSPropertyOp0
 70
     1
102
RTVSPropertyOp1
 70
     1
102
RTVSPropertyOp2
 70
     1
102
RTVSPropertyOp3
 70
     1
102
RTVSPropertyOp4
 70
     1
102
RTVSPropertyOp5
 70
     1
102
RTVSPropertyOp6
 70
     1
102
RTVSPropertyOp7
 70
     1
102
RTVSPropertyOp8
 70
     1
102
RTVSPropertyOp9
 70
     1
102
RTVSPropertyOp10
 70
     1
102
RTVSPropertyOp11
 70
     1
102
RTVSPropertyOp12
 70
     1
102
RTVSPropertyOp13
 70
     1
102
RTVSPropertyOp14
 70
     1
102
RTVSPropertyOp15
 70
     1
102
RTVSPropertyOp16
 70
     1
102
RTVSPropertyOp17
 70
     1
102
RTVSPropertyOp18
 70
     1
102
RTVSPropertyOp19
 70
     1
102
RTVSPropertyOp20
 70
     1
102
RTVSPropertyOp21
 70
     1
102
RTVSPropertyOp22
 70
     1
102
RTVSPropertyOp23
 70
     1
102
RTVSPropertyOp24
 70
     1
102
RTVSPropertyOp25
 70
     1
102
RTVSPropertyOp26
 70
     1
102
RTVSPropertyOp27
 70
     1
102
RTVSPropertyOp28
 70
     1
102
RTVSPropertyOp29
 70
     1
102
RTVSPropertyOp30
 70
     1
102
RTVSPropertyOp31
 70
     1
102
RTVSPropertyOp32
 70
     1
  0
XRECORD
  5
1B55
102
{ACAD_REACTORS
330
1B54
102
}
330
1B54
100
AcDbXrecord
280
     1
102
RTVSPropertyOp0
 70
     1
102
RTVSPropertyOp1
 70
     1
102
RTVSPropertyOp2
 70
     1
102
RTVSPropertyOp3
 70
     1
102
RTVSPropertyOp4
 70
     1
102
RTVSPropertyOp5
 70
     1
102
RTVSPropertyOp6
 70
     1
102
RTVSPropertyOp7
 70
     1
102
RTVSPropertyOp8
 70
     1
102
RTVSPropertyOp9
 70
     1
102
RTVSPropertyOp10
 70
     1
102
RTVSPropertyOp11
 70
     1
102
RTVSPropertyOp12
 70
     1
102
RTVSPropertyOp13
 70
     1
102
RTVSPropertyOp14
 70
     1
102
RTVSPropertyOp15
 70
     1
102
RTVSPropertyOp16
 70
     1
102
RTVSPropertyOp17
 70
     1
102
RTVSPropertyOp18
 70
     1
102
RTVSPropertyOp19
 70
     1
102
RTVSPropertyOp20
 70
     1
102
RTVSPropertyOp21
 70
     1
102
RTVSPropertyOp22
 70
     1
102
RTVSPropertyOp23
 70
     1
102
RTVSPropertyOp24
 70
     1
102
RTVSPropertyOp25
 70
     1
102
RTVSPropertyOp26
 70
     1
102
RTVSPropertyOp27
 70
     1
102
RTVSPropertyOp28
 70
     1
102
RTVSPropertyOp29
 70
     1
102
RTVSPropertyOp30
 70
     1
102
RTVSPropertyOp31
 70
     1
102
RTVSPropertyOp32
 70
     1
  0
XRECORD
  5
1B5D
102
{ACAD_REACTORS
330
1B5C
102
}
330
1B5C
100
AcDbXrecord
280
     1
102
RTVSPropertyOp0
 70
     1
102
RTVSPropertyOp1
 70
     1
102
RTVSPropertyOp2
 70
     1
102
RTVSPropertyOp3
 70
     1
102
RTVSPropertyOp4
 70
     1
102
RTVSPropertyOp5
 70
     1
102
RTVSPropertyOp6
 70
     1
102
RTVSPropertyOp7
 70
     1
102
RTVSPropertyOp8
 70
     1
102
RTVSPropertyOp9
 70
     1
102
RTVSPropertyOp10
 70
     1
102
RTVSPropertyOp11
 70
     1
102
RTVSPropertyOp12
 70
     1
102
RTVSPropertyOp13
 70
     1
102
RTVSPropertyOp14
 70
     1
102
RTVSPropertyOp15
 70
     1
102
RTVSPropertyOp16
 70
     1
102
RTVSPropertyOp17
 70
     1
102
RTVSPropertyOp18
 70
     1
102
RTVSPropertyOp19
 70
     1
102
RTVSPropertyOp20
 70
     1
102
RTVSPropertyOp21
 70
     1
102
RTVSPropertyOp22
 70
     1
102
RTVSPropertyOp23
 70
     1
102
RTVSPropertyOp24
 70
     1
102
RTVSPropertyOp25
 70
     1
102
RTVSPropertyOp26
 70
     1
102
RTVSPropertyOp27
 70
     1
102
RTVSPropertyOp28
 70
     1
102
RTVSPropertyOp29
 70
     1
102
RTVSPropertyOp30
 70
     1
102
RTVSPropertyOp31
 70
     1
102
RTVSPropertyOp32
 70
     1
  0
XRECORD
  5
1B4F
102
{ACAD_REACTORS
330
1B4E
102
}
330
1B4E
100
AcDbXrecord
280
     1
102
RTVSPropertyOp0
 70
     1
102
RTVSPropertyOp1
 70
     1
102
RTVSPropertyOp2
 70
     1
102
RTVSPropertyOp3
 70
     1
102
RTVSPropertyOp4
 70
     1
102
RTVSPropertyOp5
 70
     1
102
RTVSPropertyOp6
 70
     1
102
RTVSPropertyOp7
 70
     1
102
RTVSPropertyOp8
 70
     1
102
RTVSPropertyOp9
 70
     1
102
RTVSPropertyOp10
 70
     1
102
RTVSPropertyOp11
 70
     1
102
RTVSPropertyOp12
 70
     1
102
RTVSPropertyOp13
 70
     1
102
RTVSPropertyOp14
 70
     1
102
RTVSPropertyOp15
 70
     1
102
RTVSPropertyOp16
 70
     1
102
RTVSPropertyOp17
 70
     1
102
RTVSPropertyOp18
 70
     1
102
RTVSPropertyOp19
 70
     1
102
RTVSPropertyOp20
 70
     1
102
RTVSPropertyOp21
 70
     1
102
RTVSPropertyOp22
 70
     1
102
RTVSPropertyOp23
 70
     1
102
RTVSPropertyOp24
 70
     1
102
RTVSPropertyOp25
 70
     1
102
RTVSPropertyOp26
 70
     1
102
RTVSPropertyOp27
 70
     1
102
RTVSPropertyOp28
 70
     1
102
RTVSPropertyOp29
 70
     1
102
RTVSPropertyOp30
 70
     1
102
RTVSPropertyOp31
 70
     1
102
RTVSPropertyOp32
 70
     1
  0
XRECORD
  5
1B53
102
{ACAD_REACTORS
330
1B52
102
}
330
1B52
100
AcDbXrecord
280
     1
102
RTVSPropertyOp0
 70
     1
102
RTVSPropertyOp1
 70
     1
102
RTVSPropertyOp2
 70
     1
102
RTVSPropertyOp3
 70
     1
102
RTVSPropertyOp4
 70
     1
102
RTVSPropertyOp5
 70
     1
102
RTVSPropertyOp6
 70
     1
102
RTVSPropertyOp7
 70
     1
102
RTVSPropertyOp8
 70
     1
102
RTVSPropertyOp9
 70
     1
102
RTVSPropertyOp10
 70
     1
102
RTVSPropertyOp11
 70
     1
102
RTVSPropertyOp12
 70
     1
102
RTVSPropertyOp13
 70
     1
102
RTVSPropertyOp14
 70
     1
102
RTVSPropertyOp15
 70
     1
102
RTVSPropertyOp16
 70
     1
102
RTVSPropertyOp17
 70
     1
102
RTVSPropertyOp18
 70
     1
102
RTVSPropertyOp19
 70
     1
102
RTVSPropertyOp20
 70
     1
102
RTVSPropertyOp21
 70
     1
102
RTVSPropertyOp22
 70
     1
102
RTVSPropertyOp23
 70
     1
102
RTVSPropertyOp24
 70
     1
102
RTVSPropertyOp25
 70
     1
102
RTVSPropertyOp26
 70
     1
102
RTVSPropertyOp27
 70
     1
102
RTVSPropertyOp28
 70
     1
102
RTVSPropertyOp29
 70
     1
102
RTVSPropertyOp30
 70
     1
102
RTVSPropertyOp31
 70
     1
102
RTVSPropertyOp32
 70
     1
  0
XRECORD
  5
1B71
102
{ACAD_REACTORS
330
1B70
102
}
330
1B70
100
AcDbXrecord
280
     1
102
RTVSPropertyOp0
 70
     0
102
RTVSPropertyOp1
 70
     0
102
RTVSPropertyOp2
 70
     0
102
RTVSPropertyOp3
 70
     0
102
RTVSPropertyOp4
 70
     0
102
RTVSPropertyOp5
 70
     0
102
RTVSPropertyOp6
 70
     0
102
RTVSPropertyOp7
 70
     0
102
RTVSPropertyOp8
 70
     0
102
RTVSPropertyOp9
 70
     0
102
RTVSPropertyOp10
 70
     0
102
RTVSPropertyOp11
 70
     0
102
RTVSPropertyOp12
 70
     0
102
RTVSPropertyOp13
 70
     0
102
RTVSPropertyOp14
 70
     2
102
RTVSPropertyOp15
 70
     0
102
RTVSPropertyOp16
 70
     0
102
RTVSPropertyOp17
 70
     0
102
RTVSPropertyOp18
 70
     0
102
RTVSPropertyOp19
 70
     0
102
RTVSPropertyOp20
 70
     0
102
RTVSPropertyOp21
 70
     0
102
RTVSPropertyOp22
 70
     0
102
RTVSPropertyOp23
 70
     0
102
RTVSPropertyOp24
 70
     0
102
RTVSPropertyOp25
 70
     0
102
RTVSPropertyOp26
 70
     0
102
RTVSPropertyOp27
 70
     0
102
RTVSPropertyOp28
 70
     1
102
RTVSPropertyOp29
 70
     1
102
RTVSPropertyOp30
 70
     1
102
RTVSPropertyOp31
 70
     1
102
RTVSPropertyOp32
 70
     1
  0
XRECORD
  5
1B5B
102
{ACAD_REACTORS
330
1B5A
102
}
330
1B5A
100
AcDbXrecord
280
     1
102
RTVSPropertyOp0
 70
     1
102
RTVSPropertyOp1
 70
     1
102
RTVSPropertyOp2
 70
     1
102
RTVSPropertyOp3
 70
     1
102
RTVSPropertyOp4
 70
     1
102
RTVSPropertyOp5
 70
     1
102
RTVSPropertyOp6
 70
     1
102
RTVSPropertyOp7
 70
     1
102
RTVSPropertyOp8
 70
     1
102
RTVSPropertyOp9
 70
     1
102
RTVSPropertyOp10
 70
     1
102
RTVSPropertyOp11
 70
     1
102
RTVSPropertyOp12
 70
     1
102
RTVSPropertyOp13
 70
     1
102
RTVSPropertyOp14
 70
     1
102
RTVSPropertyOp15
 70
     1
102
RTVSPropertyOp16
 70
     1
102
RTVSPropertyOp17
 70
     1
102
RTVSPropertyOp18
 70
     1
102
RTVSPropertyOp19
 70
     1
102
RTVSPropertyOp20
 70
     1
102
RTVSPropertyOp21
 70
     1
102
RTVSPropertyOp22
 70
     1
102
RTVSPropertyOp23
 70
     1
102
RTVSPropertyOp24
 70
     1
102
RTVSPropertyOp25
 70
     1
102
RTVSPropertyOp26
 70
     1
102
RTVSPropertyOp27
 70
     1
102
RTVSPropertyOp28
 70
     1
102
RTVSPropertyOp29
 70
     1
102
RTVSPropertyOp30
 70
     1
102
RTVSPropertyOp31
 70
     1
102
RTVSPropertyOp32
 70
     1
  0
XRECORD
  5
1B3F
102
{ACAD_REACTORS
330
1B3E
102
}
330
1B3E
100
AcDbXrecord
280
     1
102
RTVSPropertyOp0
 70
     1
102
RTVSPropertyOp1
 70
     1
102
RTVSPropertyOp2
 70
     1
102
RTVSPropertyOp3
 70
     1
102
RTVSPropertyOp4
 70
     1
102
RTVSPropertyOp5
 70
     1
102
RTVSPropertyOp6
 70
     1
102
RTVSPropertyOp7
 70
     1
102
RTVSPropertyOp8
 70
     1
102
RTVSPropertyOp9
 70
     1
102
RTVSPropertyOp10
 70
     1
102
RTVSPropertyOp11
 70
     1
102
RTVSPropertyOp12
 70
     1
102
RTVSPropertyOp13
 70
     1
102
RTVSPropertyOp14
 70
     1
102
RTVSPropertyOp15
 70
     1
102
RTVSPropertyOp16
 70
     1
102
RTVSPropertyOp17
 70
     1
102
RTVSPropertyOp18
 70
     1
102
RTVSPropertyOp19
 70
     1
102
RTVSPropertyOp20
 70
     1
102
RTVSPropertyOp21
 70
     1
102
RTVSPropertyOp22
 70
     1
102
RTVSPropertyOp23
 70
     1
102
RTVSPropertyOp24
 70
     1
102
RTVSPropertyOp25
 70
     1
102
RTVSPropertyOp26
 70
     1
102
RTVSPropertyOp27
 70
     1
102
RTVSPropertyOp28
 70
     1
102
RTVSPropertyOp29
 70
     1
102
RTVSPropertyOp30
 70
     1
102
RTVSPropertyOp31
 70
     1
102
RTVSPropertyOp32
 70
     1
  0
XRECORD
  5
1B41
102
{ACAD_REACTORS
330
1B40
102
}
330
1B40
100
AcDbXrecord
280
     1
102
RTVSPropertyOp0
 70
     1
102
RTVSPropertyOp1
 70
     1
102
RTVSPropertyOp2
 70
     1
102
RTVSPropertyOp3
 70
     1
102
RTVSPropertyOp4
 70
     1
102
RTVSPropertyOp5
 70
     1
102
RTVSPropertyOp6
 70
     1
102
RTVSPropertyOp7
 70
     1
102
RTVSPropertyOp8
 70
     1
102
RTVSPropertyOp9
 70
     1
102
RTVSPropertyOp10
 70
     1
102
RTVSPropertyOp11
 70
     1
102
RTVSPropertyOp12
 70
     1
102
RTVSPropertyOp13
 70
     1
102
RTVSPropertyOp14
 70
     1
102
RTVSPropertyOp15
 70
     1
102
RTVSPropertyOp16
 70
     1
102
RTVSPropertyOp17
 70
     1
102
RTVSPropertyOp18
 70
     1
102
RTVSPropertyOp19
 70
     1
102
RTVSPropertyOp20
 70
     1
102
RTVSPropertyOp21
 70
     1
102
RTVSPropertyOp22
 70
     1
102
RTVSPropertyOp23
 70
     1
102
RTVSPropertyOp24
 70
     1
102
RTVSPropertyOp25
 70
     1
102
RTVSPropertyOp26
 70
     1
102
RTVSPropertyOp27
 70
     1
102
RTVSPropertyOp28
 70
     1
102
RTVSPropertyOp29
 70
     1
102
RTVSPropertyOp30
 70
     1
102
RTVSPropertyOp31
 70
     1
102
RTVSPropertyOp32
 70
     1
  0
XRECORD
  5
1B43
102
{ACAD_REACTORS
330
1B42
102
}
330
1B42
100
AcDbXrecord
280
     1
102
RTVSPropertyOp0
 70
     1
102
RTVSPropertyOp1
 70
     1
102
RTVSPropertyOp2
 70
     1
102
RTVSPropertyOp3
 70
     1
102
RTVSPropertyOp4
 70
     1
102
RTVSPropertyOp5
 70
     1
102
RTVSPropertyOp6
 70
     1
102
RTVSPropertyOp7
 70
     1
102
RTVSPropertyOp8
 70
     1
102
RTVSPropertyOp9
 70
     1
102
RTVSPropertyOp10
 70
     1
102
RTVSPropertyOp11
 70
     1
102
RTVSPropertyOp12
 70
     1
102
RTVSPropertyOp13
 70
     1
102
RTVSPropertyOp14
 70
     1
102
RTVSPropertyOp15
 70
     1
102
RTVSPropertyOp16
 70
     1
102
RTVSPropertyOp17
 70
     1
102
RTVSPropertyOp18
 70
     1
102
RTVSPropertyOp19
 70
     1
102
RTVSPropertyOp20
 70
     1
102
RTVSPropertyOp21
 70
     1
102
RTVSPropertyOp22
 70
     1
102
RTVSPropertyOp23
 70
     1
102
RTVSPropertyOp24
 70
     1
102
RTVSPropertyOp25
 70
     1
102
RTVSPropertyOp26
 70
     1
102
RTVSPropertyOp27
 70
     1
102
RTVSPropertyOp28
 70
     1
102
RTVSPropertyOp29
 70
     1
102
RTVSPropertyOp30
 70
     1
102
RTVSPropertyOp31
 70
     1
102
RTVSPropertyOp32
 70
     1
  0
XRECORD
  5
1B45
102
{ACAD_REACTORS
330
1B44
102
}
330
1B44
100
AcDbXrecord
280
     1
102
RTVSPropertyOp0
 70
     1
102
RTVSPropertyOp1
 70
     1
102
RTVSPropertyOp2
 70
     1
102
RTVSPropertyOp3
 70
     1
102
RTVSPropertyOp4
 70
     1
102
RTVSPropertyOp5
 70
     1
102
RTVSPropertyOp6
 70
     1
102
RTVSPropertyOp7
 70
     1
102
RTVSPropertyOp8
 70
     1
102
RTVSPropertyOp9
 70
     1
102
RTVSPropertyOp10
 70
     1
102
RTVSPropertyOp11
 70
     1
102
RTVSPropertyOp12
 70
     1
102
RTVSPropertyOp13
 70
     1
102
RTVSPropertyOp14
 70
     1
102
RTVSPropertyOp15
 70
     1
102
RTVSPropertyOp16
 70
     1
102
RTVSPropertyOp17
 70
     1
102
RTVSPropertyOp18
 70
     1
102
RTVSPropertyOp19
 70
     1
102
RTVSPropertyOp20
 70
     1
102
RTVSPropertyOp21
 70
     1
102
RTVSPropertyOp22
 70
     1
102
RTVSPropertyOp23
 70
     1
102
RTVSPropertyOp24
 70
     1
102
RTVSPropertyOp25
 70
     1
102
RTVSPropertyOp26
 70
     1
102
RTVSPropertyOp27
 70
     1
102
RTVSPropertyOp28
 70
     1
102
RTVSPropertyOp29
 70
     1
102
RTVSPropertyOp30
 70
     1
102
RTVSPropertyOp31
 70
     1
102
RTVSPropertyOp32
 70
     1
  0
XRECORD
  5
1B61
102
{ACAD_REACTORS
330
1B60
102
}
330
1B60
100
AcDbXrecord
280
     1
102
RTVSPropertyOp0
 70
     1
102
RTVSPropertyOp1
 70
     1
102
RTVSPropertyOp2
 70
     1
102
RTVSPropertyOp3
 70
     1
102
RTVSPropertyOp4
 70
     1
102
RTVSPropertyOp5
 70
     1
102
RTVSPropertyOp6
 70
     1
102
RTVSPropertyOp7
 70
     1
102
RTVSPropertyOp8
 70
     1
102
RTVSPropertyOp9
 70
     1
102
RTVSPropertyOp10
 70
     1
102
RTVSPropertyOp11
 70
     1
102
RTVSPropertyOp12
 70
     1
102
RTVSPropertyOp13
 70
     1
102
RTVSPropertyOp14
 70
     1
102
RTVSPropertyOp15
 70
     1
102
RTVSPropertyOp16
 70
     1
102
RTVSPropertyOp17
 70
     1
102
RTVSPropertyOp18
 70
     1
102
RTVSPropertyOp19
 70
     1
102
RTVSPropertyOp20
 70
     1
102
RTVSPropertyOp21
 70
     1
102
RTVSPropertyOp22
 70
     1
102
RTVSPropertyOp23
 70
     1
102
RTVSPropertyOp24
 70
     1
102
RTVSPropertyOp25
 70
     1
102
RTVSPropertyOp26
 70
     1
102
RTVSPropertyOp27
 70
     1
102
RTVSPropertyOp28
 70
     1
102
RTVSPropertyOp29
 70
     1
102
RTVSPropertyOp30
 70
     1
102
RTVSPropertyOp31
 70
     1
102
RTVSPropertyOp32
 70
     1
  0
XRECORD
  5
1B6D
102
{ACAD_REACTORS
330
1B6C
102
}
330
1B6C
100
AcDbXrecord
280
     1
102
RTVSPropertyOp0
 70
     0
102
RTVSPropertyOp1
 70
     0
102
RTVSPropertyOp2
 70
     0
102
RTVSPropertyOp3
 70
     0
102
RTVSPropertyOp4
 70
     0
102
RTVSPropertyOp5
 70
     0
102
RTVSPropertyOp6
 70
     0
102
RTVSPropertyOp7
 70
     0
102
RTVSPropertyOp8
 70
     0
102
RTVSPropertyOp9
 70
     0
102
RTVSPropertyOp10
 70
     0
102
RTVSPropertyOp11
 70
     0
102
RTVSPropertyOp12
 70
     0
102
RTVSPropertyOp13
 70
     0
102
RTVSPropertyOp14
 70
     2
102
RTVSPropertyOp15
 70
     0
102
RTVSPropertyOp16
 70
     0
102
RTVSPropertyOp17
 70
     0
102
RTVSPropertyOp18
 70
     0
102
RTVSPropertyOp19
 70
     0
102
RTVSPropertyOp20
 70
     0
102
RTVSPropertyOp21
 70
     0
102
RTVSPropertyOp22
 70
     0
102
RTVSPropertyOp23
 70
     0
102
RTVSPropertyOp24
 70
     0
102
RTVSPropertyOp25
 70
     0
102
RTVSPropertyOp26
 70
     0
102
RTVSPropertyOp27
 70
     0
102
RTVSPropertyOp28
 70
     1
102
RTVSPropertyOp29
 70
     1
102
RTVSPropertyOp30
 70
     1
102
RTVSPropertyOp31
 70
     1
102
RTVSPropertyOp32
 70
     1
  0
XRECORD
  5
1B59
102
{ACAD_REACTORS
330
1B58
102
}
330
1B58
100
AcDbXrecord
280
     1
102
RTVSPropertyOp0
 70
     1
102
RTVSPropertyOp1
 70
     1
102
RTVSPropertyOp2
 70
     1
102
RTVSPropertyOp3
 70
     1
102
RTVSPropertyOp4
 70
     1
102
RTVSPropertyOp5
 70
     1
102
RTVSPropertyOp6
 70
     1
102
RTVSPropertyOp7
 70
     1
102
RTVSPropertyOp8
 70
     1
102
RTVSPropertyOp9
 70
     1
102
RTVSPropertyOp10
 70
     1
102
RTVSPropertyOp11
 70
     1
102
RTVSPropertyOp12
 70
     1
102
RTVSPropertyOp13
 70
     1
102
RTVSPropertyOp14
 70
     1
102
RTVSPropertyOp15
 70
     1
102
RTVSPropertyOp16
 70
     1
102
RTVSPropertyOp17
 70
     1
102
RTVSPropertyOp18
 70
     1
102
RTVSPropertyOp19
 70
     1
102
RTVSPropertyOp20
 70
     1
102
RTVSPropertyOp21
 70
     1
102
RTVSPropertyOp22
 70
     1
102
RTVSPropertyOp23
 70
     1
102
RTVSPropertyOp24
 70
     1
102
RTVSPropertyOp25
 70
     1
102
RTVSPropertyOp26
 70
     1
102
RTVSPropertyOp27
 70
     1
102
RTVSPropertyOp28
 70
     1
102
RTVSPropertyOp29
 70
     1
102
RTVSPropertyOp30
 70
     1
102
RTVSPropertyOp31
 70
     1
102
RTVSPropertyOp32
 70
     1
  0
XRECORD
  5
1B6F
102
{ACAD_REACTORS
330
1B6E
102
}
330
1B6E
100
AcDbXrecord
280
     1
102
RTVSPropertyOp0
 70
     0
102
RTVSPropertyOp1
 70
     0
102
RTVSPropertyOp2
 70
     0
102
RTVSPropertyOp3
 70
     0
102
RTVSPropertyOp4
 70
     0
102
RTVSPropertyOp5
 70
     0
102
RTVSPropertyOp6
 70
     0
102
RTVSPropertyOp7
 70
     0
102
RTVSPropertyOp8
 70
     0
102
RTVSPropertyOp9
 70
     0
102
RTVSPropertyOp10
 70
     0
102
RTVSPropertyOp11
 70
     0
102
RTVSPropertyOp12
 70
     0
102
RTVSPropertyOp13
 70
     0
102
RTVSPropertyOp14
 70
     2
102
RTVSPropertyOp15
 70
     0
102
RTVSPropertyOp16
 70
     0
102
RTVSPropertyOp17
 70
     0
102
RTVSPropertyOp18
 70
     0
102
RTVSPropertyOp19
 70
     0
102
RTVSPropertyOp20
 70
     0
102
RTVSPropertyOp21
 70
     0
102
RTVSPropertyOp22
 70
     0
102
RTVSPropertyOp23
 70
     0
102
RTVSPropertyOp24
 70
     0
102
RTVSPropertyOp25
 70
     0
102
RTVSPropertyOp26
 70
     0
102
RTVSPropertyOp27
 70
     0
102
RTVSPropertyOp28
 70
     1
102
RTVSPropertyOp29
 70
     1
102
RTVSPropertyOp30
 70
     1
102
RTVSPropertyOp31
 70
     1
102
RTVSPropertyOp32
 70
     1
  0
XRECORD
  5
1B51
102
{ACAD_REACTORS
330
1B50
102
}
330
1B50
100
AcDbXrecord
280
     1
102
RTVSPropertyOp0
 70
     1
102
RTVSPropertyOp1
 70
     1
102
RTVSPropertyOp2
 70
     1
102
RTVSPropertyOp3
 70
     1
102
RTVSPropertyOp4
 70
     1
102
RTVSPropertyOp5
 70
     1
102
RTVSPropertyOp6
 70
     1
102
RTVSPropertyOp7
 70
     1
102
RTVSPropertyOp8
 70
     1
102
RTVSPropertyOp9
 70
     1
102
RTVSPropertyOp10
 70
     1
102
RTVSPropertyOp11
 70
     1
102
RTVSPropertyOp12
 70
     1
102
RTVSPropertyOp13
 70
     1
102
RTVSPropertyOp14
 70
     1
102
RTVSPropertyOp15
 70
     1
102
RTVSPropertyOp16
 70
     1
102
RTVSPropertyOp17
 70
     1
102
RTVSPropertyOp18
 70
     1
102
RTVSPropertyOp19
 70
     1
102
RTVSPropertyOp20
 70
     1
102
RTVSPropertyOp21
 70
     1
102
RTVSPropertyOp22
 70
     1
102
RTVSPropertyOp23
 70
     1
102
RTVSPropertyOp24
 70
     1
102
RTVSPropertyOp25
 70
     1
102
RTVSPropertyOp26
 70
     1
102
RTVSPropertyOp27
 70
     1
102
RTVSPropertyOp28
 70
     1
102
RTVSPropertyOp29
 70
     1
102
RTVSPropertyOp30
 70
     1
102
RTVSPropertyOp31
 70
     1
102
RTVSPropertyOp32
 70
     1
  0
XRECORD
  5
1B6B
102
{ACAD_REACTORS
330
1B6A
102
}
330
1B6A
100
AcDbXrecord
280
     1
102
RTVSPropertyOp0
 70
     1
102
RTVSPropertyOp1
 70
     1
102
RTVSPropertyOp2
 70
     1
102
RTVSPropertyOp3
 70
     1
102
RTVSPropertyOp4
 70
     1
102
RTVSPropertyOp5
 70
     1
102
RTVSPropertyOp6
 70
     1
102
RTVSPropertyOp7
 70
     1
102
RTVSPropertyOp8
 70
     1
102
RTVSPropertyOp9
 70
     1
102
RTVSPropertyOp10
 70
     1
102
RTVSPropertyOp11
 70
     1
102
RTVSPropertyOp12
 70
     1
102
RTVSPropertyOp13
 70
     1
102
RTVSPropertyOp14
 70
     1
102
RTVSPropertyOp15
 70
     1
102
RTVSPropertyOp16
 70
     1
102
RTVSPropertyOp17
 70
     1
102
RTVSPropertyOp18
 70
     1
102
RTVSPropertyOp19
 70
     1
102
RTVSPropertyOp20
 70
     1
102
RTVSPropertyOp21
 70
     1
102
RTVSPropertyOp22
 70
     1
102
RTVSPropertyOp23
 70
     1
102
RTVSPropertyOp24
 70
     1
102
RTVSPropertyOp25
 70
     1
102
RTVSPropertyOp26
 70
     1
102
RTVSPropertyOp27
 70
     1
102
RTVSPropertyOp28
 70
     1
102
RTVSPropertyOp29
 70
     1
102
RTVSPropertyOp30
 70
     1
102
RTVSPropertyOp31
 70
     1
102
RTVSPropertyOp32
 70
     1
  0
XRECORD
  5
1B69
102
{ACAD_REACTORS
330
1B68
102
}
330
1B68
100
AcDbXrecord
280
     1
102
RTVSPropertyOp0
 70
     1
102
RTVSPropertyOp1
 70
     1
102
RTVSPropertyOp2
 70
     1
102
RTVSPropertyOp3
 70
     1
102
RTVSPropertyOp4
 70
     1
102
RTVSPropertyOp5
 70
     1
102
RTVSPropertyOp6
 70
     1
102
RTVSPropertyOp7
 70
     1
102
RTVSPropertyOp8
 70
     1
102
RTVSPropertyOp9
 70
     1
102
RTVSPropertyOp10
 70
     1
102
RTVSPropertyOp11
 70
     1
102
RTVSPropertyOp12
 70
     1
102
RTVSPropertyOp13
 70
     1
102
RTVSPropertyOp14
 70
     1
102
RTVSPropertyOp15
 70
     1
102
RTVSPropertyOp16
 70
     1
102
RTVSPropertyOp17
 70
     1
102
RTVSPropertyOp18
 70
     1
102
RTVSPropertyOp19
 70
     1
102
RTVSPropertyOp20
 70
     1
102
RTVSPropertyOp21
 70
     1
102
RTVSPropertyOp22
 70
     1
102
RTVSPropertyOp23
 70
     1
102
RTVSPropertyOp24
 70
     1
102
RTVSPropertyOp25
 70
     1
102
RTVSPropertyOp26
 70
     1
102
RTVSPropertyOp27
 70
     1
102
RTVSPropertyOp28
 70
     1
102
RTVSPropertyOp29
 70
     1
102
RTVSPropertyOp30
 70
     1
102
RTVSPropertyOp31
 70
     1
102
RTVSPropertyOp32
 70
     1
  0
XRECORD
  5
1B63
102
{ACAD_REACTORS
330
1B62
102
}
330
1B62
100
AcDbXrecord
280
     1
102
RTVSPropertyOp0
 70
     1
102
RTVSPropertyOp1
 70
     1
102
RTVSPropertyOp2
 70
     1
102
RTVSPropertyOp3
 70
     1
102
RTVSPropertyOp4
 70
     1
102
RTVSPropertyOp5
 70
     1
102
RTVSPropertyOp6
 70
     1
102
RTVSPropertyOp7
 70
     1
102
RTVSPropertyOp8
 70
     1
102
RTVSPropertyOp9
 70
     1
102
RTVSPropertyOp10
 70
     1
102
RTVSPropertyOp11
 70
     1
102
RTVSPropertyOp12
 70
     1
102
RTVSPropertyOp13
 70
     1
102
RTVSPropertyOp14
 70
     1
102
RTVSPropertyOp15
 70
     1
102
RTVSPropertyOp16
 70
     1
102
RTVSPropertyOp17
 70
     1
102
RTVSPropertyOp18
 70
     1
102
RTVSPropertyOp19
 70
     1
102
RTVSPropertyOp20
 70
     1
102
RTVSPropertyOp21
 70
     1
102
RTVSPropertyOp22
 70
     1
102
RTVSPropertyOp23
 70
     1
102
RTVSPropertyOp24
 70
     1
102
RTVSPropertyOp25
 70
     1
102
RTVSPropertyOp26
 70
     1
102
RTVSPropertyOp27
 70
     1
102
RTVSPropertyOp28
 70
     1
102
RTVSPropertyOp29
 70
     1
102
RTVSPropertyOp30
 70
     1
102
RTVSPropertyOp31
 70
     1
102
RTVSPropertyOp32
 70
     1
  0
XRECORD
  5
1B65
102
{ACAD_REACTORS
330
1B64
102
}
330
1B64
100
AcDbXrecord
280
     1
102
RTVSPropertyOp0
 70
     1
102
RTVSPropertyOp1
 70
     1
102
RTVSPropertyOp2
 70
     1
102
RTVSPropertyOp3
 70
     1
102
RTVSPropertyOp4
 70
     1
102
RTVSPropertyOp5
 70
     1
102
RTVSPropertyOp6
 70
     1
102
RTVSPropertyOp7
 70
     1
102
RTVSPropertyOp8
 70
     1
102
RTVSPropertyOp9
 70
     1
102
RTVSPropertyOp10
 70
     1
102
RTVSPropertyOp11
 70
     1
102
RTVSPropertyOp12
 70
     1
102
RTVSPropertyOp13
 70
     1
102
RTVSPropertyOp14
 70
     1
102
RTVSPropertyOp15
 70
     1
102
RTVSPropertyOp16
 70
     1
102
RTVSPropertyOp17
 70
     1
102
RTVSPropertyOp18
 70
     1
102
RTVSPropertyOp19
 70
     1
102
RTVSPropertyOp20
 70
     1
102
RTVSPropertyOp21
 70
     1
102
RTVSPropertyOp22
 70
     1
102
RTVSPropertyOp23
 70
     1
102
RTVSPropertyOp24
 70
     1
102
RTVSPropertyOp25
 70
     1
102
RTVSPropertyOp26
 70
     1
102
RTVSPropertyOp27
 70
     1
102
RTVSPropertyOp28
 70
     1
102
RTVSPropertyOp29
 70
     1
102
RTVSPropertyOp30
 70
     1
102
RTVSPropertyOp31
 70
     1
102
RTVSPropertyOp32
 70
     1
  0
XRECORD
  5
1B57
102
{ACAD_REACTORS
330
1B56
102
}
330
1B56
100
AcDbXrecord
280
     1
102
RTVSPropertyOp0
 70
     1
102
RTVSPropertyOp1
 70
     1
102
RTVSPropertyOp2
 70
     1
102
RTVSPropertyOp3
 70
     1
102
RTVSPropertyOp4
 70
     1
102
RTVSPropertyOp5
 70
     1
102
RTVSPropertyOp6
 70
     1
102
RTVSPropertyOp7
 70
     1
102
RTVSPropertyOp8
 70
     1
102
RTVSPropertyOp9
 70
     1
102
RTVSPropertyOp10
 70
     1
102
RTVSPropertyOp11
 70
     1
102
RTVSPropertyOp12
 70
     1
102
RTVSPropertyOp13
 70
     1
102
RTVSPropertyOp14
 70
     1
102
RTVSPropertyOp15
 70
     1
102
RTVSPropertyOp16
 70
     1
102
RTVSPropertyOp17
 70
     1
102
RTVSPropertyOp18
 70
     1
102
RTVSPropertyOp19
 70
     1
102
RTVSPropertyOp20
 70
     1
102
RTVSPropertyOp21
 70
     1
102
RTVSPropertyOp22
 70
     1
102
RTVSPropertyOp23
 70
     1
102
RTVSPropertyOp24
 70
     1
102
RTVSPropertyOp25
 70
     1
102
RTVSPropertyOp26
 70
     1
102
RTVSPropertyOp27
 70
     1
102
RTVSPropertyOp28
 70
     1
102
RTVSPropertyOp29
 70
     1
102
RTVSPropertyOp30
 70
     1
102
RTVSPropertyOp31
 70
     1
102
RTVSPropertyOp32
 70
     1
  0
XRECORD
  5
1B5F
102
{ACAD_REACTORS
330
1B5E
102
}
330
1B5E
100
AcDbXrecord
280
     1
102
RTVSPropertyOp0
 70
     1
102
RTVSPropertyOp1
 70
     1
102
RTVSPropertyOp2
 70
     1
102
RTVSPropertyOp3
 70
     1
102
RTVSPropertyOp4
 70
     1
102
RTVSPropertyOp5
 70
     1
102
RTVSPropertyOp6
 70
     1
102
RTVSPropertyOp7
 70
     1
102
RTVSPropertyOp8
 70
     1
102
RTVSPropertyOp9
 70
     1
102
RTVSPropertyOp10
 70
     1
102
RTVSPropertyOp11
 70
     1
102
RTVSPropertyOp12
 70
     1
102
RTVSPropertyOp13
 70
     1
102
RTVSPropertyOp14
 70
     1
102
RTVSPropertyOp15
 70
     1
102
RTVSPropertyOp16
 70
     1
102
RTVSPropertyOp17
 70
     1
102
RTVSPropertyOp18
 70
     1
102
RTVSPropertyOp19
 70
     1
102
RTVSPropertyOp20
 70
     1
102
RTVSPropertyOp21
 70
     1
102
RTVSPropertyOp22
 70
     1
102
RTVSPropertyOp23
 70
     1
102
RTVSPropertyOp24
 70
     1
102
RTVSPropertyOp25
 70
     1
102
RTVSPropertyOp26
 70
     1
102
RTVSPropertyOp27
 70
     1
102
RTVSPropertyOp28
 70
     1
102
RTVSPropertyOp29
 70
     1
102
RTVSPropertyOp30
 70
     1
102
RTVSPropertyOp31
 70
     1
102
RTVSPropertyOp32
 70
     1
  0
XRECORD
  5
1B67
102
{ACAD_REACTORS
330
1B66
102
}
330
1B66
100
AcDbXrecord
280
     1
102
RTVSPropertyOp0
 70
     1
102
RTVSPropertyOp1
 70
     1
102
RTVSPropertyOp2
 70
     1
102
RTVSPropertyOp3
 70
     1
102
RTVSPropertyOp4
 70
     1
102
RTVSPropertyOp5
 70
     1
102
RTVSPropertyOp6
 70
     1
102
RTVSPropertyOp7
 70
     1
102
RTVSPropertyOp8
 70
     1
102
RTVSPropertyOp9
 70
     1
102
RTVSPropertyOp10
 70
     1
102
RTVSPropertyOp11
 70
     1
102
RTVSPropertyOp12
 70
     1
102
RTVSPropertyOp13
 70
     1
102
RTVSPropertyOp14
 70
     1
102
RTVSPropertyOp15
 70
     1
102
RTVSPropertyOp16
 70
     1
102
RTVSPropertyOp17
 70
     1
102
RTVSPropertyOp18
 70
     1
102
RTVSPropertyOp19
 70
     1
102
RTVSPropertyOp20
 70
     1
102
RTVSPropertyOp21
 70
     1
102
RTVSPropertyOp22
 70
     1
102
RTVSPropertyOp23
 70
     1
102
RTVSPropertyOp24
 70
     1
102
RTVSPropertyOp25
 70
     1
102
RTVSPropertyOp26
 70
     1
102
RTVSPropertyOp27
 70
     1
102
RTVSPropertyOp28
 70
     1
102
RTVSPropertyOp29
 70
     1
102
RTVSPropertyOp30
 70
     1
102
RTVSPropertyOp31
 70
     1
102
RTVSPropertyOp32
 70
     1
  0
ENDSEC
  0
EOF
