  0
SECTION
  2
HEADER
  9
$ACADVER
  1
AC1015
  9
$ACADMAINTVER
 70
    20
  9
$DWGCODEPAGE
  3
ANSI_932
  9
$INSBASE
 10
0.0
 20
0.0
 30
0.0
  9
$EXTMIN
 10
-196.670447
 20
-141.1204199876553
 30
0.0
  9
$EXTMAX
 10
208.329553
 20
141.048693
 30
0.0
  9
$LIMMIN
 10
-196.671441
 20
-135.952309
  9
$LIMMAX
 10
210.053765
 20
141.049691
  9
$ORTHOMODE
 70
     1
  9
$REGENMODE
 70
     1
  9
$FILLMODE
 70
     1
  9
$QTEXTMODE
 70
     0
  9
$MIRRTEXT
 70
     0
  9
$LTSCALE
 40
6.778719999999997
  9
$ATTMODE
 70
     1
  9
$TEXTSIZE
 40
3.2
  9
$TRACEWID
 40
0.05
  9
$TEXTSTYLE
  7
高3.2
  9
$CLAYER
  8
0
  9
$CELTYPE
  6
ByLayer
  9
$CECOLOR
 62
   256
  9
$CELTSCALE
 40
1.0
  9
$DISPSILH
 70
     0
  9
$DIMSCALE
 40
1.0
  9
$DIMASZ
 40
2.5
  9
$DIMEXO
 40
0.25
  9
$DIMDLI
 40
0.2
  9
$DIMRND
 40
0.0
  9
$DIMDLE
 40
0.0
  9
$DIMEXE
 40
1.25
  9
$DIMTP
 40
0.0
  9
$DIMTM
 40
0.0
  9
$DIMTXT
 40
3.0
  9
$DIMCEN
 40
0.0
  9
$DIMTSZ
 40
0.0
  9
$DIMTOL
 70
     0
  9
$DIMLIM
 70
     0
  9
$DIMTIH
 70
     0
  9
$DIMTOH
 70
     0
  9
$DIMSE1
 70
     0
  9
$DIMSE2
 70
     0
  9
$DIMTAD
 70
     3
  9
$DIMZIN
 70
     8
  9
$DIMBLK
  1

  9
$DIMASO
 70
     1
  9
$DIMSHO
 70
     1
  9
$DIMPOST
  1

  9
$DIMAPOST
  1

  9
$DIMALT
 70
     0
  9
$DIMALTD
 70
     3
  9
$DIMALTF
 40
0.03937007874016
  9
$DIMLFAC
 40
2.0
  9
$DIMTOFL
 70
     1
  9
$DIMTVP
 40
0.0
  9
$DIMTIX
 70
     0
  9
$DIMSOXD
 70
     0
  9
$DIMSAH
 70
     0
  9
$DIMBLK1
  1

  9
$DIMBLK2
  1

  9
$DIMSTYLE
  2
1／2
  9
$DIMCLRD
 70
     0
  9
$DIMCLRE
 70
     0
  9
$DIMCLRT
 70
     4
  9
$DIMTFAC
 40
1.0
  9
$DIMGAP
 40
0.625
  9
$DIMJUST
 70
     0
  9
$DIMSD1
 70
     0
  9
$DIMSD2
 70
     0
  9
$DIMTOLJ
 70
     0
  9
$DIMTZIN
 70
     8
  9
$DIMALTZ
 70
     0
  9
$DIMALTTZ
 70
     0
  9
$DIMUPT
 70
     1
  9
$DIMDEC
 70
     2
  9
$DIMTDEC
 70
     2
  9
$DIMALTU
 70
     2
  9
$DIMALTTD
 70
     3
  9
$DIMTXSTY
  7
STANDARD
  9
$DIMAUNIT
 70
     0
  9
$DIMADEC
 70
     1
  9
$DIMALTRND
 40
0.0
  9
$DIMAZIN
 70
     2
  9
$DIMDSEP
 70
    46
  9
$DIMATFIT
 70
     0
  9
$DIMFRAC
 70
     0
  9
$DIMLDRBLK
  1
Open30
  9
$DIMLUNIT
 70
     2
  9
$DIMLWD
 70
    -2
  9
$DIMLWE
 70
    -2
  9
$DIMTMOVE
 70
     0
  9
$LUNITS
 70
     2
  9
$LUPREC
 70
     4
  9
$SKETCHINC
 40
0.1
  9
$FILLETRAD
 40
0.0
  9
$AUNITS
 70
     0
  9
$AUPREC
 70
     0
  9
$MENU
  1
.
  9
$ELEVATION
 40
0.0
  9
$PELEVATION
 40
0.0
  9
$THICKNESS
 40
0.0
  9
$LIMCHECK
 70
     0
  9
$CHAMFERA
 40
0.0
  9
$CHAMFERB
 40
0.0
  9
$CHAMFERC
 40
0.0
  9
$CHAMFERD
 40
0.0
  9
$SKPOLY
 70
     0
  9
$TDCREATE
 40
2455411.657610486
  9
$TDUCREATE
 40
2455411.282610486
  9
$TDUPDATE
 40
2460369.654590290
  9
$TDUUPDATE
 40
2460369.279590290
  9
$TDINDWG
 40
0.0710705671
  9
$TDUSRTIMER
 40
0.0710697338
  9
$USRTIMER
 70
     1
  9
$ANGBASE
 50
0.0
  9
$ANGDIR
 70
     0
  9
$PDMODE
 70
     0
  9
$PDSIZE
 40
0.0
  9
$PLINEWID
 40
0.0
  9
$SPLFRAME
 70
     0
  9
$SPLINETYPE
 70
     6
  9
$SPLINESEGS
 70
     8
  9
$HANDSEED
  5
147F
  9
$SURFTAB1
 70
     6
  9
$SURFTAB2
 70
     6
  9
$SURFTYPE
 70
     6
  9
$SURFU
 70
     6
  9
$SURFV
 70
     6
  9
$UCSBASE
  2

  9
$UCSNAME
  2

  9
$UCSORG
 10
0.0
 20
0.0
 30
0.0
  9
$UCSXDIR
 10
1.0
 20
0.0
 30
0.0
  9
$UCSYDIR
 10
0.0
 20
1.0
 30
0.0
  9
$UCSORTHOREF
  2

  9
$UCSORTHOVIEW
 70
     0
  9
$UCSORGTOP
 10
0.0
 20
0.0
 30
0.0
  9
$UCSORGBOTTOM
 10
0.0
 20
0.0
 30
0.0
  9
$UCSORGLEFT
 10
0.0
 20
0.0
 30
0.0
  9
$UCSORGRIGHT
 10
0.0
 20
0.0
 30
0.0
  9
$UCSORGFRONT
 10
0.0
 20
0.0
 30
0.0
  9
$UCSORGBACK
 10
0.0
 20
0.0
 30
0.0
  9
$PUCSBASE
  2

  9
$PUCSNAME
  2

  9
$PUCSORG
 10
0.0
 20
0.0
 30
0.0
  9
$PUCSXDIR
 10
1.0
 20
0.0
 30
0.0
  9
$PUCSYDIR
 10
0.0
 20
1.0
 30
0.0
  9
$PUCSORTHOREF
  2

  9
$PUCSORTHOVIEW
 70
     0
  9
$PUCSORGTOP
 10
0.0
 20
0.0
 30
0.0
  9
$PUCSORGBOTTOM
 10
0.0
 20
0.0
 30
0.0
  9
$PUCSORGLEFT
 10
0.0
 20
0.0
 30
0.0
  9
$PUCSORGRIGHT
 10
0.0
 20
0.0
 30
0.0
  9
$PUCSORGFRONT
 10
0.0
 20
0.0
 30
0.0
  9
$PUCSORGBACK
 10
0.0
 20
0.0
 30
0.0
  9
$USERI1
 70
     0
  9
$USERI2
 70
     0
  9
$USERI3
 70
     0
  9
$USERI4
 70
     0
  9
$USERI5
 70
     0
  9
$USERR1
 40
0.0
  9
$USERR2
 40
0.0
  9
$USERR3
 40
0.0
  9
$USERR4
 40
0.0
  9
$USERR5
 40
0.0
  9
$WORLDVIEW
 70
     1
  9
$SHADEDGE
 70
     3
  9
$SHADEDIF
 70
    70
  9
$TILEMODE
 70
     1
  9
$MAXACTVP
 70
    64
  9
$PINSBASE
 10
0.0
 20
0.0
 30
0.0
  9
$PLIMCHECK
 70
     0
  9
$PEXTMIN
 10
1.000000000000000E+20
 20
1.000000000000000E+20
 30
1.000000000000000E+20
  9
$PEXTMAX
 10
-1.000000000000000E+20
 20
-1.000000000000000E+20
 30
-1.000000000000000E+20
  9
$PLIMMIN
 10
0.0
 20
0.0
  9
$PLIMMAX
 10
12.0
 20
9.0
  9
$UNITMODE
 70
     0
  9
$VISRETAIN
 70
     1
  9
$PLINEGEN
 70
     0
  9
$PSLTSCALE
 70
     1
  9
$TREEDEPTH
 70
  3020
  9
$CMLSTYLE
  2
Standard
  9
$CMLJUST
 70
     0
  9
$CMLSCALE
 40
1.0
  9
$PROXYGRAPHICS
 70
     1
  9
$MEASUREMENT
 70
     0
  9
$CELWEIGHT
370
    -1
  9
$ENDCAPS
280
     0
  9
$JOINSTYLE
280
     0
  9
$LWDISPLAY
290
     0
  9
$INSUNITS
 70
     0
  9
$HYPERLINKBASE
  1

  9
$STYLESHEET
  1

  9
$XEDIT
290
     1
  9
$CEPSNTYPE
380
     0
  9
$PSTYLEMODE
290
     1
  9
$FINGERPRINTGUID
  2
{C0F43A2B-8F64-41ED-8390-5A75D9BD9FFC}
  9
$VERSIONGUID
  2
{A15D5C1A-AEF0-4180-AD12-AB9441584240}
  9
$EXTNAMES
290
     1
  9
$PSVPSCALE
 40
0.0
  9
$OLESTARTUP
290
     0
  0
ENDSEC
  0
SECTION
  2
CLASSES
  0
CLASS
  1
ACDBDICTIONARYWDFLT
  2
AcDbDictionaryWithDefault
  3
ObjectDBX Classes
 90
        0
280
     0
281
     0
  0
CLASS
  1
MATERIAL
  2
AcDbMaterial
  3
ObjectDBX Classes
 90
     1153
280
     0
281
     0
  0
CLASS
  1
VISUALSTYLE
  2
AcDbVisualStyle
  3
ObjectDBX Classes
 90
     4095
280
     0
281
     0
  0
CLASS
  1
TABLESTYLE
  2
AcDbTableStyle
  3
ObjectDBX Classes
 90
     4095
280
     0
281
     0
  0
CLASS
  1
DICTIONARYVAR
  2
AcDbDictionaryVar
  3
ObjectDBX Classes
 90
        0
280
     0
281
     0
  0
CLASS
  1
ACDBPLACEHOLDER
  2
AcDbPlaceHolder
  3
ObjectDBX Classes
 90
        0
280
     0
281
     0
  0
CLASS
  1
LAYOUT
  2
AcDbLayout
  3
ObjectDBX Classes
 90
        0
280
     0
281
     0
  0
CLASS
  1
SCALE
  2
AcDbScale
  3
ObjectDBX Classes
 90
     1153
280
     0
281
     0
  0
CLASS
  1
MLEADERSTYLE
  2
AcDbMLeaderStyle
  3
ACDB_MLEADERSTYLE_CLASS
 90
     4095
280
     0
281
     0
  0
CLASS
  1
SORTENTSTABLE
  2
AcDbSortentsTable
  3
ObjectDBX Classes
 90
        0
280
     0
281
     0
  0
CLASS
  1
CELLSTYLEMAP
  2
AcDbCellStyleMap
  3
ObjectDBX Classes
 90
     1152
280
     0
281
     0
  0
CLASS
  1
AEC_REFEDIT_STATUS_TRACKER
  2
AecDbRefEditStatusTracker
  3
AecArchBase60|Product Desc: Autodesk Architectural Desktop 2007 |Company: Autodesk,Inc. |WEB Address: www.autodesk.com
 90
      129
280
     0
281
     0
  0
CLASS
  1
NPOCOLLECTION
  2
AcDbImpNonPersistentObjectsCollection
  3
ObjectDBX Classes
 90
     1153
280
     0
281
     0
  0
ENDSEC
  0
SECTION
  2
TABLES
  0
TABLE
  2
VPORT
  5
8
330
0
100
AcDbSymbolTable
 70
     1
  0
VPORT
  5
56
330
8
100
AcDbSymbolTableRecord
100
AcDbViewportTableRecord
  2
*Active
 70
     0
 10
0.0
 20
0.0
 11
1.0
 21
1.0
 12
70.92614480754992
 22
-23.59405310230534
 13
0.0
 23
0.0
 14
1.0
 24
1.0
 15
0.0
 25
0.0
 16
0.0
 26
0.0
 36
1.0
 17
0.0
 27
0.0
 37
0.0
 40
499.0440027908369
 41
1.698901098901098
 42
50.0
 43
0.0
 44
0.0
 50
0.0
 51
0.0
 71
     0
 72
   100
 73
     1
 74
     1
 75
     0
 76
     0
 77
     0
 78
     0
281
     0
 65
     1
110
0.0
120
0.0
130
0.0
111
1.0
121
0.0
131
0.0
112
0.0
122
1.0
132
0.0
 79
     0
146
0.0
  0
ENDTAB
  0
TABLE
  2
LTYPE
  5
5
330
0
100
AcDbSymbolTable
 70
     3
  0
LTYPE
  5
28
330
5
100
AcDbSymbolTableRecord
100
AcDbLinetypeTableRecord
  2
ByBlock
 70
     0
  3

 72
    65
 73
     0
 40
0.0
  0
LTYPE
  5
29
330
5
100
AcDbSymbolTableRecord
100
AcDbLinetypeTableRecord
  2
ByLayer
 70
     0
  3

 72
    65
 73
     0
 40
0.0
  0
LTYPE
  5
2A
330
5
100
AcDbSymbolTableRecord
100
AcDbLinetypeTableRecord
  2
CONTINUOUS
 70
     0
  3
Solid-line
 72
    65
 73
     0
 40
0.0
  0
LTYPE
  5
4C
330
5
100
AcDbSymbolTableRecord
100
AcDbLinetypeTableRecord
  2
HIDDEN
 70
     0
  3
HIDDEN
 72
    65
 73
     2
 40
0.375
 49
0.25
 74
     0
 49
-0.125
 74
     0
  0
ENDTAB
  0
TABLE
  2
LAYER
  5
2
102
{ACAD_XDICTIONARY
360
408
102
}
330
0
100
AcDbSymbolTable
 70
     2
  0
LAYER
  5
25
102
{ACAD_XDICTIONARY
360
77A
102
}
330
2
100
AcDbSymbolTableRecord
100
AcDbLayerTableRecord
  2
0
 70
     0
 62
     7
  6
CONTINUOUS
370
    -3
390
F
  0
LAYER
  5
3FF
330
2
100
AcDbSymbolTableRecord
100
AcDbLayerTableRecord
  2
Defpoints
 70
     0
 62
     7
  6
CONTINUOUS
290
     0
370
    -3
390
F
  0
ENDTAB
  0
TABLE
  2
STYLE
  5
3
330
0
100
AcDbSymbolTable
 70
     6
  0
STYLE
  5
26
330
3
100
AcDbSymbolTableRecord
100
AcDbTextStyleTableRecord
  2
STANDARD
 70
     0
 40
0.0
 41
1.0
 50
0.0
 71
     0
 42
0.2
  3
TXT
  4
BIGFONT
  0
STYLE
  5
400
330
3
100
AcDbSymbolTableRecord
100
AcDbTextStyleTableRecord
  2
高3.2
 70
     0
 40
3.2
 41
1.0
 50
0.0
 71
     0
 42
3.2
  3
txt.shx
  4
bigfont.shx
  0
STYLE
  5
5EE
330
3
100
AcDbSymbolTableRecord
100
AcDbTextStyleTableRecord
  2
高6.3
 70
     0
 40
6.299999999999998
 41
1.0
 50
0.0
 71
     0
 42
6.299999999999998
  3
txt.shx
  4
bigfont.shx
  0
STYLE
  5
5F0
330
3
100
AcDbSymbolTableRecord
100
AcDbTextStyleTableRecord
  2
高4.5
 70
     0
 40
4.5
 41
1.0
 50
0.0
 71
     0
 42
6.299999999999998
  3
txt.shx
  4
bigfont.shx
  0
STYLE
  5
5F1
330
3
100
AcDbSymbolTableRecord
100
AcDbTextStyleTableRecord
  2
高2
 70
     0
 40
2.0
 41
1.0
 50
0.0
 71
     0
 42
2.0
  3
txt.shx
  4
bigfont.shx
  0
STYLE
  5
BEF
330
3
100
AcDbSymbolTableRecord
100
AcDbTextStyleTableRecord
  2
高2.5
 70
     0
 40
2.5
 41
1.0
 50
0.0
 71
     0
 42
0.2
  3
txt.shx
  4
bigfont.shx
  0
ENDTAB
  0
TABLE
  2
VIEW
  5
6
330
0
100
AcDbSymbolTable
 70
     0
  0
ENDTAB
  0
TABLE
  2
UCS
  5
7
330
0
100
AcDbSymbolTable
 70
     0
  0
ENDTAB
  0
TABLE
  2
APPID
  5
9
330
0
100
AcDbSymbolTable
 70
    10
  0
APPID
  5
27
330
9
100
AcDbSymbolTableRecord
100
AcDbRegAppTableRecord
  2
ACAD
 70
     0
  0
APPID
  5
407
330
9
100
AcDbSymbolTableRecord
100
AcDbRegAppTableRecord
  2
ACAD_DSTYLE_DIMJOGGED_JOGANGLE_SYMBOL
 70
     0
  0
APPID
  5
4DA
330
9
100
AcDbSymbolTableRecord
100
AcDbRegAppTableRecord
  2
ACAD_EXEMPT_FROM_CAD_STANDARDS
 70
     0
  0
APPID
  5
4F9
330
9
100
AcDbSymbolTableRecord
100
AcDbRegAppTableRecord
  2
ACAD_DSTYLE_DIMARC_LENGTH_SYMBOL
 70
     0
  0
APPID
  5
4FA
330
9
100
AcDbSymbolTableRecord
100
AcDbRegAppTableRecord
  2
ACAD_DSTYLE_DIMEXT_LENGTH
 70
     0
  0
APPID
  5
5F6
330
9
100
AcDbSymbolTableRecord
100
AcDbRegAppTableRecord
  2
ACAD_DSTYLE_DIMJAG
 70
     0
  0
APPID
  5
5F7
330
9
100
AcDbSymbolTableRecord
100
AcDbRegAppTableRecord
  2
ACAD_DSTYLE_DIMBREAK
 70
     0
  0
APPID
  5
5F8
330
9
100
AcDbSymbolTableRecord
100
AcDbRegAppTableRecord
  2
ACAD_DSTYLE_DIMTALN
 70
     0
  0
APPID
  5
7C0
330
9
100
AcDbSymbolTableRecord
100
AcDbRegAppTableRecord
  2
ACAD_MLEADERVER
 70
     0
  0
APPID
  5
7E5
330
9
100
AcDbSymbolTableRecord
100
AcDbRegAppTableRecord
  2
ACAD_PSEXT
 70
     0
  0
ENDTAB
  0
TABLE
  2
DIMSTYLE
  5
A
330
0
100
AcDbSymbolTable
 70
     2
100
AcDbDimStyleTable
 71
     2
340
405
340
3EB
  0
DIMSTYLE
105
3EB
330
A
100
AcDbSymbolTableRecord
100
AcDbDimStyleTableRecord
  2
Standard
 70
     0
340
26
  0
DIMSTYLE
105
405
102
{ACAD_REACTORS
330
4C3
102
}
330
A
100
AcDbSymbolTableRecord
100
AcDbDimStyleTableRecord
  2
1／2
 70
     0
 41
2.5
 42
0.25
 43
0.2
 44
1.25
 73
     0
 74
     0
 77
     3
 78
     8
 79
     2
140
3.0
141
0.0
143
0.03937007874016
144
2.0
147
0.625
171
     3
172
     1
178
     4
179
     1
271
     2
272
     2
274
     3
283
     0
284
     8
288
     1
289
     0
340
26
341
3ED
342
3ED
1001
ACAD_DSTYLE_DIMARC_LENGTH_SYMBOL
1070
   379
1070
     2
1001
ACAD_DSTYLE_DIMEXT_LENGTH
1070
   378
1040
1.25
1001
ACAD_DSTYLE_DIMJOGGED_JOGANGLE_SYMBOL
1070
   384
1040
1.570796326794896
  0
ENDTAB
  0
TABLE
  2
BLOCK_RECORD
  5
1
330
0
100
AcDbSymbolTable
 70
    11
  0
BLOCK_RECORD
  5
36
102
{ACAD_XDICTIONARY
360
74A
102
}
330
1
100
AcDbSymbolTableRecord
100
AcDbBlockTableRecord
  2
*Model_Space
340
39
  0
BLOCK_RECORD
  5
32
330
1
100
AcDbSymbolTableRecord
100
AcDbBlockTableRecord
  2
*Paper_Space
340
35
  0
BLOCK_RECORD
  5
3ED
330
1
100
AcDbSymbolTableRecord
100
AcDbBlockTableRecord
  2
_Open30
340
0
102
{BLKREFS
331
BD0
331
BD1
331
BE8
331
BE9
331
BDC
331
BDD
331
12AC
331
12AD
331
12B5
331
12B6
331
12BE
331
12BF
331
1333
331
1334
331
133C
331
133D
331
1345
331
1346
102
}
  0
BLOCK_RECORD
  5
425
330
1
100
AcDbSymbolTableRecord
100
AcDbBlockTableRecord
  2
*D1
340
0
  0
BLOCK_RECORD
  5
431
330
1
100
AcDbSymbolTableRecord
100
AcDbBlockTableRecord
  2
*D2
340
0
  0
BLOCK_RECORD
  5
43D
330
1
100
AcDbSymbolTableRecord
100
AcDbBlockTableRecord
  2
*D3
340
0
  0
BLOCK_RECORD
  5
7E1
330
1
100
AcDbSymbolTableRecord
100
AcDbBlockTableRecord
  2
_DotSmall
340
0
  0
BLOCK_RECORD
  5
BCB
330
1
100
AcDbSymbolTableRecord
100
AcDbBlockTableRecord
  2
*D5
340
0
  0
BLOCK_RECORD
  5
BD7
330
1
100
AcDbSymbolTableRecord
100
AcDbBlockTableRecord
  2
*D6
340
0
  0
BLOCK_RECORD
  5
BE3
330
1
100
AcDbSymbolTableRecord
100
AcDbBlockTableRecord
  2
*D7
340
0
  0
BLOCK_RECORD
  5
1285
330
1
100
AcDbSymbolTableRecord
100
AcDbBlockTableRecord
  2
*D8
340
0
  0
BLOCK_RECORD
  5
1291
330
1
100
AcDbSymbolTableRecord
100
AcDbBlockTableRecord
  2
*D9
340
0
  0
BLOCK_RECORD
  5
129D
330
1
100
AcDbSymbolTableRecord
100
AcDbBlockTableRecord
  2
*D10
340
0
  0
ENDTAB
  0
ENDSEC
  0
SECTION
  2
BLOCKS
  0
BLOCK
  5
37
330
36
100
AcDbEntity
  8
0
100
AcDbBlockBegin
  2
*Model_Space
 70
     0
 10
0.0
 20
0.0
 30
0.0
  3
*Model_Space
  1

  0
ENDBLK
  5
38
330
36
100
AcDbEntity
  8
0
100
AcDbBlockEnd
  0
BLOCK
  5
33
330
32
100
AcDbEntity
 67
     1
  8
0
100
AcDbBlockBegin
  2
*Paper_Space
 70
     0
 10
0.0
 20
0.0
 30
0.0
  3
*Paper_Space
  1

  0
ENDBLK
  5
34
330
32
100
AcDbEntity
 67
     1
  8
0
100
AcDbBlockEnd
  0
BLOCK
  5
3EE
330
3ED
100
AcDbEntity
  8
0
100
AcDbBlockBegin
  2
_Open30
 70
     0
 10
0.0
 20
0.0
 30
0.0
  3
_Open30
  1

  0
LINE
  5
3EF
330
3ED
100
AcDbEntity
  8
0
  6
ByBlock
 62
     0
370
    -2
100
AcDbLine
 10
-1.0
 20
0.267949
 30
0.0
 11
0.0
 21
0.0
 31
0.0
  0
LINE
  5
3F0
330
3ED
100
AcDbEntity
  8
0
  6
ByBlock
 62
     0
370
    -2
100
AcDbLine
 10
0.0
 20
0.0
 30
0.0
 11
-1.0
 21
-0.267949
 31
0.0
  0
LINE
  5
3F1
330
3ED
100
AcDbEntity
  8
0
  6
ByBlock
 62
     0
370
    -2
100
AcDbLine
 10
0.0
 20
0.0
 30
0.0
 11
-1.0
 21
0.0
 31
0.0
  0
ENDBLK
  5
3F2
330
3ED
100
AcDbEntity
  8
0
100
AcDbBlockEnd
  0
BLOCK
  5
42F
330
425
100
AcDbEntity
  8
0
100
AcDbBlockBegin
  2
*D1
 70
     1
 10
0.0
 20
0.0
 30
0.0
  3
*D1
  1

  0
LINE
  5
1342
330
425
100
AcDbEntity
  8
0
 62
     0
370
    -2
100
AcDbLine
 10
-100.055933
 20
-26.721618
 30
0.0
 11
-100.055933
 21
-36.982719
 31
0.0
  0
LINE
  5
1343
330
425
100
AcDbEntity
  8
0
 62
     0
370
    -2
100
AcDbLine
 10
-35.05593300000001
 20
-26.721618
 30
0.0
 11
-35.05593300000001
 21
-36.982719
 31
0.0
  0
LINE
  5
1344
330
425
100
AcDbEntity
  8
0
 62
     0
370
    -2
100
AcDbLine
 10
-97.55593300000001
 20
-35.732719
 30
0.0
 11
-37.55593300000001
 21
-35.732719
 31
0.0
  0
INSERT
  5
1345
330
425
100
AcDbEntity
  8
0
 62
     0
370
    -2
100
AcDbBlockReference
  2
_Open30
 10
-100.055933
 20
-35.732719
 30
0.0
 41
2.5
 42
2.5
 43
2.5
 50
180.0
  0
INSERT
  5
1346
330
425
100
AcDbEntity
  8
0
 62
     0
370
    -2
100
AcDbBlockReference
  2
_Open30
 10
-35.05593300000001
 20
-35.732719
 30
0.0
 41
2.5
 42
2.5
 43
2.5
  0
MTEXT
  5
1347
330
425
100
AcDbEntity
  8
0
 62
     4
100
AcDbMText
 10
-67.55593300000001
 20
-33.607719
 30
0.0
 40
3.0
 41
0.0
 71
     5
 72
     1
  1
130
 73
     1
 44
1.0
1001
ACAD
1000
MTEXTBEGIN
1070
    73
1070
     1
1070
    44
1040
1.0
1070
    74
1070
     0
1000
MTEXTEND
  0
POINT
  5
1348
330
425
100
AcDbEntity
  8
Defpoints
 62
     0
100
AcDbPoint
 10
-100.055933
 20
-26.471618
 30
0.0
  0
POINT
  5
1349
330
425
100
AcDbEntity
  8
Defpoints
 62
     0
100
AcDbPoint
 10
-35.05593300000001
 20
-26.471618
 30
0.0
  0
POINT
  5
134A
330
425
100
AcDbEntity
  8
Defpoints
 62
     0
100
AcDbPoint
 10
-35.05593300000001
 20
-35.732719
 30
0.0
  0
ENDBLK
  5
430
330
425
100
AcDbEntity
  8
0
100
AcDbBlockEnd
  0
BLOCK
  5
43B
330
431
100
AcDbEntity
  8
0
100
AcDbBlockBegin
  2
*D2
 70
     1
 10
0.0
 20
0.0
 30
0.0
  3
*D2
  1

  0
LINE
  5
1330
330
431
100
AcDbEntity
  8
0
 62
     0
370
    -2
100
AcDbLine
 10
-100.305933
 20
-26.471618
 30
0.0
 11
-110.256923
 21
-26.471618
 31
0.0
  0
LINE
  5
1331
330
431
100
AcDbEntity
  8
0
 62
     0
370
    -2
100
AcDbLine
 10
-100.305933
 20
11.028382
 30
0.0
 11
-110.256923
 21
11.028382
 31
0.0
  0
LINE
  5
1332
330
431
100
AcDbEntity
  8
0
 62
     0
370
    -2
100
AcDbLine
 10
-109.006923
 20
-23.971618
 30
0.0
 11
-109.006923
 21
8.528382000000002
 31
0.0
  0
INSERT
  5
1333
330
431
100
AcDbEntity
  8
0
 62
     0
370
    -2
100
AcDbBlockReference
  2
_Open30
 10
-109.006923
 20
-26.471618
 30
0.0
 41
2.5
 42
2.5
 43
2.5
 50
270.0
  0
INSERT
  5
1334
330
431
100
AcDbEntity
  8
0
 62
     0
370
    -2
100
AcDbBlockReference
  2
_Open30
 10
-109.006923
 20
11.028382
 30
0.0
 41
2.5
 42
2.5
 43
2.5
 50
90.0
  0
MTEXT
  5
1335
330
431
100
AcDbEntity
  8
0
 62
     4
100
AcDbMText
 10
-111.131923
 20
-7.721618000000014
 30
0.0
 40
3.0
 41
0.0
 71
     5
 72
     1
  1
75
 11
0.0000000000000001
 21
1.0
 31
0.0
 73
     1
 44
1.0
1001
ACAD
1000
MTEXTBEGIN
1070
    73
1070
     1
1070
    44
1040
1.0
1070
    74
1070
     0
1000
MTEXTEND
  0
POINT
  5
1336
330
431
100
AcDbEntity
  8
Defpoints
 62
     0
100
AcDbPoint
 10
-100.055933
 20
-26.471618
 30
0.0
  0
POINT
  5
1337
330
431
100
AcDbEntity
  8
Defpoints
 62
     0
100
AcDbPoint
 10
-100.055933
 20
11.028382
 30
0.0
  0
POINT
  5
1338
330
431
100
AcDbEntity
  8
Defpoints
 62
     0
100
AcDbPoint
 10
-109.006923
 20
11.028382
 30
0.0
  0
ENDBLK
  5
43C
330
431
100
AcDbEntity
  8
0
100
AcDbBlockEnd
  0
BLOCK
  5
447
330
43D
100
AcDbEntity
  8
0
100
AcDbBlockBegin
  2
*D3
 70
     1
 10
0.0
 20
0.0
 30
0.0
  3
*D3
  1

  0
LINE
  5
1339
330
43D
100
AcDbEntity
  8
0
 62
     0
370
    -2
100
AcDbLine
 10
-99.943702
 20
30.959218
 30
0.0
 11
-109.894691
 21
30.95921800000001
 31
0.0
  0
LINE
  5
133A
330
43D
100
AcDbEntity
  8
0
 62
     0
370
    -2
100
AcDbLine
 10
-99.943702
 20
103.459218
 30
0.0
 11
-109.894691
 21
103.459218
 31
0.0
  0
LINE
  5
133B
330
43D
100
AcDbEntity
  8
0
 62
     0
370
    -2
100
AcDbLine
 10
-108.644691
 20
33.459218
 30
0.0
 11
-108.644691
 21
100.959218
 31
0.0
  0
INSERT
  5
133C
330
43D
100
AcDbEntity
  8
0
 62
     0
370
    -2
100
AcDbBlockReference
  2
_Open30
 10
-108.644691
 20
30.95921800000001
 30
0.0
 41
2.5
 42
2.5
 43
2.5
 50
270.0
  0
INSERT
  5
133D
330
43D
100
AcDbEntity
  8
0
 62
     0
370
    -2
100
AcDbBlockReference
  2
_Open30
 10
-108.644691
 20
103.459218
 30
0.0
 41
2.5
 42
2.5
 43
2.5
 50
90.0
  0
MTEXT
  5
133E
330
43D
100
AcDbEntity
  8
0
 62
     4
100
AcDbMText
 10
-110.769691
 20
67.20921799999998
 30
0.0
 40
3.0
 41
0.0
 71
     5
 72
     1
  1
145
 11
0.0000000000000001
 21
1.0
 31
0.0
 73
     1
 44
1.0
1001
ACAD
1000
MTEXTBEGIN
1070
    73
1070
     1
1070
    44
1040
1.0
1070
    74
1070
     0
1000
MTEXTEND
  0
POINT
  5
133F
330
43D
100
AcDbEntity
  8
Defpoints
 62
     0
100
AcDbPoint
 10
-99.693702
 20
30.959218
 30
0.0
  0
POINT
  5
1340
330
43D
100
AcDbEntity
  8
Defpoints
 62
     0
100
AcDbPoint
 10
-99.693702
 20
103.459218
 30
0.0
  0
POINT
  5
1341
330
43D
100
AcDbEntity
  8
Defpoints
 62
     0
100
AcDbPoint
 10
-108.644691
 20
103.459218
 30
0.0
  0
ENDBLK
  5
448
330
43D
100
AcDbEntity
  8
0
100
AcDbBlockEnd
  0
BLOCK
  5
7E2
330
7E1
100
AcDbEntity
  8
0
100
AcDbBlockBegin
  2
_DotSmall
 70
     0
 10
0.0
 20
0.0
 30
0.0
  3
_DotSmall
  1

  0
LWPOLYLINE
  5
7E3
330
7E1
100
AcDbEntity
  8
0
  6
ByBlock
 62
     0
100
AcDbPolyline
 90
        2
 70
     1
 43
0.5
 10
-0.0625
 20
0.0
 42
1.0
 10
0.0625
 20
0.0
 42
1.0
  0
ENDBLK
  5
7E4
330
7E1
100
AcDbEntity
  8
0
100
AcDbBlockEnd
  0
BLOCK
  5
BCC
330
BCB
100
AcDbEntity
  8
0
100
AcDbBlockBegin
  2
*D5
 70
     1
 10
0.0
 20
0.0
 30
0.0
  3
*D5
  1

  0
LINE
  5
BCD
330
BCB
100
AcDbEntity
  8
0
 62
     0
370
    -2
100
AcDbLine
 10
-99.943702
 20
30.959218
 30
0.0
 11
-109.894691
 21
30.95921800000001
 31
0.0
  0
LINE
  5
BCE
330
BCB
100
AcDbEntity
  8
0
 62
     0
370
    -2
100
AcDbLine
 10
-99.943702
 20
103.459218
 30
0.0
 11
-109.894691
 21
103.459218
 31
0.0
  0
LINE
  5
BCF
330
BCB
100
AcDbEntity
  8
0
 62
     0
370
    -2
100
AcDbLine
 10
-108.644691
 20
33.459218
 30
0.0
 11
-108.644691
 21
100.959218
 31
0.0
  0
INSERT
  5
BD0
330
BCB
100
AcDbEntity
  8
0
 62
     0
370
    -2
100
AcDbBlockReference
  2
_Open30
 10
-108.644691
 20
30.95921800000001
 30
0.0
 41
2.5
 42
2.5
 43
2.5
 50
270.0
  0
INSERT
  5
BD1
330
BCB
100
AcDbEntity
  8
0
 62
     0
370
    -2
100
AcDbBlockReference
  2
_Open30
 10
-108.644691
 20
103.459218
 30
0.0
 41
2.5
 42
2.5
 43
2.5
 50
90.0
  0
MTEXT
  5
BD2
330
BCB
100
AcDbEntity
  8
0
 62
     4
100
AcDbMText
 10
-110.769691
 20
67.20921799999998
 30
0.0
 40
3.0
 41
0.0
 71
     5
 72
     1
  1
145
 11
0.0000000000000001
 21
1.0
 31
0.0
 73
     1
 44
1.0
1001
ACAD
1000
MTEXTBEGIN
1070
    73
1070
     1
1070
    44
1040
1.0
1070
    74
1070
     0
1000
MTEXTEND
  0
POINT
  5
BD3
330
BCB
100
AcDbEntity
  8
Defpoints
 62
     0
100
AcDbPoint
 10
-99.693702
 20
30.959218
 30
0.0
  0
POINT
  5
BD4
330
BCB
100
AcDbEntity
  8
Defpoints
 62
     0
100
AcDbPoint
 10
-99.693702
 20
103.459218
 30
0.0
  0
POINT
  5
BD5
330
BCB
100
AcDbEntity
  8
Defpoints
 62
     0
100
AcDbPoint
 10
-108.644691
 20
103.459218
 30
0.0
  0
ENDBLK
  5
BD6
330
BCB
100
AcDbEntity
  8
0
100
AcDbBlockEnd
  0
BLOCK
  5
BD8
330
BD7
100
AcDbEntity
  8
0
100
AcDbBlockBegin
  2
*D6
 70
     1
 10
0.0
 20
0.0
 30
0.0
  3
*D6
  1

  0
LINE
  5
BD9
330
BD7
100
AcDbEntity
  8
0
 62
     0
370
    -2
100
AcDbLine
 10
-100.305933
 20
-26.471618
 30
0.0
 11
-110.256923
 21
-26.471618
 31
0.0
  0
LINE
  5
BDA
330
BD7
100
AcDbEntity
  8
0
 62
     0
370
    -2
100
AcDbLine
 10
-100.305933
 20
11.028382
 30
0.0
 11
-110.256923
 21
11.028382
 31
0.0
  0
LINE
  5
BDB
330
BD7
100
AcDbEntity
  8
0
 62
     0
370
    -2
100
AcDbLine
 10
-109.006923
 20
-23.971618
 30
0.0
 11
-109.006923
 21
8.528382000000002
 31
0.0
  0
INSERT
  5
BDC
330
BD7
100
AcDbEntity
  8
0
 62
     0
370
    -2
100
AcDbBlockReference
  2
_Open30
 10
-109.006923
 20
-26.471618
 30
0.0
 41
2.5
 42
2.5
 43
2.5
 50
270.0
  0
INSERT
  5
BDD
330
BD7
100
AcDbEntity
  8
0
 62
     0
370
    -2
100
AcDbBlockReference
  2
_Open30
 10
-109.006923
 20
11.028382
 30
0.0
 41
2.5
 42
2.5
 43
2.5
 50
90.0
  0
MTEXT
  5
BDE
330
BD7
100
AcDbEntity
  8
0
 62
     4
100
AcDbMText
 10
-111.131923
 20
-7.721618000000012
 30
0.0
 40
3.0
 41
0.0
 71
     5
 72
     1
  1
75
 11
0.0000000000000001
 21
1.0
 31
0.0
 73
     1
 44
1.0
1001
ACAD
1000
MTEXTBEGIN
1070
    73
1070
     1
1070
    44
1040
1.0
1070
    74
1070
     0
1000
MTEXTEND
  0
POINT
  5
BDF
330
BD7
100
AcDbEntity
  8
Defpoints
 62
     0
100
AcDbPoint
 10
-100.055933
 20
-26.471618
 30
0.0
  0
POINT
  5
BE0
330
BD7
100
AcDbEntity
  8
Defpoints
 62
     0
100
AcDbPoint
 10
-100.055933
 20
11.028382
 30
0.0
  0
POINT
  5
BE1
330
BD7
100
AcDbEntity
  8
Defpoints
 62
     0
100
AcDbPoint
 10
-109.006923
 20
11.028382
 30
0.0
  0
ENDBLK
  5
BE2
330
BD7
100
AcDbEntity
  8
0
100
AcDbBlockEnd
  0
BLOCK
  5
BE4
330
BE3
100
AcDbEntity
  8
0
100
AcDbBlockBegin
  2
*D7
 70
     1
 10
0.0
 20
0.0
 30
0.0
  3
*D7
  1

  0
LINE
  5
BE5
330
BE3
100
AcDbEntity
  8
0
 62
     0
370
    -2
100
AcDbLine
 10
-100.055933
 20
-26.721618
 30
0.0
 11
-100.055933
 21
-36.982719
 31
0.0
  0
LINE
  5
BE6
330
BE3
100
AcDbEntity
  8
0
 62
     0
370
    -2
100
AcDbLine
 10
-35.05593300000001
 20
-26.721618
 30
0.0
 11
-35.05593300000001
 21
-36.982719
 31
0.0
  0
LINE
  5
BE7
330
BE3
100
AcDbEntity
  8
0
 62
     0
370
    -2
100
AcDbLine
 10
-97.55593300000001
 20
-35.732719
 30
0.0
 11
-37.55593300000001
 21
-35.732719
 31
0.0
  0
INSERT
  5
BE8
330
BE3
100
AcDbEntity
  8
0
 62
     0
370
    -2
100
AcDbBlockReference
  2
_Open30
 10
-100.055933
 20
-35.732719
 30
0.0
 41
2.5
 42
2.5
 43
2.5
 50
180.0
  0
INSERT
  5
BE9
330
BE3
100
AcDbEntity
  8
0
 62
     0
370
    -2
100
AcDbBlockReference
  2
_Open30
 10
-35.05593300000001
 20
-35.732719
 30
0.0
 41
2.5
 42
2.5
 43
2.5
  0
MTEXT
  5
BEA
330
BE3
100
AcDbEntity
  8
0
 62
     4
100
AcDbMText
 10
-67.55593300000001
 20
-33.607719
 30
0.0
 40
3.0
 41
0.0
 71
     5
 72
     1
  1
130
 73
     1
 44
1.0
1001
ACAD
1000
MTEXTBEGIN
1070
    73
1070
     1
1070
    44
1040
1.0
1070
    74
1070
     0
1000
MTEXTEND
  0
POINT
  5
BEB
330
BE3
100
AcDbEntity
  8
Defpoints
 62
     0
100
AcDbPoint
 10
-100.055933
 20
-26.471618
 30
0.0
  0
POINT
  5
BEC
330
BE3
100
AcDbEntity
  8
Defpoints
 62
     0
100
AcDbPoint
 10
-35.05593300000001
 20
-26.471618
 30
0.0
  0
POINT
  5
BED
330
BE3
100
AcDbEntity
  8
Defpoints
 62
     0
100
AcDbPoint
 10
-35.05593300000001
 20
-35.732719
 30
0.0
  0
ENDBLK
  5
BEE
330
BE3
100
AcDbEntity
  8
0
100
AcDbBlockEnd
  0
BLOCK
  5
1286
330
1285
100
AcDbEntity
  8
0
100
AcDbBlockBegin
  2
*D8
 70
     1
 10
0.0
 20
0.0
 30
0.0
  3
*D8
  1

  0
LINE
  5
12A9
330
1285
100
AcDbEntity
  8
0
 62
     0
370
    -2
100
AcDbLine
 10
359.0742367280396
 20
-26.23842576285549
 30
0.0
 11
359.0742367280396
 21
-36.49952676285547
 31
0.0
  0
LINE
  5
12AA
330
1285
100
AcDbEntity
  8
0
 62
     0
370
    -2
100
AcDbLine
 10
424.0742367280396
 20
-26.23842576285549
 30
0.0
 11
424.0742367280396
 21
-36.49952676285547
 31
0.0
  0
LINE
  5
12AB
330
1285
100
AcDbEntity
  8
0
 62
     0
370
    -2
100
AcDbLine
 10
361.5742367280396
 20
-35.24952676285547
 30
0.0
 11
421.5742367280396
 21
-35.24952676285547
 31
0.0
  0
INSERT
  5
12AC
330
1285
100
AcDbEntity
  8
0
 62
     0
370
    -2
100
AcDbBlockReference
  2
_Open30
 10
359.0742367280396
 20
-35.24952676285547
 30
0.0
 41
2.5
 42
2.5
 43
2.5
 50
180.0
  0
INSERT
  5
12AD
330
1285
100
AcDbEntity
  8
0
 62
     0
370
    -2
100
AcDbBlockReference
  2
_Open30
 10
424.0742367280396
 20
-35.24952676285547
 30
0.0
 41
2.5
 42
2.5
 43
2.5
  0
MTEXT
  5
12AE
330
1285
100
AcDbEntity
  8
0
 62
     4
100
AcDbMText
 10
391.5742367280397
 20
-33.12452676285548
 30
0.0
 40
3.0
 41
0.0
 71
     5
 72
     1
  1
130
 73
     1
 44
1.0
1001
ACAD
1000
MTEXTBEGIN
1070
    73
1070
     1
1070
    44
1040
1.0
1070
    74
1070
     0
1000
MTEXTEND
  0
POINT
  5
12AF
330
1285
100
AcDbEntity
  8
Defpoints
 62
     0
100
AcDbPoint
 10
359.0742367280396
 20
-25.98842576285548
 30
0.0
  0
POINT
  5
12B0
330
1285
100
AcDbEntity
  8
Defpoints
 62
     0
100
AcDbPoint
 10
424.0742367280396
 20
-25.98842576285548
 30
0.0
  0
POINT
  5
12B1
330
1285
100
AcDbEntity
  8
Defpoints
 62
     0
100
AcDbPoint
 10
424.0742367280396
 20
-35.24952676285547
 30
0.0
  0
ENDBLK
  5
1287
330
1285
100
AcDbEntity
  8
0
100
AcDbBlockEnd
  0
BLOCK
  5
1292
330
1291
100
AcDbEntity
  8
0
100
AcDbBlockBegin
  2
*D9
 70
     1
 10
0.0
 20
0.0
 30
0.0
  3
*D9
  1

  0
LINE
  5
12B2
330
1291
100
AcDbEntity
  8
0
 62
     0
370
    -2
100
AcDbLine
 10
358.8242367280396
 20
-25.98842576285548
 30
0.0
 11
348.8732467280396
 21
-25.98842576285548
 31
0.0
  0
LINE
  5
12B3
330
1291
100
AcDbEntity
  8
0
 62
     0
370
    -2
100
AcDbLine
 10
358.8242367280396
 20
11.51157423714451
 30
0.0
 11
348.8732467280396
 21
11.51157423714451
 31
0.0
  0
LINE
  5
12B4
330
1291
100
AcDbEntity
  8
0
 62
     0
370
    -2
100
AcDbLine
 10
350.1232467280396
 20
-23.48842576285548
 30
0.0
 11
350.1232467280396
 21
9.011574237144515
 31
0.0
  0
INSERT
  5
12B5
330
1291
100
AcDbEntity
  8
0
 62
     0
370
    -2
100
AcDbBlockReference
  2
_Open30
 10
350.1232467280396
 20
-25.98842576285548
 30
0.0
 41
2.5
 42
2.5
 43
2.5
 50
270.0
  0
INSERT
  5
12B6
330
1291
100
AcDbEntity
  8
0
 62
     0
370
    -2
100
AcDbBlockReference
  2
_Open30
 10
350.1232467280396
 20
11.51157423714451
 30
0.0
 41
2.5
 42
2.5
 43
2.5
 50
90.0
  0
MTEXT
  5
12B7
330
1291
100
AcDbEntity
  8
0
 62
     4
100
AcDbMText
 10
347.9982467280397
 20
-7.238425762855427
 30
0.0
 40
3.0
 41
0.0
 71
     5
 72
     1
  1
75
 11
0.0000000000000001
 21
1.0
 31
0.0
 73
     1
 44
1.0
1001
ACAD
1000
MTEXTBEGIN
1070
    73
1070
     1
1070
    44
1040
1.0
1070
    74
1070
     0
1000
MTEXTEND
  0
POINT
  5
12B8
330
1291
100
AcDbEntity
  8
Defpoints
 62
     0
100
AcDbPoint
 10
359.0742367280396
 20
-25.98842576285548
 30
0.0
  0
POINT
  5
12B9
330
1291
100
AcDbEntity
  8
Defpoints
 62
     0
100
AcDbPoint
 10
359.0742367280396
 20
11.51157423714451
 30
0.0
  0
POINT
  5
12BA
330
1291
100
AcDbEntity
  8
Defpoints
 62
     0
100
AcDbPoint
 10
350.1232467280396
 20
11.51157423714451
 30
0.0
  0
ENDBLK
  5
1293
330
1291
100
AcDbEntity
  8
0
100
AcDbBlockEnd
  0
BLOCK
  5
129E
330
129D
100
AcDbEntity
  8
0
100
AcDbBlockBegin
  2
*D10
 70
     1
 10
0.0
 20
0.0
 30
0.0
  3
*D10
  1

  0
LINE
  5
12BB
330
129D
100
AcDbEntity
  8
0
 62
     0
370
    -2
100
AcDbLine
 10
359.1864677280396
 20
31.44241023714452
 30
0.0
 11
349.2354787280397
 21
31.44241023714452
 31
0.0
  0
LINE
  5
12BC
330
129D
100
AcDbEntity
  8
0
 62
     0
370
    -2
100
AcDbLine
 10
359.1864677280396
 20
103.9424102371445
 30
0.0
 11
349.2354787280397
 21
103.9424102371445
 31
0.0
  0
LINE
  5
12BD
330
129D
100
AcDbEntity
  8
0
 62
     0
370
    -2
100
AcDbLine
 10
350.4854787280397
 20
33.94241023714452
 30
0.0
 11
350.4854787280397
 21
101.4424102371445
 31
0.0
  0
INSERT
  5
12BE
330
129D
100
AcDbEntity
  8
0
 62
     0
370
    -2
100
AcDbBlockReference
  2
_Open30
 10
350.4854787280397
 20
31.44241023714452
 30
0.0
 41
2.5
 42
2.5
 43
2.5
 50
270.0
  0
INSERT
  5
12BF
330
129D
100
AcDbEntity
  8
0
 62
     0
370
    -2
100
AcDbBlockReference
  2
_Open30
 10
350.4854787280397
 20
103.9424102371445
 30
0.0
 41
2.5
 42
2.5
 43
2.5
 50
90.0
  0
MTEXT
  5
12C0
330
129D
100
AcDbEntity
  8
0
 62
     4
100
AcDbMText
 10
348.3604787280397
 20
67.69241023714457
 30
0.0
 40
3.0
 41
0.0
 71
     5
 72
     1
  1
145
 11
0.0000000000000001
 21
1.0
 31
0.0
 73
     1
 44
1.0
1001
ACAD
1000
MTEXTBEGIN
1070
    73
1070
     1
1070
    44
1040
1.0
1070
    74
1070
     0
1000
MTEXTEND
  0
POINT
  5
12C1
330
129D
100
AcDbEntity
  8
Defpoints
 62
     0
100
AcDbPoint
 10
359.4364677280396
 20
31.44241023714452
 30
0.0
  0
POINT
  5
12C2
330
129D
100
AcDbEntity
  8
Defpoints
 62
     0
100
AcDbPoint
 10
359.4364677280396
 20
103.9424102371445
 30
0.0
  0
POINT
  5
12C3
330
129D
100
AcDbEntity
  8
Defpoints
 62
     0
100
AcDbPoint
 10
350.4854787280397
 20
103.9424102371445
 30
0.0
  0
ENDBLK
  5
129F
330
129D
100
AcDbEntity
  8
0
100
AcDbBlockEnd
  0
ENDSEC
  0
SECTION
  2
ENTITIES
  0
TEXT
  5
86
330
36
100
AcDbEntity
  8
0
 62
     3
100
AcDbText
 10
142.130238
 20
-124.745973
 30
0.0
 40
3.2
  1
FREE
  7
高3.2
100
AcDbText
  0
LINE
  5
96
330
36
100
AcDbEntity
  8
0
 62
     3
100
AcDbLine
 10
96.80665199999999
 20
-35.847681
 30
0.0
 11
96.80665199999999
 21
-57.847681
 31
0.0
  0
LINE
  5
97
330
36
100
AcDbEntity
  8
0
100
AcDbLine
 10
96.80665199999999
 20
-43.847681
 30
0.0
 11
143.5370883350697
 21
-43.847681
 31
0.0
  0
LINE
  5
98
330
36
100
AcDbEntity
  8
0
100
AcDbLine
 10
96.80665199999999
 20
-50.847681
 30
0.0
 11
143.5370883350697
 21
-50.847681
 31
0.0
  0
LINE
  5
99
330
36
100
AcDbEntity
  8
0
 62
     3
100
AcDbLine
 10
96.80665199999999
 20
-57.847681
 30
0.0
 11
143.5370883350697
 21
-57.847681
 31
0.0
  0
LINE
  5
9A
330
36
100
AcDbEntity
  8
0
 62
     3
100
AcDbLine
 10
143.5370883350697
 20
-35.847681
 30
0.0
 11
143.5370883350697
 21
-57.847681
 31
0.0
  0
LINE
  5
9B
330
36
100
AcDbEntity
  8
0
100
AcDbLine
 10
-34.693702
 20
42.459218
 30
0.0
 11
-99.693702
 21
42.459218
 31
0.0
  0
LINE
  5
9C
330
36
100
AcDbEntity
  8
0
100
AcDbLine
 10
-34.693702
 20
43.95921799999999
 30
0.0
 11
-99.693702
 21
43.95921799999999
 31
0.0
  0
LINE
  5
9D
330
36
100
AcDbEntity
  8
0
100
AcDbLine
 10
-34.693702
 20
45.459218
 30
0.0
 11
-99.693702
 21
45.459218
 31
0.0
  0
LINE
  5
9E
330
36
100
AcDbEntity
  8
0
100
AcDbLine
 10
-34.693702
 20
46.95921799999999
 30
0.0
 11
-99.693702
 21
46.95921799999999
 31
0.0
  0
LINE
  5
9F
330
36
100
AcDbEntity
  8
0
100
AcDbLine
 10
-34.693702
 20
33.959218
 30
0.0
 11
-99.693702
 21
33.959218
 31
0.0
  0
TEXT
  5
A1
330
36
100
AcDbEntity
  8
0
 62
     3
100
AcDbText
 10
-96.443702
 20
36.210065
 30
0.0
 40
3.5
  1
金
 41
0.75
100
AcDbText
  0
TEXT
  5
A2
330
36
100
AcDbEntity
  8
0
 62
     3
100
AcDbText
 10
-92.193702
 20
36.210065
 30
0.0
 40
3.5
  1
属
 41
0.75
100
AcDbText
  0
TEXT
  5
A3
330
36
100
AcDbEntity
  8
0
 62
     3
100
AcDbText
 10
-87.94370200000001
 20
36.210065
 30
0.0
 40
3.5
  1
セ
 41
0.75
100
AcDbText
  0
TEXT
  5
A4
330
36
100
AcDbEntity
  8
0
 62
     3
100
AcDbText
 10
-83.693702
 20
36.210065
 30
0.0
 40
3.5
  1
ン
 41
0.75
100
AcDbText
  0
TEXT
  5
A5
330
36
100
AcDbEntity
  8
0
 62
     3
100
AcDbText
 10
-79.443702
 20
36.210065
 30
0.0
 40
3.5
  1
サ
 41
0.75
100
AcDbText
  0
TEXT
  5
A6
330
36
100
AcDbEntity
  8
0
 62
     3
100
AcDbText
 10
-75.193702
 20
36.210065
 30
0.0
 40
3.5
  1
-
 41
0.9
100
AcDbText
  0
LINE
  5
A7
330
36
100
AcDbEntity
  8
0
 62
     3
100
AcDbLine
 10
-62.191121
 20
67.582184
 30
0.0
 11
-48.191121
 21
67.582184
 31
0.0
  0
LINE
  5
A8
330
36
100
AcDbEntity
  8
0
 62
     3
100
AcDbLine
 10
-62.191121
 20
67.582184
 30
0.0
 11
-62.191121
 21
60.33218399999999
 31
0.0
  0
LINE
  5
A9
330
36
100
AcDbEntity
  8
0
 62
     3
100
AcDbLine
 10
-62.191121
 20
60.33218399999999
 30
0.0
 11
-48.191121
 21
60.33218399999999
 31
0.0
  0
LINE
  5
AA
330
36
100
AcDbEntity
  8
0
 62
     3
100
AcDbLine
 10
-48.191121
 20
67.582184
 30
0.0
 11
-48.191121
 21
60.33218399999999
 31
0.0
  0
CIRCLE
  5
AB
330
36
100
AcDbEntity
  8
0
 62
     3
100
AcDbCircle
 10
-64.691121
 20
63.95718399999999
 30
0.0
 40
0.875
  0
LINE
  5
AC
330
36
100
AcDbEntity
  8
0
 62
     3
100
AcDbLine
 10
-49.816121
 20
67.332184
 30
0.0
 11
-49.816121
 21
60.582184
 31
0.0
  0
LINE
  5
AD
330
36
100
AcDbEntity
  8
0
 62
     3
100
AcDbLine
 10
-61.94112099999999
 20
67.332184
 30
0.0
 11
-48.441121
 21
67.332184
 31
0.0
  0
LINE
  5
AE
330
36
100
AcDbEntity
  8
0
 62
     3
100
AcDbLine
 10
-60.56612099999998
 20
67.332184
 30
0.0
 11
-60.56612099999998
 21
60.582184
 31
0.0
  0
LINE
  5
AF
330
36
100
AcDbEntity
  8
0
 62
     3
100
AcDbLine
 10
-61.94112099999999
 20
67.332184
 30
0.0
 11
-61.94112099999999
 21
60.582184
 31
0.0
  0
LINE
  5
B0
330
36
100
AcDbEntity
  8
0
 62
     3
100
AcDbLine
 10
-61.94112099999999
 20
60.582184
 30
0.0
 11
-48.441121
 21
60.582184
 31
0.0
  0
LINE
  5
B1
330
36
100
AcDbEntity
  8
0
 62
     3
100
AcDbLine
 10
-48.441121
 20
67.332184
 30
0.0
 11
-48.441121
 21
60.582184
 31
0.0
  0
CIRCLE
  5
B2
330
36
100
AcDbEntity
  8
0
 62
     3
100
AcDbCircle
 10
-45.576121
 20
63.862184
 30
0.0
 40
0.875
  0
LINE
  5
B3
330
36
100
AcDbEntity
  8
0
 62
     3
100
AcDbLine
 10
-100.055933
 20
-26.471618
 30
0.0
 11
-100.055933
 21
11.028382
 31
0.0
  0
LINE
  5
B4
330
36
100
AcDbEntity
  8
0
 62
     3
100
AcDbLine
 10
-35.05593300000001
 20
-26.471618
 30
0.0
 11
-100.055933
 21
-26.471618
 31
0.0
  0
LINE
  5
B5
330
36
100
AcDbEntity
  8
0
 62
     3
100
AcDbLine
 10
-35.05593300000001
 20
11.028382
 30
0.0
 11
-100.055933
 21
11.028382
 31
0.0
  0
LINE
  5
B6
330
36
100
AcDbEntity
  8
0
 62
     3
100
AcDbLine
 10
-34.693702
 20
30.959218
 30
0.0
 11
-99.693702
 21
30.959218
 31
0.0
  0
LINE
  5
B7
330
36
100
AcDbEntity
  8
0
 62
     3
100
AcDbLine
 10
-99.693702
 20
103.459218
 30
0.0
 11
-99.693702
 21
30.959218
 31
0.0
  0
LINE
  5
B8
330
36
100
AcDbEntity
  8
0
 62
     3
100
AcDbLine
 10
-34.693702
 20
103.459218
 30
0.0
 11
-99.693702
 21
103.459218
 31
0.0
  0
LINE
  5
B9
330
36
100
AcDbEntity
  8
0
 62
     3
100
AcDbLine
 10
-58.018905
 20
119.692009
 30
0.0
 11
-58.018905
 21
104.959218
 31
0.0
  0
LINE
  5
BA
330
36
100
AcDbEntity
  8
0
 62
     3
100
AcDbLine
 10
-63.468905
 20
104.959218
 30
0.0
 11
-63.468905
 21
119.692009
 31
0.0
  0
LINE
  5
BB
330
36
100
AcDbEntity
  8
0
 62
     3
100
AcDbLine
 10
-56.518905
 20
104.959218
 30
0.0
 11
-64.96890500000001
 21
104.959218
 31
0.0
  0
LINE
  5
BC
330
36
100
AcDbEntity
  8
0
 62
     3
100
AcDbLine
 10
-56.518905
 20
104.959218
 30
0.0
 11
-56.518905
 21
103.459218
 31
0.0
  0
LINE
  5
BD
330
36
100
AcDbEntity
  8
0
 62
     3
100
AcDbLine
 10
-64.96890500000001
 20
104.959218
 30
0.0
 11
-64.96890500000001
 21
103.459218
 31
0.0
  0
LINE
  5
BE
330
36
100
AcDbEntity
  8
0
 62
     3
100
AcDbLine
 10
-35.05593300000001
 20
-26.471618
 30
0.0
 11
-35.05593300000001
 21
11.028382
 31
0.0
  0
LINE
  5
BF
330
36
100
AcDbEntity
  8
0
 62
     3
100
AcDbLine
 10
-34.693702
 20
103.459218
 30
0.0
 11
-34.693702
 21
30.959218
 31
0.0
  0
LINE
  5
C0
330
36
100
AcDbEntity
  8
0
 62
     3
100
AcDbLine
 10
-73.567126
 20
63.129291
 30
0.0
 11
-73.567126
 21
88.79119499999999
 31
0.0
  0
LINE
  5
C1
330
36
100
AcDbEntity
  8
0
 62
     3
100
AcDbLine
 10
-91.567126
 20
63.129291
 30
0.0
 11
-91.567126
 21
88.79119499999999
 31
0.0
  0
ARC
  5
C2
330
36
100
AcDbEntity
  8
0
 62
     3
100
AcDbCircle
 10
-82.567126
 20
68.960243
 30
0.0
 40
11.0
100
AcDbArc
 50
217.863646
 51
322.136354
  0
ARC
  5
C3
330
36
100
AcDbEntity
  8
0
 62
     3
100
AcDbCircle
 10
-82.567126
 20
82.960243
 30
0.0
 40
11.0
100
AcDbArc
 50
37.86364600000001
 51
142.136354
  0
LINE
  5
C4
330
36
100
AcDbEntity
  8
0
 62
     3
100
AcDbLine
 10
-75.01729199999998
 20
90.96024300000001
 30
0.0
 11
-76.067126
 21
90.96024300000001
 31
0.0
  0
LINE
  5
C5
330
36
100
AcDbEntity
  8
0
 62
     3
100
AcDbLine
 10
-89.067126
 20
90.96024300000001
 30
0.0
 11
-90.11696099999999
 21
90.96024300000001
 31
0.0
  0
LINE
  5
C6
330
36
100
AcDbEntity
  8
0
 62
     3
100
AcDbLine
 10
-75.01729199999998
 20
60.960243
 30
0.0
 11
-76.067126
 21
60.960243
 31
0.0
  0
LINE
  5
C7
330
36
100
AcDbEntity
  8
0
 62
     3
100
AcDbLine
 10
-89.067126
 20
60.960243
 30
0.0
 11
-90.11696099999999
 21
60.960243
 31
0.0
  0
LINE
  5
C8
330
36
100
AcDbEntity
  8
0
 62
     3
100
AcDbLine
 10
-90.067126
 20
66.460243
 30
0.0
 11
-90.067126
 21
85.460243
 31
0.0
  0
LINE
  5
C9
330
36
100
AcDbEntity
  8
0
 62
     3
100
AcDbLine
 10
-75.067126
 20
66.460243
 30
0.0
 11
-75.067126
 21
85.460243
 31
0.0
  0
ARC
  5
CA
330
36
100
AcDbEntity
  8
0
 62
     3
100
AcDbCircle
 10
-75.067126
 20
88.79119499999999
 30
0.0
 40
1.5
100
AcDbArc
 50
0.0
 51
37.86364600000001
  0
ARC
  5
CB
330
36
100
AcDbEntity
  8
0
 62
     3
100
AcDbCircle
 10
-90.067126
 20
88.79119499999999
 30
0.0
 40
1.5
100
AcDbArc
 50
142.136354
 51
180.0
  0
ARC
  5
CC
330
36
100
AcDbEntity
  8
0
 62
     3
100
AcDbCircle
 10
-90.067126
 20
63.129291
 30
0.0
 40
1.5
100
AcDbArc
 50
180.0
 51
217.863646
  0
ARC
  5
CD
330
36
100
AcDbEntity
  8
0
 62
     3
100
AcDbCircle
 10
-75.067126
 20
63.129291
 30
0.0
 40
1.5
100
AcDbArc
 50
322.136354
 51
0.0
  0
LINE
  5
CE
330
36
100
AcDbEntity
  8
0
 62
     3
100
AcDbLine
 10
-75.067126
 20
66.96024300000001
 30
0.0
 11
-73.567126
 21
66.96024300000001
 31
0.0
  0
LINE
  5
CF
330
36
100
AcDbEntity
  8
0
 62
     3
100
AcDbLine
 10
-90.067126
 20
85.71024300000003
 30
0.0
 11
-89.067126
 21
85.71024300000003
 31
0.0
  0
LINE
  5
D0
330
36
100
AcDbEntity
  8
0
 62
     3
100
AcDbLine
 10
-76.067126
 20
85.71024300000003
 30
0.0
 11
-75.067126
 21
85.71024300000003
 31
0.0
  0
LINE
  5
D1
330
36
100
AcDbEntity
  8
0
 62
     3
100
AcDbLine
 10
-76.067126
 20
66.21024300000001
 30
0.0
 11
-75.067126
 21
66.21024300000001
 31
0.0
  0
LINE
  5
D2
330
36
100
AcDbEntity
  8
0
 62
     3
100
AcDbLine
 10
-90.067126
 20
66.21024300000001
 30
0.0
 11
-89.067126
 21
66.21024300000001
 31
0.0
  0
LINE
  5
D3
330
36
100
AcDbEntity
  8
0
 62
     3
100
AcDbLine
 10
-90.067126
 20
66.460243
 30
0.0
 11
-90.067126
 21
66.21024300000001
 31
0.0
  0
LINE
  5
D4
330
36
100
AcDbEntity
  8
0
 62
     3
100
AcDbLine
 10
-75.067126
 20
66.460243
 30
0.0
 11
-75.067126
 21
66.21024300000001
 31
0.0
  0
LINE
  5
D5
330
36
100
AcDbEntity
  8
0
 62
     3
100
AcDbLine
 10
-75.067126
 20
85.460243
 30
0.0
 11
-75.067126
 21
85.71024300000003
 31
0.0
  0
LINE
  5
D6
330
36
100
AcDbEntity
  8
0
 62
     3
100
AcDbLine
 10
-90.067126
 20
85.460243
 30
0.0
 11
-90.067126
 21
85.71024300000003
 31
0.0
  0
LINE
  5
D7
330
36
100
AcDbEntity
  8
0
 62
     3
100
AcDbLine
 10
-76.21712600000002
 20
60.960243
 30
0.0
 11
-88.91712599999998
 21
60.960243
 31
0.0
  0
LINE
  5
D8
330
36
100
AcDbEntity
  8
0
 62
     3
100
AcDbLine
 10
-76.067126
 20
84.960243
 30
0.0
 11
-76.067126
 21
90.96024300000001
 31
0.0
  0
LINE
  5
D9
330
36
100
AcDbEntity
  8
0
 62
     3
100
AcDbLine
 10
-89.067126
 20
84.960243
 30
0.0
 11
-89.067126
 21
90.96024300000001
 31
0.0
  0
LINE
  5
DA
330
36
100
AcDbEntity
  8
0
 62
     3
100
AcDbLine
 10
-89.067126
 20
60.960243
 30
0.0
 11
-89.067126
 21
66.96024300000001
 31
0.0
  0
LINE
  5
DB
330
36
100
AcDbEntity
  8
0
 62
     3
100
AcDbLine
 10
-90.067126
 20
84.960243
 30
0.0
 11
-75.067126
 21
84.960243
 31
0.0
  0
LINE
  5
DC
330
36
100
AcDbEntity
  8
0
 62
     3
100
AcDbLine
 10
-90.067126
 20
66.96024300000001
 30
0.0
 11
-75.067126
 21
66.96024300000001
 31
0.0
  0
LINE
  5
DD
330
36
100
AcDbEntity
  8
0
 62
     3
100
AcDbLine
 10
-76.067126
 20
60.960243
 30
0.0
 11
-76.067126
 21
66.96024300000001
 31
0.0
  0
LINE
  5
DE
330
36
100
AcDbEntity
  8
0
 62
     3
100
AcDbLine
 10
-89.067126
 20
89.835243
 30
0.0
 11
-89.110694
 21
89.835243
 31
0.0
  0
LINE
  5
DF
330
36
100
AcDbEntity
  8
0
 62
     3
100
AcDbLine
 10
-89.067126
 20
88.085243
 30
0.0
 11
-89.110694
 21
88.085243
 31
0.0
  0
LINE
  5
E0
330
36
100
AcDbEntity
  8
0
 62
     3
100
AcDbLine
 10
-76.067126
 20
88.085243
 30
0.0
 11
-76.02355799999997
 21
88.085243
 31
0.0
  0
LINE
  5
E1
330
36
100
AcDbEntity
  8
0
 62
     3
100
AcDbLine
 10
-76.067126
 20
89.835243
 30
0.0
 11
-76.02355799999997
 21
89.835243
 31
0.0
  0
LINE
  5
E2
330
36
100
AcDbEntity
  8
0
 62
     3
100
AcDbLine
 10
-86.06712599999999
 20
92.87453499999999
 30
0.0
 11
-79.067126
 21
92.87453499999999
 31
0.0
  0
LINE
  5
E3
330
36
100
AcDbEntity
  8
0
 62
     3
100
AcDbLine
 10
-77.567126
 20
91.37453499999999
 30
0.0
 11
-77.567126
 21
88.960243
 31
0.0
  0
LINE
  5
E4
330
36
100
AcDbEntity
  8
0
 62
     3
100
AcDbLine
 10
-87.567126
 20
91.37453499999999
 30
0.0
 11
-87.567126
 21
88.960243
 31
0.0
  0
LINE
  5
E5
330
36
100
AcDbEntity
  8
0
 62
     3
100
AcDbLine
 10
-87.567126
 20
88.960243
 30
0.0
 11
-77.567126
 21
88.960243
 31
0.0
  0
LINE
  5
E6
330
36
100
AcDbEntity
  8
0
 62
     3
100
AcDbLine
 10
-88.91712599999998
 20
90.96024300000001
 30
0.0
 11
-87.567126
 21
90.96024300000001
 31
0.0
  0
LINE
  5
E7
330
36
100
AcDbEntity
  8
0
 62
     3
100
AcDbLine
 10
-76.21712600000002
 20
90.96024300000001
 30
0.0
 11
-77.567126
 21
90.96024300000001
 31
0.0
  0
ARC
  5
E8
330
36
100
AcDbEntity
  8
0
 62
     3
100
AcDbCircle
 10
-88.91712599999998
 20
61.110243
 30
0.0
 40
0.15
100
AcDbArc
 50
180.0
 51
270.0
  0
ARC
  5
E9
330
36
100
AcDbEntity
  8
0
 62
     3
100
AcDbCircle
 10
-76.21712600000002
 20
61.110243
 30
0.0
 40
0.15
100
AcDbArc
 50
270.0
 51
0.0
  0
ARC
  5
EA
330
36
100
AcDbEntity
  8
0
 62
     3
100
AcDbCircle
 10
-75.217126
 20
66.57356800000001
 30
0.0
 40
0.15
100
AcDbArc
 50
270.0
 51
0.0
  0
ARC
  5
EB
330
36
100
AcDbEntity
  8
0
 62
     3
100
AcDbCircle
 10
-89.91712599999997
 20
66.57356800000001
 30
0.0
 40
0.15
100
AcDbArc
 50
180.0
 51
270.0
  0
ARC
  5
EC
330
36
100
AcDbEntity
  8
0
 62
     3
100
AcDbCircle
 10
-76.21712600000002
 20
90.81024300000001
 30
0.0
 40
0.15
100
AcDbArc
 50
0.0
 51
90.0
  0
ARC
  5
ED
330
36
100
AcDbEntity
  8
0
 62
     3
100
AcDbCircle
 10
-88.91712599999998
 20
90.81024300000001
 30
0.0
 40
0.15
100
AcDbArc
 50
90.0
 51
180.0
  0
ARC
  5
EE
330
36
100
AcDbEntity
  8
0
 62
     3
100
AcDbCircle
 10
-79.067126
 20
91.37453499999999
 30
0.0
 40
1.5
100
AcDbArc
 50
0.0
 51
90.0
  0
LINE
  5
EF
330
36
100
AcDbEntity
  8
0
  6
HIDDEN
 62
    15
100
AcDbLine
 10
-79.067126
 20
92.87453499999999
 30
0.0
 11
-78.567126
 21
92.87453499999999
 31
0.0
  0
ARC
  5
F0
330
36
100
AcDbEntity
  8
0
 62
     3
100
AcDbCircle
 10
-86.06712599999999
 20
91.37453499999999
 30
0.0
 40
1.5
100
AcDbArc
 50
90.0
 51
180.0
  0
LINE
  5
F1
330
36
100
AcDbEntity
  8
0
  6
HIDDEN
 62
    15
100
AcDbLine
 10
-86.06712599999999
 20
92.87453499999999
 30
0.0
 11
-86.567126
 21
92.87453499999999
 31
0.0
  0
LINE
  5
F2
330
36
100
AcDbEntity
  8
0
 62
     3
100
AcDbLine
 10
49.090495
 20
36.785832
 30
0.0
 11
44.285829
 21
28.463906
 31
0.0
  0
ARC
  5
F3
330
36
100
AcDbEntity
  8
0
 62
     3
100
AcDbCircle
 10
44.760368
 20
39.285832
 30
0.0
 40
5.0
100
AcDbArc
 50
330.0
 51
0.0
  0
ARC
  5
F4
330
36
100
AcDbEntity
  8
0
 62
     3
100
AcDbCircle
 10
44.760368
 20
39.285832
 30
0.0
 40
6.5
100
AcDbArc
 50
330.0
 51
0.0
  0
LINE
  5
F5
330
36
100
AcDbEntity
  8
0
 62
     3
100
AcDbLine
 10
50.389533
 20
36.035832
 30
0.0
 11
45.58486699999998
 21
27.713906
 31
0.0
  0
LINE
  5
F6
330
36
100
AcDbEntity
  8
0
 62
     3
100
AcDbLine
 10
29.36641
 20
23.702951
 30
0.0
 11
29.36641
 21
97.19909100000002
 31
0.0
  0
ARC
  5
F7
330
36
100
AcDbEntity
  8
0
 62
     3
100
AcDbCircle
 10
32.09141
 20
97.19909100000002
 30
0.0
 40
2.725
100
AcDbArc
 50
0.0
 51
180.0
  0
ARC
  5
F8
330
36
100
AcDbEntity
  8
0
 62
     3
100
AcDbCircle
 10
37.54141
 20
97.19909100000002
 30
0.0
 40
2.725
100
AcDbArc
 50
0.000003
 51
180.0
  0
LINE
  5
F9
330
36
100
AcDbEntity
  8
0
100
AcDbLine
 10
-45.567126
 20
54.08236500000001
 30
0.0
 11
-49.817126
 21
54.08236500000001
 31
0.0
  0
LINE
  5
FA
330
36
100
AcDbEntity
  8
0
100
AcDbLine
 10
-45.567126
 20
49.832365
 30
0.0
 11
-45.567126
 21
54.08236500000001
 31
0.0
  0
LINE
  5
FB
330
36
100
AcDbEntity
  8
0
100
AcDbLine
 10
-44.192126
 20
55.457365
 30
0.0
 11
-45.567126
 21
54.08236500000001
 31
0.0
  0
LINE
  5
FC
330
36
100
AcDbEntity
  8
0
100
AcDbLine
 10
-45.567126
 20
49.832365
 30
0.0
 11
-44.192126
 21
48.45736500000001
 31
0.0
  0
LINE
  5
FD
330
36
100
AcDbEntity
  8
0
100
AcDbLine
 10
-45.567126
 20
49.832365
 30
0.0
 11
-49.817126
 21
49.832365
 31
0.0
  0
LINE
  5
FE
330
36
100
AcDbEntity
  8
0
100
AcDbLine
 10
-49.817126
 20
49.832365
 30
0.0
 11
-49.817126
 21
54.08236500000001
 31
0.0
  0
LINE
  5
FF
330
36
100
AcDbEntity
  8
0
100
AcDbLine
 10
-49.817126
 20
49.832365
 30
0.0
 11
-51.192126
 21
48.45736500000001
 31
0.0
  0
LINE
  5
100
330
36
100
AcDbEntity
  8
0
100
AcDbLine
 10
-51.192126
 20
55.457365
 30
0.0
 11
-49.817126
 21
54.08236500000001
 31
0.0
  0
LINE
  5
101
330
36
100
AcDbEntity
  8
0
100
AcDbLine
 10
-60.192126
 20
49.957365
 30
0.0
 11
-60.192126
 21
53.957365
 31
0.0
  0
LINE
  5
102
330
36
100
AcDbEntity
  8
0
100
AcDbLine
 10
-55.067126
 20
53.957365
 30
0.0
 11
-65.317126
 21
53.957365
 31
0.0
  0
LINE
  5
103
330
36
100
AcDbEntity
  8
0
100
AcDbLine
 10
-55.067126
 20
53.957365
 30
0.0
 11
-53.942126
 21
54.957365
 31
0.0
  0
LINE
  5
104
330
36
100
AcDbEntity
  8
0
100
AcDbLine
 10
-55.067126
 20
49.957365
 30
0.0
 11
-55.067126
 21
53.957365
 31
0.0
  0
LINE
  5
105
330
36
100
AcDbEntity
  8
0
100
AcDbLine
 10
-55.067126
 20
49.957365
 30
0.0
 11
-65.317126
 21
49.957365
 31
0.0
  0
LINE
  5
106
330
36
100
AcDbEntity
  8
0
100
AcDbLine
 10
-55.067126
 20
49.957365
 30
0.0
 11
-53.942126
 21
48.957365
 31
0.0
  0
LINE
  5
107
330
36
100
AcDbEntity
  8
0
100
AcDbLine
 10
-65.317126
 20
49.957365
 30
0.0
 11
-66.442126
 21
48.957365
 31
0.0
  0
LINE
  5
108
330
36
100
AcDbEntity
  8
0
100
AcDbLine
 10
-65.317126
 20
49.957365
 30
0.0
 11
-65.317126
 21
53.957365
 31
0.0
  0
LINE
  5
109
330
36
100
AcDbEntity
  8
0
100
AcDbLine
 10
-66.442126
 20
54.957365
 30
0.0
 11
-65.317126
 21
53.957365
 31
0.0
  0
LINE
  5
10A
330
36
100
AcDbEntity
  8
0
100
AcDbLine
 10
-70.79212599999998
 20
47.60798799999998
 30
0.0
 11
-70.79212599999998
 21
56.30694899999999
 31
0.0
  0
LINE
  5
10B
330
36
100
AcDbEntity
  8
0
100
AcDbLine
 10
-70.79212599999998
 20
56.30694899999999
 30
0.0
 11
-94.29370199999999
 21
56.30694899999999
 31
0.0
  0
LINE
  5
10C
330
36
100
AcDbEntity
  8
0
100
AcDbLine
 10
-70.79212599999998
 20
47.60798799999998
 30
0.0
 11
-94.29370199999999
 21
47.60798799999998
 31
0.0
  0
LINE
  5
10D
330
36
100
AcDbEntity
  8
0
100
AcDbLine
 10
-98.30708000000001
 20
-24.846491
 30
0.0
 11
-36.80708
 21
-24.846491
 31
0.0
  0
LINE
  5
10E
330
36
100
AcDbEntity
  8
0
100
AcDbLine
 10
-98.30708000000001
 20
-24.846491
 30
0.0
 11
-98.30708000000001
 21
9.403508999999999
 31
0.0
  0
LINE
  5
10F
330
36
100
AcDbEntity
  8
0
100
AcDbLine
 10
-100.055933
 20
-26.471618
 30
0.0
 11
-98.30708000000001
 21
-24.846491
 31
0.0
  0
LINE
  5
110
330
36
100
AcDbEntity
  8
0
100
AcDbLine
 10
-98.30708000000001
 20
9.403508999999999
 30
0.0
 11
-36.80708
 21
9.403508999999999
 31
0.0
  0
LINE
  5
111
330
36
100
AcDbEntity
  8
0
100
AcDbLine
 10
-98.30708000000001
 20
9.403508999999999
 30
0.0
 11
-100.055933
 21
11.028382
 31
0.0
  0
LINE
  5
112
330
36
100
AcDbEntity
  8
0
100
AcDbLine
 10
-36.80708
 20
-24.846491
 30
0.0
 11
-36.80708
 21
9.403508999999999
 31
0.0
  0
LINE
  5
113
330
36
100
AcDbEntity
  8
0
100
AcDbLine
 10
-36.80708
 20
9.403508999999999
 30
0.0
 11
-35.05593300000001
 21
11.028382
 31
0.0
  0
LINE
  5
114
330
36
100
AcDbEntity
  8
0
100
AcDbLine
 10
-36.80708
 20
-24.846491
 30
0.0
 11
-35.05593300000001
 21
-26.471618
 31
0.0
  0
TEXT
  5
115
330
36
100
AcDbEntity
  8
0
 62
     3
100
AcDbText
 10
-172.462379
 20
-110.451307
 30
0.0
 40
3.2
  1
警報ブザー
 41
0.8
  7
高3.2
100
AcDbText
  0
TEXT
  5
116
330
36
100
AcDbEntity
  8
0
 62
     3
100
AcDbText
 10
-172.462379
 20
-95.45130700000004
 30
0.0
 40
3.2
  1
電源ランプ
 41
0.8
  7
高3.2
100
AcDbText
  0
TEXT
  5
117
330
36
100
AcDbEntity
  8
0
 62
     3
100
AcDbText
 10
-172.462379
 20
-100.451307
 30
0.0
 40
3.2
  1
アースチェックボタン
 41
0.8
  7
高3.2
100
AcDbText
  0
LINE
  5
119
330
36
100
AcDbEntity
  8
0
100
AcDbLine
 10
-64.03923299999999
 20
120.090342
 30
0.0
 11
-61.375636
 21
120.090342
 31
0.0
  0
LINE
  5
11A
330
36
100
AcDbEntity
  8
0
100
AcDbLine
 10
-61.375636
 20
120.090342
 30
0.0
 11
-60.927554
 21
121.882669
 31
0.0
  0
LINE
  5
11B
330
36
100
AcDbEntity
  8
0
100
AcDbLine
 10
-60.006497
 20
118.148654
 30
0.0
 11
-60.927554
 21
121.882669
 31
0.0
  0
LINE
  5
11C
330
36
100
AcDbEntity
  8
0
100
AcDbLine
 10
-60.006497
 20
118.148654
 30
0.0
 11
-59.508628
 21
120.140129
 31
0.0
  0
LINE
  5
11D
330
36
100
AcDbEntity
  8
0
100
AcDbLine
 10
-59.508628
 20
120.140129
 30
0.0
 11
-56.64588399999999
 21
120.140129
 31
0.0
  0
TEXT
  5
11E
330
36
100
AcDbEntity
  8
0
 62
     3
100
AcDbText
 10
-172.462379
 20
-75.45130700000004
 30
0.0
 40
3.2
  1
アース補助線
 41
0.8
  7
高3.2
100
AcDbText
  0
LINE
  5
11F
330
36
100
AcDbEntity
  8
0
 62
     4
100
AcDbLine
 10
-51.691121
 20
68.95718399999998
 30
0.0
 11
-50.691121
 21
70.457184
 31
0.0
  0
LINE
  5
120
330
36
100
AcDbEntity
  8
0
 62
     4
100
AcDbLine
 10
-51.691121
 20
68.95718399999998
 30
0.0
 11
-52.691121
 21
70.457184
 31
0.0
  0
LINE
  5
121
330
36
100
AcDbEntity
  8
0
 62
     4
100
AcDbLine
 10
-56.19112099999998
 20
70.457184
 30
0.0
 11
-55.191121
 21
68.95718399999998
 31
0.0
  0
LINE
  5
122
330
36
100
AcDbEntity
  8
0
 62
     4
100
AcDbLine
 10
-55.191121
 20
68.95718399999998
 30
0.0
 11
-54.19112099999999
 21
70.457184
 31
0.0
  0
LINE
  5
123
330
36
100
AcDbEntity
  8
0
 62
     4
100
AcDbLine
 10
-57.691121
 20
70.457184
 30
0.0
 11
-58.69112099999998
 21
68.95718399999998
 31
0.0
  0
LINE
  5
124
330
36
100
AcDbEntity
  8
0
 62
     4
100
AcDbLine
 10
-58.69112099999998
 20
68.95718399999998
 30
0.0
 11
-59.691121
 21
70.457184
 31
0.0
  0
LINE
  5
125
330
36
100
AcDbEntity
  8
0
 62
     4
100
AcDbLine
 10
-71.69112099999998
 20
70.20718399999998
 30
0.0
 11
-71.69112099999998
 21
74.207184
 31
0.0
  0
LINE
  5
126
330
36
100
AcDbEntity
  8
0
 62
     4
100
AcDbLine
 10
-52.191121
 20
70.457184
 30
0.0
 11
-52.191121
 21
72.70718399999998
 31
0.0
  0
LINE
  5
127
330
36
100
AcDbEntity
  8
0
 62
     4
100
AcDbLine
 10
-51.191121
 20
70.457184
 30
0.0
 11
-51.191121
 21
71.707184
 31
0.0
  0
LINE
  5
128
330
36
100
AcDbEntity
  8
0
 62
     4
100
AcDbLine
 10
-54.691121
 20
70.457184
 30
0.0
 11
-54.691121
 21
73.40485
 31
0.0
  0
LINE
  5
129
330
36
100
AcDbEntity
  8
0
 62
     4
100
AcDbLine
 10
-55.69112099999999
 20
70.457184
 30
0.0
 11
-55.69112099999999
 21
73.40485
 31
0.0
  0
LINE
  5
12A
330
36
100
AcDbEntity
  8
0
 62
     4
100
AcDbLine
 10
-58.19112099999999
 20
70.457184
 30
0.0
 11
-58.19112099999999
 21
72.70718399999998
 31
0.0
  0
LINE
  5
12B
330
36
100
AcDbEntity
  8
0
 62
     4
100
AcDbLine
 10
-59.19112099999999
 20
70.457184
 30
0.0
 11
-59.19112099999999
 21
71.707184
 31
0.0
  0
LINE
  5
12C
330
36
100
AcDbEntity
  8
0
 62
     4
100
AcDbLine
 10
-52.691121
 20
70.457184
 30
0.0
 11
-52.191121
 21
70.457184
 31
0.0
  0
LINE
  5
12D
330
36
100
AcDbEntity
  8
0
 62
     4
100
AcDbLine
 10
-51.191121
 20
70.457184
 30
0.0
 11
-50.691121
 21
70.457184
 31
0.0
  0
LINE
  5
12E
330
36
100
AcDbEntity
  8
0
 62
     4
100
AcDbLine
 10
-59.691121
 20
70.457184
 30
0.0
 11
-59.19112099999999
 21
70.457184
 31
0.0
  0
LINE
  5
12F
330
36
100
AcDbEntity
  8
0
 62
     4
100
AcDbLine
 10
-58.19112099999999
 20
70.457184
 30
0.0
 11
-57.691121
 21
70.457184
 31
0.0
  0
LINE
  5
130
330
36
100
AcDbEntity
  8
0
 62
     4
100
AcDbLine
 10
-62.191121
 20
70.20718399999998
 30
0.0
 11
-62.191121
 21
71.707184
 31
0.0
  0
LINE
  5
131
330
36
100
AcDbEntity
  8
0
 62
     4
100
AcDbLine
 10
-71.19112099999998
 20
69.70718399999999
 30
0.0
 11
-62.691121
 21
69.70718399999999
 31
0.0
  0
LINE
  5
132
330
36
100
AcDbEntity
  8
0
 62
     4
100
AcDbLine
 10
-48.191121
 20
71.750058
 30
0.0
 11
-51.191121
 21
71.750058
 31
0.0
  0
LINE
  5
133
330
36
100
AcDbEntity
  8
0
 62
     4
100
AcDbLine
 10
-59.19112099999999
 20
71.750058
 30
0.0
 11
-62.191121
 21
71.750058
 31
0.0
  0
LINE
  5
134
330
36
100
AcDbEntity
  8
0
 62
     4
100
AcDbLine
 10
-48.191121
 20
72.70718399999998
 30
0.0
 11
-52.191121
 21
72.70718399999998
 31
0.0
  0
LINE
  5
135
330
36
100
AcDbEntity
  8
0
 62
     4
100
AcDbLine
 10
-58.19112099999999
 20
72.70718399999998
 30
0.0
 11
-62.191121
 21
72.70718399999998
 31
0.0
  0
LINE
  5
136
330
36
100
AcDbEntity
  8
0
 62
     4
100
AcDbLine
 10
-61.19112099999998
 20
73.40485
 30
0.0
 11
-55.69112099999999
 21
73.40485
 31
0.0
  0
LINE
  5
137
330
36
100
AcDbEntity
  8
0
 62
     4
100
AcDbLine
 10
-49.191121
 20
73.40485
 30
0.0
 11
-54.691121
 21
73.40485
 31
0.0
  0
ARC
  5
138
330
36
100
AcDbEntity
  8
0
 62
     4
100
AcDbCircle
 10
-62.691121
 20
70.20718399999998
 30
0.0
 40
0.5
100
AcDbArc
 50
270.0
 51
0.0
  0
ARC
  5
139
330
36
100
AcDbEntity
  8
0
 62
     4
100
AcDbCircle
 10
-71.19112099999998
 20
74.207184
 30
0.0
 40
0.5
100
AcDbArc
 50
90.0
 51
180.0
  0
ARC
  5
13A
330
36
100
AcDbEntity
  8
0
 62
     4
100
AcDbCircle
 10
-71.19112099999998
 20
70.20718399999998
 30
0.0
 40
0.5
100
AcDbArc
 50
180.0
 51
270.0
  0
LINE
  5
13B
330
36
100
AcDbEntity
  8
0
 62
     4
100
AcDbLine
 10
-56.19112099999998
 20
70.457184
 30
0.0
 11
-55.69112099999999
 21
70.457184
 31
0.0
  0
LINE
  5
13C
330
36
100
AcDbEntity
  8
0
 62
     4
100
AcDbLine
 10
-54.691121
 20
70.457184
 30
0.0
 11
-54.19112099999999
 21
70.457184
 31
0.0
  0
TEXT
  5
13D
330
36
100
AcDbEntity
  8
0
 62
     4
100
AcDbText
 10
-71.19112099999998
 20
70.08019799999999
 30
0.0
 40
2.0
  1
電
 41
0.875
100
AcDbText
  0
TEXT
  5
13E
330
36
100
AcDbEntity
  8
0
 62
     4
100
AcDbText
 10
-67.816121
 20
70.08019899999999
 30
0.0
 40
2.0
  1
源
 41
0.875
100
AcDbText
  0
TEXT
  5
13F
330
36
100
AcDbEntity
  8
0
 62
     4
100
AcDbText
 10
-64.44112099999999
 20
70.08019899999999
 30
0.0
 40
2.0
  1
切
 41
0.875
100
AcDbText
  0
LINE
  5
140
330
36
100
AcDbEntity
  8
0
 62
     4
100
AcDbLine
 10
-48.191121
 20
74.207184
 30
0.0
 11
-48.191121
 21
72.70718399999998
 31
0.0
  0
LINE
  5
141
330
36
100
AcDbEntity
  8
0
 62
     4
100
AcDbLine
 10
-48.691121
 20
73.90484999999998
 30
0.0
 11
-48.691121
 21
77.15485
 31
0.0
  0
LINE
  5
142
330
36
100
AcDbEntity
  8
0
 62
     4
100
AcDbLine
 10
-61.19112099999998
 20
77.65484999999998
 30
0.0
 11
-49.191121
 21
77.65484999999998
 31
0.0
  0
ARC
  5
143
330
36
100
AcDbEntity
  8
0
 62
     4
100
AcDbCircle
 10
-47.691121
 20
74.207184
 30
0.0
 40
0.5
100
AcDbArc
 50
90.0
 51
180.0
  0
ARC
  5
144
330
36
100
AcDbEntity
  8
0
 62
     4
100
AcDbCircle
 10
-49.191121
 20
77.15485
 30
0.0
 40
0.5
100
AcDbArc
 50
0.0
 51
90.0
  0
ARC
  5
145
330
36
100
AcDbEntity
  8
0
 62
     4
100
AcDbCircle
 10
-49.191121
 20
73.90484999999998
 30
0.0
 40
0.5
100
AcDbArc
 50
270.0
 51
0.0
  0
ARC
  5
146
330
36
100
AcDbEntity
  8
0
 62
     4
100
AcDbCircle
 10
-61.19112099999998
 20
77.15485
 30
0.0
 40
0.5
100
AcDbArc
 50
90.0
 51
180.0
  0
TEXT
  5
147
330
36
100
AcDbEntity
  8
0
 62
     4
100
AcDbText
 10
-71.19112099999998
 20
72.332184
 30
0.0
 40
2.0
  1
警報ブザ－
 41
0.7552080000000001
100
AcDbText
  0
LINE
  5
148
330
36
100
AcDbEntity
  8
0
 62
     4
100
AcDbLine
 10
-62.191121
 20
74.207184
 30
0.0
 11
-62.191121
 21
72.70718399999998
 31
0.0
  0
LINE
  5
149
330
36
100
AcDbEntity
  8
0
 62
     4
100
AcDbLine
 10
-71.19112099999998
 20
74.70718399999999
 30
0.0
 11
-62.691121
 21
74.70718399999999
 31
0.0
  0
TEXT
  5
14A
330
36
100
AcDbEntity
  8
0
 62
     4
100
AcDbText
 10
-61.31612099999999
 20
73.55718399999997
 30
0.0
 40
2.0
  1
１００Ｖ使用可
 41
0.729167
100
AcDbText
  0
LINE
  5
14B
330
36
100
AcDbEntity
  8
0
 62
     4
100
AcDbLine
 10
-61.69112099999999
 20
73.90484999999998
 30
0.0
 11
-61.69112099999999
 21
77.15485
 31
0.0
  0
ARC
  5
14C
330
36
100
AcDbEntity
  8
0
 62
     4
100
AcDbCircle
 10
-62.691121
 20
74.207184
 30
0.0
 40
0.5
100
AcDbArc
 50
0.0
 51
90.0
  0
ARC
  5
14D
330
36
100
AcDbEntity
  8
0
 62
     4
100
AcDbCircle
 10
-61.19112099999998
 20
73.90484999999998
 30
0.0
 40
0.5
100
AcDbArc
 50
180.0
 51
270.0
  0
TEXT
  5
14E
330
36
100
AcDbEntity
  8
0
 62
     4
100
AcDbText
 10
-60.44112099999999
 20
75.55718399999998
 30
0.0
 40
2.0
  1
警報ブザ－切
 41
0.729167
100
AcDbText
  0
TEXT
  5
14F
330
36
100
AcDbEntity
  8
0
 62
     4
100
AcDbText
 10
-47.64112100000001
 20
71.207184
 30
0.0
 40
2.0
  1
警報ブザ－
 41
0.729167
100
AcDbText
  0
LINE
  5
150
330
36
100
AcDbEntity
  8
0
 62
     4
100
AcDbLine
 10
-39.191121
 20
69.70718399999999
 30
0.0
 11
-47.691121
 21
69.70718399999999
 31
0.0
  0
LINE
  5
151
330
36
100
AcDbEntity
  8
0
 62
     4
100
AcDbLine
 10
-48.191121
 20
70.20718399999998
 30
0.0
 11
-48.191121
 21
71.707184
 31
0.0
  0
ARC
  5
152
330
36
100
AcDbEntity
  8
0
 62
     4
100
AcDbCircle
 10
-47.691121
 20
70.20718399999998
 30
0.0
 40
0.5
100
AcDbArc
 50
180.0
 51
270.0
  0
LINE
  5
153
330
36
100
AcDbEntity
  8
0
 62
     4
100
AcDbLine
 10
-38.691121
 20
70.20718399999998
 30
0.0
 11
-38.691121
 21
74.207184
 31
0.0
  0
LINE
  5
154
330
36
100
AcDbEntity
  8
0
 62
     4
100
AcDbLine
 10
-39.191121
 20
74.70718399999999
 30
0.0
 11
-47.691121
 21
74.70718399999999
 31
0.0
  0
ARC
  5
155
330
36
100
AcDbEntity
  8
0
 62
     4
100
AcDbCircle
 10
-39.191121
 20
70.20718399999998
 30
0.0
 40
0.5
100
AcDbArc
 50
270.0
 51
0.0
  0
ARC
  5
156
330
36
100
AcDbEntity
  8
0
 62
     4
100
AcDbCircle
 10
-39.191121
 20
74.207184
 30
0.0
 40
0.5
100
AcDbArc
 50
0.0
 51
90.0
  0
TEXT
  5
157
330
36
100
AcDbEntity
  8
0
 62
     4
100
AcDbText
 10
-61.521176
 20
56.885868
 30
0.0
 40
2.0
  1
ア－スチェック
 41
0.833333
100
AcDbText
  0
LINE
  5
158
330
36
100
AcDbEntity
  8
0
 62
     4
100
AcDbLine
 10
-62.05422900000001
 20
59.635868
 30
0.0
 11
-47.554229
 21
59.635868
 31
0.0
  0
LINE
  5
159
330
36
100
AcDbEntity
  8
0
 62
     4
100
AcDbLine
 10
-47.554229
 20
56.135868
 30
0.0
 11
-62.05422900000001
 21
56.135868
 31
0.0
  0
ARC
  5
15A
330
36
100
AcDbEntity
  8
0
 62
     4
100
AcDbCircle
 10
-62.05422900000001
 20
59.135868
 30
0.0
 40
0.5
100
AcDbArc
 50
90.0
 51
180.0
  0
LINE
  5
15B
330
36
100
AcDbEntity
  8
0
 62
     4
100
AcDbLine
 10
-62.55422900000001
 20
56.635868
 30
0.0
 11
-62.55422900000001
 21
59.135868
 31
0.0
  0
ARC
  5
15C
330
36
100
AcDbEntity
  8
0
 62
     4
100
AcDbCircle
 10
-62.05422900000001
 20
56.635868
 30
0.0
 40
0.5
100
AcDbArc
 50
180.0
 51
270.0
  0
LINE
  5
15D
330
36
100
AcDbEntity
  8
0
 62
     4
100
AcDbLine
 10
-47.054229
 20
56.635868
 30
0.0
 11
-47.054229
 21
59.135868
 31
0.0
  0
ARC
  5
15E
330
36
100
AcDbEntity
  8
0
 62
     4
100
AcDbCircle
 10
-47.554229
 20
59.135868
 30
0.0
 40
0.5
100
AcDbArc
 50
0.0
 51
90.0
  0
ARC
  5
15F
330
36
100
AcDbEntity
  8
0
 62
     4
100
AcDbCircle
 10
-47.554229
 20
56.635868
 30
0.0
 40
0.5
100
AcDbArc
 50
270.0
 51
0.0
  0
TEXT
  5
160
330
36
100
AcDbEntity
  8
0
 62
     4
100
AcDbText
 10
-94.19370200000001
 20
48.48736500000001
 30
0.0
 40
2.0
  1
にする迄鳴り続けます。
 41
0.729167
100
AcDbText
  0
TEXT
  5
161
330
36
100
AcDbEntity
  8
0
 62
     4
100
AcDbText
 10
-94.043702
 20
50.98736500000001
 30
0.0
 40
2.0
  1
警報ブザ－はセンサ－機能切
 41
0.729167
100
AcDbText
  0
TEXT
  5
162
330
36
100
AcDbEntity
  8
0
 62
     4
100
AcDbText
 10
-92.91791399999999
 20
53.306949
 30
0.0
 40
2.0
  1
［金属類を感知した場合］
 41
0.729167
100
AcDbText
  0
LINE
  5
163
330
36
100
AcDbEntity
  8
0
 62
     4
100
AcDbLine
 10
-94.29370199999999
 20
56.30694899999999
 30
0.0
 11
-94.29370199999999
 21
47.60798799999998
 31
0.0
  0
LINE
  5
164
330
36
100
AcDbEntity
  8
0
 62
     4
100
AcDbLine
 10
-60.192126
 20
94.710912
 30
0.0
 11
-50.192126
 21
94.710912
 31
0.0
  0
LINE
  5
165
330
36
100
AcDbEntity
  8
0
 62
     4
100
AcDbLine
 10
-60.192126
 20
98.21091199999999
 30
0.0
 11
-50.192126
 21
98.21091199999999
 31
0.0
  0
TEXT
  5
166
330
36
100
AcDbEntity
  8
0
 62
     4
100
AcDbText
 10
-60.192126
 20
95.46091199999999
 30
0.0
 40
2.0
  1
警報ブザ－
 41
0.833333
100
AcDbText
  0
LINE
  5
167
330
36
100
AcDbEntity
  8
0
 62
     4
100
AcDbLine
 10
-60.692126
 20
95.21091199999998
 30
0.0
 11
-60.692126
 21
97.710912
 31
0.0
  0
LINE
  5
168
330
36
100
AcDbEntity
  8
0
 62
     4
100
AcDbLine
 10
-49.692126
 20
95.21091199999998
 30
0.0
 11
-49.692126
 21
97.710912
 31
0.0
  0
ARC
  5
169
330
36
100
AcDbEntity
  8
0
 62
     4
100
AcDbCircle
 10
-50.192126
 20
97.710912
 30
0.0
 40
0.5
100
AcDbArc
 50
0.0
 51
90.0
  0
ARC
  5
16A
330
36
100
AcDbEntity
  8
0
 62
     4
100
AcDbCircle
 10
-50.192126
 20
95.21091199999998
 30
0.0
 40
0.5
100
AcDbArc
 50
270.0
 51
0.0
  0
ARC
  5
16B
330
36
100
AcDbEntity
  8
0
 62
     4
100
AcDbCircle
 10
-60.192126
 20
97.710912
 30
0.0
 40
0.5
100
AcDbArc
 50
90.0
 51
180.0
  0
ARC
  5
16C
330
36
100
AcDbEntity
  8
0
 62
     4
100
AcDbCircle
 10
-60.192126
 20
95.21091199999998
 30
0.0
 40
0.5
100
AcDbArc
 50
180.0
 51
270.0
  0
TEXT
  5
16D
330
36
100
AcDbEntity
  8
0
 62
     4
100
AcDbText
 10
-55.693702
 20
35.210488
 30
0.0
 40
2.5
  1
日動工業株式会社
 41
0.75
100
AcDbText
  0
LINE
  5
16E
330
36
100
AcDbEntity
  8
0
 62
     4
100
AcDbLine
 10
-57.068702
 20
36.960488
 30
0.0
 11
-57.068702
 21
35.468331
 31
0.0
  0
LINE
  5
16F
330
36
100
AcDbEntity
  8
0
 62
     4
100
AcDbLine
 10
-56.818702
 20
37.45264500000001
 30
0.0
 11
-56.818702
 21
35.960488
 31
0.0
  0
ARC
  5
170
330
36
100
AcDbEntity
  8
0
 62
     4
100
AcDbCircle
 10
-56.943702
 20
36.460488
 30
0.0
 40
1.0
100
AcDbArc
 50
277.463303
 51
22.536697
  0
LINE
  5
171
330
36
100
AcDbEntity
  8
0
 62
     4
100
AcDbLine
 10
-56.818702
 20
35.960488
 30
0.0
 11
-56.065138
 21
36.938112
 31
0.0
  0
LINE
  5
172
330
36
100
AcDbEntity
  8
0
 62
     4
100
AcDbLine
 10
-55.901415
 20
37.15051500000001
 30
0.0
 11
-55.66853
 21
37.45264500000001
 31
0.0
  0
LINE
  5
173
330
36
100
AcDbEntity
  8
0
 62
     4
100
AcDbLine
 10
-55.693702
 20
37.409045
 30
0.0
 11
-55.870925
 21
37.102087
 31
0.0
  0
LINE
  5
174
330
36
100
AcDbEntity
  8
0
 62
     4
100
AcDbLine
 10
-56.020068
 20
36.843763
 30
0.0
 11
-56.818702
 21
35.460488
 31
0.0
  0
ARC
  5
175
330
36
100
AcDbEntity
  8
0
 62
     4
100
AcDbCircle
 10
-56.943702
 20
36.460488
 30
0.0
 40
1.0
100
AcDbArc
 50
208.726286
 51
262.819244
  0
ARC
  5
176
330
36
100
AcDbEntity
  8
0
 62
     4
100
AcDbCircle
 10
-56.943702
 20
36.460488
 30
0.0
 40
1.25
100
AcDbArc
 50
33.505823
 51
211.088032
  0
ARC
  5
177
330
36
100
AcDbEntity
  8
0
 62
     4
100
AcDbCircle
 10
-56.943702
 20
36.460488
 30
0.0
 40
1.25
100
AcDbArc
 50
213.6902529999999
 51
30.88248
  0
LINE
  5
178
330
36
100
AcDbEntity
  8
0
 62
     4
100
AcDbLine
 10
-58.218874
 20
35.460488
 30
0.0
 11
-57.98376300000001
 21
35.76710999999999
 31
0.0
  0
LINE
  5
179
330
36
100
AcDbEntity
  8
0
 62
     4
100
AcDbLine
 10
-57.820628
 20
35.979862
 30
0.0
 11
-57.068702
 21
36.960488
 31
0.0
  0
LINE
  5
17A
330
36
100
AcDbEntity
  8
0
 62
     4
100
AcDbLine
 10
-58.193702
 20
35.504088
 30
0.0
 11
-58.014171
 21
35.815045
 31
0.0
  0
LINE
  5
17B
330
36
100
AcDbEntity
  8
0
 62
     4
100
AcDbLine
 10
-57.865435
 20
36.072663
 30
0.0
 11
-57.068702
 21
37.45264500000001
 31
0.0
  0
ARC
  5
17C
330
36
100
AcDbEntity
  8
0
 62
     4
100
AcDbCircle
 10
-56.943702
 20
36.460488
 30
0.0
 40
1.0
100
AcDbArc
 50
28.530341
 51
82.81924399999999
  0
ARC
  5
17D
330
36
100
AcDbEntity
  8
0
 62
     4
100
AcDbCircle
 10
-56.943702
 20
36.460488
 30
0.0
 40
1.0
100
AcDbArc
 50
97.180756
 51
202.819244
  0
TEXT
  5
17E
330
36
100
AcDbEntity
  8
0
 62
     3
100
AcDbText
 10
-172.462379
 20
-105.451307
 30
0.0
 40
3.2
  1
作動切替スイッチ
 41
0.8
  7
高3.2
100
AcDbText
  0
LINE
  5
17F
330
36
100
AcDbEntity
  8
0
 62
     3
100
AcDbLine
 10
96.80665199999999
 20
-35.847681
 30
0.0
 11
143.5370883350697
 21
-35.847681
 31
0.0
  0
LINE
  5
180
330
36
100
AcDbEntity
  8
0
 62
     3
100
AcDbLine
 10
-82.88093299999998
 20
-3.221490999999998
 30
0.0
 11
-82.88093299999998
 21
-5.471491
 31
0.0
  0
LINE
  5
181
330
36
100
AcDbEntity
  8
0
 62
     3
100
AcDbLine
 10
-75.38093299999998
 20
-3.221490999999998
 30
0.0
 11
-75.38093299999998
 21
-5.471491
 31
0.0
  0
LINE
  5
182
330
36
100
AcDbEntity
  8
0
 62
     3
100
AcDbLine
 10
-75.880933
 20
-5.971491
 30
0.0
 11
-82.380933
 21
-5.971491
 31
0.0
  0
LINE
  5
183
330
36
100
AcDbEntity
  8
0
 62
     3
100
AcDbLine
 10
-82.380933
 20
-2.721490999999998
 30
0.0
 11
-75.880933
 21
-2.721490999999998
 31
0.0
  0
ARC
  5
184
330
36
100
AcDbEntity
  8
0
 62
     3
100
AcDbCircle
 10
-82.380933
 20
-5.471491
 30
0.0
 40
0.5
100
AcDbArc
 50
180.0
 51
270.0
  0
ARC
  5
185
330
36
100
AcDbEntity
  8
0
 62
     3
100
AcDbCircle
 10
-75.880933
 20
-5.471491
 30
0.0
 40
0.5
100
AcDbArc
 50
270.0
 51
0.0
  0
ARC
  5
186
330
36
100
AcDbEntity
  8
0
 62
     3
100
AcDbCircle
 10
-75.880933
 20
-3.221490999999998
 30
0.0
 40
0.5
100
AcDbArc
 50
0.0
 51
90.0
  0
ARC
  5
187
330
36
100
AcDbEntity
  8
0
 62
     3
100
AcDbCircle
 10
-82.380933
 20
-3.221490999999998
 30
0.0
 40
0.5
100
AcDbArc
 50
90.0
 51
180.0
  0
ARC
  5
188
330
36
100
AcDbEntity
  8
0
 62
     3
100
AcDbCircle
 10
-82.380933
 20
-12.221491
 30
0.0
 40
0.5
100
AcDbArc
 50
180.0
 51
270.0
  0
LINE
  5
189
330
36
100
AcDbEntity
  8
0
 62
     3
100
AcDbLine
 10
-82.88093299999998
 20
-12.221491
 30
0.0
 11
-82.88093299999998
 21
-9.971491
 31
0.0
  0
ARC
  5
18A
330
36
100
AcDbEntity
  8
0
 62
     3
100
AcDbCircle
 10
-82.380933
 20
-9.971491
 30
0.0
 40
0.5
100
AcDbArc
 50
90.0
 51
180.0
  0
LINE
  5
18B
330
36
100
AcDbEntity
  8
0
 62
     3
100
AcDbLine
 10
-75.880933
 20
-9.471491
 30
0.0
 11
-82.380933
 21
-9.471491
 31
0.0
  0
LINE
  5
18C
330
36
100
AcDbEntity
  8
0
 62
     3
100
AcDbLine
 10
-82.380933
 20
-12.721491
 30
0.0
 11
-75.880933
 21
-12.721491
 31
0.0
  0
ARC
  5
18D
330
36
100
AcDbEntity
  8
0
 62
     3
100
AcDbCircle
 10
-75.880933
 20
-12.221491
 30
0.0
 40
0.5
100
AcDbArc
 50
270.0
 51
0.0
  0
LINE
  5
18E
330
36
100
AcDbEntity
  8
0
 62
     3
100
AcDbLine
 10
-75.38093299999998
 20
-12.221491
 30
0.0
 11
-75.38093299999998
 21
-9.971491
 31
0.0
  0
ARC
  5
18F
330
36
100
AcDbEntity
  8
0
 62
     3
100
AcDbCircle
 10
-75.880933
 20
-9.971491
 30
0.0
 40
0.5
100
AcDbArc
 50
0.0
 51
90.0
  0
ARC
  5
190
330
36
100
AcDbEntity
  8
0
 62
     3
100
AcDbCircle
 10
-73.180933
 20
-7.721491
 30
0.0
 40
2.25
100
AcDbArc
 50
90.0
 51
270.0
  0
LINE
  5
191
330
36
100
AcDbEntity
  8
0
 62
     3
100
AcDbLine
 10
-71.330933
 20
-5.471491
 30
0.0
 11
-71.330933
 21
-9.971491
 31
0.0
  0
LINE
  5
192
330
36
100
AcDbEntity
  8
0
 62
     3
100
AcDbLine
 10
-55.880933
 20
-3.221490999999998
 30
0.0
 11
-55.880933
 21
-5.471491
 31
0.0
  0
LINE
  5
193
330
36
100
AcDbEntity
  8
0
 62
     3
100
AcDbLine
 10
-56.380933
 20
-5.971491
 30
0.0
 11
-62.88093299999999
 21
-5.971491
 31
0.0
  0
LINE
  5
194
330
36
100
AcDbEntity
  8
0
 62
     3
100
AcDbLine
 10
-62.88093299999999
 20
-2.721490999999998
 30
0.0
 11
-56.380933
 21
-2.721490999999998
 31
0.0
  0
ARC
  5
195
330
36
100
AcDbEntity
  8
0
 62
     3
100
AcDbCircle
 10
-56.380933
 20
-5.471491
 30
0.0
 40
0.5
100
AcDbArc
 50
270.0
 51
0.0
  0
ARC
  5
196
330
36
100
AcDbEntity
  8
0
 62
     3
100
AcDbCircle
 10
-56.380933
 20
-3.221490999999998
 30
0.0
 40
0.5
100
AcDbArc
 50
0.0
 51
90.0
  0
LINE
  5
197
330
36
100
AcDbEntity
  8
0
 62
     3
100
AcDbLine
 10
-56.380933
 20
-9.471491
 30
0.0
 11
-62.88093299999999
 21
-9.471491
 31
0.0
  0
LINE
  5
198
330
36
100
AcDbEntity
  8
0
 62
     3
100
AcDbLine
 10
-62.88093299999999
 20
-12.721491
 30
0.0
 11
-56.380933
 21
-12.721491
 31
0.0
  0
ARC
  5
199
330
36
100
AcDbEntity
  8
0
 62
     3
100
AcDbCircle
 10
-56.380933
 20
-12.221491
 30
0.0
 40
0.5
100
AcDbArc
 50
270.0
 51
0.0
  0
LINE
  5
19A
330
36
100
AcDbEntity
  8
0
 62
     3
100
AcDbLine
 10
-55.880933
 20
-12.221491
 30
0.0
 11
-55.880933
 21
-9.971491
 31
0.0
  0
ARC
  5
19B
330
36
100
AcDbEntity
  8
0
 62
     3
100
AcDbCircle
 10
-56.380933
 20
-9.971491
 30
0.0
 40
0.5
100
AcDbArc
 50
0.0
 51
90.0
  0
LINE
  5
19C
330
36
100
AcDbEntity
  8
0
 62
     3
100
AcDbLine
 10
-51.830933
 20
-5.471491
 30
0.0
 11
-51.830933
 21
-9.971491
 31
0.0
  0
ARC
  5
19D
330
36
100
AcDbEntity
  8
0
 62
     3
100
AcDbCircle
 10
-62.88093299999999
 20
-12.221491
 30
0.0
 40
0.5
100
AcDbArc
 50
180.0
 51
270.0
  0
LINE
  5
19E
330
36
100
AcDbEntity
  8
0
 62
     3
100
AcDbLine
 10
-63.380933
 20
-12.221491
 30
0.0
 11
-63.380933
 21
-9.971491
 31
0.0
  0
ARC
  5
19F
330
36
100
AcDbEntity
  8
0
 62
     3
100
AcDbCircle
 10
-62.88093299999999
 20
-9.971491
 30
0.0
 40
0.5
100
AcDbArc
 50
90.0
 51
180.0
  0
LINE
  5
1A0
330
36
100
AcDbEntity
  8
0
 62
     3
100
AcDbLine
 10
-63.380933
 20
-3.221490999999998
 30
0.0
 11
-63.380933
 21
-5.471491
 31
0.0
  0
ARC
  5
1A1
330
36
100
AcDbEntity
  8
0
 62
     3
100
AcDbCircle
 10
-62.88093299999999
 20
-5.471491
 30
0.0
 40
0.5
100
AcDbArc
 50
180.0
 51
270.0
  0
ARC
  5
1A2
330
36
100
AcDbEntity
  8
0
 62
     3
100
AcDbCircle
 10
-62.88093299999999
 20
-3.221490999999998
 30
0.0
 40
0.5
100
AcDbArc
 50
90.0
 51
180.0
  0
LINE
  5
1A3
330
36
100
AcDbEntity
  8
0
 62
     3
100
AcDbLine
 10
-53.68093299999999
 20
-5.471491
 30
0.0
 11
-51.830933
 21
-5.471491
 31
0.0
  0
LINE
  5
1A4
330
36
100
AcDbEntity
  8
0
 62
     3
100
AcDbLine
 10
-53.68093299999999
 20
-9.971491
 30
0.0
 11
-51.830933
 21
-9.971491
 31
0.0
  0
ARC
  5
1A5
330
36
100
AcDbEntity
  8
0
 62
     3
100
AcDbCircle
 10
-53.68093299999999
 20
-7.721491
 30
0.0
 40
2.25
100
AcDbArc
 50
90.0
 51
270.0
  0
LINE
  5
1A6
330
36
100
AcDbEntity
  8
0
 62
     3
100
AcDbLine
 10
-73.180933
 20
-9.971491
 30
0.0
 11
-71.330933
 21
-9.971491
 31
0.0
  0
LINE
  5
1A7
330
36
100
AcDbEntity
  8
0
 62
     3
100
AcDbLine
 10
-71.330933
 20
-5.471491
 30
0.0
 11
-73.180933
 21
-5.471491
 31
0.0
  0
LINE
  5
1A8
330
36
100
AcDbEntity
  8
0
 62
     3
100
AcDbLine
 10
-50.930933
 20
-5.846491
 30
0.0
 11
-46.180933
 21
-5.846491
 31
0.0
  0
LINE
  5
1A9
330
36
100
AcDbEntity
  8
0
 62
     3
100
AcDbLine
 10
-50.930933
 20
-9.596491
 30
0.0
 11
-46.180933
 21
-9.596491
 31
0.0
  0
TEXT
  5
1AA
330
36
100
AcDbEntity
  8
0
 62
     3
100
AcDbText
 10
98.86071246134427
 20
-42.53854699999997
 30
0.0
 40
4.5
  1
単相100Vタイプ
  7
高4.5
100
AcDbText
  0
TEXT
  5
1AB
330
36
100
AcDbEntity
  8
0
 62
     3
100
AcDbText
 10
98.20824899999999
 20
-50.281694
 30
0.0
 40
4.5
  1
定格電圧
  7
高4.5
100
AcDbText
  0
TEXT
  5
1AC
330
36
100
AcDbEntity
  8
0
 62
     3
100
AcDbText
 10
98.20824899999999
 20
-57.08169399999999
 30
0.0
 40
4.5
  1
定格電流
  7
高4.5
100
AcDbText
  0
TEXT
  5
1AD
330
36
100
AcDbEntity
  8
0
 62
     3
100
AcDbText
 10
117.1026386787573
 20
-103.311441
 30
0.0
 40
4.5
  1
金属センサー
  7
高4.5
100
AcDbText
  0
LINE
  5
1B3
330
36
100
AcDbEntity
  8
0
100
AcDbLine
 10
45.262769
 20
104.970375
 30
0.0
 11
97.512769
 21
104.970375
 31
0.0
  0
TEXT
  5
1B4
330
36
100
AcDbEntity
  8
0
 62
     4
100
AcDbText
 10
48.012769
 20
105.970375
 30
0.0
 40
3.2
  1
電線SVCT2.0sqx3芯x3m
 41
0.716146
100
AcDbText
  0
LINE
  5
1BA
330
36
100
AcDbEntity
  8
0
100
AcDbLine
 10
61.13334399999999
 20
93.06415499999999
 30
0.0
 11
110.633344
 21
93.06415499999999
 31
0.0
  0
TEXT
  5
1BB
330
36
100
AcDbEntity
  8
0
 62
     4
100
AcDbText
 10
63.88334399999999
 20
94.06415499999999
 30
0.0
 40
3.2
  1
アースクリップ5A（絶縁被覆付）
 41
0.716146
100
AcDbText
  0
TEXT
  5
1C5
330
36
100
AcDbEntity
  8
0
 62
     3
100
AcDbText
 10
52.329593
 20
19.530216
 30
0.0
 40
3.2
  1
2P E付き兼用タイプ
 41
0.833333
100
AcDbText
  0
LINE
  5
1C8
330
36
100
AcDbEntity
  8
0
 62
     3
100
AcDbLine
 10
44.28772922509544
 20
-135.951307
 30
0.0
 11
44.28772922509544
 21
-60.95130700000005
 31
0.0
  0
TEXT
  5
1C9
330
36
100
AcDbEntity
  8
0
 62
     3
100
AcDbText
 10
-43.73570725827535
 20
-135.451307
 30
0.0
 40
3.2
  1
個数
 41
0.8
  7
高3.2
100
AcDbText
  0
TEXT
  5
1CA
330
36
100
AcDbEntity
  8
0
 62
     3
100
AcDbText
 10
-43.73570725827534
 20
-130.451307
 30
0.0
 40
3.2
  1
1
 41
0.8
  7
高3.2
100
AcDbText
  0
TEXT
  5
1CB
330
36
100
AcDbEntity
  8
0
 62
     3
100
AcDbText
 10
-43.73570725827534
 20
-100.451307
 30
0.0
 40
3.2
  1
1
 41
0.8
  7
高3.2
100
AcDbText
  0
TEXT
  5
1CC
330
36
100
AcDbEntity
  8
0
 62
     3
100
AcDbText
 10
-43.73570725827534
 20
-120.451307
 30
0.0
 40
3.2
  1
1
 41
0.8
  7
高3.2
100
AcDbText
  0
TEXT
  5
1CD
330
36
100
AcDbEntity
  8
0
 62
     3
100
AcDbText
 10
-43.73570725827534
 20
-110.451307
 30
0.0
 40
3.2
  1
1
 41
0.8
  7
高3.2
100
AcDbText
  0
TEXT
  5
1CE
330
36
100
AcDbEntity
  8
0
 62
     3
100
AcDbText
 10
-179.973657
 20
-130.451307
 30
0.0
 40
3.2
  1
1
 41
0.8
  7
高3.2
100
AcDbText
  0
TEXT
  5
1CF
330
36
100
AcDbEntity
  8
0
 62
     3
100
AcDbText
 10
-179.973657
 20
-120.451307
 30
0.0
 40
3.2
  1
2
 41
0.8
  7
高3.2
100
AcDbText
  0
TEXT
  5
1D0
330
36
100
AcDbEntity
  8
0
 62
     3
100
AcDbText
 10
-179.973657
 20
-115.451307
 30
0.0
 40
3.2
  1
3
 41
0.8
  7
高3.2
100
AcDbText
  0
TEXT
  5
1D1
330
36
100
AcDbEntity
  8
0
 62
     3
100
AcDbText
 10
-179.973657
 20
-110.451307
 30
0.0
 40
3.2
  1
4
 41
0.8
  7
高3.2
100
AcDbText
  0
TEXT
  5
1D2
330
36
100
AcDbEntity
  8
0
 62
     3
100
AcDbText
 10
-179.973657
 20
-105.451307
 30
0.0
 40
3.2
  1
5
 41
0.8
  7
高3.2
100
AcDbText
  0
TEXT
  5
1D3
330
36
100
AcDbEntity
  8
0
 62
     3
100
AcDbText
 10
-179.973657
 20
-100.451307
 30
0.0
 40
3.2
  1
6
 41
0.8
  7
高3.2
100
AcDbText
  0
TEXT
  5
1D4
330
36
100
AcDbEntity
  8
0
 62
     3
100
AcDbText
 10
-179.973657
 20
-95.45130700000004
 30
0.0
 40
3.2
  1
7
 41
0.8
  7
高3.2
100
AcDbText
  0
TEXT
  5
1D5
330
36
100
AcDbEntity
  8
0
 62
     3
100
AcDbText
 10
-179.973657
 20
-90.45130700000004
 30
0.0
 40
3.2
  1
8
 41
0.8
  7
高3.2
100
AcDbText
  0
TEXT
  5
1D6
330
36
100
AcDbEntity
  8
0
 62
     3
100
AcDbText
 10
-179.973657
 20
-85.45130700000004
 30
0.0
 40
3.2
  1
9
 41
0.8
  7
高3.2
100
AcDbText
  0
TEXT
  5
1D7
330
36
100
AcDbEntity
  8
0
 62
     3
100
AcDbText
 10
-179.973657
 20
-80.45130700000004
 30
0.0
 40
3.2
  1
10
 41
0.8
  7
高3.2
100
AcDbText
  0
TEXT
  5
1D8
330
36
100
AcDbEntity
  8
0
 62
     3
100
AcDbText
 10
-179.973657
 20
-75.45130700000004
 30
0.0
 40
3.2
  1
11
 41
0.8
  7
高3.2
100
AcDbText
  0
TEXT
  5
1D9
330
36
100
AcDbEntity
  8
0
 62
     3
100
AcDbText
 10
-179.973657
 20
-70.45130700000004
 30
0.0
 40
3.2
  1
12
 41
0.8
  7
高3.2
100
AcDbText
  0
TEXT
  5
1DA
330
36
100
AcDbEntity
  8
0
 62
     3
100
AcDbText
 10
-180.170447
 20
-135.451307
 30
0.0
 40
3.2
  1
No
 41
0.8
  7
高3.2
100
AcDbText
  0
TEXT
  5
1DB
330
36
100
AcDbEntity
  8
0
 62
     3
100
AcDbText
 10
-43.73570725827534
 20
-105.451307
 30
0.0
 40
3.2
  1
1
 41
0.8
  7
高3.2
100
AcDbText
  0
TEXT
  5
1DC
330
36
100
AcDbEntity
  8
0
 62
     3
100
AcDbText
 10
-133.9154797362875
 20
-105.451307
 30
0.0
 40
3.2
  1
-
 41
0.8
  7
高3.2
100
AcDbText
  0
TEXT
  5
1DD
330
36
100
AcDbEntity
  8
0
 62
     3
100
AcDbText
 10
-172.462379
 20
-80.45130700000004
 30
0.0
 40
3.2
  1
入力電線
 41
0.8
  7
高3.2
100
AcDbText
  0
LINE
  5
1DE
330
36
100
AcDbEntity
  8
0
100
AcDbLine
 10
-135.4154797362874
 20
-135.951307
 30
0.0
 11
-135.4154797362874
 21
-60.95130700000005
 31
0.0
  0
LINE
  5
1DF
330
36
100
AcDbEntity
  8
0
100
AcDbLine
 10
-118.700744713648
 20
-135.951307
 30
0.0
 11
-118.7007447136479
 21
-60.95130700000005
 31
0.0
  0
LINE
  5
1E0
330
36
100
AcDbEntity
  8
0
100
AcDbLine
 10
-45.23570725827535
 20
-135.951307
 30
0.0
 11
-45.23570725827534
 21
-60.95130700000005
 31
0.0
  0
LINE
  5
1E1
330
36
100
AcDbEntity
  8
0
100
AcDbLine
 10
-173.962379
 20
-135.951307
 30
0.0
 11
-173.962379
 21
-60.95130700000005
 31
0.0
  0
TEXT
  5
1E2
330
36
100
AcDbEntity
  8
0
 62
     3
100
AcDbText
 10
-172.462379
 20
-135.451307
 30
0.0
 40
3.2
  1
部　　品　　名
 41
0.8
  7
高3.2
100
AcDbText
  0
TEXT
  5
1E3
330
36
100
AcDbEntity
  8
0
 62
     3
100
AcDbText
 10
-133.9154797362875
 20
-135.451307
 30
0.0
 40
3.2
  1
材　　質
 41
0.8
  7
高3.2
100
AcDbText
  0
LINE
  5
1E4
330
36
100
AcDbEntity
  8
0
100
AcDbLine
 10
-181.473657
 20
-130.951307
 30
0.0
 11
44.28772922509544
 21
-130.951307
 31
0.0
  0
LINE
  5
1E5
330
36
100
AcDbEntity
  8
0
100
AcDbLine
 10
-181.473657
 20
-120.951307
 30
0.0
 11
44.28772922509544
 21
-120.951307
 31
0.0
  0
LINE
  5
1E6
330
36
100
AcDbEntity
  8
0
100
AcDbLine
 10
-181.473657
 20
-115.951307
 30
0.0
 11
44.28772922509544
 21
-115.951307
 31
0.0
  0
LINE
  5
1E7
330
36
100
AcDbEntity
  8
0
100
AcDbLine
 10
-181.473657
 20
-105.951307
 30
0.0
 11
44.28772922509544
 21
-105.951307
 31
0.0
  0
LINE
  5
1E8
330
36
100
AcDbEntity
  8
0
100
AcDbLine
 10
-181.473657
 20
-100.951307
 30
0.0
 11
44.28772922509544
 21
-100.951307
 31
0.0
  0
LINE
  5
1E9
330
36
100
AcDbEntity
  8
0
100
AcDbLine
 10
-181.473657
 20
-95.95130700000003
 30
0.0
 11
44.28772922509544
 21
-95.95130700000003
 31
0.0
  0
LINE
  5
1EA
330
36
100
AcDbEntity
  8
0
100
AcDbLine
 10
-181.473657
 20
-90.95130700000003
 30
0.0
 11
-36.73674855302165
 21
-90.95130700000002
 31
0.0
  0
LINE
  5
1EB
330
36
100
AcDbEntity
  8
0
100
AcDbLine
 10
-181.473657
 20
-85.95130700000003
 30
0.0
 11
44.28772922509544
 21
-85.95130700000003
 31
0.0
  0
LINE
  5
1EC
330
36
100
AcDbEntity
  8
0
100
AcDbLine
 10
-181.473657
 20
-80.95130700000003
 30
0.0
 11
44.28772922509544
 21
-80.95130700000003
 31
0.0
  0
LINE
  5
1ED
330
36
100
AcDbEntity
  8
0
100
AcDbLine
 10
-181.473657
 20
-75.95130700000004
 30
0.0
 11
44.28772922509544
 21
-75.95130700000004
 31
0.0
  0
LINE
  5
1EE
330
36
100
AcDbEntity
  8
0
100
AcDbLine
 10
-181.473657
 20
-70.95130700000004
 30
0.0
 11
44.28772922509544
 21
-70.95130700000004
 31
0.0
  0
LINE
  5
1EF
330
36
100
AcDbEntity
  8
0
100
AcDbLine
 10
-181.473657
 20
-110.951307
 30
0.0
 11
44.28772922509544
 21
-110.951307
 31
0.0
  0
TEXT
  5
1F0
330
36
100
AcDbEntity
  8
0
 62
     3
100
AcDbText
 10
-133.9154797362874
 20
-80.45130700000004
 30
0.0
 40
3.2
  1
SVCT
 41
0.8
  7
高3.2
100
AcDbText
  0
LINE
  5
1F1
330
36
100
AcDbEntity
  8
0
 62
     7
100
AcDbLine
 10
-181.473657
 20
-65.95130700000004
 30
0.0
 11
44.28772922509544
 21
-65.95130700000004
 31
0.0
  0
TEXT
  5
1F2
330
36
100
AcDbEntity
  8
0
 62
     3
100
AcDbText
 10
-117.200744713648
 20
-135.451307
 30
0.0
 40
3.2
  1
備　　　　　考
 41
0.8
  7
高3.2
100
AcDbText
  0
TEXT
  5
1F3
330
36
100
AcDbEntity
  8
0
 62
     3
100
AcDbText
 10
-133.9154797362875
 20
-130.451307
 30
0.0
 40
3.2
  1
アルミ
 41
0.8
  7
高3.2
100
AcDbText
  0
TEXT
  5
1F4
330
36
100
AcDbEntity
  8
0
 62
     3
100
AcDbText
 10
-133.9154797362875
 20
-115.451307
 30
0.0
 40
3.2
  1
ABS樹脂
 41
0.8
  7
高3.2
100
AcDbText
  0
TEXT
  5
1F5
330
36
100
AcDbEntity
  8
0
 62
     3
100
AcDbText
 10
-133.9154797362875
 20
-110.451307
 30
0.0
 40
3.2
  1
-
 41
0.8
  7
高3.2
100
AcDbText
  0
TEXT
  5
1F6
330
36
100
AcDbEntity
  8
0
 62
     3
100
AcDbText
 10
-133.9154797362875
 20
-100.451307
 30
0.0
 40
3.2
  1
-
 41
0.8
  7
高3.2
100
AcDbText
  0
TEXT
  5
1F8
330
36
100
AcDbEntity
  8
0
 62
     3
100
AcDbText
 10
-172.462379
 20
-130.451307
 30
0.0
 40
3.2
  1
本体ケース
 41
0.8
  7
高3.2
100
AcDbText
  0
TEXT
  5
1F9
330
36
100
AcDbEntity
  8
0
 62
     3
100
AcDbText
 10
-133.9154797362875
 20
-120.451307
 30
0.0
 40
3.2
  1
-
 41
0.8
  7
高3.2
100
AcDbText
  0
TEXT
  5
1FB
330
36
100
AcDbEntity
  8
0
 62
     3
100
AcDbText
 10
-133.9154797362874
 20
-75.45130700000004
 30
0.0
 40
3.2
  1
VSF
 41
0.8
  7
高3.2
100
AcDbText
  0
TEXT
  5
1FC
330
36
100
AcDbEntity
  8
0
 62
     3
100
AcDbText
 10
-117.200744713648
 20
-130.451307
 30
0.0
 40
3.2
  1
(アルマイト色：黒)
 41
0.8
  7
高3.2
100
AcDbText
  0
TEXT
  5
1FD
330
36
100
AcDbEntity
  8
0
 62
     3
100
AcDbText
 10
-172.462379
 20
-115.451307
 30
0.0
 40
3.2
  1
ブレーカーカバーセット
 41
0.8
  7
高3.2
100
AcDbText
  0
TEXT
  5
1FE
330
36
100
AcDbEntity
  8
0
 62
     3
100
AcDbText
 10
-117.200744713648
 20
-110.451307
 30
0.0
 40
3.2
  1
100V
 41
0.8
  7
高3.2
100
AcDbText
  0
TEXT
  5
1FF
330
36
100
AcDbEntity
  8
0
 62
     3
100
AcDbText
 10
-117.200744713648
 20
-105.451307
 30
0.0
 40
3.2
  1
日開　SW3007A
 41
0.8
  7
高3.2
100
AcDbText
  0
TEXT
  5
200
330
36
100
AcDbEntity
  8
0
 62
     3
100
AcDbText
 10
-117.200744713648
 20
-100.451307
 30
0.0
 40
3.2
  1
ミヤマ電機　DS-432
 41
0.8
  7
高3.2
100
AcDbText
  0
TEXT
  5
201
330
36
100
AcDbEntity
  8
0
 62
     3
100
AcDbText
 10
-117.200744713648
 20
-80.45130700000004
 30
0.0
 40
3.2
  1
2sqx3cx3m(ポッキンプラグ付)
 41
0.8
  7
高3.2
100
AcDbText
  0
TEXT
  5
203
330
36
100
AcDbEntity
  8
0
 62
     3
100
AcDbText
 10
-117.200744713648
 20
-75.45130700000004
 30
0.0
 40
3.2
  1
2sqx10m
 41
0.8
  7
高3.2
100
AcDbText
  0
TEXT
  5
204
330
36
100
AcDbEntity
  8
0
 62
     3
100
AcDbText
 10
-43.73570725827534
 20
-75.45130700000004
 30
0.0
 40
3.2
  1
1
 41
0.8
  7
高3.2
100
AcDbText
  0
TEXT
  5
206
330
36
100
AcDbEntity
  8
0
 62
     3
100
AcDbText
 10
-43.73570725827534
 20
-80.45130700000004
 30
0.0
 40
3.2
  1
1
 41
0.8
  7
高3.2
100
AcDbText
  0
TEXT
  5
207
330
36
100
AcDbEntity
  8
0
 62
     3
100
AcDbText
 10
-43.73570725827534
 20
-85.45130700000004
 30
0.0
 40
3.2
  1
1
 41
0.8
  7
高3.2
100
AcDbText
  0
TEXT
  5
208
330
36
100
AcDbEntity
  8
0
 62
     3
100
AcDbText
 10
-43.73570725827534
 20
-90.45130700000004
 30
0.0
 40
3.2
  1
1
 41
0.8
  7
高3.2
100
AcDbText
  0
TEXT
  5
209
330
36
100
AcDbEntity
  8
0
 62
     3
100
AcDbText
 10
-43.73570725827534
 20
-95.45130700000004
 30
0.0
 40
3.2
  1
1
 41
0.8
  7
高3.2
100
AcDbText
  0
TEXT
  5
20A
330
36
100
AcDbEntity
  8
0
 62
     3
100
AcDbText
 10
-43.73570725827534
 20
-115.451307
 30
0.0
 40
3.2
  1
1式
 41
0.8
  7
高3.2
100
AcDbText
  0
CIRCLE
  5
211
330
36
100
AcDbEntity
  8
0
100
AcDbCircle
 10
-111.567901
 20
115.704008
 30
0.0
 40
5.0
  0
TEXT
  5
212
330
36
100
AcDbEntity
  8
0
 62
     4
100
AcDbText
 10
-112.7145373508847
 20
112.3983064508138
 30
0.0
 40
6.299999999999998
  1
1
  7
高6.3
100
AcDbText
  0
CIRCLE
  5
218
330
36
100
AcDbEntity
  8
0
100
AcDbCircle
 10
-92.56909
 20
115.704008
 30
0.0
 40
5.0
  0
TEXT
  5
219
330
36
100
AcDbEntity
  8
0
 62
     4
100
AcDbText
 10
-94.82773433336822
 20
112.3983064508138
 30
0.0
 40
6.299999999999998
  1
2
  7
高6.3
100
AcDbText
  0
CIRCLE
  5
21F
330
36
100
AcDbEntity
  8
0
100
AcDbCircle
 10
-77.57972800000001
 20
115.704008
 30
0.0
 40
5.0
  0
TEXT
  5
220
330
36
100
AcDbEntity
  8
0
 62
     4
100
AcDbText
 10
-79.83837233336821
 20
112.3983064508138
 30
0.0
 40
6.299999999999998
  1
3
  7
高6.3
100
AcDbText
  0
CIRCLE
  5
226
330
36
100
AcDbEntity
  8
0
100
AcDbCircle
 10
-36.867037
 20
115.704008
 30
0.0
 40
5.0
  0
TEXT
  5
227
330
36
100
AcDbEntity
  8
0
 62
     4
100
AcDbText
 10
-39.12568133336823
 20
112.3983064508138
 30
0.0
 40
6.299999999999998
  1
4
  7
高6.3
100
AcDbText
  0
CIRCLE
  5
22D
330
36
100
AcDbEntity
  8
0
100
AcDbCircle
 10
-12.488188
 20
86.47525300000003
 30
0.0
 40
5.0
  0
TEXT
  5
22E
330
36
100
AcDbEntity
  8
0
 62
     4
100
AcDbText
 10
-14.74683233336824
 20
83.16955145081372
 30
0.0
 40
6.299999999999998
  1
5
  7
高6.3
100
AcDbText
  0
CIRCLE
  5
234
330
36
100
AcDbEntity
  8
0
100
AcDbCircle
 10
-12.488188
 20
70.150335
 30
0.0
 40
5.0
  0
TEXT
  5
235
330
36
100
AcDbEntity
  8
0
 62
     4
100
AcDbText
 10
-14.74683233336824
 20
66.84463345081377
 30
0.0
 40
6.299999999999998
  1
6
  7
高6.3
100
AcDbText
  0
CIRCLE
  5
23B
330
36
100
AcDbEntity
  8
0
100
AcDbCircle
 10
-12.488188
 20
54.054829
 30
0.0
 40
5.0
  0
TEXT
  5
23C
330
36
100
AcDbEntity
  8
0
 62
     4
100
AcDbText
 10
-14.86580304259083
 20
51.81943881813052
 30
0.0
 40
4.5
  1
10
  7
高4.5
100
AcDbText
  0
ARC
  5
23D
330
36
100
AcDbEntity
  8
0
100
AcDbCircle
 10
-53.68093299999999
 20
-7.721491
 30
0.0
 40
1.35
100
AcDbArc
 50
90.0
 51
270.0
  0
LINE
  5
23E
330
36
100
AcDbEntity
  8
0
100
AcDbLine
 10
-53.68093299999999
 20
-9.071490999999999
 30
0.0
 11
-52.330933
 21
-9.071490999999999
 31
0.0
  0
LINE
  5
23F
330
36
100
AcDbEntity
  8
0
100
AcDbLine
 10
-52.330933
 20
-9.071490999999999
 30
0.0
 11
-52.330933
 21
-7.721491
 31
0.0
  0
LINE
  5
240
330
36
100
AcDbEntity
  8
0
100
AcDbLine
 10
-52.330933
 20
-6.371491
 30
0.0
 11
-52.330933
 21
-7.721491
 31
0.0
  0
LINE
  5
241
330
36
100
AcDbEntity
  8
0
100
AcDbLine
 10
-53.68093299999999
 20
-6.371491
 30
0.0
 11
-52.330933
 21
-6.371491
 31
0.0
  0
LINE
  5
242
330
36
100
AcDbEntity
  8
0
100
AcDbLine
 10
-61.380933
 20
-3.996491
 30
0.0
 11
-57.88093299999999
 21
-3.996491
 31
0.0
  0
LINE
  5
243
330
36
100
AcDbEntity
  8
0
100
AcDbLine
 10
-61.380933
 20
-3.996491
 30
0.0
 11
-61.380933
 21
-5.096491
 31
0.0
  0
LINE
  5
244
330
36
100
AcDbEntity
  8
0
100
AcDbLine
 10
-57.88093299999999
 20
-5.096491
 30
0.0
 11
-61.380933
 21
-5.096491
 31
0.0
  0
LINE
  5
245
330
36
100
AcDbEntity
  8
0
100
AcDbLine
 10
-57.88093299999999
 20
-3.996491
 30
0.0
 11
-57.88093299999999
 21
-5.096491
 31
0.0
  0
LINE
  5
246
330
36
100
AcDbEntity
  8
0
100
AcDbLine
 10
-61.80593299999999
 20
-10.346491
 30
0.0
 11
-57.45593299999999
 21
-10.346491
 31
0.0
  0
LINE
  5
247
330
36
100
AcDbEntity
  8
0
100
AcDbLine
 10
-61.80593299999999
 20
-10.346491
 30
0.0
 11
-61.80593299999999
 21
-11.446491
 31
0.0
  0
LINE
  5
248
330
36
100
AcDbEntity
  8
0
100
AcDbLine
 10
-57.45593299999999
 20
-11.446491
 30
0.0
 11
-61.80593299999999
 21
-11.446491
 31
0.0
  0
LINE
  5
249
330
36
100
AcDbEntity
  8
0
100
AcDbLine
 10
-57.45593299999999
 20
-10.346491
 30
0.0
 11
-57.45593299999999
 21
-11.446491
 31
0.0
  0
LINE
  5
24A
330
36
100
AcDbEntity
  8
0
100
AcDbLine
 10
-46.680933
 20
-5.846491
 30
0.0
 11
-46.680933
 21
-9.596491
 31
0.0
  0
ARC
  5
24B
330
36
100
AcDbEntity
  8
0
100
AcDbCircle
 10
-73.180933
 20
-7.721491
 30
0.0
 40
1.35
100
AcDbArc
 50
90.0
 51
270.0
  0
LINE
  5
24C
330
36
100
AcDbEntity
  8
0
100
AcDbLine
 10
-73.180933
 20
-9.071490999999999
 30
0.0
 11
-71.830933
 21
-9.071490999999999
 31
0.0
  0
LINE
  5
24D
330
36
100
AcDbEntity
  8
0
100
AcDbLine
 10
-71.830933
 20
-9.071490999999999
 30
0.0
 11
-71.830933
 21
-7.721491
 31
0.0
  0
LINE
  5
24E
330
36
100
AcDbEntity
  8
0
100
AcDbLine
 10
-73.180933
 20
-6.371491
 30
0.0
 11
-71.830933
 21
-6.371491
 31
0.0
  0
LINE
  5
24F
330
36
100
AcDbEntity
  8
0
100
AcDbLine
 10
-71.830933
 20
-6.371491
 30
0.0
 11
-71.830933
 21
-7.721491
 31
0.0
  0
LINE
  5
250
330
36
100
AcDbEntity
  8
0
100
AcDbLine
 10
-77.380933
 20
-5.096491
 30
0.0
 11
-80.880933
 21
-5.096491
 31
0.0
  0
LINE
  5
251
330
36
100
AcDbEntity
  8
0
100
AcDbLine
 10
-80.880933
 20
-3.996491
 30
0.0
 11
-77.380933
 21
-3.996491
 31
0.0
  0
LINE
  5
252
330
36
100
AcDbEntity
  8
0
100
AcDbLine
 10
-80.880933
 20
-3.996491
 30
0.0
 11
-80.880933
 21
-5.096491
 31
0.0
  0
LINE
  5
253
330
36
100
AcDbEntity
  8
0
100
AcDbLine
 10
-77.380933
 20
-3.996491
 30
0.0
 11
-77.380933
 21
-5.096491
 31
0.0
  0
LINE
  5
254
330
36
100
AcDbEntity
  8
0
100
AcDbLine
 10
-81.30593299999999
 20
-10.346491
 30
0.0
 11
-76.955933
 21
-10.346491
 31
0.0
  0
LINE
  5
255
330
36
100
AcDbEntity
  8
0
100
AcDbLine
 10
-81.30593299999999
 20
-10.346491
 30
0.0
 11
-81.30593299999999
 21
-11.446491
 31
0.0
  0
LINE
  5
256
330
36
100
AcDbEntity
  8
0
100
AcDbLine
 10
-76.955933
 20
-11.446491
 30
0.0
 11
-81.30593299999999
 21
-11.446491
 31
0.0
  0
LINE
  5
257
330
36
100
AcDbEntity
  8
0
100
AcDbLine
 10
-76.955933
 20
-10.346491
 30
0.0
 11
-76.955933
 21
-11.446491
 31
0.0
  0
LINE
  5
271
330
36
100
AcDbEntity
  8
0
100
AcDbLine
 10
-75.567126
 20
62.160243
 30
0.0
 11
-75.567126
 21
63.760243
 31
0.0
  0
ARC
  5
272
330
36
100
AcDbEntity
  8
0
100
AcDbCircle
 10
-75.71712600000002
 20
63.760243
 30
0.0
 40
0.15
100
AcDbArc
 50
0.0
 51
90.0
  0
LINE
  5
273
330
36
100
AcDbEntity
  8
0
100
AcDbLine
 10
-75.71712600000002
 20
63.91024300000001
 30
0.0
 11
-76.067126
 21
63.91024300000001
 31
0.0
  0
ARC
  5
274
330
36
100
AcDbEntity
  8
0
100
AcDbCircle
 10
-75.71712600000002
 20
62.160243
 30
0.0
 40
0.15
100
AcDbArc
 50
270.0
 51
0.0
  0
LINE
  5
275
330
36
100
AcDbEntity
  8
0
100
AcDbLine
 10
-75.71712600000002
 20
62.010243
 30
0.0
 11
-76.067126
 21
62.010243
 31
0.0
  0
LINE
  5
276
330
36
100
AcDbEntity
  8
0
100
AcDbLine
 10
-76.067126
 20
61.96024300000001
 30
0.0
 11
-76.817126
 21
61.96024300000001
 31
0.0
  0
LINE
  5
277
330
36
100
AcDbEntity
  8
0
100
AcDbLine
 10
-76.817126
 20
61.96024300000001
 30
0.0
 11
-76.817126
 21
63.960243
 31
0.0
  0
LINE
  5
278
330
36
100
AcDbEntity
  8
0
100
AcDbLine
 10
-76.067126
 20
63.960243
 30
0.0
 11
-76.817126
 21
63.960243
 31
0.0
  0
LINE
  5
279
330
36
100
AcDbEntity
  8
0
100
AcDbLine
 10
-89.067126
 20
63.960243
 30
0.0
 11
-88.31712600000001
 21
63.960243
 31
0.0
  0
LINE
  5
27A
330
36
100
AcDbEntity
  8
0
100
AcDbLine
 10
-88.31712600000001
 20
61.96024300000001
 30
0.0
 11
-88.31712600000001
 21
63.960243
 31
0.0
  0
LINE
  5
27B
330
36
100
AcDbEntity
  8
0
100
AcDbLine
 10
-89.067126
 20
61.96024300000001
 30
0.0
 11
-88.31712600000001
 21
61.96024300000001
 31
0.0
  0
LINE
  5
27C
330
36
100
AcDbEntity
  8
0
100
AcDbLine
 10
-89.417126
 20
62.010243
 30
0.0
 11
-89.067126
 21
62.010243
 31
0.0
  0
LINE
  5
27D
330
36
100
AcDbEntity
  8
0
100
AcDbLine
 10
-89.56712600000001
 20
62.160243
 30
0.0
 11
-89.56712600000001
 21
63.760243
 31
0.0
  0
LINE
  5
27E
330
36
100
AcDbEntity
  8
0
100
AcDbLine
 10
-89.417126
 20
63.91024300000001
 30
0.0
 11
-89.067126
 21
63.91024300000001
 31
0.0
  0
ARC
  5
27F
330
36
100
AcDbEntity
  8
0
100
AcDbCircle
 10
-89.417126
 20
63.760243
 30
0.0
 40
0.15
100
AcDbArc
 50
90.0
 51
180.0
  0
ARC
  5
280
330
36
100
AcDbEntity
  8
0
100
AcDbCircle
 10
-89.417126
 20
62.160243
 30
0.0
 40
0.15
100
AcDbArc
 50
180.0
 51
270.0
  0
LINE
  5
281
330
36
100
AcDbEntity
  8
0
100
AcDbLine
 10
-76.067126
 20
87.960243
 30
0.0
 11
-76.817126
 21
87.960243
 31
0.0
  0
LINE
  5
282
330
36
100
AcDbEntity
  8
0
100
AcDbLine
 10
-76.817126
 20
87.960243
 30
0.0
 11
-76.817126
 21
89.960243
 31
0.0
  0
LINE
  5
283
330
36
100
AcDbEntity
  8
0
100
AcDbLine
 10
-76.067126
 20
89.960243
 30
0.0
 11
-76.817126
 21
89.960243
 31
0.0
  0
LINE
  5
284
330
36
100
AcDbEntity
  8
0
100
AcDbLine
 10
-89.067126
 20
89.960243
 30
0.0
 11
-88.31712600000001
 21
89.960243
 31
0.0
  0
LINE
  5
285
330
36
100
AcDbEntity
  8
0
100
AcDbLine
 10
-88.31712600000001
 20
87.960243
 30
0.0
 11
-88.31712600000001
 21
89.960243
 31
0.0
  0
LINE
  5
286
330
36
100
AcDbEntity
  8
0
100
AcDbLine
 10
-89.067126
 20
87.960243
 30
0.0
 11
-88.31712600000001
 21
87.960243
 31
0.0
  0
LINE
  5
287
330
36
100
AcDbEntity
  8
0
 62
     2
100
AcDbLine
 10
-44.192126
 20
55.457365
 30
0.0
 11
-51.192126
 21
55.457365
 31
0.0
  0
LINE
  5
288
330
36
100
AcDbEntity
  8
0
 62
     2
100
AcDbLine
 10
-51.192126
 20
48.45736500000001
 30
0.0
 11
-51.192126
 21
55.457365
 31
0.0
  0
LINE
  5
289
330
36
100
AcDbEntity
  8
0
 62
     2
100
AcDbLine
 10
-51.192126
 20
48.45736500000001
 30
0.0
 11
-44.192126
 21
48.45736500000001
 31
0.0
  0
LINE
  5
28A
330
36
100
AcDbEntity
  8
0
 62
     2
100
AcDbLine
 10
-44.192126
 20
48.45736500000001
 30
0.0
 11
-44.192126
 21
55.457365
 31
0.0
  0
LINE
  5
28B
330
36
100
AcDbEntity
  8
0
 62
     2
100
AcDbLine
 10
-53.942126
 20
54.957365
 30
0.0
 11
-66.442126
 21
54.957365
 31
0.0
  0
LINE
  5
28C
330
36
100
AcDbEntity
  8
0
 62
     2
100
AcDbLine
 10
-53.942126
 20
48.957365
 30
0.0
 11
-53.942126
 21
54.957365
 31
0.0
  0
LINE
  5
28D
330
36
100
AcDbEntity
  8
0
 62
     2
100
AcDbLine
 10
-66.442126
 20
48.957365
 30
0.0
 11
-53.942126
 21
48.957365
 31
0.0
  0
LINE
  5
28E
330
36
100
AcDbEntity
  8
0
 62
     2
100
AcDbLine
 10
-66.442126
 20
48.957365
 30
0.0
 11
-66.442126
 21
54.957365
 31
0.0
  0
TEXT
  5
28F
330
36
100
AcDbEntity
  8
0
100
AcDbText
 10
-51.193702
 20
38.209642
 30
0.0
 40
2.5
  1
KS-EB550
 41
0.8
100
AcDbText
  0
TEXT
  5
290
330
36
100
AcDbEntity
  8
0
100
AcDbText
 10
-62.693702
 20
38.209642
 30
0.0
 40
2.5
  1
［型式］
 41
0.861111
100
AcDbText
  0
LINE
  5
295
330
36
100
AcDbEntity
  8
0
 62
     3
100
AcDbLine
 10
54.010368
 20
76.38082800000002
 30
0.0
 11
53.51036800000001
 21
92.005826
 31
0.0
  0
LINE
  5
296
330
36
100
AcDbEntity
  8
0
 62
     3
100
AcDbLine
 10
47.510368
 20
92.005826
 30
0.0
 11
47.00558400000001
 21
77.15834499999998
 31
0.0
  0
LINE
  5
297
330
36
100
AcDbEntity
  8
0
 62
     3
100
AcDbLine
 10
34.033049
 20
42.609295
 30
0.0
 11
33.79219000000001
 21
32.974923
 31
0.0
  0
LINE
  5
298
330
36
100
AcDbEntity
  8
0
 62
     3
100
AcDbLine
 10
41.05133
 20
42.609295
 30
0.0
 11
41.29219
 21
32.974923
 31
0.0
  0
ARC
  5
299
330
36
100
AcDbEntity
  8
0
 62
     3
100
AcDbCircle
 10
40.676448
 20
42.59992299999999
 30
0.0
 40
0.375
100
AcDbArc
 50
1.432095999999999
 51
90.0
  0
LINE
  5
29A
330
36
100
AcDbEntity
  8
0
 62
     3
100
AcDbLine
 10
40.676448
 20
42.974923
 30
0.0
 11
34.407932
 21
42.974923
 31
0.0
  0
ARC
  5
29B
330
36
100
AcDbEntity
  8
0
 62
     3
100
AcDbCircle
 10
34.407932
 20
42.59992299999999
 30
0.0
 40
0.375
100
AcDbArc
 50
90.0
 51
178.567904
  0
LINE
  5
29C
330
36
100
AcDbEntity
  8
0
 62
     3
100
AcDbLine
 10
51.260368
 20
64.77368699999999
 30
0.0
 11
51.260368
 21
39.285832
 31
0.0
  0
LINE
  5
29D
330
36
100
AcDbEntity
  8
0
 62
     3
100
AcDbLine
 10
49.760368
 20
39.285832
 30
0.0
 11
49.760368
 21
64.77368699999999
 31
0.0
  0
LINE
  5
29E
330
36
100
AcDbEntity
  8
0
 62
     3
100
AcDbLine
 10
40.26718999999999
 20
42.974923
 30
0.0
 11
40.26718999999999
 21
97.19909100000002
 31
0.0
  0
LINE
  5
29F
330
36
100
AcDbEntity
  8
0
 62
     3
100
AcDbLine
 10
34.81719
 20
42.974923
 30
0.0
 11
34.81719
 21
97.264286
 31
0.0
  0
LINE
  5
2A0
330
36
100
AcDbEntity
  8
0
 62
     3
100
AcDbLine
 10
46.04219
 20
13.974923
 30
0.0
 11
29.04219
 21
13.974923
 31
0.0
  0
LINE
  5
2A1
330
36
100
AcDbEntity
  8
0
 62
     3
100
AcDbLine
 10
46.04219
 20
11.474923
 30
0.0
 11
46.04219
 21
10.974923
 31
0.0
  0
LINE
  5
2A2
330
36
100
AcDbEntity
  8
0
 62
     3
100
AcDbLine
 10
29.04219
 20
22.099923
 30
0.0
 11
29.04219
 21
13.974923
 31
0.0
  0
LINE
  5
2A3
330
36
100
AcDbEntity
  8
0
 62
     3
100
AcDbLine
 10
29.04219
 20
11.474923
 30
0.0
 11
29.04219
 21
10.974923
 31
0.0
  0
LINE
  5
2A4
330
36
100
AcDbEntity
  8
0
 62
     3
100
AcDbLine
 10
35.008917
 20
10.974923
 30
0.0
 11
35.008917
 21
11.474923
 31
0.0
  0
LINE
  5
2A5
330
36
100
AcDbEntity
  8
0
 62
     3
100
AcDbLine
 10
40.00891699999999
 20
10.974923
 30
0.0
 11
40.00891699999999
 21
11.474923
 31
0.0
  0
ARC
  5
2A6
330
36
100
AcDbEntity
  8
0
 62
     3
100
AcDbCircle
 10
29.32344
 20
12.724923
 30
0.0
 40
1.28125
100
AcDbArc
 50
102.680383
 51
257.319617
  0
ARC
  5
2A7
330
36
100
AcDbEntity
  8
0
 62
     3
100
AcDbCircle
 10
45.76094
 20
12.724923
 30
0.0
 40
1.28125
100
AcDbArc
 50
282.680383
 51
77.31961700000002
  0
LINE
  5
2A8
330
36
100
AcDbEntity
  8
0
 62
     3
100
AcDbLine
 10
23.91563
 20
13.699923
 30
0.0
 11
23.91563
 21
97.264286
 31
0.0
  0
ARC
  5
2A9
330
36
100
AcDbEntity
  8
0
 62
     3
100
AcDbCircle
 10
26.64102
 20
13.699923
 30
0.0
 40
2.725389999999998
100
AcDbArc
 50
180.0
 51
313.6034
  0
ARC
  5
2AA
330
36
100
AcDbEntity
  8
0
 62
     3
100
AcDbCircle
 10
21.19024
 20
13.699923
 30
0.0
 40
2.725389999999998
100
AcDbArc
 50
180.0
 51
0.0
  0
ARC
  5
2AB
330
36
100
AcDbEntity
  8
0
 62
     3
100
AcDbCircle
 10
33.16719000000001
 20
22.099923
 30
0.0
 40
4.125
100
AcDbArc
 50
123.055731
 51
180.0
  0
ARC
  5
2AC
330
36
100
AcDbEntity
  8
0
 62
     3
100
AcDbCircle
 10
28.66719
 20
29.014582
 30
0.0
 40
4.125
100
AcDbArc
 50
303.055731
 51
0.0
  0
LINE
  5
2AD
330
36
100
AcDbEntity
  8
0
 62
     3
100
AcDbLine
 10
32.79219000000001
 20
32.599923
 30
0.0
 11
32.79219000000001
 21
29.014582
 31
0.0
  0
LINE
  5
2AE
330
36
100
AcDbEntity
  8
0
 62
     3
100
AcDbLine
 10
41.91719
 20
32.974923
 30
0.0
 11
33.16719000000001
 21
32.974923
 31
0.0
  0
LINE
  5
2AF
330
36
100
AcDbEntity
  8
0
 62
     3
100
AcDbLine
 10
42.29219
 20
32.599923
 30
0.0
 11
42.29219
 21
29.014582
 31
0.0
  0
ARC
  5
2B0
330
36
100
AcDbEntity
  8
0
 62
     3
100
AcDbCircle
 10
46.41719000000001
 20
29.014582
 30
0.0
 40
4.125
100
AcDbArc
 50
180.0
 51
194.045059
  0
ARC
  5
2B1
330
36
100
AcDbEntity
  8
0
 62
     3
100
AcDbCircle
 10
42.77929499999999
 20
28.104513
 30
0.0
 40
0.375
100
AcDbArc
 50
194.045059
 51
330.0
  0
LINE
  5
2B2
330
36
100
AcDbEntity
  8
0
 62
     3
100
AcDbLine
 10
43.85281599999999
 20
28.713906
 30
0.0
 11
46.01787999999999
 21
27.463906
 31
0.0
  0
LINE
  5
2B3
330
36
100
AcDbEntity
  8
0
 62
     3
100
AcDbLine
 10
46.10938599999999
 20
27.1224
 30
0.0
 11
45.008865
 21
25.216241
 31
0.0
  0
ARC
  5
2B4
330
36
100
AcDbEntity
  8
0
 62
     3
100
AcDbCircle
 10
41.91719
 20
22.099923
 30
0.0
 40
4.125
100
AcDbArc
 50
0.0
 51
40.605599
  0
ARC
  5
2B5
330
36
100
AcDbEntity
  8
0
 62
     3
100
AcDbCircle
 10
45.33362499999999
 20
25.028741
 30
0.0
 40
0.375
100
AcDbArc
 50
150.0
 51
220.605599
  0
LINE
  5
2B6
330
36
100
AcDbEntity
  8
0
 62
     3
100
AcDbLine
 10
46.04219
 20
22.099923
 30
0.0
 11
46.04219
 21
13.974923
 31
0.0
  0
LINE
  5
2B7
330
36
100
AcDbEntity
  8
0
 62
     3
100
AcDbLine
 10
18.46485
 20
13.699923
 30
0.0
 11
18.46485
 21
116.358376
 31
0.0
  0
LINE
  5
2B8
330
36
100
AcDbEntity
  8
0
 62
     3
100
AcDbLine
 10
23.91641
 20
67.13053599999999
 30
0.0
 11
23.91641
 21
115.392377
 31
0.0
  0
ARC
  5
2B9
330
36
100
AcDbEntity
  8
0
 62
     3
100
AcDbCircle
 10
26.64141
 20
97.19909100000002
 30
0.0
 40
2.725
100
AcDbArc
 50
0.0
 51
180.0
  0
LINE
  5
2BB
330
36
100
AcDbEntity
  8
0
 62
     3
100
AcDbLine
 10
-50.930933
 20
-2.938708999999997
 30
0.0
 11
-50.930933
 21
-12.504272
 31
0.0
  0
ARC
  5
2BC
330
36
100
AcDbEntity
  8
0
 62
     3
100
AcDbCircle
 10
-57.80593299999999
 20
-7.721491
 30
0.0
 40
8.375
100
AcDbArc
 50
214.82546
 51
325.17454
  0
LINE
  5
2BD
330
36
100
AcDbEntity
  8
0
 62
     3
100
AcDbLine
 10
-64.68093299999999
 20
-12.504272
 30
0.0
 11
-64.68093299999999
 21
-2.938708999999997
 31
0.0
  0
ARC
  5
2BE
330
36
100
AcDbEntity
  8
0
 62
     3
100
AcDbCircle
 10
-57.80593299999999
 20
-7.721491
 30
0.0
 40
8.375
100
AcDbArc
 50
34.82546
 51
145.17454
  0
ARC
  5
2BF
330
36
100
AcDbEntity
  8
0
 62
     3
100
AcDbCircle
 10
-77.30593299999998
 20
-7.721491
 30
0.0
 40
8.375
100
AcDbArc
 50
34.82546
 51
145.17454
  0
LINE
  5
2C0
330
36
100
AcDbEntity
  8
0
 62
     3
100
AcDbLine
 10
-70.43093299999998
 20
-12.504272
 30
0.0
 11
-70.43093299999998
 21
-2.938708999999997
 31
0.0
  0
ARC
  5
2C1
330
36
100
AcDbEntity
  8
0
 62
     3
100
AcDbCircle
 10
-77.30593299999998
 20
-7.721491
 30
0.0
 40
8.375
100
AcDbArc
 50
214.82546
 51
325.17454
  0
LINE
  5
2C2
330
36
100
AcDbEntity
  8
0
 62
     3
100
AcDbLine
 10
-84.180933
 20
-2.938708999999997
 30
0.0
 11
-84.180933
 21
-12.504272
 31
0.0
  0
LINE
  5
2C3
330
36
100
AcDbEntity
  8
0
 62
     3
100
AcDbLine
 10
-46.180933
 20
-5.846491
 30
0.0
 11
-46.180933
 21
-9.596491
 31
0.0
  0
CIRCLE
  5
2C4
330
36
100
AcDbEntity
  8
0
 62
     3
100
AcDbCircle
 10
-49.055933
 20
-7.721491
 30
0.0
 40
1.065703999999997
  0
LINE
  5
2C5
330
36
100
AcDbEntity
  8
0
100
AcDbLine
 10
120.900277310656
 20
-43.847681
 30
0.0
 11
120.900277310656
 21
-57.847681
 31
0.0
  0
LINE
  5
2CB
330
36
100
AcDbEntity
  8
0
100
AcDbLine
 10
46.93894
 20
76.38082800000002
 30
0.0
 11
54.168204
 21
76.38082800000002
 31
0.0
  0
LINE
  5
2CC
330
36
100
AcDbEntity
  8
0
100
AcDbLine
 10
48.724654
 20
69.68440099999999
 30
0.0
 11
52.296082
 21
69.68440099999999
 31
0.0
  0
LINE
  5
2CD
330
36
100
AcDbEntity
  8
0
100
AcDbLine
 10
34.56719
 20
36.224923
 30
0.0
 11
34.56719
 21
36.974923
 31
0.0
  0
LINE
  5
2CE
330
36
100
AcDbEntity
  8
0
100
AcDbLine
 10
34.56719
 20
34.474923
 30
0.0
 11
34.56719
 21
35.224923
 31
0.0
  0
LINE
  5
2CF
330
36
100
AcDbEntity
  8
0
100
AcDbLine
 10
34.56719
 20
37.974923
 30
0.0
 11
34.56719
 21
38.724923
 31
0.0
  0
LINE
  5
2D0
330
36
100
AcDbEntity
  8
0
100
AcDbLine
 10
34.56719
 20
39.724923
 30
0.0
 11
34.56719
 21
40.474923
 31
0.0
  0
LINE
  5
2D1
330
36
100
AcDbEntity
  8
0
100
AcDbLine
 10
37.04219000000001
 20
34.474923
 30
0.0
 11
37.04219000000001
 21
35.224923
 31
0.0
  0
LINE
  5
2D2
330
36
100
AcDbEntity
  8
0
100
AcDbLine
 10
37.04219000000001
 20
36.224923
 30
0.0
 11
37.04219000000001
 21
36.974923
 31
0.0
  0
LINE
  5
2D3
330
36
100
AcDbEntity
  8
0
100
AcDbLine
 10
37.04219000000001
 20
37.974923
 30
0.0
 11
37.04219000000001
 21
38.724923
 31
0.0
  0
LINE
  5
2D4
330
36
100
AcDbEntity
  8
0
100
AcDbLine
 10
37.04219000000001
 20
39.724923
 30
0.0
 11
37.04219000000001
 21
40.474923
 31
0.0
  0
LINE
  5
2D5
330
36
100
AcDbEntity
  8
0
100
AcDbLine
 10
40.51719
 20
36.224923
 30
0.0
 11
40.51719
 21
36.974923
 31
0.0
  0
LINE
  5
2D6
330
36
100
AcDbEntity
  8
0
100
AcDbLine
 10
40.51719
 20
34.474923
 30
0.0
 11
40.51719
 21
35.224923
 31
0.0
  0
LINE
  5
2D7
330
36
100
AcDbEntity
  8
0
100
AcDbLine
 10
40.51719
 20
37.974923
 30
0.0
 11
40.51719
 21
38.724923
 31
0.0
  0
LINE
  5
2D8
330
36
100
AcDbEntity
  8
0
100
AcDbLine
 10
40.51719
 20
39.724923
 30
0.0
 11
40.51719
 21
40.474923
 31
0.0
  0
LINE
  5
2D9
330
36
100
AcDbEntity
  8
0
100
AcDbLine
 10
38.04219000000001
 20
34.474923
 30
0.0
 11
38.04219000000001
 21
35.224923
 31
0.0
  0
LINE
  5
2DA
330
36
100
AcDbEntity
  8
0
100
AcDbLine
 10
38.04219000000001
 20
36.224923
 30
0.0
 11
38.04219000000001
 21
36.974923
 31
0.0
  0
LINE
  5
2DB
330
36
100
AcDbEntity
  8
0
100
AcDbLine
 10
38.04219000000001
 20
37.974923
 30
0.0
 11
38.04219000000001
 21
38.724923
 31
0.0
  0
LINE
  5
2DC
330
36
100
AcDbEntity
  8
0
100
AcDbLine
 10
38.04219000000001
 20
39.724923
 30
0.0
 11
38.04219000000001
 21
40.474923
 31
0.0
  0
LINE
  5
2DD
330
36
100
AcDbEntity
  8
0
100
AcDbLine
 10
41.25469
 20
34.474923
 30
0.0
 11
33.82969
 21
34.474923
 31
0.0
  0
LINE
  5
2DE
330
36
100
AcDbEntity
  8
0
100
AcDbLine
 10
41.23593999999999
 20
35.224923
 30
0.0
 11
33.84844000000001
 21
35.224923
 31
0.0
  0
LINE
  5
2DF
330
36
100
AcDbEntity
  8
0
100
AcDbLine
 10
41.21094
 20
36.224923
 30
0.0
 11
33.87344000000001
 21
36.224923
 31
0.0
  0
LINE
  5
2E0
330
36
100
AcDbEntity
  8
0
100
AcDbLine
 10
41.19219
 20
36.974923
 30
0.0
 11
33.89219
 21
36.974923
 31
0.0
  0
LINE
  5
2E1
330
36
100
AcDbEntity
  8
0
100
AcDbLine
 10
41.16719
 20
37.974923
 30
0.0
 11
33.91719000000001
 21
37.974923
 31
0.0
  0
LINE
  5
2E2
330
36
100
AcDbEntity
  8
0
100
AcDbLine
 10
41.14844
 20
38.724923
 30
0.0
 11
33.93594
 21
38.724923
 31
0.0
  0
LINE
  5
2E3
330
36
100
AcDbEntity
  8
0
100
AcDbLine
 10
41.12344
 20
39.724923
 30
0.0
 11
33.96094
 21
39.724923
 31
0.0
  0
LINE
  5
2E4
330
36
100
AcDbEntity
  8
0
100
AcDbLine
 10
41.10469000000001
 20
40.474923
 30
0.0
 11
33.97969000000002
 21
40.474923
 31
0.0
  0
LINE
  5
2E5
330
36
100
AcDbEntity
  8
0
100
AcDbLine
 10
46.04219
 20
10.974923
 30
0.0
 11
38.70469
 21
10.974923
 31
0.0
  0
LINE
  5
2E6
330
36
100
AcDbEntity
  8
0
100
AcDbLine
 10
46.04219
 20
11.474923
 30
0.0
 11
29.04219
 21
11.474923
 31
0.0
  0
LINE
  5
2E7
330
36
100
AcDbEntity
  8
0
100
AcDbLine
 10
36.37969
 20
10.974923
 30
0.0
 11
29.04219
 21
10.974923
 31
0.0
  0
LINE
  5
2E8
330
36
100
AcDbEntity
  8
0
100
AcDbLine
 10
33.89219
 20
3.224922999999998
 30
0.0
 11
34.64219
 21
3.224922999999998
 31
0.0
  0
LINE
  5
2E9
330
36
100
AcDbEntity
  8
0
100
AcDbLine
 10
41.19219
 20
3.224922999999998
 30
0.0
 11
40.44219
 21
3.224922999999998
 31
0.0
  0
ARC
  5
2EA
330
36
100
AcDbEntity
  8
0
100
AcDbCircle
 10
37.54219000000001
 20
1.437422999999999
 30
0.0
 40
1.1625
100
AcDbArc
 50
180.0
 51
0.0
  0
LINE
  5
2EB
330
36
100
AcDbEntity
  8
0
100
AcDbLine
 10
41.19219
 20
3.224922999999998
 30
0.0
 11
41.06719
 21
2.474922999999999
 31
0.0
  0
LINE
  5
2EC
330
36
100
AcDbEntity
  8
0
100
AcDbLine
 10
41.06719
 20
2.474922999999999
 30
0.0
 11
40.56719
 21
2.474922999999999
 31
0.0
  0
LINE
  5
2ED
330
36
100
AcDbEntity
  8
0
100
AcDbLine
 10
40.56719
 20
2.474922999999999
 30
0.0
 11
40.44219
 21
3.224922999999998
 31
0.0
  0
LINE
  5
2EE
330
36
100
AcDbEntity
  8
0
100
AcDbLine
 10
34.51719
 20
2.474922999999999
 30
0.0
 11
34.64219
 21
3.224922999999998
 31
0.0
  0
LINE
  5
2EF
330
36
100
AcDbEntity
  8
0
100
AcDbLine
 10
34.01719
 20
2.474922999999999
 30
0.0
 11
34.51719
 21
2.474922999999999
 31
0.0
  0
LINE
  5
2F0
330
36
100
AcDbEntity
  8
0
100
AcDbLine
 10
33.89219
 20
3.224922999999998
 30
0.0
 11
34.01719
 21
2.474922999999999
 31
0.0
  0
LINE
  5
2F1
330
36
100
AcDbEntity
  8
0
100
AcDbLine
 10
38.70469
 20
11.474923
 30
0.0
 11
38.70469
 21
1.437422999999999
 31
0.0
  0
LINE
  5
2F2
330
36
100
AcDbEntity
  8
0
100
AcDbLine
 10
36.37969
 20
11.474923
 30
0.0
 11
36.37969
 21
1.437422999999999
 31
0.0
  0
LINE
  5
2F3
330
36
100
AcDbEntity
  8
0
100
AcDbLine
 10
33.89219
 20
3.224922999999998
 30
0.0
 11
33.89219
 21
10.974923
 31
0.0
  0
LINE
  5
2F4
330
36
100
AcDbEntity
  8
0
100
AcDbLine
 10
34.64219
 20
3.224922999999998
 30
0.0
 11
34.64219
 21
10.974923
 31
0.0
  0
LINE
  5
2F5
330
36
100
AcDbEntity
  8
0
100
AcDbLine
 10
40.44219
 20
3.224922999999998
 30
0.0
 11
40.44219
 21
10.974923
 31
0.0
  0
LINE
  5
2F6
330
36
100
AcDbEntity
  8
0
100
AcDbLine
 10
41.19219
 20
3.224922999999998
 30
0.0
 11
41.19219
 21
10.974923
 31
0.0
  0
LINE
  5
309
330
36
100
AcDbEntity
  8
0
 62
     3
100
AcDbLine
 10
-194.07237
 20
2.548693
 30
0.0
 11
-196.670447
 21
1.048693
 31
0.0
  0
LINE
  5
30A
330
36
100
AcDbEntity
  8
0
 62
     3
100
AcDbLine
 10
-194.07237
 20
2.548693
 30
0.0
 11
-196.670447
 21
4.048693
 31
0.0
  0
LINE
  5
30B
330
36
100
AcDbEntity
  8
0
 62
     3
100
AcDbLine
 10
-196.670447
 20
1.048693
 30
0.0
 11
-196.670447
 21
4.048693
 31
0.0
  0
TEXT
  5
30C
330
36
100
AcDbEntity
  8
0
 62
     3
100
AcDbText
 10
125.9890432569102
 20
-57.21501700000001
 30
0.0
 40
4.5
  1
15A
  7
高4.5
100
AcDbText
  0
TEXT
  5
30D
330
36
100
AcDbEntity
  8
0
 62
     3
100
AcDbText
 10
124.376518603196
 20
-50.011947
 30
0.0
 40
4.5
  1
100V
  7
高4.5
100
AcDbText
  0
LINE
  5
313
330
36
100
AcDbEntity
  8
0
100
AcDbLine
 10
54.55075
 20
26.193051
 30
0.0
 11
79.30074999999998
 21
26.193051
 31
0.0
  0
TEXT
  5
314
330
36
100
AcDbEntity
  8
0
 62
     4
100
AcDbText
 10
57.30075
 20
27.193051
 30
0.0
 40
3.2
  1
ポッキンプラグ
 41
0.716146
100
AcDbText
  0
LINE
  5
315
330
36
100
AcDbEntity
  8
0
 62
     3
100
AcDbLine
 10
208.329553
 20
-135.951307
 30
0.0
 11
208.329553
 21
141.048693
 31
0.0
  0
LINE
  5
316
330
36
100
AcDbEntity
  8
0
 62
     3
100
AcDbLine
 10
-181.670447
 20
141.048693
 30
0.0
 11
208.329553
 21
141.048693
 31
0.0
  0
LINE
  5
317
330
36
100
AcDbEntity
  8
0
 62
     3
100
AcDbLine
 10
-181.670447
 20
141.048693
 30
0.0
 11
-181.670447
 21
-135.951307
 31
0.0
  0
LINE
  5
318
330
36
100
AcDbEntity
  8
0
 62
     3
100
AcDbLine
 10
-181.670447
 20
-135.951307
 30
0.0
 11
208.329553
 21
-135.951307
 31
0.0
  0
LINE
  5
319
330
36
100
AcDbEntity
  8
0
 62
     3
100
AcDbLine
 10
-80.48712599999998
 20
77.297629
 30
0.0
 11
-80.48712599999998
 21
82.720242
 31
0.0
  0
LINE
  5
31A
330
36
100
AcDbEntity
  8
0
 62
     3
100
AcDbLine
 10
-84.647126
 20
82.720242
 30
0.0
 11
-80.48712599999998
 21
82.720242
 31
0.0
  0
LINE
  5
31B
330
36
100
AcDbEntity
  8
0
 62
     3
100
AcDbLine
 10
-79.967127
 20
83.24024200000001
 30
0.0
 11
-80.48712599999998
 21
82.720242
 31
0.0
  0
LINE
  5
31C
330
36
100
AcDbEntity
  8
0
 62
     3
100
AcDbLine
 10
-81.26712600000002
 20
82.460242
 30
0.0
 11
-81.26712600000002
 21
80.900242
 31
0.0
  0
LINE
  5
31D
330
36
100
AcDbEntity
  8
0
 62
     3
100
AcDbLine
 10
-81.26712600000002
 20
80.900242
 30
0.0
 11
-83.867126
 21
80.900242
 31
0.0
  0
LINE
  5
31E
330
36
100
AcDbEntity
  8
0
 62
     3
100
AcDbLine
 10
-83.867126
 20
82.460242
 30
0.0
 11
-81.26712600000002
 21
82.460242
 31
0.0
  0
LINE
  5
31F
330
36
100
AcDbEntity
  8
0
 62
     3
100
AcDbLine
 10
-83.867126
 20
82.460242
 30
0.0
 11
-83.867126
 21
80.900242
 31
0.0
  0
LINE
  5
320
330
36
100
AcDbEntity
  8
0
 62
     3
100
AcDbLine
 10
-84.647126
 20
80.120242
 30
0.0
 11
-80.48712599999998
 21
80.120242
 31
0.0
  0
LINE
  5
321
330
36
100
AcDbEntity
  8
0
 62
     3
100
AcDbLine
 10
-84.647126
 20
77.294083
 30
0.0
 11
-84.647126
 21
82.720242
 31
0.0
  0
LINE
  5
322
330
36
100
AcDbEntity
  8
0
 62
     3
100
AcDbLine
 10
-84.647126
 20
78.560242
 30
0.0
 11
-80.48712599999998
 21
78.560242
 31
0.0
  0
LINE
  5
323
330
36
100
AcDbEntity
  8
0
 62
     3
100
AcDbLine
 10
-85.16712599999998
 20
83.24024200000001
 30
0.0
 11
-84.647126
 21
82.720242
 31
0.0
  0
LINE
  5
33C
330
36
100
AcDbEntity
  8
0
 62
     3
100
AcDbLine
 10
48.335368
 20
92.005826
 30
0.0
 11
52.685368
 21
92.005826
 31
0.0
  0
LINE
  5
33D
330
36
100
AcDbEntity
  8
0
 62
     3
100
AcDbLine
 10
49.760368
 20
64.77368699999999
 30
0.0
 11
51.260368
 21
64.77368699999999
 31
0.0
  0
LINE
  5
33E
330
36
100
AcDbEntity
  8
0
 62
     3
100
AcDbLine
 10
52.296082
 20
64.77368699999999
 30
0.0
 11
52.296082
 21
69.68440099999999
 31
0.0
  0
LINE
  5
33F
330
36
100
AcDbEntity
  8
0
 62
     3
100
AcDbLine
 10
51.260368
 20
64.77368699999999
 30
0.0
 11
52.296082
 21
64.77368699999999
 31
0.0
  0
LINE
  5
340
330
36
100
AcDbEntity
  8
0
 62
     3
100
AcDbLine
 10
49.760368
 20
64.77368699999999
 30
0.0
 11
48.724654
 21
64.77368699999999
 31
0.0
  0
LINE
  5
341
330
36
100
AcDbEntity
  8
0
 62
     3
100
AcDbLine
 10
48.724654
 20
64.77368699999999
 30
0.0
 11
48.724654
 21
69.68440099999999
 31
0.0
  0
LINE
  5
342
330
36
100
AcDbEntity
  8
0
 62
     3
100
AcDbLine
 10
53.880724
 20
75.62680999999997
 30
0.0
 11
52.296082
 21
69.68440099999999
 31
0.0
  0
LINE
  5
343
330
36
100
AcDbEntity
  8
0
 62
     3
100
AcDbLine
 10
47.14001099999999
 20
75.62680999999997
 30
0.0
 11
48.724654
 21
69.68440099999999
 31
0.0
  0
ARC
  5
344
330
36
100
AcDbEntity
  8
0
100
AcDbCircle
 10
48.835368
 20
93.505826
 30
0.0
 40
0.5
100
AcDbArc
 50
90.0
 51
180.0
  0
LINE
  5
345
330
36
100
AcDbEntity
  8
0
100
AcDbLine
 10
48.335368
 20
93.505826
 30
0.0
 11
48.335368
 21
92.005826
 31
0.0
  0
LINE
  5
346
330
36
100
AcDbEntity
  8
0
100
AcDbLine
 10
48.835368
 20
94.00582599999999
 30
0.0
 11
52.18536799999998
 21
94.00582599999999
 31
0.0
  0
ARC
  5
347
330
36
100
AcDbEntity
  8
0
100
AcDbCircle
 10
52.18536799999998
 20
93.505826
 30
0.0
 40
0.5
100
AcDbArc
 50
0.0
 51
90.0
  0
LINE
  5
348
330
36
100
AcDbEntity
  8
0
100
AcDbLine
 10
52.685368
 20
93.505826
 30
0.0
 11
52.685368
 21
92.005826
 31
0.0
  0
ARC
  5
353
330
36
100
AcDbEntity
  8
0
 62
     3
100
AcDbCircle
 10
45.89287999999998
 20
27.2474
 30
0.0
 40
0.25
100
AcDbArc
 50
330.0
 51
60.0
  0
LINE
  5
354
330
36
100
AcDbEntity
  8
0
 62
     3
100
AcDbLine
 10
43.51130999999997
 20
28.6224
 30
0.0
 11
43.10405499999999
 21
27.917013
 31
0.0
  0
ARC
  5
355
330
36
100
AcDbEntity
  8
0
 62
     3
100
AcDbCircle
 10
43.72781599999998
 20
28.4974
 30
0.0
 40
0.25
100
AcDbArc
 50
60.0
 51
150.0
  0
ARC
  5
356
330
36
100
AcDbEntity
  8
0
 62
     3
100
AcDbCircle
 10
41.91719
 20
32.599923
 30
0.0
 40
0.375
100
AcDbArc
 50
0.0
 51
90.0
  0
ARC
  5
357
330
36
100
AcDbEntity
  8
0
 62
     3
100
AcDbCircle
 10
33.16719000000001
 20
32.599923
 30
0.0
 40
0.375
100
AcDbArc
 50
90.0
 51
180.0
  0
LINE
  5
358
330
36
100
AcDbEntity
  8
0
 62
     3
100
AcDbLine
 10
-85.16712599999998
 20
77.45459
 30
0.0
 11
-85.16712599999998
 21
83.24024200000001
 31
0.0
  0
LINE
  5
359
330
36
100
AcDbEntity
  8
0
 62
     3
100
AcDbLine
 10
-85.16712599999998
 20
83.24024200000001
 30
0.0
 11
-79.967127
 21
83.24024200000001
 31
0.0
  0
LINE
  5
35A
330
36
100
AcDbEntity
  8
0
 62
     3
100
AcDbLine
 10
-79.967127
 20
77.44673699999998
 30
0.0
 11
-79.967127
 21
83.24024200000001
 31
0.0
  0
ARC
  5
35B
330
36
100
AcDbEntity
  8
0
 62
     3
100
AcDbCircle
 10
49.56717600000001
 20
76.77709
 30
0.0
 40
4.464285
100
AcDbArc
 50
345.068583
 51
354.907578
  0
ARC
  5
35C
330
36
100
AcDbEntity
  8
0
 62
     3
100
AcDbCircle
 10
51.45355999999999
 20
76.77709
 30
0.0
 40
4.464285
100
AcDbArc
 50
175.100908
 51
194.931417
  0
LINE
  5
35D
330
36
100
AcDbEntity
  8
0
 62
     3
100
AcDbLine
 10
52.685368
 20
92.005826
 30
0.0
 11
53.51036800000001
 21
92.005826
 31
0.0
  0
LINE
  5
35E
330
36
100
AcDbEntity
  8
0
 62
     3
100
AcDbLine
 10
48.335368
 20
92.005826
 30
0.0
 11
47.510368
 21
92.005826
 31
0.0
  0
LINE
  5
361
330
36
100
AcDbEntity
  8
0
 62
     3
100
AcDbLine
 10
182.63019
 20
-119.285585
 30
0.0
 11
182.6301899999999
 21
-96.285585
 31
0.0
  0
LINE
  5
363
330
36
100
AcDbEntity
  8
0
 62
     3
100
AcDbLine
 10
129.57658
 20
-126.285585
 30
0.0
 11
129.57658
 21
-112.285585
 31
0.0
  0
TEXT
  5
365
330
36
100
AcDbEntity
  8
0
 62
     3
100
AcDbText
 10
158.640508
 20
-100.080469
 30
0.0
 40
2.0
  1
A
 41
0.7
100
AcDbText
  0
TEXT
  5
366
330
36
100
AcDbEntity
  8
0
 62
     3
100
AcDbText
 10
161.175794
 20
-100.080469
 30
0.0
 40
2.0
  1
P
 41
0.7
100
AcDbText
  0
TEXT
  5
367
330
36
100
AcDbEntity
  8
0
 62
     3
100
AcDbText
 10
163.71108
 20
-100.080469
 30
0.0
 40
2.0
  1
P
 41
0.7
100
AcDbText
  0
TEXT
  5
368
330
36
100
AcDbEntity
  8
0
 62
     3
100
AcDbText
 10
166.246367
 20
-100.080469
 30
0.0
 40
2.0
  1
D
 41
0.7
100
AcDbText
  0
TEXT
  5
369
330
36
100
AcDbEntity
  8
0
 62
     3
100
AcDbText
 10
171.61505
 20
-100.080469
 30
0.0
 40
2.0
  1
C
 41
0.7
100
AcDbText
  0
TEXT
  5
36A
330
36
100
AcDbEntity
  8
0
 62
     3
100
AcDbText
 10
174.150336
 20
-100.080469
 30
0.0
 40
2.0
  1
H
 41
0.7
100
AcDbText
  0
TEXT
  5
36B
330
36
100
AcDbEntity
  8
0
 62
     3
100
AcDbText
 10
176.685622
 20
-100.080469
 30
0.0
 40
2.0
  1
C
 41
0.7
100
AcDbText
  0
TEXT
  5
36C
330
36
100
AcDbEntity
  8
0
 62
     3
100
AcDbText
 10
179.220908
 20
-100.080469
 30
0.0
 40
2.0
  1
K
 41
0.7
100
AcDbText
  0
TEXT
  5
36D
330
36
100
AcDbEntity
  8
0
 62
     3
100
AcDbText
 10
184.894875
 20
-100.080469
 30
0.0
 40
2.0
  1
DESN
 41
1.216762999999998
100
AcDbText
  0
TEXT
  5
36E
330
36
100
AcDbEntity
  8
0
 62
     3
100
AcDbText
 10
99.88851600000003
 20
-129.426967
 30
0.0
 40
2.0
  1
NICHIDO IND.CO.LTD
 41
1.274876
100
AcDbText
  0
LINE
  5
36F
330
36
100
AcDbEntity
  8
0
 62
     3
100
AcDbLine
 10
110.271546
 20
-96.285585
 30
0.0
 11
110.271546
 21
-119.285585
 31
0.0
  0
LINE
  5
370
330
36
100
AcDbEntity
  8
0
 62
     3
100
AcDbLine
 10
156.63019
 20
-96.28558499999998
 30
0.0
 11
156.63019
 21
-135.951307
 31
0.0
  0
LINE
  5
375
330
36
100
AcDbEntity
  8
0
 62
     3
100
AcDbLine
 10
169.63019
 20
-96.28558500000004
 30
0.0
 11
169.63019
 21
-126.285585
 31
0.0
  0
TEXT
  5
376
330
36
100
AcDbEntity
  8
0
 62
     3
100
AcDbText
 10
157.742635
 20
-125.420898
 30
0.0
 40
3.2
  1
作成日
 41
1.017225999999997
100
AcDbText
  0
LINE
  5
377
330
36
100
AcDbEntity
  8
0
 62
     3
100
AcDbLine
 10
208.329553
 20
-96.285585
 30
0.0
 11
97.026111
 21
-96.285585
 31
0.0
  0
LINE
  5
378
330
36
100
AcDbEntity
  8
0
 62
     3
100
AcDbLine
 10
195.63019
 20
-119.285585
 30
0.0
 11
195.63019
 21
-96.285585
 31
0.0
  0
TEXT
  5
379
330
36
100
AcDbEntity
  8
0
 62
     3
100
AcDbText
 10
198.953993
 20
-99.99465
 30
0.0
 40
1.8
  1
D
 41
0.666667
100
AcDbText
  0
TEXT
  5
37A
330
36
100
AcDbEntity
  8
0
 62
     3
100
AcDbText
 10
201.770621
 20
-99.99465
 30
0.0
 40
1.8
  1
E
 41
0.666667
100
AcDbText
  0
TEXT
  5
37B
330
36
100
AcDbEntity
  8
0
 62
     3
100
AcDbText
 10
204.58725
 20
-99.99465
 30
0.0
 40
1.8
  1
F
 41
0.666667
100
AcDbText
  0
TEXT
  5
37C
330
36
100
AcDbEntity
  8
0
 62
     3
100
AcDbText
 10
198.953993
 20
-103.987204
 30
0.0
 40
3.2
  1
製図
 41
1.076369
100
AcDbText
  0
LINE
  5
37D
330
36
100
AcDbEntity
  8
0
 62
     3
100
AcDbLine
 10
97.026111
 20
-96.285585
 30
0.0
 11
97.026111
 21
-135.951307
 31
0.0
  0
TEXT
  5
37E
330
36
100
AcDbEntity
  8
0
 62
     3
100
AcDbText
 10
98.402764
 20
-135.618842
 30
0.0
 40
5.0
  1
日動工業株式会社
 41
0.833333
100
AcDbText
  0
LINE
  5
37F
330
36
100
AcDbEntity
  8
0
 62
     3
100
AcDbLine
 10
139.908515
 20
-112.285585
 30
0.0
 11
139.908515
 21
-135.951307
 31
0.0
  0
LINE
  5
380
330
36
100
AcDbEntity
  8
0
 62
     3
100
AcDbLine
 10
139.908515
 20
-131.118446
 30
0.0
 11
156.63019
 21
-131.118446
 31
0.0
  0
TEXT
  5
381
330
36
100
AcDbEntity
  8
0
 62
     3
100
AcDbText
 10
140.495117
 20
-130.302015
 30
0.0
 40
3.2
  1
出図コード
 41
0.8356860000000001
100
AcDbText
  0
LINE
  5
383
330
36
100
AcDbEntity
  8
0
 62
     3
100
AcDbLine
 10
97.026111
 20
-126.285585
 30
0.0
 11
208.329553
 21
-126.285585
 31
0.0
  0
LINE
  5
385
330
36
100
AcDbEntity
  8
0
 62
     3
100
AcDbLine
 10
97.02611099999998
 20
-105.285585
 30
0.0
 11
208.329553
 21
-105.285585
 31
0.0
  0
LINE
  5
38B
330
36
100
AcDbEntity
  8
0
 62
     3
100
AcDbLine
 10
97.026111
 20
-112.285585
 30
0.0
 11
156.63019
 21
-112.285585
 31
0.0
  0
LINE
  5
391
330
36
100
AcDbEntity
  8
0
 62
     3
100
AcDbLine
 10
97.026111
 20
-119.285585
 30
0.0
 11
208.329553
 21
-119.285585
 31
0.0
  0
TEXT
  5
392
330
36
100
AcDbEntity
  8
0
 62
     3
100
AcDbText
 10
140.362568
 20
-135.5616693978084
 30
0.0
 40
3.2
  1
ZK-A3X
 41
0.8112849999999999
100
AcDbText
  0
TEXT
  5
393
330
36
100
AcDbEntity
  8
0
 62
     3
100
AcDbText
 10
98.84350799999999
 20
-100.116059
 30
0.0
 40
2.0
  1
CONPONENTS
 41
0.5331600000000001
100
AcDbText
  0
TEXT
  5
394
330
36
100
AcDbEntity
  8
0
 62
     3
100
AcDbText
 10
98.49378100000002
 20
-119.048236
 30
0.0
 40
3.0
  1
材
 41
0.833333
100
AcDbText
  0
TEXT
  5
395
330
36
100
AcDbEntity
  8
0
 62
     3
100
AcDbText
 10
106.029424
 20
-119.048236
 30
0.0
 40
3.0
  1
質
 41
0.833333
100
AcDbText
  0
TEXT
  5
396
330
36
100
AcDbEntity
  8
0
 62
     3
100
AcDbText
 10
98.58185200000001
 20
-108.423711
 30
0.0
 40
2.0
  1
MODEL
 41
1.031072999999999
100
AcDbText
  0
TEXT
  5
397
330
36
100
AcDbEntity
  8
0
 62
     3
100
AcDbText
 10
98.49378100000002
 20
-115.365928
 30
0.0
 40
2.0
  1
MATERIAL
 41
0.659278
100
AcDbText
  0
TEXT
  5
398
330
36
100
AcDbEntity
  8
0
 62
     3
100
AcDbText
 10
129.801062
 20
-119.048236
 30
0.0
 40
3.0
  1
備
 41
0.833333
100
AcDbText
  0
TEXT
  5
399
330
36
100
AcDbEntity
  8
0
 62
     3
100
AcDbText
 10
136.5340629999999
 20
-119.048236
 30
0.0
 40
3.0
  1
考
 41
0.833333
100
AcDbText
  0
TEXT
  5
39A
330
36
100
AcDbEntity
  8
0
 62
     3
100
AcDbText
 10
130.1261422998334
 20
-115.365928
 30
0.0
 40
2.0
  1
REMARKS
 41
0.675794
100
AcDbText
  0
TEXT
  5
39B
330
36
100
AcDbEntity
  8
0
 62
     3
100
AcDbText
 10
100.08351
 20
-122.286048
 30
0.0
 40
2.0
  1
3AD
 41
1.42614
100
AcDbText
  0
TEXT
  5
39C
330
36
100
AcDbEntity
  8
0
 62
     3
100
AcDbText
 10
109.39449
 20
-122.120315
 30
0.0
 40
2.0
  1
ANGLE
 41
1.669883999999995
100
AcDbText
  0
TEXT
  5
39D
330
36
100
AcDbEntity
  8
0
 62
     3
100
AcDbText
 10
130.328377
 20
-122.497155
 30
0.0
 40
2.0
  1
SCALE
 41
0.7719630000000001
100
AcDbText
  0
TEXT
  5
39E
330
36
100
AcDbEntity
  8
0
 62
     3
100
AcDbText
 10
99.76964
 20
-126.285585
 30
0.0
 40
3.0
  1
第
 41
0.833333
100
AcDbText
  0
TEXT
  5
39F
330
36
100
AcDbEntity
  8
0
 62
     3
100
AcDbText
 10
107.55649
 20
-126.285585
 30
0.0
 40
3.0
  1
三
 41
0.833333
100
AcDbText
  0
TEXT
  5
3A0
330
36
100
AcDbEntity
  8
0
 62
     3
100
AcDbText
 10
115.34334
 20
-126.285585
 30
0.0
 40
3.0
  1
角
 41
0.833333
100
AcDbText
  0
TEXT
  5
3A1
330
36
100
AcDbEntity
  8
0
 62
     3
100
AcDbText
 10
123.13019
 20
-126.285585
 30
0.0
 40
3.0
  1
法
 41
0.833333
100
AcDbText
  0
TEXT
  5
3A2
330
36
100
AcDbEntity
  8
0
 62
     3
100
AcDbText
 10
130.191582
 20
-125.997155
 30
0.0
 40
3.0
  1
尺
 41
0.833333
100
AcDbText
  0
TEXT
  5
3A3
330
36
100
AcDbEntity
  8
0
 62
     3
100
AcDbText
 10
136.924584
 20
-125.997155
 30
0.0
 40
3.0
  1
度
 41
0.833333
100
AcDbText
  0
TEXT
  5
3A4
330
36
100
AcDbEntity
  8
0
 62
     3
100
AcDbText
 10
159.507854
 20
-103.827856
 30
0.0
 40
3.0
  1
承認
 41
1.089472999999999
100
AcDbText
  0
TEXT
  5
3A5
330
36
100
AcDbEntity
  8
0
 62
     3
100
AcDbText
 10
172.750734
 20
-103.885585
 30
0.0
 40
3.0
  1
検図
 41
0.931761
100
AcDbText
  0
TEXT
  5
3A6
330
36
100
AcDbEntity
  8
0
 62
     3
100
AcDbText
 10
185.751131
 20
-103.885585
 30
0.0
 40
3.0
  1
設
 41
0.833333
100
AcDbText
  0
TEXT
  5
3A7
330
36
100
AcDbEntity
  8
0
 62
     3
100
AcDbText
 10
190.240999
 20
-103.885585
 30
0.0
 40
3.0
  1
計
 41
0.833333
100
AcDbText
  0
TEXT
  5
3A8
330
36
100
AcDbEntity
  8
0
 62
     3
100
AcDbText
 10
98.913614
 20
-103.713032
 30
0.0
 40
3.0
  1
品
 41
0.833333
100
AcDbText
  0
TEXT
  5
3A9
330
36
100
AcDbEntity
  8
0
 62
     3
100
AcDbText
 10
106.449257
 20
-103.713032
 30
0.0
 40
3.0
  1
名
 41
0.833333
100
AcDbText
  0
TEXT
  5
3AA
330
36
100
AcDbEntity
  8
0
 62
     3
100
AcDbText
 10
98.58185200000001
 20
-111.9249769445105
 30
0.0
 40
3.0
  1
型
 41
0.833333
100
AcDbText
  0
TEXT
  5
3AB
330
36
100
AcDbEntity
  8
0
 62
     3
100
AcDbText
 10
106.129942
 20
-111.9249769445105
 30
0.0
 40
3.0
  1
式
 41
0.833333
100
AcDbText
  0
CIRCLE
  5
3B1
330
36
100
AcDbEntity
  8
0
100
AcDbCircle
 10
-12.203883
 20
0.9836799999999998
 30
0.0
 40
5.0
  0
TEXT
  5
3B2
330
36
100
AcDbEntity
  8
0
 62
     4
100
AcDbText
 10
-13.19405801856692
 20
-2.060968354571738
 30
0.0
 40
6.299999999999998
  1
1
  7
高6.3
100
AcDbText
  0
CIRCLE
  5
3B8
330
36
100
AcDbEntity
  8
0
100
AcDbCircle
 10
-12.203883
 20
23.432385
 30
0.0
 40
5.0
  0
TEXT
  5
3B9
330
36
100
AcDbEntity
  8
0
 62
     4
100
AcDbText
 10
-14.46252733336824
 20
20.12668245081378
 30
0.0
 40
6.299999999999998
  1
9
  7
高6.3
100
AcDbText
  0
CIRCLE
  5
3BF
330
36
100
AcDbEntity
  8
0
100
AcDbCircle
 10
-46.453209
 20
21.961608
 30
0.0
 40
5.0
  0
TEXT
  5
3C0
330
36
100
AcDbEntity
  8
0
 62
     4
100
AcDbText
 10
-63.72262286180078
 20
18.65590545081378
 30
0.0
 40
6.299999999999998
  1
7
  7
高6.3
100
AcDbText
  0
CIRCLE
  5
3C6
330
36
100
AcDbEntity
  8
0
100
AcDbCircle
 10
-62.064089
 20
22.417462
 30
0.0
 40
5.0
  0
TEXT
  5
3C7
330
36
100
AcDbEntity
  8
0
 62
     4
100
AcDbText
 10
-48.50650545654549
 20
18.81547419415119
 30
0.0
 40
6.299999999999998
  1
8
  7
高6.3
100
AcDbText
  0
TEXT
  5
3D7
330
36
100
AcDbEntity
  8
0
 62
     3
100
AcDbText
 10
-117.200744713648
 20
-95.45130700000004
 30
0.0
 40
3.2
  1
100Vネオン球(赤)
 41
0.8
  7
高3.2
100
AcDbText
  0
TEXT
  5
3D8
330
36
100
AcDbEntity
  8
0
 62
     3
100
AcDbText
 10
-117.200744713648
 20
-90.45130700000004
 30
0.0
 40
3.2
  1
100Vネオン球(緑)
 41
0.8
  7
高3.2
100
AcDbText
  0
TEXT
  5
3D9
330
36
100
AcDbEntity
  8
0
 62
     3
100
AcDbText
 10
-172.462379
 20
-90.45130700000004
 30
0.0
 40
3.2
  1
アースチェックランプ
 41
0.8
  7
高3.2
100
AcDbText
  0
TEXT
  5
3DA
330
36
100
AcDbEntity
  8
0
 62
     3
100
AcDbText
 10
-133.9154797362874
 20
-85.45130700000004
 30
0.0
 40
3.2
  1
ABS樹脂
 41
0.8
  7
高3.2
100
AcDbText
  0
TEXT
  5
3DB
330
36
100
AcDbEntity
  8
0
 62
     3
100
AcDbText
 10
-133.9154797362875
 20
-90.45130700000004
 30
0.0
 40
3.2
  1
ABS樹脂
 41
0.8
  7
高3.2
100
AcDbText
  0
TEXT
  5
3DC
330
36
100
AcDbEntity
  8
0
 62
     3
100
AcDbText
 10
-133.9154797362875
 20
-95.45130700000004
 30
0.0
 40
3.2
  1
ABS樹脂
 41
0.8
  7
高3.2
100
AcDbText
  0
TEXT
  5
3DD
330
36
100
AcDbEntity
  8
0
 62
     3
100
AcDbText
 10
-172.462379
 20
-85.45130700000004
 30
0.0
 40
3.2
  1
E付コンセント
 41
0.8
  7
高3.2
100
AcDbText
  0
TEXT
  5
3DE
330
36
100
AcDbEntity
  8
0
 62
     3
100
AcDbText
 10
114.744768
 20
-118.987336
 30
0.0
 40
3.2
  1
別　掲
  7
高3.2
100
AcDbText
  0
TEXT
  5
3DF
330
36
100
AcDbEntity
  8
0
 62
     3
100
AcDbText
 10
115.278518
 20
-111.511087
 30
0.0
 40
4.5
  1
KS-EB550
  7
高4.5
100
AcDbText
  0
TEXT
  5
3E0
330
36
100
AcDbEntity
  8
0
 62
     3
100
AcDbText
 10
171.832833
 20
-124.996265
 30
0.0
 40
3.2
  1
2009.3.18
  7
高3.2
100
AcDbText
  0
TEXT
  5
3E1
330
36
100
AcDbEntity
  8
0
 62
     3
100
AcDbText
 10
158.353407
 20
-134.7100141683537
 30
0.0
 40
6.299999999999998
  1
KS-EB550
  7
高6.3
100
AcDbText
  0
TEXT
  5
3E2
330
36
100
AcDbEntity
  8
0
 62
     3
100
AcDbText
 10
-172.462379
 20
-120.451307
 30
0.0
 40
3.2
  1
漏電遮断器（漏電専用型）
 41
0.8
  7
高3.2
100
AcDbText
  0
TEXT
  5
3E3
330
36
100
AcDbEntity
  8
0
 62
     3
100
AcDbText
 10
-117.200744713648
 20
-115.451307
 30
0.0
 40
3.2
  1
枠(緑)
 41
0.8
  7
高3.2
100
AcDbText
  0
TEXT
  5
3E4
330
36
100
AcDbEntity
  8
0
 62
     3
100
AcDbText
 10
-117.200744713648
 20
-85.45130700000004
 30
0.0
 40
3.2
  1
15A 125V 2PE-GK(緑)
 41
0.8
  7
高3.2
100
AcDbText
  0
TEXT
  5
3E5
330
36
100
AcDbEntity
  8
0
 62
     3
100
AcDbText
 10
-117.200744713648
 20
-120.451307
 30
0.0
 40
3.2
  1
購入品 100V 30A/15mAセンサーユニット用
 41
0.8
  7
高3.2
100
AcDbText
  0
LINE
  5
3E6
330
36
100
AcDbEntity
  8
0
 62
     3
100
AcDbLine
 10
182.63019
 20
-96.285585
 30
0.0
 11
182.63019
 21
-90.285585
 31
0.0
  0
LINE
  5
3E7
330
36
100
AcDbEntity
  8
0
 62
     3
100
AcDbLine
 10
156.63019
 20
-96.285585
 30
0.0
 11
156.63019
 21
-90.285585
 31
0.0
  0
LINE
  5
3E8
330
36
100
AcDbEntity
  8
0
 62
     3
100
AcDbLine
 10
208.329553
 20
-90.285585
 30
0.0
 11
156.63019
 21
-90.285585
 31
0.0
  0
TEXT
  5
3E9
330
36
100
AcDbEntity
  8
0
 62
     3
100
AcDbText
 10
162.086393299784
 20
-95.489236
 30
0.0
 40
4.5
  1
コード
  7
高4.5
100
AcDbText
  0
TEXT
  5
3EA
330
36
100
AcDbEntity
  8
0
 62
     3
100
AcDbText
 10
187.5703051011785
 20
-95.64144799999999
 30
0.0
 40
4.5
  1
5231
  7
高4.5
100
AcDbText
  0
TEXT
  5
4D3
330
36
100
AcDbEntity
  8
0
 62
     3
100
AcDbText
 10
-43.73570725827534
 20
-125.451307
 30
0.0
 40
3.2
  1
1
 41
0.8
  7
高3.2
100
AcDbText
  0
LINE
  5
4D5
330
36
100
AcDbEntity
  8
0
100
AcDbLine
 10
-173.962379
 20
-125.951307
 30
0.0
 11
-36.73674855302166
 21
-125.951307
 31
0.0
  0
TEXT
  5
4E0
330
36
100
AcDbEntity
  8
0
 62
     3
100
AcDbText
 10
-172.462379
 20
-125.451307
 30
0.0
 40
3.2
  1
本体カバー
 41
0.8
  7
高3.2
100
AcDbText
  0
TEXT
  5
4E1
330
36
100
AcDbEntity
  8
0
 62
     3
100
AcDbText
 10
-133.9154797362875
 20
-125.451307
 30
0.0
 40
3.2
  1
ABS樹脂
 41
0.8
  7
高3.2
100
AcDbText
  0
TEXT
  5
4E4
330
36
100
AcDbEntity
  8
0
 62
     3
100
AcDbText
 10
-117.200744713648
 20
-125.451307
 30
0.0
 40
3.2
  1
(色：黒)
 41
0.8
  7
高3.2
100
AcDbText
  0
TEXT
  5
62E
330
36
100
AcDbEntity
  8
0
 62
     3
100
AcDbText
 10
195.829553
 20
131.548693
 30
0.0
 40
3.2
  1
担　当
  7
高3.2
100
AcDbText
  0
TEXT
  5
62F
330
36
100
AcDbEntity
  8
0
 62
     3
100
AcDbText
 10
151.829553
 20
131.548693
 30
0.0
 40
3.2
  1
変更・追記内容
  7
高3.2
100
AcDbText
  0
TEXT
  5
630
330
36
100
AcDbEntity
  8
0
 62
     3
100
AcDbText
 10
126.9430680003392
 20
126.8781544900917
 30
0.0
 40
2.0
  1
1
  7
高2
100
AcDbText
  0
TEXT
  5
631
330
36
100
AcDbEntity
  8
0
 62
     3
100
AcDbText
 10
126.6345565235819
 20
121.7083377778188
 30
0.0
 40
2.0
  1
2
  7
高2
100
AcDbText
  0
TEXT
  5
632
330
36
100
AcDbEntity
  8
0
 62
     3
100
AcDbText
 10
133.829553
 20
131.548693
 30
0.0
 40
3.2
  1
日　付
  7
高3.2
100
AcDbText
  0
TEXT
  5
633
330
36
100
AcDbEntity
  8
0
 62
     3
100
AcDbText
 10
133.829553
 20
136.548693
 30
0.0
 40
3.2
  1
図　　　　面　　　　略　　　　歴
  7
高3.2
100
AcDbText
  0
TEXT
  5
634
330
36
100
AcDbEntity
  8
0
 62
     3
100
AcDbText
 10
123.829553
 20
131.548693
 30
0.0
 40
3.2
  1
記号
  7
高3.2
100
AcDbText
  0
LINE
  5
635
330
36
100
AcDbEntity
  8
0
100
AcDbLine
 10
127.329553
 20
124.839589
 30
0.0
 11
125.429553
 21
121.548693
 31
0.0
  0
LINE
  5
636
330
36
100
AcDbEntity
  8
0
100
AcDbLine
 10
127.329553
 20
124.839589
 30
0.0
 11
129.229553
 21
121.548693
 31
0.0
  0
LINE
  5
637
330
36
100
AcDbEntity
  8
0
100
AcDbLine
 10
125.429553
 20
121.548693
 30
0.0
 11
129.229553
 21
121.548693
 31
0.0
  0
LINE
  5
638
330
36
100
AcDbEntity
  8
0
100
AcDbLine
 10
127.329553
 20
129.83959
 30
0.0
 11
125.429553
 21
126.548693
 31
0.0
  0
LINE
  5
639
330
36
100
AcDbEntity
  8
0
100
AcDbLine
 10
127.329553
 20
129.83959
 30
0.0
 11
129.229553
 21
126.548693
 31
0.0
  0
LINE
  5
63A
330
36
100
AcDbEntity
  8
0
100
AcDbLine
 10
125.429553
 20
126.548693
 30
0.0
 11
129.229553
 21
126.548693
 31
0.0
  0
LINE
  5
63B
330
36
100
AcDbEntity
  8
0
 62
     3
100
AcDbLine
 10
122.329553
 20
136.048693
 30
0.0
 11
208.329553
 21
136.048693
 31
0.0
  0
LINE
  5
63C
330
36
100
AcDbEntity
  8
0
 62
     3
100
AcDbLine
 10
122.329553
 20
131.048693
 30
0.0
 11
208.329553
 21
131.048693
 31
0.0
  0
LINE
  5
63D
330
36
100
AcDbEntity
  8
0
 62
     7
100
AcDbLine
 10
122.329553
 20
126.048693
 30
0.0
 11
208.329553
 21
126.048693
 31
0.0
  0
LINE
  5
63E
330
36
100
AcDbEntity
  8
0
 62
     3
100
AcDbLine
 10
122.329553
 20
121.048693
 30
0.0
 11
208.329553
 21
121.048693
 31
0.0
  0
LINE
  5
63F
330
36
100
AcDbEntity
  8
0
 62
     7
100
AcDbLine
 10
194.3295529999999
 20
121.048693
 30
0.0
 11
194.329553
 21
136.048693
 31
0.0
  0
LINE
  5
640
330
36
100
AcDbEntity
  8
0
 62
     7
100
AcDbLine
 10
150.329553
 20
121.048693
 30
0.0
 11
150.329553
 21
136.048693
 31
0.0
  0
LINE
  5
641
330
36
100
AcDbEntity
  8
0
 62
     7
100
AcDbLine
 10
132.329553
 20
121.048693
 30
0.0
 11
132.329553
 21
136.048693
 31
0.0
  0
LINE
  5
642
330
36
100
AcDbEntity
  8
0
 62
     3
100
AcDbLine
 10
122.329553
 20
121.048693
 30
0.0
 11
122.329553
 21
141.048693
 31
0.0
  0
TEXT
  5
8F4
330
36
100
AcDbEntity
  8
0
 62
     4
100
AcDbText
 10
107.4074304258777
 20
-11.08222632563218
 30
0.0
 40
3.2
  1
ア－ス補助線2.0sqx10m(VSF)
  7
高3.2
100
AcDbText
  0
LINE
  5
8F5
330
36
100
AcDbEntity
  8
0
 62
     3
100
AcDbLine
 10
135.943155
 20
12.95537200000001
 30
0.0
 11
135.443155
 21
-2.669624999999995
 31
0.0
  0
LINE
  5
8F6
330
36
100
AcDbEntity
  8
0
 62
     3
100
AcDbLine
 10
129.443155
 20
-2.669624999999995
 30
0.0
 11
128.9383709999999
 21
12.17785599999999
 31
0.0
  0
LINE
  5
8F7
330
36
100
AcDbEntity
  8
0
 62
     3
100
AcDbLine
 10
134.9449439999999
 20
89.64370799999995
 30
0.0
 11
135.4449439999999
 21
105.268706
 31
0.0
  0
LINE
  5
8F8
330
36
100
AcDbEntity
  8
0
 62
     3
100
AcDbLine
 10
141.4449439999999
 20
105.268706
 30
0.0
 11
141.949728
 21
90.42122500000001
 31
0.0
  0
LINE
  5
8F9
330
36
100
AcDbEntity
  8
0
100
AcDbLine
 10
128.8717269999999
 20
12.95537200000001
 30
0.0
 11
136.100991
 21
12.95537200000001
 31
0.0
  0
LINE
  5
8FA
330
36
100
AcDbEntity
  8
0
100
AcDbLine
 10
130.657441
 20
19.65180000000001
 30
0.0
 11
134.228869
 21
19.65180000000001
 31
0.0
  0
LINE
  5
8FB
330
36
100
AcDbEntity
  8
0
100
AcDbLine
 10
142.016372
 20
89.64370799999995
 30
0.0
 11
134.787108
 21
89.64370799999995
 31
0.0
  0
LINE
  5
8FC
330
36
100
AcDbEntity
  8
0
100
AcDbLine
 10
140.230658
 20
82.947281
 30
0.0
 11
136.6592299999999
 21
82.947281
 31
0.0
  0
LINE
  5
8FD
330
36
100
AcDbEntity
  8
0
100
AcDbLine
 10
136.193155
 20
73.03870599999997
 30
0.0
 11
136.193155
 21
32.78090700000002
 31
0.0
  0
LINE
  5
8FE
330
36
100
AcDbEntity
  8
0
100
AcDbLine
 10
133.193155
 20
73.03870599999997
 30
0.0
 11
133.193155
 21
24.562513
 31
0.0
  0
LINE
  5
8FF
330
36
100
AcDbEntity
  8
0
100
AcDbLine
 10
137.693155
 20
78.03656700000002
 30
0.0
 11
137.693155
 21
32.78090700000002
 31
0.0
  0
ARC
  5
900
330
36
100
AcDbEntity
  8
0
100
AcDbCircle
 10
133.943155
 20
32.78090700000002
 30
0.0
 40
0.75
100
AcDbArc
 50
180.0
 51
0.0
  0
ARC
  5
901
330
36
100
AcDbEntity
  8
0
100
AcDbCircle
 10
135.443155
 20
32.78090700000002
 30
0.0
 40
0.75
100
AcDbArc
 50
180.0
 51
0.0
  0
ARC
  5
902
330
36
100
AcDbEntity
  8
0
100
AcDbCircle
 10
136.943155
 20
32.78090700000002
 30
0.0
 40
0.75
100
AcDbArc
 50
180.0
 51
0.0
  0
ARC
  5
903
330
36
100
AcDbEntity
  8
0
100
AcDbCircle
 10
138.443155
 20
32.78090700000002
 30
0.0
 40
0.75
100
AcDbArc
 50
180.0
 51
0.0
  0
LINE
  5
904
330
36
100
AcDbEntity
  8
0
100
AcDbLine
 10
134.693155
 20
73.03870599999997
 30
0.0
 11
134.693155
 21
32.78090700000002
 31
0.0
  0
LINE
  5
905
330
36
100
AcDbEntity
  8
0
100
AcDbLine
 10
131.693155
 20
73.03870599999997
 30
0.0
 11
131.693155
 21
24.562513
 31
0.0
  0
LINE
  5
906
330
36
100
AcDbEntity
  8
0
100
AcDbLine
 10
139.1949439999999
 20
78.03656700000002
 30
0.0
 11
139.1949439999999
 21
32.78090700000002
 31
0.0
  0
ARC
  5
907
330
36
100
AcDbEntity
  8
0
100
AcDbCircle
 10
133.943155
 20
73.03870599999997
 30
0.0
 40
0.75
100
AcDbArc
 50
0.0
 51
180.0
  0
ARC
  5
908
330
36
100
AcDbEntity
  8
0
100
AcDbCircle
 10
136.943155
 20
73.03870599999997
 30
0.0
 40
0.75
100
AcDbArc
 50
0.0
 51
180.0
  0
ARC
  5
909
330
36
100
AcDbEntity
  8
0
100
AcDbCircle
 10
135.443155
 20
73.03870599999997
 30
0.0
 40
0.75
100
AcDbArc
 50
0.0
 51
180.0
  0
ARC
  5
90A
330
36
100
AcDbEntity
  8
0
100
AcDbCircle
 10
132.443155
 20
73.03870599999997
 30
0.0
 40
0.75
100
AcDbArc
 50
0.0
 51
180.0
  0
LINE
  5
90D
330
36
100
AcDbEntity
  8
0
 62
     3
100
AcDbLine
 10
134.228869
 20
24.562513
 30
0.0
 11
134.228869
 21
19.65180000000001
 31
0.0
  0
LINE
  5
90E
330
36
100
AcDbEntity
  8
0
 62
     3
100
AcDbLine
 10
130.657441
 20
24.562513
 30
0.0
 11
130.657441
 21
19.65180000000001
 31
0.0
  0
LINE
  5
90F
330
36
100
AcDbEntity
  8
0
 62
     3
100
AcDbLine
 10
129.072798
 20
13.70939100000001
 30
0.0
 11
130.657441
 21
19.65180000000001
 31
0.0
  0
LINE
  5
910
330
36
100
AcDbEntity
  8
0
 62
     3
100
AcDbLine
 10
135.813511
 20
13.70939100000001
 30
0.0
 11
134.228869
 21
19.65180000000001
 31
0.0
  0
ARC
  5
911
330
36
100
AcDbEntity
  8
0
 62
     3
100
AcDbCircle
 10
131.4999629999997
 20
12.559111
 30
0.0
 40
4.464285
100
AcDbArc
 50
5.092421999999511
 51
14.9314169999999
  0
ARC
  5
912
330
36
100
AcDbEntity
  8
0
 62
     3
100
AcDbCircle
 10
133.386346
 20
12.559111
 30
0.0
 40
4.464285
100
AcDbArc
 50
165.0685830000001
 51
184.8990920000007
  0
LINE
  5
913
330
36
100
AcDbEntity
  8
0
 62
     3
100
AcDbLine
 10
130.2681549999999
 20
-2.669624999999995
 30
0.0
 11
134.618155
 21
-2.669624999999995
 31
0.0
  0
LINE
  5
914
330
36
100
AcDbEntity
  8
0
 62
     3
100
AcDbLine
 10
134.618155
 20
-2.669624999999995
 30
0.0
 11
135.443155
 21
-2.669624999999995
 31
0.0
  0
LINE
  5
915
330
36
100
AcDbEntity
  8
0
 62
     3
100
AcDbLine
 10
130.2681549999999
 20
-2.669624999999995
 30
0.0
 11
129.443155
 21
-2.669624999999995
 31
0.0
  0
LINE
  5
916
330
36
100
AcDbEntity
  8
0
 62
     3
100
AcDbLine
 10
136.6592299999999
 20
78.03656700000002
 30
0.0
 11
136.6592299999999
 21
82.947281
 31
0.0
  0
LINE
  5
917
330
36
100
AcDbEntity
  8
0
 62
     3
100
AcDbLine
 10
140.230658
 20
78.03656700000002
 30
0.0
 11
140.230658
 21
82.947281
 31
0.0
  0
LINE
  5
918
330
36
100
AcDbEntity
  8
0
 62
     3
100
AcDbLine
 10
141.8153009999999
 20
88.88969000000004
 30
0.0
 11
140.230658
 21
82.947281
 31
0.0
  0
LINE
  5
919
330
36
100
AcDbEntity
  8
0
 62
     3
100
AcDbLine
 10
135.0745879999999
 20
88.88969000000004
 30
0.0
 11
136.6592299999999
 21
82.947281
 31
0.0
  0
ARC
  5
91A
330
36
100
AcDbEntity
  8
0
 62
     3
100
AcDbCircle
 10
139.388136
 20
90.03996999999998
 30
0.0
 40
4.464285
100
AcDbArc
 50
185.0924219999995
 51
194.9314169999999
  0
ARC
  5
91B
330
36
100
AcDbEntity
  8
0
 62
     3
100
AcDbCircle
 10
137.501753
 20
90.03996999999998
 30
0.0
 40
4.464285
100
AcDbArc
 50
345.0685830000002
 51
4.8990920000007
  0
LINE
  5
91C
330
36
100
AcDbEntity
  8
0
 62
     3
100
AcDbLine
 10
140.619944
 20
105.268706
 30
0.0
 11
136.269944
 21
105.268706
 31
0.0
  0
LINE
  5
91D
330
36
100
AcDbEntity
  8
0
 62
     3
100
AcDbLine
 10
136.269944
 20
105.268706
 30
0.0
 11
135.4449439999999
 21
105.268706
 31
0.0
  0
LINE
  5
91E
330
36
100
AcDbEntity
  8
0
 62
     3
100
AcDbLine
 10
140.619944
 20
105.268706
 30
0.0
 11
141.4449439999999
 21
105.268706
 31
0.0
  0
LINE
  5
91F
330
36
100
AcDbEntity
  8
0
 62
     3
100
AcDbLine
 10
133.193155
 20
24.562513
 30
0.0
 11
134.228869
 21
24.562513
 31
0.0
  0
LINE
  5
920
330
36
100
AcDbEntity
  8
0
 62
     3
100
AcDbLine
 10
131.693155
 20
24.562513
 30
0.0
 11
133.193155
 21
24.562513
 31
0.0
  0
LINE
  5
921
330
36
100
AcDbEntity
  8
0
 62
     3
100
AcDbLine
 10
131.693155
 20
24.562513
 30
0.0
 11
130.657441
 21
24.562513
 31
0.0
  0
LINE
  5
922
330
36
100
AcDbEntity
  8
0
 62
     3
100
AcDbLine
 10
139.1949439999999
 20
78.03656700000002
 30
0.0
 11
137.6949439999999
 21
78.03656700000002
 31
0.0
  0
LINE
  5
923
330
36
100
AcDbEntity
  8
0
 62
     3
100
AcDbLine
 10
139.1949439999999
 20
78.03656700000002
 30
0.0
 11
140.230658
 21
78.03656700000002
 31
0.0
  0
LINE
  5
924
330
36
100
AcDbEntity
  8
0
 62
     3
100
AcDbLine
 10
137.6949439999999
 20
78.03656700000002
 30
0.0
 11
136.6592299999999
 21
78.03656700000002
 31
0.0
  0
LINE
  5
925
330
36
100
AcDbEntity
  8
0
100
AcDbLine
 10
136.269944
 20
106.768706
 30
0.0
 11
136.269944
 21
105.268706
 31
0.0
  0
ARC
  5
926
330
36
100
AcDbEntity
  8
0
100
AcDbCircle
 10
136.7699439999999
 20
106.768706
 30
0.0
 40
0.5
100
AcDbArc
 50
90.0
 51
180.0
  0
LINE
  5
927
330
36
100
AcDbEntity
  8
0
100
AcDbLine
 10
140.119944
 20
107.268706
 30
0.0
 11
136.7699439999999
 21
107.268706
 31
0.0
  0
ARC
  5
928
330
36
100
AcDbEntity
  8
0
100
AcDbCircle
 10
140.119944
 20
106.768706
 30
0.0
 40
0.5
100
AcDbArc
 50
0.0
 51
90.0
  0
LINE
  5
929
330
36
100
AcDbEntity
  8
0
100
AcDbLine
 10
140.619944
 20
106.768706
 30
0.0
 11
140.619944
 21
105.268706
 31
0.0
  0
LINE
  5
92A
330
36
100
AcDbEntity
  8
0
100
AcDbLine
 10
134.618155
 20
-4.169624999999995
 30
0.0
 11
134.618155
 21
-2.669624999999995
 31
0.0
  0
ARC
  5
92B
330
36
100
AcDbEntity
  8
0
100
AcDbCircle
 10
134.118155
 20
-4.169624999999995
 30
0.0
 40
0.5
100
AcDbArc
 50
270.0
 51
0.0
  0
LINE
  5
92C
330
36
100
AcDbEntity
  8
0
100
AcDbLine
 10
130.768155
 20
-4.669624999999995
 30
0.0
 11
134.118155
 21
-4.669624999999995
 31
0.0
  0
ARC
  5
92D
330
36
100
AcDbEntity
  8
0
100
AcDbCircle
 10
130.768155
 20
-4.169624999999995
 30
0.0
 40
0.5
100
AcDbArc
 50
180.0
 51
270.0
  0
LINE
  5
92E
330
36
100
AcDbEntity
  8
0
100
AcDbLine
 10
130.2681549999999
 20
-4.169624999999995
 30
0.0
 11
130.2681549999999
 21
-2.669624999999995
 31
0.0
  0
LINE
  5
930
330
36
100
AcDbEntity
  8
0
100
AcDbLine
 10
135.7948649999999
 20
8.321325000000001
 30
0.0
 11
147.023828
 21
16.54091600000001
 31
0.0
  0
LINE
  5
931
330
36
100
AcDbEntity
  8
0
100
AcDbLine
 10
147.023828
 20
16.54091600000001
 30
0.0
 11
171.773828
 21
16.54091600000001
 31
0.0
  0
TEXT
  5
932
330
36
100
AcDbEntity
  8
0
 62
     4
100
AcDbText
 10
149.773828
 20
17.54091600000001
 30
0.0
 40
3.2
  1
アースクリップ
 41
0.716146
100
AcDbText
  0
CIRCLE
  5
949
330
36
100
AcDbEntity
  8
0
100
AcDbCircle
 10
158.48486
 20
78.79282499999998
 30
0.0
 40
5.0
  0
TEXT
  5
94A
330
36
100
AcDbEntity
  8
0
 62
     4
100
AcDbText
 10
156.0179462833364
 20
76.5110641724674
 30
0.0
 40
4.5
  1
11
  7
高4.5
100
AcDbText
  0
CIRCLE
  5
94B
330
36
100
AcDbEntity
  8
0
100
AcDbCircle
 10
158.195727
 20
91.43123
 30
0.0
 40
5.0
  0
TEXT
  5
94C
330
36
100
AcDbEntity
  8
0
 62
     4
100
AcDbText
 10
155.195727
 20
89.10819950781379
 30
0.0
 40
4.5
  1
13
  7
高4.5
100
AcDbText
  0
CIRCLE
  5
94D
330
36
100
AcDbEntity
  8
0
100
AcDbCircle
 10
158.195727
 20
103.563818
 30
0.0
 40
5.0
  0
TEXT
  5
94E
330
36
100
AcDbEntity
  8
0
 62
     4
100
AcDbText
 10
155.195727
 20
101.2407875078138
 30
0.0
 40
4.5
  1
12
  7
高4.5
100
AcDbText
  0
TEXT
  5
971
330
36
100
AcDbEntity
  8
0
 62
     3
100
AcDbText
 10
-172.462379
 20
-70.45130700000004
 30
0.0
 40
3.2
  1
アースクリップ金具
 41
0.8
  7
高3.2
100
AcDbText
  0
TEXT
  5
972
330
36
100
AcDbEntity
  8
0
 62
     3
100
AcDbText
 10
-133.9154797362874
 20
-70.45130700000004
 30
0.0
 40
3.2
  1
-
 41
0.8
  7
高3.2
100
AcDbText
  0
TEXT
  5
973
330
36
100
AcDbEntity
  8
0
 62
     3
100
AcDbText
 10
-117.200744713648
 20
-70.45130700000004
 30
0.0
 40
3.2
  1
-
 41
0.8
  7
高3.2
100
AcDbText
  0
TEXT
  5
974
330
36
100
AcDbEntity
  8
0
 62
     3
100
AcDbText
 10
-43.73570725827534
 20
-70.45130700000004
 30
0.0
 40
3.2
  1
2
 41
0.8
  7
高3.2
100
AcDbText
  0
TEXT
  5
975
330
36
100
AcDbEntity
  8
0
 62
     3
100
AcDbText
 10
-179.973657
 20
-65.45130700000004
 30
0.0
 40
3.2
  1
13
 41
0.8
  7
高3.2
100
AcDbText
  0
LINE
  5
976
330
36
100
AcDbEntity
  8
0
 62
     3
100
AcDbLine
 10
-181.473657
 20
-60.95130700000003
 30
0.0
 11
44.28772922509544
 21
-60.95130700000003
 31
0.0
  0
TEXT
  5
977
330
36
100
AcDbEntity
  8
0
 62
     3
100
AcDbText
 10
-172.462379
 20
-65.45130700000004
 30
0.0
 40
3.2
  1
クリップカバー
 41
0.8
  7
高3.2
100
AcDbText
  0
TEXT
  5
978
330
36
100
AcDbEntity
  8
0
 62
     3
100
AcDbText
 10
-133.9154797362874
 20
-65.45130700000004
 30
0.0
 40
3.2
  1
PVC
 41
0.8
  7
高3.2
100
AcDbText
  0
TEXT
  5
979
330
36
100
AcDbEntity
  8
0
 62
     3
100
AcDbText
 10
-117.200744713648
 20
-65.45130700000004
 30
0.0
 40
3.2
  1
-
 41
0.8
  7
高3.2
100
AcDbText
  0
TEXT
  5
97A
330
36
100
AcDbEntity
  8
0
 62
     3
100
AcDbText
 10
-43.73570725827534
 20
-65.45130700000004
 30
0.0
 40
3.2
  1
2
 41
0.8
  7
高3.2
100
AcDbText
  0
TEXT
  5
97B
330
36
100
AcDbEntity
  8
0
 62
     3
100
AcDbText
 10
-35.23674855302164
 20
-135.451307
 30
0.0
 40
3.2
  1
コード
 41
0.8
  7
高3.2
100
AcDbText
  0
TEXT
  5
97C
330
36
100
AcDbEntity
  8
0
 62
     3
100
AcDbText
 10
-35.23674855302164
 20
-130.451307
 30
0.0
 40
3.2
  1
50677
 41
0.8
  7
高3.2
100
AcDbText
  0
TEXT
  5
97D
330
36
100
AcDbEntity
  8
0
 62
     3
100
AcDbText
 10
-35.23674855302164
 20
-100.451307
 30
0.0
 40
3.2
  1
50080
 41
0.8
  7
高3.2
100
AcDbText
  0
TEXT
  5
97E
330
36
100
AcDbEntity
  8
0
 62
     3
100
AcDbText
 10
-35.23674855302164
 20
-120.451307
 30
0.0
 40
3.2
  1
52558
 41
0.8
  7
高3.2
100
AcDbText
  0
TEXT
  5
97F
330
36
100
AcDbEntity
  8
0
 62
     3
100
AcDbText
 10
-35.23674855302164
 20
-110.451307
 30
0.0
 40
3.2
  1
50619●
 41
0.8
  7
高3.2
100
AcDbText
  0
TEXT
  5
980
330
36
100
AcDbEntity
  8
0
 62
     3
100
AcDbText
 10
-35.23674855302164
 20
-105.451307
 30
0.0
 40
3.2
  1
53768
 41
0.8
  7
高3.2
100
AcDbText
  0
LINE
  5
981
330
36
100
AcDbEntity
  8
0
100
AcDbLine
 10
-36.73674855302166
 20
-135.951307
 30
0.0
 11
-36.73674855302164
 21
-60.95130700000005
 31
0.0
  0
TEXT
  5
982
330
36
100
AcDbEntity
  8
0
 62
     3
100
AcDbText
 10
-35.23674855302164
 20
-75.45130700000004
 30
0.0
 40
3.2
  1
-
 41
0.8
  7
高3.2
100
AcDbText
  0
TEXT
  5
983
330
36
100
AcDbEntity
  8
0
 62
     3
100
AcDbText
 10
-35.23674855302164
 20
-80.45130700000004
 30
0.0
 40
3.2
  1
51327
 41
0.8
  7
高3.2
100
AcDbText
  0
TEXT
  5
984
330
36
100
AcDbEntity
  8
0
 62
     3
100
AcDbText
 10
-35.23674855302164
 20
-85.45130700000004
 30
0.0
 40
3.2
  1
51404
 41
0.8
  7
高3.2
100
AcDbText
  0
TEXT
  5
986
330
36
100
AcDbEntity
  8
0
 62
     3
100
AcDbText
 10
-35.23674855302164
 20
-95.45130700000004
 30
0.0
 40
3.2
  1
51786
 41
0.8
  7
高3.2
100
AcDbText
  0
TEXT
  5
987
330
36
100
AcDbEntity
  8
0
 62
     3
100
AcDbText
 10
-35.23674855302164
 20
-115.451307
 30
0.0
 40
3.2
  1
50675
 41
0.8
  7
高3.2
100
AcDbText
  0
TEXT
  5
989
330
36
100
AcDbEntity
  8
0
 62
     3
100
AcDbText
 10
-35.23674855302164
 20
-70.45130700000004
 30
0.0
 40
3.2
  1
51489
 41
0.8
  7
高3.2
100
AcDbText
  0
TEXT
  5
98A
330
36
100
AcDbEntity
  8
0
 62
     3
100
AcDbText
 10
-35.23674855302164
 20
-65.45130700000004
 30
0.0
 40
3.2
  1
51490
 41
0.8
  7
高3.2
100
AcDbText
  0
TEXT
  5
995
330
36
100
AcDbEntity
  8
0
 62
     3
100
AcDbText
 10
-17.2646049191689
 20
-135.451307
 30
0.0
 40
3.2
  1
コード番号名称
 41
0.6
  7
高3.2
100
AcDbText
  0
TEXT
  5
996
330
36
100
AcDbEntity
  8
0
 62
     3
100
AcDbText
 10
-17.2646049191689
 20
-130.451307
 30
0.0
 40
3.2
  1
KS-550用ケース(TK-22B)シルク印刷
 41
0.6
  7
高3.2
100
AcDbText
  0
TEXT
  5
997
330
36
100
AcDbEntity
  8
0
 62
     3
100
AcDbText
 10
-17.2646049191689
 20
-100.451307
 30
0.0
 40
3.2
  1
押しボタンスイッチリード線付
 41
0.6
  7
高3.2
100
AcDbText
  0
TEXT
  5
998
330
36
100
AcDbEntity
  8
0
 62
     3
100
AcDbText
 10
-17.2646049191689
 20
-120.451307
 30
0.0
 40
3.2
  1
NV-L20K　30/15センサーユニット用
 41
0.6
  7
高3.2
100
AcDbText
  0
TEXT
  5
999
330
36
100
AcDbEntity
  8
0
 62
     3
100
AcDbText
 10
-17.2646049191689
 20
-110.451307
 30
0.0
 40
3.2
  1
パネルブザ－
 41
0.6
  7
高3.2
100
AcDbText
  0
TEXT
  5
99A
330
36
100
AcDbEntity
  8
0
 62
     3
100
AcDbText
 10
-17.2646049191689
 20
-105.451307
 30
0.0
 40
3.2
  1
メタルセンサーDS-1  スイッチSW3007Aリード線付
 41
0.6
  7
高3.2
100
AcDbText
  0
LINE
  5
99B
330
36
100
AcDbEntity
  8
0
100
AcDbLine
 10
-18.76460491916892
 20
-135.951307
 30
0.0
 11
-18.7646049191689
 21
-60.95130700000005
 31
0.0
  0
TEXT
  5
99C
330
36
100
AcDbEntity
  8
0
 62
     3
100
AcDbText
 10
-17.2646049191689
 20
-75.45130700000004
 30
0.0
 40
3.2
  1
アースリード線　緑　2.0Sq
 41
0.6
  7
高3.2
100
AcDbText
  0
TEXT
  5
99D
330
36
100
AcDbEntity
  8
0
 62
     3
100
AcDbText
 10
-17.2646049191689
 20
-80.45130700000004
 30
0.0
 40
3.2
  1
SVCT2x3x3M(ダイダイ)ポッキン
 41
0.6
  7
高3.2
100
AcDbText
  0
TEXT
  5
99E
330
36
100
AcDbEntity
  8
0
 62
     3
100
AcDbText
 10
-17.2646049191689
 20
-85.45130700000004
 30
0.0
 40
3.2
  1
2PE-GK(金具付コンセント緑)
 41
0.6
  7
高3.2
100
AcDbText
  0
TEXT
  5
99F
330
36
100
AcDbEntity
  8
0
 62
     3
100
AcDbText
 10
-17.2646049191689
 20
-95.45130700000004
 30
0.0
 40
3.2
  1
二重ランプ100V(びっく用)
 41
0.6
  7
高3.2
100
AcDbText
  0
TEXT
  5
9A0
330
36
100
AcDbEntity
  8
0
 62
     3
100
AcDbText
 10
-17.2646049191689
 20
-115.451307
 30
0.0
 40
3.2
  1
ブレーカーカバー 緑(S)=枠､カバーSET
 41
0.6
  7
高3.2
100
AcDbText
  0
TEXT
  5
9A1
330
36
100
AcDbEntity
  8
0
 62
     3
100
AcDbText
 10
-17.2646049191689
 20
-70.45130700000004
 30
0.0
 40
3.2
  1
C-500アースクリップ　金具のみ
 41
0.6
  7
高3.2
100
AcDbText
  0
TEXT
  5
9A2
330
36
100
AcDbEntity
  8
0
 62
     3
100
AcDbText
 10
-17.2646049191689
 20
-65.45130700000004
 30
0.0
 40
3.2
  1
550カバーGアースクリップカバーのみ
 41
0.6
  7
高3.2
100
AcDbText
  0
TEXT
  5
1281
330
36
100
AcDbEntity
  8
0
100
AcDbText
 10
-180.6321929819358
 20
-141.120419987655
 30
0.0
 40
3.2
  1
コード番号末尾に●の記載がある物は過去に変更があった部品
  7
高3.2
100
AcDbText
  0
TEXT
  5
1282
330
36
100
AcDbEntity
  8
0
 62
     7
100
AcDbText
 10
133.8295530000001
 20
126.5486935900347
 30
0.0
 40
2.5
  1
'22.02.15
  7
高2.5
100
AcDbText
  0
TEXT
  5
1283
330
36
100
AcDbEntity
  8
0
 62
     7
100
AcDbText
 10
151.8295530000001
 20
126.5486935900347
 30
0.0
 40
2.5
  1
ブザー変更　No.6558
  7
高2.5
100
AcDbText
  0
TEXT
  5
1284
330
36
100
AcDbEntity
  8
0
 62
     7
100
AcDbText
 10
195.829553
 20
126.5486935900347
 30
0.0
 40
2.5
  1
今村
  7
高2.5
100
AcDbText
  0
LINE
  5
12C4
330
36
100
AcDbEntity
  8
0
 62
     3
100
AcDbLine
 10
-49.97587738786103
 20
88.62610437886472
 30
0.0
 11
-48.90152853191409
 21
89.24637998004918
 31
0.0
  0
LINE
  5
12C5
330
36
100
AcDbEntity
  8
0
 62
     3
100
AcDbLine
 10
-49.97587738786103
 20
83.29571962113538
 30
0.0
 11
-48.90152853191409
 21
82.67544401995094
 31
0.0
  0
LINE
  5
12C6
330
36
100
AcDbEntity
  8
0
 62
     3
100
AcDbLine
 10
-49.97587738786103
 20
83.29571962113538
 30
0.0
 11
-50.27587738786099
 21
82.77610437886471
 31
0.0
  0
LINE
  5
12C7
330
36
100
AcDbEntity
  8
0
 62
     3
100
AcDbLine
 10
-50.27587738786099
 20
82.77610437886471
 30
0.0
 11
-49.20152853191416
 21
82.15582877768012
 31
0.0
  0
LINE
  5
12C8
330
36
100
AcDbEntity
  8
0
 62
     3
100
AcDbLine
 10
-54.89212599999996
 20
80.11091199999997
 30
0.0
 11
-54.89212599999996
 21
78.87036079763086
 31
0.0
  0
LINE
  5
12C9
330
36
100
AcDbEntity
  8
0
 62
     3
100
AcDbLine
 10
-54.89212599999996
 20
80.11091199999997
 30
0.0
 11
-55.49212599999997
 21
80.11091199999997
 31
0.0
  0
LINE
  5
12CA
330
36
100
AcDbEntity
  8
0
 62
     3
100
AcDbLine
 10
-55.49212599999997
 20
80.11091199999997
 30
0.0
 11
-55.49212599999997
 21
78.87036079763086
 31
0.0
  0
LINE
  5
12CB
330
36
100
AcDbEntity
  8
0
 62
     3
100
AcDbLine
 10
-60.10837461213895
 20
82.77610437886464
 30
0.0
 11
-61.1827234680859
 21
82.15582877768005
 31
0.0
  0
LINE
  5
12CC
330
36
100
AcDbEntity
  8
0
 62
     3
100
AcDbLine
 10
-60.10837461213895
 20
82.77610437886464
 30
0.0
 11
-60.4083746121389
 21
83.29571962113526
 31
0.0
  0
LINE
  5
12CD
330
36
100
AcDbEntity
  8
0
 62
     3
100
AcDbLine
 10
-60.4083746121389
 20
83.29571962113526
 30
0.0
 11
-61.48272346808585
 21
82.67544401995072
 31
0.0
  0
LINE
  5
12CE
330
36
100
AcDbEntity
  8
0
 62
     3
100
AcDbLine
 10
-60.40837461213904
 20
88.62610437886461
 30
0.0
 11
-61.48272346808596
 21
89.24637998004923
 31
0.0
  0
LINE
  5
12CF
330
36
100
AcDbEntity
  8
0
 62
     3
100
AcDbLine
 10
-60.40837461213904
 20
88.62610437886461
 30
0.0
 11
-60.10837461213895
 21
89.14571962113527
 31
0.0
  0
LINE
  5
12D0
330
36
100
AcDbEntity
  8
0
 62
     3
100
AcDbLine
 10
-60.10837461213895
 20
89.14571962113527
 30
0.0
 11
-61.182723468086
 21
89.76599522231978
 31
0.0
  0
LINE
  5
12D1
330
36
100
AcDbEntity
  8
0
 62
     3
100
AcDbLine
 10
-55.49212599999997
 20
93.05146320236906
 30
0.0
 11
-55.49212599999997
 21
91.81091199999995
 31
0.0
  0
LINE
  5
12D2
330
36
100
AcDbEntity
  8
0
 62
     3
100
AcDbLine
 10
-55.49212599999997
 20
91.81091199999995
 30
0.0
 11
-54.89212599999996
 21
91.81091199999995
 31
0.0
  0
LINE
  5
12D3
330
36
100
AcDbEntity
  8
0
 62
     3
100
AcDbLine
 10
-54.89212599999996
 20
91.81091199999995
 30
0.0
 11
-54.89212599999996
 21
93.05146320236906
 31
0.0
  0
LINE
  5
12D4
330
36
100
AcDbEntity
  8
0
 62
     3
100
AcDbLine
 10
-50.2758773878611
 20
89.14571962113535
 30
0.0
 11
-49.20152853191416
 21
89.76599522231998
 31
0.0
  0
LINE
  5
12D5
330
36
100
AcDbEntity
  8
0
 62
     3
100
AcDbLine
 10
-50.2758773878611
 20
89.14571962113535
 30
0.0
 11
-49.97587738786103
 21
88.62610437886472
 31
0.0
  0
CIRCLE
  5
12D6
330
36
100
AcDbEntity
  8
0
 62
     3
100
AcDbCircle
 10
-52.69212600000003
 20
90.29103901892218
 30
0.0
 40
0.5
  0
CIRCLE
  5
12D7
330
36
100
AcDbEntity
  8
0
 62
     3
100
AcDbCircle
 10
-50.19212600000003
 20
85.96091200000003
 30
0.0
 40
0.5000000000000449
  0
CIRCLE
  5
12D8
330
36
100
AcDbEntity
  8
0
 62
     3
100
AcDbCircle
 10
-52.69212599999992
 20
81.63078498107784
 30
0.0
 40
0.499999999999988
  0
CIRCLE
  5
12D9
330
36
100
AcDbEntity
  8
0
 62
     3
100
AcDbCircle
 10
-57.69212599999992
 20
81.63078498107777
 30
0.0
 40
0.5
  0
CIRCLE
  5
12DA
330
36
100
AcDbEntity
  8
0
 62
     3
100
AcDbCircle
 10
-60.19212600000003
 20
85.96091199999994
 30
0.0
 40
0.4999999999999634
  0
CIRCLE
  5
12DB
330
36
100
AcDbEntity
  8
0
 62
     3
100
AcDbCircle
 10
-57.69212600000003
 20
90.29103901892217
 30
0.0
 40
0.4999999999999958
  0
CIRCLE
  5
12DC
330
36
100
AcDbEntity
  8
0
 62
     3
100
AcDbCircle
 10
-55.19212600000003
 20
85.960912
 30
0.0
 40
0.625
  0
CIRCLE
  5
12DD
330
36
100
AcDbEntity
  8
0
 62
     3
100
AcDbCircle
 10
-55.19212600000003
 20
85.960912
 30
0.0
 40
7.25
  0
ARC
  5
12DE
330
36
100
AcDbEntity
  8
0
 62
     3
100
AcDbCircle
 10
-55.19212600000003
 20
85.960912
 30
0.0
 40
7.096894838829641
100
AcDbArc
 50
87.57727040886793
 51
92.42272959113206
  0
ARC
  5
12DF
330
36
100
AcDbEntity
  8
0
 62
     3
100
AcDbCircle
 10
-55.19212600000003
 20
85.960912
 30
0.0
 40
7.09689483882966
100
AcDbArc
 50
147.5772704088662
 51
152.4227295911306
  0
ARC
  5
12E0
330
36
100
AcDbEntity
  8
0
 62
     3
100
AcDbCircle
 10
-55.19212600000003
 20
85.960912
 30
0.0
 40
7.096894838829643
100
AcDbArc
 50
207.5772704088694
 51
212.4227295911338
  0
ARC
  5
12E1
330
36
100
AcDbEntity
  8
0
 62
     3
100
AcDbCircle
 10
-55.19212600000003
 20
85.960912
 30
0.0
 40
7.096894838829641
100
AcDbArc
 50
267.577270408868
 51
272.4227295911321
  0
ARC
  5
12E2
330
36
100
AcDbEntity
  8
0
 62
     3
100
AcDbCircle
 10
-55.19212600000003
 20
85.960912
 30
0.0
 40
7.096894838829668
100
AcDbArc
 50
327.5772704088662
 51
332.4227295911355
  0
ARC
  5
12E3
330
36
100
AcDbEntity
  8
0
 62
     3
100
AcDbCircle
 10
-55.19212600000003
 20
85.960912
 30
0.0
 40
7.096894838829657
100
AcDbArc
 50
27.5772704088694
 51
32.42272959113382
  0
ARC
  5
12E4
330
36
100
AcDbEntity
  8
0
 62
     3
100
AcDbCircle
 10
-55.19212600000003
 20
85.960912
 30
0.0
 40
6.344029960672115
100
AcDbArc
 50
207.2895546399255
 51
212.7104453600779
  0
ARC
  5
12E5
330
36
100
AcDbEntity
  8
0
 62
     3
100
AcDbCircle
 10
-55.19212600000003
 20
85.960912
 30
0.0
 40
6.34402996067213
100
AcDbArc
 50
87.28955463992528
 51
92.71044536007471
  0
ARC
  5
12E6
330
36
100
AcDbEntity
  8
0
 62
     3
100
AcDbCircle
 10
-55.19212600000003
 20
85.960912
 30
0.0
 40
6.344029960672132
100
AcDbArc
 50
27.2895546399244
 51
32.71044536007791
  0
ARC
  5
12E7
330
36
100
AcDbEntity
  8
0
 62
     3
100
AcDbCircle
 10
-55.19212600000003
 20
85.960912
 30
0.0
 40
6.34402996067213
100
AcDbArc
 50
267.2895546399253
 51
272.7104453600747
  0
ARC
  5
12E8
330
36
100
AcDbEntity
  8
0
 62
     3
100
AcDbCircle
 10
-55.19212600000003
 20
85.960912
 30
0.0
 40
6.344029960672133
100
AcDbArc
 50
147.2895546399221
 51
152.7104453600756
  0
ARC
  5
12E9
330
36
100
AcDbEntity
  8
0
 62
     3
100
AcDbCircle
 10
-55.19212600000003
 20
85.960912
 30
0.0
 40
6.344029960672129
100
AcDbArc
 50
327.2895546399261
 51
332.7104453600778
  0
LINE
  5
139A
330
36
100
AcDbEntity
  8
0
100
AcDbLine
 10
137.092166
 20
9.935078000000004
 30
0.0
 11
135.7948649999999
 21
8.321325000000001
 31
0.0
  0
LINE
  5
139B
330
36
100
AcDbEntity
  8
0
100
AcDbLine
 10
135.7948649999999
 20
8.321325000000001
 30
0.0
 11
137.725237
 21
9.070225999999991
 31
0.0
  0
LINE
  5
13B8
330
36
100
AcDbEntity
  8
0
100
AcDbLine
 10
-87.63910799999996
 20
81.420723
 30
0.0
 11
-87.959446
 21
80.161566
 31
0.0
  0
LINE
  5
13B9
330
36
100
AcDbEntity
  8
0
100
AcDbLine
 10
-87.959446
 20
80.161566
 30
0.0
 11
-87.83161300000001
 21
79.079803
 31
0.0
  0
LINE
  5
13BA
330
36
100
AcDbEntity
  8
0
100
AcDbLine
 10
-87.83161300000001
 20
79.079803
 30
0.0
 11
-87.28428
 21
78.49446400000002
 31
0.0
  0
LINE
  5
13BB
330
36
100
AcDbEntity
  8
0
100
AcDbLine
 10
-87.28428
 20
78.49446400000002
 30
0.0
 11
-86.51640400000003
 21
78.037925
 31
0.0
  0
LINE
  5
13BC
330
36
100
AcDbEntity
  8
0
100
AcDbLine
 10
-86.51640400000003
 20
78.037925
 30
0.0
 11
-85.137338
 21
77.44437099999998
 31
0.0
  0
LINE
  5
13BD
330
36
100
AcDbEntity
  8
0
100
AcDbLine
 10
-85.137338
 20
77.44437099999998
 30
0.0
 11
-83.74345500000002
 21
77.10773399999998
 31
0.0
  0
LINE
  5
13BE
330
36
100
AcDbEntity
  8
0
100
AcDbLine
 10
-83.74345500000002
 20
77.10773399999998
 30
0.0
 11
-82.527355
 21
77.03535999999998
 31
0.0
  0
LINE
  5
13BF
330
36
100
AcDbEntity
  8
0
100
AcDbLine
 10
-82.527355
 20
77.03535999999998
 30
0.0
 11
-81.28939200000003
 21
77.14005999999997
 31
0.0
  0
LINE
  5
13C0
330
36
100
AcDbEntity
  8
0
100
AcDbLine
 10
-81.28939200000003
 20
77.14005999999997
 30
0.0
 11
-79.435298
 21
77.648989
 31
0.0
  0
LINE
  5
13C1
330
36
100
AcDbEntity
  8
0
100
AcDbLine
 10
-79.435298
 20
77.648989
 30
0.0
 11
-77.85810999999998
 21
78.743286
 31
0.0
  0
LINE
  5
13C2
330
36
100
AcDbEntity
  8
0
100
AcDbLine
 10
-77.85810999999998
 20
78.743286
 30
0.0
 11
-76.711923
 21
80.88877399999999
 31
0.0
  0
LINE
  5
13C3
330
36
100
AcDbEntity
  8
0
100
AcDbLine
 10
-76.711923
 20
80.88877399999999
 30
0.0
 11
-76.911752
 21
83.169426
 31
0.0
  0
LINE
  5
13C4
330
36
100
AcDbEntity
  8
0
100
AcDbLine
 10
-76.911752
 20
83.169426
 30
0.0
 11
-77.27917600000002
 21
83.68899199999999
 31
0.0
  0
LINE
  5
13C5
330
36
100
AcDbEntity
  8
0
100
AcDbLine
 10
-77.27917600000002
 20
83.68899199999999
 30
0.0
 11
-77.761117
 21
84.09961700000001
 31
0.0
  0
LINE
  5
13C6
330
36
100
AcDbEntity
  8
0
100
AcDbLine
 10
-77.761117
 20
84.09961700000001
 30
0.0
 11
-78.863395
 21
84.51563900000001
 31
0.0
  0
LINE
  5
13C7
330
36
100
AcDbEntity
  8
0
100
AcDbLine
 10
-78.863395
 20
84.51563900000001
 30
0.0
 11
-80.07117599999999
 21
84.628639
 31
0.0
  0
LINE
  5
13C8
330
36
100
AcDbEntity
  8
0
100
AcDbLine
 10
-80.07117599999999
 20
84.628639
 30
0.0
 11
-81.81741999999998
 21
84.63033199999998
 31
0.0
  0
LINE
  5
13C9
330
36
100
AcDbEntity
  8
0
100
AcDbLine
 10
-81.81741999999998
 20
84.63033199999998
 30
0.0
 11
-83.597978
 21
84.628639
 31
0.0
  0
LINE
  5
13CA
330
36
100
AcDbEntity
  8
0
100
AcDbLine
 10
-83.597978
 20
84.628639
 30
0.0
 11
-84.897351
 21
84.643262
 31
0.0
  0
LINE
  5
13CB
330
36
100
AcDbEntity
  8
0
100
AcDbLine
 10
-84.897351
 20
84.643262
 30
0.0
 11
-86.035882
 21
84.38764199999999
 31
0.0
  0
LINE
  5
13CC
330
36
100
AcDbEntity
  8
0
100
AcDbLine
 10
-86.035882
 20
84.38764199999999
 30
0.0
 11
-87.049882
 21
83.16292800000002
 31
0.0
  0
LINE
  5
13CD
330
36
100
AcDbEntity
  8
0
100
AcDbLine
 10
-87.049882
 20
83.16292800000002
 30
0.0
 11
-87.63910799999996
 21
81.32520300000001
 31
0.0
  0
LINE
  5
13CE
330
36
100
AcDbEntity
  8
0
100
AcDbLine
 10
16.62998
 20
115.345516
 30
0.0
 11
18.11407
 21
116.212036
 31
0.0
  0
LINE
  5
13CF
330
36
100
AcDbEntity
  8
0
100
AcDbLine
 10
18.11407
 20
116.212036
 30
0.0
 11
19.60303
 21
116.543531
 31
0.0
  0
LINE
  5
13D0
330
36
100
AcDbEntity
  8
0
100
AcDbLine
 10
19.60303
 20
116.543531
 30
0.0
 11
21.191587
 21
116.006639
 31
0.0
  0
LINE
  5
13D1
330
36
100
AcDbEntity
  8
0
100
AcDbLine
 10
21.191587
 20
116.006639
 30
0.0
 11
22.794875
 21
115.379837
 31
0.0
  0
LINE
  5
13D2
330
36
100
AcDbEntity
  8
0
100
AcDbLine
 10
22.794875
 20
115.379837
 30
0.0
 11
24.677886
 21
115.604975
 31
0.0
  0
LINE
  5
13D3
330
36
100
AcDbEntity
  8
0
100
AcDbLine
 10
24.677886
 20
115.604975
 30
0.0
 11
26.573395
 21
116.519935
 31
0.0
  0
LINE
  5
13D4
330
36
100
AcDbEntity
  8
0
100
AcDbLine
 10
-99.943702
 20
30.959218
 30
0.0
 11
-109.894691
 21
30.95921800000001
 31
0.0
  0
LINE
  5
13D5
330
36
100
AcDbEntity
  8
0
100
AcDbLine
 10
-99.943702
 20
103.459218
 30
0.0
 11
-109.894691
 21
103.459218
 31
0.0
  0
LINE
  5
13D6
330
36
100
AcDbEntity
  8
0
100
AcDbLine
 10
-108.644691
 20
33.459218
 30
0.0
 11
-108.644691
 21
100.959218
 31
0.0
  0
LINE
  5
13DA
330
36
100
AcDbEntity
  8
0
100
AcDbLine
 10
-100.305933
 20
-26.471618
 30
0.0
 11
-110.256923
 21
-26.471618
 31
0.0
  0
LINE
  5
13DB
330
36
100
AcDbEntity
  8
0
100
AcDbLine
 10
-100.305933
 20
11.028382
 30
0.0
 11
-110.256923
 21
11.028382
 31
0.0
  0
LINE
  5
13DC
330
36
100
AcDbEntity
  8
0
100
AcDbLine
 10
-109.006923
 20
-23.971618
 30
0.0
 11
-109.006923
 21
8.528382000000002
 31
0.0
  0
LINE
  5
13E0
330
36
100
AcDbEntity
  8
0
100
AcDbLine
 10
-100.055933
 20
-26.721618
 30
0.0
 11
-100.055933
 21
-36.982719
 31
0.0
  0
LINE
  5
13E1
330
36
100
AcDbEntity
  8
0
100
AcDbLine
 10
-35.05593300000001
 20
-26.721618
 30
0.0
 11
-35.05593300000001
 21
-36.982719
 31
0.0
  0
LINE
  5
13E2
330
36
100
AcDbEntity
  8
0
100
AcDbLine
 10
-97.55593300000001
 20
-35.732719
 30
0.0
 11
-37.55593300000001
 21
-35.732719
 31
0.0
  0
LINE
  5
13E6
330
36
100
AcDbEntity
  8
0
100
AcDbLine
 10
143.0995110895731
 20
105.5058352851917
 30
0.0
 11
153.2365927905154
 21
104.2017740269487
 31
0.0
1001
ACAD
1000
DSTYLE
1002
{
1070
   147
1040
0.625
1070
    77
1070
     0
1070
   342
1005
7E1
1002
}
  0
LINE
  5
13E7
330
36
100
AcDbEntity
  8
0
  6
ByBlock
 62
     0
370
    -2
100
AcDbLine
 10
143.014041218245
 20
104.8414377631077
 30
0.0
 11
140.619944
 21
105.824813416583
 31
0.0
  0
LINE
  5
13E8
330
36
100
AcDbEntity
  8
0
  6
ByBlock
 62
     0
370
    -2
100
AcDbLine
 10
140.619944
 20
105.824813416583
 30
0.0
 11
143.1849809609012
 21
106.1702328072758
 31
0.0
  0
LINE
  5
13E9
330
36
100
AcDbEntity
  8
0
  6
ByBlock
 62
     0
370
    -2
100
AcDbLine
 10
140.619944
 20
105.824813416583
 30
0.0
 11
143.0995110895731
 21
105.5058352851917
 31
0.0
  0
LINE
  5
13EA
330
36
100
AcDbEntity
  8
0
100
AcDbLine
 10
144.3933799298457
 20
91.93754748121726
 30
0.0
 11
153.199087794217
 21
91.61452388214659
 31
0.0
1001
ACAD
1000
DSTYLE
1002
{
1070
   147
1040
0.625
1070
    77
1070
     0
1070
   342
1005
7E1
1002
}
  0
LINE
  5
13EB
330
36
100
AcDbEntity
  8
0
  6
ByBlock
 62
     0
370
    -2
100
AcDbLine
 10
144.368823223632
 20
91.26812524194209
 30
0.0
 11
141.8950603269542
 21
92.02919442229058
 31
0.0
  0
LINE
  5
13EC
330
36
100
AcDbEntity
  8
0
  6
ByBlock
 62
     0
370
    -2
100
AcDbLine
 10
141.8950603269542
 20
92.02919442229058
 30
0.0
 11
144.4179366360593
 21
92.60696972049244
 31
0.0
  0
LINE
  5
13ED
330
36
100
AcDbEntity
  8
0
  6
ByBlock
 62
     0
370
    -2
100
AcDbLine
 10
141.8950603269542
 20
92.02919442229058
 30
0.0
 11
144.3933799298457
 21
91.93754748121726
 31
0.0
  0
LINE
  5
13EE
330
36
100
AcDbEntity
  8
0
100
AcDbLine
 10
141.2752070142531
 20
67.32218383292106
 30
0.0
 11
154.3243339714936
 21
76.01973589827236
 31
0.0
1001
ACAD
1000
DSTYLE
1002
{
1070
   147
1040
0.625
1070
    77
1070
     0
1070
   342
1005
7E1
1002
}
  0
LINE
  5
13EF
330
36
100
AcDbEntity
  8
0
  6
ByBlock
 62
     0
370
    -2
100
AcDbLine
 10
141.6467302401125
 20
66.76477943851494
 30
0.0
 11
139.1949439999999
 21
65.93563928205725
 31
0.0
  0
LINE
  5
13F0
330
36
100
AcDbEntity
  8
0
  6
ByBlock
 62
     0
370
    -2
100
AcDbLine
 10
139.1949439999999
 20
65.93563928205725
 30
0.0
 11
140.9036837883937
 21
67.8795882273272
 31
0.0
  0
LINE
  5
13F1
330
36
100
AcDbEntity
  8
0
  6
ByBlock
 62
     0
370
    -2
100
AcDbLine
 10
139.1949439999999
 20
65.93563928205725
 30
0.0
 11
141.2752070142531
 21
67.32218383292106
 31
0.0
  0
LINE
  5
13F2
330
36
100
AcDbEntity
  8
0
100
AcDbLine
 10
48.2950651768147
 20
23.18369116602636
 30
0.0
 11
54.55075
 21
26.193051
 31
0.0
1001
ACAD
1000
DSTYLE
1002
{
1070
   147
1040
0.625
1070
    77
1070
     0
1070
   342
1005
0
1002
}
  0
LINE
  5
13F3
330
36
100
AcDbEntity
  8
0
  6
ByBlock
 62
     0
370
    -2
100
AcDbLine
 10
48.5854597731333
 20
22.58003551527403
 30
0.0
 11
46.04219
 21
22.099923
 31
0.0
  0
LINE
  5
13F4
330
36
100
AcDbEntity
  8
0
  6
ByBlock
 62
     0
370
    -2
100
AcDbLine
 10
46.04219
 20
22.099923
 30
0.0
 11
48.00467058049611
 21
23.78734681677868
 31
0.0
  0
LINE
  5
13F5
330
36
100
AcDbEntity
  8
0
  6
ByBlock
 62
     0
370
    -2
100
AcDbLine
 10
46.04219
 20
22.099923
 30
0.0
 11
48.2950651768147
 21
23.18369116602636
 31
0.0
  0
LINE
  5
13F6
330
36
100
AcDbEntity
  8
0
100
AcDbLine
 10
55.35834870269091
 20
86.11594440183209
 30
0.0
 11
61.13334399999999
 21
93.06415499999999
 31
0.0
1001
ACAD
1000
DSTYLE
1002
{
1070
   147
1040
0.625
1070
    77
1070
     0
1070
   342
1005
0
1002
}
  0
LINE
  5
13F7
330
36
100
AcDbEntity
  8
0
  6
ByBlock
 62
     0
370
    -2
100
AcDbLine
 10
55.87351211289441
 20
85.68776707052675
 30
0.0
 11
53.76036800000001
 21
84.19332700000003
 31
0.0
  0
LINE
  5
13F8
330
36
100
AcDbEntity
  8
0
  6
ByBlock
 62
     0
370
    -2
100
AcDbLine
 10
53.76036800000001
 20
84.19332700000003
 30
0.0
 11
54.84318529248741
 21
86.54412173313742
 31
0.0
  0
LINE
  5
13F9
330
36
100
AcDbEntity
  8
0
  6
ByBlock
 62
     0
370
    -2
100
AcDbLine
 10
53.76036800000001
 20
84.19332700000003
 30
0.0
 11
55.35834870269091
 21
86.11594440183209
 31
0.0
  0
LINE
  5
13FA
330
36
100
AcDbEntity
  8
0
100
AcDbLine
 10
39.63411905810197
 20
101.2917782813435
 30
0.0
 11
45.262769
 21
104.970375
 31
0.0
1001
ACAD
1000
DSTYLE
1002
{
1070
   147
1040
0.625
1070
    77
1070
     0
1070
   342
1005
0
1002
}
  0
LINE
  5
13FB
330
36
100
AcDbEntity
  8
0
  6
ByBlock
 62
     0
370
    -2
100
AcDbLine
 10
40.00058949745069
 20
100.7310389628186
 30
0.0
 11
37.54140992865968
 21
99.92409100000001
 31
0.0
  0
LINE
  5
13FC
330
36
100
AcDbEntity
  8
0
  6
ByBlock
 62
     0
370
    -2
100
AcDbLine
 10
37.54140992865968
 20
99.92409100000001
 30
0.0
 11
39.26764861875327
 21
101.8525175998684
 31
0.0
  0
LINE
  5
13FD
330
36
100
AcDbEntity
  8
0
  6
ByBlock
 62
     0
370
    -2
100
AcDbLine
 10
37.54140992865968
 20
99.92409100000001
 30
0.0
 11
39.63411905810198
 21
101.2917782813435
 31
0.0
  0
LINE
  5
13FE
330
36
100
AcDbEntity
  8
0
100
AcDbLine
 10
16.21599375396277
 20
40.11558633116914
 30
0.0
 11
-7.990475507925546
 21
51.87066272001182
 31
0.0
1001
ACAD
1000
DSTYLE
1002
{
1070
   147
1040
0.625
1070
    77
1070
     0
1070
   342
1005
0
1002
}
  0
LINE
  5
13FF
330
36
100
AcDbEntity
  8
0
  6
ByBlock
 62
     0
370
    -2
100
AcDbLine
 10
16.50861633924105
 20
40.71816511343857
 30
0.0
 11
18.46485
 21
39.02350319117505
 31
0.0
  0
LINE
  5
1400
330
36
100
AcDbEntity
  8
0
  6
ByBlock
 62
     0
370
    -2
100
AcDbLine
 10
18.46485
 20
39.02350319117505
 30
0.0
 11
15.92337116868449
 21
39.51300754889972
 31
0.0
  0
LINE
  5
1401
330
36
100
AcDbEntity
  8
0
  6
ByBlock
 62
     0
370
    -2
100
AcDbLine
 10
18.46485
 20
39.02350319117505
 30
0.0
 11
16.21599375396277
 21
40.11558633116914
 31
0.0
  0
LINE
  5
1402
330
36
100
AcDbEntity
  8
0
100
AcDbLine
 10
-47.67546394653442
 20
65.24853499002867
 30
0.0
 11
-16.76950210693116
 21
83.89255101994264
 31
0.0
1001
ACAD
1000
DSTYLE
1002
{
1070
   147
1040
0.625
1070
    77
1070
     0
1070
   342
1005
0
1002
}
  0
LINE
  5
1403
330
36
100
AcDbEntity
  8
0
  6
ByBlock
 62
     0
370
    -2
100
AcDbLine
 10
-47.32944774010722
 20
64.67494807320964
 30
0.0
 11
-49.816121
 21
63.95718399999999
 31
0.0
  0
LINE
  5
1404
330
36
100
AcDbEntity
  8
0
  6
ByBlock
 62
     0
370
    -2
100
AcDbLine
 10
-49.816121
 20
63.95718399999999
 30
0.0
 11
-48.02148015296162
 21
65.82212190684773
 31
0.0
  0
LINE
  5
1405
330
36
100
AcDbEntity
  8
0
  6
ByBlock
 62
     0
370
    -2
100
AcDbLine
 10
-49.816121
 20
63.95718399999999
 30
0.0
 11
-47.67546394653442
 21
65.24853499002869
 31
0.0
  0
LINE
  5
1406
330
36
100
AcDbEntity
  8
0
100
AcDbLine
 10
-96.46821896018563
 20
101.6162066014548
 30
0.0
 11
-107.9119924616126
 21
112.2930942281573
 31
0.0
1001
ACAD
1000
DSTYLE
1002
{
1070
   147
1040
0.625
1070
    77
1070
     0
1070
   342
1005
0
1002
}
  0
LINE
  5
1407
330
36
100
AcDbEntity
  8
0
  6
ByBlock
 62
     0
370
    -2
100
AcDbLine
 10
-96.0112434930599
 20
102.1060051199309
 30
0.0
 11
-94.6402646909919
 21
99.91074971553349
 31
0.0
  0
LINE
  5
1408
330
36
100
AcDbEntity
  8
0
  6
ByBlock
 62
     0
370
    -2
100
AcDbLine
 10
-94.6402646909919
 20
99.91074971553349
 30
0.0
 11
-96.92519442731136
 21
101.1264080829786
 31
0.0
  0
LINE
  5
1409
330
36
100
AcDbEntity
  8
0
  6
ByBlock
 62
     0
370
    -2
100
AcDbLine
 10
-94.6402646909919
 20
99.91074971553349
 30
0.0
 11
-96.46821896018563
 21
101.6162066014548
 31
0.0
  0
LINE
  5
140A
330
36
100
AcDbEntity
  8
0
100
AcDbLine
 10
-83.30322262255419
 20
85.62941811288093
 30
0.0
 11
-91.09689775489163
 21
110.9256557742382
 31
0.0
1001
ACAD
1000
DSTYLE
1002
{
1070
   147
1040
0.625
1070
    77
1070
     0
1070
   342
1005
0
1002
}
  0
LINE
  5
140B
330
36
100
AcDbEntity
  8
0
  6
ByBlock
 62
     0
370
    -2
100
AcDbLine
 10
-82.66304527228387
 20
85.8266543328232
 30
0.0
 11
-82.5671265
 21
83.24024200000001
 31
0.0
  0
LINE
  5
140C
330
36
100
AcDbEntity
  8
0
  6
ByBlock
 62
     0
370
    -2
100
AcDbLine
 10
-82.5671265
 20
83.24024200000001
 30
0.0
 11
-83.94339997282452
 21
85.43218189293865
 31
0.0
  0
LINE
  5
140D
330
36
100
AcDbEntity
  8
0
  6
ByBlock
 62
     0
370
    -2
100
AcDbLine
 10
-82.5671265
 20
83.24024200000001
 30
0.0
 11
-83.30322262255419
 21
85.62941811288093
 31
0.0
  0
LINE
  5
140E
330
36
100
AcDbEntity
  8
0
100
AcDbLine
 10
-79.80280320978161
 20
95.35974166461409
 30
0.0
 11
-78.12285899999998
 21
110.733595
 31
0.0
1001
ACAD
1000
DSTYLE
1002
{
1070
   147
1040
0.625
1070
    77
1070
     0
1070
   342
1005
0
1002
}
  0
LINE
  5
140F
330
36
100
AcDbEntity
  8
0
  6
ByBlock
 62
     0
370
    -2
100
AcDbLine
 10
-79.13689456920494
 20
95.28697595385988
 30
0.0
 11
-80.07436873439344
 21
92.87453499999999
 31
0.0
  0
LINE
  5
1410
330
36
100
AcDbEntity
  8
0
  6
ByBlock
 62
     0
370
    -2
100
AcDbLine
 10
-80.07436873439344
 20
92.87453499999999
 30
0.0
 11
-80.46871185035831
 21
95.4325073753683
 31
0.0
  0
LINE
  5
1411
330
36
100
AcDbEntity
  8
0
  6
ByBlock
 62
     0
370
    -2
100
AcDbLine
 10
-80.07436873439344
 20
92.87453499999999
 30
0.0
 11
-79.80280320978161
 21
95.35974166461409
 31
0.0
  0
LINE
  5
1412
330
36
100
AcDbEntity
  8
0
100
AcDbLine
 10
-50.33550537637196
 20
94.41175813391328
 30
0.0
 11
-39.53994244213981
 21
111.4784220646084
 31
0.0
1001
ACAD
1000
DSTYLE
1002
{
1070
   147
1040
0.625
1070
    77
1070
     0
1070
   342
1005
0
1002
}
  0
LINE
  5
1413
330
36
100
AcDbEntity
  8
0
  6
ByBlock
 62
     0
370
    -2
100
AcDbLine
 10
-49.76938461347083
 20
94.05365696375532
 30
0.0
 11
-51.67195809744186
 21
92.29896516621748
 31
0.0
  0
LINE
  5
1414
330
36
100
AcDbEntity
  8
0
  6
ByBlock
 62
     0
370
    -2
100
AcDbLine
 10
-51.67195809744186
 20
92.29896516621748
 30
0.0
 11
-50.90162613927308
 21
94.76985930407124
 31
0.0
  0
LINE
  5
1415
330
36
100
AcDbEntity
  8
0
  6
ByBlock
 62
     0
370
    -2
100
AcDbLine
 10
-51.67195809744186
 20
92.29896516621748
 30
0.0
 11
-50.33550537637196
 21
94.41175813391328
 31
0.0
  0
LINE
  5
1416
330
36
100
AcDbEntity
  8
0
100
AcDbLine
 10
-62.41563038807935
 20
47.4576113336834
 30
0.0
 11
-62.134278
 21
27.41697
 31
0.0
1001
ACAD
1000
DSTYLE
1002
{
1070
   147
1040
0.625
1070
    77
1070
     0
1070
   342
1005
0
1002
}
  0
LINE
  5
1417
330
36
100
AcDbEntity
  8
0
  6
ByBlock
 62
     0
370
    -2
100
AcDbLine
 10
-63.08543688321522
 20
47.44820785932249
 30
0.0
 11
-62.45072465736535
 21
49.957365
 31
0.0
  0
LINE
  5
1418
330
36
100
AcDbEntity
  8
0
  6
ByBlock
 62
     0
370
    -2
100
AcDbLine
 10
-62.45072465736535
 20
49.957365
 30
0.0
 11
-61.74582389294349
 21
47.46701480804431
 31
0.0
  0
LINE
  5
1419
330
36
100
AcDbEntity
  8
0
  6
ByBlock
 62
     0
370
    -2
100
AcDbLine
 10
-62.45072465736535
 20
49.957365
 30
0.0
 11
-62.41563038807935
 21
47.4576113336834
 31
0.0
  0
LINE
  5
141A
330
36
100
AcDbEntity
  8
0
100
AcDbLine
 10
-56.55745662486713
 20
47.63109761821153
 30
0.0
 11
-48.28458027980435
 21
26.6141427108332
 31
0.0
1001
ACAD
1000
DSTYLE
1002
{
1070
   147
1040
0.625
1070
    77
1070
     0
1070
   342
1005
0
1002
}
  0
LINE
  5
141B
330
36
100
AcDbEntity
  8
0
  6
ByBlock
 62
     0
370
    -2
100
AcDbLine
 10
-57.18077764354998
 20
47.38574058463711
 30
0.0
 11
-57.47314219777249
 21
49.957365
 31
0.0
  0
LINE
  5
141C
330
36
100
AcDbEntity
  8
0
  6
ByBlock
 62
     0
370
    -2
100
AcDbLine
 10
-57.47314219777249
 20
49.957365
 30
0.0
 11
-55.93413560618429
 21
47.87645465178595
 31
0.0
  0
LINE
  5
141D
330
36
100
AcDbEntity
  8
0
  6
ByBlock
 62
     0
370
    -2
100
AcDbLine
 10
-57.47314219777249
 20
49.957365
 30
0.0
 11
-56.55745662486713
 21
47.63109761821153
 31
0.0
  0
LINE
  5
141E
330
36
100
AcDbEntity
  8
0
100
AcDbLine
 10
-43.37657375963064
 20
53.16213920382941
 30
0.0
 11
-16.86929248073871
 21
67.74078659234118
 31
0.0
1001
ACAD
1000
DSTYLE
1002
{
1070
   147
1040
0.625
1070
    77
1070
     0
1070
   342
1005
0
1002
}
  0
LINE
  5
141F
330
36
100
AcDbEntity
  8
0
  6
ByBlock
 62
     0
370
    -2
100
AcDbLine
 10
-43.05375571648876
 20
52.57518292157469
 30
0.0
 11
-45.567126
 21
51.957365
 31
0.0
  0
LINE
  5
1420
330
36
100
AcDbEntity
  8
0
  6
ByBlock
 62
     0
370
    -2
100
AcDbLine
 10
-45.567126
 20
51.957365
 30
0.0
 11
-43.69939180277253
 21
53.74909548608414
 31
0.0
  0
LINE
  5
1421
330
36
100
AcDbEntity
  8
0
  6
ByBlock
 62
     0
370
    -2
100
AcDbLine
 10
-45.567126
 20
51.957365
 30
0.0
 11
-43.37657375963064
 21
53.16213920382941
 31
0.0
  0
LINE
  5
1422
330
36
100
AcDbEntity
  8
0
100
AcDbLine
 10
-48.86452774125363
 20
-1.531595178511013
 30
0.0
 11
-16.33669351749275
 21
20.61815735702203
 31
0.0
1001
ACAD
1000
DSTYLE
1002
{
1070
   147
1040
0.625
1070
    77
1070
     0
1070
   342
1005
0
1002
}
  0
LINE
  5
1423
330
36
100
AcDbEntity
  8
0
  6
ByBlock
 62
     0
370
    -2
100
AcDbLine
 10
-48.48749299989948
 20
-2.085286401186846
 30
0.0
 11
-50.930933
 21
-2.938708999999997
 31
0.0
  0
LINE
  5
1424
330
36
100
AcDbEntity
  8
0
  6
ByBlock
 62
     0
370
    -2
100
AcDbLine
 10
-50.930933
 20
-2.938708999999997
 30
0.0
 11
-49.24156248260779
 21
-0.977903955835182
 31
0.0
  0
LINE
  5
1425
330
36
100
AcDbEntity
  8
0
  6
ByBlock
 62
     0
370
    -2
100
AcDbLine
 10
-50.930933
 20
-2.938708999999997
 30
0.0
 11
-48.86452774125363
 21
-1.531595178511014
 31
0.0
  0
LINE
  5
1426
330
36
100
AcDbEntity
  8
0
100
AcDbLine
 10
-38.31379837363765
 20
-11.37110999199798
 30
0.0
 11
-16.282346
 21
-1.908747999999999
 31
0.0
  0
LINE
  5
1427
330
36
100
AcDbEntity
  8
0
  6
ByBlock
 62
     0
370
    -2
100
AcDbLine
 10
-38.04944336062895
 20
-11.98661433264345
 30
0.0
 11
-40.61089349489384
 21
-12.35769704031202
 31
0.0
  0
LINE
  5
1428
330
36
100
AcDbEntity
  8
0
  6
ByBlock
 62
     0
370
    -2
100
AcDbLine
 10
-40.61089349489384
 20
-12.35769704031202
 30
0.0
 11
-38.57815338664636
 21
-10.7556056513525
 31
0.0
  0
LINE
  5
1429
330
36
100
AcDbEntity
  8
0
  6
ByBlock
 62
     0
370
    -2
100
AcDbLine
 10
-40.61089349489384
 20
-12.35769704031202
 30
0.0
 11
-38.31379837363765
 21
-11.37110999199798
 31
0.0
  0
TEXT
  5
142A
330
36
100
AcDbEntity
  8
0
 62
     4
100
AcDbText
 10
-109.269691
 20
63.70921799999997
 30
0.0
 40
3.0
  1
145
 50
90.0
100
AcDbText
  0
LINE
  5
142B
330
36
100
AcDbEntity
  8
0
  6
ByBlock
 62
     0
370
    -2
100
AcDbLine
 10
-109.3145635
 20
100.959218
 30
0.0
 11
-108.644691
 21
103.459218
 31
0.0
  0
LINE
  5
142C
330
36
100
AcDbEntity
  8
0
  6
ByBlock
 62
     0
370
    -2
100
AcDbLine
 10
-108.644691
 20
103.459218
 30
0.0
 11
-107.9748185
 21
100.959218
 31
0.0
  0
LINE
  5
142D
330
36
100
AcDbEntity
  8
0
  6
ByBlock
 62
     0
370
    -2
100
AcDbLine
 10
-108.644691
 20
103.459218
 30
0.0
 11
-108.644691
 21
100.959218
 31
0.0
  0
LINE
  5
142E
330
36
100
AcDbEntity
  8
0
  6
ByBlock
 62
     0
370
    -2
100
AcDbLine
 10
-107.9748185
 20
33.45921800000001
 30
0.0
 11
-108.644691
 21
30.95921800000001
 31
0.0
  0
LINE
  5
142F
330
36
100
AcDbEntity
  8
0
  6
ByBlock
 62
     0
370
    -2
100
AcDbLine
 10
-108.644691
 20
30.95921800000001
 30
0.0
 11
-109.3145635
 21
33.45921800000001
 31
0.0
  0
LINE
  5
1430
330
36
100
AcDbEntity
  8
0
  6
ByBlock
 62
     0
370
    -2
100
AcDbLine
 10
-108.644691
 20
30.95921800000001
 30
0.0
 11
-108.644691
 21
33.45921800000001
 31
0.0
  0
TEXT
  5
1431
330
36
100
AcDbEntity
  8
0
 62
     4
100
AcDbText
 10
-109.631923
 20
-10.22161800000001
 30
0.0
 40
3.0
  1
75
 50
90.0
100
AcDbText
  0
LINE
  5
1432
330
36
100
AcDbEntity
  8
0
  6
ByBlock
 62
     0
370
    -2
100
AcDbLine
 10
-109.6767955
 20
8.528382000000002
 30
0.0
 11
-109.006923
 21
11.028382
 31
0.0
  0
LINE
  5
1433
330
36
100
AcDbEntity
  8
0
  6
ByBlock
 62
     0
370
    -2
100
AcDbLine
 10
-109.006923
 20
11.028382
 30
0.0
 11
-108.3370505
 21
8.528382000000002
 31
0.0
  0
LINE
  5
1434
330
36
100
AcDbEntity
  8
0
  6
ByBlock
 62
     0
370
    -2
100
AcDbLine
 10
-109.006923
 20
11.028382
 30
0.0
 11
-109.006923
 21
8.528382000000002
 31
0.0
  0
LINE
  5
1435
330
36
100
AcDbEntity
  8
0
  6
ByBlock
 62
     0
370
    -2
100
AcDbLine
 10
-108.3370505
 20
-23.971618
 30
0.0
 11
-109.006923
 21
-26.471618
 31
0.0
  0
LINE
  5
1436
330
36
100
AcDbEntity
  8
0
  6
ByBlock
 62
     0
370
    -2
100
AcDbLine
 10
-109.006923
 20
-26.471618
 30
0.0
 11
-109.6767955
 21
-23.971618
 31
0.0
  0
LINE
  5
1437
330
36
100
AcDbEntity
  8
0
  6
ByBlock
 62
     0
370
    -2
100
AcDbLine
 10
-109.006923
 20
-26.471618
 30
0.0
 11
-109.006923
 21
-23.971618
 31
0.0
  0
TEXT
  5
1438
330
36
100
AcDbEntity
  8
0
 62
     4
100
AcDbText
 10
-70.80593300000001
 20
-35.107719
 30
0.0
 40
3.0
  1
130
100
AcDbText
  0
LINE
  5
1439
330
36
100
AcDbEntity
  8
0
  6
ByBlock
 62
     0
370
    -2
100
AcDbLine
 10
-37.55593300000001
 20
-35.06284650000001
 30
0.0
 11
-35.05593300000001
 21
-35.732719
 31
0.0
  0
LINE
  5
143A
330
36
100
AcDbEntity
  8
0
  6
ByBlock
 62
     0
370
    -2
100
AcDbLine
 10
-35.05593300000001
 20
-35.732719
 30
0.0
 11
-37.55593300000001
 21
-36.4025915
 31
0.0
  0
LINE
  5
143B
330
36
100
AcDbEntity
  8
0
  6
ByBlock
 62
     0
370
    -2
100
AcDbLine
 10
-35.05593300000001
 20
-35.732719
 30
0.0
 11
-37.55593300000001
 21
-35.732719
 31
0.0
  0
LINE
  5
143C
330
36
100
AcDbEntity
  8
0
  6
ByBlock
 62
     0
370
    -2
100
AcDbLine
 10
-97.55593300000001
 20
-36.4025915
 30
0.0
 11
-100.055933
 21
-35.732719
 31
0.0
  0
LINE
  5
143D
330
36
100
AcDbEntity
  8
0
  6
ByBlock
 62
     0
370
    -2
100
AcDbLine
 10
-100.055933
 20
-35.732719
 30
0.0
 11
-97.55593300000001
 21
-35.06284650000001
 31
0.0
  0
LINE
  5
143E
330
36
100
AcDbEntity
  8
0
  6
ByBlock
 62
     0
370
    -2
100
AcDbLine
 10
-100.055933
 20
-35.732719
 30
0.0
 11
-97.55593300000001
 21
-35.732719
 31
0.0
  0
ENDSEC
  0
SECTION
  2
OBJECTS
  0
DICTIONARY
  5
C
330
0
100
AcDbDictionary
281
     1
  3
ACAD_2007HEADERVARS_RT
350
1442
  3
ACAD_COLOR
350
2F
  3
ACAD_GROUP
350
D
  3
ACAD_LAYOUT
350
2E
  3
ACAD_MATERIAL
350
10
  3
ACAD_MLEADERSTYLE
350
546
  3
ACAD_MLINESTYLE
350
2B
  3
ACAD_PLOTSETTINGS
350
2D
  3
ACAD_PLOTSTYLENAME
350
E
  3
ACAD_SCALELIST
350
534
  3
ACAD_TABLESTYLE
350
30
  3
ACAD_VISUALSTYLE
350
14
  3
AcadDim
350
4C4
  3
ACDB_RECOMPOSE_DATA
350
1440
  3
AcDbVariableDictionary
350
4E2
  3
AEC_PROPERTY_SET_DEFS
350
F3B
  3
DWGPROPS
350
1441
  0
DICTIONARY
  5
408
330
2
100
AcDbDictionary
280
     1
281
     1
  3
ACAD_LAYERSTATES
360
409
  0
DICTIONARY
  5
77A
330
25
100
AcDbDictionary
280
     1
281
     1
  3
ADSK_XREC_LAYER_RECONCILED
360
77B
  0
DICTIONARY
  5
74A
330
36
100
AcDbDictionary
280
     1
281
     1
  3
ACAD_SORTENTS
360
74B
  0
DICTIONARY
  5
1442
102
{ACAD_REACTORS
330
C
102
}
330
C
100
AcDbDictionary
281
     1
  3
DIMARCSYM
350
1444
  3
DIMFXL
350
1443
  3
DIMJOGANG
350
1445
  0
DICTIONARY
  5
2F
102
{ACAD_REACTORS
330
C
102
}
330
C
100
AcDbDictionary
281
     1
  0
DICTIONARY
  5
D
102
{ACAD_REACTORS
330
C
102
}
330
C
100
AcDbDictionary
281
     1
  0
DICTIONARY
  5
2E
102
{ACAD_REACTORS
330
C
102
}
330
C
100
AcDbDictionary
281
     1
  3
Model
350
39
  3
レイアウト1
350
35
  0
DICTIONARY
  5
10
102
{ACAD_REACTORS
330
C
102
}
330
C
100
AcDbDictionary
281
     1
  3
ByBlock
350
12
  3
ByLayer
350
11
  3
Global
350
13
  0
DICTIONARY
  5
546
102
{ACAD_REACTORS
330
C
102
}
330
C
100
AcDbDictionary
281
     1
  3
Standard
350
547
  0
DICTIONARY
  5
2B
102
{ACAD_REACTORS
330
C
102
}
330
C
100
AcDbDictionary
281
     1
  3
Standard
350
2C
  0
DICTIONARY
  5
2D
102
{ACAD_REACTORS
330
C
102
}
330
C
100
AcDbDictionary
281
     1
  0
ACDBDICTIONARYWDFLT
  5
E
102
{ACAD_REACTORS
330
C
102
}
330
C
100
AcDbDictionary
281
     1
  3
Normal
350
F
100
AcDbDictionaryWithDefault
340
F
  0
DICTIONARY
  5
534
102
{ACAD_REACTORS
330
C
102
}
330
C
100
AcDbDictionary
281
     1
  3
A0
350
535
  3
A1
350
536
  3
A2
350
537
  3
A3
350
538
  3
A4
350
539
  3
A5
350
53A
  3
A6
350
53B
  3
A7
350
53C
  3
A8
350
53D
  3
A9
350
53E
  3
B0
350
53F
  3
B1
350
540
  3
B2
350
541
  3
B3
350
542
  3
B4
350
543
  3
B5
350
544
  3
B6
350
545
  0
DICTIONARY
  5
30
102
{ACAD_REACTORS
330
C
102
}
330
C
100
AcDbDictionary
281
     1
  3
Standard
350
31
  0
DICTIONARY
  5
14
102
{ACAD_REACTORS
330
C
102
}
330
C
100
AcDbDictionary
281
     1
  3
2dWireframe
350
1A
  3
3D Hidden
350
1C
  3
3dWireframe
350
1B
  3
Basic
350
19
  3
Brighten
350
20
  3
ColorChange
350
24
  3
Conceptual
350
1D
  3
Dim
350
1F
  3
EdgeColorOff
350
533
  3
Facepattern
350
23
  3
Flat
350
15
  3
FlatWithEdges
350
16
  3
Gouraud
350
17
  3
GouraudWithEdges
350
18
  3
Hidden
350
52B
  3
JitterOff
350
531
  3
Linepattern
350
22
  3
OverhangOff
350
532
  3
Realistic
350
1E
  3
Shaded
350
530
  3
Shaded with edges
350
52F
  3
Shades of Gray
350
52C
  3
Sketchy
350
52D
  3
Thicken
350
21
  3
Wireframe
350
52A
  3
X-Ray
350
52E
  0
XRECORD
  5
4C4
102
{ACAD_REACTORS
330
C
102
}
330
C
100
AcDbXrecord
280
     1
 90
   990106
  3

 60
     0
 61
     0
 62
     1
 63
     3
 64
     0
 65
     0
 66
     0
 67
     3
 68
     1
 69
     0
 70
     0
 71
     0
 72
     0
 40
0.0
170
     0
  0
XRECORD
  5
1440
102
{ACAD_REACTORS
330
C
102
}
330
C
100
AcDbXrecord
280
     1
 90
        1
330
31
  0
DICTIONARY
  5
4E2
102
{ACAD_REACTORS
330
C
102
}
330
C
100
AcDbDictionary
281
     1
  3
CANNOSCALE
350
77D
  3
CMLEADERSTYLE
350
77C
  3
CTABLESTYLE
350
4E3
  3
DIMASSOC
350
4E7
  3
INDEXCTL
350
4E6
  3
SORTENTS
350
4E5
  3
XCLIPFRAME
350
1351
  0
DICTIONARY
  5
F3B
102
{ACAD_REACTORS
330
C
102
}
330
C
100
AcDbDictionary
281
     1
  0
XRECORD
  5
1441
102
{ACAD_REACTORS
330
C
102
}
330
C
100
AcDbXrecord
280
     1
  1
DWGPROPS COOKIE
  2

  3

  4

  6

  7

  8
imamura
  9

300
=
301
=
302
=
303
=
304
=
305
=
306
=
307
=
308
=
309
=
 40
0.0710704282407407
 41
2455411.657610486
 42
2460369.65459029
  1

 90
        0
  0
DICTIONARY
  5
409
102
{ACAD_REACTORS
330
408
102
}
330
408
100
AcDbDictionary
281
     1
  0
XRECORD
  5
77B
102
{ACAD_REACTORS
330
77A
102
}
330
77A
100
AcDbXrecord
280
     1
290
     1
  0
SORTENTSTABLE
  5
74B
102
{ACAD_REACTORS
330
74A
102
}
330
74A
100
AcDbSortentsTable
330
36
331
146
  5
16D
331
142
  5
169
331
1F3
  5
248
331
1B4
  5
1EB
331
17D
  5
1A4
331
2BC
  5
31B
331
13E
  5
165
331
CC
  5
F3
331
179
  5
1A0
331
97D
  5
13FB
331
13A
  5
161
331
2B8
  5
318
331
107
  5
12F
331
642
  5
139E
331
C8
  5
EF
331
979
  5
13F7
331
2F3
  5
377
331
2B4
  5
314
331
103
  5
12B
331
925
  5
13CE
331
27D
  5
2C5
331
C4
  5
EB
331
63E
  5
139A
331
22E
  5
27E
331
2B0
  5
30B
331
921
  5
13CA
331
279
  5
2C1
331
C0
  5
E7
331
63A
  5
1396
331
13EC
  5
13E8
331
13E8
  5
13EC
331
1427
  5
974
331
1423
  5
978
331
356
  5
3B2
331
13E0
  5
86
331
637
  5
12E3
331
12DD
  5
1432
331
633
  5
12DF
331
12D9
  5
142E
331
3C0
  5
906
331
12D5
  5
142A
331
12D1
  5
1426
331
1EF
  5
244
331
1EB
  5
240
331
1AC
  5
1E8
331
175
  5
19C
331
136
  5
15D
331
1E7
  5
23C
331
1A8
  5
1E4
331
171
  5
198
331
975
  5
13F3
331
132
  5
159
331
2EF
  5
36F
331
FF
  5
127
331
1E3
  5
22E
331
1A4
  5
1E0
331
16D
  5
194
331
1282
  5
1416
331
971
  5
13EF
331
12E
  5
155
331
2EB
  5
36B
331
2AC
  5
2F5
331
FB
  5
123
331
91D
  5
13C6
331
275
  5
2BD
331
BC
  5
E3
331
12C6
  5
141B
331
226
  5
27B
331
1A0
  5
1DC
331
169
  5
190
331
2E7
  5
367
331
12A
  5
151
331
2A8
  5
2F1
331
F7
  5
11F
331
919
  5
13C2
331
271
  5
2B8
331
B8
  5
DF
331
2E3
  5
361
331
2A4
  5
2ED
331
F3
  5
11B
331
915
  5
13BE
331
B4
  5
DB
331
2A0
  5
2E9
331
911
  5
13BA
331
B0
  5
D7
331
141F
  5
97C
331
141B
  5
980
331
86
  5
BD
331
13DC
  5
AB
331
1417
  5
984
331
1413
  5
98A
331
62F
  5
12DB
331
13D4
  5
B3
331
385
  5
633
331
13D0
  5
1F0
331
346
  5
3A7
331
3B8
  5
903
331
381
  5
631
331
342
  5
3A3
331
37D
  5
4E4
331
12CD
  5
1422
331
33E
  5
39F
331
12C9
  5
141E
331
379
  5
4D3
331
9A1
  5
1413
331
1DF
  5
220
331
1DB
  5
212
331
19C
  5
1D8
331
165
  5
18C
331
126
  5
14D
331
1D7
  5
208
331
198
  5
1D4
331
161
  5
188
331
2DF
  5
35B
331
122
  5
149
331
EF
  5
116
331
1D3
  5
203
331
194
  5
1D0
331
15D
  5
184
331
139B
  5
13D9
331
2DB
  5
357
331
11E
  5
145
331
29C
  5
2E5
331
EB
  5
112
331
90D
  5
13B6
331
255
  5
29F
331
AC
  5
D3
331
190
  5
1CC
331
159
  5
180
331
94D
  5
13E1
331
11A
  5
141
331
2D7
  5
353
331
298
  5
2E1
331
E7
  5
10E
331
909
  5
13B4
331
251
  5
29B
331
A8
  5
CF
331
212
  5
276
331
949
  5
13DD
331
2D3
  5
345
331
E3
  5
10A
331
905
  5
13B0
331
24D
  5
297
331
A4
  5
CB
331
290
  5
2DD
331
901
  5
13AC
331
249
  5
28F
331
20A
  5
274
331
140F
  5
998
331
3EA
  5
973
331
140B
  5
99C
331
143E
  5
9D
331
13CC
  5
2B6
331
1407
  5
9A0
331
143A
  5
A3
331
13C8
  5
2B2
331
1403
  5
1282
331
13C4
  5
2AE
331
4D3
  5
12D5
331
13C0
  5
2AA
331
375
  5
3E7
331
3A8
  5
8FD
331
322
  5
39B
331
3A4
  5
8F9
331
36D
  5
3E3
331
99D
  5
140F
331
31E
  5
397
331
3A0
  5
8F5
331
369
  5
3DF
331
999
  5
140B
331
31A
  5
393
331
995
  5
1407
331
1CF
  5
1FE
331
1CB
  5
1F9
331
18C
  5
1C8
331
155
  5
17C
331
116
  5
13E
331
188
  5
1B4
331
151
  5
178
331
2CF
  5
341
331
112
  5
13A
331
DF
  5
106
331
184
  5
1AB
331
14D
  5
174
331
931
  5
13DB
331
10E
  5
136
331
2CB
  5
33D
331
28C
  5
2D9
331
DB
  5
102
331
8FD
  5
13A8
331
245
  5
28B
331
9C
  5
C4
331
206
  5
257
331
180
  5
1A7
331
149
  5
170
331
92D
  5
13D6
331
10A
  5
132
331
288
  5
2D5
331
D7
  5
FE
331
8F9
  5
13A4
331
241
  5
287
331
98
  5
C0
331
929
  5
13D2
331
2C3
  5
322
331
284
  5
2D1
331
D3
  5
FA
331
8F5
  5
13A0
331
23D
  5
283
331
1FE
  5
251
331
280
  5
2CD
331
1436
  5
AD
331
13FF
  5
12C5
331
1432
  5
AF
331
13FB
  5
12C9
331
142E
  5
B6
331
13BC
  5
2A6
331
13F7
  5
12CD
331
142A
  5
BC
331
13B8
  5
2A2
331
13F3
  5
12D1
331
3E7
  5
94E
331
3E3
  5
94A
331
39C
  5
640
331
365
  5
3DB
331
316
  5
385
331
3DF
  5
930
331
398
  5
63C
331
361
  5
3D9
331
3DB
  5
92B
331
394
  5
638
331
35D
  5
3D7
331
359
  5
3BF
331
12E8
  5
143D
331
30A
  5
37C
331
989
  5
1405
331
12E4
  5
1439
331
12E0
  5
1435
331
981
  5
13FF
331
1BB
  5
1ED
331
145
  5
16C
331
1F6
  5
24B
331
2BF
  5
31E
331
141
  5
168
331
CF
  5
F6
331
1F2
  5
247
331
1B3
  5
1EA
331
17C
  5
1A3
331
2BB
  5
31A
331
13D
  5
164
331
235
  5
280
331
CB
  5
F2
331
178
  5
19F
331
97C
  5
13FA
331
139
  5
160
331
2F6
  5
37A
331
2B7
  5
317
331
106
  5
12E
331
641
  5
139D
331
C7
  5
EE
331
978
  5
13F6
331
2F2
  5
376
331
2B3
  5
313
331
102
  5
12A
331
924
  5
13CD
331
27C
  5
2C4
331
C3
  5
EA
331
63D
  5
1399
331
22D
  5
27D
331
920
  5
13C9
331
278
  5
2C0
331
639
  5
12E5
331
13EF
  5
13E3
331
13EB
  5
13E7
331
13E7
  5
13EB
331
1426
  5
977
331
1422
  5
97B
331
3D7
  5
927
331
355
  5
3B1
331
636
  5
12E2
331
3C7
  5
926
331
12DC
  5
1431
331
632
  5
12DE
331
12D8
  5
142D
331
12D4
  5
1429
331
12D0
  5
1425
331
1EE
  5
243
331
1EA
  5
23F
331
1AB
  5
1E7
331
174
  5
19B
331
135
  5
15C
331
1E6
  5
23B
331
1A7
  5
1E3
331
170
  5
197
331
974
  5
13F2
331
131
  5
158
331
2EE
  5
36E
331
2AF
  5
30A
331
FE
  5
126
331
BF
  5
E6
331
1E2
  5
22D
331
1A3
  5
1DF
331
16C
  5
193
331
1281
  5
1415
331
12D
  5
154
331
2EA
  5
36A
331
2AB
  5
2F4
331
FA
  5
122
331
12C5
  5
141A
331
91C
  5
13C5
331
274
  5
2BC
331
BB
  5
E2
331
168
  5
18F
331
2E6
  5
366
331
129
  5
150
331
2A7
  5
2F0
331
F6
  5
11E
331
918
  5
13C1
331
B7
  5
DE
331
2E2
  5
35E
331
2A3
  5
2EC
331
F2
  5
11A
331
914
  5
13BD
331
B3
  5
DA
331
910
  5
13B9
331
219
  5
278
331
141E
  5
97F
331
141A
  5
983
331
13DB
  5
AA
331
1416
  5
989
331
1412
  5
997
331
62E
  5
12DA
331
13D3
  5
1F3
331
3BF
  5
905
331
345
  5
3A6
331
380
  5
630
331
341
  5
3A2
331
37C
  5
4E1
331
12CC
  5
1421
331
33D
  5
39E
331
12C8
  5
141D
331
378
  5
3EA
331
9A0
  5
1412
331
1DE
  5
21F
331
19F
  5
1DB
331
1DA
  5
211
331
19B
  5
1D7
331
164
  5
18B
331
125
  5
14C
331
1D6
  5
207
331
197
  5
1D3
331
160
  5
187
331
2DE
  5
35A
331
121
  5
148
331
29F
  5
2E8
331
EE
  5
115
331
AF
  5
D6
331
1D2
  5
201
331
193
  5
1CF
331
15C
  5
183
331
139A
  5
13D8
331
2DA
  5
356
331
11D
  5
144
331
29B
  5
2E4
331
EA
  5
111
331
254
  5
29E
331
AB
  5
D2
331
158
  5
17F
331
94C
  5
13E0
331
119
  5
140
331
2D6
  5
348
331
297
  5
2E0
331
E6
  5
10D
331
908
  5
13B3
331
250
  5
29A
331
A7
  5
CE
331
211
  5
275
331
2D2
  5
344
331
E2
  5
109
331
904
  5
13AF
331
24C
  5
296
331
A3
  5
CA
331
900
  5
13AB
331
248
  5
28E
331
209
  5
273
331
140E
  5
99B
331
3E9
  5
972
331
13CF
  5
1EF
331
140A
  5
99F
331
143D
  5
9C
331
13CB
  5
2B5
331
1406
  5
1281
331
1439
  5
A2
331
13C7
  5
2B1
331
1402
  5
12C4
331
13C3
  5
2AD
331
3AB
  5
900
331
3A7
  5
8FC
331
370
  5
3E6
331
321
  5
39A
331
3A3
  5
8F8
331
36C
  5
3E2
331
99C
  5
140E
331
31D
  5
396
331
368
  5
3DE
331
998
  5
140A
331
319
  5
392
331
1CE
  5
1FD
331
18F
  5
1CB
331
1CA
  5
1F8
331
18B
  5
1C5
331
154
  5
17B
331
115
  5
13D
331
187
  5
1B3
331
150
  5
177
331
2CE
  5
340
331
111
  5
139
331
28F
  5
2DC
331
DE
  5
105
331
9F
  5
C7
331
183
  5
1AA
331
14C
  5
173
331
930
  5
13DA
331
10D
  5
135
331
28B
  5
2D8
331
DA
  5
101
331
8FC
  5
13A7
331
244
  5
28A
331
9B
  5
C3
331
148
  5
16F
331
92C
  5
13D5
331
109
  5
131
331
287
  5
2D4
331
D6
  5
FD
331
8F8
  5
13A3
331
240
  5
286
331
97
  5
BF
331
201
  5
254
331
928
  5
13D1
331
2C2
  5
321
331
283
  5
2D0
331
D2
  5
F9
331
8F4
  5
139F
331
23C
  5
282
331
1FD
  5
250
331
1F9
  5
24D
331
1435
  5
AC
331
13FE
  5
12C8
331
1431
  5
B2
331
13BF
  5
2A9
331
13FA
  5
12CC
331
142D
  5
BB
331
13BB
  5
2A5
331
13F6
  5
12D0
331
1429
  5
976
331
13F2
  5
12D4
331
3E6
  5
94D
331
39F
  5
8F4
331
3E2
  5
949
331
39B
  5
63F
331
315
  5
383
331
3DE
  5
92E
331
397
  5
63B
331
3DA
  5
92A
331
393
  5
637
331
35C
  5
3C7
331
30D
  5
37F
331
358
  5
3B9
331
12E7
  5
143C
331
309
  5
37B
331
12E3
  5
1438
331
984
  5
1402
331
980
  5
13FE
331
1BA
  5
1EC
331
144
  5
16B
331
1F5
  5
24A
331
17F
  5
1A6
331
2BE
  5
31D
331
140
  5
167
331
CE
  5
F5
331
1F1
  5
246
331
17B
  5
1A2
331
97F
  5
13FD
331
13C
  5
163
331
234
  5
27F
331
CA
  5
F1
331
97B
  5
13F9
331
138
  5
15F
331
2F5
  5
379
331
2B6
  5
316
331
105
  5
12D
331
927
  5
13D0
331
27F
  5
2CC
331
C6
  5
ED
331
640
  5
139C
331
2F1
  5
375
331
2B2
  5
30D
331
101
  5
129
331
923
  5
13CC
331
27B
  5
2C3
331
C2
  5
E9
331
63C
  5
1398
331
638
  5
12E4
331
13EE
  5
13E6
331
13E6
  5
13EE
331
1425
  5
97A
331
1421
  5
97E
331
13E2
  5
97
331
354
  5
3AB
331
635
  5
12E1
331
12DF
  5
1434
331
3C6
  5
907
331
631
  5
12DD
331
12DB
  5
1430
331
38B
  5
634
331
12D7
  5
142C
331
348
  5
3A9
331
12D3
  5
1428
331
1ED
  5
242
331
177
  5
19E
331
1E9
  5
23E
331
1AA
  5
1E6
331
173
  5
19A
331
977
  5
13F5
331
134
  5
15B
331
1E5
  5
235
331
1A6
  5
1E2
331
16F
  5
196
331
1284
  5
1418
331
973
  5
13F1
331
130
  5
157
331
2ED
  5
36D
331
2AE
  5
309
331
FD
  5
125
331
91F
  5
13C8
331
277
  5
2BF
331
BE
  5
E5
331
1E1
  5
227
331
1A2
  5
1DE
331
16B
  5
192
331
2E9
  5
369
331
12C
  5
153
331
2AA
  5
2F3
331
F9
  5
121
331
12C4
  5
1419
331
91B
  5
13C4
331
273
  5
2BB
331
BA
  5
E1
331
2E5
  5
365
331
128
  5
14F
331
2A6
  5
2EF
331
F5
  5
11D
331
917
  5
13C0
331
B6
  5
DD
331
220
  5
27A
331
2E1
  5
35D
331
2A2
  5
2EB
331
F1
  5
119
331
913
  5
13BC
331
B2
  5
D9
331
218
  5
277
331
141D
  5
982
331
1419
  5
987
331
13DA
  5
A9
331
1415
  5
996
331
13D6
  5
B5
331
1411
  5
99A
331
13D2
  5
1F2
331
383
  5
632
331
344
  5
3A5
331
37F
  5
62F
331
12CF
  5
1424
331
340
  5
3A1
331
4E1
  5
12D8
331
3B2
  5
902
331
37B
  5
4E0
331
12CB
  5
1420
331
33C
  5
39D
331
1DD
  5
219
331
19E
  5
1DA
331
167
  5
18E
331
1D9
  5
20A
331
19A
  5
1D6
331
163
  5
18A
331
124
  5
14B
331
1D5
  5
206
331
196
  5
1D2
331
15F
  5
186
331
2DD
  5
359
331
120
  5
147
331
29E
  5
2E7
331
ED
  5
114
331
90F
  5
13B8
331
257
  5
2A1
331
AE
  5
D5
331
1D1
  5
200
331
192
  5
1CE
331
15B
  5
182
331
2D9
  5
355
331
11C
  5
143
331
29A
  5
2E3
331
E9
  5
110
331
253
  5
29D
331
AA
  5
D1
331
94B
  5
13DF
331
2D5
  5
347
331
296
  5
2DF
331
E5
  5
10C
331
907
  5
13B2
331
24F
  5
299
331
A6
  5
CD
331
2D1
  5
343
331
E1
  5
108
331
903
  5
13AE
331
24B
  5
295
331
A2
  5
C9
331
208
  5
272
331
140D
  5
99E
331
3E8
  5
971
331
13CE
  5
1EE
331
1409
  5
9A2
331
143C
  5
9B
331
13CA
  5
2B4
331
1405
  5
1284
331
1438
  5
A8
331
13C6
  5
2B0
331
1401
  5
12C7
331
4D5
  5
12D6
331
13C2
  5
2AC
331
377
  5
3E9
331
3AA
  5
8FF
331
3A6
  5
8FB
331
36F
  5
3E5
331
99F
  5
1411
331
320
  5
399
331
3A2
  5
8F7
331
36B
  5
3E1
331
99B
  5
140D
331
31C
  5
395
331
997
  5
1409
331
318
  5
391
331
1CD
  5
1FC
331
18E
  5
1CA
331
157
  5
17E
331
1C9
  5
1F6
331
18A
  5
1BB
331
153
  5
17A
331
114
  5
13C
331
1C5
  5
1F4
331
186
  5
1AD
331
14F
  5
176
331
2CD
  5
33F
331
110
  5
138
331
28E
  5
2DB
331
DD
  5
104
331
8FF
  5
13AA
331
247
  5
28D
331
9E
  5
C6
331
182
  5
1A9
331
14B
  5
172
331
10C
  5
134
331
28A
  5
2D7
331
D9
  5
100
331
8FB
  5
13A6
331
243
  5
289
331
9A
  5
C2
331
204
  5
256
331
92B
  5
13D4
331
108
  5
130
331
2C5
  5
33C
331
286
  5
2D3
331
D5
  5
FC
331
8F7
  5
13A2
331
23F
  5
285
331
96
  5
BE
331
200
  5
253
331
2C1
  5
320
331
282
  5
2CF
331
D1
  5
F8
331
23B
  5
281
331
1FC
  5
24F
331
1F8
  5
24C
331
1434
  5
B1
331
13FD
  5
12CB
331
1430
  5
B8
331
13BE
  5
2A8
331
13F9
  5
12CF
331
142C
  5
BA
331
13BA
  5
2A4
331
13F5
  5
12D3
331
1428
  5
975
331
13F1
  5
13E5
331
3E5
  5
94C
331
39E
  5
642
331
367
  5
3DD
331
3E1
  5
932
331
39A
  5
63E
331
363
  5
3DA
331
314
  5
381
331
3DD
  5
92D
331
396
  5
63A
331
3D9
  5
929
331
392
  5
636
331
35B
  5
3C6
331
30C
  5
37E
331
12E6
  5
143B
331
987
  5
1404
331
12E2
  5
1437
331
983
  5
1401
331
147
  5
16E
331
143
  5
16A
331
1F4
  5
249
331
17E
  5
1A5
331
2BD
  5
31C
331
13F
  5
166
331
CD
  5
F4
331
1F0
  5
245
331
17A
  5
1A1
331
97E
  5
13FC
331
13B
  5
162
331
2B9
  5
319
331
C9
  5
F0
331
97A
  5
13F8
331
2F4
  5
378
331
2B5
  5
315
331
104
  5
12C
331
926
  5
13CF
331
27E
  5
2CB
331
C5
  5
EC
331
63F
  5
139B
331
2F0
  5
370
331
2B1
  5
30C
331
100
  5
128
331
922
  5
13CB
331
27A
  5
2C2
331
C1
  5
E8
331
63B
  5
1397
331
13ED
  5
13E9
331
13E9
  5
13ED
331
1424
  5
979
331
1420
  5
97D
331
357
  5
3B8
331
13E1
  5
96
331
353
  5
3AA
331
12DE
  5
1433
331
634
  5
12E0
331
12DA
  5
142F
331
630
  5
12DC
331
12D6
  5
142B
331
12D2
  5
1427
331
1EC
  5
241
331
1AD
  5
1E9
331
176
  5
19D
331
137
  5
15E
331
1E8
  5
23D
331
1A9
  5
1E5
331
172
  5
199
331
976
  5
13F4
331
133
  5
15A
331
1E4
  5
234
331
1A5
  5
1E1
331
16E
  5
195
331
1283
  5
1417
331
972
  5
13F0
331
12F
  5
156
331
2EC
  5
36C
331
2AD
  5
2F6
331
FC
  5
124
331
91E
  5
13C7
331
276
  5
2BE
331
BD
  5
E4
331
12C7
  5
141C
331
227
  5
27C
331
1E0
  5
226
331
1A1
  5
1DD
331
16A
  5
191
331
2E8
  5
368
331
12B
  5
152
331
2A9
  5
2F2
331
F8
  5
120
331
91A
  5
13C3
331
272
  5
2B9
331
B9
  5
E0
331
2E4
  5
363
331
2A5
  5
2EE
331
F4
  5
11C
331
916
  5
13BF
331
B5
  5
DC
331
21F
  5
279
331
2E0
  5
35C
331
2A1
  5
2EA
331
F0
  5
117
331
912
  5
13BB
331
B1
  5
D8
331
141C
  5
981
331
1418
  5
986
331
1414
  5
995
331
13D5
  5
B4
331
1410
  5
999
331
347
  5
3A8
331
13D1
  5
1F1
331
3B9
  5
904
331
343
  5
3A4
331
4E4
  5
12D9
331
37E
  5
62E
331
12CE
  5
1423
331
33F
  5
3A0
331
4E0
  5
12D7
331
3B1
  5
901
331
12CA
  5
141F
331
37A
  5
4D5
331
9A2
  5
1414
331
1DC
  5
218
331
19D
  5
1D9
331
166
  5
18D
331
127
  5
14E
331
1D8
  5
209
331
199
  5
1D5
331
162
  5
189
331
123
  5
14A
331
1D4
  5
204
331
195
  5
1D1
331
15E
  5
185
331
2DC
  5
358
331
11F
  5
146
331
29D
  5
2E6
331
EC
  5
113
331
90E
  5
13B7
331
256
  5
2A0
331
AD
  5
D4
331
1D0
  5
1FF
331
191
  5
1CD
331
15A
  5
181
331
94E
  5
13E2
331
11B
  5
142
331
2D8
  5
354
331
299
  5
2E2
331
E8
  5
10F
331
90A
  5
13B5
331
252
  5
29C
331
A9
  5
D0
331
94A
  5
13DE
331
2D4
  5
346
331
295
  5
2DE
331
E4
  5
10B
331
906
  5
13B1
331
24E
  5
298
331
A5
  5
CC
331
2D0
  5
342
331
E0
  5
107
331
902
  5
13AD
331
24A
  5
290
331
A1
  5
C8
331
140C
  5
99D
331
13CD
  5
2B7
331
1408
  5
9A1
331
143B
  5
A4
331
13C9
  5
2B3
331
1404
  5
1283
331
13C5
  5
2AF
331
1400
  5
12C6
331
376
  5
3E8
331
13C1
  5
2AB
331
3A9
  5
8FE
331
323
  5
39C
331
3A5
  5
8FA
331
36E
  5
3E4
331
99E
  5
1410
331
31F
  5
398
331
3A1
  5
8F6
331
36A
  5
3E0
331
99A
  5
140C
331
31B
  5
394
331
996
  5
1408
331
1CC
  5
1FB
331
18D
  5
1C9
331
156
  5
17D
331
117
  5
13F
331
1C8
  5
1F5
331
189
  5
1BA
331
152
  5
179
331
113
  5
13B
331
185
  5
1AC
331
14E
  5
175
331
932
  5
13DC
331
10F
  5
137
331
2CC
  5
33E
331
28D
  5
2DA
331
DC
  5
103
331
8FE
  5
13A9
331
246
  5
28C
331
9D
  5
C5
331
207
  5
271
331
181
  5
1A8
331
14A
  5
171
331
92E
  5
13D7
331
10B
  5
133
331
289
  5
2D6
331
D8
  5
FF
331
8FA
  5
13A5
331
242
  5
288
331
99
  5
C1
331
203
  5
255
331
92A
  5
13D3
331
2C4
  5
323
331
285
  5
2D2
331
D4
  5
FB
331
8F6
  5
13A1
331
23E
  5
284
331
1FF
  5
252
331
2C0
  5
31F
331
281
  5
2CE
331
D0
  5
F7
331
1FB
  5
24E
331
1437
  5
AE
331
1433
  5
B0
331
13FC
  5
12CA
331
142F
  5
B7
331
13BD
  5
2A7
331
13F8
  5
12CE
331
142B
  5
B9
331
13B9
  5
2A3
331
13F4
  5
12D2
331
13F0
  5
13E4
331
3E4
  5
94B
331
39D
  5
641
331
366
  5
3DC
331
317
  5
38B
331
3E0
  5
931
331
399
  5
63D
331
313
  5
380
331
3DC
  5
92C
331
395
  5
639
331
35E
  5
3D8
331
3D8
  5
928
331
391
  5
635
331
35A
  5
3C0
331
12E9
  5
143E
331
30B
  5
37D
331
98A
  5
1406
331
12E5
  5
143A
331
986
  5
1403
331
12E1
  5
1436
331
982
  5
1400
  0
XRECORD
  5
1444
102
{ACAD_REACTORS
330
1442
102
}
330
1442
100
AcDbXrecord
280
     1
 70
     2
  0
XRECORD
  5
1443
102
{ACAD_REACTORS
330
1442
102
}
330
1442
100
AcDbXrecord
280
     1
 40
1.25
  0
XRECORD
  5
1445
102
{ACAD_REACTORS
330
1442
102
}
330
1442
100
AcDbXrecord
280
     1
 40
1.570796326794896
  0
LAYOUT
  5
39
102
{ACAD_XDICTIONARY
360
1469
102
}
102
{ACAD_REACTORS
330
2E
102
}
330
2E
100
AcDbPlotSettings
  1

  2
DocuPrint 305
  4

  6

 40
0.0
 41
0.0
 42
0.0
 43
0.0
 44
0.0
 45
0.0
 46
0.0
 47
0.0
 48
0.0
 49
0.0
140
0.0
141
0.0
142
1.0
143
1.0
 70
  1712
 72
     0
 73
     0
 74
     0
  7

 75
     0
147
1.0
148
0.0
149
0.0
100
AcDbLayout
  1
Model
 70
     1
 71
     0
 10
0.0
 20
0.0
 11
12.0
 21
9.0
 12
0.0
 22
0.0
 32
0.0
 14
0.0
 24
0.0
 34
0.0
 15
0.0
 25
0.0
 35
0.0
146
0.0
 13
0.0
 23
0.0
 33
0.0
 16
1.0
 26
0.0
 36
0.0
 17
0.0
 27
1.0
 37
0.0
 76
     0
330
36
331
56
  0
LAYOUT
  5
35
102
{ACAD_XDICTIONARY
360
1467
102
}
102
{ACAD_REACTORS
330
2E
102
}
330
2E
100
AcDbPlotSettings
  1

  2
DocuPrint 305
  4

  6

 40
0.0
 41
0.0
 42
0.0
 43
0.0
 44
0.0
 45
0.0
 46
0.0
 47
0.0
 48
0.0
 49
0.0
140
0.0
141
0.0
142
1.0
143
1.0
 70
   688
 72
     0
 73
     0
 74
     5
  7

 75
    16
147
1.0
148
0.0
149
0.0
100
AcDbLayout
  1
レイアウト1
 70
     1
 71
     1
 10
0.0
 20
0.0
 11
12.0
 21
9.0
 12
0.0
 22
0.0
 32
0.0
 14
1.000000000000000E+20
 24
1.000000000000000E+20
 34
1.000000000000000E+20
 15
-1.000000000000000E+20
 25
-1.000000000000000E+20
 35
-1.000000000000000E+20
146
0.0
 13
0.0
 23
0.0
 33
0.0
 16
1.0
 26
0.0
 36
0.0
 17
0.0
 27
1.0
 37
0.0
 76
     0
330
32
  0
MATERIAL
  5
12
102
{ACAD_XDICTIONARY
360
4EF
102
}
102
{ACAD_REACTORS
330
10
102
}
330
10
100
AcDbMaterial
  1
ByBlock
  0
MATERIAL
  5
11
102
{ACAD_XDICTIONARY
360
4ED
102
}
102
{ACAD_REACTORS
330
10
102
}
330
10
100
AcDbMaterial
  1
ByLayer
  0
MATERIAL
  5
13
102
{ACAD_XDICTIONARY
360
4F1
102
}
102
{ACAD_REACTORS
330
10
102
}
330
10
100
AcDbMaterial
  1
Global
  0
MLEADERSTYLE
  5
547
102
{ACAD_REACTORS
330
546
102
}
330
546
100
AcDbMLeaderStyle
170
     2
171
     1
172
     0
 90
        2
 40
0.0
 41
0.0
173
     1
 91
-1056964608
340
28
 92
       -2
290
     1
 42
0.09
291
     1
 43
0.36
  3
Standard
 44
0.18
300

342
26
174
     1
178
     6
175
     1
176
     0
 93
-1056964608
 45
0.18
292
     0
297
     0
 46
0.18
 94
-1056964608
 47
1.0
 49
1.0
140
1.0
293
     1
141
0.0
294
     1
177
     0
142
1.0
295
     0
296
     0
143
0.125
1001
ACAD_MLEADERVER
1070
     2
  0
MLINESTYLE
  5
2C
102
{ACAD_REACTORS
330
2B
102
}
330
2B
100
AcDbMlineStyle
  2
STANDARD
 70
     0
  3

 62
   256
 51
90.0
 52
90.0
 71
     2
 49
0.5
 62
   256
  6
BYLAYER
 49
-0.5
 62
   256
  6
BYLAYER
  0
ACDBPLACEHOLDER
  5
F
102
{ACAD_REACTORS
330
E
102
}
330
E
  0
SCALE
  5
535
102
{ACAD_REACTORS
330
534
102
}
330
534
100
AcDbScale
 70
     0
300
1:1
140
1.0
141
1.0
290
     1
  0
SCALE
  5
536
102
{ACAD_REACTORS
330
534
102
}
330
534
100
AcDbScale
 70
     0
300
1/128" = 1'-0"
140
0.0078125
141
12.0
290
     0
  0
SCALE
  5
537
102
{ACAD_REACTORS
330
534
102
}
330
534
100
AcDbScale
 70
     0
300
1/64" = 1'-0"
140
0.015625
141
12.0
290
     0
  0
SCALE
  5
538
102
{ACAD_REACTORS
330
534
102
}
330
534
100
AcDbScale
 70
     0
300
1/32" = 1'-0"
140
0.03125
141
12.0
290
     0
  0
SCALE
  5
539
102
{ACAD_REACTORS
330
534
102
}
330
534
100
AcDbScale
 70
     0
300
1/16" = 1'-0"
140
0.0625
141
12.0
290
     0
  0
SCALE
  5
53A
102
{ACAD_REACTORS
330
534
102
}
330
534
100
AcDbScale
 70
     0
300
3/32" = 1'-0"
140
0.09375
141
12.0
290
     0
  0
SCALE
  5
53B
102
{ACAD_REACTORS
330
534
102
}
330
534
100
AcDbScale
 70
     0
300
1/8" = 1'-0"
140
0.125
141
12.0
290
     0
  0
SCALE
  5
53C
102
{ACAD_REACTORS
330
534
102
}
330
534
100
AcDbScale
 70
     0
300
3/16" = 1'-0"
140
0.1875
141
12.0
290
     0
  0
SCALE
  5
53D
102
{ACAD_REACTORS
330
534
102
}
330
534
100
AcDbScale
 70
     0
300
1/4" = 1'-0"
140
0.25
141
12.0
290
     0
  0
SCALE
  5
53E
102
{ACAD_REACTORS
330
534
102
}
330
534
100
AcDbScale
 70
     0
300
3/8" = 1'-0"
140
0.375
141
12.0
290
     0
  0
SCALE
  5
53F
102
{ACAD_REACTORS
330
534
102
}
330
534
100
AcDbScale
 70
     0
300
1/2" = 1'-0"
140
0.5
141
12.0
290
     0
  0
SCALE
  5
540
102
{ACAD_REACTORS
330
534
102
}
330
534
100
AcDbScale
 70
     0
300
3/4" = 1'-0"
140
0.75
141
12.0
290
     0
  0
SCALE
  5
541
102
{ACAD_REACTORS
330
534
102
}
330
534
100
AcDbScale
 70
     0
300
1" = 1'-0"
140
1.0
141
12.0
290
     0
  0
SCALE
  5
542
102
{ACAD_REACTORS
330
534
102
}
330
534
100
AcDbScale
 70
     0
300
1-1/2" = 1'-0"
140
1.5
141
12.0
290
     0
  0
SCALE
  5
543
102
{ACAD_REACTORS
330
534
102
}
330
534
100
AcDbScale
 70
     0
300
3" = 1'-0"
140
3.0
141
12.0
290
     0
  0
SCALE
  5
544
102
{ACAD_REACTORS
330
534
102
}
330
534
100
AcDbScale
 70
     0
300
6" = 1'-0"
140
6.0
141
12.0
290
     0
  0
SCALE
  5
545
102
{ACAD_REACTORS
330
534
102
}
330
534
100
AcDbScale
 70
     0
300
1'-0" = 1'-0"
140
12.0
141
12.0
290
     0
  0
TABLESTYLE
  5
31
102
{ACAD_XDICTIONARY
360
77F
102
}
102
{ACAD_REACTORS
330
30
102
}
330
30
100
AcDbTableStyle
  3
Standard
 70
     0
 71
     0
 40
0.06
 41
0.06
280
     0
281
     0
  7
STANDARD
140
0.18
170
     2
 62
     0
 63
     7
283
     0
274
    -2
284
     1
 64
     0
275
    -2
285
     1
 65
     0
276
    -2
286
     1
 66
     0
277
    -2
287
     1
 67
     0
278
    -2
288
     1
 68
     0
279
    -2
289
     1
 69
     0
  7
STANDARD
140
0.25
170
     5
 62
     0
 63
     7
283
     0
274
    -2
284
     1
 64
     0
275
    -2
285
     1
 65
     0
276
    -2
286
     1
 66
     0
277
    -2
287
     1
 67
     0
278
    -2
288
     1
 68
     0
279
    -2
289
     1
 69
     0
  7
STANDARD
140
0.18
170
     5
 62
     0
 63
     7
283
     0
274
    -2
284
     1
 64
     0
275
    -2
285
     1
 65
     0
276
    -2
286
     1
 66
     0
277
    -2
287
     1
 67
     0
278
    -2
288
     1
 68
     0
279
    -2
289
     1
 69
     0
  0
VISUALSTYLE
  5
1A
102
{ACAD_XDICTIONARY
360
1450
102
}
102
{ACAD_REACTORS
330
14
102
}
330
14
100
AcDbVisualStyle
  2

 70
     4
 71
     0
 72
     2
 73
     0
 90
        0
 40
-0.6
 41
-30.0
 62
     5
 63
     7
 74
     1
 91
        4
 64
     7
 65
   257
 75
     1
175
     1
 42
1.0
 92
        0
 66
   257
 43
1.0
 76
     1
 77
     6
 78
     2
 67
     7
 79
     5
170
     0
171
     0
290
     0
174
     0
 93
        1
 44
0.0
173
     0
291
     0
 45
0.0
1001
ACAD
1000
AcDbSavedByObjectVersion
1070
     0
  0
VISUALSTYLE
  5
1C
102
{ACAD_XDICTIONARY
360
1454
102
}
102
{ACAD_REACTORS
330
14
102
}
330
14
100
AcDbVisualStyle
  2

 70
     6
 71
     1
 72
     2
 73
     2
 90
        0
 40
-0.6
 41
-30.0
 62
     5
 63
     7
 74
     2
 91
        2
 64
     7
 65
   257
 75
     2
175
     1
 42
40.0
 92
        0
 66
   257
 43
1.0
 76
     1
 77
     6
 78
     2
 67
     7
 79
     3
170
     0
171
     0
290
     0
174
     0
 93
        1
 44
0.0
173
     0
291
     0
 45
0.0
1001
ACAD
1000
AcDbSavedByObjectVersion
1070
     0
  0
VISUALSTYLE
  5
1B
102
{ACAD_XDICTIONARY
360
1452
102
}
102
{ACAD_REACTORS
330
14
102
}
330
14
100
AcDbVisualStyle
  2

 70
     5
 71
     0
 72
     2
 73
     0
 90
        0
 40
-0.6
 41
-30.0
 62
     5
 63
     7
 74
     1
 91
        4
 64
     7
 65
   257
 75
     1
175
     1
 42
1.0
 92
        0
 66
   257
 43
1.0
 76
     1
 77
     6
 78
     2
 67
     7
 79
     5
170
     0
171
     0
290
     0
174
     0
 93
        1
 44
0.0
173
     0
291
     0
 45
0.0
1001
ACAD
1000
AcDbSavedByObjectVersion
1070
     0
  0
VISUALSTYLE
  5
19
102
{ACAD_XDICTIONARY
360
144E
102
}
102
{ACAD_REACTORS
330
14
102
}
330
14
100
AcDbVisualStyle
  2

 70
     7
 71
     1
 72
     0
 73
     1
 90
        0
 40
-0.6
 41
-30.0
 62
     5
 63
     7
 74
     0
 91
        4
 64
     7
 65
   257
 75
     1
175
     1
 42
1.0
 92
        8
 66
     7
 43
1.0
 76
     1
 77
     6
 78
     2
 67
     7
 79
     5
170
     0
171
     0
290
     0
174
     0
 93
        1
 44
0.0
173
     0
291
     1
 45
0.0
1001
ACAD
1000
AcDbSavedByObjectVersion
1070
     0
  0
VISUALSTYLE
  5
20
102
{ACAD_XDICTIONARY
360
145C
102
}
102
{ACAD_REACTORS
330
14
102
}
330
14
100
AcDbVisualStyle
  2

 70
    12
 71
     2
 72
     2
 73
     0
 90
        0
 40
-0.6
 41
-30.0
 62
     5
 63
     7
 74
     1
 91
        4
 64
     7
 65
   257
 75
     1
175
     1
 42
1.0
 92
        8
 66
     7
 43
1.0
 76
     1
 77
     6
 78
     2
 67
     7
 79
     5
170
     0
171
     0
290
     0
174
     0
 93
        1
 44
50.0
173
     0
291
     1
 45
0.0
1001
ACAD
1000
AcDbSavedByObjectVersion
1070
     0
  0
VISUALSTYLE
  5
24
102
{ACAD_XDICTIONARY
360
1464
102
}
102
{ACAD_REACTORS
330
14
102
}
330
14
100
AcDbVisualStyle
  2

 70
    16
 71
     2
 72
     2
 73
     3
 90
        0
 40
-0.6
 41
-30.0
 62
     5
 63
     8
 74
     1
 91
        4
 64
     7
 65
   257
 75
     1
175
     1
 42
1.0
 92
        8
 66
     8
 43
1.0
 76
     1
 77
     6
 78
     2
 67
     7
 79
     5
170
     0
171
     0
290
     0
174
     0
 93
        1
 44
0.0
173
     0
291
     1
 45
0.0
1001
ACAD
1000
AcDbSavedByObjectVersion
1070
     0
  0
VISUALSTYLE
  5
1D
102
{ACAD_XDICTIONARY
360
1456
102
}
102
{ACAD_REACTORS
330
14
102
}
330
14
100
AcDbVisualStyle
  2

 70
     9
 71
     3
 72
     2
 73
     0
 90
        0
 40
-0.6
 41
-30.0
 62
     5
 63
     7
 74
     2
 91
        2
 64
     7
 65
   257
 75
     1
175
     1
 42
40.0
 92
        8
 66
     7
 43
1.0
 76
     1
 77
     6
 78
     2
 67
     7
 79
     3
170
     0
171
     0
290
     0
174
     0
 93
        1
 44
0.0
173
     0
291
     0
 45
0.0
1001
ACAD
1000
AcDbSavedByObjectVersion
1070
     0
  0
VISUALSTYLE
  5
1F
102
{ACAD_XDICTIONARY
360
145A
102
}
102
{ACAD_REACTORS
330
14
102
}
330
14
100
AcDbVisualStyle
  2

 70
    11
 71
     2
 72
     2
 73
     0
 90
        0
 40
-0.6
 41
-30.0
 62
     5
 63
     7
 74
     1
 91
        4
 64
     7
 65
   257
 75
     1
175
     1
 42
1.0
 92
        8
 66
     7
 43
1.0
 76
     1
 77
     6
 78
     2
 67
     7
 79
     5
170
     0
171
     0
290
     0
174
     0
 93
        1
 44
-50.0
173
     0
291
     1
 45
0.0
1001
ACAD
1000
AcDbSavedByObjectVersion
1070
     0
  0
VISUALSTYLE
  5
533
102
{ACAD_XDICTIONARY
360
147D
102
}
102
{ACAD_REACTORS
330
14
102
}
330
14
100
AcDbVisualStyle
  2

 70
    22
 71
     2
 72
     2
 73
     0
 90
        0
 40
-0.6
 41
-30.0
 62
     5
 63
     7
 74
     1
 91
        4
 64
     7
 65
   257
 75
     1
175
     1
 42
1.0
 92
        8
 66
     7
 43
1.0
 76
     1
 77
     6
 78
     2
 67
     7
 79
     5
170
     0
171
     0
290
     0
174
     0
 93
        1
 44
0.0
173
     0
291
     1
 45
0.0
1001
ACAD
1000
AcDbSavedByObjectVersion
1070
     0
  0
VISUALSTYLE
  5
23
102
{ACAD_XDICTIONARY
360
1462
102
}
102
{ACAD_REACTORS
330
14
102
}
330
14
100
AcDbVisualStyle
  2

 70
    15
 71
     2
 72
     2
 73
     0
 90
        0
 40
-0.6
 41
-30.0
 62
     5
 63
     7
 74
     1
 91
        4
 64
     7
 65
   257
 75
     1
175
     1
 42
1.0
 92
        8
 66
     7
 43
1.0
 76
     1
 77
     6
 78
     2
 67
     7
 79
     5
170
     0
171
     0
290
     0
174
     0
 93
        1
 44
0.0
173
     0
291
     1
 45
0.0
1001
ACAD
1000
AcDbSavedByObjectVersion
1070
     0
  0
VISUALSTYLE
  5
15
102
{ACAD_XDICTIONARY
360
1446
102
}
102
{ACAD_REACTORS
330
14
102
}
330
14
100
AcDbVisualStyle
  2

 70
     0
 71
     2
 72
     1
 73
     1
 90
        2
 40
-0.6
 41
30.0
 62
     5
 63
     7
 74
     0
 91
        4
 64
     7
 65
   257
 75
     1
175
     1
 42
1.0
 92
        8
 66
     7
 43
1.0
 76
     1
 77
     6
 78
     2
 67
     7
 79
     5
170
     0
171
     0
290
     0
174
     0
 93
       13
 44
0.0
173
     0
291
     1
 45
0.0
1001
ACAD
1000
AcDbSavedByObjectVersion
1070
     0
  0
VISUALSTYLE
  5
16
102
{ACAD_XDICTIONARY
360
1448
102
}
102
{ACAD_REACTORS
330
14
102
}
330
14
100
AcDbVisualStyle
  2

 70
     1
 71
     2
 72
     1
 73
     1
 90
        2
 40
-0.6
 41
30.0
 62
     5
 63
     7
 74
     1
 91
        4
 64
     7
 65
   257
 75
     1
175
     1
 42
1.0
 92
        0
 66
   257
 43
1.0
 76
     1
 77
     6
 78
     2
 67
     7
 79
     5
170
     0
171
     0
290
     0
174
     0
 93
       13
 44
0.0
173
     0
291
     1
 45
0.0
1001
ACAD
1000
AcDbSavedByObjectVersion
1070
     0
  0
VISUALSTYLE
  5
17
102
{ACAD_XDICTIONARY
360
144A
102
}
102
{ACAD_REACTORS
330
14
102
}
330
14
100
AcDbVisualStyle
  2

 70
     2
 71
     2
 72
     2
 73
     1
 90
        2
 40
-0.6
 41
30.0
 62
     5
 63
     7
 74
     0
 91
        4
 64
     7
 65
   257
 75
     1
175
     1
 42
1.0
 92
        0
 66
     7
 43
1.0
 76
     1
 77
     6
 78
     2
 67
     7
 79
     5
170
     0
171
     0
290
     0
174
     0
 93
       13
 44
0.0
173
     0
291
     1
 45
0.0
1001
ACAD
1000
AcDbSavedByObjectVersion
1070
     0
  0
VISUALSTYLE
  5
18
102
{ACAD_XDICTIONARY
360
144C
102
}
102
{ACAD_REACTORS
330
14
102
}
330
14
100
AcDbVisualStyle
  2

 70
     3
 71
     2
 72
     2
 73
     1
 90
        2
 40
-0.6
 41
30.0
 62
     5
 63
     7
 74
     1
 91
        4
 64
     7
 65
   257
 75
     1
175
     1
 42
1.0
 92
        0
 66
   257
 43
1.0
 76
     1
 77
     6
 78
     2
 67
     7
 79
     5
170
     0
171
     0
290
     0
174
     0
 93
       13
 44
0.0
173
     0
291
     1
 45
0.0
1001
ACAD
1000
AcDbSavedByObjectVersion
1070
     0
  0
VISUALSTYLE
  5
52B
102
{ACAD_XDICTIONARY
360
146D
102
}
102
{ACAD_REACTORS
330
14
102
}
330
14
100
AcDbVisualStyle
  2

 70
     6
 71
     1
 72
     2
 73
     2
 90
        0
 40
-0.6
 41
-30.0
 62
     5
 63
     7
 74
     2
 91
        2
 64
     7
 65
   257
 75
     2
175
     1
 42
40.0
 92
        0
 66
   257
 43
1.0
 76
     1
 77
     6
 78
     2
 67
     7
 79
     3
170
     0
171
     0
290
     0
174
     0
 93
        1
 44
0.0
173
     0
291
     0
 45
0.0
1001
ACAD
1000
AcDbSavedByObjectVersion
1070
     0
  0
VISUALSTYLE
  5
531
102
{ACAD_XDICTIONARY
360
1479
102
}
102
{ACAD_REACTORS
330
14
102
}
330
14
100
AcDbVisualStyle
  2

 70
    20
 71
     2
 72
     2
 73
     0
 90
        0
 40
-0.6
 41
-30.0
 62
     5
 63
     7
 74
     1
 91
        4
 64
     7
 65
   257
 75
     1
175
     1
 42
1.0
 92
       10
 66
     7
 43
1.0
 76
     1
 77
     6
 78
     2
 67
     7
 79
     5
170
     0
171
     0
290
     0
174
     0
 93
        1
 44
0.0
173
     0
291
     1
 45
0.0
1001
ACAD
1000
AcDbSavedByObjectVersion
1070
     0
  0
VISUALSTYLE
  5
22
102
{ACAD_XDICTIONARY
360
1460
102
}
102
{ACAD_REACTORS
330
14
102
}
330
14
100
AcDbVisualStyle
  2

 70
    14
 71
     2
 72
     2
 73
     0
 90
        0
 40
-0.6
 41
-30.0
 62
     5
 63
     7
 74
     1
 91
        4
 64
     7
 65
   257
 75
     7
175
     7
 42
1.0
 92
        8
 66
     7
 43
1.0
 76
     1
 77
     6
 78
     2
 67
     7
 79
     5
170
     0
171
     0
290
     0
174
     0
 93
        1
 44
0.0
173
     0
291
     1
 45
0.0
1001
ACAD
1000
AcDbSavedByObjectVersion
1070
     0
  0
VISUALSTYLE
  5
532
102
{ACAD_XDICTIONARY
360
147B
102
}
102
{ACAD_REACTORS
330
14
102
}
330
14
100
AcDbVisualStyle
  2

 70
    21
 71
     2
 72
     2
 73
     0
 90
        0
 40
-0.6
 41
-30.0
 62
     5
 63
     7
 74
     1
 91
        4
 64
     7
 65
   257
 75
     1
175
     1
 42
1.0
 92
        9
 66
     7
 43
1.0
 76
     1
 77
     6
 78
     2
 67
     7
 79
     5
170
     0
171
     0
290
     0
174
     0
 93
        1
 44
0.0
173
     0
291
     1
 45
0.0
1001
ACAD
1000
AcDbSavedByObjectVersion
1070
     0
  0
VISUALSTYLE
  5
1E
102
{ACAD_XDICTIONARY
360
1458
102
}
102
{ACAD_REACTORS
330
14
102
}
330
14
100
AcDbVisualStyle
  2

 70
     8
 71
     2
 72
     2
 73
     0
 90
        0
 40
-0.6
 41
-30.0
 62
     5
 63
     7
 74
     1
 91
        0
 64
     7
 65
   257
 75
     1
175
     1
 42
1.0
 92
        8
 66
     8
 43
1.0
 76
     1
 77
     6
 78
     2
 67
     7
 79
     5
170
     0
171
     0
290
     0
174
     0
 93
       13
 44
0.0
173
     0
291
     0
 45
0.0
1001
ACAD
1000
AcDbSavedByObjectVersion
1070
     0
  0
VISUALSTYLE
  5
530
102
{ACAD_XDICTIONARY
360
1477
102
}
102
{ACAD_REACTORS
330
14
102
}
330
14
100
AcDbVisualStyle
  2

 70
    27
 71
     2
 72
     2
 73
     1
 90
        2
 40
-0.6
 41
30.0
 62
     5
 63
     7
 74
     0
 91
        4
 64
     7
 65
   257
 75
     1
175
     1
 42
1.0
 92
        8
 66
   257
 43
1.0
 76
     1
 77
     6
 78
     2
 67
     8
 79
     3
170
     0
171
     0
290
     0
174
     0
 93
        5
 44
0.0
173
     0
291
     0
 45
0.0
1001
ACAD
1000
AcDbSavedByObjectVersion
1070
     0
  0
VISUALSTYLE
  5
52F
102
{ACAD_XDICTIONARY
360
1475
102
}
102
{ACAD_REACTORS
330
14
102
}
330
14
100
AcDbVisualStyle
  2

 70
    26
 71
     2
 72
     2
 73
     1
 90
        2
 40
-0.6
 41
30.0
 62
     5
 63
     7
 74
     1
 91
       10
 64
     7
 65
   257
 75
     2
175
     1
 42
1.0
 92
        8
 66
   257
 43
1.0
 76
     1
 77
     6
 78
     2
 67
     7
 79
     3
170
     0
171
     0
290
     0
174
     0
 93
        5
 44
0.0
173
     0
291
     0
 45
0.0
1001
ACAD
1000
AcDbSavedByObjectVersion
1070
     0
  0
VISUALSTYLE
  5
52C
102
{ACAD_XDICTIONARY
360
146F
102
}
102
{ACAD_REACTORS
330
14
102
}
330
14
100
AcDbVisualStyle
  2

 70
    23
 71
     2
 72
     2
 73
     3
 90
        0
 40
-0.6
 41
-30.0
 62
     5
 63
     7
 74
     2
 91
        2
 64
     7
 65
     7
 75
     1
175
     1
 42
40.0
 92
        8
 66
     7
 43
1.0
 76
     1
 77
     6
 78
     2
 67
     7
 79
     3
170
     0
171
     0
290
     0
174
     0
 93
        1
 44
0.0
173
     0
291
     0
 45
0.0
1001
ACAD
1000
AcDbSavedByObjectVersion
1070
     0
  0
VISUALSTYLE
  5
52D
102
{ACAD_XDICTIONARY
360
1471
102
}
102
{ACAD_REACTORS
330
14
102
}
330
14
100
AcDbVisualStyle
  2

 70
    24
 71
     1
 72
     2
 73
     2
 90
        0
 40
-0.6
 41
-30.0
 62
     5
 63
     7
 74
     2
 91
        2
 64
     7
 65
     7
 75
     1
175
     1
 42
40.0
 92
       11
 66
     7
 43
1.0
 76
     1
 77
     6
 78
     2
 67
     7
 79
     6
170
     0
171
     0
290
     0
174
     0
 93
        1
 44
0.0
173
     0
291
     0
 45
0.0
1001
ACAD
1000
AcDbSavedByObjectVersion
1070
     0
  0
VISUALSTYLE
  5
21
102
{ACAD_XDICTIONARY
360
145E
102
}
102
{ACAD_REACTORS
330
14
102
}
330
14
100
AcDbVisualStyle
  2

 70
    13
 71
     2
 72
     2
 73
     0
 90
        0
 40
-0.6
 41
-30.0
 62
     5
 63
     7
 74
     1
 91
        4
 64
     7
 65
   257
 75
     1
175
     1
 42
1.0
 92
       12
 66
     7
 43
1.0
 76
     1
 77
     6
 78
     2
 67
     7
 79
     5
170
     0
171
     0
290
     0
174
     0
 93
        1
 44
0.0
173
     0
291
     1
 45
0.0
1001
ACAD
1000
AcDbSavedByObjectVersion
1070
     0
  0
VISUALSTYLE
  5
52A
102
{ACAD_XDICTIONARY
360
146B
102
}
102
{ACAD_REACTORS
330
14
102
}
330
14
100
AcDbVisualStyle
  2

 70
     5
 71
     0
 72
     2
 73
     0
 90
        0
 40
-0.6
 41
-30.0
 62
     5
 63
     7
 74
     1
 91
        4
 64
     7
 65
   257
 75
     1
175
     1
 42
1.0
 92
        0
 66
   257
 43
1.0
 76
     1
 77
     6
 78
     2
 67
     7
 79
     3
170
     0
171
     0
290
     0
174
     0
 93
        1
 44
0.0
173
     0
291
     0
 45
0.0
1001
ACAD
1000
AcDbSavedByObjectVersion
1070
     0
  0
VISUALSTYLE
  5
52E
102
{ACAD_XDICTIONARY
360
1473
102
}
102
{ACAD_REACTORS
330
14
102
}
330
14
100
AcDbVisualStyle
  2

 70
    25
 71
     2
 72
     2
 73
     1
 90
        1
 40
0.5
 41
-30.0
 62
     5
 63
     7
 74
     1
 91
        0
 64
     7
 65
   257
 75
     1
175
     1
 42
1.0
 92
        8
 66
     7
 43
1.0
 76
     1
 77
     6
 78
     2
 67
     7
 79
     3
170
     0
171
     0
290
     0
174
     0
 93
       13
 44
0.0
173
     0
291
     0
 45
0.0
1001
ACAD
1000
AcDbSavedByObjectVersion
1070
     0
  0
DICTIONARYVAR
  5
77D
102
{ACAD_REACTORS
330
4E2
102
}
330
4E2
100
DictionaryVariables
280
     0
  1
1:1
  0
DICTIONARYVAR
  5
77C
102
{ACAD_REACTORS
330
4E2
102
}
330
4E2
100
DictionaryVariables
280
     0
  1
STANDARD
  0
DICTIONARYVAR
  5
4E3
102
{ACAD_REACTORS
330
4E2
102
}
330
4E2
100
DictionaryVariables
280
     0
  1
STANDARD
  0
DICTIONARYVAR
  5
4E7
102
{ACAD_REACTORS
330
4E2
102
}
330
4E2
100
DictionaryVariables
280
     0
  1
1
  0
DICTIONARYVAR
  5
4E6
102
{ACAD_REACTORS
330
4E2
102
}
330
4E2
100
DictionaryVariables
280
     0
  1
0
  0
DICTIONARYVAR
  5
4E5
102
{ACAD_REACTORS
330
4E2
102
}
330
4E2
100
DictionaryVariables
280
     0
  1
127
  0
DICTIONARYVAR
  5
1351
102
{ACAD_REACTORS
330
4E2
102
}
330
4E2
100
DictionaryVariables
280
     0
  1
2
  0
DICTIONARY
  5
1469
330
39
100
AcDbDictionary
280
     1
281
     1
  3
ACAD_XREC_ROUNDTRIP
360
146A
  0
DICTIONARY
  5
1467
330
35
100
AcDbDictionary
280
     1
281
     1
  3
ACAD_XREC_ROUNDTRIP
360
1468
  0
DICTIONARY
  5
4EF
330
12
100
AcDbDictionary
280
     1
281
     1
  3
ACAD_XREC_ROUNDTRIP
360
4F0
  0
DICTIONARY
  5
4ED
330
11
100
AcDbDictionary
280
     1
281
     1
  3
ACAD_XREC_ROUNDTRIP
360
4EE
  0
DICTIONARY
  5
4F1
330
13
100
AcDbDictionary
280
     1
281
     1
  3
ACAD_XREC_ROUNDTRIP
360
4F2
  0
DICTIONARY
  5
77F
330
31
100
AcDbDictionary
280
     1
281
     1
  3
ACAD_ROUNDTRIP_2008_TABLESTYLE_CELLSTYLEMAP
360
143F
  3
ACAD_XREC_ROUNDTRIP
360
1466
  0
DICTIONARY
  5
1450
330
1A
100
AcDbDictionary
280
     1
281
     1
  3
ACAD_XREC_ROUNDTRIP
360
1451
  0
DICTIONARY
  5
1454
330
1C
100
AcDbDictionary
280
     1
281
     1
  3
ACAD_XREC_ROUNDTRIP
360
1455
  0
DICTIONARY
  5
1452
330
1B
100
AcDbDictionary
280
     1
281
     1
  3
ACAD_XREC_ROUNDTRIP
360
1453
  0
DICTIONARY
  5
144E
330
19
100
AcDbDictionary
280
     1
281
     1
  3
ACAD_XREC_ROUNDTRIP
360
144F
  0
DICTIONARY
  5
145C
330
20
100
AcDbDictionary
280
     1
281
     1
  3
ACAD_XREC_ROUNDTRIP
360
145D
  0
DICTIONARY
  5
1464
330
24
100
AcDbDictionary
280
     1
281
     1
  3
ACAD_XREC_ROUNDTRIP
360
1465
  0
DICTIONARY
  5
1456
330
1D
100
AcDbDictionary
280
     1
281
     1
  3
ACAD_XREC_ROUNDTRIP
360
1457
  0
DICTIONARY
  5
145A
330
1F
100
AcDbDictionary
280
     1
281
     1
  3
ACAD_XREC_ROUNDTRIP
360
145B
  0
DICTIONARY
  5
147D
330
533
100
AcDbDictionary
280
     1
281
     1
  3
ACAD_XREC_ROUNDTRIP
360
147E
  0
DICTIONARY
  5
1462
330
23
100
AcDbDictionary
280
     1
281
     1
  3
ACAD_XREC_ROUNDTRIP
360
1463
  0
DICTIONARY
  5
1446
330
15
100
AcDbDictionary
280
     1
281
     1
  3
ACAD_XREC_ROUNDTRIP
360
1447
  0
DICTIONARY
  5
1448
330
16
100
AcDbDictionary
280
     1
281
     1
  3
ACAD_XREC_ROUNDTRIP
360
1449
  0
DICTIONARY
  5
144A
330
17
100
AcDbDictionary
280
     1
281
     1
  3
ACAD_XREC_ROUNDTRIP
360
144B
  0
DICTIONARY
  5
144C
330
18
100
AcDbDictionary
280
     1
281
     1
  3
ACAD_XREC_ROUNDTRIP
360
144D
  0
DICTIONARY
  5
146D
330
52B
100
AcDbDictionary
280
     1
281
     1
  3
ACAD_XREC_ROUNDTRIP
360
146E
  0
DICTIONARY
  5
1479
330
531
100
AcDbDictionary
280
     1
281
     1
  3
ACAD_XREC_ROUNDTRIP
360
147A
  0
DICTIONARY
  5
1460
330
22
100
AcDbDictionary
280
     1
281
     1
  3
ACAD_XREC_ROUNDTRIP
360
1461
  0
DICTIONARY
  5
147B
330
532
100
AcDbDictionary
280
     1
281
     1
  3
ACAD_XREC_ROUNDTRIP
360
147C
  0
DICTIONARY
  5
1458
330
1E
100
AcDbDictionary
280
     1
281
     1
  3
ACAD_XREC_ROUNDTRIP
360
1459
  0
DICTIONARY
  5
1477
330
530
100
AcDbDictionary
280
     1
281
     1
  3
ACAD_XREC_ROUNDTRIP
360
1478
  0
DICTIONARY
  5
1475
330
52F
100
AcDbDictionary
280
     1
281
     1
  3
ACAD_XREC_ROUNDTRIP
360
1476
  0
DICTIONARY
  5
146F
330
52C
100
AcDbDictionary
280
     1
281
     1
  3
ACAD_XREC_ROUNDTRIP
360
1470
  0
DICTIONARY
  5
1471
330
52D
100
AcDbDictionary
280
     1
281
     1
  3
ACAD_XREC_ROUNDTRIP
360
1472
  0
DICTIONARY
  5
145E
330
21
100
AcDbDictionary
280
     1
281
     1
  3
ACAD_XREC_ROUNDTRIP
360
145F
  0
DICTIONARY
  5
146B
330
52A
100
AcDbDictionary
280
     1
281
     1
  3
ACAD_XREC_ROUNDTRIP
360
146C
  0
DICTIONARY
  5
1473
330
52E
100
AcDbDictionary
280
     1
281
     1
  3
ACAD_XREC_ROUNDTRIP
360
1474
  0
XRECORD
  5
146A
102
{ACAD_REACTORS
330
1469
102
}
330
1469
100
AcDbXrecord
280
     1
102
SHADEPLOT
 70
     0
102
SHADEPLOTRESLEVEL
 70
     2
102
SHADEPLOTCUSTOMDPI
 70
   300
  0
XRECORD
  5
1468
102
{ACAD_REACTORS
330
1467
102
}
330
1467
100
AcDbXrecord
280
     1
102
SHADEPLOT
 70
     0
102
SHADEPLOTRESLEVEL
 70
     2
102
SHADEPLOTCUSTOMDPI
 70
   300
  0
XRECORD
  5
4F0
102
{ACAD_REACTORS
330
4EF
102
}
330
4EF
100
AcDbXrecord
280
     1
102
MATERIAL
148
0.0
149
0.0
149
0.0
 93
        0
 94
      127
282
     0
 72
     1
 77
     1
171
     1
175
     1
179
     1
273
     0
  0
XRECORD
  5
4EE
102
{ACAD_REACTORS
330
4ED
102
}
330
4ED
100
AcDbXrecord
280
     1
102
MATERIAL
148
0.0
149
0.0
149
0.0
 93
        0
 94
      127
282
     0
 72
     1
 77
     1
171
     1
175
     1
179
     1
273
     0
  0
XRECORD
  5
4F2
102
{ACAD_REACTORS
330
4F1
102
}
330
4F1
100
AcDbXrecord
280
     1
102
MATERIAL
148
0.0
149
0.0
149
0.0
 93
        0
 94
      127
282
     0
 72
     1
 77
     1
171
     1
175
     1
179
     1
273
     0
  0
CELLSTYLEMAP
  5
143F
102
{ACAD_REACTORS
330
77F
102
}
330
77F
100
AcDbCellStyleMap
 90
        3
300
CELLSTYLE
  1
TABLEFORMAT_BEGIN
 90
        5
170
     1
 91
        0
 92
    32768
 62
   257
 93
        1
300
CONTENTFORMAT
  1
CONTENTFORMAT_BEGIN
 90
        0
 91
        0
 92
      512
 93
        0
300

 40
0.0
140
1.0
 94
        5
 62
     0
340
26
144
0.25
309
CONTENTFORMAT_END
171
     1
301
MARGIN
  1
CELLMARGIN_BEGIN
 40
0.06
 40
0.06
 40
0.06
 40
0.06
 40
0.18
 40
0.18
309
CELLMARGIN_END
 94
        6
 95
        1
302
GRIDFORMAT
  1
GRIDFORMAT_BEGIN
 90
        0
 91
        1
 62
     0
 92
       -2
340
0
 93
        0
 40
0.045
309
GRIDFORMAT_END
 95
        2
302
GRIDFORMAT
  1
GRIDFORMAT_BEGIN
 90
        0
 91
        1
 62
     0
 92
       -2
340
0
 93
        0
 40
0.045
309
GRIDFORMAT_END
 95
        4
302
GRIDFORMAT
  1
GRIDFORMAT_BEGIN
 90
        0
 91
        1
 62
     0
 92
       -2
340
0
 93
        0
 40
0.045
309
GRIDFORMAT_END
 95
        8
302
GRIDFORMAT
  1
GRIDFORMAT_BEGIN
 90
        0
 91
        1
 62
     0
 92
       -2
340
0
 93
        0
 40
0.045
309
GRIDFORMAT_END
 95
       16
302
GRIDFORMAT
  1
GRIDFORMAT_BEGIN
 90
        0
 91
        1
 62
     0
 92
       -2
340
0
 93
        0
 40
0.045
309
GRIDFORMAT_END
 95
       32
302
GRIDFORMAT
  1
GRIDFORMAT_BEGIN
 90
        0
 91
        1
 62
     0
 92
       -2
340
0
 93
        0
 40
0.045
309
GRIDFORMAT_END
309
TABLEFORMAT_END
  1
CELLSTYLE_BEGIN
 90
        1
 91
        1
300
_TITLE
309
CELLSTYLE_END
300
CELLSTYLE
  1
TABLEFORMAT_BEGIN
 90
        5
170
     1
 91
        0
 92
        0
 62
   257
 93
        1
300
CONTENTFORMAT
  1
CONTENTFORMAT_BEGIN
 90
        0
 91
        0
 92
      512
 93
        0
300

 40
0.0
140
1.0
 94
        5
 62
     0
340
26
144
0.18
309
CONTENTFORMAT_END
171
     1
301
MARGIN
  1
CELLMARGIN_BEGIN
 40
0.06
 40
0.06
 40
0.06
 40
0.06
 40
0.18
 40
0.18
309
CELLMARGIN_END
 94
        6
 95
        1
302
GRIDFORMAT
  1
GRIDFORMAT_BEGIN
 90
        0
 91
        1
 62
     0
 92
       -2
340
0
 93
        0
 40
0.045
309
GRIDFORMAT_END
 95
        2
302
GRIDFORMAT
  1
GRIDFORMAT_BEGIN
 90
        0
 91
        1
 62
     0
 92
       -2
340
0
 93
        0
 40
0.045
309
GRIDFORMAT_END
 95
        4
302
GRIDFORMAT
  1
GRIDFORMAT_BEGIN
 90
        0
 91
        1
 62
     0
 92
       -2
340
0
 93
        0
 40
0.045
309
GRIDFORMAT_END
 95
        8
302
GRIDFORMAT
  1
GRIDFORMAT_BEGIN
 90
        0
 91
        1
 62
     0
 92
       -2
340
0
 93
        0
 40
0.045
309
GRIDFORMAT_END
 95
       16
302
GRIDFORMAT
  1
GRIDFORMAT_BEGIN
 90
        0
 91
        1
 62
     0
 92
       -2
340
0
 93
        0
 40
0.045
309
GRIDFORMAT_END
 95
       32
302
GRIDFORMAT
  1
GRIDFORMAT_BEGIN
 90
        0
 91
        1
 62
     0
 92
       -2
340
0
 93
        0
 40
0.045
309
GRIDFORMAT_END
309
TABLEFORMAT_END
  1
CELLSTYLE_BEGIN
 90
        2
 91
        1
300
_HEADER
309
CELLSTYLE_END
300
CELLSTYLE
  1
TABLEFORMAT_BEGIN
 90
        5
170
     1
 91
        0
 92
        0
 62
   257
 93
        1
300
CONTENTFORMAT
  1
CONTENTFORMAT_BEGIN
 90
        0
 91
        0
 92
      512
 93
        0
300

 40
0.0
140
1.0
 94
        2
 62
     0
340
26
144
0.18
309
CONTENTFORMAT_END
171
     1
301
MARGIN
  1
CELLMARGIN_BEGIN
 40
0.06
 40
0.06
 40
0.06
 40
0.06
 40
0.18
 40
0.18
309
CELLMARGIN_END
 94
        6
 95
        1
302
GRIDFORMAT
  1
GRIDFORMAT_BEGIN
 90
        0
 91
        1
 62
     0
 92
       -2
340
0
 93
        0
 40
0.045
309
GRIDFORMAT_END
 95
        2
302
GRIDFORMAT
  1
GRIDFORMAT_BEGIN
 90
        0
 91
        1
 62
     0
 92
       -2
340
0
 93
        0
 40
0.045
309
GRIDFORMAT_END
 95
        4
302
GRIDFORMAT
  1
GRIDFORMAT_BEGIN
 90
        0
 91
        1
 62
     0
 92
       -2
340
0
 93
        0
 40
0.045
309
GRIDFORMAT_END
 95
        8
302
GRIDFORMAT
  1
GRIDFORMAT_BEGIN
 90
        0
 91
        1
 62
     0
 92
       -2
340
0
 93
        0
 40
0.045
309
GRIDFORMAT_END
 95
       16
302
GRIDFORMAT
  1
GRIDFORMAT_BEGIN
 90
        0
 91
        1
 62
     0
 92
       -2
340
0
 93
        0
 40
0.045
309
GRIDFORMAT_END
 95
       32
302
GRIDFORMAT
  1
GRIDFORMAT_BEGIN
 90
        0
 91
        1
 62
     0
 92
       -2
340
0
 93
        0
 40
0.045
309
GRIDFORMAT_END
309
TABLEFORMAT_END
  1
CELLSTYLE_BEGIN
 90
        3
 91
        2
300
_DATA
309
CELLSTYLE_END
  0
XRECORD
  5
1466
102
{ACAD_REACTORS
330
77F
102
}
330
77F
100
AcDbXrecord
280
     1
102
ACAD_ROUNDTRIP_PRE2007_TABLESTYLE
 90
      512
 91
        0
  1

 92
      512
 93
        0
  2

 94
      512
 95
        0
  3

  0
XRECORD
  5
1451
102
{ACAD_REACTORS
330
1450
102
}
330
1450
100
AcDbXrecord
280
     1
102
RTVSPropertyOp0
 70
     1
102
RTVSPropertyOp1
 70
     1
102
RTVSPropertyOp2
 70
     1
102
RTVSPropertyOp3
 70
     1
102
RTVSPropertyOp4
 70
     1
102
RTVSPropertyOp5
 70
     1
102
RTVSPropertyOp6
 70
     1
102
RTVSPropertyOp7
 70
     1
102
RTVSPropertyOp8
 70
     1
102
RTVSPropertyOp9
 70
     1
102
RTVSPropertyOp10
 70
     1
102
RTVSPropertyOp11
 70
     1
102
RTVSPropertyOp12
 70
     1
102
RTVSPropertyOp13
 70
     1
102
RTVSPropertyOp14
 70
     1
102
RTVSPropertyOp15
 70
     1
102
RTVSPropertyOp16
 70
     1
102
RTVSPropertyOp17
 70
     1
102
RTVSPropertyOp18
 70
     1
102
RTVSPropertyOp19
 70
     1
102
RTVSPropertyOp20
 70
     1
102
RTVSPropertyOp21
 70
     1
102
RTVSPropertyOp22
 70
     1
102
RTVSPropertyOp23
 70
     1
102
RTVSPropertyOp24
 70
     1
102
RTVSPropertyOp25
 70
     1
102
RTVSPropertyOp26
 70
     1
102
RTVSPropertyOp27
 70
     1
102
RTVSPropertyOp28
 70
     1
102
RTVSPropertyOp29
 70
     1
102
RTVSPropertyOp30
 70
     1
102
RTVSPropertyOp31
 70
     1
102
RTVSPropertyOp32
 70
     1
  0
XRECORD
  5
1455
102
{ACAD_REACTORS
330
1454
102
}
330
1454
100
AcDbXrecord
280
     1
102
RTVSPropertyOp0
 70
     1
102
RTVSPropertyOp1
 70
     1
102
RTVSPropertyOp2
 70
     1
102
RTVSPropertyOp3
 70
     1
102
RTVSPropertyOp4
 70
     1
102
RTVSPropertyOp5
 70
     1
102
RTVSPropertyOp6
 70
     1
102
RTVSPropertyOp7
 70
     1
102
RTVSPropertyOp8
 70
     1
102
RTVSPropertyOp9
 70
     1
102
RTVSPropertyOp10
 70
     1
102
RTVSPropertyOp11
 70
     1
102
RTVSPropertyOp12
 70
     1
102
RTVSPropertyOp13
 70
     1
102
RTVSPropertyOp14
 70
     1
102
RTVSPropertyOp15
 70
     1
102
RTVSPropertyOp16
 70
     1
102
RTVSPropertyOp17
 70
     1
102
RTVSPropertyOp18
 70
     1
102
RTVSPropertyOp19
 70
     1
102
RTVSPropertyOp20
 70
     1
102
RTVSPropertyOp21
 70
     1
102
RTVSPropertyOp22
 70
     1
102
RTVSPropertyOp23
 70
     1
102
RTVSPropertyOp24
 70
     1
102
RTVSPropertyOp25
 70
     1
102
RTVSPropertyOp26
 70
     1
102
RTVSPropertyOp27
 70
     1
102
RTVSPropertyOp28
 70
     1
102
RTVSPropertyOp29
 70
     1
102
RTVSPropertyOp30
 70
     1
102
RTVSPropertyOp31
 70
     1
102
RTVSPropertyOp32
 70
     1
  0
XRECORD
  5
1453
102
{ACAD_REACTORS
330
1452
102
}
330
1452
100
AcDbXrecord
280
     1
102
RTVSPropertyOp0
 70
     1
102
RTVSPropertyOp1
 70
     1
102
RTVSPropertyOp2
 70
     1
102
RTVSPropertyOp3
 70
     1
102
RTVSPropertyOp4
 70
     1
102
RTVSPropertyOp5
 70
     1
102
RTVSPropertyOp6
 70
     1
102
RTVSPropertyOp7
 70
     1
102
RTVSPropertyOp8
 70
     1
102
RTVSPropertyOp9
 70
     1
102
RTVSPropertyOp10
 70
     1
102
RTVSPropertyOp11
 70
     1
102
RTVSPropertyOp12
 70
     1
102
RTVSPropertyOp13
 70
     1
102
RTVSPropertyOp14
 70
     1
102
RTVSPropertyOp15
 70
     1
102
RTVSPropertyOp16
 70
     1
102
RTVSPropertyOp17
 70
     1
102
RTVSPropertyOp18
 70
     1
102
RTVSPropertyOp19
 70
     1
102
RTVSPropertyOp20
 70
     1
102
RTVSPropertyOp21
 70
     1
102
RTVSPropertyOp22
 70
     1
102
RTVSPropertyOp23
 70
     1
102
RTVSPropertyOp24
 70
     1
102
RTVSPropertyOp25
 70
     1
102
RTVSPropertyOp26
 70
     1
102
RTVSPropertyOp27
 70
     1
102
RTVSPropertyOp28
 70
     1
102
RTVSPropertyOp29
 70
     1
102
RTVSPropertyOp30
 70
     1
102
RTVSPropertyOp31
 70
     1
102
RTVSPropertyOp32
 70
     1
  0
XRECORD
  5
144F
102
{ACAD_REACTORS
330
144E
102
}
330
144E
100
AcDbXrecord
280
     1
102
RTVSPropertyOp0
 70
     1
102
RTVSPropertyOp1
 70
     1
102
RTVSPropertyOp2
 70
     1
102
RTVSPropertyOp3
 70
     1
102
RTVSPropertyOp4
 70
     1
102
RTVSPropertyOp5
 70
     1
102
RTVSPropertyOp6
 70
     1
102
RTVSPropertyOp7
 70
     1
102
RTVSPropertyOp8
 70
     1
102
RTVSPropertyOp9
 70
     1
102
RTVSPropertyOp10
 70
     1
102
RTVSPropertyOp11
 70
     1
102
RTVSPropertyOp12
 70
     1
102
RTVSPropertyOp13
 70
     1
102
RTVSPropertyOp14
 70
     1
102
RTVSPropertyOp15
 70
     1
102
RTVSPropertyOp16
 70
     1
102
RTVSPropertyOp17
 70
     1
102
RTVSPropertyOp18
 70
     1
102
RTVSPropertyOp19
 70
     1
102
RTVSPropertyOp20
 70
     1
102
RTVSPropertyOp21
 70
     1
102
RTVSPropertyOp22
 70
     1
102
RTVSPropertyOp23
 70
     1
102
RTVSPropertyOp24
 70
     1
102
RTVSPropertyOp25
 70
     1
102
RTVSPropertyOp26
 70
     1
102
RTVSPropertyOp27
 70
     1
102
RTVSPropertyOp28
 70
     1
102
RTVSPropertyOp29
 70
     1
102
RTVSPropertyOp30
 70
     1
102
RTVSPropertyOp31
 70
     1
102
RTVSPropertyOp32
 70
     1
  0
XRECORD
  5
145D
102
{ACAD_REACTORS
330
145C
102
}
330
145C
100
AcDbXrecord
280
     1
102
RTVSPropertyOp0
 70
     1
102
RTVSPropertyOp1
 70
     1
102
RTVSPropertyOp2
 70
     1
102
RTVSPropertyOp3
 70
     1
102
RTVSPropertyOp4
 70
     1
102
RTVSPropertyOp5
 70
     1
102
RTVSPropertyOp6
 70
     1
102
RTVSPropertyOp7
 70
     1
102
RTVSPropertyOp8
 70
     1
102
RTVSPropertyOp9
 70
     1
102
RTVSPropertyOp10
 70
     1
102
RTVSPropertyOp11
 70
     1
102
RTVSPropertyOp12
 70
     1
102
RTVSPropertyOp13
 70
     1
102
RTVSPropertyOp14
 70
     1
102
RTVSPropertyOp15
 70
     1
102
RTVSPropertyOp16
 70
     1
102
RTVSPropertyOp17
 70
     1
102
RTVSPropertyOp18
 70
     1
102
RTVSPropertyOp19
 70
     1
102
RTVSPropertyOp20
 70
     1
102
RTVSPropertyOp21
 70
     1
102
RTVSPropertyOp22
 70
     1
102
RTVSPropertyOp23
 70
     1
102
RTVSPropertyOp24
 70
     1
102
RTVSPropertyOp25
 70
     1
102
RTVSPropertyOp26
 70
     1
102
RTVSPropertyOp27
 70
     1
102
RTVSPropertyOp28
 70
     1
102
RTVSPropertyOp29
 70
     1
102
RTVSPropertyOp30
 70
     1
102
RTVSPropertyOp31
 70
     1
102
RTVSPropertyOp32
 70
     1
  0
XRECORD
  5
1465
102
{ACAD_REACTORS
330
1464
102
}
330
1464
100
AcDbXrecord
280
     1
102
RTVSPropertyOp0
 70
     1
102
RTVSPropertyOp1
 70
     1
102
RTVSPropertyOp2
 70
     1
102
RTVSPropertyOp3
 70
     1
102
RTVSPropertyOp4
 70
     1
102
RTVSPropertyOp5
 70
     1
102
RTVSPropertyOp6
 70
     1
102
RTVSPropertyOp7
 70
     1
102
RTVSPropertyOp8
 70
     1
102
RTVSPropertyOp9
 70
     1
102
RTVSPropertyOp10
 70
     1
102
RTVSPropertyOp11
 70
     1
102
RTVSPropertyOp12
 70
     1
102
RTVSPropertyOp13
 70
     1
102
RTVSPropertyOp14
 70
     1
102
RTVSPropertyOp15
 70
     1
102
RTVSPropertyOp16
 70
     1
102
RTVSPropertyOp17
 70
     1
102
RTVSPropertyOp18
 70
     1
102
RTVSPropertyOp19
 70
     1
102
RTVSPropertyOp20
 70
     1
102
RTVSPropertyOp21
 70
     1
102
RTVSPropertyOp22
 70
     1
102
RTVSPropertyOp23
 70
     1
102
RTVSPropertyOp24
 70
     1
102
RTVSPropertyOp25
 70
     1
102
RTVSPropertyOp26
 70
     1
102
RTVSPropertyOp27
 70
     1
102
RTVSPropertyOp28
 70
     1
102
RTVSPropertyOp29
 70
     1
102
RTVSPropertyOp30
 70
     1
102
RTVSPropertyOp31
 70
     1
102
RTVSPropertyOp32
 70
     1
  0
XRECORD
  5
1457
102
{ACAD_REACTORS
330
1456
102
}
330
1456
100
AcDbXrecord
280
     1
102
RTVSPropertyOp0
 70
     1
102
RTVSPropertyOp1
 70
     1
102
RTVSPropertyOp2
 70
     1
102
RTVSPropertyOp3
 70
     1
102
RTVSPropertyOp4
 70
     1
102
RTVSPropertyOp5
 70
     1
102
RTVSPropertyOp6
 70
     1
102
RTVSPropertyOp7
 70
     1
102
RTVSPropertyOp8
 70
     1
102
RTVSPropertyOp9
 70
     1
102
RTVSPropertyOp10
 70
     1
102
RTVSPropertyOp11
 70
     1
102
RTVSPropertyOp12
 70
     1
102
RTVSPropertyOp13
 70
     1
102
RTVSPropertyOp14
 70
     1
102
RTVSPropertyOp15
 70
     1
102
RTVSPropertyOp16
 70
     1
102
RTVSPropertyOp17
 70
     1
102
RTVSPropertyOp18
 70
     1
102
RTVSPropertyOp19
 70
     1
102
RTVSPropertyOp20
 70
     1
102
RTVSPropertyOp21
 70
     1
102
RTVSPropertyOp22
 70
     1
102
RTVSPropertyOp23
 70
     1
102
RTVSPropertyOp24
 70
     1
102
RTVSPropertyOp25
 70
     1
102
RTVSPropertyOp26
 70
     1
102
RTVSPropertyOp27
 70
     1
102
RTVSPropertyOp28
 70
     1
102
RTVSPropertyOp29
 70
     1
102
RTVSPropertyOp30
 70
     1
102
RTVSPropertyOp31
 70
     1
102
RTVSPropertyOp32
 70
     1
  0
XRECORD
  5
145B
102
{ACAD_REACTORS
330
145A
102
}
330
145A
100
AcDbXrecord
280
     1
102
RTVSPropertyOp0
 70
     1
102
RTVSPropertyOp1
 70
     1
102
RTVSPropertyOp2
 70
     1
102
RTVSPropertyOp3
 70
     1
102
RTVSPropertyOp4
 70
     1
102
RTVSPropertyOp5
 70
     1
102
RTVSPropertyOp6
 70
     1
102
RTVSPropertyOp7
 70
     1
102
RTVSPropertyOp8
 70
     1
102
RTVSPropertyOp9
 70
     1
102
RTVSPropertyOp10
 70
     1
102
RTVSPropertyOp11
 70
     1
102
RTVSPropertyOp12
 70
     1
102
RTVSPropertyOp13
 70
     1
102
RTVSPropertyOp14
 70
     1
102
RTVSPropertyOp15
 70
     1
102
RTVSPropertyOp16
 70
     1
102
RTVSPropertyOp17
 70
     1
102
RTVSPropertyOp18
 70
     1
102
RTVSPropertyOp19
 70
     1
102
RTVSPropertyOp20
 70
     1
102
RTVSPropertyOp21
 70
     1
102
RTVSPropertyOp22
 70
     1
102
RTVSPropertyOp23
 70
     1
102
RTVSPropertyOp24
 70
     1
102
RTVSPropertyOp25
 70
     1
102
RTVSPropertyOp26
 70
     1
102
RTVSPropertyOp27
 70
     1
102
RTVSPropertyOp28
 70
     1
102
RTVSPropertyOp29
 70
     1
102
RTVSPropertyOp30
 70
     1
102
RTVSPropertyOp31
 70
     1
102
RTVSPropertyOp32
 70
     1
  0
XRECORD
  5
147E
102
{ACAD_REACTORS
330
147D
102
}
330
147D
100
AcDbXrecord
280
     1
102
RTVSPropertyOp0
 70
     0
102
RTVSPropertyOp1
 70
     0
102
RTVSPropertyOp2
 70
     0
102
RTVSPropertyOp3
 70
     0
102
RTVSPropertyOp4
 70
     0
102
RTVSPropertyOp5
 70
     0
102
RTVSPropertyOp6
 70
     0
102
RTVSPropertyOp7
 70
     0
102
RTVSPropertyOp8
 70
     0
102
RTVSPropertyOp9
 70
     0
102
RTVSPropertyOp10
 70
     0
102
RTVSPropertyOp11
 70
     0
102
RTVSPropertyOp12
 70
     0
102
RTVSPropertyOp13
 70
     0
102
RTVSPropertyOp14
 70
     2
102
RTVSPropertyOp15
 70
     0
102
RTVSPropertyOp16
 70
     0
102
RTVSPropertyOp17
 70
     0
102
RTVSPropertyOp18
 70
     0
102
RTVSPropertyOp19
 70
     0
102
RTVSPropertyOp20
 70
     0
102
RTVSPropertyOp21
 70
     0
102
RTVSPropertyOp22
 70
     0
102
RTVSPropertyOp23
 70
     0
102
RTVSPropertyOp24
 70
     0
102
RTVSPropertyOp25
 70
     0
102
RTVSPropertyOp26
 70
     0
102
RTVSPropertyOp27
 70
     0
102
RTVSPropertyOp28
 70
     0
102
RTVSPropertyOp29
 70
     0
102
RTVSPropertyOp30
 70
     0
102
RTVSPropertyOp31
 70
     0
102
RTVSPropertyOp32
 70
     0
  0
XRECORD
  5
1463
102
{ACAD_REACTORS
330
1462
102
}
330
1462
100
AcDbXrecord
280
     1
102
RTVSPropertyOp0
 70
     1
102
RTVSPropertyOp1
 70
     1
102
RTVSPropertyOp2
 70
     1
102
RTVSPropertyOp3
 70
     1
102
RTVSPropertyOp4
 70
     1
102
RTVSPropertyOp5
 70
     1
102
RTVSPropertyOp6
 70
     1
102
RTVSPropertyOp7
 70
     1
102
RTVSPropertyOp8
 70
     1
102
RTVSPropertyOp9
 70
     1
102
RTVSPropertyOp10
 70
     1
102
RTVSPropertyOp11
 70
     1
102
RTVSPropertyOp12
 70
     1
102
RTVSPropertyOp13
 70
     1
102
RTVSPropertyOp14
 70
     1
102
RTVSPropertyOp15
 70
     1
102
RTVSPropertyOp16
 70
     1
102
RTVSPropertyOp17
 70
     1
102
RTVSPropertyOp18
 70
     1
102
RTVSPropertyOp19
 70
     1
102
RTVSPropertyOp20
 70
     1
102
RTVSPropertyOp21
 70
     1
102
RTVSPropertyOp22
 70
     1
102
RTVSPropertyOp23
 70
     1
102
RTVSPropertyOp24
 70
     1
102
RTVSPropertyOp25
 70
     1
102
RTVSPropertyOp26
 70
     1
102
RTVSPropertyOp27
 70
     1
102
RTVSPropertyOp28
 70
     1
102
RTVSPropertyOp29
 70
     1
102
RTVSPropertyOp30
 70
     1
102
RTVSPropertyOp31
 70
     1
102
RTVSPropertyOp32
 70
     1
  0
XRECORD
  5
1447
102
{ACAD_REACTORS
330
1446
102
}
330
1446
100
AcDbXrecord
280
     1
102
RTVSPropertyOp0
 70
     1
102
RTVSPropertyOp1
 70
     1
102
RTVSPropertyOp2
 70
     1
102
RTVSPropertyOp3
 70
     1
102
RTVSPropertyOp4
 70
     1
102
RTVSPropertyOp5
 70
     1
102
RTVSPropertyOp6
 70
     1
102
RTVSPropertyOp7
 70
     1
102
RTVSPropertyOp8
 70
     1
102
RTVSPropertyOp9
 70
     1
102
RTVSPropertyOp10
 70
     1
102
RTVSPropertyOp11
 70
     1
102
RTVSPropertyOp12
 70
     1
102
RTVSPropertyOp13
 70
     1
102
RTVSPropertyOp14
 70
     1
102
RTVSPropertyOp15
 70
     1
102
RTVSPropertyOp16
 70
     1
102
RTVSPropertyOp17
 70
     1
102
RTVSPropertyOp18
 70
     1
102
RTVSPropertyOp19
 70
     1
102
RTVSPropertyOp20
 70
     1
102
RTVSPropertyOp21
 70
     1
102
RTVSPropertyOp22
 70
     1
102
RTVSPropertyOp23
 70
     1
102
RTVSPropertyOp24
 70
     1
102
RTVSPropertyOp25
 70
     1
102
RTVSPropertyOp26
 70
     1
102
RTVSPropertyOp27
 70
     1
102
RTVSPropertyOp28
 70
     1
102
RTVSPropertyOp29
 70
     1
102
RTVSPropertyOp30
 70
     1
102
RTVSPropertyOp31
 70
     1
102
RTVSPropertyOp32
 70
     1
  0
XRECORD
  5
1449
102
{ACAD_REACTORS
330
1448
102
}
330
1448
100
AcDbXrecord
280
     1
102
RTVSPropertyOp0
 70
     1
102
RTVSPropertyOp1
 70
     1
102
RTVSPropertyOp2
 70
     1
102
RTVSPropertyOp3
 70
     1
102
RTVSPropertyOp4
 70
     1
102
RTVSPropertyOp5
 70
     1
102
RTVSPropertyOp6
 70
     1
102
RTVSPropertyOp7
 70
     1
102
RTVSPropertyOp8
 70
     1
102
RTVSPropertyOp9
 70
     1
102
RTVSPropertyOp10
 70
     1
102
RTVSPropertyOp11
 70
     1
102
RTVSPropertyOp12
 70
     1
102
RTVSPropertyOp13
 70
     1
102
RTVSPropertyOp14
 70
     1
102
RTVSPropertyOp15
 70
     1
102
RTVSPropertyOp16
 70
     1
102
RTVSPropertyOp17
 70
     1
102
RTVSPropertyOp18
 70
     1
102
RTVSPropertyOp19
 70
     1
102
RTVSPropertyOp20
 70
     1
102
RTVSPropertyOp21
 70
     1
102
RTVSPropertyOp22
 70
     1
102
RTVSPropertyOp23
 70
     1
102
RTVSPropertyOp24
 70
     1
102
RTVSPropertyOp25
 70
     1
102
RTVSPropertyOp26
 70
     1
102
RTVSPropertyOp27
 70
     1
102
RTVSPropertyOp28
 70
     1
102
RTVSPropertyOp29
 70
     1
102
RTVSPropertyOp30
 70
     1
102
RTVSPropertyOp31
 70
     1
102
RTVSPropertyOp32
 70
     1
  0
XRECORD
  5
144B
102
{ACAD_REACTORS
330
144A
102
}
330
144A
100
AcDbXrecord
280
     1
102
RTVSPropertyOp0
 70
     1
102
RTVSPropertyOp1
 70
     1
102
RTVSPropertyOp2
 70
     1
102
RTVSPropertyOp3
 70
     1
102
RTVSPropertyOp4
 70
     1
102
RTVSPropertyOp5
 70
     1
102
RTVSPropertyOp6
 70
     1
102
RTVSPropertyOp7
 70
     1
102
RTVSPropertyOp8
 70
     1
102
RTVSPropertyOp9
 70
     1
102
RTVSPropertyOp10
 70
     1
102
RTVSPropertyOp11
 70
     1
102
RTVSPropertyOp12
 70
     1
102
RTVSPropertyOp13
 70
     1
102
RTVSPropertyOp14
 70
     1
102
RTVSPropertyOp15
 70
     1
102
RTVSPropertyOp16
 70
     1
102
RTVSPropertyOp17
 70
     1
102
RTVSPropertyOp18
 70
     1
102
RTVSPropertyOp19
 70
     1
102
RTVSPropertyOp20
 70
     1
102
RTVSPropertyOp21
 70
     1
102
RTVSPropertyOp22
 70
     1
102
RTVSPropertyOp23
 70
     1
102
RTVSPropertyOp24
 70
     1
102
RTVSPropertyOp25
 70
     1
102
RTVSPropertyOp26
 70
     1
102
RTVSPropertyOp27
 70
     1
102
RTVSPropertyOp28
 70
     1
102
RTVSPropertyOp29
 70
     1
102
RTVSPropertyOp30
 70
     1
102
RTVSPropertyOp31
 70
     1
102
RTVSPropertyOp32
 70
     1
  0
XRECORD
  5
144D
102
{ACAD_REACTORS
330
144C
102
}
330
144C
100
AcDbXrecord
280
     1
102
RTVSPropertyOp0
 70
     1
102
RTVSPropertyOp1
 70
     1
102
RTVSPropertyOp2
 70
     1
102
RTVSPropertyOp3
 70
     1
102
RTVSPropertyOp4
 70
     1
102
RTVSPropertyOp5
 70
     1
102
RTVSPropertyOp6
 70
     1
102
RTVSPropertyOp7
 70
     1
102
RTVSPropertyOp8
 70
     1
102
RTVSPropertyOp9
 70
     1
102
RTVSPropertyOp10
 70
     1
102
RTVSPropertyOp11
 70
     1
102
RTVSPropertyOp12
 70
     1
102
RTVSPropertyOp13
 70
     1
102
RTVSPropertyOp14
 70
     1
102
RTVSPropertyOp15
 70
     1
102
RTVSPropertyOp16
 70
     1
102
RTVSPropertyOp17
 70
     1
102
RTVSPropertyOp18
 70
     1
102
RTVSPropertyOp19
 70
     1
102
RTVSPropertyOp20
 70
     1
102
RTVSPropertyOp21
 70
     1
102
RTVSPropertyOp22
 70
     1
102
RTVSPropertyOp23
 70
     1
102
RTVSPropertyOp24
 70
     1
102
RTVSPropertyOp25
 70
     1
102
RTVSPropertyOp26
 70
     1
102
RTVSPropertyOp27
 70
     1
102
RTVSPropertyOp28
 70
     1
102
RTVSPropertyOp29
 70
     1
102
RTVSPropertyOp30
 70
     1
102
RTVSPropertyOp31
 70
     1
102
RTVSPropertyOp32
 70
     1
  0
XRECORD
  5
146E
102
{ACAD_REACTORS
330
146D
102
}
330
146D
100
AcDbXrecord
280
     1
102
RTVSPropertyOp0
 70
     1
102
RTVSPropertyOp1
 70
     1
102
RTVSPropertyOp2
 70
     1
102
RTVSPropertyOp3
 70
     1
102
RTVSPropertyOp4
 70
     1
102
RTVSPropertyOp5
 70
     1
102
RTVSPropertyOp6
 70
     1
102
RTVSPropertyOp7
 70
     1
102
RTVSPropertyOp8
 70
     1
102
RTVSPropertyOp9
 70
     1
102
RTVSPropertyOp10
 70
     1
102
RTVSPropertyOp11
 70
     1
102
RTVSPropertyOp12
 70
     1
102
RTVSPropertyOp13
 70
     1
102
RTVSPropertyOp14
 70
     1
102
RTVSPropertyOp15
 70
     1
102
RTVSPropertyOp16
 70
     1
102
RTVSPropertyOp17
 70
     1
102
RTVSPropertyOp18
 70
     1
102
RTVSPropertyOp19
 70
     1
102
RTVSPropertyOp20
 70
     1
102
RTVSPropertyOp21
 70
     1
102
RTVSPropertyOp22
 70
     1
102
RTVSPropertyOp23
 70
     1
102
RTVSPropertyOp24
 70
     1
102
RTVSPropertyOp25
 70
     1
102
RTVSPropertyOp26
 70
     1
102
RTVSPropertyOp27
 70
     1
102
RTVSPropertyOp28
 70
     1
102
RTVSPropertyOp29
 70
     1
102
RTVSPropertyOp30
 70
     1
102
RTVSPropertyOp31
 70
     1
102
RTVSPropertyOp32
 70
     1
  0
XRECORD
  5
147A
102
{ACAD_REACTORS
330
1479
102
}
330
1479
100
AcDbXrecord
280
     1
102
RTVSPropertyOp0
 70
     0
102
RTVSPropertyOp1
 70
     0
102
RTVSPropertyOp2
 70
     0
102
RTVSPropertyOp3
 70
     0
102
RTVSPropertyOp4
 70
     0
102
RTVSPropertyOp5
 70
     0
102
RTVSPropertyOp6
 70
     0
102
RTVSPropertyOp7
 70
     0
102
RTVSPropertyOp8
 70
     0
102
RTVSPropertyOp9
 70
     0
102
RTVSPropertyOp10
 70
     0
102
RTVSPropertyOp11
 70
     0
102
RTVSPropertyOp12
 70
     0
102
RTVSPropertyOp13
 70
     0
102
RTVSPropertyOp14
 70
     2
102
RTVSPropertyOp15
 70
     0
102
RTVSPropertyOp16
 70
     0
102
RTVSPropertyOp17
 70
     0
102
RTVSPropertyOp18
 70
     0
102
RTVSPropertyOp19
 70
     0
102
RTVSPropertyOp20
 70
     0
102
RTVSPropertyOp21
 70
     0
102
RTVSPropertyOp22
 70
     0
102
RTVSPropertyOp23
 70
     0
102
RTVSPropertyOp24
 70
     0
102
RTVSPropertyOp25
 70
     0
102
RTVSPropertyOp26
 70
     0
102
RTVSPropertyOp27
 70
     0
102
RTVSPropertyOp28
 70
     0
102
RTVSPropertyOp29
 70
     0
102
RTVSPropertyOp30
 70
     0
102
RTVSPropertyOp31
 70
     0
102
RTVSPropertyOp32
 70
     0
  0
XRECORD
  5
1461
102
{ACAD_REACTORS
330
1460
102
}
330
1460
100
AcDbXrecord
280
     1
102
RTVSPropertyOp0
 70
     1
102
RTVSPropertyOp1
 70
     1
102
RTVSPropertyOp2
 70
     1
102
RTVSPropertyOp3
 70
     1
102
RTVSPropertyOp4
 70
     1
102
RTVSPropertyOp5
 70
     1
102
RTVSPropertyOp6
 70
     1
102
RTVSPropertyOp7
 70
     1
102
RTVSPropertyOp8
 70
     1
102
RTVSPropertyOp9
 70
     1
102
RTVSPropertyOp10
 70
     1
102
RTVSPropertyOp11
 70
     1
102
RTVSPropertyOp12
 70
     1
102
RTVSPropertyOp13
 70
     1
102
RTVSPropertyOp14
 70
     1
102
RTVSPropertyOp15
 70
     1
102
RTVSPropertyOp16
 70
     1
102
RTVSPropertyOp17
 70
     1
102
RTVSPropertyOp18
 70
     1
102
RTVSPropertyOp19
 70
     1
102
RTVSPropertyOp20
 70
     1
102
RTVSPropertyOp21
 70
     1
102
RTVSPropertyOp22
 70
     1
102
RTVSPropertyOp23
 70
     1
102
RTVSPropertyOp24
 70
     1
102
RTVSPropertyOp25
 70
     1
102
RTVSPropertyOp26
 70
     1
102
RTVSPropertyOp27
 70
     1
102
RTVSPropertyOp28
 70
     1
102
RTVSPropertyOp29
 70
     1
102
RTVSPropertyOp30
 70
     1
102
RTVSPropertyOp31
 70
     1
102
RTVSPropertyOp32
 70
     1
  0
XRECORD
  5
147C
102
{ACAD_REACTORS
330
147B
102
}
330
147B
100
AcDbXrecord
280
     1
102
RTVSPropertyOp0
 70
     0
102
RTVSPropertyOp1
 70
     0
102
RTVSPropertyOp2
 70
     0
102
RTVSPropertyOp3
 70
     0
102
RTVSPropertyOp4
 70
     0
102
RTVSPropertyOp5
 70
     0
102
RTVSPropertyOp6
 70
     0
102
RTVSPropertyOp7
 70
     0
102
RTVSPropertyOp8
 70
     0
102
RTVSPropertyOp9
 70
     0
102
RTVSPropertyOp10
 70
     0
102
RTVSPropertyOp11
 70
     0
102
RTVSPropertyOp12
 70
     0
102
RTVSPropertyOp13
 70
     0
102
RTVSPropertyOp14
 70
     2
102
RTVSPropertyOp15
 70
     0
102
RTVSPropertyOp16
 70
     0
102
RTVSPropertyOp17
 70
     0
102
RTVSPropertyOp18
 70
     0
102
RTVSPropertyOp19
 70
     0
102
RTVSPropertyOp20
 70
     0
102
RTVSPropertyOp21
 70
     0
102
RTVSPropertyOp22
 70
     0
102
RTVSPropertyOp23
 70
     0
102
RTVSPropertyOp24
 70
     0
102
RTVSPropertyOp25
 70
     0
102
RTVSPropertyOp26
 70
     0
102
RTVSPropertyOp27
 70
     0
102
RTVSPropertyOp28
 70
     0
102
RTVSPropertyOp29
 70
     0
102
RTVSPropertyOp30
 70
     0
102
RTVSPropertyOp31
 70
     0
102
RTVSPropertyOp32
 70
     0
  0
XRECORD
  5
1459
102
{ACAD_REACTORS
330
1458
102
}
330
1458
100
AcDbXrecord
280
     1
102
RTVSPropertyOp0
 70
     1
102
RTVSPropertyOp1
 70
     1
102
RTVSPropertyOp2
 70
     1
102
RTVSPropertyOp3
 70
     1
102
RTVSPropertyOp4
 70
     1
102
RTVSPropertyOp5
 70
     1
102
RTVSPropertyOp6
 70
     1
102
RTVSPropertyOp7
 70
     1
102
RTVSPropertyOp8
 70
     1
102
RTVSPropertyOp9
 70
     1
102
RTVSPropertyOp10
 70
     1
102
RTVSPropertyOp11
 70
     1
102
RTVSPropertyOp12
 70
     1
102
RTVSPropertyOp13
 70
     1
102
RTVSPropertyOp14
 70
     1
102
RTVSPropertyOp15
 70
     1
102
RTVSPropertyOp16
 70
     1
102
RTVSPropertyOp17
 70
     1
102
RTVSPropertyOp18
 70
     1
102
RTVSPropertyOp19
 70
     1
102
RTVSPropertyOp20
 70
     1
102
RTVSPropertyOp21
 70
     1
102
RTVSPropertyOp22
 70
     1
102
RTVSPropertyOp23
 70
     1
102
RTVSPropertyOp24
 70
     1
102
RTVSPropertyOp25
 70
     1
102
RTVSPropertyOp26
 70
     1
102
RTVSPropertyOp27
 70
     1
102
RTVSPropertyOp28
 70
     1
102
RTVSPropertyOp29
 70
     1
102
RTVSPropertyOp30
 70
     1
102
RTVSPropertyOp31
 70
     1
102
RTVSPropertyOp32
 70
     1
  0
XRECORD
  5
1478
102
{ACAD_REACTORS
330
1477
102
}
330
1477
100
AcDbXrecord
280
     1
102
RTVSPropertyOp0
 70
     1
102
RTVSPropertyOp1
 70
     1
102
RTVSPropertyOp2
 70
     1
102
RTVSPropertyOp3
 70
     1
102
RTVSPropertyOp4
 70
     1
102
RTVSPropertyOp5
 70
     1
102
RTVSPropertyOp6
 70
     1
102
RTVSPropertyOp7
 70
     1
102
RTVSPropertyOp8
 70
     1
102
RTVSPropertyOp9
 70
     1
102
RTVSPropertyOp10
 70
     1
102
RTVSPropertyOp11
 70
     1
102
RTVSPropertyOp12
 70
     1
102
RTVSPropertyOp13
 70
     1
102
RTVSPropertyOp14
 70
     1
102
RTVSPropertyOp15
 70
     1
102
RTVSPropertyOp16
 70
     1
102
RTVSPropertyOp17
 70
     1
102
RTVSPropertyOp18
 70
     1
102
RTVSPropertyOp19
 70
     1
102
RTVSPropertyOp20
 70
     1
102
RTVSPropertyOp21
 70
     1
102
RTVSPropertyOp22
 70
     1
102
RTVSPropertyOp23
 70
     1
102
RTVSPropertyOp24
 70
     1
102
RTVSPropertyOp25
 70
     1
102
RTVSPropertyOp26
 70
     1
102
RTVSPropertyOp27
 70
     1
102
RTVSPropertyOp28
 70
     1
102
RTVSPropertyOp29
 70
     1
102
RTVSPropertyOp30
 70
     1
102
RTVSPropertyOp31
 70
     1
102
RTVSPropertyOp32
 70
     1
  0
XRECORD
  5
1476
102
{ACAD_REACTORS
330
1475
102
}
330
1475
100
AcDbXrecord
280
     1
102
RTVSPropertyOp0
 70
     1
102
RTVSPropertyOp1
 70
     1
102
RTVSPropertyOp2
 70
     1
102
RTVSPropertyOp3
 70
     1
102
RTVSPropertyOp4
 70
     1
102
RTVSPropertyOp5
 70
     1
102
RTVSPropertyOp6
 70
     1
102
RTVSPropertyOp7
 70
     1
102
RTVSPropertyOp8
 70
     1
102
RTVSPropertyOp9
 70
     1
102
RTVSPropertyOp10
 70
     1
102
RTVSPropertyOp11
 70
     1
102
RTVSPropertyOp12
 70
     1
102
RTVSPropertyOp13
 70
     1
102
RTVSPropertyOp14
 70
     1
102
RTVSPropertyOp15
 70
     1
102
RTVSPropertyOp16
 70
     1
102
RTVSPropertyOp17
 70
     1
102
RTVSPropertyOp18
 70
     1
102
RTVSPropertyOp19
 70
     1
102
RTVSPropertyOp20
 70
     1
102
RTVSPropertyOp21
 70
     1
102
RTVSPropertyOp22
 70
     1
102
RTVSPropertyOp23
 70
     1
102
RTVSPropertyOp24
 70
     1
102
RTVSPropertyOp25
 70
     1
102
RTVSPropertyOp26
 70
     1
102
RTVSPropertyOp27
 70
     1
102
RTVSPropertyOp28
 70
     1
102
RTVSPropertyOp29
 70
     1
102
RTVSPropertyOp30
 70
     1
102
RTVSPropertyOp31
 70
     1
102
RTVSPropertyOp32
 70
     1
  0
XRECORD
  5
1470
102
{ACAD_REACTORS
330
146F
102
}
330
146F
100
AcDbXrecord
280
     1
102
RTVSPropertyOp0
 70
     1
102
RTVSPropertyOp1
 70
     1
102
RTVSPropertyOp2
 70
     1
102
RTVSPropertyOp3
 70
     1
102
RTVSPropertyOp4
 70
     1
102
RTVSPropertyOp5
 70
     1
102
RTVSPropertyOp6
 70
     1
102
RTVSPropertyOp7
 70
     1
102
RTVSPropertyOp8
 70
     1
102
RTVSPropertyOp9
 70
     1
102
RTVSPropertyOp10
 70
     1
102
RTVSPropertyOp11
 70
     1
102
RTVSPropertyOp12
 70
     1
102
RTVSPropertyOp13
 70
     1
102
RTVSPropertyOp14
 70
     1
102
RTVSPropertyOp15
 70
     1
102
RTVSPropertyOp16
 70
     1
102
RTVSPropertyOp17
 70
     1
102
RTVSPropertyOp18
 70
     1
102
RTVSPropertyOp19
 70
     1
102
RTVSPropertyOp20
 70
     1
102
RTVSPropertyOp21
 70
     1
102
RTVSPropertyOp22
 70
     1
102
RTVSPropertyOp23
 70
     1
102
RTVSPropertyOp24
 70
     1
102
RTVSPropertyOp25
 70
     1
102
RTVSPropertyOp26
 70
     1
102
RTVSPropertyOp27
 70
     1
102
RTVSPropertyOp28
 70
     1
102
RTVSPropertyOp29
 70
     1
102
RTVSPropertyOp30
 70
     1
102
RTVSPropertyOp31
 70
     1
102
RTVSPropertyOp32
 70
     1
  0
XRECORD
  5
1472
102
{ACAD_REACTORS
330
1471
102
}
330
1471
100
AcDbXrecord
280
     1
102
RTVSPropertyOp0
 70
     1
102
RTVSPropertyOp1
 70
     1
102
RTVSPropertyOp2
 70
     1
102
RTVSPropertyOp3
 70
     1
102
RTVSPropertyOp4
 70
     1
102
RTVSPropertyOp5
 70
     1
102
RTVSPropertyOp6
 70
     1
102
RTVSPropertyOp7
 70
     1
102
RTVSPropertyOp8
 70
     1
102
RTVSPropertyOp9
 70
     1
102
RTVSPropertyOp10
 70
     1
102
RTVSPropertyOp11
 70
     1
102
RTVSPropertyOp12
 70
     1
102
RTVSPropertyOp13
 70
     1
102
RTVSPropertyOp14
 70
     1
102
RTVSPropertyOp15
 70
     1
102
RTVSPropertyOp16
 70
     1
102
RTVSPropertyOp17
 70
     1
102
RTVSPropertyOp18
 70
     1
102
RTVSPropertyOp19
 70
     1
102
RTVSPropertyOp20
 70
     1
102
RTVSPropertyOp21
 70
     1
102
RTVSPropertyOp22
 70
     1
102
RTVSPropertyOp23
 70
     1
102
RTVSPropertyOp24
 70
     1
102
RTVSPropertyOp25
 70
     1
102
RTVSPropertyOp26
 70
     1
102
RTVSPropertyOp27
 70
     1
102
RTVSPropertyOp28
 70
     1
102
RTVSPropertyOp29
 70
     1
102
RTVSPropertyOp30
 70
     1
102
RTVSPropertyOp31
 70
     1
102
RTVSPropertyOp32
 70
     1
  0
XRECORD
  5
145F
102
{ACAD_REACTORS
330
145E
102
}
330
145E
100
AcDbXrecord
280
     1
102
RTVSPropertyOp0
 70
     1
102
RTVSPropertyOp1
 70
     1
102
RTVSPropertyOp2
 70
     1
102
RTVSPropertyOp3
 70
     1
102
RTVSPropertyOp4
 70
     1
102
RTVSPropertyOp5
 70
     1
102
RTVSPropertyOp6
 70
     1
102
RTVSPropertyOp7
 70
     1
102
RTVSPropertyOp8
 70
     1
102
RTVSPropertyOp9
 70
     1
102
RTVSPropertyOp10
 70
     1
102
RTVSPropertyOp11
 70
     1
102
RTVSPropertyOp12
 70
     1
102
RTVSPropertyOp13
 70
     1
102
RTVSPropertyOp14
 70
     1
102
RTVSPropertyOp15
 70
     1
102
RTVSPropertyOp16
 70
     1
102
RTVSPropertyOp17
 70
     1
102
RTVSPropertyOp18
 70
     1
102
RTVSPropertyOp19
 70
     1
102
RTVSPropertyOp20
 70
     1
102
RTVSPropertyOp21
 70
     1
102
RTVSPropertyOp22
 70
     1
102
RTVSPropertyOp23
 70
     1
102
RTVSPropertyOp24
 70
     1
102
RTVSPropertyOp25
 70
     1
102
RTVSPropertyOp26
 70
     1
102
RTVSPropertyOp27
 70
     1
102
RTVSPropertyOp28
 70
     1
102
RTVSPropertyOp29
 70
     1
102
RTVSPropertyOp30
 70
     1
102
RTVSPropertyOp31
 70
     1
102
RTVSPropertyOp32
 70
     1
  0
XRECORD
  5
146C
102
{ACAD_REACTORS
330
146B
102
}
330
146B
100
AcDbXrecord
280
     1
102
RTVSPropertyOp0
 70
     1
102
RTVSPropertyOp1
 70
     1
102
RTVSPropertyOp2
 70
     1
102
RTVSPropertyOp3
 70
     1
102
RTVSPropertyOp4
 70
     1
102
RTVSPropertyOp5
 70
     1
102
RTVSPropertyOp6
 70
     1
102
RTVSPropertyOp7
 70
     1
102
RTVSPropertyOp8
 70
     1
102
RTVSPropertyOp9
 70
     1
102
RTVSPropertyOp10
 70
     1
102
RTVSPropertyOp11
 70
     1
102
RTVSPropertyOp12
 70
     1
102
RTVSPropertyOp13
 70
     1
102
RTVSPropertyOp14
 70
     1
102
RTVSPropertyOp15
 70
     1
102
RTVSPropertyOp16
 70
     1
102
RTVSPropertyOp17
 70
     1
102
RTVSPropertyOp18
 70
     1
102
RTVSPropertyOp19
 70
     1
102
RTVSPropertyOp20
 70
     1
102
RTVSPropertyOp21
 70
     1
102
RTVSPropertyOp22
 70
     1
102
RTVSPropertyOp23
 70
     1
102
RTVSPropertyOp24
 70
     1
102
RTVSPropertyOp25
 70
     1
102
RTVSPropertyOp26
 70
     1
102
RTVSPropertyOp27
 70
     1
102
RTVSPropertyOp28
 70
     1
102
RTVSPropertyOp29
 70
     1
102
RTVSPropertyOp30
 70
     1
102
RTVSPropertyOp31
 70
     1
102
RTVSPropertyOp32
 70
     1
  0
XRECORD
  5
1474
102
{ACAD_REACTORS
330
1473
102
}
330
1473
100
AcDbXrecord
280
     1
102
RTVSPropertyOp0
 70
     1
102
RTVSPropertyOp1
 70
     1
102
RTVSPropertyOp2
 70
     1
102
RTVSPropertyOp3
 70
     1
102
RTVSPropertyOp4
 70
     1
102
RTVSPropertyOp5
 70
     1
102
RTVSPropertyOp6
 70
     1
102
RTVSPropertyOp7
 70
     1
102
RTVSPropertyOp8
 70
     1
102
RTVSPropertyOp9
 70
     1
102
RTVSPropertyOp10
 70
     1
102
RTVSPropertyOp11
 70
     1
102
RTVSPropertyOp12
 70
     1
102
RTVSPropertyOp13
 70
     1
102
RTVSPropertyOp14
 70
     1
102
RTVSPropertyOp15
 70
     1
102
RTVSPropertyOp16
 70
     1
102
RTVSPropertyOp17
 70
     1
102
RTVSPropertyOp18
 70
     1
102
RTVSPropertyOp19
 70
     1
102
RTVSPropertyOp20
 70
     1
102
RTVSPropertyOp21
 70
     1
102
RTVSPropertyOp22
 70
     1
102
RTVSPropertyOp23
 70
     1
102
RTVSPropertyOp24
 70
     1
102
RTVSPropertyOp25
 70
     1
102
RTVSPropertyOp26
 70
     1
102
RTVSPropertyOp27
 70
     1
102
RTVSPropertyOp28
 70
     1
102
RTVSPropertyOp29
 70
     1
102
RTVSPropertyOp30
 70
     1
102
RTVSPropertyOp31
 70
     1
102
RTVSPropertyOp32
 70
     1
  0
ENDSEC
  0
EOF
