  0
SECTION
  2
HEADER
  9
$ACADVER
  1
AC1015
  9
$ACADMAINTVER
 70
    20
  9
$DWGCODEPAGE
  3
ANSI_932
  9
$INSBASE
 10
0.0
 20
0.0
 30
0.0
  9
$EXTMIN
 10
-205.0133587372215
 20
-138.5094540461606
 30
-0.0015258207003583
  9
$EXTMAX
 10
200.0133606231588
 20
138.5085028802319
 30
0.0000000349246037
  9
$LIMMIN
 10
-205.001
 20
-138.501
  9
$LIMMAX
 10
200.001
 20
138.542321
  9
$ORTHOMODE
 70
     1
  9
$REGENMODE
 70
     1
  9
$FILLMODE
 70
     1
  9
$QTEXTMODE
 70
     0
  9
$MIRRTEXT
 70
     0
  9
$LTSCALE
 40
6.75
  9
$ATTMODE
 70
     1
  9
$TEXTSIZE
 40
3.5
  9
$TRACEWID
 40
0.05
  9
$TEXTSTYLE
  7
STANDARD
  9
$CLAYER
  8
0
  9
$CELTYPE
  6
CONTINUOUS
  9
$CECOLOR
 62
   256
  9
$CELTSCALE
 40
1.0
  9
$DISPSILH
 70
     0
  9
$DIMSCALE
 40
1.0
  9
$DIMASZ
 40
2.5
  9
$DIMEXO
 40
0.25
  9
$DIMDLI
 40
0.2
  9
$DIMRND
 40
0.0
  9
$DIMDLE
 40
0.0
  9
$DIMEXE
 40
1.25
  9
$DIMTP
 40
0.0
  9
$DIMTM
 40
0.0
  9
$DIMTXT
 40
3.0
  9
$DIMCEN
 40
0.0
  9
$DIMTSZ
 40
0.0
  9
$DIMTOL
 70
     0
  9
$DIMLIM
 70
     0
  9
$DIMTIH
 70
     0
  9
$DIMTOH
 70
     0
  9
$DIMSE1
 70
     0
  9
$DIMSE2
 70
     0
  9
$DIMTAD
 70
     3
  9
$DIMZIN
 70
     8
  9
$DIMBLK
  1
Open30
  9
$DIMASO
 70
     1
  9
$DIMSHO
 70
     1
  9
$DIMPOST
  1

  9
$DIMAPOST
  1

  9
$DIMALT
 70
     0
  9
$DIMALTD
 70
     3
  9
$DIMALTF
 40
0.03937007874016
  9
$DIMLFAC
 40
1.0
  9
$DIMTOFL
 70
     1
  9
$DIMTVP
 40
0.0
  9
$DIMTIX
 70
     0
  9
$DIMSOXD
 70
     0
  9
$DIMSAH
 70
     0
  9
$DIMBLK1
  1

  9
$DIMBLK2
  1

  9
$DIMSTYLE
  2
1：1
  9
$DIMCLRD
 70
     0
  9
$DIMCLRE
 70
     0
  9
$DIMCLRT
 70
     4
  9
$DIMTFAC
 40
1.0
  9
$DIMGAP
 40
0.625
  9
$DIMJUST
 70
     0
  9
$DIMSD1
 70
     0
  9
$DIMSD2
 70
     0
  9
$DIMTOLJ
 70
     0
  9
$DIMTZIN
 70
     8
  9
$DIMALTZ
 70
     0
  9
$DIMALTTZ
 70
     0
  9
$DIMUPT
 70
     1
  9
$DIMDEC
 70
     2
  9
$DIMTDEC
 70
     2
  9
$DIMALTU
 70
     2
  9
$DIMALTTD
 70
     3
  9
$DIMTXSTY
  7
STANDARD
  9
$DIMAUNIT
 70
     0
  9
$DIMADEC
 70
     1
  9
$DIMALTRND
 40
0.0
  9
$DIMAZIN
 70
     2
  9
$DIMDSEP
 70
    46
  9
$DIMATFIT
 70
     0
  9
$DIMFRAC
 70
     0
  9
$DIMLDRBLK
  1
Open30
  9
$DIMLUNIT
 70
     2
  9
$DIMLWD
 70
    -2
  9
$DIMLWE
 70
    -2
  9
$DIMTMOVE
 70
     0
  9
$LUNITS
 70
     2
  9
$LUPREC
 70
     4
  9
$SKETCHINC
 40
0.1
  9
$FILLETRAD
 40
0.0
  9
$AUNITS
 70
     0
  9
$AUPREC
 70
     0
  9
$MENU
  1
.
  9
$ELEVATION
 40
0.0
  9
$PELEVATION
 40
0.0
  9
$THICKNESS
 40
0.0
  9
$LIMCHECK
 70
     0
  9
$CHAMFERA
 40
0.0
  9
$CHAMFERB
 40
0.0
  9
$CHAMFERC
 40
0.0
  9
$CHAMFERD
 40
0.0
  9
$SKPOLY
 70
     0
  9
$TDCREATE
 40
2455623.851003091
  9
$TDUCREATE
 40
2455623.476003090
  9
$TDUPDATE
 40
2455986.893129051
  9
$TDUUPDATE
 40
2455986.518129051
  9
$TDINDWG
 40
0.0335899769
  9
$TDUSRTIMER
 40
0.0335847338
  9
$USRTIMER
 70
     1
  9
$ANGBASE
 50
0.0
  9
$ANGDIR
 70
     0
  9
$PDMODE
 70
     0
  9
$PDSIZE
 40
0.0
  9
$PLINEWID
 40
0.0
  9
$SPLFRAME
 70
     0
  9
$SPLINETYPE
 70
     6
  9
$SPLINESEGS
 70
     8
  9
$HANDSEED
  5
969
  9
$SURFTAB1
 70
     6
  9
$SURFTAB2
 70
     6
  9
$SURFTYPE
 70
     6
  9
$SURFU
 70
     6
  9
$SURFV
 70
     6
  9
$UCSBASE
  2

  9
$UCSNAME
  2

  9
$UCSORG
 10
0.0
 20
0.0
 30
0.0
  9
$UCSXDIR
 10
1.0
 20
0.0
 30
0.0
  9
$UCSYDIR
 10
0.0
 20
1.0
 30
0.0
  9
$UCSORTHOREF
  2

  9
$UCSORTHOVIEW
 70
     0
  9
$UCSORGTOP
 10
0.0
 20
0.0
 30
0.0
  9
$UCSORGBOTTOM
 10
0.0
 20
0.0
 30
0.0
  9
$UCSORGLEFT
 10
0.0
 20
0.0
 30
0.0
  9
$UCSORGRIGHT
 10
0.0
 20
0.0
 30
0.0
  9
$UCSORGFRONT
 10
0.0
 20
0.0
 30
0.0
  9
$UCSORGBACK
 10
0.0
 20
0.0
 30
0.0
  9
$PUCSBASE
  2

  9
$PUCSNAME
  2

  9
$PUCSORG
 10
0.0
 20
0.0
 30
0.0
  9
$PUCSXDIR
 10
1.0
 20
0.0
 30
0.0
  9
$PUCSYDIR
 10
0.0
 20
1.0
 30
0.0
  9
$PUCSORTHOREF
  2

  9
$PUCSORTHOVIEW
 70
     0
  9
$PUCSORGTOP
 10
0.0
 20
0.0
 30
0.0
  9
$PUCSORGBOTTOM
 10
0.0
 20
0.0
 30
0.0
  9
$PUCSORGLEFT
 10
0.0
 20
0.0
 30
0.0
  9
$PUCSORGRIGHT
 10
0.0
 20
0.0
 30
0.0
  9
$PUCSORGFRONT
 10
0.0
 20
0.0
 30
0.0
  9
$PUCSORGBACK
 10
0.0
 20
0.0
 30
0.0
  9
$USERI1
 70
     0
  9
$USERI2
 70
     0
  9
$USERI3
 70
     0
  9
$USERI4
 70
     0
  9
$USERI5
 70
     0
  9
$USERR1
 40
0.0
  9
$USERR2
 40
0.0
  9
$USERR3
 40
0.0
  9
$USERR4
 40
0.0
  9
$USERR5
 40
0.0
  9
$WORLDVIEW
 70
     1
  9
$SHADEDGE
 70
     3
  9
$SHADEDIF
 70
    70
  9
$TILEMODE
 70
     1
  9
$MAXACTVP
 70
    64
  9
$PINSBASE
 10
0.0
 20
0.0
 30
0.0
  9
$PLIMCHECK
 70
     0
  9
$PEXTMIN
 10
1.000000000000000E+20
 20
1.000000000000000E+20
 30
1.000000000000000E+20
  9
$PEXTMAX
 10
-1.000000000000000E+20
 20
-1.000000000000000E+20
 30
-1.000000000000000E+20
  9
$PLIMMIN
 10
0.0
 20
0.0
  9
$PLIMMAX
 10
12.0
 20
9.0
  9
$UNITMODE
 70
     0
  9
$VISRETAIN
 70
     1
  9
$PLINEGEN
 70
     0
  9
$PSLTSCALE
 70
     1
  9
$TREEDEPTH
 70
  3020
  9
$CMLSTYLE
  2
Standard
  9
$CMLJUST
 70
     0
  9
$CMLSCALE
 40
1.0
  9
$PROXYGRAPHICS
 70
     1
  9
$MEASUREMENT
 70
     0
  9
$CELWEIGHT
370
    -1
  9
$ENDCAPS
280
     0
  9
$JOINSTYLE
280
     0
  9
$LWDISPLAY
290
     0
  9
$INSUNITS
 70
     0
  9
$HYPERLINKBASE
  1

  9
$STYLESHEET
  1
n-plot.ctb
  9
$XEDIT
290
     1
  9
$CEPSNTYPE
380
     0
  9
$PSTYLEMODE
290
     1
  9
$FINGERPRINTGUID
  2
{C20CD32F-C490-47CA-9081-BCCDC28B3DE9}
  9
$VERSIONGUID
  2
{79F91EC7-78C6-4B2A-8444-8F78B45C9D9B}
  9
$EXTNAMES
290
     1
  9
$PSVPSCALE
 40
0.0
  9
$OLESTARTUP
290
     0
  0
ENDSEC
  0
SECTION
  2
CLASSES
  0
CLASS
  1
ACDBDICTIONARYWDFLT
  2
AcDbDictionaryWithDefault
  3
ObjectDBX Classes
 90
        0
280
     0
281
     0
  0
CLASS
  1
MATERIAL
  2
AcDbMaterial
  3
ObjectDBX Classes
 90
     1153
280
     0
281
     0
  0
CLASS
  1
VISUALSTYLE
  2
AcDbVisualStyle
  3
ObjectDBX Classes
 90
     4095
280
     0
281
     0
  0
CLASS
  1
SCALE
  2
AcDbScale
  3
ObjectDBX Classes
 90
     1153
280
     0
281
     0
  0
CLASS
  1
TABLESTYLE
  2
AcDbTableStyle
  3
ObjectDBX Classes
 90
     4095
280
     0
281
     0
  0
CLASS
  1
MLEADERSTYLE
  2
AcDbMLeaderStyle
  3
ACDB_MLEADERSTYLE_CLASS
 90
     4095
280
     0
281
     0
  0
CLASS
  1
DICTIONARYVAR
  2
AcDbDictionaryVar
  3
ObjectDBX Classes
 90
        0
280
     0
281
     0
  0
CLASS
  1
CELLSTYLEMAP
  2
AcDbCellStyleMap
  3
ObjectDBX Classes
 90
     1152
280
     0
281
     0
  0
CLASS
  1
ACDBPLACEHOLDER
  2
AcDbPlaceHolder
  3
ObjectDBX Classes
 90
        0
280
     0
281
     0
  0
CLASS
  1
LAYOUT
  2
AcDbLayout
  3
ObjectDBX Classes
 90
        0
280
     0
281
     0
  0
CLASS
  1
SORTENTSTABLE
  2
AcDbSortentsTable
  3
ObjectDBX Classes
 90
        0
280
     0
281
     0
  0
ENDSEC
  0
SECTION
  2
TABLES
  0
TABLE
  2
VPORT
  5
8
330
0
100
AcDbSymbolTable
 70
     1
  0
VPORT
  5
8C
330
8
100
AcDbSymbolTableRecord
100
AcDbViewportTableRecord
  2
*Active
 70
     0
 10
0.0
 20
0.0
 11
1.0
 21
1.0
 12
-5.971695286796375
 22
8.360811750103238
 13
0.0
 23
0.0
 14
1.0
 24
1.0
 15
0.0
 25
0.0
 16
0.0
 26
0.0
 36
1.0
 17
0.0
 27
0.0
 37
0.0
 40
363.9873900590482
 41
2.08214849921011
 42
50.0
 43
0.0
 44
0.0
 50
0.0
 51
0.0
 71
     0
 72
   100
 73
     1
 74
     1
 75
     0
 76
     0
 77
     0
 78
     0
281
     0
 65
     1
110
0.0
120
0.0
130
0.0
111
1.0
121
0.0
131
0.0
112
0.0
122
1.0
132
0.0
 79
     0
146
0.0
  0
ENDTAB
  0
TABLE
  2
LTYPE
  5
5
330
0
100
AcDbSymbolTable
 70
    27
  0
LTYPE
  5
5A
330
5
100
AcDbSymbolTableRecord
100
AcDbLinetypeTableRecord
  2
ByBlock
 70
     0
  3

 72
    65
 73
     0
 40
0.0
  0
LTYPE
  5
5B
330
5
100
AcDbSymbolTableRecord
100
AcDbLinetypeTableRecord
  2
ByLayer
 70
     0
  3

 72
    65
 73
     0
 40
0.0
  0
LTYPE
  5
5C
330
5
100
AcDbSymbolTableRecord
100
AcDbLinetypeTableRecord
  2
CONTINUOUS
 70
     0
  3
Solid-line
 72
    65
 73
     0
 40
0.0
  0
LTYPE
  5
72
330
5
100
AcDbSymbolTableRecord
100
AcDbLinetypeTableRecord
  2
CENTER
 70
     0
  3
CENTER
 72
    65
 73
     4
 40
2.0
 49
1.25
 74
     0
 49
-0.25
 74
     0
 49
0.25
 74
     0
 49
-0.25
 74
     0
  0
LTYPE
  5
73
330
5
100
AcDbSymbolTableRecord
100
AcDbLinetypeTableRecord
  2
CENTER2
 70
     0
  3
CENTER2
 72
    65
 73
     4
 40
1.125
 49
0.75
 74
     0
 49
-0.125
 74
     0
 49
0.125
 74
     0
 49
-0.125
 74
     0
  0
LTYPE
  5
74
330
5
100
AcDbSymbolTableRecord
100
AcDbLinetypeTableRecord
  2
CENTERX2
 70
     0
  3
CENTERX2
 72
    65
 73
     4
 40
4.0
 49
2.5
 74
     0
 49
-0.5
 74
     0
 49
0.5
 74
     0
 49
-0.5
 74
     0
  0
LTYPE
  5
78
330
5
100
AcDbSymbolTableRecord
100
AcDbLinetypeTableRecord
  2
DASHED
 70
     0
  3
DASHED
 72
    65
 73
     2
 40
0.75
 49
0.5
 74
     0
 49
-0.25
 74
     0
  0
LTYPE
  5
81
330
5
100
AcDbSymbolTableRecord
100
AcDbLinetypeTableRecord
  2
HIDDEN
 70
     0
  3
HIDDEN
 72
    65
 73
     2
 40
0.375
 49
0.25
 74
     0
 49
-0.125
 74
     0
  0
LTYPE
  5
82
330
5
100
AcDbSymbolTableRecord
100
AcDbLinetypeTableRecord
  2
HIDDEN2
 70
     0
  3
HIDDEN2
 72
    65
 73
     2
 40
0.1875
 49
0.125
 74
     0
 49
-0.0625
 74
     0
  0
LTYPE
  5
83
330
5
100
AcDbSymbolTableRecord
100
AcDbLinetypeTableRecord
  2
HIDDENX2
 70
     0
  3
HIDDENX2
 72
    65
 73
     2
 40
0.75
 49
0.5
 74
     0
 49
-0.25
 74
     0
  0
LTYPE
  5
84
330
5
100
AcDbSymbolTableRecord
100
AcDbLinetypeTableRecord
  2
PHANTOM
 70
     0
  3
PHANTOM
 72
    65
 73
     6
 40
2.5
 49
1.25
 74
     0
 49
-0.25
 74
     0
 49
0.25
 74
     0
 49
-0.25
 74
     0
 49
0.25
 74
     0
 49
-0.25
 74
     0
  0
LTYPE
  5
85
330
5
100
AcDbSymbolTableRecord
100
AcDbLinetypeTableRecord
  2
PHANTOM2
 70
     0
  3
PHANTOM2
 72
    65
 73
     6
 40
1.25
 49
0.625
 74
     0
 49
-0.125
 74
     0
 49
0.125
 74
     0
 49
-0.125
 74
     0
 49
0.125
 74
     0
 49
-0.125
 74
     0
  0
LTYPE
  5
86
330
5
100
AcDbSymbolTableRecord
100
AcDbLinetypeTableRecord
  2
PHANTOMX2
 70
     0
  3
PHANTOMX2
 72
    65
 73
     6
 40
5.0
 49
2.5
 74
     0
 49
-0.5
 74
     0
 49
0.5
 74
     0
 49
-0.5
 74
     0
 49
0.5
 74
     0
 49
-0.5
 74
     0
  0
ENDTAB
  0
TABLE
  2
LAYER
  5
2
102
{ACAD_XDICTIONARY
360
540
102
}
330
0
100
AcDbSymbolTable
 70
     4
  0
LAYER
  5
54
102
{ACAD_XDICTIONARY
360
6A5
102
}
330
2
100
AcDbSymbolTableRecord
100
AcDbLayerTableRecord
  2
0
 70
     0
 62
     7
  6
CONTINUOUS
370
    -3
390
F
  0
LAYER
  5
87
102
{ACAD_XDICTIONARY
360
6A7
102
}
330
2
100
AcDbSymbolTableRecord
100
AcDbLayerTableRecord
  2
001
 70
     0
 62
     7
  6
CONTINUOUS
370
    -3
390
F
  0
LAYER
  5
88
102
{ACAD_XDICTIONARY
360
6A9
102
}
330
2
100
AcDbSymbolTableRecord
100
AcDbLayerTableRecord
  2
002
 70
     0
 62
     7
  6
CONTINUOUS
370
    -3
390
F
  0
LAYER
  5
52B
330
2
100
AcDbSymbolTableRecord
100
AcDbLayerTableRecord
  2
Defpoints
 70
     0
 62
     7
  6
CONTINUOUS
290
     0
370
    -3
390
F
  0
ENDTAB
  0
TABLE
  2
STYLE
  5
3
330
0
100
AcDbSymbolTable
 70
     9
  0
STYLE
  5
55
330
3
100
AcDbSymbolTableRecord
100
AcDbTextStyleTableRecord
  2
STANDARD
 70
     0
 40
3.5
 41
1.0
 50
0.0
 71
     0
 42
3.5
  3
TXT.shx
  4
BIGFONT.shx
  0
STYLE
  5
52C
330
3
100
AcDbSymbolTableRecord
100
AcDbTextStyleTableRecord
  2
高3.2
 70
     0
 40
3.2
 41
1.0
 50
0.0
 71
     0
 42
3.2
  3
txt.shx
  4
bigfont.shx
  0
STYLE
  5
52D
330
3
100
AcDbSymbolTableRecord
100
AcDbTextStyleTableRecord
  2
高6.3
 70
     0
 40
6.299999999999998
 41
1.0
 50
0.0
 71
     0
 42
6.299999999999998
  3
txt.shx
  4
bigfont.shx
  0
STYLE
  5
52E
330
3
100
AcDbSymbolTableRecord
100
AcDbTextStyleTableRecord
  2
高2.5
 70
     0
 40
2.5
 41
1.0
 50
0.0
 71
     0
 42
0.2
  3
txt.shx
  4
bigfont.shx
  0
STYLE
  5
52F
330
3
100
AcDbSymbolTableRecord
100
AcDbTextStyleTableRecord
  2
高4.5
 70
     0
 40
4.5
 41
1.0
 50
0.0
 71
     0
 42
6.299999999999998
  3
txt.shx
  4
bigfont.shx
  0
STYLE
  5
530
330
3
100
AcDbSymbolTableRecord
100
AcDbTextStyleTableRecord
  2
高2
 70
     0
 40
2.0
 41
1.0
 50
0.0
 71
     0
 42
6.299999999999998
  3
txt.shx
  4
bigfont.shx
  0
ENDTAB
  0
TABLE
  2
VIEW
  5
6
330
0
100
AcDbSymbolTable
 70
     0
  0
ENDTAB
  0
TABLE
  2
UCS
  5
7
330
0
100
AcDbSymbolTable
 70
     0
  0
ENDTAB
  0
TABLE
  2
APPID
  5
9
330
0
100
AcDbSymbolTable
 70
    12
  0
APPID
  5
56
330
9
100
AcDbSymbolTableRecord
100
AcDbRegAppTableRecord
  2
ACAD
 70
     0
  0
APPID
  5
5D
330
9
100
AcDbSymbolTableRecord
100
AcDbRegAppTableRecord
  2
AcadAnnotative
 70
     0
  0
APPID
  5
53B
330
9
100
AcDbSymbolTableRecord
100
AcDbRegAppTableRecord
  2
ACAD_DSTYLE_DIMJOGGED_JOGANGLE_SYMBOL
 70
     0
  0
APPID
  5
53C
330
9
100
AcDbSymbolTableRecord
100
AcDbRegAppTableRecord
  2
ACAD_DSTYLE_DIMJAG
 70
     0
  0
APPID
  5
53D
330
9
100
AcDbSymbolTableRecord
100
AcDbRegAppTableRecord
  2
ACAD_DSTYLE_DIMBREAK
 70
     0
  0
APPID
  5
53E
330
9
100
AcDbSymbolTableRecord
100
AcDbRegAppTableRecord
  2
ACAD_DSTYLE_DIMTALN
 70
     0
  0
APPID
  5
69D
330
9
100
AcDbSymbolTableRecord
100
AcDbRegAppTableRecord
  2
ACAD_EXEMPT_FROM_CAD_STANDARDS
 70
     0
  0
APPID
  5
6EB
330
9
100
AcDbSymbolTableRecord
100
AcDbRegAppTableRecord
  2
ACAD_MLEADERVER
 70
     0
  0
APPID
  5
6F0
330
9
100
AcDbSymbolTableRecord
100
AcDbRegAppTableRecord
  2
ACAD_DSTYLE_DIMARC_LENGTH_SYMBOL
 70
     0
  0
APPID
  5
6F1
330
9
100
AcDbSymbolTableRecord
100
AcDbRegAppTableRecord
  2
ACAD_DSTYLE_DIMEXT_LENGTH
 70
     0
  0
APPID
  5
7C1
330
9
100
AcDbSymbolTableRecord
100
AcDbRegAppTableRecord
  2
AcadAnnoPO
 70
     0
  0
APPID
  5
84E
330
9
100
AcDbSymbolTableRecord
100
AcDbRegAppTableRecord
  2
ACAD_PSEXT
 70
     0
  0
ENDTAB
  0
TABLE
  2
DIMSTYLE
  5
A
330
0
100
AcDbSymbolTable
 70
    14
100
AcDbDimStyleTable
 71
     5
340
531
340
535
340
536
340
538
340
57
  0
DIMSTYLE
105
57
330
A
100
AcDbSymbolTableRecord
100
AcDbDimStyleTableRecord
  2
Standard
 70
     0
340
55
  0
DIMSTYLE
105
531
330
A
100
AcDbSymbolTableRecord
100
AcDbDimStyleTableRecord
  2
1：1
 70
     0
 41
2.5
 42
0.25
 43
0.2
 44
1.25
 73
     0
 74
     0
 77
     3
 78
     8
 79
     2
140
3.0
141
0.0
143
0.03937007874016
147
0.625
171
     3
172
     1
178
     4
179
     1
271
     2
272
     2
274
     3
283
     0
284
     8
288
     1
289
     0
340
55
341
49B
342
49B
1001
ACAD_DSTYLE_DIMARC_LENGTH_SYMBOL
1070
   379
1070
     2
1001
ACAD_DSTYLE_DIMEXT_LENGTH
1070
   378
1040
1.25
1001
ACAD_DSTYLE_DIMJOGGED_JOGANGLE_SYMBOL
1070
   384
1040
1.570796326794896
  0
DIMSTYLE
105
532
330
A
100
AcDbSymbolTableRecord
100
AcDbDimStyleTableRecord
  2
2：1
 70
     0
 41
2.5
 42
0.25
 43
0.2
 44
1.25
 73
     0
 74
     0
 77
     3
 78
     8
 79
     2
140
3.0
141
0.0
143
0.03937007874016
144
0.5
147
0.625
171
     3
172
     1
178
     4
179
     1
271
     2
272
     2
274
     3
283
     0
284
     8
288
     1
289
     0
340
55
341
49B
342
49B
1001
ACAD_DSTYLE_DIMARC_LENGTH_SYMBOL
1070
   379
1070
     2
1001
ACAD_DSTYLE_DIMEXT_LENGTH
1070
   378
1040
1.25
1001
ACAD_DSTYLE_DIMJOGGED_JOGANGLE_SYMBOL
1070
   384
1040
1.570796326794896
  0
DIMSTYLE
105
533
330
A
100
AcDbSymbolTableRecord
100
AcDbDimStyleTableRecord
  2
5：1
 70
     0
 41
2.5
 42
0.25
 43
0.2
 44
1.25
 73
     0
 74
     0
 77
     3
 78
     8
 79
     2
140
3.0
141
0.0
143
0.03937007874016
144
0.2
147
0.625
171
     3
172
     1
178
     4
179
     1
271
     2
272
     2
274
     3
283
     0
284
     8
288
     1
289
     0
340
55
341
49B
342
49B
1001
ACAD_DSTYLE_DIMARC_LENGTH_SYMBOL
1070
   379
1070
     2
1001
ACAD_DSTYLE_DIMEXT_LENGTH
1070
   378
1040
1.25
1001
ACAD_DSTYLE_DIMJOGGED_JOGANGLE_SYMBOL
1070
   384
1040
1.570796326794896
  0
DIMSTYLE
105
534
330
A
100
AcDbSymbolTableRecord
100
AcDbDimStyleTableRecord
  2
10：1
 70
     0
 41
2.5
 42
0.25
 43
0.2
 44
1.25
 73
     0
 74
     0
 77
     3
 78
     8
 79
     2
140
3.0
141
0.0
143
0.03937007874016
144
0.1
147
0.625
171
     3
172
     1
178
     4
179
     1
271
     2
272
     2
274
     3
283
     0
284
     8
288
     1
289
     0
340
55
341
49B
342
49B
1001
ACAD_DSTYLE_DIMARC_LENGTH_SYMBOL
1070
   379
1070
     2
1001
ACAD_DSTYLE_DIMEXT_LENGTH
1070
   378
1040
1.25
1001
ACAD_DSTYLE_DIMJOGGED_JOGANGLE_SYMBOL
1070
   384
1040
1.570796326794896
  0
DIMSTYLE
105
535
330
A
100
AcDbSymbolTableRecord
100
AcDbDimStyleTableRecord
  2
1／2
 70
     0
 41
2.5
 42
0.25
 43
0.2
 44
1.25
 73
     0
 74
     0
 77
     3
 78
     8
 79
     2
140
3.0
141
0.0
143
0.03937007874016
144
2.0
147
0.625
171
     3
172
     1
178
     4
179
     1
271
     2
272
     2
274
     3
283
     0
284
     8
288
     1
289
     0
340
55
341
49B
342
49B
1001
ACAD_DSTYLE_DIMARC_LENGTH_SYMBOL
1070
   379
1070
     2
1001
ACAD_DSTYLE_DIMEXT_LENGTH
1070
   378
1040
1.25
1001
ACAD_DSTYLE_DIMJOGGED_JOGANGLE_SYMBOL
1070
   384
1040
1.570796326794896
  0
DIMSTYLE
105
536
330
A
100
AcDbSymbolTableRecord
100
AcDbDimStyleTableRecord
  2
1／5
 70
     0
 41
2.5
 42
0.25
 43
0.2
 44
1.25
 73
     0
 74
     0
 77
     3
 78
     8
 79
     2
140
3.0
141
0.0
143
0.03937007874016
144
5.0
147
0.625
171
     3
172
     1
178
     4
179
     1
271
     2
272
     2
274
     3
283
     0
284
     8
288
     1
289
     0
340
55
341
49B
342
49B
1001
ACAD_DSTYLE_DIMARC_LENGTH_SYMBOL
1070
   379
1070
     2
1001
ACAD_DSTYLE_DIMEXT_LENGTH
1070
   378
1040
1.25
1001
ACAD_DSTYLE_DIMJOGGED_JOGANGLE_SYMBOL
1070
   384
1040
1.570796326794896
  0
DIMSTYLE
105
537
330
A
100
AcDbSymbolTableRecord
100
AcDbDimStyleTableRecord
  2
1／10
 70
     0
 41
2.5
 42
0.25
 43
0.2
 44
1.25
 73
     0
 74
     0
 77
     3
 78
     8
 79
     2
140
3.0
141
0.0
143
0.03937007874016
144
10.0
147
0.625
171
     3
172
     1
178
     4
179
     1
271
     2
272
     2
274
     3
283
     0
284
     8
288
     1
289
     0
340
55
341
49B
342
49B
1001
ACAD_DSTYLE_DIMARC_LENGTH_SYMBOL
1070
   379
1070
     2
1001
ACAD_DSTYLE_DIMEXT_LENGTH
1070
   378
1040
1.25
1001
ACAD_DSTYLE_DIMJOGGED_JOGANGLE_SYMBOL
1070
   384
1040
1.570796326794896
  0
DIMSTYLE
105
538
330
A
100
AcDbSymbolTableRecord
100
AcDbDimStyleTableRecord
  2
1／4
 70
     0
 41
2.5
 42
0.25
 43
0.2
 44
1.25
 73
     0
 74
     0
 77
     3
 78
     8
 79
     2
140
3.0
141
0.0
143
0.03937007874016
144
4.0
147
0.625
171
     3
172
     1
178
     4
179
     1
271
     2
272
     2
274
     3
283
     0
284
     8
288
     1
289
     0
340
55
341
49B
342
49B
1001
ACAD_DSTYLE_DIMARC_LENGTH_SYMBOL
1070
   379
1070
     2
1001
ACAD_DSTYLE_DIMEXT_LENGTH
1070
   378
1040
1.25
1001
ACAD_DSTYLE_DIMJOGGED_JOGANGLE_SYMBOL
1070
   384
1040
1.570796326794896
  0
DIMSTYLE
105
539
330
A
100
AcDbSymbolTableRecord
100
AcDbDimStyleTableRecord
  2
1／3
 70
     0
 41
2.5
 42
0.25
 43
0.2
 44
1.25
 73
     0
 74
     0
 77
     3
 78
     8
 79
     2
140
3.0
141
0.0
143
0.03937007874016
144
3.0
147
0.625
171
     3
172
     1
178
     4
179
     1
271
     2
272
     2
274
     3
283
     0
284
     8
288
     1
289
     0
340
55
341
49B
342
49B
1001
ACAD_DSTYLE_DIMARC_LENGTH_SYMBOL
1070
   379
1070
     2
1001
ACAD_DSTYLE_DIMEXT_LENGTH
1070
   378
1040
1.25
1001
ACAD_DSTYLE_DIMJOGGED_JOGANGLE_SYMBOL
1070
   384
1040
1.570796326794896
  0
DIMSTYLE
105
53A
330
A
100
AcDbSymbolTableRecord
100
AcDbDimStyleTableRecord
  2
FREE
 70
     0
 41
2.5
 42
0.25
 43
0.2
 44
1.25
 73
     0
 74
     0
 77
     3
 78
     8
 79
     2
140
3.0
141
0.0
143
0.03937007874016
147
0.625
171
     3
172
     1
178
     4
179
     1
271
     2
272
     2
274
     3
283
     0
284
     8
288
     1
289
     0
340
55
341
49B
342
49B
1001
ACAD_DSTYLE_DIMBREAK
1070
   391
1040
3.75
1001
ACAD_DSTYLE_DIMJAG
1070
   388
1040
1.5
1001
ACAD_DSTYLE_DIMTALN
1070
   392
1070
     0
1001
ACAD_DSTYLE_DIMARC_LENGTH_SYMBOL
1070
   379
1070
     2
1001
ACAD_DSTYLE_DIMEXT_LENGTH
1070
   378
1040
1.25
1001
ACAD_DSTYLE_DIMJOGGED_JOGANGLE_SYMBOL
1070
   384
1040
1.570796326794896
  0
ENDTAB
  0
TABLE
  2
BLOCK_RECORD
  5
1
330
0
100
AcDbSymbolTable
 70
    31
  0
BLOCK_RECORD
  5
6B
102
{ACAD_XDICTIONARY
360
716
102
}
330
1
100
AcDbSymbolTableRecord
100
AcDbBlockTableRecord
  2
*Model_Space
340
6E
  0
BLOCK_RECORD
  5
67
330
1
100
AcDbSymbolTableRecord
100
AcDbBlockTableRecord
  2
*Paper_Space
340
6A
  0
BLOCK_RECORD
  5
49B
330
1
100
AcDbSymbolTableRecord
100
AcDbBlockTableRecord
  2
_Open30
340
0
102
{BLKREFS
331
7E0
331
7E1
331
7E9
331
7EA
331
7FB
331
7FC
102
}
  0
BLOCK_RECORD
  5
670
330
1
100
AcDbSymbolTableRecord
100
AcDbBlockTableRecord
  2
*D26
340
0
  0
BLOCK_RECORD
  5
67C
330
1
100
AcDbSymbolTableRecord
100
AcDbBlockTableRecord
  2
*D27
340
0
  0
BLOCK_RECORD
  5
688
330
1
100
AcDbSymbolTableRecord
100
AcDbBlockTableRecord
  2
*D28
340
0
  0
ENDTAB
  0
ENDSEC
  0
SECTION
  2
BLOCKS
  0
BLOCK
  5
6C
330
6B
100
AcDbEntity
  8
0
100
AcDbBlockBegin
  2
*Model_Space
 70
     0
 10
0.0
 20
0.0
 30
0.0
  3
*Model_Space
  1

  0
ENDBLK
  5
6D
330
6B
100
AcDbEntity
  8
0
100
AcDbBlockEnd
  0
BLOCK
  5
68
330
67
100
AcDbEntity
 67
     1
  8
0
100
AcDbBlockBegin
  2
*Paper_Space
 70
     0
 10
0.0
 20
0.0
 30
0.0
  3
*Paper_Space
  1

  0
ENDBLK
  5
69
330
67
100
AcDbEntity
 67
     1
  8
0
100
AcDbBlockEnd
  0
BLOCK
  5
49C
330
49B
100
AcDbEntity
  8
0
100
AcDbBlockBegin
  2
_Open30
 70
     0
 10
0.0
 20
0.0
 30
0.0
  3
_Open30
  1

  0
LINE
  5
49D
330
49B
100
AcDbEntity
  8
0
  6
ByBlock
 62
     0
370
    -2
100
AcDbLine
 10
-1.0
 20
0.267949
 30
0.0
 11
0.0
 21
0.0
 31
0.0
  0
LINE
  5
49E
330
49B
100
AcDbEntity
  8
0
  6
ByBlock
 62
     0
370
    -2
100
AcDbLine
 10
0.0
 20
0.0
 30
0.0
 11
-1.0
 21
-0.267949
 31
0.0
  0
LINE
  5
49F
330
49B
100
AcDbEntity
  8
0
  6
ByBlock
 62
     0
370
    -2
100
AcDbLine
 10
0.0
 20
0.0
 30
0.0
 11
-1.0
 21
0.0
 31
0.0
  0
ENDBLK
  5
4A0
330
49B
100
AcDbEntity
  8
0
100
AcDbBlockEnd
  0
BLOCK
  5
671
330
670
100
AcDbEntity
  8
0
100
AcDbBlockBegin
  2
*D26
 70
     1
 10
0.0
 20
0.0
 30
0.0
  3
*D26
  1

  0
LINE
  5
7E6
330
670
100
AcDbEntity
  8
001
 62
     0
370
    -2
100
AcDbLine
 10
45.570828
 20
-46.21842299999999
 30
0.0
 11
54.658388
 21
-46.21842299999999
 31
0.0
  0
LINE
  5
7E7
330
670
100
AcDbEntity
  8
001
 62
     0
370
    -2
100
AcDbLine
 10
45.570828
 20
12.792687
 30
0.0
 11
54.658388
 21
12.792687
 31
0.0
  0
LINE
  5
7E8
330
670
100
AcDbEntity
  8
001
 62
     0
370
    -2
100
AcDbLine
 10
53.408388
 20
-43.71842299999999
 30
0.0
 11
53.408388
 21
10.292687
 31
0.0
  0
INSERT
  5
7E9
330
670
100
AcDbEntity
  8
001
 62
     0
370
    -2
100
AcDbBlockReference
  2
_Open30
 10
53.408388
 20
-46.21842299999999
 30
0.0
 41
2.5
 42
2.5
 43
2.5
 50
270.0
  0
INSERT
  5
7EA
330
670
100
AcDbEntity
  8
001
 62
     0
370
    -2
100
AcDbBlockReference
  2
_Open30
 10
53.408388
 20
12.792687
 30
0.0
 41
2.5
 42
2.5
 43
2.5
 50
90.0
  0
MTEXT
  5
7EB
330
670
100
AcDbEntity
  8
001
 62
     4
100
AcDbMText
 10
51.033388
 20
-16.71286799999999
 30
0.0
 40
3.5
 41
0.0
 71
     5
 72
     1
  1
118
 11
0.0000000000000001
 21
1.0
 31
0.0
 73
     1
 44
1.0
1001
ACAD
1000
MTEXTBEGIN
1070
    73
1070
     1
1070
    44
1040
1.0
1070
    74
1070
     0
1000
MTEXTEND
  0
POINT
  5
7EC
330
670
100
AcDbEntity
  8
Defpoints
 62
     0
100
AcDbPoint
 10
45.320828
 20
-46.21842299999999
 30
0.0
  0
POINT
  5
7ED
330
670
100
AcDbEntity
  8
Defpoints
 62
     0
100
AcDbPoint
 10
45.320828
 20
12.792687
 30
0.0
  0
POINT
  5
7EE
330
670
100
AcDbEntity
  8
Defpoints
 62
     0
100
AcDbPoint
 10
53.408388
 20
12.792687
 30
0.0
  0
ENDBLK
  5
672
330
670
100
AcDbEntity
  8
0
100
AcDbBlockEnd
  0
BLOCK
  5
67D
330
67C
100
AcDbEntity
  8
0
100
AcDbBlockBegin
  2
*D27
 70
     1
 10
0.0
 20
0.0
 30
0.0
  3
*D27
  1

  0
LINE
  5
7DD
330
67C
100
AcDbEntity
  8
001
 62
     0
370
    -2
100
AcDbLine
 10
-129.679172
 20
13.042687
 30
0.0
 11
-129.679172
 21
23.133441
 31
0.0
  0
LINE
  5
7DE
330
67C
100
AcDbEntity
  8
001
 62
     0
370
    -2
100
AcDbLine
 10
45.320828
 20
13.042687
 30
0.0
 11
45.320828
 21
23.133441
 31
0.0
  0
LINE
  5
7DF
330
67C
100
AcDbEntity
  8
001
 62
     0
370
    -2
100
AcDbLine
 10
-127.179172
 20
21.883441
 30
0.0
 11
42.820828
 21
21.883441
 31
0.0
  0
INSERT
  5
7E0
330
67C
100
AcDbEntity
  8
001
 62
     0
370
    -2
100
AcDbBlockReference
  2
_Open30
 10
-129.679172
 20
21.883441
 30
0.0
 41
2.5
 42
2.5
 43
2.5
 50
180.0
  0
INSERT
  5
7E1
330
67C
100
AcDbEntity
  8
001
 62
     0
370
    -2
100
AcDbBlockReference
  2
_Open30
 10
45.320828
 20
21.883441
 30
0.0
 41
2.5
 42
2.5
 43
2.5
  0
MTEXT
  5
7E2
330
67C
100
AcDbEntity
  8
001
 62
     4
100
AcDbMText
 10
-42.17917199999999
 20
24.258441
 30
0.0
 40
3.5
 41
0.0
 71
     5
 72
     1
  1
350
 73
     1
 44
1.0
1001
ACAD
1000
MTEXTBEGIN
1070
    73
1070
     1
1070
    44
1040
1.0
1070
    74
1070
     0
1000
MTEXTEND
  0
POINT
  5
7E3
330
67C
100
AcDbEntity
  8
Defpoints
 62
     0
100
AcDbPoint
 10
-129.679172
 20
12.792687
 30
0.0
  0
POINT
  5
7E4
330
67C
100
AcDbEntity
  8
Defpoints
 62
     0
100
AcDbPoint
 10
45.320828
 20
12.792687
 30
0.0
  0
POINT
  5
7E5
330
67C
100
AcDbEntity
  8
Defpoints
 62
     0
100
AcDbPoint
 10
45.320828
 20
21.883441
 30
0.0
  0
ENDBLK
  5
67E
330
67C
100
AcDbEntity
  8
0
100
AcDbBlockEnd
  0
BLOCK
  5
689
330
688
100
AcDbEntity
  8
0
100
AcDbBlockBegin
  2
*D28
 70
     1
 10
0.0
 20
0.0
 30
0.0
  3
*D28
  1

  0
LINE
  5
7F8
330
688
100
AcDbEntity
  8
001
 62
     0
370
    -2
100
AcDbLine
 10
-42.42917199999996
 20
49.049945
 30
0.0
 11
-145.894639
 21
49.04994500000004
 31
0.0
  0
LINE
  5
7F9
330
688
100
AcDbEntity
  8
001
 62
     0
370
    -2
100
AcDbLine
 10
-42.42917199999996
 20
83.04994499999997
 30
0.0
 11
-145.894639
 21
83.04994499999997
 31
0.0
  0
LINE
  5
7FA
330
688
100
AcDbEntity
  8
001
 62
     0
370
    -2
100
AcDbLine
 10
-144.644639
 20
51.54994500000004
 30
0.0
 11
-144.644639
 21
80.54994499999997
 31
0.0
  0
INSERT
  5
7FB
330
688
100
AcDbEntity
  8
001
 62
     0
370
    -2
100
AcDbBlockReference
  2
_Open30
 10
-144.644639
 20
49.04994500000004
 30
0.0
 41
2.5
 42
2.5
 43
2.5
 50
270.0
  0
INSERT
  5
7FC
330
688
100
AcDbEntity
  8
001
 62
     0
370
    -2
100
AcDbBlockReference
  2
_Open30
 10
-144.644639
 20
83.04994499999997
 30
0.0
 41
2.5
 42
2.5
 43
2.5
 50
90.0
  0
MTEXT
  5
7FD
330
688
100
AcDbEntity
  8
001
 62
     4
100
AcDbMText
 10
-147.019639
 20
66.049945
 30
0.0
 40
3.5
 41
0.0
 71
     5
 72
     1
  1
68
 11
0.0000000000000001
 21
1.0
 31
0.0
 73
     1
 44
1.0
1001
ACAD
1000
MTEXTBEGIN
1070
    73
1070
     1
1070
    44
1040
1.0
1070
    74
1070
     0
1000
MTEXTEND
  0
POINT
  5
7FE
330
688
100
AcDbEntity
  8
Defpoints
 62
     0
100
AcDbPoint
 10
-42.17917199999996
 20
49.049945
 30
0.0
  0
POINT
  5
7FF
330
688
100
AcDbEntity
  8
Defpoints
 62
     0
100
AcDbPoint
 10
-42.17917199999996
 20
83.04994499999997
 30
0.0
  0
POINT
  5
800
330
688
100
AcDbEntity
  8
Defpoints
 62
     0
100
AcDbPoint
 10
-144.644639
 20
83.04994499999997
 30
0.0
  0
ENDBLK
  5
68A
330
688
100
AcDbEntity
  8
0
100
AcDbBlockEnd
  0
ENDSEC
  0
SECTION
  2
ENTITIES
  0
LINE
  5
BC
330
6B
100
AcDbEntity
  8
001
 62
     3
100
AcDbLine
 10
38.82082800000001
 20
66.049945
 30
0.0
 11
45.320828
 21
66.049945
 31
0.0
  0
LINE
  5
BD
330
6B
100
AcDbEntity
  8
001
 62
     3
100
AcDbLine
 10
-97.555057
 20
65.79994499999999
 30
0.0
 11
-97.555057
 21
66.29994499999999
 31
0.0
  0
LINE
  5
BE
330
6B
100
AcDbEntity
  8
001
 62
     3
100
AcDbLine
 10
-83.179172
 20
48.099945
 30
0.0
 11
-1.179171999999998
 21
48.099945
 31
0.0
  0
ARC
  5
BF
330
6B
100
AcDbEntity
  8
001
 62
     3
100
AcDbCircle
 10
-83.179172
 20
63.549945
 30
0.0
 40
15.45
100
AcDbArc
 50
242.031659
 51
270.0
  0
TEXT
  5
C0
330
6B
100
AcDbEntity
  8
001
 62
     3
100
AcDbText
 10
133.40813
 20
-127.312067
 30
0.0
 40
3.2
  1
1/2
  7
高3.2
100
AcDbText
  0
LINE
  5
C1
330
6B
100
AcDbEntity
  8
001
 62
     3
100
AcDbLine
 10
-67.55233699999999
 20
61.049102
 30
0.0
 11
-67.55233699999999
 21
71.04597700000002
 31
0.0
  0
LINE
  5
C2
330
6B
100
AcDbEntity
  8
001
 62
     3
100
AcDbLine
 10
-48.052337
 20
61.049102
 30
0.0
 11
-48.052337
 21
71.04597700000002
 31
0.0
  0
ARC
  5
C3
330
6B
100
AcDbEntity
  8
001
 62
     3
100
AcDbCircle
 10
-54.927337
 20
66.047539
 30
0.0
 40
8.5
100
AcDbArc
 50
213.045762
 51
323.981146
  0
ARC
  5
C4
330
6B
100
AcDbEntity
  8
001
 62
     3
100
AcDbCircle
 10
-54.927337
 20
66.047539
 30
0.0
 40
8.5
100
AcDbArc
 50
36.018854
 51
146.954238
  0
TEXT
  5
C5
330
6B
100
AcDbEntity
  8
001
 62
     3
100
AcDbText
 10
104.998572930808
 20
-106.678372
 30
0.0
 40
4.5
  1
電コンハンドリール
 41
0.8
  7
高4.5
100
AcDbText
  0
LINE
  5
C6
330
6B
100
AcDbEntity
  8
001
 62
     3
100
AcDbLine
 10
-81.552337
 20
70.768535
 30
0.0
 11
-81.552337
 21
61.29994499999999
 31
0.0
  0
ARC
  5
C7
330
6B
100
AcDbEntity
  8
001
100
AcDbCircle
 10
-71.352337
 20
68.29994499999999
 30
0.0
 40
0.5
100
AcDbArc
 50
270.0
 51
0.0
  0
LINE
  5
C8
330
6B
100
AcDbEntity
  8
001
100
AcDbLine
 10
-70.852337
 20
70.54994499999998
 30
0.0
 11
-70.852337
 21
68.29994499999999
 31
0.0
  0
ARC
  5
C9
330
6B
100
AcDbEntity
  8
001
100
AcDbCircle
 10
-71.352337
 20
70.54994499999998
 30
0.0
 40
0.5
100
AcDbArc
 50
0.0
 51
90.0
  0
LINE
  5
CA
330
6B
100
AcDbEntity
  8
001
100
AcDbLine
 10
-71.352337
 20
71.049945
 30
0.0
 11
-77.852337
 21
71.049945
 31
0.0
  0
ARC
  5
CB
330
6B
100
AcDbEntity
  8
001
100
AcDbCircle
 10
-77.852337
 20
70.54994499999998
 30
0.0
 40
0.5
100
AcDbArc
 50
90.0
 51
180.0
  0
LINE
  5
CC
330
6B
100
AcDbEntity
  8
001
100
AcDbLine
 10
-78.352337
 20
70.54994499999998
 30
0.0
 11
-78.352337
 21
68.29994499999999
 31
0.0
  0
ARC
  5
CD
330
6B
100
AcDbEntity
  8
001
100
AcDbCircle
 10
-77.852337
 20
68.29994499999999
 30
0.0
 40
0.5
100
AcDbArc
 50
180.0
 51
270.0
  0
LINE
  5
CE
330
6B
100
AcDbEntity
  8
001
100
AcDbLine
 10
-77.852337
 20
67.79994499999999
 30
0.0
 11
-71.352337
 21
67.79994499999999
 31
0.0
  0
LINE
  5
CF
330
6B
100
AcDbEntity
  8
001
100
AcDbLine
 10
-77.852337
 20
64.29994499999999
 30
0.0
 11
-71.352337
 21
64.29994499999999
 31
0.0
  0
ARC
  5
D0
330
6B
100
AcDbEntity
  8
001
100
AcDbCircle
 10
-77.852337
 20
63.79994499999999
 30
0.0
 40
0.5
100
AcDbArc
 50
90.0
 51
180.0
  0
LINE
  5
D1
330
6B
100
AcDbEntity
  8
001
100
AcDbLine
 10
-78.352337
 20
61.54994499999999
 30
0.0
 11
-78.352337
 21
63.79994499999999
 31
0.0
  0
ARC
  5
D2
330
6B
100
AcDbEntity
  8
001
100
AcDbCircle
 10
-77.852337
 20
61.54994499999999
 30
0.0
 40
0.5
100
AcDbArc
 50
180.0
 51
270.0
  0
LINE
  5
D3
330
6B
100
AcDbEntity
  8
001
100
AcDbLine
 10
-71.352337
 20
61.049945
 30
0.0
 11
-77.852337
 21
61.049945
 31
0.0
  0
ARC
  5
D4
330
6B
100
AcDbEntity
  8
001
100
AcDbCircle
 10
-71.352337
 20
61.54994499999999
 30
0.0
 40
0.5
100
AcDbArc
 50
270.0
 51
0.0
  0
LINE
  5
D5
330
6B
100
AcDbEntity
  8
001
100
AcDbLine
 10
-70.852337
 20
61.54994499999999
 30
0.0
 11
-70.852337
 21
63.79994499999999
 31
0.0
  0
ARC
  5
D6
330
6B
100
AcDbEntity
  8
001
100
AcDbCircle
 10
-71.352337
 20
63.79994499999999
 30
0.0
 40
0.5
100
AcDbArc
 50
0.0
 51
90.0
  0
LINE
  5
D7
330
6B
100
AcDbEntity
  8
001
100
AcDbLine
 10
-51.352337
 20
61.54994499999999
 30
0.0
 11
-51.352337
 21
63.79994499999999
 31
0.0
  0
LINE
  5
D8
330
6B
100
AcDbEntity
  8
001
100
AcDbLine
 10
-58.35233699999999
 20
64.29994499999999
 30
0.0
 11
-51.852337
 21
64.29994499999999
 31
0.0
  0
LINE
  5
D9
330
6B
100
AcDbEntity
  8
001
100
AcDbLine
 10
-51.852337
 20
61.049945
 30
0.0
 11
-58.35233699999999
 21
61.049945
 31
0.0
  0
ARC
  5
DA
330
6B
100
AcDbEntity
  8
001
100
AcDbCircle
 10
-51.852337
 20
63.79994499999999
 30
0.0
 40
0.5
100
AcDbArc
 50
0.0
 51
90.0
  0
ARC
  5
DB
330
6B
100
AcDbEntity
  8
001
100
AcDbCircle
 10
-51.852337
 20
61.54994499999999
 30
0.0
 40
0.5
100
AcDbArc
 50
270.0
 51
0.0
  0
ARC
  5
DC
330
6B
100
AcDbEntity
  8
001
100
AcDbCircle
 10
-51.852337
 20
70.54994499999998
 30
0.0
 40
0.5
100
AcDbArc
 50
0.0
 51
90.0
  0
LINE
  5
DD
330
6B
100
AcDbEntity
  8
001
100
AcDbLine
 10
-51.352337
 20
70.54994499999998
 30
0.0
 11
-51.352337
 21
68.29994499999999
 31
0.0
  0
ARC
  5
DE
330
6B
100
AcDbEntity
  8
001
100
AcDbCircle
 10
-51.852337
 20
68.29994499999999
 30
0.0
 40
0.5
100
AcDbArc
 50
270.0
 51
0.0
  0
LINE
  5
DF
330
6B
100
AcDbEntity
  8
001
100
AcDbLine
 10
-58.35233699999999
 20
67.79994499999999
 30
0.0
 11
-51.852337
 21
67.79994499999999
 31
0.0
  0
LINE
  5
E0
330
6B
100
AcDbEntity
  8
001
100
AcDbLine
 10
-58.852337
 20
70.54994499999998
 30
0.0
 11
-58.852337
 21
68.29994499999999
 31
0.0
  0
ARC
  5
E1
330
6B
100
AcDbEntity
  8
001
100
AcDbCircle
 10
-58.35233699999999
 20
70.54994499999998
 30
0.0
 40
0.5
100
AcDbArc
 50
90.0
 51
180.0
  0
LINE
  5
E2
330
6B
100
AcDbEntity
  8
001
100
AcDbLine
 10
-51.852337
 20
71.049945
 30
0.0
 11
-58.35233699999999
 21
71.049945
 31
0.0
  0
ARC
  5
E3
330
6B
100
AcDbEntity
  8
001
100
AcDbCircle
 10
-58.35233699999999
 20
68.29994499999999
 30
0.0
 40
0.5
100
AcDbArc
 50
180.0
 51
270.0
  0
ARC
  5
E4
330
6B
100
AcDbEntity
  8
001
100
AcDbCircle
 10
-58.35233699999999
 20
63.79994499999999
 30
0.0
 40
0.5
100
AcDbArc
 50
90.0
 51
180.0
  0
LINE
  5
E5
330
6B
100
AcDbEntity
  8
001
100
AcDbLine
 10
-58.852337
 20
61.54994499999999
 30
0.0
 11
-58.852337
 21
63.79994499999999
 31
0.0
  0
ARC
  5
E6
330
6B
100
AcDbEntity
  8
001
100
AcDbCircle
 10
-58.35233699999999
 20
61.54994499999999
 30
0.0
 40
0.5
100
AcDbArc
 50
180.0
 51
270.0
  0
LINE
  5
E7
330
6B
100
AcDbEntity
  8
001
100
AcDbLine
 10
-85.929172
 20
74.92494499999998
 30
0.0
 11
-85.929172
 21
69.174945
 31
0.0
  0
ARC
  5
E8
330
6B
100
AcDbEntity
  8
001
100
AcDbCircle
 10
-82.67917199999997
 20
74.92494499999998
 30
0.0
 40
3.25
100
AcDbArc
 50
90.0
 51
180.0
  0
LINE
  5
E9
330
6B
100
AcDbEntity
  8
001
100
AcDbLine
 10
-82.67917199999997
 20
78.17494499999998
 30
0.0
 11
-47.76294199999997
 21
78.17494499999998
 31
0.0
  0
LINE
  5
EA
330
6B
100
AcDbEntity
  8
001
100
AcDbLine
 10
-82.67917199999997
 20
77.42494499999998
 30
0.0
 11
-47.76294199999997
 21
77.42494499999998
 31
0.0
  0
ARC
  5
EB
330
6B
100
AcDbEntity
  8
001
100
AcDbCircle
 10
-82.67917199999997
 20
74.92494499999998
 30
0.0
 40
2.5
100
AcDbArc
 50
90.0
 51
180.0
  0
LINE
  5
EC
330
6B
100
AcDbEntity
  8
001
100
AcDbLine
 10
-85.17917199999997
 20
74.92494499999998
 30
0.0
 11
-85.17917199999997
 21
69.174945
 31
0.0
  0
LINE
  5
ED
330
6B
100
AcDbEntity
  8
001
100
AcDbLine
 10
-85.17917199999997
 20
62.924945
 30
0.0
 11
-85.17917199999997
 21
57.17494499999999
 31
0.0
  0
LINE
  5
EE
330
6B
100
AcDbEntity
  8
001
100
AcDbLine
 10
-85.929172
 20
62.924945
 30
0.0
 11
-85.929172
 21
57.17494499999999
 31
0.0
  0
ARC
  5
EF
330
6B
100
AcDbEntity
  8
001
100
AcDbCircle
 10
-82.67917199999997
 20
57.17494499999999
 30
0.0
 40
3.25
100
AcDbArc
 50
180.0
 51
270.0
  0
ARC
  5
F0
330
6B
100
AcDbEntity
  8
001
100
AcDbCircle
 10
-82.67917199999997
 20
57.17494499999999
 30
0.0
 40
2.5
100
AcDbArc
 50
180.0
 51
270.0
  0
LINE
  5
F1
330
6B
100
AcDbEntity
  8
001
100
AcDbLine
 10
-82.67917199999997
 20
53.92494499999999
 30
0.0
 11
-47.761757
 21
53.92494499999999
 31
0.0
  0
ARC
  5
F2
330
6B
100
AcDbEntity
  8
001
100
AcDbCircle
 10
-42.17917199999996
 20
76.297539
 30
0.0
 40
3.25
100
AcDbArc
 50
193.810543
 51
346.189457
  0
ARC
  5
F3
330
6B
100
AcDbEntity
  8
001
100
AcDbCircle
 10
-42.17917199999996
 20
76.297539
 30
0.0
 40
2.5
100
AcDbArc
 50
193.810543
 51
346.189457
  0
ARC
  5
F4
330
6B
100
AcDbEntity
  8
001
100
AcDbCircle
 10
-47.76294199999997
 20
74.92494499999998
 30
0.0
 40
3.25
100
AcDbArc
 50
13.810543
 51
90.0
  0
ARC
  5
F5
330
6B
100
AcDbEntity
  8
001
100
AcDbCircle
 10
-47.76294199999997
 20
74.92494499999998
 30
0.0
 40
2.5
100
AcDbArc
 50
13.810543
 51
90.0
  0
ARC
  5
F6
330
6B
100
AcDbEntity
  8
001
100
AcDbCircle
 10
-36.595402
 20
74.92494499999998
 30
0.0
 40
2.5
100
AcDbArc
 50
90.0
 51
166.189457
  0
ARC
  5
F7
330
6B
100
AcDbEntity
  8
001
100
AcDbCircle
 10
-36.595402
 20
74.92494499999998
 30
0.0
 40
3.25
100
AcDbArc
 50
90.0
 51
166.189457
  0
ARC
  5
F8
330
6B
100
AcDbEntity
  8
001
100
AcDbCircle
 10
-47.761757
 20
57.17494499999999
 30
0.0
 40
3.25
100
AcDbArc
 50
270.0
 51
346.140094
  0
ARC
  5
F9
330
6B
100
AcDbEntity
  8
001
100
AcDbCircle
 10
-47.761757
 20
57.17494499999999
 30
0.0
 40
2.5
100
AcDbArc
 50
270.0
 51
346.140094
  0
LINE
  5
FA
330
6B
100
AcDbEntity
  8
001
100
AcDbLine
 10
-82.67917199999997
 20
54.67494499999999
 30
0.0
 11
-47.761757
 21
54.67494499999999
 31
0.0
  0
ARC
  5
FB
330
6B
100
AcDbEntity
  8
001
100
AcDbCircle
 10
-42.17917199999996
 20
55.797539
 30
0.0
 40
3.25
100
AcDbArc
 50
13.859906
 51
166.140094
  0
ARC
  5
FC
330
6B
100
AcDbEntity
  8
001
100
AcDbCircle
 10
-42.17917199999996
 20
55.797539
 30
0.0
 40
2.5
100
AcDbArc
 50
13.859906
 51
166.140094
  0
ARC
  5
FD
330
6B
100
AcDbEntity
  8
001
100
AcDbCircle
 10
-36.596587
 20
57.17494499999999
 30
0.0
 40
3.25
100
AcDbArc
 50
193.8599059999999
 51
270.0
  0
ARC
  5
FE
330
6B
100
AcDbEntity
  8
001
100
AcDbCircle
 10
-36.596587
 20
57.17494499999999
 30
0.0
 40
2.5
100
AcDbArc
 50
193.8599059999999
 51
270.0
  0
LINE
  5
FF
330
6B
100
AcDbEntity
  8
001
100
AcDbLine
 10
-36.596587
 20
53.92494499999999
 30
0.0
 11
-1.679172
 21
53.92494499999999
 31
0.0
  0
LINE
  5
100
330
6B
100
AcDbEntity
  8
001
100
AcDbLine
 10
-1.679172
 20
54.67494499999999
 30
0.0
 11
-36.596587
 21
54.67494499999999
 31
0.0
  0
ARC
  5
101
330
6B
100
AcDbEntity
  8
001
100
AcDbCircle
 10
-1.679172
 20
74.92494499999998
 30
0.0
 40
3.25
100
AcDbArc
 50
0.0
 51
90.0
  0
LINE
  5
102
330
6B
100
AcDbEntity
  8
001
100
AcDbLine
 10
0.8208280000000002
 20
74.92494499999998
 30
0.0
 11
0.8208280000000002
 21
57.17494499999999
 31
0.0
  0
ARC
  5
103
330
6B
100
AcDbEntity
  8
001
100
AcDbCircle
 10
-1.679172
 20
74.92494499999998
 30
0.0
 40
2.5
100
AcDbArc
 50
0.0
 51
90.0
  0
LINE
  5
104
330
6B
100
AcDbEntity
  8
001
100
AcDbLine
 10
1.570828
 20
74.92494499999998
 30
0.0
 11
1.570828
 21
57.17494499999999
 31
0.0
  0
ARC
  5
105
330
6B
100
AcDbEntity
  8
001
100
AcDbCircle
 10
-1.679172
 20
57.17494499999999
 30
0.0
 40
3.25
100
AcDbArc
 50
270.0
 51
0.0
  0
ARC
  5
106
330
6B
100
AcDbEntity
  8
001
100
AcDbCircle
 10
-1.679172
 20
57.17494499999999
 30
0.0
 40
2.5
100
AcDbArc
 50
270.0
 51
0.0
  0
LINE
  5
107
330
6B
100
AcDbEntity
  8
001
100
AcDbLine
 10
-1.679172
 20
77.42494499999998
 30
0.0
 11
-36.595402
 21
77.42494499999998
 31
0.0
  0
LINE
  5
108
330
6B
100
AcDbEntity
  8
001
100
AcDbLine
 10
-36.595402
 20
78.17494499999998
 30
0.0
 11
-1.679172
 21
78.17494499999998
 31
0.0
  0
TEXT
  5
109
330
6B
100
AcDbEntity
  8
001
100
AcDbText
 10
-5.907274
 20
61.924589
 30
0.0
 40
1.75
  1
電源
 50
270.000001
 41
0.952381
100
AcDbText
  0
TEXT
  5
10A
330
6B
100
AcDbEntity
  8
001
100
AcDbText
 10
-5.908891
 20
68.92394
 30
0.0
 40
1.75
  1
切
 50
270.000001
 41
0.833333
100
AcDbText
  0
TEXT
  5
10B
330
6B
100
AcDbEntity
  8
001
100
AcDbText
 10
-17.506237
 20
60.903227
 30
0.0
 40
2.0
  1
A
 50
199.999987
 41
0.75
100
AcDbText
  0
TEXT
  5
10C
330
6B
100
AcDbEntity
  8
001
100
AcDbText
 10
-16.761834
 20
61.453607
 30
0.0
 40
2.0
  1
3
 50
214.999998
 41
0.75
100
AcDbText
  0
TEXT
  5
10D
330
6B
100
AcDbEntity
  8
001
100
AcDbText
 10
-16.037152
 20
62.11330799999998
 30
0.0
 40
2.0
  1
2
 50
225.99999
 41
0.75
100
AcDbText
  0
TEXT
  5
10E
330
6B
100
AcDbEntity
  8
001
100
AcDbText
 10
-14.649388
 20
64.29961999999999
 30
0.0
 40
2.0
  1
A
 50
245.000006
 41
0.75
100
AcDbText
  0
TEXT
  5
10F
330
6B
100
AcDbEntity
  8
001
100
AcDbText
 10
-14.463279
 20
65.258645
 30
0.0
 40
2.0
  1
0
 50
256.999992
 41
0.9
100
AcDbText
  0
TEXT
  5
110
330
6B
100
AcDbEntity
  8
001
100
AcDbText
 10
-14.45330799999999
 20
66.21164300000001
 30
0.0
 40
2.0
  1
2
 50
270.000001
 41
0.75
100
AcDbText
  0
TEXT
  5
111
330
6B
100
AcDbEntity
  8
001
100
AcDbText
 10
-17.952141
 20
71.404591
 30
0.0
 40
2.0
  1
1
 50
329.999989
 41
1.124999
100
AcDbText
  0
TEXT
  5
112
330
6B
100
AcDbEntity
  8
001
100
AcDbText
 10
-16.254957
 20
70.32050699999999
 30
0.0
 40
2.0
  1
A
 50
309.999993
 41
0.75
100
AcDbText
  0
TEXT
  5
113
330
6B
100
AcDbEntity
  8
001
100
AcDbText
 10
-17.056126
 20
70.936791
 30
0.0
 40
2.0
  1
5
 50
319.999991
 41
0.75
100
AcDbText
  0
TEXT
  5
114
330
6B
100
AcDbEntity
  8
001
100
AcDbText
 10
-19.932526
 20
71.858876
 30
0.0
 40
2.0
  1
A
 50
348.99999
 41
0.75
100
AcDbText
  0
TEXT
  5
115
330
6B
100
AcDbEntity
  8
001
100
AcDbText
 10
-20.927622
 20
71.79994499999998
 30
0.0
 40
2.0
  1
0
 50
359.999983
 41
0.9
100
AcDbText
  0
TEXT
  5
116
330
6B
100
AcDbEntity
  8
001
100
AcDbText
 10
-21.914705
 20
71.582353
 30
0.0
 40
2.0
  1
1
 50
9.999994
 41
1.124999
100
AcDbText
  0
TEXT
  5
117
330
6B
100
AcDbEntity
  8
001
100
AcDbText
 10
-25.14893900000001
 20
72.057079
 30
0.0
 40
2.0
  1
5
 50
225.99999
 41
0.75
100
AcDbText
  0
TEXT
  5
118
330
6B
100
AcDbEntity
  8
001
100
AcDbText
 10
-26.865215
 20
70.015084
 30
0.0
 40
2.0
  1
A
 50
243.999984
 41
0.75
100
AcDbText
  0
TEXT
  5
119
330
6B
100
AcDbEntity
  8
001
100
AcDbText
 10
-27.659384
 20
63.778463
 30
0.0
 40
2.0
  1
2
 50
294.999996
 41
0.75
100
AcDbText
  0
TEXT
  5
11A
330
6B
100
AcDbEntity
  8
001
100
AcDbText
 10
-26.440603
 20
61.443286
 30
0.0
 40
2.0
  1
A
 50
310.999987
 41
0.75
100
AcDbText
  0
TEXT
  5
11B
330
6B
100
AcDbEntity
  8
001
100
AcDbText
 10
-34.480761
 20
62.547683
 30
0.0
 40
1.6
  1
リセット
 50
270.000001
 41
0.651042
100
AcDbText
  0
TEXT
  5
11C
330
6B
100
AcDbEntity
  8
001
100
AcDbText
 10
-34.480761
 20
74.79768299999998
 30
0.0
 40
1.6
  1
ブザ－
 50
270.000001
 41
0.976562
100
AcDbText
  0
TEXT
  5
11D
330
6B
100
AcDbEntity
  8
001
100
AcDbText
 10
-27.145392
 20
62.600827
 30
0.0
 40
2.0
  1
5
 50
300.999989
 41
0.75
100
AcDbText
  0
LINE
  5
11E
330
6B
100
AcDbEntity
  8
001
100
AcDbLine
 10
-22.269496
 20
67.83503899999999
 30
0.0
 11
-17.585748
 21
65.130876
 31
0.0
  0
LINE
  5
11F
330
6B
100
AcDbEntity
  8
001
100
AcDbLine
 10
-22.592685
 20
66.86693199999999
 30
0.0
 11
-18.085748
 21
64.26484999999999
 31
0.0
  0
CIRCLE
  5
120
330
6B
100
AcDbEntity
  8
001
100
AcDbCircle
 10
-22.342685
 20
67.299945
 30
0.0
 40
0.5
  0
CIRCLE
  5
121
330
6B
100
AcDbEntity
  8
001
100
AcDbCircle
 10
-20.177622
 20
66.049945
 30
0.0
 40
3.5
  0
ARC
  5
122
330
6B
100
AcDbEntity
  8
001
100
AcDbCircle
 10
-20.177622
 20
66.049945
 30
0.0
 40
2.75
100
AcDbArc
 50
159.472872
 51
340.475682
  0
ARC
  5
123
330
6B
100
AcDbEntity
  8
001
100
AcDbCircle
 10
-20.177622
 20
66.049945
 30
0.0
 40
2.75
100
AcDbArc
 50
340.475682
 51
140.527128
  0
TEXT
  5
124
330
6B
100
AcDbEntity
  8
001
100
AcDbText
 10
-66.046301
 20
72.99794799999998
 30
0.0
 40
2.5
  1
電流コントロ－ル
 50
270.000001
 41
0.5887470000000004
100
AcDbText
  0
LINE
  5
125
330
6B
100
AcDbEntity
  8
001
100
AcDbLine
 10
-52.677337
 20
68.42494499999999
 30
0.0
 11
-52.677337
 21
70.024945
 31
0.0
  0
LINE
  5
126
330
6B
100
AcDbEntity
  8
001
100
AcDbLine
 10
-57.527337
 20
70.024945
 30
0.0
 11
-52.677337
 21
70.024945
 31
0.0
  0
LINE
  5
127
330
6B
100
AcDbEntity
  8
001
100
AcDbLine
 10
-52.927337
 20
69.774945
 30
0.0
 11
-52.677337
 21
70.024945
 31
0.0
  0
LINE
  5
128
330
6B
100
AcDbEntity
  8
001
100
AcDbLine
 10
-57.527337
 20
68.42494499999999
 30
0.0
 11
-57.527337
 21
70.024945
 31
0.0
  0
LINE
  5
129
330
6B
100
AcDbEntity
  8
001
100
AcDbLine
 10
-52.677337
 20
68.42494499999999
 30
0.0
 11
-57.527337
 21
68.42494499999999
 31
0.0
  0
LINE
  5
12A
330
6B
100
AcDbEntity
  8
001
100
AcDbLine
 10
-57.277337
 20
68.67494499999999
 30
0.0
 11
-57.527337
 21
68.42494499999999
 31
0.0
  0
LINE
  5
12B
330
6B
100
AcDbEntity
  8
001
100
AcDbLine
 10
-57.277337
 20
69.774945
 30
0.0
 11
-57.527337
 21
70.024945
 31
0.0
  0
LINE
  5
12C
330
6B
100
AcDbEntity
  8
001
100
AcDbLine
 10
-52.927337
 20
68.67494499999999
 30
0.0
 11
-52.677337
 21
68.42494499999999
 31
0.0
  0
LINE
  5
12D
330
6B
100
AcDbEntity
  8
001
100
AcDbLine
 10
-53.102337
 20
62.07494499999999
 30
0.0
 11
-53.102337
 21
63.67494499999999
 31
0.0
  0
LINE
  5
12E
330
6B
100
AcDbEntity
  8
001
100
AcDbLine
 10
-57.10233699999999
 20
63.67494499999999
 30
0.0
 11
-53.102337
 21
63.67494499999999
 31
0.0
  0
LINE
  5
12F
330
6B
100
AcDbEntity
  8
001
100
AcDbLine
 10
-53.35233699999999
 20
63.42494499999999
 30
0.0
 11
-53.102337
 21
63.67494499999999
 31
0.0
  0
LINE
  5
130
330
6B
100
AcDbEntity
  8
001
100
AcDbLine
 10
-57.10233699999999
 20
62.07494499999999
 30
0.0
 11
-57.10233699999999
 21
63.67494499999999
 31
0.0
  0
LINE
  5
131
330
6B
100
AcDbEntity
  8
001
100
AcDbLine
 10
-56.852337
 20
63.42494499999999
 30
0.0
 11
-57.10233699999999
 21
63.67494499999999
 31
0.0
  0
LINE
  5
132
330
6B
100
AcDbEntity
  8
001
100
AcDbLine
 10
-56.852337
 20
62.32494499999999
 30
0.0
 11
-57.10233699999999
 21
62.07494499999999
 31
0.0
  0
LINE
  5
133
330
6B
100
AcDbEntity
  8
001
100
AcDbLine
 10
-53.102337
 20
62.07494499999999
 30
0.0
 11
-57.10233699999999
 21
62.07494499999999
 31
0.0
  0
LINE
  5
134
330
6B
100
AcDbEntity
  8
001
100
AcDbLine
 10
-53.35233699999999
 20
62.32494499999999
 30
0.0
 11
-53.102337
 21
62.07494499999999
 31
0.0
  0
LINE
  5
135
330
6B
100
AcDbEntity
  8
001
100
AcDbLine
 10
-72.177337
 20
68.42494499999999
 30
0.0
 11
-72.177337
 21
70.024945
 31
0.0
  0
LINE
  5
136
330
6B
100
AcDbEntity
  8
001
100
AcDbLine
 10
-77.027337
 20
70.024945
 30
0.0
 11
-72.177337
 21
70.024945
 31
0.0
  0
LINE
  5
137
330
6B
100
AcDbEntity
  8
001
100
AcDbLine
 10
-77.027337
 20
68.42494499999999
 30
0.0
 11
-77.027337
 21
70.024945
 31
0.0
  0
LINE
  5
138
330
6B
100
AcDbEntity
  8
001
100
AcDbLine
 10
-76.777337
 20
69.774945
 30
0.0
 11
-77.027337
 21
70.024945
 31
0.0
  0
LINE
  5
139
330
6B
100
AcDbEntity
  8
001
100
AcDbLine
 10
-72.177337
 20
68.42494499999999
 30
0.0
 11
-77.027337
 21
68.42494499999999
 31
0.0
  0
LINE
  5
13A
330
6B
100
AcDbEntity
  8
001
100
AcDbLine
 10
-76.777337
 20
68.67494499999999
 30
0.0
 11
-77.027337
 21
68.42494499999999
 31
0.0
  0
LINE
  5
13B
330
6B
100
AcDbEntity
  8
001
100
AcDbLine
 10
-72.42733699999998
 20
68.67494499999999
 30
0.0
 11
-72.177337
 21
68.42494499999999
 31
0.0
  0
LINE
  5
13C
330
6B
100
AcDbEntity
  8
001
100
AcDbLine
 10
-72.42733699999998
 20
69.774945
 30
0.0
 11
-72.177337
 21
70.024945
 31
0.0
  0
LINE
  5
13D
330
6B
100
AcDbEntity
  8
001
100
AcDbLine
 10
-72.602337
 20
62.07494499999999
 30
0.0
 11
-72.602337
 21
63.67494499999999
 31
0.0
  0
LINE
  5
13E
330
6B
100
AcDbEntity
  8
001
100
AcDbLine
 10
-72.852337
 20
63.42494499999999
 30
0.0
 11
-72.602337
 21
63.67494499999999
 31
0.0
  0
LINE
  5
13F
330
6B
100
AcDbEntity
  8
001
100
AcDbLine
 10
-76.602337
 20
63.67494499999999
 30
0.0
 11
-72.602337
 21
63.67494499999999
 31
0.0
  0
LINE
  5
140
330
6B
100
AcDbEntity
  8
001
100
AcDbLine
 10
-76.602337
 20
62.07494499999999
 30
0.0
 11
-76.602337
 21
63.67494499999999
 31
0.0
  0
LINE
  5
141
330
6B
100
AcDbEntity
  8
001
100
AcDbLine
 10
-76.352337
 20
63.42494499999999
 30
0.0
 11
-76.602337
 21
63.67494499999999
 31
0.0
  0
LINE
  5
142
330
6B
100
AcDbEntity
  8
001
100
AcDbLine
 10
-76.352337
 20
62.32494499999999
 30
0.0
 11
-76.602337
 21
62.07494499999999
 31
0.0
  0
LINE
  5
143
330
6B
100
AcDbEntity
  8
001
100
AcDbLine
 10
-72.602337
 20
62.07494499999999
 30
0.0
 11
-76.602337
 21
62.07494499999999
 31
0.0
  0
LINE
  5
144
330
6B
100
AcDbEntity
  8
001
100
AcDbLine
 10
-72.852337
 20
62.32494499999999
 30
0.0
 11
-72.602337
 21
62.07494499999999
 31
0.0
  0
LINE
  5
145
330
6B
100
AcDbEntity
  8
001
100
AcDbLine
 10
48.096907
 20
88.50619499999998
 30
0.0
 11
48.096907
 21
95.84369499999999
 31
0.0
  0
LINE
  5
146
330
6B
100
AcDbEntity
  8
001
100
AcDbLine
 10
46.346907
 20
88.549945
 30
0.0
 11
46.346907
 21
95.79994499999999
 31
0.0
  0
LINE
  5
147
330
6B
100
AcDbEntity
  8
001
100
AcDbLine
 10
44.596907
 20
88.59369499999997
 30
0.0
 11
44.596907
 21
95.756195
 31
0.0
  0
LINE
  5
148
330
6B
100
AcDbEntity
  8
001
100
AcDbLine
 10
15.196713
 20
66.29994499999999
 30
0.0
 11
7.820827999999997
 21
66.29994499999999
 31
0.0
  0
LINE
  5
149
330
6B
100
AcDbEntity
  8
001
100
AcDbLine
 10
15.196713
 20
65.79994499999999
 30
0.0
 11
7.820827999999997
 21
65.79994499999999
 31
0.0
  0
LINE
  5
14A
330
6B
100
AcDbEntity
  8
001
100
AcDbLine
 10
-99.55505700000001
 20
66.29994499999999
 30
0.0
 11
-92.179172
 21
66.29994499999999
 31
0.0
  0
LINE
  5
14B
330
6B
100
AcDbEntity
  8
001
100
AcDbLine
 10
-99.55505700000001
 20
65.79994499999999
 30
0.0
 11
-92.179172
 21
65.79994499999999
 31
0.0
  0
LINE
  5
14C
330
6B
100
AcDbEntity
  8
001
100
AcDbLine
 10
-98.05505700000001
 20
70.632766
 30
0.0
 11
-98.05505700000001
 21
66.29994499999999
 31
0.0
  0
ARC
  5
14D
330
6B
100
AcDbEntity
  8
001
100
AcDbCircle
 10
-104.055057
 20
70.632766
 30
0.0
 40
6.0
100
AcDbArc
 50
0.0
 51
92.624097
  0
ARC
  5
14E
330
6B
100
AcDbEntity
  8
001
100
AcDbCircle
 10
-42.17917199999996
 20
-1279.450055
 30
0.0
 40
1357.5
100
AcDbArc
 50
92.624097
 51
93.204804
  0
ARC
  5
14F
330
6B
100
AcDbEntity
  8
001
100
AcDbCircle
 10
-117.679172
 20
68.937871
 30
0.0
 40
7.0
100
AcDbArc
 50
93.204804
 51
180.0
  0
LINE
  5
150
330
6B
100
AcDbEntity
  8
001
100
AcDbLine
 10
-124.679172
 20
68.937871
 30
0.0
 11
-124.679172
 21
63.162018
 31
0.0
  0
ARC
  5
151
330
6B
100
AcDbEntity
  8
001
100
AcDbCircle
 10
-117.679172
 20
63.162018
 30
0.0
 40
7.0
100
AcDbArc
 50
180.0
 51
266.795196
  0
ARC
  5
152
330
6B
100
AcDbEntity
  8
001
100
AcDbCircle
 10
-42.17917199999996
 20
1411.549945
 30
0.0
 40
1357.5
100
AcDbArc
 50
266.795196
 51
267.375903
  0
ARC
  5
153
330
6B
100
AcDbEntity
  8
001
100
AcDbCircle
 10
-104.055057
 20
61.467123
 30
0.0
 40
6.0
100
AcDbArc
 50
267.375903
 51
0.0
  0
LINE
  5
154
330
6B
100
AcDbEntity
  8
001
100
AcDbLine
 10
-98.05505700000001
 20
61.467123
 30
0.0
 11
-98.05505700000001
 21
65.79994499999999
 31
0.0
  0
ARC
  5
155
330
6B
100
AcDbEntity
  8
001
100
AcDbCircle
 10
19.696713
 20
61.467123
 30
0.0
 40
6.0
100
AcDbArc
 50
180.0
 51
272.624097
  0
LINE
  5
156
330
6B
100
AcDbEntity
  8
001
100
AcDbLine
 10
13.696713
 20
61.467123
 30
0.0
 11
13.696713
 21
65.79994499999999
 31
0.0
  0
LINE
  5
157
330
6B
100
AcDbEntity
  8
001
100
AcDbLine
 10
13.696713
 20
70.632766
 30
0.0
 11
13.696713
 21
66.29994499999999
 31
0.0
  0
ARC
  5
158
330
6B
100
AcDbEntity
  8
001
100
AcDbCircle
 10
19.696713
 20
70.632766
 30
0.0
 40
6.0
100
AcDbArc
 50
87.375903
 51
180.0
  0
ARC
  5
159
330
6B
100
AcDbEntity
  8
001
100
AcDbCircle
 10
-42.17917199999996
 20
-1279.450055
 30
0.0
 40
1357.5
100
AcDbArc
 50
86.79519599999997
 51
87.375903
  0
ARC
  5
15A
330
6B
100
AcDbEntity
  8
001
100
AcDbCircle
 10
33.32082800000002
 20
68.937871
 30
0.0
 40
7.0
100
AcDbArc
 50
0.0
 51
86.79519599999997
  0
LINE
  5
15B
330
6B
100
AcDbEntity
  8
001
100
AcDbLine
 10
40.320828
 20
68.937871
 30
0.0
 11
40.320828
 21
63.162018
 31
0.0
  0
ARC
  5
15C
330
6B
100
AcDbEntity
  8
001
100
AcDbCircle
 10
33.32082800000002
 20
63.162018
 30
0.0
 40
7.0
100
AcDbArc
 50
273.204804
 51
0.0
  0
ARC
  5
15D
330
6B
100
AcDbEntity
  8
001
100
AcDbCircle
 10
-42.17917199999996
 20
1411.549945
 30
0.0
 40
1357.5
100
AcDbArc
 50
272.624097
 51
273.204804
  0
TEXT
  5
15E
330
6B
100
AcDbEntity
  8
001
 62
     4
100
AcDbText
 10
-44.79529298432974
 20
-55.67694196347531
 30
0.0
 40
2.987745999999998
  1
注意銘板（安全上の注意）
 41
1.006473999999996
100
AcDbText
  0
TEXT
  5
15F
330
6B
100
AcDbEntity
  8
001
 62
     4
100
AcDbText
 10
-82.31267004991648
 20
-54.74126276925336
 30
0.0
 40
2.987745999999998
  1
型式銘板
 41
1.006473999999996
100
AcDbText
  0
LINE
  5
160
330
6B
100
AcDbEntity
  8
001
 62
     3
100
AcDbLine
 10
116.334944
 20
134.0
 30
0.0
 11
200.0
 21
134.0
 31
0.0
  0
TEXT
  5
161
330
6B
100
AcDbEntity
  8
001
 62
     3
100
AcDbText
 10
189.209944
 20
129.155
 30
0.0
 40
3.2
  1
担
  7
高3.2
100
AcDbText
  0
TEXT
  5
162
330
6B
100
AcDbEntity
  8
001
 62
     3
100
AcDbText
 10
196.097444
 20
129.155
 30
0.0
 40
3.2
  1
当
  7
高3.2
100
AcDbText
  0
TEXT
  5
163
330
6B
100
AcDbEntity
  8
001
 62
     3
100
AcDbText
 10
150.032102
 20
128.56203
 30
0.0
 40
3.2
  1
変更・追記内容
  7
高3.2
100
AcDbText
  0
LINE
  5
164
330
6B
100
AcDbEntity
  8
001
 62
     3
100
AcDbLine
 10
116.334944
 20
138.5
 30
0.0
 11
116.334944
 21
114.05
 31
0.0
  0
TEXT
  5
165
330
6B
100
AcDbEntity
  8
001
 62
     3
100
AcDbText
 10
120.8351701378121
 20
122.4634724040865
 30
0.0
 40
2.0
  1
1
  7
高2
100
AcDbText
  0
TEXT
  5
166
330
6B
100
AcDbEntity
  8
001
 62
     3
100
AcDbText
 10
120.4880979969994
 20
115.4305484959059
 30
0.0
 40
2.0
  1
2
  7
高2
100
AcDbText
  0
TEXT
  5
167
330
6B
100
AcDbEntity
  8
001
 62
     3
100
AcDbText
 10
129.293971
 20
128.610767
 30
0.0
 40
3.2
  1
日
  7
高3.2
100
AcDbText
  0
TEXT
  5
168
330
6B
100
AcDbEntity
  8
001
 62
     3
100
AcDbText
 10
138.170845
 20
128.610767
 30
0.0
 40
3.2
  1
付
  7
高3.2
100
AcDbText
  0
TEXT
  5
16A
330
6B
100
AcDbEntity
  8
001
 62
     3
100
AcDbText
 10
129.119735
 20
134.65
 30
0.0
 40
3.2
  1
図
  7
高3.2
100
AcDbText
  0
TEXT
  5
16B
330
6B
100
AcDbEntity
  8
001
 62
     3
100
AcDbText
 10
147.77563
 20
134.65
 30
0.0
 40
3.2
  1
面
  7
高3.2
100
AcDbText
  0
TEXT
  5
16C
330
6B
100
AcDbEntity
  8
001
 62
     3
100
AcDbText
 10
166.431525
 20
134.65
 30
0.0
 40
3.2
  1
略
  7
高3.2
100
AcDbText
  0
TEXT
  5
16D
330
6B
100
AcDbEntity
  8
001
 62
     3
100
AcDbText
 10
185.08742
 20
134.65
 30
0.0
 40
3.2
  1
歴
  7
高3.2
100
AcDbText
  0
TEXT
  5
16E
330
6B
100
AcDbEntity
  8
001
 62
     3
100
AcDbText
 10
116.937308
 20
129.075
 30
0.0
 40
3.2
  1
記
  7
高3.2
100
AcDbText
  0
TEXT
  5
16F
330
6B
100
AcDbEntity
  8
001
 62
     3
100
AcDbText
 10
123.190216
 20
129.075
 30
0.0
 40
3.2
  1
号
  7
高3.2
100
AcDbText
  0
LINE
  5
170
330
6B
100
AcDbEntity
  8
001
100
AcDbLine
 10
121.152649
 20
125.410755
 30
0.0
 11
119.252649
 21
122.119858
 31
0.0
  0
LINE
  5
171
330
6B
100
AcDbEntity
  8
001
100
AcDbLine
 10
121.152649
 20
125.410755
 30
0.0
 11
123.052649
 21
122.119858
 31
0.0
  0
LINE
  5
172
330
6B
100
AcDbEntity
  8
001
100
AcDbLine
 10
119.252649
 20
122.119858
 30
0.0
 11
123.052649
 21
122.119858
 31
0.0
  0
LINE
  5
173
330
6B
100
AcDbEntity
  8
001
100
AcDbLine
 10
121.152649
 20
118.554544
 30
0.0
 11
119.252649
 21
115.263648
 31
0.0
  0
LINE
  5
174
330
6B
100
AcDbEntity
  8
001
100
AcDbLine
 10
121.152649
 20
118.554544
 30
0.0
 11
123.052649
 21
115.263648
 31
0.0
  0
LINE
  5
175
330
6B
100
AcDbEntity
  8
001
100
AcDbLine
 10
119.252649
 20
115.263648
 30
0.0
 11
123.052649
 21
115.263648
 31
0.0
  0
LINE
  5
176
330
6B
100
AcDbEntity
  8
001
100
AcDbLine
 10
188.33742
 20
133.931737
 30
0.0
 11
188.33742
 21
114.05
 31
0.0
  0
LINE
  5
177
330
6B
100
AcDbEntity
  8
001
100
AcDbLine
 10
116.334944
 20
127.35
 30
0.0
 11
200.0
 21
127.35
 31
0.0
  0
LINE
  5
17A
330
6B
100
AcDbEntity
  8
001
100
AcDbLine
 10
200.0
 20
120.7
 30
0.0
 11
116.334944
 21
120.7
 31
0.0
  0
LINE
  5
17B
330
6B
100
AcDbEntity
  8
001
100
AcDbLine
 10
144.550596
 20
133.628457
 30
0.0
 11
144.550596
 21
114.05
 31
0.0
  0
LINE
  5
17C
330
6B
100
AcDbEntity
  8
001
100
AcDbLine
 10
126.440378
 20
134.0
 30
0.0
 11
126.440378
 21
114.05
 31
0.0
  0
ARC
  5
17D
330
6B
100
AcDbEntity
  8
001
 62
     3
100
AcDbCircle
 10
-42.17917199999996
 20
-1279.450055
 30
0.0
 40
1362.5
100
AcDbArc
 50
86.79519599999997
 51
93.204804
  0
LINE
  5
17E
330
6B
100
AcDbEntity
  8
001
 62
     3
100
AcDbLine
 10
-83.179172
 20
94.89994499999999
 30
0.0
 11
-1.179171999999998
 21
94.89994499999999
 31
0.0
  0
LINE
  5
17F
330
6B
100
AcDbEntity
  8
001
 62
     3
100
AcDbLine
 10
-83.179172
 20
89.44994499999998
 30
0.0
 11
-1.179171999999998
 21
89.44994499999998
 31
0.0
  0
ARC
  5
180
330
6B
100
AcDbEntity
  8
001
 62
     3
100
AcDbCircle
 10
-83.179172
 20
68.549945
 30
0.0
 40
26.35
100
AcDbArc
 50
90.0
 51
150.438902
  0
ARC
  5
181
330
6B
100
AcDbEntity
  8
001
 62
     3
100
AcDbCircle
 10
-83.179172
 20
68.549945
 30
0.0
 40
20.9
100
AcDbArc
 50
90.0
 51
140.471186
  0
ARC
  5
182
330
6B
100
AcDbEntity
  8
001
 62
     3
100
AcDbCircle
 10
-1.179171999999998
 20
68.549945
 30
0.0
 40
26.35
100
AcDbArc
 50
29.561098
 51
90.0
  0
ARC
  5
183
330
6B
100
AcDbEntity
  8
001
 62
     3
100
AcDbCircle
 10
-1.179171999999998
 20
68.549945
 30
0.0
 40
20.9
100
AcDbArc
 50
39.52881400000001
 51
90.0
  0
ARC
  5
184
330
6B
100
AcDbEntity
  8
001
 62
     3
100
AcDbCircle
 10
-1.179171999999998
 20
68.549945
 30
0.0
 40
15.45
100
AcDbArc
 50
62.03165899999999
 51
90.0
  0
LINE
  5
185
330
6B
100
AcDbEntity
  8
001
 62
     3
100
AcDbLine
 10
-83.179172
 20
83.999945
 30
0.0
 11
-1.179171999999998
 21
83.999945
 31
0.0
  0
ARC
  5
186
330
6B
100
AcDbEntity
  8
001
 62
     3
100
AcDbCircle
 10
-83.179172
 20
68.549945
 30
0.0
 40
15.45
100
AcDbArc
 50
90.0
 51
117.968341
  0
LINE
  5
187
330
6B
100
AcDbEntity
  8
001
 62
     3
100
AcDbLine
 10
-1.551044
 20
94.849597
 30
0.0
 11
41.346907
 21
94.849597
 31
0.0
  0
LINE
  5
188
330
6B
100
AcDbEntity
  8
001
 62
     3
100
AcDbLine
 10
14.900532
 20
89.424945
 30
0.0
 11
41.346907
 21
89.424945
 31
0.0
  0
ARC
  5
189
330
6B
100
AcDbEntity
  8
001
 62
     3
100
AcDbCircle
 10
33.32082800000002
 20
68.937871
 30
0.0
 40
12.0
100
AcDbArc
 50
0.0
 51
86.79519599999997
  0
LINE
  5
18A
330
6B
100
AcDbEntity
  8
001
 62
     3
100
AcDbLine
 10
45.320828
 20
68.937871
 30
0.0
 11
45.320828
 21
63.162018
 31
0.0
  0
ARC
  5
18B
330
6B
100
AcDbEntity
  8
001
 62
     3
100
AcDbCircle
 10
33.32082800000002
 20
63.162018
 30
0.0
 40
12.0
100
AcDbArc
 50
273.204804
 51
0.0
  0
ARC
  5
18C
330
6B
100
AcDbEntity
  8
001
 62
     3
100
AcDbCircle
 10
33.32082800000002
 20
68.937871
 30
0.0
 40
5.5
100
AcDbArc
 50
0.0
 51
86.79519599999997
  0
ARC
  5
18D
330
6B
100
AcDbEntity
  8
001
 62
     3
100
AcDbCircle
 10
-42.17917199999996
 20
-1279.450055
 30
0.0
 40
1356.0
100
AcDbArc
 50
86.79519599999997
 51
87.375903
  0
ARC
  5
18E
330
6B
100
AcDbEntity
  8
001
 62
     3
100
AcDbCircle
 10
-1.179171999999998
 20
63.549945
 30
0.0
 40
26.35
100
AcDbArc
 50
346.021671
 51
0.0
  0
LINE
  5
18F
330
6B
100
AcDbEntity
  8
001
 62
     3
100
AcDbLine
 10
25.170828
 20
68.549945
 30
0.0
 11
25.170828
 21
63.549945
 31
0.0
  0
ARC
  5
190
330
6B
100
AcDbEntity
  8
001
 62
     3
100
AcDbCircle
 10
-1.179171999999998
 20
68.549945
 30
0.0
 40
26.35
100
AcDbArc
 50
0.0
 51
13.978329
  0
ARC
  5
191
330
6B
100
AcDbEntity
  8
001
 62
     3
100
AcDbCircle
 10
-1.179171999999998
 20
68.549945
 30
0.0
 40
20.9
100
AcDbArc
 50
0.0
 51
18.032529
  0
LINE
  5
192
330
6B
100
AcDbEntity
  8
001
 62
     3
100
AcDbLine
 10
19.720828
 20
66.049945
 30
0.0
 11
19.720828
 21
68.549945
 31
0.0
  0
ARC
  5
193
330
6B
100
AcDbEntity
  8
001
 62
     3
100
AcDbCircle
 10
-1.179171999999998
 20
63.549945
 30
0.0
 40
20.9
100
AcDbArc
 50
341.967471
 51
0.0
  0
LINE
  5
194
330
6B
100
AcDbEntity
  8
001
 62
     3
100
AcDbLine
 10
15.196713
 20
61.467123
 30
0.0
 11
15.196713
 21
65.79994499999999
 31
0.0
  0
LINE
  5
195
330
6B
100
AcDbEntity
  8
001
 62
     3
100
AcDbLine
 10
15.196713
 20
70.632766
 30
0.0
 11
15.196713
 21
66.29994499999999
 31
0.0
  0
ARC
  5
196
330
6B
100
AcDbEntity
  8
001
 62
     3
100
AcDbCircle
 10
19.696713
 20
70.632766
 30
0.0
 40
4.5
100
AcDbArc
 50
87.375903
 51
180.0
  0
ARC
  5
197
330
6B
100
AcDbEntity
  8
001
 62
     3
100
AcDbCircle
 10
19.696713
 20
61.467123
 30
0.0
 40
4.5
100
AcDbArc
 50
180.0
 51
272.624097
  0
ARC
  5
198
330
6B
100
AcDbEntity
  8
001
 62
     3
100
AcDbCircle
 10
-42.17917199999996
 20
1411.549945
 30
0.0
 40
1356.0
100
AcDbArc
 50
272.624097
 51
273.204804
  0
LINE
  5
199
330
6B
100
AcDbEntity
  8
001
 62
     3
100
AcDbLine
 10
38.82082800000001
 20
68.937871
 30
0.0
 11
38.82082800000001
 21
63.162018
 31
0.0
  0
ARC
  5
19A
330
6B
100
AcDbEntity
  8
001
 62
     3
100
AcDbCircle
 10
33.32082800000002
 20
63.162018
 30
0.0
 40
5.5
100
AcDbArc
 50
273.204804
 51
0.0
  0
LINE
  5
19B
330
6B
100
AcDbEntity
  8
001
 62
     3
100
AcDbLine
 10
19.720828
 20
66.049945
 30
0.0
 11
19.720828
 21
63.549945
 31
0.0
  0
ARC
  5
19C
330
6B
100
AcDbEntity
  8
001
 62
     3
100
AcDbCircle
 10
-117.679172
 20
68.937871
 30
0.0
 40
12.0
100
AcDbArc
 50
93.204804
 51
180.0
  0
ARC
  5
19D
330
6B
100
AcDbEntity
  8
001
 62
     3
100
AcDbCircle
 10
-117.679172
 20
63.162018
 30
0.0
 40
12.0
100
AcDbArc
 50
180.0
 51
266.795196
  0
LINE
  5
19E
330
6B
100
AcDbEntity
  8
001
 62
     3
100
AcDbLine
 10
-129.679172
 20
68.937871
 30
0.0
 11
-129.679172
 21
63.162018
 31
0.0
  0
ARC
  5
19F
330
6B
100
AcDbEntity
  8
001
 62
     3
100
AcDbCircle
 10
-42.17917199999996
 20
1411.549945
 30
0.0
 40
1362.5
100
AcDbArc
 50
266.795196
 51
273.204804
  0
LINE
  5
1A0
330
6B
100
AcDbEntity
  8
001
 62
     3
100
AcDbLine
 10
-104.079172
 20
66.049945
 30
0.0
 11
-104.079172
 21
68.549945
 31
0.0
  0
ARC
  5
1A1
330
6B
100
AcDbEntity
  8
001
 62
     3
100
AcDbCircle
 10
-83.179172
 20
68.549945
 30
0.0
 40
20.9
100
AcDbArc
 50
161.967471
 51
180.0
  0
ARC
  5
1A2
330
6B
100
AcDbEntity
  8
001
 62
     3
100
AcDbCircle
 10
-83.179172
 20
68.549945
 30
0.0
 40
26.35
100
AcDbArc
 50
166.021671
 51
180.0
  0
ARC
  5
1A3
330
6B
100
AcDbEntity
  8
001
 62
     3
100
AcDbCircle
 10
-42.17917199999996
 20
-1279.450055
 30
0.0
 40
1356.0
100
AcDbArc
 50
92.624097
 51
93.204804
  0
ARC
  5
1A4
330
6B
100
AcDbEntity
  8
001
 62
     3
100
AcDbCircle
 10
-117.679172
 20
68.937871
 30
0.0
 40
5.5
100
AcDbArc
 50
93.204804
 51
180.0
  0
LINE
  5
1A5
330
6B
100
AcDbEntity
  8
001
 62
     3
100
AcDbLine
 10
-123.179172
 20
68.937871
 30
0.0
 11
-123.179172
 21
63.162018
 31
0.0
  0
ARC
  5
1A6
330
6B
100
AcDbEntity
  8
001
 62
     3
100
AcDbCircle
 10
-117.679172
 20
63.162018
 30
0.0
 40
5.5
100
AcDbArc
 50
180.0
 51
266.795196
  0
ARC
  5
1A7
330
6B
100
AcDbEntity
  8
001
 62
     3
100
AcDbCircle
 10
-42.17917199999996
 20
1411.549945
 30
0.0
 40
1356.0
100
AcDbArc
 50
266.795196
 51
267.375903
  0
ARC
  5
1A8
330
6B
100
AcDbEntity
  8
001
 62
     3
100
AcDbCircle
 10
-83.179172
 20
63.549945
 30
0.0
 40
20.9
100
AcDbArc
 50
180.0
 51
198.032529
  0
ARC
  5
1A9
330
6B
100
AcDbEntity
  8
001
 62
     3
100
AcDbCircle
 10
-83.179172
 20
63.549945
 30
0.0
 40
26.35
100
AcDbArc
 50
180.0
 51
193.978329
  0
LINE
  5
1AA
330
6B
100
AcDbEntity
  8
001
 62
     3
100
AcDbLine
 10
-109.529172
 20
66.049945
 30
0.0
 11
-109.529172
 21
63.549945
 31
0.0
  0
LINE
  5
1AB
330
6B
100
AcDbEntity
  8
001
 62
     3
100
AcDbLine
 10
-109.529172
 20
66.049945
 30
0.0
 11
-109.529172
 21
68.549945
 31
0.0
  0
LINE
  5
1AC
330
6B
100
AcDbEntity
  8
001
 62
     3
100
AcDbLine
 10
-104.079172
 20
66.049945
 30
0.0
 11
-104.079172
 21
63.549945
 31
0.0
  0
ARC
  5
1AD
330
6B
100
AcDbEntity
  8
001
 62
     3
100
AcDbCircle
 10
-104.055057
 20
70.632766
 30
0.0
 40
4.5
100
AcDbArc
 50
0.0
 51
92.624097
  0
LINE
  5
1AE
330
6B
100
AcDbEntity
  8
001
 62
     3
100
AcDbLine
 10
-99.55505700000001
 20
70.632766
 30
0.0
 11
-99.55505700000001
 21
66.29994499999999
 31
0.0
  0
LINE
  5
1AF
330
6B
100
AcDbEntity
  8
001
 62
     3
100
AcDbLine
 10
-99.55505700000001
 20
61.467123
 30
0.0
 11
-99.55505700000001
 21
65.79994499999999
 31
0.0
  0
ARC
  5
1B0
330
6B
100
AcDbEntity
  8
001
 62
     3
100
AcDbCircle
 10
-104.055057
 20
61.467123
 30
0.0
 40
4.5
100
AcDbArc
 50
267.375903
 51
0.0
  0
ARC
  5
1B1
330
6B
100
AcDbEntity
  8
001
 62
     3
100
AcDbCircle
 10
-83.179172
 20
63.549945
 30
0.0
 40
20.9
100
AcDbArc
 50
219.528814
 51
270.0
  0
ARC
  5
1B2
330
6B
100
AcDbEntity
  8
001
 62
     3
100
AcDbCircle
 10
-83.179172
 20
63.549945
 30
0.0
 40
26.35
100
AcDbArc
 50
209.561098
 51
270.0
  0
LINE
  5
1B3
330
6B
100
AcDbEntity
  8
001
 62
     3
100
AcDbLine
 10
-83.179172
 20
37.199945
 30
0.0
 11
-1.179171999999998
 21
37.199945
 31
0.0
  0
LINE
  5
1B4
330
6B
100
AcDbEntity
  8
001
 62
     3
100
AcDbLine
 10
-83.179172
 20
42.649945
 30
0.0
 11
-1.179171999999998
 21
42.649945
 31
0.0
  0
ARC
  5
1B5
330
6B
100
AcDbEntity
  8
001
 62
     3
100
AcDbCircle
 10
-1.179171999999998
 20
63.549945
 30
0.0
 40
26.35
100
AcDbArc
 50
270.0
 51
330.438902
  0
ARC
  5
1B6
330
6B
100
AcDbEntity
  8
001
 62
     3
100
AcDbCircle
 10
-1.179171999999998
 20
63.549945
 30
0.0
 40
20.9
100
AcDbArc
 50
270.0
 51
320.471186
  0
ARC
  5
1B7
330
6B
100
AcDbEntity
  8
001
 62
     3
100
AcDbCircle
 10
-1.179171999999998
 20
63.549945
 30
0.0
 40
15.45
100
AcDbArc
 50
270.0
 51
297.968341
  0
ARC
  5
1B8
330
6B
100
AcDbEntity
  8
001
 62
     3
100
AcDbCircle
 10
-74.42733699999998
 20
66.047539
 30
0.0
 40
8.5
100
AcDbArc
 50
36.018854
 51
146.954238
  0
ARC
  5
1B9
330
6B
100
AcDbEntity
  8
001
 62
     3
100
AcDbCircle
 10
-74.42733699999998
 20
66.047539
 30
0.0
 40
8.5
100
AcDbArc
 50
213.045762
 51
323.981146
  0
LINE
  5
1BA
330
6B
100
AcDbEntity
  8
001
 62
     3
100
AcDbLine
 10
-62.052337
 20
61.412415
 30
0.0
 11
-62.052337
 21
70.682664
 31
0.0
  0
ARC
  5
1BB
330
6B
100
AcDbEntity
  8
001
 62
     3
100
AcDbCircle
 10
-127.179172
 20
10.3003
 30
0.0
 40
2.5
100
AcDbArc
 50
94.472622
 51
180.0
  0
LINE
  5
1BC
330
6B
100
AcDbEntity
  8
001
 62
     3
100
AcDbLine
 10
-129.679172
 20
8.123507
 30
0.0
 11
-129.679172
 21
10.5103
 31
0.0
  0
ARC
  5
1BD
330
6B
100
AcDbEntity
  8
001
 62
     3
100
AcDbCircle
 10
-128.679172
 20
8.123507
 30
0.0
 40
1.0
100
AcDbArc
 50
180.0
 51
263.846458
  0
LINE
  5
1BE
330
6B
100
AcDbEntity
  8
001
 62
     3
100
AcDbLine
 10
-128.854565
 20
7.139008999999997
 30
0.0
 11
-124.679172
 21
6.688841
 31
0.0
  0
LINE
  5
1BF
330
6B
100
AcDbEntity
  8
001
 62
     3
100
AcDbLine
 10
-97.066882
 20
3.711837999999998
 30
0.0
 11
-124.679172
 21
6.688841
 31
0.0
  0
ARC
  5
1C0
330
6B
100
AcDbEntity
  8
001
 62
     3
100
AcDbCircle
 10
-98.17904400000001
 20
-1.162903
 30
0.0
 40
5.0
100
AcDbArc
 50
22.222703
 51
80.939486
  0
ARC
  5
1C1
330
6B
100
AcDbEntity
  8
001
 62
     3
100
AcDbCircle
 10
-72.17917199999998
 20
-30.218423
 30
0.0
 40
5.0
100
AcDbArc
 50
182.0583889999999
 51
270.0
  0
LINE
  5
1C2
330
6B
100
AcDbEntity
  8
001
 62
     3
100
AcDbLine
 10
13.696713
 20
3.818376999999999
 30
0.0
 11
44.496221
 21
7.139008999999997
 31
0.0
  0
ARC
  5
1C3
330
6B
100
AcDbEntity
  8
001
 62
     3
100
AcDbCircle
 10
44.320828
 20
8.123507
 30
0.0
 40
1.0
100
AcDbArc
 50
276.153542
 51
0.0
  0
LINE
  5
1C4
330
6B
100
AcDbEntity
  8
001
 62
     3
100
AcDbLine
 10
45.320828
 20
8.123507
 30
0.0
 11
45.320828
 21
10.5103
 31
0.0
  0
ARC
  5
1C5
330
6B
100
AcDbEntity
  8
001
 62
     3
100
AcDbCircle
 10
42.820828
 20
10.3003
 30
0.0
 40
2.5
100
AcDbArc
 50
0.0
 51
85.527378
  0
LINE
  5
1C6
330
6B
100
AcDbEntity
  8
001
 62
     3
100
AcDbLine
 10
0.033652
 20
2.345302
 30
0.0
 11
-0.161829
 21
2.345302
 31
0.0
  0
LINE
  5
1C7
330
6B
100
AcDbEntity
  8
001
 62
     3
100
AcDbLine
 10
13.284862
 20
3.773973999999998
 30
0.0
 11
13.696713
 21
3.818376999999999
 31
0.0
  0
LINE
  5
1C8
330
6B
100
AcDbEntity
  8
001
 62
     3
100
AcDbLine
 10
-54.05417199999998
 20
-42.157606
 30
0.0
 11
-54.05417199999998
 21
-42.657606
 31
0.0
  0
LINE
  5
1C9
330
6B
100
AcDbEntity
  8
001
 62
     3
100
AcDbLine
 10
-60.30417199999998
 20
-42.157606
 30
0.0
 11
-60.30417199999998
 21
-42.64337
 31
0.0
  0
LINE
  5
1CA
330
6B
100
AcDbEntity
  8
001
 62
     3
100
AcDbLine
 10
-60.932174
 20
-46.21842299999999
 30
0.0
 11
-67.17917199999999
 21
-46.21842299999999
 31
0.0
  0
ARC
  5
1CB
330
6B
100
AcDbEntity
  8
001
 62
     3
100
AcDbCircle
 10
-60.932174
 20
-44.965421
 30
0.0
 40
1.253001999999999
100
AcDbArc
 50
270.0
 51
25.149305
  0
LINE
  5
1CC
330
6B
100
AcDbEntity
  8
001
 62
     3
100
AcDbLine
 10
-59.797952
 20
-44.432922
 30
0.0
 11
-60.00793299999997
 21
-43.98566399999999
 31
0.0
  0
ARC
  5
1CD
330
6B
100
AcDbEntity
  8
001
 62
     3
100
AcDbCircle
 10
-57.17917199999998
 20
-42.657606
 30
0.0
 40
3.125
100
AcDbArc
 50
180.0
 51
205.149305
  0
ARC
  5
1CE
330
6B
100
AcDbEntity
  8
001
 62
     3
100
AcDbCircle
 10
-57.17917199999998
 20
-42.157606
 30
0.0
 40
3.125
100
AcDbArc
 50
0.0
 51
180.0
  0
LINE
  5
1CF
330
6B
100
AcDbEntity
  8
001
 62
     3
100
AcDbLine
 10
-54.56039200000001
 20
-44.432922
 30
0.0
 11
-54.350411
 21
-43.98566399999999
 31
0.0
  0
ARC
  5
1D0
330
6B
100
AcDbEntity
  8
001
 62
     3
100
AcDbCircle
 10
-57.17917199999998
 20
-42.657606
 30
0.0
 40
3.125
100
AcDbArc
 50
334.850695
 51
0.0
  0
ARC
  5
1D1
330
6B
100
AcDbEntity
  8
001
 62
     3
100
AcDbCircle
 10
-53.42616999999999
 20
-44.965421
 30
0.0
 40
1.253001999999999
100
AcDbArc
 50
154.850695
 51
270.0
  0
LINE
  5
1D2
330
6B
100
AcDbEntity
  8
001
 62
     3
100
AcDbLine
 10
-53.42616999999999
 20
-46.21842299999999
 30
0.0
 11
-42.17917199999996
 21
-46.21842299999999
 31
0.0
  0
LINE
  5
1D3
330
6B
100
AcDbEntity
  8
001
 62
     3
100
AcDbLine
 10
-30.932174
 20
-46.21842299999999
 30
0.0
 11
-42.17917199999996
 21
-46.21842299999999
 31
0.0
  0
ARC
  5
1D4
330
6B
100
AcDbEntity
  8
001
 62
     3
100
AcDbCircle
 10
-30.932174
 20
-44.965421
 30
0.0
 40
1.253001999999999
100
AcDbArc
 50
270.0
 51
25.149305
  0
LINE
  5
1D5
330
6B
100
AcDbEntity
  8
001
 62
     3
100
AcDbLine
 10
-29.797952
 20
-44.432922
 30
0.0
 11
-30.007933
 21
-43.98566399999999
 31
0.0
  0
ARC
  5
1D6
330
6B
100
AcDbEntity
  8
001
 62
     3
100
AcDbCircle
 10
-27.179172
 20
-42.657606
 30
0.0
 40
3.125
100
AcDbArc
 50
180.0
 51
205.149305
  0
ARC
  5
1D7
330
6B
100
AcDbEntity
  8
001
 62
     3
100
AcDbCircle
 10
-27.179172
 20
-42.157606
 30
0.0
 40
3.125
100
AcDbArc
 50
0.0
 51
180.0
  0
LINE
  5
1D8
330
6B
100
AcDbEntity
  8
001
 62
     3
100
AcDbLine
 10
-30.304172
 20
-42.157606
 30
0.0
 11
-30.304172
 21
-42.657606
 31
0.0
  0
ARC
  5
1D9
330
6B
100
AcDbEntity
  8
001
 62
     3
100
AcDbCircle
 10
-26.954172
 20
-43.184791
 30
0.0
 40
9.5
100
AcDbArc
 50
56.98890200000001
 51
86.49096
  0
LINE
  5
1DA
330
6B
100
AcDbEntity
  8
001
 62
     3
100
AcDbLine
 10
-30.979152
 20
-33.674379
 30
0.0
 11
-27.968443
 21
-33.674379
 31
0.0
  0
ARC
  5
1DB
330
6B
100
AcDbEntity
  8
001
 62
     3
100
AcDbCircle
 10
-27.40417199999999
 20
-43.15760599999999
 30
0.0
 40
9.5
100
AcDbArc
 50
86.59479899999999
 51
93.405201
  0
ARC
  5
1DC
330
6B
100
AcDbEntity
  8
001
 62
     3
100
AcDbCircle
 10
-30.979152
 20
-38.674379
 30
0.0
 40
5.0
100
AcDbArc
 50
90.0
 51
115.594768
  0
ARC
  5
1DD
330
6B
100
AcDbEntity
  8
001
 62
     3
100
AcDbCircle
 10
-42.17917199999996
 20
-15.292655
 30
0.0
 40
20.925768
100
AcDbArc
 50
270.684529
 51
295.594768
  0
ARC
  5
1DE
330
6B
100
AcDbEntity
  8
001
 62
     3
100
AcDbCircle
 10
-42.17917199999996
 20
-15.292655
 30
0.0
 40
20.925768
100
AcDbArc
 50
244.405232
 51
270.684529
  0
ARC
  5
1DF
330
6B
100
AcDbEntity
  8
001
 62
     3
100
AcDbCircle
 10
-53.379192
 20
-38.674379
 30
0.0
 40
5.0
100
AcDbArc
 50
64.405232
 51
90.0
  0
LINE
  5
1E0
330
6B
100
AcDbEntity
  8
001
 62
     3
100
AcDbLine
 10
-53.379192
 20
-33.674379
 30
0.0
 11
-56.389901
 21
-33.674379
 31
0.0
  0
ARC
  5
1E1
330
6B
100
AcDbEntity
  8
001
 62
     3
100
AcDbCircle
 10
-42.17917199999996
 20
-291.468423
 30
0.0
 40
258.25
100
AcDbArc
 50
93.405201
 51
93.50903999999999
  0
ARC
  5
1E2
330
6B
100
AcDbEntity
  8
001
 62
     3
100
AcDbCircle
 10
-56.954172
 20
-43.15760599999999
 30
0.0
 40
9.5
100
AcDbArc
 50
86.59479899999999
 51
93.405201
  0
ARC
  5
1E3
330
6B
100
AcDbEntity
  8
001
 62
     3
100
AcDbCircle
 10
-42.17917199999996
 20
-291.468423
 30
0.0
 40
258.25
100
AcDbArc
 50
86.49096
 51
86.59479899999999
  0
LINE
  5
1E4
330
6B
100
AcDbEntity
  8
001
 62
     3
100
AcDbLine
 10
-72.17917199999998
 20
-35.218423
 30
0.0
 11
-62.579786
 21
-35.218423
 31
0.0
  0
ARC
  5
1E5
330
6B
100
AcDbEntity
  8
001
 62
     3
100
AcDbCircle
 10
-57.40417199999999
 20
-43.184791
 30
0.0
 40
9.5
100
AcDbArc
 50
93.50903999999999
 51
123.011098
  0
ARC
  5
1E6
330
6B
100
AcDbEntity
  8
001
 62
     3
100
AcDbCircle
 10
-67.17917199999999
 20
-25.218423
 30
0.0
 40
21.0
100
AcDbArc
 50
248.13471
 51
270.0
  0
ARC
  5
1E7
330
6B
100
AcDbEntity
  8
001
 62
     3
100
AcDbCircle
 10
-79.67917199999998
 20
-43.71842299999999
 30
0.0
 40
2.5
100
AcDbArc
 50
270.0
 51
318.555703
  0
LINE
  5
1E8
330
6B
100
AcDbEntity
  8
001
 62
     3
100
AcDbLine
 10
-77.17917199999998
 20
-38.03246400000001
 30
0.0
 11
-77.17917199999998
 21
-43.71842299999999
 31
0.0
  0
ARC
  5
1E9
330
6B
100
AcDbEntity
  8
001
 62
     3
100
AcDbCircle
 10
-79.67917199999998
 20
-43.71842299999999
 30
0.0
 40
2.5
100
AcDbArc
 50
318.555703
 51
0.0
  0
ARC
  5
1EA
330
6B
100
AcDbEntity
  8
001
 62
     3
100
AcDbCircle
 10
-79.67917199999998
 20
-38.03246400000001
 30
0.0
 40
2.5
100
AcDbArc
 50
0.0
 51
90.0
  0
ARC
  5
1EB
330
6B
100
AcDbEntity
  8
001
 62
     3
100
AcDbCircle
 10
-75.931174
 20
-47.027881
 30
0.0
 40
2.5
100
AcDbArc
 50
68.13470999999998
 51
138.555703
  0
LINE
  5
1EC
330
6B
100
AcDbEntity
  8
001
 62
     3
100
AcDbLine
 10
-124.679172
 20
-40.114577
 30
0.0
 11
-100.555057
 21
-37.51365
 31
0.0
  0
LINE
  5
1ED
330
6B
100
AcDbEntity
  8
001
 62
     3
100
AcDbLine
 10
-128.854565
 20
-40.564745
 30
0.0
 11
-124.679172
 21
-40.114577
 31
0.0
  0
ARC
  5
1EE
330
6B
100
AcDbEntity
  8
001
 62
     3
100
AcDbCircle
 10
-127.179172
 20
-43.726036
 30
0.0
 40
2.5
100
AcDbArc
 50
180.0
 51
265.527378
  0
LINE
  5
1EF
330
6B
100
AcDbEntity
  8
001
 62
     3
100
AcDbLine
 10
-129.679172
 20
-41.549244
 30
0.0
 11
-129.679172
 21
-43.936036
 31
0.0
  0
ARC
  5
1F0
330
6B
100
AcDbEntity
  8
001
 62
     3
100
AcDbCircle
 10
-128.679172
 20
-41.549244
 30
0.0
 40
1.0
100
AcDbArc
 50
96.153542
 51
180.0
  0
LINE
  5
1F1
330
6B
100
AcDbEntity
  8
001
 62
     3
100
AcDbLine
 10
-79.67917199999998
 20
-46.21842299999999
 30
0.0
 11
-127.374129
 21
-46.21842299999999
 31
0.0
  0
LINE
  5
1F2
330
6B
100
AcDbEntity
  8
001
 62
     3
100
AcDbLine
 10
-100.555057
 20
-37.51365
 30
0.0
 11
-82.179172
 21
-35.53246400000001
 31
0.0
  0
LINE
  5
1F3
330
6B
100
AcDbEntity
  8
001
 62
     3
100
AcDbLine
 10
-12.179172
 20
-35.218423
 30
0.0
 11
-21.778558
 21
-35.218423
 31
0.0
  0
LINE
  5
1F4
330
6B
100
AcDbEntity
  8
001
 62
     3
100
AcDbLine
 10
-23.42617
 20
-46.21842299999999
 30
0.0
 11
-17.179172
 21
-46.21842299999999
 31
0.0
  0
LINE
  5
1F5
330
6B
100
AcDbEntity
  8
001
 62
     3
100
AcDbLine
 10
-24.054172
 20
-42.157606
 30
0.0
 11
-24.054172
 21
-42.64337
 31
0.0
  0
ARC
  5
1F6
330
6B
100
AcDbEntity
  8
001
 62
     3
100
AcDbCircle
 10
-23.42617
 20
-44.965421
 30
0.0
 40
1.253001999999999
100
AcDbArc
 50
154.850695
 51
270.0
  0
ARC
  5
1F7
330
6B
100
AcDbEntity
  8
001
 62
     3
100
AcDbCircle
 10
-27.179172
 20
-42.657606
 30
0.0
 40
3.125
100
AcDbArc
 50
334.850695
 51
0.0
  0
ARC
  5
1F8
330
6B
100
AcDbEntity
  8
001
 62
     3
100
AcDbCircle
 10
-12.179172
 20
-30.218423
 30
0.0
 40
5.0
100
AcDbArc
 50
270.0
 51
0.0
  0
ARC
  5
1F9
330
6B
100
AcDbEntity
  8
001
 62
     3
100
AcDbCircle
 10
-9.679171999999999
 20
-21.774379
 30
0.0
 40
2.5
100
AcDbArc
 50
0.0
 51
90.0
  0
LINE
  5
1FA
330
6B
100
AcDbEntity
  8
001
 62
     3
100
AcDbLine
 10
-4.679172
 20
-35.53246400000001
 30
0.0
 11
-2.179172
 21
-35.53246400000001
 31
0.0
  0
ARC
  5
1FB
330
6B
100
AcDbEntity
  8
001
 62
     3
100
AcDbCircle
 10
-4.679172
 20
-38.03246400000001
 30
0.0
 40
2.5
100
AcDbArc
 50
90.0
 51
180.0
  0
LINE
  5
1FC
330
6B
100
AcDbEntity
  8
001
 62
     3
100
AcDbLine
 10
-7.179172
 20
-38.03246400000001
 30
0.0
 11
-7.179172
 21
-43.71842299999999
 31
0.0
  0
ARC
  5
1FD
330
6B
100
AcDbEntity
  8
001
 62
     3
100
AcDbCircle
 10
-8.42717
 20
-47.027881
 30
0.0
 40
2.5
100
AcDbArc
 50
41.44429699999998
 51
111.86529
  0
ARC
  5
1FE
330
6B
100
AcDbEntity
  8
001
 62
     3
100
AcDbCircle
 10
-17.179172
 20
-25.218423
 30
0.0
 40
21.0
100
AcDbArc
 50
270.0
 51
291.86529
  0
ARC
  5
1FF
330
6B
100
AcDbEntity
  8
001
 62
     3
100
AcDbCircle
 10
-4.679172
 20
-43.71842299999999
 30
0.0
 40
2.5
100
AcDbArc
 50
180.0
 51
221.444297
  0
ARC
  5
200
330
6B
100
AcDbEntity
  8
001
 62
     3
100
AcDbCircle
 10
-4.679172
 20
-43.71842299999999
 30
0.0
 40
2.5
100
AcDbArc
 50
221.444297
 51
270.0
  0
LINE
  5
201
330
6B
100
AcDbEntity
  8
001
 62
     3
100
AcDbLine
 10
44.496221
 20
-40.564745
 30
0.0
 11
-2.179172
 21
-35.53246400000001
 31
0.0
  0
ARC
  5
202
330
6B
100
AcDbEntity
  8
001
 62
     3
100
AcDbCircle
 10
13.820828
 20
-32.228519
 30
0.0
 40
5.0
100
AcDbArc
 50
207.862336
 51
259.201681
  0
LINE
  5
203
330
6B
100
AcDbEntity
  8
001
 62
     3
100
AcDbLine
 10
43.015785
 20
-46.21842299999999
 30
0.0
 11
-4.679172
 21
-46.21842299999999
 31
0.0
  0
ARC
  5
204
330
6B
100
AcDbEntity
  8
001
 62
     3
100
AcDbCircle
 10
44.320828
 20
-41.549244
 30
0.0
 40
1.0
100
AcDbArc
 50
0.0
 51
83.84645799999999
  0
LINE
  5
205
330
6B
100
AcDbEntity
  8
001
 62
     3
100
AcDbLine
 10
45.320828
 20
-41.549244
 30
0.0
 11
45.320828
 21
-43.936036
 31
0.0
  0
ARC
  5
206
330
6B
100
AcDbEntity
  8
001
 62
     3
100
AcDbCircle
 10
42.820828
 20
-43.726036
 30
0.0
 40
2.5
100
AcDbArc
 50
274.472622
 51
0.0
  0
LINE
  5
207
330
6B
100
AcDbEntity
  8
001
 62
     3
100
AcDbLine
 10
-79.67917199999998
 20
-35.53246400000001
 30
0.0
 11
-82.179172
 21
-35.53246400000001
 31
0.0
  0
TEXT
  5
208
330
6B
100
AcDbEntity
  8
001
 62
     3
100
AcDbText
 10
116.180253
 20
-57.22211
 30
0.0
 40
4.5
  1
定格電流
  7
高4.5
100
AcDbText
  0
TEXT
  5
209
330
6B
100
AcDbEntity
  8
001
 62
     3
100
AcDbText
 10
164.818661
 20
-127.860541
 30
0.0
 40
3.2
  1
2000.6.15
  7
高3.2
100
AcDbText
  0
LINE
  5
20A
330
6B
100
AcDbEntity
  8
001
 62
     3
100
AcDbLine
 10
-30.691498
 20
2.345302
 30
0.0
 11
-94.61639099999999
 21
2.345302
 31
0.0
  0
ARC
  5
20B
330
6B
100
AcDbEntity
  8
001
 62
     3
100
AcDbCircle
 10
0.450237
 20
-28.002851
 30
0.0
 40
9.75563
100
AcDbArc
 50
141.448834
 51
210.287601
  0
LINE
  5
20C
330
6B
100
AcDbEntity
  8
001
 62
     3
100
AcDbLine
 10
43.015785
 20
12.792687
 30
0.0
 11
-127.374129
 21
12.792687
 31
0.0
  0
ARC
  5
20D
330
6B
100
AcDbEntity
  8
001
100
AcDbCircle
 10
126.505508
 20
9.150926
 30
0.0
 40
5.0
100
AcDbArc
 50
180.0
 51
256.189457
  0
ARC
  5
20E
330
6B
100
AcDbEntity
  8
001
100
AcDbCircle
 10
126.505508
 20
9.150926
 30
0.0
 40
6.5
100
AcDbArc
 50
180.0
 51
256.189457
  0
ARC
  5
20F
330
6B
100
AcDbEntity
  8
001
100
AcDbCircle
 10
162.005508
 20
9.148555999999999
 30
0.0
 40
6.5
100
AcDbArc
 50
283.859906
 51
0.0
  0
ARC
  5
210
330
6B
100
AcDbEntity
  8
001
100
AcDbCircle
 10
162.005508
 20
9.148555999999999
 30
0.0
 40
5.0
100
AcDbArc
 50
283.859906
 51
0.0
  0
LINE
  5
211
330
6B
100
AcDbEntity
  8
001
100
AcDbLine
 10
168.505508
 20
9.148555999999999
 30
0.0
 11
168.505508
 21
78.98338599999998
 31
0.0
  0
LINE
  5
212
330
6B
100
AcDbEntity
  8
001
100
AcDbLine
 10
167.005508
 20
78.98338599999998
 30
0.0
 11
167.005508
 21
9.148555999999999
 31
0.0
  0
ARC
  5
213
330
6B
100
AcDbEntity
  8
001
100
AcDbCircle
 10
126.505508
 20
78.98338599999998
 30
0.0
 40
6.5
100
AcDbArc
 50
90.0
 51
180.0
  0
LINE
  5
214
330
6B
100
AcDbEntity
  8
001
100
AcDbLine
 10
126.505508
 20
83.983386
 30
0.0
 11
162.005508
 21
83.983386
 31
0.0
  0
ARC
  5
215
330
6B
100
AcDbEntity
  8
001
100
AcDbCircle
 10
126.505508
 20
78.98338599999998
 30
0.0
 40
5.0
100
AcDbArc
 50
90.0
 51
180.0
  0
LINE
  5
216
330
6B
100
AcDbEntity
  8
001
100
AcDbLine
 10
126.505508
 20
85.48338599999999
 30
0.0
 11
162.005508
 21
85.48338599999999
 31
0.0
  0
ARC
  5
217
330
6B
100
AcDbEntity
  8
001
100
AcDbCircle
 10
162.005508
 20
78.98338599999998
 30
0.0
 40
6.5
100
AcDbArc
 50
0.0
 51
90.0
  0
ARC
  5
218
330
6B
100
AcDbEntity
  8
001
100
AcDbCircle
 10
162.005508
 20
78.98338599999998
 30
0.0
 40
5.0
100
AcDbArc
 50
0.0
 51
90.0
  0
LINE
  5
219
330
6B
100
AcDbEntity
  8
001
100
AcDbLine
 10
121.505508
 20
78.98338599999998
 30
0.0
 11
121.505508
 21
9.150926
 31
0.0
  0
TEXT
  5
21A
330
6B
100
AcDbEntity
  8
001
100
AcDbText
 10
149.235665
 20
70.390016
 30
0.0
 40
3.5
  1
電源
 41
0.952381
100
AcDbText
  0
TEXT
  5
21B
330
6B
100
AcDbEntity
  8
001
100
AcDbText
 10
135.236963
 20
70.38678199999998
 30
0.0
 40
3.5
  1
切
 41
0.833333
100
AcDbText
  0
TEXT
  5
21C
330
6B
100
AcDbEntity
  8
001
100
AcDbText
 10
154.548943
 20
47.329257
 30
0.0
 40
4.0
  1
A
 50
289.999997
 41
0.75
100
AcDbText
  0
TEXT
  5
21D
330
6B
100
AcDbEntity
  8
001
100
AcDbText
 10
153.448182
 20
48.81806199999999
 30
0.0
 40
4.0
  1
3
 50
304.999994
 41
0.75
100
AcDbText
  0
TEXT
  5
21E
330
6B
100
AcDbEntity
  8
001
100
AcDbText
 10
152.128781
 20
50.267427
 30
0.0
 40
4.0
  1
2
 50
315.999986
 41
0.75
100
AcDbText
  0
TEXT
  5
21F
330
6B
100
AcDbEntity
  8
001
100
AcDbText
 10
147.756156
 20
53.042953
 30
0.0
 40
4.0
  1
A
 50
334.999988
 41
0.75
100
AcDbText
  0
TEXT
  5
220
330
6B
100
AcDbEntity
  8
001
100
AcDbText
 10
145.838108
 20
53.41517099999999
 30
0.0
 40
4.0
  1
0
 50
347.000002
 41
0.9
100
AcDbText
  0
TEXT
  5
221
330
6B
100
AcDbEntity
  8
001
100
AcDbText
 10
143.93211
 20
53.435115
 30
0.0
 40
4.0
  1
2
 41
0.75
100
AcDbText
  0
TEXT
  5
222
330
6B
100
AcDbEntity
  8
001
100
AcDbText
 10
133.546216
 20
46.43744799999999
 30
0.0
 40
4.0
  1
1
 50
59.999995
 41
1.124999
100
AcDbText
  0
TEXT
  5
223
330
6B
100
AcDbEntity
  8
001
100
AcDbText
 10
135.714384
 20
49.83181599999999
 30
0.0
 40
4.0
  1
A
 50
39.999995
 41
0.75
100
AcDbText
  0
TEXT
  5
224
330
6B
100
AcDbEntity
  8
001
100
AcDbText
 10
134.481815
 20
48.229477
 30
0.0
 40
4.0
  1
5
 50
49.999997
 41
0.75
100
AcDbText
  0
TEXT
  5
225
330
6B
100
AcDbEntity
  8
001
100
AcDbText
 10
132.637644
 20
42.476678
 30
0.0
 40
4.0
  1
A
 50
78.99999699999998
 41
0.75
100
AcDbText
  0
TEXT
  5
226
330
6B
100
AcDbEntity
  8
001
100
AcDbText
 10
132.755508
 20
40.48648599999999
 30
0.0
 40
4.0
  1
0
 50
89.999996
 41
0.9
100
AcDbText
  0
TEXT
  5
227
330
6B
100
AcDbEntity
  8
001
100
AcDbText
 10
133.190691
 20
38.512321
 30
0.0
 40
4.0
  1
1
 50
99.999994
 41
1.124999
100
AcDbText
  0
TEXT
  5
228
330
6B
100
AcDbEntity
  8
001
100
AcDbText
 10
132.24124
 20
32.04385300000001
 30
0.0
 40
4.0
  1
5
 50
315.999986
 41
0.75
100
AcDbText
  0
TEXT
  5
229
330
6B
100
AcDbEntity
  8
001
100
AcDbText
 10
136.325228
 20
28.6113
 30
0.0
 40
4.0
  1
A
 50
333.999993
 41
0.75
100
AcDbText
  0
TEXT
  5
22A
330
6B
100
AcDbEntity
  8
001
100
AcDbText
 10
148.798472
 20
27.022961
 30
0.0
 40
4.0
  1
2
 50
24.99999
 41
0.75
100
AcDbText
  0
TEXT
  5
22B
330
6B
100
AcDbEntity
  8
001
100
AcDbText
 10
153.468825
 20
29.460524
 30
0.0
 40
4.0
  1
A
 50
40.999997
 41
0.75
100
AcDbText
  0
TEXT
  5
22C
330
6B
100
AcDbEntity
  8
001
100
AcDbText
 10
151.26003
 20
13.380208
 30
0.0
 40
3.2
  1
リセット
 41
0.651042
100
AcDbText
  0
TEXT
  5
22D
330
6B
100
AcDbEntity
  8
001
100
AcDbText
 10
126.76003
 20
13.380208
 30
0.0
 40
3.2
  1
ブザ－
 41
0.976562
100
AcDbText
  0
TEXT
  5
22E
330
6B
100
AcDbEntity
  8
001
100
AcDbText
 10
151.153743
 20
28.050945
 30
0.0
 40
4.0
  1
5
 50
30.999999
 41
0.75
100
AcDbText
  0
LINE
  5
22F
330
6B
100
AcDbEntity
  8
001
100
AcDbLine
 10
140.685319
 20
37.802738
 30
0.0
 11
146.093646
 21
47.17023499999998
 31
0.0
  0
LINE
  5
230
330
6B
100
AcDbEntity
  8
001
100
AcDbLine
 10
142.621533
 20
37.156359
 30
0.0
 11
147.825697
 21
46.170235
 31
0.0
  0
CIRCLE
  5
231
330
6B
100
AcDbEntity
  8
001
100
AcDbCircle
 10
141.755508
 20
37.656359
 30
0.0
 40
1.0
  0
CIRCLE
  5
232
330
6B
100
AcDbEntity
  8
001
100
AcDbCircle
 10
144.255508
 20
41.986486
 30
0.0
 40
7.0
  0
ARC
  5
233
330
6B
100
AcDbEntity
  8
001
100
AcDbCircle
 10
144.255508
 20
41.986486
 30
0.0
 40
5.5
100
AcDbArc
 50
249.472872
 51
70.47568199999997
  0
ARC
  5
234
330
6B
100
AcDbEntity
  8
001
100
AcDbCircle
 10
144.255508
 20
41.986486
 30
0.0
 40
5.5
100
AcDbArc
 50
70.47568199999997
 51
230.5271279999999
  0
LINE
  5
235
330
6B
100
AcDbEntity
  8
001
100
AcDbLine
 10
120.005508
 20
9.150926
 30
0.0
 11
120.005508
 21
78.98338599999998
 31
0.0
  0
LINE
  5
236
330
6B
100
AcDbEntity
  8
001
 62
     3
100
AcDbLine
 10
17.273575
 20
3.579295999999998
 30
0.0
 11
-101.163148
 21
0.532284
 31
0.0
  0
LINE
  5
237
330
6B
100
AcDbEntity
  8
001
 62
     3
100
AcDbLine
 10
17.245097
 20
-1.872025
 30
0.0
 11
-101.13467
 21
-4.919037
 31
0.0
  0
LINE
  5
238
330
6B
100
AcDbEntity
  8
001
 62
     3
100
AcDbLine
 10
17.245097
 20
-7.322025
 30
0.0
 11
-101.13467
 21
-10.369037
 31
0.0
  0
LINE
  5
239
330
6B
100
AcDbEntity
  8
001
 62
     3
100
AcDbLine
 10
17.24183
 20
-34.57466500000001
 30
0.0
 11
-3.850725
 21
-34.549375
 31
0.0
  0
LINE
  5
278
330
6B
100
AcDbEntity
  8
001
100
AcDbLine
 10
-13.488972
 20
-38.71642100000001
 30
0.0
 11
-17.026849
 21
-38.57131
 31
0.0
  0
LINE
  5
279
330
6B
100
AcDbEntity
  8
001
 62
     3
100
AcDbLine
 10
-2.15085
 20
-29.623905
 30
0.0
 11
17.245097
 21
-29.124667
 31
0.0
  0
LINE
  5
27A
330
6B
100
AcDbEntity
  8
001
 62
     3
100
AcDbLine
 10
-90.01743000000002
 20
-31.885529
 30
0.0
 11
-101.13467
 21
-32.171678
 31
0.0
  0
LINE
  5
27B
330
6B
100
AcDbEntity
  8
001
 62
     3
100
AcDbLine
 10
-2.618087
 20
-24.185931
 30
0.0
 11
17.245097
 21
-23.674667
 31
0.0
  0
LINE
  5
27C
330
6B
100
AcDbEntity
  8
001
 62
     3
100
AcDbLine
 10
-91.88057999999999
 20
-26.483485
 30
0.0
 11
-101.13467
 21
-26.721678
 31
0.0
  0
LINE
  5
27D
330
6B
100
AcDbEntity
  8
001
 62
     3
100
AcDbLine
 10
-5.515818
 20
-18.810009
 30
0.0
 11
17.245097
 21
-18.224667
 31
0.0
  0
LINE
  5
27E
330
6B
100
AcDbEntity
  8
001
 62
     3
100
AcDbLine
 10
-90.459537
 20
-20.994505
 30
0.0
 11
-101.13467
 21
-21.269037
 31
0.0
  0
LINE
  5
27F
330
6B
100
AcDbEntity
  8
001
 62
     3
100
AcDbLine
 10
-11.460492
 20
-13.510887
 30
0.0
 11
17.245097
 21
-12.772025
 31
0.0
  0
LINE
  5
280
330
6B
100
AcDbEntity
  8
001
 62
     3
100
AcDbLine
 10
-23.892322
 20
-13.830873
 30
0.0
 11
-101.13467
 21
-15.819037
 31
0.0
  0
LINE
  5
281
330
6B
100
AcDbEntity
  8
001
 62
     3
100
AcDbLine
 10
-83.629172
 20
-24.448013
 30
0.0
 11
-81.04983
 21
-24.448013
 31
0.0
  0
LINE
  5
282
330
6B
100
AcDbEntity
  8
001
 62
     3
100
AcDbLine
 10
-83.629172
 20
-30.398013
 30
0.0
 11
-81.04983
 21
-30.398013
 31
0.0
  0
LINE
  5
283
330
6B
100
AcDbEntity
  8
001
 62
     3
100
AcDbLine
 10
-90.124627
 20
-26.00743
 30
0.0
 11
-90.124627
 21
-20.424676
 31
0.0
  0
LINE
  5
284
330
6B
100
AcDbEntity
  8
001
 62
     3
100
AcDbLine
 10
-9.679171999999999
 20
-19.274379
 30
0.0
 11
-42.17917199999996
 21
-19.274379
 31
0.0
  0
LINE
  5
285
330
6B
100
AcDbEntity
  8
001
 62
     3
100
AcDbLine
 10
-42.17917199999996
 20
-19.274379
 30
0.0
 11
-74.67917199999998
 21
-19.274379
 31
0.0
  0
ARC
  5
286
330
6B
100
AcDbEntity
  8
001
 62
     3
100
AcDbCircle
 10
-74.67917199999998
 20
-21.774379
 30
0.0
 40
2.5
100
AcDbArc
 50
90.0
 51
180.0
  0
LINE
  5
287
330
6B
100
AcDbEntity
  8
001
 62
     3
100
AcDbLine
 10
-77.178453
 20
-21.714445
 30
0.0
 11
-77.178453
 21
-24.448013
 31
0.0
  0
LINE
  5
288
330
6B
100
AcDbEntity
  8
001
 62
     3
100
AcDbLine
 10
-7.179172
 20
-21.774379
 30
0.0
 11
-7.179172
 21
-30.218423
 31
0.0
  0
LINE
  5
289
330
6B
100
AcDbEntity
  8
001
  6
DASHED
100
AcDbLine
 10
-93.179172
 20
-32.228519
 30
0.0
 11
-93.179172
 21
-1.162903
 31
0.0
  0
ARC
  5
28A
330
6B
100
AcDbEntity
  8
001
  6
DASHED
100
AcDbCircle
 10
-98.179172
 20
-32.228519
 30
0.0
 40
5.0
100
AcDbArc
 50
276.153542
 51
0.0
  0
LINE
  5
28B
330
6B
100
AcDbEntity
  8
001
  6
DASHED
100
AcDbLine
 10
-93.55043999999999
 20
0.7281350000000001
 30
0.0
 11
-93.179172
 21
-1.162903
 31
0.0
  0
LINE
  5
28C
330
6B
100
AcDbEntity
  8
001
  6
DASHED
100
AcDbLine
 10
8.820828
 20
-1.197216999999997
 30
0.0
 11
8.820828
 21
-32.228519
 31
0.0
  0
ARC
  5
28D
330
6B
100
AcDbEntity
  8
001
  6
DASHED
100
AcDbCircle
 10
13.820828
 20
-1.197216999999997
 30
0.0
 40
5.0
100
AcDbArc
 50
100.798319
 51
180.0
  0
LINE
  5
28E
330
6B
100
AcDbEntity
  8
001
  6
DASHED
100
AcDbLine
 10
9.400463
 20
-34.565263
 30
0.0
 11
8.820828
 21
-32.228519
 31
0.0
  0
ARC
  5
28F
330
6B
100
AcDbEntity
  8
001
 62
     3
100
AcDbCircle
 10
17.245097
 20
-31.849667
 30
0.0
 40
2.725
100
AcDbArc
 50
269.931305
 51
92.94885499999999
  0
ARC
  5
290
330
6B
100
AcDbEntity
  8
001
 62
     3
100
AcDbCircle
 10
17.273575
 20
0.853635
 30
0.0
 40
2.725659999999998
100
AcDbArc
 50
269.489669
 51
92.94743800000002
  0
ARC
  5
291
330
6B
100
AcDbEntity
  8
001
 62
     3
100
AcDbCircle
 10
17.245097
 20
-4.597025
 30
0.0
 40
2.725
100
AcDbArc
 50
270.0
 51
92.94885499999999
  0
ARC
  5
292
330
6B
100
AcDbEntity
  8
001
 62
     3
100
AcDbCircle
 10
17.245097
 20
-10.047025
 30
0.0
 40
2.725
100
AcDbArc
 50
270.0
 51
92.94885499999999
  0
ARC
  5
293
330
6B
100
AcDbEntity
  8
001
 62
     3
100
AcDbCircle
 10
17.245097
 20
-20.949667
 30
0.0
 40
2.725
100
AcDbArc
 50
270.0
 51
92.94629999999999
  0
ARC
  5
294
330
6B
100
AcDbEntity
  8
001
 62
     3
100
AcDbCircle
 10
17.245097
 20
-26.399667
 30
0.0
 40
2.725
100
AcDbArc
 50
270.0
 51
92.94885499999999
  0
ARC
  5
295
330
6B
100
AcDbEntity
  8
001
 62
     3
100
AcDbCircle
 10
17.705546
 20
-15.540474
 30
0.0
 40
2.725
100
AcDbArc
 50
270.0
 51
92.94629999999999
  0
ARC
  5
296
330
6B
100
AcDbEntity
  8
001
 62
     3
100
AcDbCircle
 10
-101.13467
 20
-34.896678
 30
0.0
 40
2.725
100
AcDbArc
 50
90.0
 51
296.316366
  0
ARC
  5
297
330
6B
100
AcDbEntity
  8
001
 62
     3
100
AcDbCircle
 10
-101.163148
 20
-2.193376999999999
 30
0.0
 40
2.725659999999998
100
AcDbArc
 50
90.0
 51
272.113774
  0
ARC
  5
298
330
6B
100
AcDbEntity
  8
001
 62
     3
100
AcDbCircle
 10
-101.13467
 20
-7.644036999999999
 30
0.0
 40
2.725
100
AcDbArc
 50
90.0
 51
272.948855
  0
ARC
  5
299
330
6B
100
AcDbEntity
  8
001
 62
     3
100
AcDbCircle
 10
-101.13467
 20
-13.094037
 30
0.0
 40
2.725
100
AcDbArc
 50
90.0
 51
272.948855
  0
ARC
  5
29A
330
6B
100
AcDbEntity
  8
001
 62
     3
100
AcDbCircle
 10
-101.13467
 20
-18.544037
 30
0.0
 40
2.725
100
AcDbArc
 50
90.0
 51
272.9463
  0
ARC
  5
29B
330
6B
100
AcDbEntity
  8
001
 62
     3
100
AcDbCircle
 10
-101.13467
 20
-29.446678
 30
0.0
 40
2.725
100
AcDbArc
 50
90.0
 51
272.948855
  0
ARC
  5
29C
330
6B
100
AcDbEntity
  8
001
 62
     3
100
AcDbCircle
 10
-101.414382
 20
-23.996263
 30
0.0
 40
2.725
100
AcDbArc
 50
90.0
 51
272.9463
  0
LINE
  5
29D
330
6B
100
AcDbEntity
  8
001
100
AcDbLine
 10
75.096907
 20
95.82494500000001
 30
0.0
 11
75.096907
 21
95.07494499999999
 31
0.0
  0
LINE
  5
29E
330
6B
100
AcDbEntity
  8
001
100
AcDbLine
 10
75.096907
 20
88.524945
 30
0.0
 11
75.096907
 21
89.27494499999998
 31
0.0
  0
LINE
  5
29F
330
6B
100
AcDbEntity
  8
001
100
AcDbLine
 10
75.096907
 20
95.82494500000001
 30
0.0
 11
67.346907
 21
95.82494500000001
 31
0.0
  0
LINE
  5
2A0
330
6B
100
AcDbEntity
  8
001
100
AcDbLine
 10
75.096907
 20
95.07494499999999
 30
0.0
 11
67.346907
 21
95.07494499999999
 31
0.0
  0
LINE
  5
2A1
330
6B
100
AcDbEntity
  8
001
100
AcDbLine
 10
75.096907
 20
89.27494499999998
 30
0.0
 11
67.346907
 21
89.27494499999998
 31
0.0
  0
LINE
  5
2A2
330
6B
100
AcDbEntity
  8
001
100
AcDbLine
 10
75.096907
 20
88.524945
 30
0.0
 11
67.346907
 21
88.524945
 31
0.0
  0
LINE
  5
2A3
330
6B
100
AcDbEntity
  8
001
100
AcDbLine
 10
75.096907
 20
88.524945
 30
0.0
 11
75.846907
 21
88.64994499999998
 31
0.0
  0
LINE
  5
2A4
330
6B
100
AcDbEntity
  8
001
100
AcDbLine
 10
75.846907
 20
88.64994499999998
 30
0.0
 11
75.846907
 21
89.149945
 31
0.0
  0
LINE
  5
2A5
330
6B
100
AcDbEntity
  8
001
100
AcDbLine
 10
75.846907
 20
89.149945
 30
0.0
 11
75.096907
 21
89.27494499999998
 31
0.0
  0
LINE
  5
2A6
330
6B
100
AcDbEntity
  8
001
100
AcDbLine
 10
75.846907
 20
95.19994500000001
 30
0.0
 11
75.096907
 21
95.07494499999999
 31
0.0
  0
LINE
  5
2A7
330
6B
100
AcDbEntity
  8
001
100
AcDbLine
 10
75.846907
 20
95.69994499999999
 30
0.0
 11
75.846907
 21
95.19994500000001
 31
0.0
  0
LINE
  5
2A8
330
6B
100
AcDbEntity
  8
001
100
AcDbLine
 10
75.096907
 20
95.82494500000001
 30
0.0
 11
75.846907
 21
95.69994499999999
 31
0.0
  0
LINE
  5
2A9
330
6B
100
AcDbEntity
  8
001
100
AcDbLine
 10
66.846907
 20
100.674945
 30
0.0
 11
66.846907
 21
83.67494499999997
 31
0.0
  0
CIRCLE
  5
2AA
330
6B
100
AcDbEntity
  8
001
 62
     3
100
AcDbCircle
 10
144.255508
 20
9.236485999999999
 30
0.0
 40
4.0
  0
CIRCLE
  5
2AB
330
6B
100
AcDbEntity
  8
001
 62
     3
100
AcDbCircle
 10
156.258818
 20
23.435739
 30
0.0
 40
4.5
  0
CIRCLE
  5
2AC
330
6B
100
AcDbEntity
  8
001
 62
     3
100
AcDbCircle
 10
144.255508
 20
79.23648599999999
 30
0.0
 40
4.0
  0
LINE
  5
2AD
330
6B
100
AcDbEntity
  8
001
 62
     3
100
AcDbLine
 10
135.751163
 20
19.987976
 30
0.0
 11
127.751163
 21
19.987976
 31
0.0
  0
ARC
  5
2AE
330
6B
100
AcDbEntity
  8
001
 62
     3
100
AcDbCircle
 10
135.751163
 20
20.987976
 30
0.0
 40
1.0
100
AcDbArc
 50
270.0
 51
90.0
  0
LINE
  5
2AF
330
6B
100
AcDbEntity
  8
001
 62
     3
100
AcDbLine
 10
135.751163
 20
21.987976
 30
0.0
 11
127.751163
 21
21.987976
 31
0.0
  0
ARC
  5
2B0
330
6B
100
AcDbEntity
  8
001
 62
     3
100
AcDbCircle
 10
127.751163
 20
20.987976
 30
0.0
 40
1.0
100
AcDbArc
 50
90.0
 51
270.0
  0
LINE
  5
2B1
330
6B
100
AcDbEntity
  8
001
 62
     3
100
AcDbLine
 10
135.751163
 20
23.987976
 30
0.0
 11
127.751163
 21
23.987976
 31
0.0
  0
ARC
  5
2B2
330
6B
100
AcDbEntity
  8
001
 62
     3
100
AcDbCircle
 10
135.751163
 20
24.987976
 30
0.0
 40
1.0
100
AcDbArc
 50
270.0
 51
90.0
  0
LINE
  5
2B3
330
6B
100
AcDbEntity
  8
001
 62
     3
100
AcDbLine
 10
135.751163
 20
25.987976
 30
0.0
 11
127.751163
 21
25.987976
 31
0.0
  0
ARC
  5
2B4
330
6B
100
AcDbEntity
  8
001
 62
     3
100
AcDbCircle
 10
127.751163
 20
24.987976
 30
0.0
 40
1.0
100
AcDbArc
 50
90.0
 51
270.0
  0
LINE
  5
2B5
330
6B
100
AcDbEntity
  8
001
 62
     3
100
AcDbLine
 10
125.76003
 20
16.980208
 30
0.0
 11
137.76003
 21
16.980208
 31
0.0
  0
LINE
  5
2B6
330
6B
100
AcDbEntity
  8
001
 62
     3
100
AcDbLine
 10
137.76003
 20
16.980208
 30
0.0
 11
137.76003
 21
12.980208
 31
0.0
  0
LINE
  5
2B7
330
6B
100
AcDbEntity
  8
001
 62
     3
100
AcDbLine
 10
125.76003
 20
12.980208
 30
0.0
 11
137.76003
 21
12.980208
 31
0.0
  0
LINE
  5
2B8
330
6B
100
AcDbEntity
  8
001
 62
     3
100
AcDbLine
 10
125.76003
 20
16.980208
 30
0.0
 11
125.76003
 21
12.980208
 31
0.0
  0
LINE
  5
2B9
330
6B
100
AcDbEntity
  8
001
 62
     3
100
AcDbLine
 10
150.26003
 20
16.980208
 30
0.0
 11
150.26003
 21
12.980208
 31
0.0
  0
LINE
  5
2BA
330
6B
100
AcDbEntity
  8
001
 62
     3
100
AcDbLine
 10
150.26003
 20
16.980208
 30
0.0
 11
162.26003
 21
16.980208
 31
0.0
  0
LINE
  5
2BB
330
6B
100
AcDbEntity
  8
001
 62
     3
100
AcDbLine
 10
150.26003
 20
12.980208
 30
0.0
 11
162.26003
 21
12.980208
 31
0.0
  0
LINE
  5
2BC
330
6B
100
AcDbEntity
  8
001
 62
     3
100
AcDbLine
 10
162.26003
 20
16.980208
 30
0.0
 11
162.26003
 21
12.980208
 31
0.0
  0
LINE
  5
2BD
330
6B
100
AcDbEntity
  8
001
 62
     3
100
AcDbLine
 10
141.088265
 20
66.84931999999999
 30
0.0
 11
141.088265
 21
58.84932
 31
0.0
  0
LINE
  5
2BE
330
6B
100
AcDbEntity
  8
001
 62
     3
100
AcDbLine
 10
132.888265
 20
66.84931999999999
 30
0.0
 11
141.088265
 21
66.84931999999999
 31
0.0
  0
LINE
  5
2BF
330
6B
100
AcDbEntity
  8
001
 62
     3
100
AcDbLine
 10
132.888265
 20
66.84931999999999
 30
0.0
 11
132.888265
 21
58.84932
 31
0.0
  0
LINE
  5
2C0
330
6B
100
AcDbEntity
  8
001
 62
     3
100
AcDbLine
 10
132.888265
 20
58.84932
 30
0.0
 11
141.088265
 21
58.84932
 31
0.0
  0
LINE
  5
2C1
330
6B
100
AcDbEntity
  8
001
 62
     3
100
AcDbLine
 10
148.888265
 20
66.84931999999999
 30
0.0
 11
148.888265
 21
58.84932
 31
0.0
  0
LINE
  5
2C2
330
6B
100
AcDbEntity
  8
001
 62
     3
100
AcDbLine
 10
148.888265
 20
58.84932
 30
0.0
 11
157.0882649999999
 21
58.84932
 31
0.0
  0
LINE
  5
2C3
330
6B
100
AcDbEntity
  8
001
 62
     3
100
AcDbLine
 10
157.0882649999999
 20
66.84931999999999
 30
0.0
 11
157.0882649999999
 21
58.84932
 31
0.0
  0
LINE
  5
2C4
330
6B
100
AcDbEntity
  8
001
 62
     3
100
AcDbLine
 10
148.888265
 20
66.84931999999999
 30
0.0
 11
157.0882649999999
 21
66.84931999999999
 31
0.0
  0
LINE
  5
2C5
330
6B
100
AcDbEntity
  8
001
 62
     3
100
AcDbLine
 10
141.736963
 20
74.13678199999998
 30
0.0
 11
141.736963
 21
70.136782
 31
0.0
  0
LINE
  5
2C6
330
6B
100
AcDbEntity
  8
001
 62
     3
100
AcDbLine
 10
141.736963
 20
70.136782
 30
0.0
 11
132.236963
 21
70.136782
 31
0.0
  0
LINE
  5
2C7
330
6B
100
AcDbEntity
  8
001
 62
     3
100
AcDbLine
 10
132.236963
 20
74.13678199999998
 30
0.0
 11
132.236963
 21
70.136782
 31
0.0
  0
LINE
  5
2C8
330
6B
100
AcDbEntity
  8
001
 62
     3
100
AcDbLine
 10
141.736963
 20
74.13678199999998
 30
0.0
 11
132.236963
 21
74.13678199999998
 31
0.0
  0
LINE
  5
2C9
330
6B
100
AcDbEntity
  8
001
 62
     3
100
AcDbLine
 10
148.235665
 20
74.140016
 30
0.0
 11
148.235665
 21
70.140016
 31
0.0
  0
LINE
  5
2CA
330
6B
100
AcDbEntity
  8
001
 62
     3
100
AcDbLine
 10
157.735665
 20
70.140016
 30
0.0
 11
148.235665
 21
70.140016
 31
0.0
  0
LINE
  5
2CB
330
6B
100
AcDbEntity
  8
001
 62
     3
100
AcDbLine
 10
157.735665
 20
74.140016
 30
0.0
 11
148.235665
 21
74.140016
 31
0.0
  0
LINE
  5
2CC
330
6B
100
AcDbEntity
  8
001
 62
     3
100
AcDbLine
 10
157.735665
 20
74.140016
 30
0.0
 11
157.735665
 21
70.140016
 31
0.0
  0
LINE
  5
2CD
330
6B
100
AcDbEntity
  8
001
 62
     3
100
AcDbLine
 10
138.594813
 20
35.645624
 30
0.0
 11
136.865212
 21
33.175497
 31
0.0
  0
ARC
  5
2CE
330
6B
100
AcDbEntity
  8
001
 62
     3
100
AcDbCircle
 10
144.255508
 20
41.986486
 30
0.0
 40
11.5
100
AcDbArc
 50
230.011458
 51
239.988542
  0
LINE
  5
2CF
330
6B
100
AcDbEntity
  8
001
 62
     3
100
AcDbLine
 10
138.503516
 20
32.028344
 30
0.0
 11
141.100806
 21
35.737658
 31
0.0
  0
ARC
  5
2D0
330
6B
100
AcDbEntity
  8
001
 62
     3
100
AcDbCircle
 10
144.255508
 20
41.986486
 30
0.0
 40
8.5
100
AcDbArc
 50
186.7563269999999
 51
228.243673
  0
LINE
  5
2D1
330
6B
100
AcDbEntity
  8
001
 62
     3
100
AcDbLine
 10
137.146561
 20
46.646194
 30
0.0
 11
134.836579
 21
48.584499
 31
0.0
  0
ARC
  5
2D2
330
6B
100
AcDbEntity
  8
001
 62
     3
100
AcDbCircle
 10
144.255508
 20
41.986486
 30
0.0
 40
8.5
100
AcDbArc
 50
146.756327
 51
173.243673
  0
LINE
  5
2D3
330
6B
100
AcDbEntity
  8
001
 62
     3
100
AcDbLine
 10
135.814536
 20
42.98648599999999
 30
0.0
 11
132.799069
 21
42.98648599999999
 31
0.0
  0
ARC
  5
2D4
330
6B
100
AcDbEntity
  8
001
 62
     3
100
AcDbCircle
 10
144.255508
 20
41.986486
 30
0.0
 40
11.5
100
AcDbArc
 50
175.011458
 51
184.988542
  0
LINE
  5
2D5
330
6B
100
AcDbEntity
  8
001
 62
     3
100
AcDbLine
 10
135.814536
 20
40.98648599999999
 30
0.0
 11
132.799069
 21
40.98648599999999
 31
0.0
  0
ARC
  5
2D6
330
6B
100
AcDbEntity
  8
001
 62
     3
100
AcDbCircle
 10
144.255508
 20
41.986486
 30
0.0
 40
11.5
100
AcDbArc
 50
135.011458
 51
144.988542
  0
LINE
  5
2D7
330
6B
100
AcDbEntity
  8
001
 62
     3
100
AcDbLine
 10
138.432136
 20
48.178283
 30
0.0
 11
136.122154
 21
50.116588
 31
0.0
  0
LINE
  5
2D8
330
6B
100
AcDbEntity
  8
001
 62
     3
100
AcDbLine
 10
145.474266
 20
50.39865800000001
 30
0.0
 11
146.254727
 21
53.311376
 31
0.0
  0
LINE
  5
2D9
330
6B
100
AcDbEntity
  8
001
 62
     3
100
AcDbLine
 10
147.406118
 20
49.88102
 30
0.0
 11
148.186578
 21
52.793738
 31
0.0
  0
ARC
  5
2DA
330
6B
100
AcDbEntity
  8
001
 62
     3
100
AcDbCircle
 10
144.255508
 20
41.986486
 30
0.0
 40
11.5
100
AcDbArc
 50
70.01145799999999
 51
79.98854200000002
  0
LINE
  5
2DB
330
6B
100
AcDbEntity
  8
001
 62
     3
100
AcDbLine
 10
153.677075
 20
48.580731
 30
0.0
 11
151.065604
 21
47.072998
 31
0.0
  0
LINE
  5
2DC
330
6B
100
AcDbEntity
  8
001
 62
     3
100
AcDbLine
 10
154.677075
 20
46.848681
 30
0.0
 11
152.065604
 21
45.34094699999999
 31
0.0
  0
ARC
  5
2DD
330
6B
100
AcDbEntity
  8
001
 62
     3
100
AcDbCircle
 10
144.255508
 20
41.986486
 30
0.0
 40
8.5
100
AcDbArc
 50
36.756327
 51
68.243673
  0
ARC
  5
2DE
330
6B
100
AcDbEntity
  8
001
 62
     3
100
AcDbCircle
 10
144.255508
 20
41.986486
 30
0.0
 40
8.5
100
AcDbArc
 50
308.756327
 51
23.243673
  0
ARC
  5
2DF
330
6B
100
AcDbEntity
  8
001
 62
     3
100
AcDbCircle
 10
144.255508
 20
41.986486
 30
0.0
 40
11.5
100
AcDbArc
 50
25.011458
 51
34.988542
  0
ARC
  5
2E0
330
6B
100
AcDbEntity
  8
001
 62
     3
100
AcDbCircle
 10
144.255508
 20
41.986486
 30
0.0
 40
8.5
100
AcDbArc
 50
81.75632699999999
 51
133.243673
  0
LINE
  5
2E1
330
6B
100
AcDbEntity
  8
001
 62
     3
100
AcDbLine
 10
147.880493
 20
34.298217
 30
0.0
 11
149.478448
 21
31.740956
 31
0.0
  0
LINE
  5
2E2
330
6B
100
AcDbEntity
  8
001
 62
     3
100
AcDbLine
 10
147.078848
 20
35.581118
 30
0.0
 11
147.880493
 21
34.298217
 31
0.0
  0
LINE
  5
2E3
330
6B
100
AcDbEntity
  8
001
 62
     3
100
AcDbLine
 10
149.576589
 20
35.358056
 30
0.0
 11
151.174544
 21
32.800794
 31
0.0
  0
ARC
  5
2E4
330
6B
100
AcDbEntity
  8
001
 62
     3
100
AcDbCircle
 10
144.255508
 20
41.986486
 30
0.0
 40
11.5
100
AcDbArc
 50
297.011458
 51
306.988542
  0
LINE
  5
2FC
330
6B
100
AcDbEntity
  8
001
 62
     3
100
AcDbLine
 10
145.897671
 20
7.594322999999997
 30
0.0
 11
142.613344
 21
10.87865
 31
0.0
  0
LINE
  5
2FD
330
6B
100
AcDbEntity
  8
001
 62
     3
100
AcDbLine
 10
142.613344
 20
7.594322999999997
 30
0.0
 11
145.897671
 21
10.87865
 31
0.0
  0
LINE
  5
2FE
330
6B
100
AcDbEntity
  8
001
 62
     3
100
AcDbLine
 10
145.897671
 20
80.87864999999998
 30
0.0
 11
142.613344
 21
77.594323
 31
0.0
  0
LINE
  5
2FF
330
6B
100
AcDbEntity
  8
001
 62
     3
100
AcDbLine
 10
142.613344
 20
80.87864999999998
 30
0.0
 11
145.897671
 21
77.594323
 31
0.0
  0
LINE
  5
300
330
6B
100
AcDbEntity
  8
001
100
AcDbLine
 10
-45.00963699999998
 20
-56.488768
 30
0.0
 11
-1.996249
 21
-56.488768
 31
0.0
  0
LINE
  5
301
330
6B
100
AcDbEntity
  8
001
100
AcDbLine
 10
-68.040285
 20
-55.356839
 30
0.0
 11
-84.26939799999997
 21
-55.356839
 31
0.0
  0
LINE
  5
307
330
6B
100
AcDbEntity
  8
001
100
AcDbLine
 10
2.534199
 20
-47.91268699999998
 30
0.0
 11
-1.996249
 21
-56.488768
 31
0.0
  0
LINE
  5
30D
330
6B
100
AcDbEntity
  8
001
100
AcDbLine
 10
-88.369488
 20
-48.132826
 30
0.0
 11
-84.26939799999997
 21
-55.356839
 31
0.0
  0
TEXT
  5
30E
330
6B
100
AcDbEntity
  8
001
 62
     7
100
AcDbText
 10
127.8294529168545
 20
121.7095275557133
 30
0.0
 40
2.5
  1
07.6.11
  7
高2.5
100
AcDbText
  0
TEXT
  5
30F
330
6B
100
AcDbEntity
  8
001
 62
     7
100
AcDbText
 10
145.9396709168545
 20
121.7095275557133
 30
0.0
 40
2.5
  1
明工社製コンセントに変更
  7
高2.5
100
AcDbText
  0
TEXT
  5
310
330
6B
100
AcDbEntity
  8
001
 62
     7
100
AcDbText
 10
191.5277839168545
 20
121.7095275557133
 30
0.0
 40
2.5
  1
牧田
  7
高2.5
100
AcDbText
  0
CIRCLE
  5
311
330
6B
100
AcDbEntity
  8
001
100
AcDbCircle
 10
156.258818
 20
23.435739
 30
0.0
 40
3.618279
  0
LINE
  5
312
330
6B
100
AcDbEntity
  8
001
 62
     3
100
AcDbLine
 10
112.362054
 20
-40.97258899999999
 30
0.0
 11
178.877216
 21
-40.97258899999999
 31
0.0
  0
LINE
  5
313
330
6B
100
AcDbEntity
  8
001
 62
     3
100
AcDbLine
 10
178.877216
 20
-40.97258899999999
 30
0.0
 11
178.877216
 21
-67.049555
 31
0.0
  0
LINE
  5
314
330
6B
100
AcDbEntity
  8
001
 62
     3
100
AcDbLine
 10
112.362054
 20
-40.97258899999999
 30
0.0
 11
112.362054
 21
-67.049555
 31
0.0
  0
LINE
  5
315
330
6B
100
AcDbEntity
  8
001
 62
     3
100
AcDbLine
 10
112.362054
 20
-67.049555
 30
0.0
 11
178.877216
 21
-67.049555
 31
0.0
  0
TEXT
  5
316
330
6B
100
AcDbEntity
  8
001
 62
     3
100
AcDbText
 10
116.066875
 20
-65.40153100000001
 30
0.0
 40
4.5
  1
設定範囲
  7
高4.5
100
AcDbText
  0
TEXT
  5
317
330
6B
100
AcDbEntity
  8
001
 62
     3
100
AcDbText
 10
144.561439
 20
-65.662023
 30
0.0
 40
4.5
  1
5A～25A
  7
高4.5
100
AcDbText
  0
LINE
  5
318
330
6B
100
AcDbEntity
  8
001
100
AcDbLine
 10
112.362054
 20
-58.35723299999999
 30
0.0
 11
178.877216
 21
-58.35723299999999
 31
0.0
  0
LINE
  5
319
330
6B
100
AcDbEntity
  8
001
100
AcDbLine
 10
139.572802
 20
-40.97258899999999
 30
0.0
 11
139.572802
 21
-67.049555
 31
0.0
  0
LINE
  5
31A
330
6B
100
AcDbEntity
  8
001
100
AcDbLine
 10
112.362054
 20
-49.66491099999998
 30
0.0
 11
178.877216
 21
-49.66491099999998
 31
0.0
  0
TEXT
  5
31B
330
6B
100
AcDbEntity
  8
001
 62
     3
100
AcDbText
 10
108.066309
 20
-114.017766
 30
0.0
 40
4.5
  1
HRC-032
  7
高4.5
100
AcDbText
  0
TEXT
  5
31C
330
6B
100
AcDbEntity
  8
001
 62
     3
100
AcDbText
 10
152.8055645536633
 20
-136.986291
 30
0.0
 40
6.299999999999998
  1
HRC-032
  7
高6.3
100
AcDbText
  0
LINE
  5
31D
330
6B
100
AcDbEntity
  8
001
 62
     3
100
AcDbLine
 10
41.346907
 20
96.79932800000001
 30
0.0
 11
41.346907
 21
87.475213
 31
0.0
  0
LINE
  5
31E
330
6B
100
AcDbEntity
  8
001
 62
     3
100
AcDbLine
 10
41.346907
 20
96.79932800000001
 30
0.0
 11
43.79119099999999
 21
96.79932800000001
 31
0.0
  0
LINE
  5
31F
330
6B
100
AcDbEntity
  8
001
 62
     3
100
AcDbLine
 10
41.346907
 20
87.475213
 30
0.0
 11
43.79119099999999
 21
87.475213
 31
0.0
  0
LINE
  5
320
330
6B
100
AcDbEntity
  8
001
 62
     3
100
AcDbLine
 10
67.346907
 20
100.674945
 30
0.0
 11
61.54354300000001
 21
100.674945
 31
0.0
  0
LINE
  5
321
330
6B
100
AcDbEntity
  8
001
 62
     3
100
AcDbLine
 10
67.346907
 20
83.67494499999997
 30
0.0
 11
61.54354300000001
 21
83.67494499999997
 31
0.0
  0
ARC
  5
322
330
6B
100
AcDbEntity
  8
001
 62
     3
100
AcDbCircle
 10
48.297744
 20
118.752299
 30
0.0
 40
22.410755
100
AcDbArc
 50
258.39936
 51
306.231309
  0
ARC
  5
323
330
6B
100
AcDbEntity
  8
001
 62
     3
100
AcDbCircle
 10
48.297744
 20
65.52224200000001
 30
0.0
 40
22.410755
100
AcDbArc
 50
53.768691
 51
101.60064
  0
TEXT
  5
324
330
6B
100
AcDbEntity
  8
001
 62
     3
100
AcDbText
 10
126.822078
 20
-14.01011
 30
0.0
 40
4.5
  1
コントロールパネル
  7
高4.5
100
AcDbText
  0
LINE
  5
325
330
6B
100
AcDbEntity
  8
001
100
AcDbLine
 10
126.822078
 20
-14.94038753042639
 30
0.0
 11
174.2752862379964
 21
-14.94038753042639
 31
0.0
  0
TEXT
  5
326
330
6B
100
AcDbEntity
  8
001
 62
     3
100
AcDbText
 10
116.216844
 20
-48.745224
 30
0.0
 40
4.5
  1
定格電圧
  7
高4.5
100
AcDbText
  0
TEXT
  5
327
330
6B
100
AcDbEntity
  8
001
 62
     3
100
AcDbText
 10
102.266851
 20
-94.029989
 30
0.0
 40
4.5
  1
2Pタイプ
  7
高4.5
100
AcDbText
  0
TEXT
  5
328
330
6B
100
AcDbEntity
  8
001
 62
     3
100
AcDbText
 10
108.614409
 20
-76.08223999999998
 30
0.0
 40
4.5
  1
（定格電流　電線全引出し時15A）
  7
高4.5
100
AcDbText
  0
LINE
  5
329
330
6B
100
AcDbEntity
  8
001
 62
     3
100
AcDbLine
 10
-202.401924
 20
0.0
 30
0.0
 11
-205.0
 21
-1.5
 31
0.0
  0
LINE
  5
32A
330
6B
100
AcDbEntity
  8
001
 62
     3
100
AcDbLine
 10
-202.401924
 20
0.0
 30
0.0
 11
-205.0
 21
1.5
 31
0.0
  0
LINE
  5
32B
330
6B
100
AcDbEntity
  8
001
 62
     3
100
AcDbLine
 10
-205.0
 20
-1.5
 30
0.0
 11
-205.0
 21
1.5
 31
0.0
  0
LINE
  5
331
330
6B
100
AcDbEntity
  8
001
100
AcDbLine
 10
-113.892148
 20
78.129524
 30
0.0
 11
-103.146958
 21
106.038734
 31
0.0
  0
CIRCLE
  5
332
330
6B
100
AcDbEntity
  8
001
100
AcDbCircle
 10
-100.991182
 20
111.638076
 30
0.0
 40
6.0
  0
TEXT
  5
333
330
6B
100
AcDbEntity
  8
001
 62
     4
100
AcDbText
 10
-102.108538924921
 20
108.6162557689114
 30
0.0
 40
6.299999999999998
  1
1
  7
高6.3
100
AcDbText
  0
LINE
  5
339
330
6B
100
AcDbEntity
  8
001
100
AcDbLine
 10
-82.404454
 20
73.95310600000001
 30
0.0
 11
-70.120541
 21
106.034779
 31
0.0
  0
CIRCLE
  5
33A
330
6B
100
AcDbEntity
  8
001
100
AcDbCircle
 10
-67.975066
 20
111.638076
 30
0.0
 40
6.0
  0
TEXT
  5
33B
330
6B
100
AcDbEntity
  8
001
 62
     4
100
AcDbText
 10
-70.21521632086524
 20
108.446729700679
 30
0.0
 40
6.299999999999998
  1
2
  7
高6.3
100
AcDbText
  0
LINE
  5
341
330
6B
100
AcDbEntity
  8
001
100
AcDbLine
 10
-53.523199
 20
73.45444
 30
0.0
 11
-42.32957299999998
 21
105.96493
 31
0.0
  0
CIRCLE
  5
342
330
6B
100
AcDbEntity
  8
001
100
AcDbCircle
 10
-40.376263
 20
111.638076
 30
0.0
 40
6.0
  0
TEXT
  5
343
330
6B
100
AcDbEntity
  8
001
 62
     4
100
AcDbText
 10
-42.96571428020934
 20
108.4476495235715
 30
0.0
 40
6.299999999999998
  1
3
  7
高6.3
100
AcDbText
  0
LINE
  5
349
330
6B
100
AcDbEntity
  8
001
100
AcDbLine
 10
-21.447313
 20
92.31041799999999
 30
0.0
 11
-16.3685
 21
106.012133
 31
0.0
  0
CIRCLE
  5
34A
330
6B
100
AcDbEntity
  8
001
100
AcDbCircle
 10
-14.283131
 20
111.638076
 30
0.0
 40
6.0
  0
TEXT
  5
34B
330
6B
100
AcDbEntity
  8
001
 62
     4
100
AcDbText
 10
-16.82628809568996
 20
108.1964649847442
 30
0.0
 40
6.299999999999998
  1
4
  7
高6.3
100
AcDbText
  0
LINE
  5
351
330
6B
100
AcDbEntity
  8
001
100
AcDbLine
 10
-80.544232
 20
-23.793572
 30
0.0
 11
-122.802828
 21
-7.994614999999997
 31
0.0
  0
CIRCLE
  5
352
330
6B
100
AcDbEntity
  8
001
100
AcDbCircle
 10
-128.422899
 20
-5.893473999999997
 30
0.0
 40
6.0
  0
TEXT
  5
353
330
6B
100
AcDbEntity
  8
001
 62
     4
100
AcDbText
 10
-130.665904812889
 20
-9.643664808765151
 30
0.0
 40
6.299999999999998
  1
5
  7
高6.3
100
AcDbText
  0
LINE
  5
359
330
6B
100
AcDbEntity
  8
001
100
AcDbLine
 10
-8.976077
 20
-26.836717
 30
0.0
 11
30.874955
 21
-6.838789
 31
0.0
  0
CIRCLE
  5
35A
330
6B
100
AcDbEntity
  8
001
100
AcDbCircle
 10
36.237615
 20
-4.147714999999998
 30
0.0
 40
6.0
  0
TEXT
  5
35B
330
6B
100
AcDbEntity
  8
001
 62
     4
100
AcDbText
 10
34.05364923776915
 20
-7.552183642633847
 30
0.0
 40
6.299999999999998
  1
6
  7
高6.3
100
AcDbText
  0
LINE
  5
35C
330
6B
100
AcDbEntity
  8
001
 62
     3
100
AcDbLine
 10
-84.679172
 20
-18.268524
 30
0.0
 11
-84.679172
 21
-23.398013
 31
0.0
  0
ARC
  5
35D
330
6B
100
AcDbEntity
  8
001
 62
     3
100
AcDbCircle
 10
-83.629172
 20
-23.398013
 30
0.0
 40
1.05
100
AcDbArc
 50
180.0
 51
270.0
  0
ARC
  5
35E
330
6B
100
AcDbEntity
  8
001
 62
     3
100
AcDbCircle
 10
-83.629172
 20
-23.398013
 30
0.0
 40
7.0
100
AcDbArc
 50
201.886795
 51
270.0
  0
LINE
  5
371
330
6B
100
AcDbEntity
  8
001
 62
     3
100
AcDbLine
 10
-80.11335499999999
 20
-24.448013
 30
0.0
 11
-78.686305
 21
-24.448013
 31
0.0
  0
LINE
  5
372
330
6B
100
AcDbEntity
  8
001
 62
     3
100
AcDbLine
 10
-77.74983
 20
-24.448013
 30
0.0
 11
-65.865177
 21
-24.448013
 31
0.0
  0
LINE
  5
373
330
6B
100
AcDbEntity
  8
001
 62
     3
100
AcDbLine
 10
-80.09983000000003
 20
-30.398013
 30
0.0
 11
-78.69983000000002
 21
-30.398013
 31
0.0
  0
LINE
  5
374
330
6B
100
AcDbEntity
  8
001
 62
     3
100
AcDbLine
 10
-77.74983
 20
-30.398013
 30
0.0
 11
-67.78445000000001
 21
-30.398013
 31
0.0
  0
LINE
  5
375
330
6B
100
AcDbEntity
  8
001
 62
     3
100
AcDbLine
 10
-190.0
 20
138.5
 30
0.0
 11
-190.0
 21
-138.5
 31
0.0
  0
LINE
  5
376
330
6B
100
AcDbEntity
  8
001
 62
     3
100
AcDbLine
 10
-190.0
 20
138.5
 30
0.0
 11
200.0
 21
138.5
 31
0.0
  0
LINE
  5
377
330
6B
100
AcDbEntity
  8
001
 62
     3
100
AcDbLine
 10
-190.0
 20
-138.5
 30
0.0
 11
200.0
 21
-138.5
 31
0.0
  0
LINE
  5
378
330
6B
100
AcDbEntity
  8
001
100
AcDbLine
 10
-24.560392
 20
-44.432922
 30
0.0
 11
-24.350411
 21
-43.98566399999999
 31
0.0
  0
LINE
  5
379
330
6B
100
AcDbEntity
  8
001
100
AcDbLine
 10
-92.179172
 20
66.049945
 30
0.0
 11
-92.179172
 21
65.79994499999999
 31
0.0
  0
LINE
  5
37A
330
6B
100
AcDbEntity
  8
001
100
AcDbLine
 10
7.820827999999997
 20
66.29994499999999
 30
0.0
 11
7.820827999999997
 21
65.79994499999999
 31
0.0
  0
LINE
  5
37B
330
6B
100
AcDbEntity
  8
001
100
AcDbLine
 10
13.196713
 20
66.29994499999999
 30
0.0
 11
13.196713
 21
65.79994499999999
 31
0.0
  0
ARC
  5
37C
330
6B
100
AcDbEntity
  8
001
100
AcDbCircle
 10
11.696713
 20
9.153795999999999
 30
0.0
 40
1.0
100
AcDbArc
 50
270.000002
 51
90.0
  0
ARC
  5
37D
330
6B
100
AcDbEntity
  8
001
100
AcDbCircle
 10
11.696713
 20
6.153795999999998
 30
0.0
 40
1.0
100
AcDbArc
 50
270.0
 51
90.0
  0
LINE
  5
37E
330
6B
100
AcDbEntity
  8
001
100
AcDbLine
 10
-77.74983
 20
-26.981107
 30
0.0
 11
-77.74983
 21
-21.231107
 31
0.0
  0
LINE
  5
37F
330
6B
100
AcDbEntity
  8
001
100
AcDbLine
 10
-83.297036
 20
-38.718423
 30
0.0
 11
-96.055057
 21
-38.718423
 31
0.0
  0
ARC
  5
380
330
6B
100
AcDbEntity
  8
001
100
AcDbCircle
 10
-96.055057
 20
-39.718423
 30
0.0
 40
1.0
100
AcDbArc
 50
90.0
 51
270.0
  0
LINE
  5
381
330
6B
100
AcDbEntity
  8
001
100
AcDbLine
 10
-83.297036
 20
-40.718423
 30
0.0
 11
-96.055057
 21
-40.718423
 31
0.0
  0
LINE
  5
382
330
6B
100
AcDbEntity
  8
001
100
AcDbLine
 10
-83.18569999999999
 20
-41.718423
 30
0.0
 11
-96.055057
 21
-41.718423
 31
0.0
  0
LINE
  5
383
330
6B
100
AcDbEntity
  8
001
100
AcDbLine
 10
-83.297036
 20
-43.71842299999999
 30
0.0
 11
-96.055057
 21
-43.71842299999999
 31
0.0
  0
ARC
  5
384
330
6B
100
AcDbEntity
  8
001
100
AcDbCircle
 10
-96.055057
 20
-42.718423
 30
0.0
 40
1.0
100
AcDbArc
 50
90.00000199999998
 51
270.0
  0
ARC
  5
385
330
6B
100
AcDbEntity
  8
001
100
AcDbCircle
 10
-83.297036
 20
-42.718423
 30
0.0
 40
1.0
100
AcDbArc
 50
270.0
 51
90.0
  0
ARC
  5
386
330
6B
100
AcDbEntity
  8
001
100
AcDbCircle
 10
-83.297036
 20
-39.718423
 30
0.0
 40
1.0
100
AcDbArc
 50
270.0
 51
89.99999800000002
  0
ARC
  5
387
330
6B
100
AcDbEntity
  8
001
100
AcDbCircle
 10
-1.061307999999999
 20
-42.718423
 30
0.0
 40
1.0
100
AcDbArc
 50
90.0
 51
270.0
  0
LINE
  5
388
330
6B
100
AcDbEntity
  8
001
100
AcDbLine
 10
-1.061307999999999
 20
-41.718423
 30
0.0
 11
11.696713
 21
-41.718423
 31
0.0
  0
LINE
  5
389
330
6B
100
AcDbEntity
  8
001
100
AcDbLine
 10
-1.061307999999999
 20
-40.718423
 30
0.0
 11
11.696713
 21
-40.718423
 31
0.0
  0
ARC
  5
38A
330
6B
100
AcDbEntity
  8
001
100
AcDbCircle
 10
-1.061307999999999
 20
-39.718423
 30
0.0
 40
1.0
100
AcDbArc
 50
90.00000199999998
 51
270.0
  0
LINE
  5
38B
330
6B
100
AcDbEntity
  8
001
100
AcDbLine
 10
-1.061307999999999
 20
-38.718423
 30
0.0
 11
11.696713
 21
-38.718423
 31
0.0
  0
LINE
  5
38C
330
6B
100
AcDbEntity
  8
001
100
AcDbLine
 10
-1.061307999999999
 20
-43.71842299999999
 30
0.0
 11
11.696713
 21
-43.71842299999999
 31
0.0
  0
ARC
  5
38D
330
6B
100
AcDbEntity
  8
001
100
AcDbCircle
 10
11.696713
 20
-42.718423
 30
0.0
 40
1.0
100
AcDbArc
 50
270.0
 51
89.99999800000002
  0
ARC
  5
38E
330
6B
100
AcDbEntity
  8
001
100
AcDbCircle
 10
11.696713
 20
-39.718423
 30
0.0
 40
1.0
100
AcDbArc
 50
270.0
 51
90.0
  0
ARC
  5
38F
330
6B
100
AcDbEntity
  8
001
100
AcDbCircle
 10
-96.055057
 20
9.153795999999999
 30
0.0
 40
1.0
100
AcDbArc
 50
90.0
 51
269.999998
  0
ARC
  5
390
330
6B
100
AcDbEntity
  8
001
100
AcDbCircle
 10
-96.055057
 20
6.153795999999998
 30
0.0
 40
1.0
100
AcDbArc
 50
90.0
 51
270.0
  0
LINE
  5
391
330
6B
100
AcDbEntity
  8
001
100
AcDbLine
 10
-96.055057
 20
10.153796
 30
0.0
 11
11.696713
 21
10.153796
 31
0.0
  0
LINE
  5
392
330
6B
100
AcDbEntity
  8
001
100
AcDbLine
 10
-96.055057
 20
8.153795999999998
 30
0.0
 11
11.696713
 21
8.153795999999998
 31
0.0
  0
LINE
  5
393
330
6B
100
AcDbEntity
  8
001
100
AcDbLine
 10
-96.055057
 20
7.153796
 30
0.0
 11
11.696713
 21
7.153796
 31
0.0
  0
LINE
  5
394
330
6B
100
AcDbEntity
  8
001
100
AcDbLine
 10
-96.055057
 20
5.153795999999998
 30
0.0
 11
11.696713
 21
5.153795999999998
 31
0.0
  0
CIRCLE
  5
395
330
6B
100
AcDbEntity
  8
001
100
AcDbCircle
 10
42.07082800000001
 20
9.835100999999999
 30
0.0
 40
2.125
  0
CIRCLE
  5
396
330
6B
100
AcDbEntity
  8
001
100
AcDbCircle
 10
42.07082800000001
 20
-43.260838
 30
0.0
 40
2.125
  0
CIRCLE
  5
397
330
6B
100
AcDbEntity
  8
001
100
AcDbCircle
 10
-69.67917199999999
 20
-41.21842299999999
 30
0.0
 40
2.0
  0
CIRCLE
  5
398
330
6B
100
AcDbEntity
  8
001
100
AcDbCircle
 10
-43.677337
 20
66.049945
 30
0.0
 40
2.0
  0
CIRCLE
  5
399
330
6B
100
AcDbEntity
  8
001
100
AcDbCircle
 10
-36.552622
 20
66.049945
 30
0.0
 40
2.0
  0
CIRCLE
  5
39A
330
6B
100
AcDbEntity
  8
001
100
AcDbCircle
 10
-28.177622
 20
60.048289
 30
0.0
 40
2.25
  0
CIRCLE
  5
39B
330
6B
100
AcDbEntity
  8
001
100
AcDbCircle
 10
-1.552621999999999
 20
66.049945
 30
0.0
 40
2.0
  0
CIRCLE
  5
39C
330
6B
100
AcDbEntity
  8
001
100
AcDbCircle
 10
4.070827999999997
 20
71.649945
 30
0.0
 40
2.0
  0
CIRCLE
  5
39D
330
6B
100
AcDbEntity
  8
001
100
AcDbCircle
 10
4.070827999999997
 20
60.44994499999999
 30
0.0
 40
2.0
  0
CIRCLE
  5
39E
330
6B
100
AcDbEntity
  8
001
100
AcDbCircle
 10
-88.429172
 20
71.649945
 30
0.0
 40
2.0
  0
CIRCLE
  5
39F
330
6B
100
AcDbEntity
  8
001
100
AcDbCircle
 10
-85.67733699999998
 20
66.049945
 30
0.0
 40
2.0
  0
CIRCLE
  5
3A0
330
6B
100
AcDbEntity
  8
001
100
AcDbCircle
 10
-88.429172
 20
60.44994499999999
 30
0.0
 40
2.0
  0
LINE
  5
3A1
330
6B
100
AcDbEntity
  8
001
100
AcDbLine
 10
-31.176877
 20
70.30211700000001
 30
0.0
 11
-31.176877
 21
74.302117
 31
0.0
  0
ARC
  5
3A2
330
6B
100
AcDbEntity
  8
001
100
AcDbCircle
 10
-30.676877
 20
70.30211700000001
 30
0.0
 40
0.5
100
AcDbArc
 50
180.0
 51
0.0
  0
LINE
  5
3A3
330
6B
100
AcDbEntity
  8
001
100
AcDbLine
 10
-30.176877
 20
70.30211700000001
 30
0.0
 11
-30.176877
 21
74.302117
 31
0.0
  0
ARC
  5
3A4
330
6B
100
AcDbEntity
  8
001
100
AcDbCircle
 10
-30.676877
 20
74.302117
 30
0.0
 40
0.5
100
AcDbArc
 50
0.0
 51
180.0
  0
LINE
  5
3A5
330
6B
100
AcDbEntity
  8
001
100
AcDbLine
 10
-29.176877
 20
70.30211700000001
 30
0.0
 11
-29.176877
 21
74.302117
 31
0.0
  0
ARC
  5
3A6
330
6B
100
AcDbEntity
  8
001
100
AcDbCircle
 10
-28.676877
 20
70.30211700000001
 30
0.0
 40
0.5
100
AcDbArc
 50
180.0
 51
0.0
  0
LINE
  5
3A7
330
6B
100
AcDbEntity
  8
001
100
AcDbLine
 10
-28.176877
 20
70.30211700000001
 30
0.0
 11
-28.176877
 21
74.302117
 31
0.0
  0
ARC
  5
3A8
330
6B
100
AcDbEntity
  8
001
100
AcDbCircle
 10
-28.676877
 20
74.302117
 30
0.0
 40
0.5
100
AcDbArc
 50
0.0
 51
180.0
  0
LINE
  5
3A9
330
6B
100
AcDbEntity
  8
001
100
AcDbLine
 10
-32.680761
 20
75.29768299999997
 30
0.0
 11
-32.680761
 21
69.29768299999999
 31
0.0
  0
LINE
  5
3AA
330
6B
100
AcDbEntity
  8
001
100
AcDbLine
 10
-32.680761
 20
69.29768299999999
 30
0.0
 11
-34.680761
 21
69.29768299999999
 31
0.0
  0
LINE
  5
3AB
330
6B
100
AcDbEntity
  8
001
100
AcDbLine
 10
-34.680761
 20
75.29768299999997
 30
0.0
 11
-34.680761
 21
69.29768299999999
 31
0.0
  0
LINE
  5
3AC
330
6B
100
AcDbEntity
  8
001
100
AcDbLine
 10
-32.680761
 20
75.29768299999997
 30
0.0
 11
-34.680761
 21
75.29768299999997
 31
0.0
  0
LINE
  5
3AD
330
6B
100
AcDbEntity
  8
001
100
AcDbLine
 10
-32.680761
 20
63.047683
 30
0.0
 11
-34.680761
 21
63.047683
 31
0.0
  0
LINE
  5
3AE
330
6B
100
AcDbEntity
  8
001
100
AcDbLine
 10
-32.680761
 20
63.047683
 30
0.0
 11
-32.680761
 21
57.047683
 31
0.0
  0
LINE
  5
3AF
330
6B
100
AcDbEntity
  8
001
100
AcDbLine
 10
-34.680761
 20
63.047683
 30
0.0
 11
-34.680761
 21
57.047683
 31
0.0
  0
LINE
  5
3B0
330
6B
100
AcDbEntity
  8
001
100
AcDbLine
 10
-32.680761
 20
57.047683
 30
0.0
 11
-34.680761
 21
57.047683
 31
0.0
  0
LINE
  5
3B1
330
6B
100
AcDbEntity
  8
001
100
AcDbLine
 10
-7.677622
 20
65.998289
 30
0.0
 11
-11.677622
 21
65.998289
 31
0.0
  0
LINE
  5
3B2
330
6B
100
AcDbEntity
  8
001
100
AcDbLine
 10
-7.677622
 20
70.09828900000001
 30
0.0
 11
-7.677622
 21
65.998289
 31
0.0
  0
LINE
  5
3B3
330
6B
100
AcDbEntity
  8
001
100
AcDbLine
 10
-7.677622
 20
70.09828900000001
 30
0.0
 11
-11.677622
 21
70.09828900000001
 31
0.0
  0
LINE
  5
3B4
330
6B
100
AcDbEntity
  8
001
100
AcDbLine
 10
-11.677622
 20
70.09828900000001
 30
0.0
 11
-11.677622
 21
65.998289
 31
0.0
  0
LINE
  5
3B5
330
6B
100
AcDbEntity
  8
001
100
AcDbLine
 10
-7.677622
 20
62.098289
 30
0.0
 11
-11.677622
 21
62.098289
 31
0.0
  0
LINE
  5
3B6
330
6B
100
AcDbEntity
  8
001
100
AcDbLine
 10
-11.677622
 20
62.098289
 30
0.0
 11
-11.677622
 21
57.998289
 31
0.0
  0
LINE
  5
3B7
330
6B
100
AcDbEntity
  8
001
100
AcDbLine
 10
-7.677622
 20
57.998289
 30
0.0
 11
-11.677622
 21
57.998289
 31
0.0
  0
LINE
  5
3B8
330
6B
100
AcDbEntity
  8
001
100
AcDbLine
 10
-7.677622
 20
62.098289
 30
0.0
 11
-7.677622
 21
57.998289
 31
0.0
  0
LINE
  5
3B9
330
6B
100
AcDbEntity
  8
001
100
AcDbLine
 10
-4.033891
 20
65.67394
 30
0.0
 11
-6.033891
 21
65.67394
 31
0.0
  0
LINE
  5
3BA
330
6B
100
AcDbEntity
  8
001
100
AcDbLine
 10
-6.033891
 20
65.67394
 30
0.0
 11
-6.033891
 21
70.42394
 31
0.0
  0
LINE
  5
3BB
330
6B
100
AcDbEntity
  8
001
100
AcDbLine
 10
-4.033891
 20
70.42394
 30
0.0
 11
-6.033891
 21
70.42394
 31
0.0
  0
LINE
  5
3BC
330
6B
100
AcDbEntity
  8
001
100
AcDbLine
 10
-4.033891
 20
65.67394
 30
0.0
 11
-4.033891
 21
70.42394
 31
0.0
  0
LINE
  5
3BD
330
6B
100
AcDbEntity
  8
001
100
AcDbLine
 10
-4.032274
 20
62.424589
 30
0.0
 11
-6.032274
 21
62.424589
 31
0.0
  0
LINE
  5
3BE
330
6B
100
AcDbEntity
  8
001
100
AcDbLine
 10
-6.032274
 20
57.67458900000001
 30
0.0
 11
-6.032274
 21
62.424589
 31
0.0
  0
LINE
  5
3BF
330
6B
100
AcDbEntity
  8
001
100
AcDbLine
 10
-4.032274
 20
57.67458900000001
 30
0.0
 11
-4.032274
 21
62.424589
 31
0.0
  0
LINE
  5
3C0
330
6B
100
AcDbEntity
  8
001
100
AcDbLine
 10
-4.032274
 20
57.67458900000001
 30
0.0
 11
-6.032274
 21
57.67458900000001
 31
0.0
  0
LINE
  5
3C1
330
6B
100
AcDbEntity
  8
001
100
AcDbLine
 10
-56.852337
 20
62.32494499999999
 30
0.0
 11
-56.852337
 21
63.42494499999999
 31
0.0
  0
LINE
  5
3C2
330
6B
100
AcDbEntity
  8
001
100
AcDbLine
 10
-56.852337
 20
63.42494499999999
 30
0.0
 11
-53.35233699999999
 21
63.42494499999999
 31
0.0
  0
LINE
  5
3C3
330
6B
100
AcDbEntity
  8
001
100
AcDbLine
 10
-53.35233699999999
 20
62.32494499999999
 30
0.0
 11
-53.35233699999999
 21
63.42494499999999
 31
0.0
  0
LINE
  5
3C4
330
6B
100
AcDbEntity
  8
001
100
AcDbLine
 10
-53.35233699999999
 20
62.32494499999999
 30
0.0
 11
-56.852337
 21
62.32494499999999
 31
0.0
  0
LINE
  5
3C5
330
6B
100
AcDbEntity
  8
001
100
AcDbLine
 10
-52.927337
 20
68.67494499999999
 30
0.0
 11
-57.277337
 21
68.67494499999999
 31
0.0
  0
LINE
  5
3C6
330
6B
100
AcDbEntity
  8
001
100
AcDbLine
 10
-57.277337
 20
69.774945
 30
0.0
 11
-52.927337
 21
69.774945
 31
0.0
  0
LINE
  5
3C7
330
6B
100
AcDbEntity
  8
001
100
AcDbLine
 10
-57.277337
 20
68.67494499999999
 30
0.0
 11
-57.277337
 21
69.774945
 31
0.0
  0
LINE
  5
3C8
330
6B
100
AcDbEntity
  8
001
100
AcDbLine
 10
-52.927337
 20
68.67494499999999
 30
0.0
 11
-52.927337
 21
69.774945
 31
0.0
  0
LINE
  5
3C9
330
6B
100
AcDbEntity
  8
001
100
AcDbLine
 10
-76.352337
 20
62.32494499999999
 30
0.0
 11
-76.352337
 21
63.42494499999999
 31
0.0
  0
LINE
  5
3CA
330
6B
100
AcDbEntity
  8
001
100
AcDbLine
 10
-76.352337
 20
63.42494499999999
 30
0.0
 11
-72.852337
 21
63.42494499999999
 31
0.0
  0
LINE
  5
3CB
330
6B
100
AcDbEntity
  8
001
100
AcDbLine
 10
-72.852337
 20
62.32494499999999
 30
0.0
 11
-76.352337
 21
62.32494499999999
 31
0.0
  0
LINE
  5
3CC
330
6B
100
AcDbEntity
  8
001
100
AcDbLine
 10
-72.852337
 20
62.32494499999999
 30
0.0
 11
-72.852337
 21
63.42494499999999
 31
0.0
  0
LINE
  5
3CD
330
6B
100
AcDbEntity
  8
001
100
AcDbLine
 10
-76.777337
 20
69.774945
 30
0.0
 11
-72.42733699999998
 21
69.774945
 31
0.0
  0
LINE
  5
3CE
330
6B
100
AcDbEntity
  8
001
100
AcDbLine
 10
-72.42733699999998
 20
68.67494499999999
 30
0.0
 11
-76.777337
 21
68.67494499999999
 31
0.0
  0
LINE
  5
3CF
330
6B
100
AcDbEntity
  8
001
100
AcDbLine
 10
-76.777337
 20
68.67494499999999
 30
0.0
 11
-76.777337
 21
69.774945
 31
0.0
  0
LINE
  5
3D0
330
6B
100
AcDbEntity
  8
001
100
AcDbLine
 10
-72.42733699999998
 20
68.67494499999999
 30
0.0
 11
-72.42733699999998
 21
69.774945
 31
0.0
  0
LINE
  5
3D1
330
6B
100
AcDbEntity
  8
001
100
AcDbLine
 10
-23.348053
 20
68.880292
 30
0.0
 11
-24.583116
 21
69.74509199999999
 31
0.0
  0
ARC
  5
3D2
330
6B
100
AcDbEntity
  8
001
100
AcDbCircle
 10
-20.177622
 20
66.049945
 30
0.0
 40
5.75
100
AcDbArc
 50
140.011458
 51
149.988542
  0
LINE
  5
3D3
330
6B
100
AcDbEntity
  8
001
100
AcDbLine
 10
-25.156693
 20
68.92593999999999
 30
0.0
 11
-23.302036
 21
67.627296
 31
0.0
  0
ARC
  5
3D4
330
6B
100
AcDbEntity
  8
001
100
AcDbCircle
 10
-20.177622
 20
66.049945
 30
0.0
 40
4.25
100
AcDbArc
 50
96.75632700000001
 51
138.243673
  0
LINE
  5
3D5
330
6B
100
AcDbEntity
  8
001
100
AcDbLine
 10
-17.847768
 20
69.60441800000001
 30
0.0
 11
-16.878616
 21
70.75940899999998
 31
0.0
  0
ARC
  5
3D6
330
6B
100
AcDbEntity
  8
001
100
AcDbCircle
 10
-20.177622
 20
66.049945
 30
0.0
 40
4.25
100
AcDbArc
 50
56.75632699999999
 51
83.243673
  0
LINE
  5
3D7
330
6B
100
AcDbEntity
  8
001
100
AcDbLine
 10
-19.677622
 20
70.27043
 30
0.0
 11
-19.677622
 21
71.77816400000001
 31
0.0
  0
ARC
  5
3D8
330
6B
100
AcDbEntity
  8
001
100
AcDbCircle
 10
-20.177622
 20
66.049945
 30
0.0
 40
5.75
100
AcDbArc
 50
85.01145799999997
 51
94.98854200000002
  0
LINE
  5
3D9
330
6B
100
AcDbEntity
  8
001
100
AcDbLine
 10
-20.677622
 20
70.27043
 30
0.0
 11
-20.677622
 21
71.77816400000001
 31
0.0
  0
ARC
  5
3DA
330
6B
100
AcDbEntity
  8
001
100
AcDbCircle
 10
-20.177622
 20
66.049945
 30
0.0
 40
5.75
100
AcDbArc
 50
45.011458
 51
54.988542
  0
LINE
  5
3DB
330
6B
100
AcDbEntity
  8
001
100
AcDbLine
 10
-17.081724
 20
68.96163
 30
0.0
 11
-16.112571
 21
70.11662199999999
 31
0.0
  0
LINE
  5
3DC
330
6B
100
AcDbEntity
  8
001
100
AcDbLine
 10
-15.971536
 20
65.440565
 30
0.0
 11
-14.515177
 21
65.050335
 31
0.0
  0
LINE
  5
3DD
330
6B
100
AcDbEntity
  8
001
100
AcDbLine
 10
-16.230355
 20
64.47464
 30
0.0
 11
-14.773996
 21
64.08440899999999
 31
0.0
  0
ARC
  5
3DE
330
6B
100
AcDbEntity
  8
001
100
AcDbCircle
 10
-20.177622
 20
66.049945
 30
0.0
 40
5.75
100
AcDbArc
 50
340.011458
 51
349.988542
  0
LINE
  5
3DF
330
6B
100
AcDbEntity
  8
001
100
AcDbLine
 10
-16.880499
 20
61.339161
 30
0.0
 11
-17.634366
 21
62.644897
 31
0.0
  0
LINE
  5
3E0
330
6B
100
AcDbEntity
  8
001
100
AcDbLine
 10
-17.746525
 20
60.83916099999999
 30
0.0
 11
-18.500392
 21
62.144897
 31
0.0
  0
ARC
  5
3E1
330
6B
100
AcDbEntity
  8
001
100
AcDbCircle
 10
-20.177622
 20
66.049945
 30
0.0
 40
4.25
100
AcDbArc
 50
306.756327
 51
338.243673
  0
ARC
  5
3E2
330
6B
100
AcDbEntity
  8
001
100
AcDbCircle
 10
-20.177622
 20
66.049945
 30
0.0
 40
4.25
100
AcDbArc
 50
218.756327
 51
293.243673
  0
ARC
  5
3E3
330
6B
100
AcDbEntity
  8
001
100
AcDbCircle
 10
-20.177622
 20
66.049945
 30
0.0
 40
5.75
100
AcDbArc
 50
295.011458
 51
304.988542
  0
ARC
  5
3E4
330
6B
100
AcDbEntity
  8
001
100
AcDbCircle
 10
-20.177622
 20
66.049945
 30
0.0
 40
4.25
100
AcDbArc
 50
351.756327
 51
43.243673
  0
LINE
  5
3E5
330
6B
100
AcDbEntity
  8
001
100
AcDbLine
 10
-24.021756
 20
64.237452
 30
0.0
 11
-25.300387
 21
63.43847499999998
 31
0.0
  0
LINE
  5
3E6
330
6B
100
AcDbEntity
  8
001
100
AcDbLine
 10
-23.380306
 20
64.63827399999999
 30
0.0
 11
-24.021756
 21
64.237452
 31
0.0
  0
LINE
  5
3E7
330
6B
100
AcDbEntity
  8
001
100
AcDbLine
 10
-23.491837
 20
63.38940400000001
 30
0.0
 11
-24.770468
 21
62.59042700000001
 31
0.0
  0
ARC
  5
3E8
330
6B
100
AcDbEntity
  8
001
100
AcDbCircle
 10
-20.177622
 20
66.049945
 30
0.0
 40
5.75
100
AcDbArc
 50
207.011458
 51
216.988542
  0
LINE
  5
3E9
330
6B
100
AcDbEntity
  8
001
100
AcDbLine
 10
-78.686305
 20
-21.231107
 30
0.0
 11
-78.686305
 21
-19.981107
 31
0.0
  0
LINE
  5
3EA
330
6B
100
AcDbEntity
  8
001
100
AcDbLine
 10
-80.11335499999999
 20
-19.981107
 30
0.0
 11
-76.42106
 21
-19.981107
 31
0.0
  0
LINE
  5
3EB
330
6B
100
AcDbEntity
  8
001
100
AcDbLine
 10
-81.04983
 20
-19.981107
 30
0.0
 11
-80.14983
 21
-19.981107
 31
0.0
  0
LINE
  5
3EC
330
6B
100
AcDbEntity
  8
001
100
AcDbLine
 10
-77.74983
 20
-21.231107
 30
0.0
 11
-77.74983
 21
-19.981107
 31
0.0
  0
LINE
  5
3ED
330
6B
100
AcDbEntity
  8
001
100
AcDbLine
 10
-81.04983
 20
-34.062982
 30
0.0
 11
-75.375946
 21
-34.062982
 31
0.0
  0
LINE
  5
3EE
330
6B
100
AcDbEntity
  8
001
100
AcDbLine
 10
-81.04983
 20
-19.981107
 30
0.0
 11
-81.04983
 21
-26.981107
 31
0.0
  0
LINE
  5
3EF
330
6B
100
AcDbEntity
  8
001
100
AcDbLine
 10
-80.11335499999999
 20
-26.981107
 30
0.0
 11
-81.04983
 21
-26.981107
 31
0.0
  0
LINE
  5
3F0
330
6B
100
AcDbEntity
  8
001
100
AcDbLine
 10
-77.74983
 20
-26.981107
 30
0.0
 11
-78.686305
 21
-26.981107
 31
0.0
  0
LINE
  5
3F1
330
6B
100
AcDbEntity
  8
001
100
AcDbLine
 10
-77.74983
 20
-27.981107
 30
0.0
 11
-78.686305
 21
-27.981107
 31
0.0
  0
LINE
  5
3F2
330
6B
100
AcDbEntity
  8
001
100
AcDbLine
 10
-77.74983
 20
-27.981107
 30
0.0
 11
-77.74983
 21
-34.062982
 31
0.0
  0
LINE
  5
3F3
330
6B
100
AcDbEntity
  8
001
100
AcDbLine
 10
-78.686305
 20
-27.981107
 30
0.0
 11
-78.686305
 21
-34.062982
 31
0.0
  0
LINE
  5
3F4
330
6B
100
AcDbEntity
  8
001
100
AcDbLine
 10
-80.11335499999999
 20
-27.981107
 30
0.0
 11
-80.11335499999999
 21
-34.062982
 31
0.0
  0
LINE
  5
3F5
330
6B
100
AcDbEntity
  8
001
100
AcDbLine
 10
-80.11335499999999
 20
-27.981107
 30
0.0
 11
-81.04983
 21
-27.981107
 31
0.0
  0
LINE
  5
3F6
330
6B
100
AcDbEntity
  8
001
100
AcDbLine
 10
-81.04983
 20
-27.981107
 30
0.0
 11
-81.04983
 21
-34.062982
 31
0.0
  0
LINE
  5
3F7
330
6B
100
AcDbEntity
  8
001
100
AcDbLine
 10
-80.11335499999999
 20
-26.981107
 30
0.0
 11
-80.11335499999999
 21
-19.981107
 31
0.0
  0
LINE
  5
3F8
330
6B
100
AcDbEntity
  8
001
100
AcDbLine
 10
-78.686305
 20
-21.231107
 30
0.0
 11
-78.686305
 21
-26.981107
 31
0.0
  0
LINE
  5
3F9
330
6B
100
AcDbEntity
  8
001
100
AcDbLine
 10
-78.686305
 20
-23.481107
 30
0.0
 11
-80.11335499999999
 21
-23.481107
 31
0.0
  0
LINE
  5
3FA
330
6B
100
AcDbEntity
  8
001
100
AcDbLine
 10
-78.686305
 20
-31.481107
 30
0.0
 11
-80.11335499999999
 21
-31.481107
 31
0.0
  0
CIRCLE
  5
3FB
330
6B
100
AcDbEntity
  8
001
100
AcDbCircle
 10
-42.17917199999996
 20
76.54994499999998
 30
0.0
 40
1.75
  0
CIRCLE
  5
3FC
330
6B
100
AcDbEntity
  8
001
100
AcDbCircle
 10
-42.17917199999996
 20
55.54994499999999
 30
0.0
 40
1.75
  0
LINE
  5
3FD
330
6B
100
AcDbEntity
  8
001
 62
     3
100
AcDbLine
 10
200.0
 20
114.05
 30
0.0
 11
116.334944
 21
114.05
 31
0.0
  0
LINE
  5
400
330
6B
100
AcDbEntity
  8
001
 62
     3
100
AcDbLine
 10
200.0
 20
-138.5
 30
0.0
 11
200.0
 21
138.5
 31
0.0
  0
ARC
  5
401
330
6B
100
AcDbEntity
  8
001
 62
     3
100
AcDbCircle
 10
-2.179172
 20
69.799945
 30
0.0
 40
10.0
100
AcDbArc
 50
0.0
 51
90.0
  0
LINE
  5
402
330
6B
100
AcDbEntity
  8
001
 62
     3
100
AcDbLine
 10
-2.179172
 20
79.799945
 30
0.0
 11
-82.179172
 21
79.799945
 31
0.0
  0
ARC
  5
403
330
6B
100
AcDbEntity
  8
001
 62
     3
100
AcDbCircle
 10
-82.179172
 20
69.799945
 30
0.0
 40
10.0
100
AcDbArc
 50
90.0
 51
180.0
  0
LINE
  5
404
330
6B
100
AcDbEntity
  8
001
 62
     3
100
AcDbLine
 10
-92.179172
 20
69.799945
 30
0.0
 11
-92.179172
 21
66.049945
 31
0.0
  0
ARC
  5
405
330
6B
100
AcDbEntity
  8
001
 62
     3
100
AcDbCircle
 10
-82.179172
 20
62.299945
 30
0.0
 40
10.0
100
AcDbArc
 50
180.0
 51
270.0
  0
LINE
  5
406
330
6B
100
AcDbEntity
  8
001
 62
     3
100
AcDbLine
 10
-92.179172
 20
65.79994499999999
 30
0.0
 11
-92.179172
 21
62.299945
 31
0.0
  0
LINE
  5
407
330
6B
100
AcDbEntity
  8
001
 62
     3
100
AcDbLine
 10
-82.179172
 20
52.299945
 30
0.0
 11
-2.179172
 21
52.299945
 31
0.0
  0
ARC
  5
408
330
6B
100
AcDbEntity
  8
001
 62
     3
100
AcDbCircle
 10
-2.179172
 20
62.299945
 30
0.0
 40
10.0
100
AcDbArc
 50
270.0
 51
0.0
  0
LINE
  5
409
330
6B
100
AcDbEntity
  8
001
 62
     3
100
AcDbLine
 10
7.820827999999997
 20
65.79994499999999
 30
0.0
 11
7.820827999999997
 21
62.299945
 31
0.0
  0
LINE
  5
40A
330
6B
100
AcDbEntity
  8
001
 62
     3
100
AcDbLine
 10
7.820827999999997
 20
69.799945
 30
0.0
 11
7.820827999999997
 21
66.29994499999999
 31
0.0
  0
LINE
  5
40B
330
6B
100
AcDbEntity
  8
001
 62
     3
100
AcDbLine
 10
67.346907
 20
93.33744499999999
 30
0.0
 11
67.346907
 21
100.674945
 31
0.0
  0
LINE
  5
40C
330
6B
100
AcDbEntity
  8
001
 62
     3
100
AcDbLine
 10
67.346907
 20
83.67494499999997
 30
0.0
 11
67.346907
 21
91.01244499999999
 31
0.0
  0
LINE
  5
40D
330
6B
100
AcDbEntity
  8
001
100
AcDbLine
 10
61.54354300000001
 20
100.674945
 30
0.0
 11
61.54354300000001
 21
83.67494499999997
 31
0.0
  0
LINE
  5
40E
330
6B
100
AcDbEntity
  8
001
100
AcDbLine
 10
49.846907
 20
88.462445
 30
0.0
 11
49.846907
 21
95.887445
 31
0.0
  0
LINE
  5
40F
330
6B
100
AcDbEntity
  8
001
100
AcDbLine
 10
43.79119099999999
 20
96.79932800000001
 30
0.0
 11
43.79119099999999
 21
87.475213
 31
0.0
  0
LINE
  5
410
330
6B
100
AcDbEntity
  8
001
100
AcDbLine
 10
51.346907
 20
87.79994499999999
 30
0.0
 11
51.346907
 21
96.549945
 31
0.0
  0
LINE
  5
411
330
6B
100
AcDbEntity
  8
001
100
AcDbLine
 10
102.266851
 20
-95.00377686363094
 30
0.0
 11
126.2494247521522
 21
-95.00377686363094
 31
0.0
  0
LINE
  5
412
330
6B
100
AcDbEntity
  8
001
 62
     3
100
AcDbLine
 10
148.300637
 20
-121.834277
 30
0.0
 11
148.300637
 21
-100.834277
 31
0.0
  0
LINE
  5
413
330
6B
100
AcDbEntity
  8
001
 62
     3
100
AcDbLine
 10
161.300637
 20
-121.834277
 30
0.0
 11
161.300637
 21
-100.834277
 31
0.0
  0
LINE
  5
414
330
6B
100
AcDbEntity
  8
001
 62
     3
100
AcDbLine
 10
174.300637
 20
-121.834277
 30
0.0
 11
174.300637
 21
-100.834277
 31
0.0
  0
LINE
  5
415
330
6B
100
AcDbEntity
  8
001
 62
     3
100
AcDbLine
 10
148.300637
 20
-121.834277
 30
0.0
 11
148.300637
 21
-128.834277
 31
0.0
  0
LINE
  5
416
330
6B
100
AcDbEntity
  8
001
 62
     3
100
AcDbLine
 10
121.247027
 20
-128.834277
 30
0.0
 11
121.247027
 21
-114.834277
 31
0.0
  0
LINE
  5
417
330
6B
100
AcDbEntity
  8
001
 62
     3
100
AcDbLine
 10
131.578961
 20
-114.834277
 30
0.0
 11
131.578961
 21
-128.834277
 31
0.0
  0
TEXT
  5
418
330
6B
100
AcDbEntity
  8
001
 62
     3
100
AcDbText
 10
150.310955
 20
-102.629161
 30
0.0
 40
2.0
  1
A
 41
0.7
100
AcDbText
  0
TEXT
  5
419
330
6B
100
AcDbEntity
  8
001
 62
     3
100
AcDbText
 10
152.846241
 20
-102.629161
 30
0.0
 40
2.0
  1
P
 41
0.7
100
AcDbText
  0
TEXT
  5
41A
330
6B
100
AcDbEntity
  8
001
 62
     3
100
AcDbText
 10
155.381527
 20
-102.629161
 30
0.0
 40
2.0
  1
P
 41
0.7
100
AcDbText
  0
TEXT
  5
41B
330
6B
100
AcDbEntity
  8
001
 62
     3
100
AcDbText
 10
157.916813
 20
-102.629161
 30
0.0
 40
2.0
  1
D
 41
0.7
100
AcDbText
  0
TEXT
  5
41C
330
6B
100
AcDbEntity
  8
001
 62
     3
100
AcDbText
 10
163.285496
 20
-102.629161
 30
0.0
 40
2.0
  1
C
 41
0.7
100
AcDbText
  0
TEXT
  5
41D
330
6B
100
AcDbEntity
  8
001
 62
     3
100
AcDbText
 10
165.820783
 20
-102.629161
 30
0.0
 40
2.0
  1
H
 41
0.7
100
AcDbText
  0
TEXT
  5
41E
330
6B
100
AcDbEntity
  8
001
 62
     3
100
AcDbText
 10
168.356069
 20
-102.629161
 30
0.0
 40
2.0
  1
C
 41
0.7
100
AcDbText
  0
TEXT
  5
41F
330
6B
100
AcDbEntity
  8
001
 62
     3
100
AcDbText
 10
170.891355
 20
-102.629161
 30
0.0
 40
2.0
  1
K
 41
0.7
100
AcDbText
  0
TEXT
  5
420
330
6B
100
AcDbEntity
  8
001
 62
     3
100
AcDbText
 10
176.565322
 20
-102.629161
 30
0.0
 40
2.0
  1
DESN
 41
1.216762999999998
100
AcDbText
  0
TEXT
  5
421
330
6B
100
AcDbEntity
  8
001
 62
     3
100
AcDbText
 10
91.558963
 20
-131.975659
 30
0.0
 40
2.0
  1
NICHIDO IND.CO.LTD
 41
1.274876
100
AcDbText
  0
LINE
  5
422
330
6B
100
AcDbEntity
  8
001
 62
     3
100
AcDbLine
 10
101.941992
 20
-98.834277
 30
0.0
 11
101.941992
 21
-121.834277
 31
0.0
  0
LINE
  5
423
330
6B
100
AcDbEntity
  8
001
 62
     3
100
AcDbLine
 10
148.300637
 20
-128.834277
 30
0.0
 11
148.300637
 21
-138.5
 31
0.0
  0
LINE
  5
425
330
6B
100
AcDbEntity
  8
001
 62
     3
100
AcDbLine
 10
148.300637
 20
-100.834277
 30
0.0
 11
148.300637
 21
-98.834277
 31
0.0
  0
LINE
  5
426
330
6B
100
AcDbEntity
  8
001
 62
     3
100
AcDbLine
 10
161.300637
 20
-100.834277
 30
0.0
 11
161.300637
 21
-98.834277
 31
0.0
  0
LINE
  5
427
330
6B
100
AcDbEntity
  8
001
 62
     3
100
AcDbLine
 10
174.300637
 20
-100.834277
 30
0.0
 11
174.300637
 21
-98.834277
 31
0.0
  0
LINE
  5
428
330
6B
100
AcDbEntity
  8
001
 62
     3
100
AcDbLine
 10
161.300637
 20
-121.834277
 30
0.0
 11
161.300637
 21
-128.834277
 31
0.0
  0
TEXT
  5
429
330
6B
100
AcDbEntity
  8
001
 62
     3
100
AcDbText
 10
149.413081
 20
-127.969591
 30
0.0
 40
3.2
  1
作成日
 41
1.017225999999997
100
AcDbText
  0
LINE
  5
42A
330
6B
100
AcDbEntity
  8
001
 62
     3
100
AcDbLine
 10
200.0
 20
-98.834277
 30
0.0
 11
88.696558
 21
-98.834277
 31
0.0
  0
LINE
  5
42B
330
6B
100
AcDbEntity
  8
001
 62
     3
100
AcDbLine
 10
187.300637
 20
-121.834277
 30
0.0
 11
187.300637
 21
-98.834277
 31
0.0
  0
TEXT
  5
42C
330
6B
100
AcDbEntity
  8
001
 62
     3
100
AcDbText
 10
190.62444
 20
-102.543343
 30
0.0
 40
1.8
  1
D
 41
0.666667
100
AcDbText
  0
TEXT
  5
42D
330
6B
100
AcDbEntity
  8
001
 62
     3
100
AcDbText
 10
193.441068
 20
-102.543343
 30
0.0
 40
1.8
  1
E
 41
0.666667
100
AcDbText
  0
TEXT
  5
42E
330
6B
100
AcDbEntity
  8
001
 62
     3
100
AcDbText
 10
196.257696
 20
-102.543343
 30
0.0
 40
1.8
  1
F
 41
0.666667
100
AcDbText
  0
TEXT
  5
42F
330
6B
100
AcDbEntity
  8
001
 62
     3
100
AcDbText
 10
190.62444
 20
-106.535896
 30
0.0
 40
3.2
  1
製図
 41
1.076369
100
AcDbText
  0
LINE
  5
430
330
6B
100
AcDbEntity
  8
001
 62
     3
100
AcDbLine
 10
88.696558
 20
-98.834277
 30
0.0
 11
88.696558
 21
-138.5
 31
0.0
  0
TEXT
  5
431
330
6B
100
AcDbEntity
  8
001
 62
     3
100
AcDbText
 10
90.07321000000001
 20
-138.167535
 30
0.0
 40
5.0
  1
日動工業株式会社
 41
0.833333
100
AcDbText
  0
LINE
  5
432
330
6B
100
AcDbEntity
  8
001
 62
     3
100
AcDbLine
 10
131.578961
 20
-128.834277
 30
0.0
 11
131.578961
 21
-138.5
 31
0.0
  0
LINE
  5
433
330
6B
100
AcDbEntity
  8
001
 62
     3
100
AcDbLine
 10
131.578961
 20
-133.667139
 30
0.0
 11
148.300637
 21
-133.667139
 31
0.0
  0
TEXT
  5
434
330
6B
100
AcDbEntity
  8
001
 62
     3
100
AcDbText
 10
132.165563
 20
-132.850708
 30
0.0
 40
3.2
  1
出図コード
 41
0.8356860000000001
100
AcDbText
  0
LINE
  5
435
330
6B
100
AcDbEntity
  8
001
 62
     3
100
AcDbLine
 10
196.363733
 20
-128.834277
 30
0.0
 11
164.884185
 21
-128.834277
 31
0.0
  0
LINE
  5
436
330
6B
100
AcDbEntity
  8
001
 62
     3
100
AcDbLine
 10
196.363733
 20
-128.834277
 30
0.0
 11
200.0
 21
-128.834277
 31
0.0
  0
LINE
  5
437
330
6B
100
AcDbEntity
  8
001
 62
     3
100
AcDbLine
 10
103.842929
 20
-107.834277
 30
0.0
 11
88.696558
 21
-107.834277
 31
0.0
  0
LINE
  5
438
330
6B
100
AcDbEntity
  8
001
 62
     3
100
AcDbLine
 10
146.114783
 20
-107.834277
 30
0.0
 11
200.0
 21
-107.834277
 31
0.0
  0
LINE
  5
439
330
6B
100
AcDbEntity
  8
001
 62
     3
100
AcDbLine
 10
107.428452
 20
-107.834277
 30
0.0
 11
103.842929
 21
-107.834277
 31
0.0
  0
LINE
  5
43A
330
6B
100
AcDbEntity
  8
001
 62
     3
100
AcDbLine
 10
142.53323
 20
-107.834277
 30
0.0
 11
107.428452
 21
-107.834277
 31
0.0
  0
LINE
  5
43B
330
6B
100
AcDbEntity
  8
001
 62
     3
100
AcDbLine
 10
142.53323
 20
-107.834277
 30
0.0
 11
146.114783
 21
-107.834277
 31
0.0
  0
LINE
  5
43C
330
6B
100
AcDbEntity
  8
001
 62
     3
100
AcDbLine
 10
107.428452
 20
-114.834277
 30
0.0
 11
88.696558
 21
-114.834277
 31
0.0
  0
LINE
  5
43D
330
6B
100
AcDbEntity
  8
001
 62
     3
100
AcDbLine
 10
142.445875
 20
-114.834277
 30
0.0
 11
107.428452
 21
-114.834277
 31
0.0
  0
LINE
  5
43E
330
6B
100
AcDbEntity
  8
001
 62
     3
100
AcDbLine
 10
142.445875
 20
-114.834277
 30
0.0
 11
148.300637
 21
-114.834277
 31
0.0
  0
LINE
  5
43F
330
6B
100
AcDbEntity
  8
001
 62
     3
100
AcDbLine
 10
134.897613
 20
-128.834277
 30
0.0
 11
88.696558
 21
-128.834277
 31
0.0
  0
LINE
  5
440
330
6B
100
AcDbEntity
  8
001
 62
     3
100
AcDbLine
 10
144.665485
 20
-128.834277
 30
0.0
 11
134.897613
 21
-128.834277
 31
0.0
  0
LINE
  5
441
330
6B
100
AcDbEntity
  8
001
 62
     3
100
AcDbLine
 10
144.665485
 20
-128.834277
 30
0.0
 11
164.884185
 21
-128.834277
 31
0.0
  0
LINE
  5
442
330
6B
100
AcDbEntity
  8
001
 62
     3
100
AcDbLine
 10
104.101023
 20
-121.834277
 30
0.0
 11
88.696558
 21
-121.834277
 31
0.0
  0
LINE
  5
443
330
6B
100
AcDbEntity
  8
001
 62
     3
100
AcDbLine
 10
118.558267
 20
-121.834277
 30
0.0
 11
104.101023
 21
-121.834277
 31
0.0
  0
LINE
  5
444
330
6B
100
AcDbEntity
  8
001
 62
     3
100
AcDbLine
 10
118.558267
 20
-121.834277
 30
0.0
 11
200.0
 21
-121.834277
 31
0.0
  0
TEXT
  5
445
330
6B
100
AcDbEntity
  8
001
 62
     3
100
AcDbText
 10
132.0330149999999
 20
-138.018343925146
 30
0.0
 40
3.2
  1
ZK-A3X
 41
0.8112849999999999
100
AcDbText
  0
TEXT
  5
446
330
6B
100
AcDbEntity
  8
001
 62
     3
100
AcDbText
 10
90.513954
 20
-102.664752
 30
0.0
 40
2.0
  1
CONPONENTS
 41
0.5331600000000001
100
AcDbText
  0
TEXT
  5
447
330
6B
100
AcDbEntity
  8
001
 62
     3
100
AcDbText
 10
90.164228
 20
-121.596928
 30
0.0
 40
3.0
  1
材
 41
0.833333
100
AcDbText
  0
TEXT
  5
448
330
6B
100
AcDbEntity
  8
001
 62
     3
100
AcDbText
 10
97.69987
 20
-121.596928
 30
0.0
 40
3.0
  1
質
 41
0.833333
100
AcDbText
  0
TEXT
  5
449
330
6B
100
AcDbEntity
  8
001
 62
     3
100
AcDbText
 10
90.25229799999999
 20
-110.972404
 30
0.0
 40
2.0
  1
MODEL
 41
1.031072999999999
100
AcDbText
  0
TEXT
  5
44A
330
6B
100
AcDbEntity
  8
001
 62
     3
100
AcDbText
 10
90.164228
 20
-117.91462
 30
0.0
 40
2.0
  1
MATERIAL
 41
0.659278
100
AcDbText
  0
TEXT
  5
44B
330
6B
100
AcDbEntity
  8
001
 62
     3
100
AcDbText
 10
121.471508
 20
-121.596928
 30
0.0
 40
3.0
  1
備
 41
0.833333
100
AcDbText
  0
TEXT
  5
44C
330
6B
100
AcDbEntity
  8
001
 62
     3
100
AcDbText
 10
128.20451
 20
-121.596928
 30
0.0
 40
3.0
  1
考
 41
0.833333
100
AcDbText
  0
TEXT
  5
44D
330
6B
100
AcDbEntity
  8
001
 62
     3
100
AcDbText
 10
121.7376071853598
 20
-117.91462
 30
0.0
 40
2.0
  1
REMARKS
 41
0.675794
100
AcDbText
  0
TEXT
  5
44E
330
6B
100
AcDbEntity
  8
001
 62
     3
100
AcDbText
 10
91.75395700000001
 20
-124.834741
 30
0.0
 40
2.0
  1
3AD
 41
1.42614
100
AcDbText
  0
TEXT
  5
44F
330
6B
100
AcDbEntity
  8
001
 62
     3
100
AcDbText
 10
101.064937
 20
-124.669007
 30
0.0
 40
2.0
  1
ANGLE
 41
1.669883999999996
100
AcDbText
  0
TEXT
  5
450
330
6B
100
AcDbEntity
  8
001
 62
     3
100
AcDbText
 10
121.998824
 20
-125.045848
 30
0.0
 40
2.0
  1
SCALE
 41
0.7719630000000001
100
AcDbText
  0
TEXT
  5
451
330
6B
100
AcDbEntity
  8
001
 62
     3
100
AcDbText
 10
91.440087
 20
-128.834277
 30
0.0
 40
3.0
  1
第
 41
0.833333
100
AcDbText
  0
TEXT
  5
452
330
6B
100
AcDbEntity
  8
001
 62
     3
100
AcDbText
 10
99.22693700000001
 20
-128.834277
 30
0.0
 40
3.0
  1
三
 41
0.833333
100
AcDbText
  0
TEXT
  5
453
330
6B
100
AcDbEntity
  8
001
 62
     3
100
AcDbText
 10
107.013787
 20
-128.834277
 30
0.0
 40
3.0
  1
角
 41
0.833333
100
AcDbText
  0
TEXT
  5
454
330
6B
100
AcDbEntity
  8
001
 62
     3
100
AcDbText
 10
114.800637
 20
-128.834277
 30
0.0
 40
3.0
  1
法
 41
0.833333
100
AcDbText
  0
TEXT
  5
455
330
6B
100
AcDbEntity
  8
001
 62
     3
100
AcDbText
 10
121.862029
 20
-128.545848
 30
0.0
 40
3.0
  1
尺
 41
0.833333
100
AcDbText
  0
TEXT
  5
456
330
6B
100
AcDbEntity
  8
001
 62
     3
100
AcDbText
 10
128.59503
 20
-128.545848
 30
0.0
 40
3.0
  1
度
 41
0.833333
100
AcDbText
  0
TEXT
  5
457
330
6B
100
AcDbEntity
  8
001
 62
     3
100
AcDbText
 10
151.178301
 20
-106.376549
 30
0.0
 40
3.0
  1
承認
 41
1.089472999999999
100
AcDbText
  0
TEXT
  5
458
330
6B
100
AcDbEntity
  8
001
 62
     3
100
AcDbText
 10
164.421181
 20
-106.434277
 30
0.0
 40
3.0
  1
検図
 41
0.931761
100
AcDbText
  0
TEXT
  5
459
330
6B
100
AcDbEntity
  8
001
 62
     3
100
AcDbText
 10
177.421578
 20
-106.434277
 30
0.0
 40
3.0
  1
設
 41
0.833333
100
AcDbText
  0
TEXT
  5
45A
330
6B
100
AcDbEntity
  8
001
 62
     3
100
AcDbText
 10
181.9114459999999
 20
-106.434277
 30
0.0
 40
3.0
  1
計
 41
0.833333
100
AcDbText
  0
TEXT
  5
45B
330
6B
100
AcDbEntity
  8
001
 62
     3
100
AcDbText
 10
90.584061
 20
-106.261725
 30
0.0
 40
3.0
  1
品
 41
0.833333
100
AcDbText
  0
TEXT
  5
45C
330
6B
100
AcDbEntity
  8
001
 62
     3
100
AcDbText
 10
98.119703
 20
-106.261725
 30
0.0
 40
3.0
  1
名
 41
0.833333
100
AcDbText
  0
TEXT
  5
45D
330
6B
100
AcDbEntity
  8
001
 62
     3
100
AcDbText
 10
90.25229799999999
 20
-114.3535671920854
 30
0.0
 40
3.0
  1
型
 41
0.833333
100
AcDbText
  0
TEXT
  5
45E
330
6B
100
AcDbEntity
  8
001
 62
     3
100
AcDbText
 10
97.800389
 20
-114.3535671920854
 30
0.0
 40
3.0
  1
式
 41
0.833333
100
AcDbText
  0
TEXT
  5
45F
330
6B
100
AcDbEntity
  8
001
 62
     3
100
AcDbText
 10
-181.393613751046
 20
-133.0000000000001
 30
0.0
 40
3.2
  1
ハンドリールボデー
 41
0.8
  7
高3.2
100
AcDbText
  0
TEXT
  5
460
330
6B
100
AcDbEntity
  8
001
 62
     3
100
AcDbText
 10
-181.393613751046
 20
-128.0
 30
0.0
 40
3.2
  1
電コンパネル
 41
0.8
  7
高3.2
100
AcDbText
  0
TEXT
  5
461
330
6B
100
AcDbEntity
  8
001
 62
     3
100
AcDbText
 10
-181.393613751046
 20
-113.0
 30
0.0
 40
3.2
  1
電線止め
 41
0.8
  7
高3.2
100
AcDbText
  0
TEXT
  5
462
330
6B
100
AcDbEntity
  8
001
 62
     3
100
AcDbText
 10
-181.393613751046
 20
-108.0
 30
0.0
 40
3.2
  1
ロッキングホールプラグ
 41
0.8
  7
高3.2
100
AcDbText
  0
TEXT
  5
463
330
6B
100
AcDbEntity
  8
001
 62
     3
100
AcDbText
 10
-188.5
 20
-108.0
 30
0.0
 40
3.2
  1
6
 41
0.8
  7
高3.2
100
AcDbText
  0
TEXT
  5
464
330
6B
100
AcDbEntity
  8
001
 62
     3
100
AcDbText
 10
-188.4999999999999
 20
-113.0
 30
0.0
 40
3.2
  1
5
 41
0.8
  7
高3.2
100
AcDbText
  0
TEXT
  5
465
330
6B
100
AcDbEntity
  8
001
 62
     3
100
AcDbText
 10
-188.4999999999999
 20
-118.0
 30
0.0
 40
3.2
  1
4
 41
0.8
  7
高3.2
100
AcDbText
  0
TEXT
  5
466
330
6B
100
AcDbEntity
  8
001
 62
     3
100
AcDbText
 10
-188.4999999999999
 20
-123.0
 30
0.0
 40
3.2
  1
3
 41
0.8
  7
高3.2
100
AcDbText
  0
TEXT
  5
467
330
6B
100
AcDbEntity
  8
001
 62
     3
100
AcDbText
 10
-188.4999999999999
 20
-128.0
 30
0.0
 40
3.2
  1
2
 41
0.8
  7
高3.2
100
AcDbText
  0
TEXT
  5
468
330
6B
100
AcDbEntity
  8
001
 62
     3
100
AcDbText
 10
-188.5
 20
-133.0000000000001
 30
0.0
 40
3.2
  1
1
 41
0.8
  7
高3.2
100
AcDbText
  0
TEXT
  5
469
330
6B
100
AcDbEntity
  8
001
 62
     3
100
AcDbText
 10
-144.8238444061981
 20
-128.0
 30
0.0
 40
3.2
  1
完成品
 41
0.8
  7
高3.2
100
AcDbText
  0
TEXT
  5
46A
330
6B
100
AcDbEntity
  8
001
 62
     3
100
AcDbText
 10
-144.8238444061981
 20
-108.0
 30
0.0
 40
3.2
  1
購入品
 41
0.8
  7
高3.2
100
AcDbText
  0
TEXT
  5
46B
330
6B
100
AcDbEntity
  8
001
 62
     3
100
AcDbText
 10
-96.60926958540077
 20
-133.0
 30
0.0
 40
3.2
  1
１式
 41
0.8
  7
高3.2
100
AcDbText
  0
TEXT
  5
46C
330
6B
100
AcDbEntity
  8
001
 62
     3
100
AcDbText
 10
-96.60926958540077
 20
-128.0
 30
0.0
 40
3.2
  1
１式
 41
0.8
  7
高3.2
100
AcDbText
  0
TEXT
  5
46D
330
6B
100
AcDbEntity
  8
001
 62
     3
100
AcDbText
 10
-96.60926958540077
 20
-123.0
 30
0.0
 40
3.2
  1
１式
 41
0.8
  7
高3.2
100
AcDbText
  0
TEXT
  5
46E
330
6B
100
AcDbEntity
  8
001
 62
     3
100
AcDbText
 10
-93.80212837558193
 20
-118.0
 30
0.0
 40
3.2
  1
1
 41
0.8
  7
高3.2
100
AcDbText
  0
TEXT
  5
46F
330
6B
100
AcDbEntity
  8
001
 62
     3
100
AcDbText
 10
-93.80212837558193
 20
-113.0
 30
0.0
 40
3.2
  1
1
 41
0.8
  7
高3.2
100
AcDbText
  0
TEXT
  5
470
330
6B
100
AcDbEntity
  8
001
 62
     3
100
AcDbText
 10
-93.80212837558193
 20
-108.0
 30
0.0
 40
3.2
  1
1
 41
0.8
  7
高3.2
100
AcDbText
  0
TEXT
  5
471
330
6B
100
AcDbEntity
  8
001
 62
     3
100
AcDbText
 10
-181.393613751046
 20
-123.0
 30
0.0
 40
3.2
  1
E付　コンセント
 41
0.8
  7
高3.2
100
AcDbText
  0
TEXT
  5
472
330
6B
100
AcDbEntity
  8
001
 62
     3
100
AcDbText
 10
-144.8238444061981
 20
-123.0
 30
0.0
 40
3.2
  1
明工社製　MU2836T01
 41
0.8
  7
高3.2
100
AcDbText
  0
TEXT
  5
473
330
6B
100
AcDbEntity
  8
001
 62
     3
100
AcDbText
 10
-181.393613751046
 20
-118.0
 30
0.0
 40
3.2
  1
2Pプラグ付電線
 41
0.8
  7
高3.2
100
AcDbText
  0
LINE
  5
474
330
6B
100
AcDbEntity
  8
001
100
AcDbLine
 10
-87.61003568541594
 20
-103.5
 30
0.0
 11
-87.61003568541593
 21
-138.5
 31
0.0
  0
LINE
  5
475
330
6B
100
AcDbEntity
  8
001
100
AcDbLine
 10
-98.10926958540077
 20
-103.5
 30
0.0
 11
-98.10926958540077
 21
-138.5
 31
0.0
  0
LINE
  5
476
330
6B
100
AcDbEntity
  8
001
100
AcDbLine
 10
-146.3238444061981
 20
-103.5
 30
0.0
 11
-146.3238444061981
 21
-138.5
 31
0.0
  0
LINE
  5
477
330
6B
100
AcDbEntity
  8
001
100
AcDbLine
 10
-182.893613751046
 20
-103.5
 30
0.0
 11
-182.893613751046
 21
-138.5
 31
0.0
  0
TEXT
  5
478
330
6B
100
AcDbEntity
  8
001
 62
     3
100
AcDbText
 10
-96.60926958540077
 20
-138.0
 30
0.0
 40
3.2
  1
個数
 41
0.8
  7
高3.2
100
AcDbText
  0
TEXT
  5
479
330
6B
100
AcDbEntity
  8
001
 62
     3
100
AcDbText
 10
-144.8238444061981
 20
-138.0
 30
0.0
 40
3.2
  1
材　　　　質
 41
0.8
  7
高3.2
100
AcDbText
  0
TEXT
  5
47A
330
6B
100
AcDbEntity
  8
001
 62
     3
100
AcDbText
 10
-181.393613751046
 20
-138.0
 30
0.0
 40
3.2
  1
部　　品　　名
 41
0.8
  7
高3.2
100
AcDbText
  0
TEXT
  5
47B
330
6B
100
AcDbEntity
  8
001
 62
     3
100
AcDbText
 10
-188.5
 20
-138.0
 30
0.0
 40
3.2
  1
No
 41
0.8
  7
高3.2
100
AcDbText
  0
TEXT
  5
47C
330
6B
100
AcDbEntity
  8
001
 62
     3
100
AcDbText
 10
153.7168090640457
 20
-98.278192
 30
0.0
 40
4.5
  1
コード
  7
高4.5
100
AcDbText
  0
LINE
  5
47D
330
6B
100
AcDbEntity
  8
001
 62
     3
100
AcDbLine
 10
174.3006
 20
-98.834277
 30
0.0
 11
174.3006
 21
-92.834277
 31
0.0
  0
LINE
  5
47E
330
6B
100
AcDbEntity
  8
001
 62
     3
100
AcDbLine
 10
148.3006
 20
-98.834277
 30
0.0
 11
148.3006
 21
-92.834277
 31
0.0
  0
TEXT
  5
47F
330
6B
100
AcDbEntity
  8
001
 62
     3
100
AcDbText
 10
178.7146438725731
 20
-98.335921
 30
0.0
 40
4.5
  1
5241
  7
高4.5
100
AcDbText
  0
LINE
  5
480
330
6B
100
AcDbEntity
  8
001
 62
     3
100
AcDbLine
 10
199.899964
 20
-92.834277
 30
0.0
 11
148.3006
 21
-92.834277
 31
0.0
  0
TEXT
  5
481
330
6B
100
AcDbEntity
  8
001
 62
     3
100
AcDbText
 10
-144.8238444061981
 20
-113.0
 30
0.0
 40
3.2
  1
PA66
 41
0.8
  7
高3.2
100
AcDbText
  0
TEXT
  5
482
330
6B
100
AcDbEntity
  8
001
 62
     3
100
AcDbText
 10
-144.8238444061981
 20
-118.0
 30
0.0
 40
3.2
  1
VCTF 2sqx2cx3m
 41
0.8
  7
高3.2
100
AcDbText
  0
TEXT
  5
483
330
6B
100
AcDbEntity
  8
001
 62
     3
100
AcDbText
 10
-144.8238444061981
 20
-133.0
 30
0.0
 40
3.2
  1
ABS樹脂（耐衝撃性）オレンジ
 41
0.8
  7
高3.2
100
AcDbText
  0
LINE
  5
484
330
6B
100
AcDbEntity
  8
001
 62
     3
100
AcDbLine
 10
-6.264847994332967
 20
-103.5
 30
0.0
 11
-190.0
 21
-103.5
 31
0.0
  0
LINE
  5
485
330
6B
100
AcDbEntity
  8
001
100
AcDbLine
 10
-6.264847994332967
 20
-108.5
 30
0.0
 11
-190.0
 21
-108.5
 31
0.0
  0
LINE
  5
486
330
6B
100
AcDbEntity
  8
001
100
AcDbLine
 10
-6.264847994332967
 20
-113.5
 30
0.0
 11
-190.0
 21
-113.5
 31
0.0
  0
LINE
  5
487
330
6B
100
AcDbEntity
  8
001
100
AcDbLine
 10
-6.264847994332967
 20
-118.5
 30
0.0
 11
-190.0
 21
-118.5
 31
0.0
  0
LINE
  5
488
330
6B
100
AcDbEntity
  8
001
100
AcDbLine
 10
-6.264847994332967
 20
-123.5
 30
0.0
 11
-190.0
 21
-123.5
 31
0.0
  0
LINE
  5
489
330
6B
100
AcDbEntity
  8
001
100
AcDbLine
 10
-6.264847994332967
 20
-128.5
 30
0.0
 11
-190.0
 21
-128.5
 31
0.0
  0
LINE
  5
48A
330
6B
100
AcDbEntity
  8
001
 62
     3
100
AcDbLine
 10
-6.264847994332967
 20
-133.5
 30
0.0
 11
-190.0
 21
-133.5000000000001
 31
0.0
  0
LINE
  5
48B
330
6B
100
AcDbEntity
  8
002
100
AcDbLine
 10
-71.91766645647476
 20
-103.5
 30
0.0
 11
-71.91766645647476
 21
-138.5
 31
0.0
  0
TEXT
  5
48C
330
6B
100
AcDbEntity
  8
002
 62
     3
100
AcDbText
 10
-86.11003568541592
 20
-138.0
 30
0.0
 40
3.2
  1
コード
 41
0.8
  7
高3.2
100
AcDbText
  0
TEXT
  5
494
330
6B
100
AcDbEntity
  8
002
 62
     3
100
AcDbText
 10
-86.11003568541592
 20
-108.0
 30
0.0
 40
3.2
  1
50445
 41
0.8
  7
高3.2
100
AcDbText
  0
TEXT
  5
495
330
6B
100
AcDbEntity
  8
002
 62
     3
100
AcDbText
 10
-86.11003568541592
 20
-113.0
 30
0.0
 40
3.2
  1
50459
 41
0.8
  7
高3.2
100
AcDbText
  0
TEXT
  5
496
330
6B
100
AcDbEntity
  8
002
 62
     3
100
AcDbText
 10
-86.11003568541592
 20
-118.0
 30
0.0
 40
3.2
  1
52649
 41
0.8
  7
高3.2
100
AcDbText
  0
TEXT
  5
497
330
6B
100
AcDbEntity
  8
002
 62
     3
100
AcDbText
 10
-86.11003568541592
 20
-123.0
 30
0.0
 40
3.2
  1
53417
 41
0.8
  7
高3.2
100
AcDbText
  0
TEXT
  5
498
330
6B
100
AcDbEntity
  8
002
 62
     3
100
AcDbText
 10
-86.11003568541592
 20
-128.0
 30
0.0
 40
3.2
  1
50672
 41
0.8
  7
高3.2
100
AcDbText
  0
TEXT
  5
499
330
6B
100
AcDbEntity
  8
002
 62
     3
100
AcDbText
 10
-86.11003568541592
 20
-133.0
 30
0.0
 40
3.2
  1
50450
 41
0.8
  7
高3.2
100
AcDbText
  0
LINE
  5
715
330
6B
100
AcDbEntity
  8
002
 62
     3
100
AcDbLine
 10
-6.264847994332967
 20
-103.5
 30
0.0
 11
-6.264847994332967
 21
-138.5
 31
0.0
  0
TEXT
  5
725
330
6B
100
AcDbEntity
  8
0
  6
Continuous
 62
     3
100
AcDbText
 10
-70.41766645647476
 20
-108.0
 30
0.0
 40
3.2
  1
ホールプラグ　0625
 41
0.6
  7
高3.2
100
AcDbText
  0
TEXT
  5
726
330
6B
100
AcDbEntity
  8
0
  6
Continuous
 62
     3
100
AcDbText
 10
-70.41766645647476
 20
-113.0
 30
0.0
 40
3.2
  1
HR用線止め
 41
0.6
  7
高3.2
100
AcDbText
  0
TEXT
  5
727
330
6B
100
AcDbEntity
  8
0
  6
Continuous
 62
     3
100
AcDbText
 10
-70.41766645647476
 20
-118.0
 30
0.0
 40
3.2
  1
VCTF2x2x3M　P付黒
 41
0.6
  7
高3.2
100
AcDbText
  0
TEXT
  5
728
330
6B
100
AcDbEntity
  8
0
  6
Continuous
 62
     3
100
AcDbText
 10
-70.41766645647476
 20
-123.0
 30
0.0
 40
3.2
  1
MU2836T01（クリーム色）2P15A125VWコンセント
 41
0.6
  7
高3.2
100
AcDbText
  0
TEXT
  5
729
330
6B
100
AcDbEntity
  8
0
  6
Continuous
 62
     3
100
AcDbText
 10
-70.41766645647476
 20
-128.0
 30
0.0
 40
3.2
  1
電コンハンド用基板（組立費等込）一式
 41
0.6
  7
高3.2
100
AcDbText
  0
TEXT
  5
72A
330
6B
100
AcDbEntity
  8
0
  6
Continuous
 62
     3
100
AcDbText
 10
-70.41766645647476
 20
-133.0
 30
0.0
 40
3.2
  1
HR用本体オレンジ
 41
0.6
  7
高3.2
100
AcDbText
  0
TEXT
  5
72B
330
6B
100
AcDbEntity
  8
0
  6
Continuous
 62
     3
100
AcDbText
 10
-70.41766645647476
 20
-138.0
 30
0.0
 40
3.2
  1
コード番号名称
 41
0.6
  7
高3.2
100
AcDbText
  0
TEXT
  5
7BE
330
6B
100
AcDbEntity
  8
001
 62
     3
100
AcDbText
 10
152.4517017135945
 20
-57.22211
 30
0.0
 40
4.5
  1
8A
  7
高4.5
100
AcDbText
  0
TEXT
  5
7BF
330
6B
100
AcDbEntity
  8
001
 62
     3
100
AcDbText
 10
143.427592
 20
-48.745224
 30
0.0
 40
4.5
  1
単相100V
  7
高4.5
100
AcDbText
  0
LINE
  5
857
330
6B
100
AcDbEntity
  8
001
100
AcDbLine
 10
-65.865177
 20
-24.448013
 30
0.0
 11
-65.498755
 21
-25.303327
 31
0.0
  0
LINE
  5
858
330
6B
100
AcDbEntity
  8
001
100
AcDbLine
 10
-65.498755
 20
-25.303327
 30
0.0
 11
-65.371212
 21
-26.116161
 31
0.0
  0
LINE
  5
859
330
6B
100
AcDbEntity
  8
001
100
AcDbLine
 10
-65.371212
 20
-26.116161
 30
0.0
 11
-65.865408
 21
-27.139375
 31
0.0
  0
LINE
  5
85A
330
6B
100
AcDbEntity
  8
001
100
AcDbLine
 10
-65.865408
 20
-27.139375
 30
0.0
 11
-66.831951
 21
-28.078591
 31
0.0
  0
LINE
  5
85B
330
6B
100
AcDbEntity
  8
001
100
AcDbLine
 10
-65.865177
 20
-24.448013
 30
0.0
 11
-66.6026
 21
-25.18785
 31
0.0
  0
LINE
  5
85C
330
6B
100
AcDbEntity
  8
001
100
AcDbLine
 10
-66.6026
 20
-25.18785
 30
0.0
 11
-67.11327
 21
-26.033204
 31
0.0
  0
LINE
  5
85D
330
6B
100
AcDbEntity
  8
001
100
AcDbLine
 10
-67.11327
 20
-26.033204
 30
0.0
 11
-67.225677
 21
-26.71413900000001
 31
0.0
  0
LINE
  5
85E
330
6B
100
AcDbEntity
  8
001
100
AcDbLine
 10
-67.225677
 20
-26.71413900000001
 30
0.0
 11
-67.11327
 21
-27.423013
 31
0.0
  0
LINE
  5
85F
330
6B
100
AcDbEntity
  8
001
100
AcDbLine
 10
-67.11327
 20
-27.423013
 30
0.0
 11
-66.81114599999999
 21
-28.12385200000001
 31
0.0
  0
LINE
  5
860
330
6B
100
AcDbEntity
  8
001
100
AcDbLine
 10
-66.81114599999999
 20
-28.12385200000001
 30
0.0
 11
-66.61931199999999
 21
-28.777004
 31
0.0
  0
LINE
  5
861
330
6B
100
AcDbEntity
  8
001
100
AcDbLine
 10
-66.61931199999999
 20
-28.777004
 30
0.0
 11
-66.975166
 21
-29.61042199999999
 31
0.0
  0
LINE
  5
862
330
6B
100
AcDbEntity
  8
001
100
AcDbLine
 10
-66.975166
 20
-29.61042199999999
 30
0.0
 11
-67.78445000000001
 21
-30.398013
 31
0.0
  0
LINE
  5
863
330
6B
100
AcDbEntity
  8
001
100
AcDbLine
 10
-7.428880999999997
 20
-25.460718
 30
0.0
 11
-8.976077
 21
-26.836717
 31
0.0
  0
LINE
  5
864
330
6B
100
AcDbEntity
  8
001
100
AcDbLine
 10
-8.976077
 20
-26.836717
 30
0.0
 11
-6.948166999999997
 21
-26.418665
 31
0.0
  0
LINE
  5
865
330
6B
100
AcDbEntity
  8
001
100
AcDbLine
 10
-82.60525499999998
 20
-23.595156
 30
0.0
 11
-80.544232
 21
-23.793572
 31
0.0
  0
LINE
  5
866
330
6B
100
AcDbEntity
  8
001
100
AcDbLine
 10
-80.544232
 20
-23.793572
 30
0.0
 11
-82.22992299999999
 21
-22.591227
 31
0.0
  0
LINE
  5
867
330
6B
100
AcDbEntity
  8
001
100
AcDbLine
 10
-21.25468
 20
94.37198999999999
 30
0.0
 11
-21.447313
 21
92.31041799999999
 31
0.0
  0
LINE
  5
868
330
6B
100
AcDbEntity
  8
001
100
AcDbLine
 10
-21.447313
 20
92.31041799999999
 30
0.0
 11
-20.249702
 21
93.99947500000001
 31
0.0
  0
LINE
  5
869
330
6B
100
AcDbEntity
  8
001
100
AcDbLine
 10
-53.3788
 20
75.519952
 30
0.0
 11
-53.523199
 21
73.45444
 31
0.0
  0
LINE
  5
86A
330
6B
100
AcDbEntity
  8
001
100
AcDbLine
 10
-53.523199
 20
73.45444
 30
0.0
 11
-52.36539
 21
75.171026
 31
0.0
  0
LINE
  5
86B
330
6B
100
AcDbEntity
  8
001
100
AcDbLine
 10
-82.189762
 20
76.012497
 30
0.0
 11
-82.404454
 21
73.95310600000001
 31
0.0
  0
LINE
  5
86C
330
6B
100
AcDbEntity
  8
001
100
AcDbLine
 10
-82.404454
 20
73.95310600000001
 30
0.0
 11
-81.188829
 21
75.629245
 31
0.0
  0
LINE
  5
86D
330
6B
100
AcDbEntity
  8
001
100
AcDbLine
 10
-113.673669
 20
80.188517
 30
0.0
 11
-113.892148
 21
78.129524
 31
0.0
  0
LINE
  5
86E
330
6B
100
AcDbEntity
  8
001
100
AcDbLine
 10
-113.892148
 20
78.129524
 30
0.0
 11
-112.673443
 21
79.803425
 31
0.0
  0
LINE
  5
86F
330
6B
100
AcDbEntity
  8
001
100
AcDbLine
 10
-86.916218
 20
-49.60768
 30
0.0
 11
-88.369488
 21
-48.132826
 31
0.0
  0
LINE
  5
870
330
6B
100
AcDbEntity
  8
001
100
AcDbLine
 10
-88.369488
 20
-48.132826
 30
0.0
 11
-87.84834599999998
 21
-50.136722
 31
0.0
  0
LINE
  5
871
330
6B
100
AcDbEntity
  8
001
100
AcDbLine
 10
2.073852
 20
-49.93141699999998
 30
0.0
 11
2.534199
 21
-47.91268699999998
 31
0.0
  0
LINE
  5
872
330
6B
100
AcDbEntity
  8
001
100
AcDbLine
 10
2.534199
 20
-47.91268699999998
 30
0.0
 11
1.126163
 21
-49.430785
 31
0.0
  0
LINE
  5
873
330
6B
100
AcDbEntity
  8
001
100
AcDbLine
 10
116.249089
 20
-1.626346999999999
 30
0.0
 11
119.667922
 21
0.213472
 31
0.0
  0
LINE
  5
874
330
6B
100
AcDbEntity
  8
001
100
AcDbLine
 10
119.667922
 20
0.213472
 30
0.0
 11
123.081668
 21
1.839356
 31
0.0
  0
LINE
  5
875
330
6B
100
AcDbEntity
  8
001
100
AcDbLine
 10
123.081668
 20
1.839356
 30
0.0
 11
126.485239
 21
3.037370999999998
 31
0.0
  0
LINE
  5
876
330
6B
100
AcDbEntity
  8
001
100
AcDbLine
 10
126.485239
 20
3.037370999999998
 30
0.0
 11
129.873549
 21
3.593582
 31
0.0
  0
LINE
  5
877
330
6B
100
AcDbEntity
  8
001
100
AcDbLine
 10
129.873549
 20
3.593582
 30
0.0
 11
133.241511
 21
3.294052999999999
 31
0.0
  0
LINE
  5
878
330
6B
100
AcDbEntity
  8
001
100
AcDbLine
 10
133.241511
 20
3.294052999999999
 30
0.0
 11
136.250881
 21
2.212563
 31
0.0
  0
LINE
  5
879
330
6B
100
AcDbEntity
  8
001
100
AcDbLine
 10
136.250881
 20
2.212563
 30
0.0
 11
139.241267
 21
0.685243
 31
0.0
  0
LINE
  5
87A
330
6B
100
AcDbEntity
  8
001
100
AcDbLine
 10
139.241267
 20
0.685243
 30
0.0
 11
142.214269
 21
-0.867923
 31
0.0
  0
LINE
  5
87B
330
6B
100
AcDbEntity
  8
001
100
AcDbLine
 10
142.214269
 20
-0.867923
 30
0.0
 11
145.171493
 21
-2.026952999999998
 31
0.0
  0
LINE
  5
87C
330
6B
100
AcDbEntity
  8
001
100
AcDbLine
 10
145.171493
 20
-2.026952999999998
 30
0.0
 11
148.114539
 21
-2.371863
 31
0.0
  0
LINE
  5
87D
330
6B
100
AcDbEntity
  8
001
100
AcDbLine
 10
148.114539
 20
-2.371863
 30
0.0
 11
150.4398929999999
 21
-1.869188
 31
0.0
  0
LINE
  5
87E
330
6B
100
AcDbEntity
  8
001
100
AcDbLine
 10
150.4398929999999
 20
-1.869188
 30
0.0
 11
152.763322
 21
-0.8638309999999997
 31
0.0
  0
LINE
  5
87F
330
6B
100
AcDbEntity
  8
001
100
AcDbLine
 10
152.763322
 20
-0.8638309999999997
 30
0.0
 11
155.090805
 21
0.371046
 31
0.0
  0
LINE
  5
880
330
6B
100
AcDbEntity
  8
001
100
AcDbLine
 10
155.090805
 20
0.371046
 30
0.0
 11
157.428322
 21
1.562281
 31
0.0
  0
LINE
  5
881
330
6B
100
AcDbEntity
  8
001
100
AcDbLine
 10
157.428322
 20
1.562281
 30
0.0
 11
159.781852
 21
2.436709999999999
 31
0.0
  0
LINE
  5
882
330
6B
100
AcDbEntity
  8
001
100
AcDbLine
 10
159.781852
 20
2.436709999999999
 30
0.0
 11
163.072284
 21
2.774331999999998
 31
0.0
  0
LINE
  5
883
330
6B
100
AcDbEntity
  8
001
100
AcDbLine
 10
163.072284
 20
2.774331999999998
 30
0.0
 11
166.396411
 21
2.208098
 31
0.0
  0
LINE
  5
884
330
6B
100
AcDbEntity
  8
001
100
AcDbLine
 10
166.396411
 20
2.208098
 30
0.0
 11
169.745807
 21
0.9639739999999999
 31
0.0
  0
LINE
  5
885
330
6B
100
AcDbEntity
  8
001
100
AcDbLine
 10
169.745807
 20
0.9639739999999999
 30
0.0
 11
173.112051
 21
-0.732078
 31
0.0
  0
LINE
  5
886
330
6B
100
AcDbEntity
  8
001
100
AcDbLine
 10
173.112051
 20
-0.732078
 30
0.0
 11
176.486718
 21
-2.654093
 31
0.0
  0
LINE
  5
887
330
6B
100
AcDbEntity
  8
001
100
AcDbLine
 10
-13.488972
 20
-38.71642100000001
 30
0.0
 11
-11.171691
 21
-37.836982
 31
0.0
  0
LINE
  5
888
330
6B
100
AcDbEntity
  8
001
100
AcDbLine
 10
-11.171691
 20
-37.836982
 30
0.0
 11
-8.934846
 21
-36.870345
 31
0.0
  0
LINE
  5
889
330
6B
100
AcDbEntity
  8
001
100
AcDbLine
 10
-8.934846
 20
-36.870345
 30
0.0
 11
-6.858872999999999
 21
-35.729313
 31
0.0
  0
LINE
  5
88A
330
6B
100
AcDbEntity
  8
001
100
AcDbLine
 10
-6.858872999999999
 20
-35.729313
 30
0.0
 11
-5.024207999999998
 21
-34.32669
 31
0.0
  0
LINE
  5
88B
330
6B
100
AcDbEntity
  8
001
100
AcDbLine
 10
-5.024207999999998
 20
-34.32669
 30
0.0
 11
-3.511287
 21
-32.575277
 31
0.0
  0
LINE
  5
88C
330
6B
100
AcDbEntity
  8
001
100
AcDbLine
 10
-3.511287
 20
-32.575277
 30
0.0
 11
-2.202418
 21
-29.806069
 31
0.0
  0
LINE
  5
88D
330
6B
100
AcDbEntity
  8
001
100
AcDbLine
 10
-2.202418
 20
-29.806069
 30
0.0
 11
-1.881091999999999
 21
-26.818233
 31
0.0
  0
LINE
  5
88E
330
6B
100
AcDbEntity
  8
001
100
AcDbLine
 10
-1.881091999999999
 20
-26.818233
 30
0.0
 11
-2.608547
 21
-24.207919
 31
0.0
  0
LINE
  5
88F
330
6B
100
AcDbEntity
  8
001
100
AcDbLine
 10
-2.608547
 20
-24.207919
 30
0.0
 11
-3.895387999999998
 21
-21.686469
 31
0.0
  0
LINE
  5
890
330
6B
100
AcDbEntity
  8
001
100
AcDbLine
 10
-3.895387999999998
 20
-21.686469
 30
0.0
 11
-5.109898999999998
 21
-19.497031
 31
0.0
  0
LINE
  5
891
330
6B
100
AcDbEntity
  8
001
100
AcDbLine
 10
-5.109898999999998
 20
-19.497031
 30
0.0
 11
-6.408129999999997
 21
-17.439811
 31
0.0
  0
LINE
  5
892
330
6B
100
AcDbEntity
  8
001
100
AcDbLine
 10
-6.408129999999997
 20
-17.439811
 30
0.0
 11
-7.87485
 21
-15.688245
 31
0.0
  0
LINE
  5
893
330
6B
100
AcDbEntity
  8
001
100
AcDbLine
 10
-7.87485
 20
-15.688245
 30
0.0
 11
-12.046459
 21
-13.328585
 31
0.0
  0
LINE
  5
894
330
6B
100
AcDbEntity
  8
001
100
AcDbLine
 10
-12.046459
 20
-13.328585
 30
0.0
 11
-17.182997
 21
-12.838425
 31
0.0
  0
LINE
  5
895
330
6B
100
AcDbEntity
  8
001
100
AcDbLine
 10
-17.182997
 20
-12.838425
 30
0.0
 11
-22.949681
 21
-13.628586
 31
0.0
  0
LINE
  5
896
330
6B
100
AcDbEntity
  8
001
100
AcDbLine
 10
-22.949681
 20
-13.628586
 30
0.0
 11
-29.011723
 21
-15.10989
 31
0.0
  0
LINE
  5
897
330
6B
100
AcDbEntity
  8
001
100
AcDbLine
 10
-29.011723
 20
-15.10989
 30
0.0
 11
-35.034341
 21
-16.69316
 31
0.0
  0
LINE
  5
898
330
6B
100
AcDbEntity
  8
001
100
AcDbLine
 10
-35.034341
 20
-16.69316
 30
0.0
 11
-42.403531
 21
-18.159278
 31
0.0
  0
LINE
  5
899
330
6B
100
AcDbEntity
  8
001
100
AcDbLine
 10
-42.403531
 20
-18.159278
 30
0.0
 11
-49.378644
 21
-18.867857
 31
0.0
  0
LINE
  5
89A
330
6B
100
AcDbEntity
  8
001
100
AcDbLine
 10
-49.378644
 20
-18.867857
 30
0.0
 11
-56.195742
 21
-18.881787
 31
0.0
  0
LINE
  5
89B
330
6B
100
AcDbEntity
  8
001
100
AcDbLine
 10
-56.195742
 20
-18.881787
 30
0.0
 11
-63.090888
 21
-18.263958
 31
0.0
  0
LINE
  5
89C
330
6B
100
AcDbEntity
  8
001
100
AcDbLine
 10
-63.090888
 20
-18.263958
 30
0.0
 11
-70.30014399999997
 21
-17.07726
 31
0.0
  0
LINE
  5
89D
330
6B
100
AcDbEntity
  8
001
100
AcDbLine
 10
-70.30014399999997
 20
-17.07726
 30
0.0
 11
-73.90828899999998
 21
-16.366113
 31
0.0
  0
LINE
  5
89E
330
6B
100
AcDbEntity
  8
001
100
AcDbLine
 10
-73.90828899999998
 20
-16.366113
 30
0.0
 11
-77.521831
 21
-15.786796
 31
0.0
  0
LINE
  5
89F
330
6B
100
AcDbEntity
  8
001
100
AcDbLine
 10
-77.521831
 20
-15.786796
 30
0.0
 11
-81.020003
 21
-15.587171
 31
0.0
  0
LINE
  5
8A0
330
6B
100
AcDbEntity
  8
001
100
AcDbLine
 10
-81.020003
 20
-15.587171
 30
0.0
 11
-84.282041
 21
-16.015099
 31
0.0
  0
LINE
  5
8A1
330
6B
100
AcDbEntity
  8
001
100
AcDbLine
 10
-84.282041
 20
-16.015099
 30
0.0
 11
-87.187175
 21
-17.31844
 31
0.0
  0
LINE
  5
8A2
330
6B
100
AcDbEntity
  8
001
100
AcDbLine
 10
-87.187175
 20
-17.31844
 30
0.0
 11
-88.81702
 21
-18.721506
 31
0.0
  0
LINE
  5
8A3
330
6B
100
AcDbEntity
  8
001
100
AcDbLine
 10
-88.81702
 20
-18.721506
 30
0.0
 11
-90.170194
 21
-20.49799
 31
0.0
  0
LINE
  5
8A4
330
6B
100
AcDbEntity
  8
001
100
AcDbLine
 10
-90.170194
 20
-20.49799
 30
0.0
 11
-91.17110399999999
 21
-22.548462
 31
0.0
  0
LINE
  5
8A5
330
6B
100
AcDbEntity
  8
001
100
AcDbLine
 10
-91.17110399999999
 20
-22.548462
 30
0.0
 11
-91.80673099999999
 21
-25.181533
 31
0.0
  0
LINE
  5
8A6
330
6B
100
AcDbEntity
  8
001
100
AcDbLine
 10
-91.80673099999999
 20
-25.181533
 30
0.0
 11
-91.78040499999999
 21
-27.84363
 31
0.0
  0
LINE
  5
8A7
330
6B
100
AcDbEntity
  8
001
100
AcDbLine
 10
-91.78040499999999
 20
-27.84363
 30
0.0
 11
-91.02818199999999
 21
-30.319802
 31
0.0
  0
LINE
  5
8A8
330
6B
100
AcDbEntity
  8
001
100
AcDbLine
 10
-91.02818199999999
 20
-30.319802
 30
0.0
 11
-89.800748
 21
-32.14365
 31
0.0
  0
LINE
  5
8A9
330
6B
100
AcDbEntity
  8
001
100
AcDbLine
 10
-89.800748
 20
-32.14365
 30
0.0
 11
-88.16260900000001
 21
-33.679211
 31
0.0
  0
LINE
  5
8AA
330
6B
100
AcDbEntity
  8
001
100
AcDbLine
 10
-88.16260900000001
 20
-33.679211
 30
0.0
 11
-86.276053
 21
-34.92901
 31
0.0
  0
LINE
  5
8AB
330
6B
100
AcDbEntity
  8
001
100
AcDbLine
 10
-86.276053
 20
-34.92901
 30
0.0
 11
-82.453246
 21
-36.548521
 31
0.0
  0
LINE
  5
8AC
330
6B
100
AcDbEntity
  8
001
100
AcDbLine
 10
-82.453246
 20
-36.548521
 30
0.0
 11
-78.402073
 21
-37.381319
 31
0.0
  0
LINE
  5
8AD
330
6B
100
AcDbEntity
  8
001
100
AcDbLine
 10
-78.402073
 20
-37.381319
 30
0.0
 11
-74.199326
 21
-37.644202
 31
0.0
  0
LINE
  5
8AE
330
6B
100
AcDbEntity
  8
001
100
AcDbLine
 10
-74.199326
 20
-37.644202
 30
0.0
 11
-69.921796
 21
-37.55396500000003
 31
0.0
  0
LINE
  5
8AF
330
6B
100
AcDbEntity
  8
001
100
AcDbLine
 10
-69.921796
 20
-37.55396500000003
 30
0.0
 11
-65.64627299999999
 21
-37.327406
 31
0.0
  0
LINE
  5
8B0
330
6B
100
AcDbEntity
  8
001
100
AcDbLine
 10
-65.64627299999999
 20
-37.327406
 30
0.0
 11
-62.195253
 21
-37.176164
 31
0.0
  0
LINE
  5
8B1
330
6B
100
AcDbEntity
  8
001
100
AcDbLine
 10
-62.195253
 20
-37.176164
 30
0.0
 11
-58.78408
 21
-37.101485
 31
0.0
  0
LINE
  5
8B2
330
6B
100
AcDbEntity
  8
001
100
AcDbLine
 10
-58.78408
 20
-37.101485
 30
0.0
 11
-55.399889
 21
-37.126099
 31
0.0
  0
LINE
  5
8B3
330
6B
100
AcDbEntity
  8
001
100
AcDbLine
 10
-55.399889
 20
-37.126099
 30
0.0
 11
-52.02981199999999
 21
-37.272734
 31
0.0
  0
LINE
  5
8B4
330
6B
100
AcDbEntity
  8
001
100
AcDbLine
 10
-52.02981199999999
 20
-37.272734
 30
0.0
 11
-48.660983
 21
-37.564119
 31
0.0
  0
LINE
  5
8B5
330
6B
100
AcDbEntity
  8
001
100
AcDbLine
 10
-48.660983
 20
-37.564119
 30
0.0
 11
-45.666022
 21
-37.942157
 31
0.0
  0
LINE
  5
8B6
330
6B
100
AcDbEntity
  8
001
100
AcDbLine
 10
-45.666022
 20
-37.942157
 30
0.0
 11
-42.664227
 21
-38.349156
 31
0.0
  0
LINE
  5
8B7
330
6B
100
AcDbEntity
  8
001
100
AcDbLine
 10
-42.664227
 20
-38.349156
 30
0.0
 11
-39.657899
 21
-38.682367
 31
0.0
  0
LINE
  5
8B8
330
6B
100
AcDbEntity
  8
001
100
AcDbLine
 10
-39.657899
 20
-38.682367
 30
0.0
 11
-36.649343
 21
-38.839039
 31
0.0
  0
LINE
  5
8B9
330
6B
100
AcDbEntity
  8
001
100
AcDbLine
 10
-36.649343
 20
-38.839039
 30
0.0
 11
-33.64086
 21
-38.71642100000001
 31
0.0
  0
LINE
  5
8BA
330
6B
100
AcDbEntity
  8
001
100
AcDbLine
 10
-33.64086
 20
-38.71642100000001
 30
0.0
 11
-31.554612
 21
-38.434164
 31
0.0
  0
LINE
  5
8BB
330
6B
100
AcDbEntity
  8
001
100
AcDbLine
 10
-31.554612
 20
-38.434164
 30
0.0
 11
-29.472409
 21
-38.06102
 31
0.0
  0
LINE
  5
8BC
330
6B
100
AcDbEntity
  8
001
100
AcDbLine
 10
-29.472409
 20
-38.06102
 30
0.0
 11
-27.397151
 21
-37.690103
 31
0.0
  0
LINE
  5
8BD
330
6B
100
AcDbEntity
  8
001
100
AcDbLine
 10
-27.397151
 20
-37.690103
 30
0.0
 11
-25.331739
 21
-37.41452800000001
 31
0.0
  0
LINE
  5
8BE
330
6B
100
AcDbEntity
  8
001
100
AcDbLine
 10
-25.331739
 20
-37.41452800000001
 30
0.0
 11
-23.279074
 21
-37.327406
 31
0.0
  0
LINE
  5
8BF
330
6B
100
AcDbEntity
  8
001
100
AcDbLine
 10
-23.279074
 20
-37.327406
 30
0.0
 11
-21.139429
 21
-37.512762
 31
0.0
  0
LINE
  5
8C0
330
6B
100
AcDbEntity
  8
001
100
AcDbLine
 10
-21.139429
 20
-37.512762
 30
0.0
 11
-19.013726
 21
-37.949008
 31
0.0
  0
LINE
  5
8C1
330
6B
100
AcDbEntity
  8
001
100
AcDbLine
 10
-19.013726
 20
-37.949008
 30
0.0
 11
-16.89865499999999
 21
-38.576568
 31
0.0
  0
LINE
  5
8C2
330
6B
100
AcDbEntity
  8
001
100
AcDbLine
 10
-42.42917199999996
 20
49.049945
 30
0.0
 11
-145.894639
 21
49.04994500000004
 31
0.0
  0
LINE
  5
8C3
330
6B
100
AcDbEntity
  8
001
100
AcDbLine
 10
-42.42917199999996
 20
83.04994499999997
 30
0.0
 11
-145.894639
 21
83.04994499999997
 31
0.0
  0
LINE
  5
8C4
330
6B
100
AcDbEntity
  8
001
100
AcDbLine
 10
-144.644639
 20
51.54994500000004
 30
0.0
 11
-144.644639
 21
80.54994499999997
 31
0.0
  0
LINE
  5
8C8
330
6B
100
AcDbEntity
  8
001
100
AcDbLine
 10
45.570828
 20
-46.21842299999999
 30
0.0
 11
54.658388
 21
-46.21842299999999
 31
0.0
  0
LINE
  5
8C9
330
6B
100
AcDbEntity
  8
001
100
AcDbLine
 10
45.570828
 20
12.792687
 30
0.0
 11
54.658388
 21
12.792687
 31
0.0
  0
LINE
  5
8CA
330
6B
100
AcDbEntity
  8
001
100
AcDbLine
 10
53.408388
 20
-43.71842299999999
 30
0.0
 11
53.408388
 21
10.292687
 31
0.0
  0
LINE
  5
8CE
330
6B
100
AcDbEntity
  8
001
100
AcDbLine
 10
-129.679172
 20
13.042687
 30
0.0
 11
-129.679172
 21
23.133441
 31
0.0
  0
LINE
  5
8CF
330
6B
100
AcDbEntity
  8
001
100
AcDbLine
 10
45.320828
 20
13.042687
 30
0.0
 11
45.320828
 21
23.133441
 31
0.0
  0
LINE
  5
8D0
330
6B
100
AcDbEntity
  8
001
100
AcDbLine
 10
-127.179172
 20
21.883441
 30
0.0
 11
42.820828
 21
21.883441
 31
0.0
  0
TEXT
  5
8D4
330
6B
100
AcDbEntity
  8
001
  6
Continuous
 62
     4
100
AcDbText
 10
-145.269639
 20
63.13327833333333
 30
0.0
 40
3.5
  1
68
 50
90.0
100
AcDbText
  0
LINE
  5
8D5
330
6B
100
AcDbEntity
  8
0
  6
ByBlock
 62
     0
370
    -2
100
AcDbLine
 10
-145.3145115
 20
80.54994499999997
 30
0.0
 11
-144.644639
 21
83.04994499999997
 31
0.0
  0
LINE
  5
8D6
330
6B
100
AcDbEntity
  8
0
  6
ByBlock
 62
     0
370
    -2
100
AcDbLine
 10
-144.644639
 20
83.04994499999997
 30
0.0
 11
-143.9747665
 21
80.54994499999997
 31
0.0
  0
LINE
  5
8D7
330
6B
100
AcDbEntity
  8
0
  6
ByBlock
 62
     0
370
    -2
100
AcDbLine
 10
-144.644639
 20
83.04994499999997
 30
0.0
 11
-144.644639
 21
80.54994499999997
 31
0.0
  0
LINE
  5
8D8
330
6B
100
AcDbEntity
  8
0
  6
ByBlock
 62
     0
370
    -2
100
AcDbLine
 10
-143.9747665
 20
51.54994500000004
 30
0.0
 11
-144.644639
 21
49.04994500000004
 31
0.0
  0
LINE
  5
8D9
330
6B
100
AcDbEntity
  8
0
  6
ByBlock
 62
     0
370
    -2
100
AcDbLine
 10
-144.644639
 20
49.04994500000004
 30
0.0
 11
-145.3145115
 21
51.54994500000004
 31
0.0
  0
LINE
  5
8DA
330
6B
100
AcDbEntity
  8
0
  6
ByBlock
 62
     0
370
    -2
100
AcDbLine
 10
-144.644639
 20
49.04994500000004
 30
0.0
 11
-144.644639
 21
51.54994500000004
 31
0.0
  0
TEXT
  5
8DB
330
6B
100
AcDbEntity
  8
001
  6
Continuous
 62
     4
100
AcDbText
 10
52.783388
 20
-20.21286799999999
 30
0.0
 40
3.5
  1
118
 50
90.0
100
AcDbText
  0
LINE
  5
8DC
330
6B
100
AcDbEntity
  8
0
  6
ByBlock
 62
     0
370
    -2
100
AcDbLine
 10
52.7385155
 20
10.292687
 30
0.0
 11
53.408388
 21
12.792687
 31
0.0
  0
LINE
  5
8DD
330
6B
100
AcDbEntity
  8
0
  6
ByBlock
 62
     0
370
    -2
100
AcDbLine
 10
53.408388
 20
12.792687
 30
0.0
 11
54.0782605
 21
10.292687
 31
0.0
  0
LINE
  5
8DE
330
6B
100
AcDbEntity
  8
0
  6
ByBlock
 62
     0
370
    -2
100
AcDbLine
 10
53.408388
 20
12.792687
 30
0.0
 11
53.408388
 21
10.292687
 31
0.0
  0
LINE
  5
8DF
330
6B
100
AcDbEntity
  8
0
  6
ByBlock
 62
     0
370
    -2
100
AcDbLine
 10
54.0782605
 20
-43.71842299999999
 30
0.0
 11
53.408388
 21
-46.21842299999999
 31
0.0
  0
LINE
  5
8E0
330
6B
100
AcDbEntity
  8
0
  6
ByBlock
 62
     0
370
    -2
100
AcDbLine
 10
53.408388
 20
-46.21842299999999
 30
0.0
 11
52.73851549999999
 21
-43.71842299999999
 31
0.0
  0
LINE
  5
8E1
330
6B
100
AcDbEntity
  8
0
  6
ByBlock
 62
     0
370
    -2
100
AcDbLine
 10
53.408388
 20
-46.21842299999999
 30
0.0
 11
53.408388
 21
-43.71842299999999
 31
0.0
  0
TEXT
  5
8E2
330
6B
100
AcDbEntity
  8
001
  6
Continuous
 62
     4
100
AcDbText
 10
-46.55417199999999
 20
22.508441
 30
0.0
 40
3.5
  1
350
100
AcDbText
  0
LINE
  5
8E3
330
6B
100
AcDbEntity
  8
0
  6
ByBlock
 62
     0
370
    -2
100
AcDbLine
 10
42.820828
 20
22.5533135
 30
0.0
 11
45.320828
 21
21.883441
 31
0.0
  0
LINE
  5
8E4
330
6B
100
AcDbEntity
  8
0
  6
ByBlock
 62
     0
370
    -2
100
AcDbLine
 10
45.320828
 20
21.883441
 30
0.0
 11
42.820828
 21
21.2135685
 31
0.0
  0
LINE
  5
8E5
330
6B
100
AcDbEntity
  8
0
  6
ByBlock
 62
     0
370
    -2
100
AcDbLine
 10
45.320828
 20
21.883441
 30
0.0
 11
42.820828
 21
21.883441
 31
0.0
  0
LINE
  5
8E6
330
6B
100
AcDbEntity
  8
0
  6
ByBlock
 62
     0
370
    -2
100
AcDbLine
 10
-127.179172
 20
21.2135685
 30
0.0
 11
-129.679172
 21
21.883441
 31
0.0
  0
LINE
  5
8E7
330
6B
100
AcDbEntity
  8
0
  6
ByBlock
 62
     0
370
    -2
100
AcDbLine
 10
-129.679172
 20
21.883441
 30
0.0
 11
-127.179172
 21
22.5533135
 31
0.0
  0
LINE
  5
8E8
330
6B
100
AcDbEntity
  8
0
  6
ByBlock
 62
     0
370
    -2
100
AcDbLine
 10
-129.679172
 20
21.883441
 30
0.0
 11
-127.179172
 21
21.883441
 31
0.0
  0
ENDSEC
  0
SECTION
  2
OBJECTS
  0
DICTIONARY
  5
C
330
0
100
AcDbDictionary
281
     1
  3
ACAD_2007HEADERVARS_RT
350
92C
  3
ACAD_COLOR
350
62
  3
ACAD_GROUP
350
D
  3
ACAD_LAYOUT
350
61
  3
ACAD_MATERIAL
350
10
  3
ACAD_MLEADERSTYLE
350
65
  3
ACAD_MLINESTYLE
350
5E
  3
ACAD_PLOTSETTINGS
350
60
  3
ACAD_PLOTSTYLENAME
350
E
  3
ACAD_SCALELIST
350
42
  3
ACAD_TABLESTYLE
350
63
  3
ACAD_VISUALSTYLE
350
29
  3
ACDB_RECOMPOSE_DATA
350
92A
  3
AcDbVariableDictionary
350
6AB
  3
DWGPROPS
350
92B
  0
DICTIONARY
  5
540
330
2
100
AcDbDictionary
280
     1
281
     1
  3
ACAD_LAYERSTATES
360
541
  0
DICTIONARY
  5
6A5
330
54
100
AcDbDictionary
280
     1
281
     1
  3
ADSK_XREC_LAYER_RECONCILED
360
6A6
  0
DICTIONARY
  5
6A7
330
87
100
AcDbDictionary
280
     1
281
     1
  3
ADSK_XREC_LAYER_RECONCILED
360
6A8
  0
DICTIONARY
  5
6A9
330
88
100
AcDbDictionary
280
     1
281
     1
  3
ADSK_XREC_LAYER_RECONCILED
360
6AA
  0
DICTIONARY
  5
716
330
6B
100
AcDbDictionary
280
     1
281
     1
  3
ACAD_SORTENTS
360
717
  0
DICTIONARY
  5
92C
102
{ACAD_REACTORS
330
C
102
}
330
C
100
AcDbDictionary
281
     1
  3
DIMARCSYM
350
92E
  3
DIMFXL
350
92D
  3
DIMJOGANG
350
92F
  0
DICTIONARY
  5
62
102
{ACAD_REACTORS
330
C
102
}
330
C
100
AcDbDictionary
281
     1
  0
DICTIONARY
  5
D
102
{ACAD_REACTORS
330
C
102
}
330
C
100
AcDbDictionary
281
     1
  0
DICTIONARY
  5
61
102
{ACAD_REACTORS
330
C
102
}
330
C
100
AcDbDictionary
281
     1
  3
Model
350
6E
  3
レイアウト1
350
6A
  0
DICTIONARY
  5
10
102
{ACAD_REACTORS
330
C
102
}
330
C
100
AcDbDictionary
281
     1
  3
ByBlock
350
19
  3
ByLayer
350
11
  3
Global
350
21
  0
DICTIONARY
  5
65
102
{ACAD_REACTORS
330
C
102
}
330
C
100
AcDbDictionary
281
     1
  3
Standard
350
66
  0
DICTIONARY
  5
5E
102
{ACAD_REACTORS
330
C
102
}
330
C
100
AcDbDictionary
281
     1
  3
Standard
350
5F
  0
DICTIONARY
  5
60
102
{ACAD_REACTORS
330
C
102
}
330
C
100
AcDbDictionary
281
     1
  0
ACDBDICTIONARYWDFLT
  5
E
102
{ACAD_REACTORS
330
C
102
}
330
C
100
AcDbDictionary
281
     1
  3
Normal
350
F
100
AcDbDictionaryWithDefault
340
F
  0
DICTIONARY
  5
42
102
{ACAD_REACTORS
330
C
102
}
330
C
100
AcDbDictionary
281
     1
  3
A0
350
43
  3
A1
350
44
  3
A2
350
45
  3
A3
350
46
  3
A4
350
47
  3
A5
350
48
  3
A6
350
49
  3
A7
350
4A
  3
A8
350
4B
  3
A9
350
4C
  3
B0
350
4D
  3
B1
350
4E
  3
B2
350
4F
  3
B3
350
50
  3
B4
350
51
  3
B5
350
52
  3
B6
350
53
  0
DICTIONARY
  5
63
102
{ACAD_REACTORS
330
C
102
}
330
C
100
AcDbDictionary
281
     1
  3
Standard
350
64
  0
DICTIONARY
  5
29
102
{ACAD_REACTORS
330
C
102
}
330
C
100
AcDbDictionary
281
     1
  3
2dWireframe
350
2F
  3
3D Hidden
350
6F8
  3
3dWireframe
350
53F
  3
Basic
350
2E
  3
Brighten
350
35
  3
ColorChange
350
39
  3
Conceptual
350
32
  3
Dim
350
34
  3
EdgeColorOff
350
41
  3
Facepattern
350
38
  3
Flat
350
2A
  3
FlatWithEdges
350
2B
  3
Gouraud
350
2C
  3
GouraudWithEdges
350
2D
  3
Hidden
350
31
  3
JitterOff
350
3F
  3
Linepattern
350
37
  3
OverhangOff
350
40
  3
Realistic
350
33
  3
Shaded
350
3E
  3
Shaded with edges
350
3D
  3
Shades of Gray
350
3A
  3
Sketchy
350
3B
  3
Thicken
350
36
  3
Wireframe
350
30
  3
X-Ray
350
3C
  0
XRECORD
  5
92A
102
{ACAD_REACTORS
330
C
102
}
330
C
100
AcDbXrecord
280
     1
 90
        1
330
64
  0
DICTIONARY
  5
6AB
102
{ACAD_REACTORS
330
C
102
}
330
C
100
AcDbDictionary
281
     1
  3
CANNOSCALE
350
6AE
  3
CMLEADERSTYLE
350
6AD
  3
CTABLESTYLE
350
6AC
  3
DIMASSOC
350
6B1
  3
INDEXCTL
350
6B0
  3
SORTENTS
350
6AF
  3
XCLIPFRAME
350
80D
  0
XRECORD
  5
92B
102
{ACAD_REACTORS
330
C
102
}
330
C
100
AcDbXrecord
280
     1
  1
DWGPROPS COOKIE
  2

  3

  4

  6

  7

  8
imamura
  9

300
=
301
=
302
=
303
=
304
=
305
=
306
=
307
=
308
=
309
=
 40
0.0335898611111111
 41
2455623.851003091
 42
2455986.893129051
  1

 90
        0
  0
DICTIONARY
  5
541
102
{ACAD_REACTORS
330
540
102
}
330
540
100
AcDbDictionary
281
     1
  0
XRECORD
  5
6A6
102
{ACAD_REACTORS
330
6A5
102
}
330
6A5
100
AcDbXrecord
280
     1
290
     1
  0
XRECORD
  5
6A8
102
{ACAD_REACTORS
330
6A7
102
}
330
6A7
100
AcDbXrecord
280
     1
290
     1
  0
XRECORD
  5
6AA
102
{ACAD_REACTORS
330
6A9
102
}
330
6A9
100
AcDbXrecord
280
     1
290
     1
  0
SORTENTSTABLE
  5
717
102
{ACAD_REACTORS
330
716
102
}
330
716
100
AcDbSortentsTable
330
6B
331
86E
  5
3D7
331
86A
  5
3E1
331
327
  5
3D1
331
29D
  5
320
331
496
  5
8DC
331
323
  5
3CD
331
299
  5
31C
331
2D4
  5
387
331
35E
  5
3F6
331
295
  5
318
331
7BE
  5
8E7
331
31F
  5
3C9
331
2D0
  5
383
331
35A
  5
3F2
331
291
  5
314
331
31B
  5
3C5
331
FC
  5
123
331
48A
  5
8D6
331
137
  5
15E
331
8A6
  5
2BE
331
F8
  5
11F
331
133
  5
15A
331
41E
  5
86B
331
3A4
  5
439
331
8A2
  5
2BA
331
F4
  5
11B
331
F0
  5
117
331
3DF
  5
474
331
89E
  5
2B6
331
8DD
  5
D6
331
41A
  5
867
331
3A0
  5
435
331
176
  5
19F
331
3DB
  5
470
331
89A
  5
2B2
331
8D9
  5
DD
331
455
  5
8A1
331
39C
  5
431
331
416
  5
863
331
1EC
  5
213
331
172
  5
19B
331
451
  5
89D
331
398
  5
42D
331
412
  5
85F
331
1AD
  5
1D4
331
227
  5
28C
331
16E
  5
197
331
1E8
  5
20F
331
1A9
  5
1D0
331
223
  5
288
331
16A
  5
193
331
1E4
  5
20B
331
1E0
  5
207
331
866
  5
3EB
331
862
  5
400
331
85E
  5
3FA
331
715
  5
8D8
331
85A
  5
404
331
2CC
  5
37F
331
BD
  5
E4
331
317
  5
3C1
331
28D
  5
310
331
2C8
  5
37B
331
352
  5
3ED
331
289
  5
307
331
486
  5
8D2
331
313
  5
3BD
331
2C4
  5
377
331
482
  5
8CE
331
30F
  5
3B9
331
285
  5
2FE
331
12F
  5
156
331
2C0
  5
373
331
47E
  5
8CA
331
34A
  5
3E8
331
281
  5
2E3
331
12B
  5
152
331
EC
  5
113
331
47A
  5
8C6
331
127
  5
14E
331
E8
  5
10F
331
3D7
  5
46C
331
896
  5
2AE
331
8D5
  5
DF
331
123
  5
14A
331
E4
  5
10B
331
3D3
  5
468
331
892
  5
2AA
331
44D
  5
899
331
394
  5
429
331
40E
  5
85B
331
3CF
  5
464
331
88E
  5
2A6
331
E0
  5
107
331
449
  5
895
331
390
  5
425
331
40A
  5
857
331
1A5
  5
1CC
331
21F
  5
284
331
166
  5
190
331
3CB
  5
460
331
88A
  5
2A2
331
8C9
  5
D0
331
445
  5
891
331
38C
  5
420
331
406
  5
72A
331
1A1
  5
1C8
331
21B
  5
280
331
162
  5
18C
331
1DC
  5
203
331
441
  5
88D
331
388
  5
41C
331
402
  5
726
331
19D
  5
1C4
331
217
  5
27C
331
15E
  5
188
331
1D8
  5
1FF
331
199
  5
1C0
331
213
  5
278
331
15A
  5
184
331
1D4
  5
1FB
331
1D0
  5
1F7
331
499
  5
8DF
331
2BC
  5
35D
331
307
  5
3B4
331
27D
  5
2DF
331
2B8
  5
359
331
476
  5
8C2
331
342
  5
3E3
331
279
  5
2DB
331
472
  5
8BE
331
2FF
  5
3AF
331
2B4
  5
34B
331
11F
  5
146
331
2B0
  5
342
331
46E
  5
8BA
331
33A
  5
3DE
331
239
  5
29E
331
11B
  5
142
331
DC
  5
103
331
46A
  5
8B6
331
117
  5
13E
331
3C7
  5
45C
331
886
  5
3AB
331
D8
  5
FF
331
113
  5
13A
331
3C3
  5
458
331
882
  5
3A7
331
8C1
  5
2D9
331
D4
  5
FB
331
43D
  5
889
331
384
  5
418
331
3BF
  5
454
331
87E
  5
3A3
331
8BD
  5
2D5
331
D0
  5
F7
331
439
  5
885
331
380
  5
414
331
3FA
  5
496
331
195
  5
1BC
331
20F
  5
236
331
156
  5
180
331
3BB
  5
450
331
87A
  5
39F
331
8B9
  5
2D1
331
435
  5
881
331
37C
  5
410
331
3F6
  5
48B
331
191
  5
1B8
331
20B
  5
232
331
152
  5
17C
331
1CC
  5
1F3
331
431
  5
87D
331
378
  5
40C
331
3F2
  5
487
331
18D
  5
1B4
331
207
  5
22E
331
14E
  5
176
331
1C8
  5
1EF
331
189
  5
1B0
331
203
  5
22A
331
14A
  5
172
331
1C4
  5
1EB
331
1C0
  5
1E7
331
2AC
  5
339
331
235
  5
29A
331
2A8
  5
32B
331
332
  5
3D9
331
231
  5
296
331
466
  5
8B2
331
2E3
  5
396
331
2A4
  5
327
331
729
  5
8E4
331
2DF
  5
392
331
22D
  5
292
331
462
  5
8AE
331
10F
  5
136
331
2A0
  5
323
331
32A
  5
3D4
331
229
  5
28E
331
725
  5
8E0
331
2DB
  5
38E
331
45E
  5
8AA
331
10B
  5
132
331
CC
  5
F3
331
45A
  5
8A6
331
107
  5
12E
331
3B7
  5
44C
331
876
  5
39B
331
8B5
  5
2CD
331
C8
  5
EF
331
103
  5
12A
331
3B3
  5
448
331
872
  5
3B3
331
8B1
  5
2C9
331
C4
  5
EB
331
42D
  5
879
331
374
  5
408
331
3EE
  5
483
331
429
  5
875
331
3AF
  5
444
331
8AD
  5
2C5
331
C0
  5
E7
331
3EA
  5
47F
331
185
  5
1AC
331
1FF
  5
226
331
146
  5
16E
331
3AB
  5
440
331
8A9
  5
2C1
331
425
  5
871
331
8E5
  5
CA
331
181
  5
1A8
331
3E6
  5
47B
331
1FB
  5
222
331
142
  5
16A
331
1BC
  5
1E3
331
421
  5
86E
331
8E1
  5
D4
331
3E2
  5
477
331
17D
  5
1A4
331
1F7
  5
21E
331
13E
  5
165
331
1B8
  5
1DF
331
1F3
  5
21A
331
13A
  5
161
331
1B4
  5
1DB
331
1B0
  5
1D7
331
86D
  5
3D6
331
869
  5
3E0
331
326
  5
3D0
331
29C
  5
31F
331
2D7
  5
38A
331
495
  5
8DB
331
322
  5
3CC
331
298
  5
31B
331
2D3
  5
386
331
35D
  5
3F5
331
294
  5
317
331
31E
  5
3C8
331
FF
  5
126
331
359
  5
3F1
331
290
  5
313
331
31A
  5
3C4
331
FB
  5
122
331
489
  5
8D5
331
136
  5
15D
331
3A7
  5
43C
331
8A5
  5
2BD
331
F7
  5
11E
331
132
  5
159
331
41D
  5
86A
331
3A3
  5
438
331
8A1
  5
2B9
331
F3
  5
11A
331
3DE
  5
473
331
89D
  5
2B5
331
8DC
  5
D5
331
419
  5
866
331
39F
  5
434
331
1EF
  5
216
331
175
  5
19E
331
3DA
  5
46F
331
899
  5
2B1
331
8D8
  5
DC
331
454
  5
8A0
331
39B
  5
430
331
415
  5
862
331
1EB
  5
212
331
171
  5
19A
331
450
  5
89C
331
411
  5
85E
331
1AC
  5
1D3
331
226
  5
28B
331
16D
  5
196
331
1E7
  5
20E
331
222
  5
287
331
1A8
  5
1CF
331
1E3
  5
20A
331
865
  5
3EA
331
861
  5
3FD
331
85D
  5
3F9
331
859
  5
403
331
2CF
  5
382
331
2CB
  5
37E
331
BC
  5
E3
331
316
  5
3C0
331
28C
  5
30F
331
2C7
  5
37A
331
351
  5
3EC
331
288
  5
301
331
485
  5
8D1
331
312
  5
3BC
331
2C3
  5
376
331
481
  5
8CD
331
30E
  5
3B8
331
284
  5
2FD
331
12E
  5
155
331
EF
  5
116
331
47D
  5
8C9
331
349
  5
3E7
331
280
  5
2E2
331
12A
  5
151
331
EB
  5
112
331
479
  5
8C5
331
126
  5
14D
331
E7
  5
10E
331
3D6
  5
46B
331
895
  5
2AD
331
8D4
  5
E2
331
397
  5
42C
331
122
  5
149
331
E3
  5
10A
331
3D2
  5
467
331
891
  5
2A9
331
44C
  5
898
331
393
  5
428
331
40D
  5
85A
331
8D0
  5
BE
331
3CE
  5
463
331
88D
  5
2A5
331
448
  5
894
331
38F
  5
423
331
409
  5
7BF
331
1A4
  5
1CB
331
21E
  5
283
331
165
  5
18F
331
1DF
  5
206
331
3CA
  5
45F
331
889
  5
2A1
331
8C8
  5
CF
331
444
  5
890
331
38B
  5
41F
331
405
  5
729
331
1A0
  5
1C7
331
21A
  5
27F
331
161
  5
18B
331
1DB
  5
202
331
440
  5
88C
331
401
  5
725
331
19C
  5
1C3
331
216
  5
27B
331
15D
  5
187
331
1D7
  5
1FE
331
198
  5
1BF
331
212
  5
239
331
159
  5
183
331
1D3
  5
1FA
331
498
  5
8DE
331
2BF
  5
372
331
2BB
  5
35C
331
27C
  5
2DE
331
2B7
  5
353
331
475
  5
8C1
331
341
  5
3E2
331
278
  5
2DA
331
471
  5
8BD
331
2FE
  5
3AE
331
2B3
  5
34A
331
11E
  5
145
331
DF
  5
106
331
46D
  5
8B9
331
339
  5
3DD
331
238
  5
29D
331
11A
  5
141
331
DB
  5
102
331
469
  5
8B5
331
116
  5
13D
331
D7
  5
FE
331
3C6
  5
45B
331
885
  5
3AA
331
8C4
  5
DB
331
387
  5
41B
331
112
  5
139
331
3C2
  5
457
331
881
  5
3A6
331
8C0
  5
2D8
331
D3
  5
FA
331
43C
  5
888
331
383
  5
417
331
3FD
  5
499
331
3BE
  5
453
331
87D
  5
3A2
331
8BC
  5
2D4
331
438
  5
884
331
37F
  5
413
331
3F9
  5
495
331
194
  5
1BB
331
20E
  5
235
331
155
  5
17F
331
1CF
  5
1F6
331
3BA
  5
44F
331
879
  5
39E
331
8B8
  5
2D0
331
434
  5
880
331
37B
  5
40F
331
3F5
  5
48A
331
190
  5
1B7
331
20A
  5
231
331
151
  5
17B
331
1CB
  5
1F2
331
430
  5
87C
331
3F1
  5
486
331
18C
  5
1B3
331
206
  5
22D
331
14D
  5
175
331
1C7
  5
1EE
331
188
  5
1AF
331
202
  5
229
331
149
  5
171
331
1C3
  5
1EA
331
2AF
  5
341
331
2AB
  5
333
331
234
  5
299
331
2A7
  5
32A
331
331
  5
3D8
331
230
  5
295
331
465
  5
8B1
331
2E2
  5
395
331
2A3
  5
326
331
728
  5
8E3
331
2DE
  5
391
331
22C
  5
291
331
461
  5
8AD
331
10E
  5
135
331
CF
  5
F6
331
329
  5
3D3
331
228
  5
28D
331
45D
  5
8A9
331
2DA
  5
38D
331
10A
  5
131
331
CB
  5
F2
331
459
  5
8A5
331
106
  5
12D
331
3B6
  5
44B
331
875
  5
39A
331
8B4
  5
2CC
331
C7
  5
EE
331
377
  5
40B
331
102
  5
129
331
3B2
  5
447
331
871
  5
3B2
331
8B0
  5
2C8
331
C3
  5
EA
331
42C
  5
878
331
373
  5
407
331
3ED
  5
482
331
3AE
  5
443
331
8AC
  5
2C4
331
428
  5
874
331
3E9
  5
47E
331
8E8
  5
C4
331
184
  5
1AB
331
1FE
  5
225
331
145
  5
16D
331
1BF
  5
1E6
331
3AA
  5
43F
331
8A8
  5
2C0
331
3E5
  5
47A
331
8E4
  5
C9
331
1FA
  5
221
331
141
  5
168
331
180
  5
1A7
331
1BB
  5
1E2
331
420
  5
86D
331
8E0
  5
D3
331
3E1
  5
476
331
17C
  5
1A3
331
1F6
  5
21D
331
13D
  5
164
331
1B7
  5
1DE
331
1F2
  5
219
331
139
  5
160
331
1B3
  5
1DA
331
86C
  5
3DC
331
868
  5
3E6
331
29F
  5
322
331
325
  5
3CF
331
29B
  5
31E
331
2D6
  5
389
331
494
  5
8DA
331
321
  5
3CB
331
297
  5
31A
331
2D2
  5
385
331
35C
  5
3F4
331
293
  5
316
331
31D
  5
3C7
331
FE
  5
125
331
48C
  5
8D9
331
319
  5
3C3
331
FA
  5
121
331
488
  5
8D4
331
135
  5
15C
331
3A6
  5
43B
331
8A4
  5
2BC
331
F6
  5
11D
331
131
  5
158
331
F2
  5
119
331
41C
  5
869
331
3A2
  5
437
331
8A0
  5
2B8
331
8DF
  5
D2
331
3DD
  5
472
331
89C
  5
2B4
331
8DB
  5
D8
331
457
  5
8A3
331
39E
  5
433
331
418
  5
865
331
1EE
  5
215
331
174
  5
19D
331
3D9
  5
46E
331
898
  5
2B0
331
453
  5
89F
331
39A
  5
42F
331
414
  5
861
331
1AF
  5
1D6
331
1EA
  5
211
331
170
  5
199
331
410
  5
85D
331
1AB
  5
1D2
331
225
  5
28A
331
16C
  5
195
331
1E6
  5
20D
331
221
  5
286
331
168
  5
192
331
1E2
  5
209
331
864
  5
3F0
331
860
  5
3FC
331
85C
  5
3F8
331
858
  5
402
331
2CE
  5
381
331
BF
  5
E6
331
28F
  5
312
331
2CA
  5
37D
331
315
  5
3BF
331
28B
  5
30E
331
2C6
  5
379
331
484
  5
8D0
331
311
  5
3BB
331
287
  5
300
331
2C2
  5
375
331
480
  5
8CC
331
30D
  5
3B7
331
283
  5
2FC
331
12D
  5
154
331
EE
  5
115
331
47C
  5
8C8
331
129
  5
150
331
EA
  5
111
331
8D7
  5
E1
331
478
  5
8C4
331
125
  5
14C
331
3D5
  5
46A
331
894
  5
2AC
331
E6
  5
10D
331
44F
  5
89B
331
396
  5
42B
331
121
  5
148
331
E2
  5
109
331
3D1
  5
466
331
890
  5
2A8
331
44B
  5
897
331
392
  5
427
331
40C
  5
859
331
1A7
  5
1CE
331
8CF
  5
BD
331
3CD
  5
462
331
88C
  5
2A4
331
447
  5
893
331
38E
  5
422
331
408
  5
7BE
331
1A3
  5
1CA
331
21D
  5
282
331
164
  5
18E
331
1DE
  5
205
331
3C9
  5
45E
331
888
  5
2A0
331
443
  5
88F
331
38A
  5
41E
331
404
  5
728
331
19F
  5
1C6
331
219
  5
27E
331
160
  5
18A
331
1DA
  5
201
331
400
  5
715
331
19B
  5
1C2
331
215
  5
27A
331
15C
  5
186
331
1D6
  5
1FD
331
211
  5
238
331
158
  5
182
331
1D2
  5
1F9
331
2BE
  5
371
331
27F
  5
2E1
331
2BA
  5
35B
331
27B
  5
2DD
331
474
  5
8C0
331
301
  5
3B1
331
2B6
  5
352
331
470
  5
8BC
331
2FD
  5
3AD
331
2B2
  5
349
331
11D
  5
144
331
DE
  5
105
331
46C
  5
8B8
331
119
  5
140
331
DA
  5
101
331
468
  5
8B4
331
115
  5
13C
331
D6
  5
FD
331
3C5
  5
45A
331
884
  5
3A9
331
8C3
  5
DA
331
43F
  5
88B
331
386
  5
41A
331
111
  5
138
331
3C1
  5
456
331
880
  5
3A5
331
8BF
  5
2D7
331
D2
  5
F9
331
43B
  5
887
331
382
  5
416
331
3FC
  5
498
331
197
  5
1BE
331
3BD
  5
452
331
87C
  5
3A1
331
8BB
  5
2D3
331
437
  5
883
331
37E
  5
412
331
3F8
  5
494
331
193
  5
1BA
331
20D
  5
234
331
154
  5
17E
331
1CE
  5
1F5
331
3B9
  5
44E
331
878
  5
39D
331
433
  5
87F
331
37A
  5
40E
331
3F4
  5
489
331
18F
  5
1B6
331
209
  5
230
331
150
  5
17A
331
1CA
  5
1F1
331
3F0
  5
485
331
18B
  5
1B2
331
205
  5
22C
331
14C
  5
174
331
1C6
  5
1ED
331
201
  5
228
331
148
  5
170
331
1C2
  5
1E9
331
2AE
  5
33B
331
237
  5
29C
331
2AA
  5
332
331
233
  5
298
331
2A6
  5
329
331
72B
  5
8E6
331
2E1
  5
394
331
22F
  5
294
331
464
  5
8B0
331
2A2
  5
325
331
727
  5
8E2
331
2DD
  5
390
331
22B
  5
290
331
460
  5
8AC
331
10D
  5
134
331
CE
  5
F5
331
328
  5
3D2
331
45C
  5
8A8
331
2D9
  5
38C
331
109
  5
130
331
8B7
  5
2CF
331
CA
  5
F1
331
458
  5
8A4
331
105
  5
12C
331
3B5
  5
44A
331
874
  5
399
331
8B3
  5
2CB
331
C6
  5
ED
331
42F
  5
87B
331
376
  5
40A
331
101
  5
128
331
3B1
  5
446
331
870
  5
3B6
331
8AF
  5
2C7
331
C2
  5
E9
331
42B
  5
877
331
372
  5
406
331
3EC
  5
481
331
187
  5
1AE
331
3AD
  5
442
331
8AB
  5
2C3
331
427
  5
873
331
3E8
  5
47D
331
8E7
  5
C3
331
183
  5
1AA
331
1FD
  5
224
331
144
  5
16C
331
1BE
  5
1E5
331
3A9
  5
43E
331
423
  5
870
331
8E3
  5
C8
331
3E4
  5
479
331
17F
  5
1A6
331
1F9
  5
220
331
140
  5
167
331
1BA
  5
1E1
331
3E0
  5
475
331
17B
  5
1A2
331
1F5
  5
21C
331
13C
  5
163
331
1B6
  5
1DD
331
1F1
  5
218
331
138
  5
15F
331
1B2
  5
1D9
331
86F
  5
3B5
331
86B
  5
3DB
331
29E
  5
321
331
497
  5
8DD
331
324
  5
3CE
331
29A
  5
31D
331
2D5
  5
388
331
7BF
  5
8E8
331
320
  5
3CA
331
296
  5
319
331
2D1
  5
384
331
35B
  5
3F3
331
292
  5
315
331
31C
  5
3C6
331
FD
  5
124
331
48B
  5
8D7
331
318
  5
3C2
331
8A7
  5
2BF
331
F9
  5
120
331
134
  5
15B
331
41F
  5
86C
331
3A5
  5
43A
331
8A3
  5
2BB
331
F5
  5
11C
331
130
  5
157
331
F1
  5
118
331
41B
  5
868
331
3A1
  5
436
331
89F
  5
2B7
331
8DE
  5
D7
331
177
  5
1A0
331
3DC
  5
471
331
89B
  5
2B3
331
8DA
  5
DE
331
456
  5
8A2
331
39D
  5
432
331
417
  5
864
331
1ED
  5
214
331
173
  5
19C
331
3D8
  5
46D
331
452
  5
89E
331
399
  5
42E
331
413
  5
860
331
1AE
  5
1D5
331
1E9
  5
210
331
16F
  5
198
331
1AA
  5
1D1
331
224
  5
289
331
16B
  5
194
331
1E5
  5
20C
331
220
  5
285
331
1E1
  5
208
331
867
  5
3E5
331
863
  5
3EF
331
85F
  5
3FB
331
85B
  5
3F7
331
2CD
  5
380
331
BE
  5
E5
331
28E
  5
311
331
2C9
  5
37C
331
353
  5
3EE
331
28A
  5
30D
331
487
  5
8D3
331
314
  5
3BE
331
2C5
  5
378
331
483
  5
8CF
331
310
  5
3BA
331
286
  5
2FF
331
2C1
  5
374
331
47F
  5
8CB
331
34B
  5
3E9
331
282
  5
2E4
331
12C
  5
153
331
ED
  5
114
331
47B
  5
8C7
331
128
  5
14F
331
E9
  5
110
331
897
  5
2AF
331
8D6
  5
E0
331
124
  5
14B
331
3D4
  5
469
331
893
  5
2AB
331
E5
  5
10C
331
44E
  5
89A
331
40F
  5
85C
331
395
  5
42A
331
120
  5
147
331
E1
  5
108
331
3D0
  5
465
331
88F
  5
2A7
331
44A
  5
896
331
391
  5
426
331
40B
  5
858
331
1A6
  5
1CD
331
167
  5
191
331
8CE
  5
BC
331
3CC
  5
461
331
88B
  5
2A3
331
8CA
  5
D1
331
446
  5
892
331
38D
  5
421
331
407
  5
72B
331
1A2
  5
1C9
331
21C
  5
281
331
163
  5
18D
331
1DD
  5
204
331
3C8
  5
45D
331
442
  5
88E
331
389
  5
41D
331
403
  5
727
331
19E
  5
1C5
331
218
  5
27D
331
15F
  5
189
331
1D9
  5
200
331
19A
  5
1C1
331
214
  5
279
331
15B
  5
185
331
1D5
  5
1FC
331
210
  5
237
331
1D1
  5
1F8
331
857
  5
401
331
2BD
  5
35E
331
27E
  5
2E0
331
2B9
  5
35A
331
477
  5
8C3
331
343
  5
3E4
331
27A
  5
2DC
331
473
  5
8BF
331
300
  5
3B0
331
2B5
  5
351
331
33B
  5
3DF
331
2B1
  5
343
331
46F
  5
8BB
331
2FC
  5
3AC
331
11C
  5
143
331
DD
  5
104
331
46B
  5
8B7
331
118
  5
13F
331
887
  5
29F
331
D9
  5
100
331
114
  5
13B
331
D5
  5
FC
331
3C4
  5
459
331
883
  5
3A8
331
8C2
  5
D9
331
43E
  5
88A
331
385
  5
419
331
110
  5
137
331
3C0
  5
455
331
87F
  5
3A4
331
8BE
  5
2D6
331
D1
  5
F8
331
43A
  5
886
331
381
  5
415
331
3FB
  5
497
331
196
  5
1BD
331
157
  5
181
331
3BC
  5
451
331
87B
  5
3A0
331
8BA
  5
2D2
331
436
  5
882
331
37D
  5
411
331
3F7
  5
48C
331
192
  5
1B9
331
20C
  5
233
331
153
  5
17D
331
1CD
  5
1F4
331
3B8
  5
44D
331
432
  5
87E
331
379
  5
40D
331
3F3
  5
488
331
18E
  5
1B5
331
208
  5
22F
331
14F
  5
177
331
1C9
  5
1F0
331
18A
  5
1B1
331
204
  5
22B
331
14B
  5
173
331
1C5
  5
1EC
331
200
  5
227
331
1C1
  5
1E8
331
2AD
  5
33A
331
236
  5
29B
331
2A9
  5
331
331
333
  5
3DA
331
232
  5
297
331
467
  5
8B3
331
2E4
  5
397
331
2A5
  5
328
331
72A
  5
8E5
331
2E0
  5
393
331
22E
  5
293
331
463
  5
8AF
331
2A1
  5
324
331
32B
  5
3D5
331
22A
  5
28F
331
726
  5
8E1
331
2DC
  5
38F
331
45F
  5
8AB
331
10C
  5
133
331
CD
  5
F4
331
45B
  5
8A7
331
2D8
  5
38B
331
108
  5
12F
331
877
  5
39C
331
8B6
  5
2CE
331
C9
  5
F0
331
104
  5
12B
331
3B4
  5
449
331
873
  5
398
331
8B2
  5
2CA
331
C5
  5
EC
331
42E
  5
87A
331
375
  5
409
331
3EF
  5
484
331
100
  5
127
331
3B0
  5
445
331
8AE
  5
2C6
331
C1
  5
E8
331
42A
  5
876
331
371
  5
405
331
3EB
  5
480
331
186
  5
1AD
331
147
  5
16F
331
3AC
  5
441
331
8AA
  5
2C2
331
426
  5
872
331
3E7
  5
47C
331
8E6
  5
C2
331
182
  5
1A9
331
1FC
  5
223
331
143
  5
16B
331
1BD
  5
1E4
331
3A8
  5
43D
331
422
  5
86F
331
8E2
  5
CE
331
3E3
  5
478
331
17E
  5
1A5
331
1F8
  5
21F
331
13F
  5
166
331
1B9
  5
1E0
331
17A
  5
1A1
331
1F4
  5
21B
331
13B
  5
162
331
1B5
  5
1DC
331
1F0
  5
217
331
1B1
  5
1D8
  0
XRECORD
  5
92E
102
{ACAD_REACTORS
330
92C
102
}
330
92C
100
AcDbXrecord
280
     1
 70
     2
  0
XRECORD
  5
92D
102
{ACAD_REACTORS
330
92C
102
}
330
92C
100
AcDbXrecord
280
     1
 40
1.25
  0
XRECORD
  5
92F
102
{ACAD_REACTORS
330
92C
102
}
330
92C
100
AcDbXrecord
280
     1
 40
1.570796326794896
  0
LAYOUT
  5
6E
102
{ACAD_XDICTIONARY
360
963
102
}
102
{ACAD_REACTORS
330
61
102
}
330
61
100
AcDbPlotSettings
  1

  2
none_device
  4
Letter_(8.50_x_11.00_Inches)
  6

 40
6.349999904632568
 41
6.349999904632568
 42
6.350006103515625
 43
6.350006103515625
 44
215.8999938964844
 45
279.3999938964844
 46
0.0
 47
0.0
 48
0.0
 49
0.0
140
0.0
141
0.0
142
1.0
143
72.17865070098238
 70
 11952
 72
     0
 73
     1
 74
     0
  7

 75
     0
147
0.0138545122454941
148
9776.703694158854
149
4410.275235297289
100
AcDbLayout
  1
Model
 70
     1
 71
     0
 10
0.0
 20
0.0
 11
12.0
 21
9.0
 12
0.0
 22
0.0
 32
0.0
 14
0.0
 24
0.0
 34
0.0
 15
0.0
 25
0.0
 35
0.0
146
0.0
 13
0.0
 23
0.0
 33
0.0
 16
1.0
 26
0.0
 36
0.0
 17
0.0
 27
1.0
 37
0.0
 76
     0
330
6B
331
8C
1001
ACAD_PSEXT
1000
なし
1000
なし
1000
適切ではありません
1000
新しいプロッタ環境設定名を選択しない限り、レイアウトは印刷されません。
1070
     0
  0
LAYOUT
  5
6A
102
{ACAD_XDICTIONARY
360
961
102
}
102
{ACAD_REACTORS
330
61
102
}
330
61
100
AcDbPlotSettings
  1

  2
FX DP 205
  4

  6

 40
0.0
 41
0.0
 42
0.0
 43
0.0
 44
0.0
 45
0.0
 46
0.0
 47
0.0
 48
0.0
 49
0.0
140
0.0
141
0.0
142
1.0
143
1.0
 70
   688
 72
     0
 73
     0
 74
     5
  7

 75
    16
147
1.0
148
0.0
149
0.0
100
AcDbLayout
  1
レイアウト1
 70
     1
 71
     1
 10
0.0
 20
0.0
 11
12.0
 21
9.0
 12
0.0
 22
0.0
 32
0.0
 14
1.000000000000000E+20
 24
1.000000000000000E+20
 34
1.000000000000000E+20
 15
-1.000000000000000E+20
 25
-1.000000000000000E+20
 35
-1.000000000000000E+20
146
0.0
 13
0.0
 23
0.0
 33
0.0
 16
1.0
 26
0.0
 36
0.0
 17
0.0
 27
1.0
 37
0.0
 76
     0
330
67
  0
MATERIAL
  5
19
102
{ACAD_XDICTIONARY
360
1A
102
}
102
{ACAD_REACTORS
330
10
102
}
330
10
100
AcDbMaterial
  1
ByBlock
 72
     0
 43
0.0208333333333333
 43
0.0
 43
0.0
 43
0.0
 43
0.0
 43
0.0208333333333333
 43
0.0
 43
0.0
 43
0.0
 43
0.0
 43
1.0
 43
0.0
 43
0.0
 43
0.0
 43
0.0
 43
1.0
 77
     0
 47
0.0208333333333333
 47
0.0
 47
0.0
 47
0.0
 47
0.0
 47
0.0208333333333333
 47
0.0
 47
0.0
 47
0.0
 47
0.0
 47
1.0
 47
0.0
 47
0.0
 47
0.0
 47
0.0
 47
1.0
171
     0
 49
0.0208333333333333
 49
0.0
 49
0.0
 49
0.0
 49
0.0
 49
0.0208333333333333
 49
0.0
 49
0.0
 49
0.0
 49
0.0
 49
1.0
 49
0.0
 49
0.0
 49
0.0
 49
0.0
 49
1.0
175
     0
142
0.0208333333333333
142
0.0
142
0.0
142
0.0
142
0.0
142
0.0208333333333333
142
0.0
142
0.0
142
0.0
142
0.0
142
1.0
142
0.0
142
0.0
142
0.0
142
0.0
142
1.0
179
     0
144
0.0208333333333333
144
0.0
144
0.0
144
0.0
144
0.0
144
0.0208333333333333
144
0.0
144
0.0
144
0.0
144
0.0
144
1.0
144
0.0
144
0.0
144
0.0
144
0.0
144
1.0
147
0.0208333333333333
147
0.0
147
0.0
147
0.0
147
0.0
147
0.0208333333333333
147
0.0
147
0.0
147
0.0
147
0.0
147
1.0
147
0.0
147
0.0
147
0.0
147
0.0
147
1.0
  0
MATERIAL
  5
11
102
{ACAD_XDICTIONARY
360
12
102
}
102
{ACAD_REACTORS
330
10
102
}
330
10
100
AcDbMaterial
  1
ByLayer
 72
     0
 43
0.0208333333333333
 43
0.0
 43
0.0
 43
0.0
 43
0.0
 43
0.0208333333333333
 43
0.0
 43
0.0
 43
0.0
 43
0.0
 43
1.0
 43
0.0
 43
0.0
 43
0.0
 43
0.0
 43
1.0
 77
     0
 47
0.0208333333333333
 47
0.0
 47
0.0
 47
0.0
 47
0.0
 47
0.0208333333333333
 47
0.0
 47
0.0
 47
0.0
 47
0.0
 47
1.0
 47
0.0
 47
0.0
 47
0.0
 47
0.0
 47
1.0
171
     0
 49
0.0208333333333333
 49
0.0
 49
0.0
 49
0.0
 49
0.0
 49
0.0208333333333333
 49
0.0
 49
0.0
 49
0.0
 49
0.0
 49
1.0
 49
0.0
 49
0.0
 49
0.0
 49
0.0
 49
1.0
175
     0
142
0.0208333333333333
142
0.0
142
0.0
142
0.0
142
0.0
142
0.0208333333333333
142
0.0
142
0.0
142
0.0
142
0.0
142
1.0
142
0.0
142
0.0
142
0.0
142
0.0
142
1.0
179
     0
144
0.0208333333333333
144
0.0
144
0.0
144
0.0
144
0.0
144
0.0208333333333333
144
0.0
144
0.0
144
0.0
144
0.0
144
1.0
144
0.0
144
0.0
144
0.0
144
0.0
144
1.0
147
0.0208333333333333
147
0.0
147
0.0
147
0.0
147
0.0
147
0.0208333333333333
147
0.0
147
0.0
147
0.0
147
0.0
147
1.0
147
0.0
147
0.0
147
0.0
147
0.0
147
1.0
  0
MATERIAL
  5
21
102
{ACAD_XDICTIONARY
360
22
102
}
102
{ACAD_REACTORS
330
10
102
}
330
10
100
AcDbMaterial
  1
Global
 72
     0
 43
0.0208333333333333
 43
0.0
 43
0.0
 43
0.0
 43
0.0
 43
0.0208333333333333
 43
0.0
 43
0.0
 43
0.0
 43
0.0
 43
1.0
 43
0.0
 43
0.0
 43
0.0
 43
0.0
 43
1.0
 77
     0
 47
0.0208333333333333
 47
0.0
 47
0.0
 47
0.0
 47
0.0
 47
0.0208333333333333
 47
0.0
 47
0.0
 47
0.0
 47
0.0
 47
1.0
 47
0.0
 47
0.0
 47
0.0
 47
0.0
 47
1.0
171
     0
 49
0.0208333333333333
 49
0.0
 49
0.0
 49
0.0
 49
0.0
 49
0.0208333333333333
 49
0.0
 49
0.0
 49
0.0
 49
0.0
 49
1.0
 49
0.0
 49
0.0
 49
0.0
 49
0.0
 49
1.0
175
     0
142
0.0208333333333333
142
0.0
142
0.0
142
0.0
142
0.0
142
0.0208333333333333
142
0.0
142
0.0
142
0.0
142
0.0
142
1.0
142
0.0
142
0.0
142
0.0
142
0.0
142
1.0
179
     0
144
0.0208333333333333
144
0.0
144
0.0
144
0.0
144
0.0
144
0.0208333333333333
144
0.0
144
0.0
144
0.0
144
0.0
144
1.0
144
0.0
144
0.0
144
0.0
144
0.0
144
1.0
147
0.0208333333333333
147
0.0
147
0.0
147
0.0
147
0.0
147
0.0208333333333333
147
0.0
147
0.0
147
0.0
147
0.0
147
1.0
147
0.0
147
0.0
147
0.0
147
0.0
147
1.0
  0
MLEADERSTYLE
  5
66
102
{ACAD_REACTORS
330
65
102
}
330
65
100
AcDbMLeaderStyle
170
     2
171
     1
172
     0
 90
        2
 40
0.0
 41
0.0
173
     1
 91
-1056964608
340
5A
 92
       -2
290
     1
 42
0.09
291
     1
 43
0.36
  3
Standard
 44
0.18
300

342
55
174
     1
178
     6
175
     1
176
     0
 93
-1056964608
 45
0.18
292
     0
297
     0
 46
0.18
 94
-1056964608
 47
1.0
 49
1.0
140
1.0
293
     1
141
0.0
294
     1
177
     0
142
1.0
295
     0
296
     0
143
0.125
1001
ACAD
1000
AcRTDxfName
1000
MLEADERSTYLE
1001
ACAD_MLEADERVER
1070
     2
  0
MLINESTYLE
  5
5F
102
{ACAD_REACTORS
330
5E
102
}
330
5E
100
AcDbMlineStyle
  2
STANDARD
 70
     0
  3

 62
   256
 51
90.0
 52
90.0
 71
     2
 49
0.5
 62
   256
  6
BYLAYER
 49
-0.5
 62
   256
  6
BYLAYER
  0
ACDBPLACEHOLDER
  5
F
102
{ACAD_REACTORS
330
E
102
}
330
E
  0
SCALE
  5
43
102
{ACAD_REACTORS
330
42
102
}
330
42
100
AcDbScale
 70
     0
300
1:1
140
1.0
141
1.0
290
     1
1001
ACAD
1000
AcRTDxfName
1000
SCALE
  0
SCALE
  5
44
102
{ACAD_REACTORS
330
42
102
}
330
42
100
AcDbScale
 70
     0
300
1/128" = 1'-0"
140
0.0078125
141
12.0
290
     0
1001
ACAD
1000
AcRTDxfName
1000
SCALE
  0
SCALE
  5
45
102
{ACAD_REACTORS
330
42
102
}
330
42
100
AcDbScale
 70
     0
300
1/64" = 1'-0"
140
0.015625
141
12.0
290
     0
1001
ACAD
1000
AcRTDxfName
1000
SCALE
  0
SCALE
  5
46
102
{ACAD_REACTORS
330
42
102
}
330
42
100
AcDbScale
 70
     0
300
1/32" = 1'-0"
140
0.03125
141
12.0
290
     0
1001
ACAD
1000
AcRTDxfName
1000
SCALE
  0
SCALE
  5
47
102
{ACAD_REACTORS
330
42
102
}
330
42
100
AcDbScale
 70
     0
300
1/16" = 1'-0"
140
0.0625
141
12.0
290
     0
1001
ACAD
1000
AcRTDxfName
1000
SCALE
  0
SCALE
  5
48
102
{ACAD_REACTORS
330
42
102
}
330
42
100
AcDbScale
 70
     0
300
3/32" = 1'-0"
140
0.09375
141
12.0
290
     0
1001
ACAD
1000
AcRTDxfName
1000
SCALE
  0
SCALE
  5
49
102
{ACAD_REACTORS
330
42
102
}
330
42
100
AcDbScale
 70
     0
300
1/8" = 1'-0"
140
0.125
141
12.0
290
     0
1001
ACAD
1000
AcRTDxfName
1000
SCALE
  0
SCALE
  5
4A
102
{ACAD_REACTORS
330
42
102
}
330
42
100
AcDbScale
 70
     0
300
3/16" = 1'-0"
140
0.1875
141
12.0
290
     0
1001
ACAD
1000
AcRTDxfName
1000
SCALE
  0
SCALE
  5
4B
102
{ACAD_REACTORS
330
42
102
}
330
42
100
AcDbScale
 70
     0
300
1/4" = 1'-0"
140
0.25
141
12.0
290
     0
1001
ACAD
1000
AcRTDxfName
1000
SCALE
  0
SCALE
  5
4C
102
{ACAD_REACTORS
330
42
102
}
330
42
100
AcDbScale
 70
     0
300
3/8" = 1'-0"
140
0.375
141
12.0
290
     0
1001
ACAD
1000
AcRTDxfName
1000
SCALE
  0
SCALE
  5
4D
102
{ACAD_REACTORS
330
42
102
}
330
42
100
AcDbScale
 70
     0
300
1/2" = 1'-0"
140
0.5
141
12.0
290
     0
1001
ACAD
1000
AcRTDxfName
1000
SCALE
  0
SCALE
  5
4E
102
{ACAD_REACTORS
330
42
102
}
330
42
100
AcDbScale
 70
     0
300
3/4" = 1'-0"
140
0.75
141
12.0
290
     0
1001
ACAD
1000
AcRTDxfName
1000
SCALE
  0
SCALE
  5
4F
102
{ACAD_REACTORS
330
42
102
}
330
42
100
AcDbScale
 70
     0
300
1" = 1'-0"
140
1.0
141
12.0
290
     0
1001
ACAD
1000
AcRTDxfName
1000
SCALE
  0
SCALE
  5
50
102
{ACAD_REACTORS
330
42
102
}
330
42
100
AcDbScale
 70
     0
300
1-1/2" = 1'-0"
140
1.5
141
12.0
290
     0
1001
ACAD
1000
AcRTDxfName
1000
SCALE
  0
SCALE
  5
51
102
{ACAD_REACTORS
330
42
102
}
330
42
100
AcDbScale
 70
     0
300
3" = 1'-0"
140
3.0
141
12.0
290
     0
1001
ACAD
1000
AcRTDxfName
1000
SCALE
  0
SCALE
  5
52
102
{ACAD_REACTORS
330
42
102
}
330
42
100
AcDbScale
 70
     0
300
6" = 1'-0"
140
6.0
141
12.0
290
     0
1001
ACAD
1000
AcRTDxfName
1000
SCALE
  0
SCALE
  5
53
102
{ACAD_REACTORS
330
42
102
}
330
42
100
AcDbScale
 70
     0
300
1'-0" = 1'-0"
140
12.0
141
12.0
290
     0
1001
ACAD
1000
AcRTDxfName
1000
SCALE
  0
TABLESTYLE
  5
64
102
{ACAD_XDICTIONARY
360
6B3
102
}
102
{ACAD_REACTORS
330
63
102
}
330
63
100
AcDbTableStyle
  3
Standard
 70
     0
 71
     0
 40
0.06
 41
0.06
280
     0
281
     0
  7
STANDARD
140
0.18
170
     2
 62
     0
 63
     7
283
     0
274
    -2
284
     1
 64
     0
275
    -2
285
     1
 65
     0
276
    -2
286
     1
 66
     0
277
    -2
287
     1
 67
     0
278
    -2
288
     1
 68
     0
279
    -2
289
     1
 69
     0
  7
STANDARD
140
0.25
170
     5
 62
     0
 63
     7
283
     0
274
    -2
284
     1
 64
     0
275
    -2
285
     1
 65
     0
276
    -2
286
     1
 66
     0
277
    -2
287
     1
 67
     0
278
    -2
288
     1
 68
     0
279
    -2
289
     1
 69
     0
  7
STANDARD
140
0.18
170
     5
 62
     0
 63
     7
283
     0
274
    -2
284
     1
 64
     0
275
    -2
285
     1
 65
     0
276
    -2
286
     1
 66
     0
277
    -2
287
     1
 67
     0
278
    -2
288
     1
 68
     0
279
    -2
289
     1
 69
     0
  0
VISUALSTYLE
  5
2F
102
{ACAD_XDICTIONARY
360
93A
102
}
102
{ACAD_REACTORS
330
29
102
}
330
29
100
AcDbVisualStyle
  2

 70
     4
 71
     0
 72
     2
 73
     0
 90
        0
 40
-0.6
 41
-30.0
 62
     5
 63
     7
 74
     1
 91
        4
 64
     7
 65
   257
 75
     1
175
     1
 42
1.0
 92
        0
 66
   257
 43
1.0
 76
     1
 77
     6
 78
     2
 67
     7
 79
     5
170
     0
171
     0
290
     0
174
     0
 93
        1
 44
0.0
173
     0
291
     0
 45
0.0
1001
ACAD
1000
AcDbSavedByObjectVersion
1070
     0
  0
VISUALSTYLE
  5
6F8
102
{ACAD_XDICTIONARY
360
967
102
}
102
{ACAD_REACTORS
330
29
102
}
330
29
100
AcDbVisualStyle
  2

 70
     6
 71
     1
 72
     2
 73
     2
 90
        0
 40
-0.6
 41
-30.0
 62
     5
 63
     7
 74
     2
 91
        2
 64
     7
 65
   257
 75
     2
175
     1
 42
40.0
 92
        0
 66
   257
 43
1.0
 76
     1
 77
     6
 78
     2
 67
     7
 79
     3
170
     0
171
     0
290
     0
174
     0
 93
        1
 44
0.0
173
     0
291
     0
 45
0.0
1001
ACAD
1000
AcDbSavedByObjectVersion
1070
     0
  0
VISUALSTYLE
  5
53F
102
{ACAD_XDICTIONARY
360
965
102
}
102
{ACAD_REACTORS
330
29
102
}
330
29
100
AcDbVisualStyle
  2

 70
     5
 71
     0
 72
     2
 73
     1
 90
        0
 40
-0.6
 41
-30.0
 62
     5
 63
     7
 74
     1
 91
        4
 64
     7
 65
   257
 75
     1
175
     1
 42
1.0
 92
        0
 66
   257
 43
1.0
 76
     1
 77
     6
 78
     2
 67
     7
 79
     5
170
     0
171
     0
290
     0
174
     0
 93
        1
 44
0.0
173
     0
291
     0
 45
0.0
1001
ACAD
1000
AcDbSavedByObjectVersion
1070
     0
  0
VISUALSTYLE
  5
2E
102
{ACAD_XDICTIONARY
360
938
102
}
102
{ACAD_REACTORS
330
29
102
}
330
29
100
AcDbVisualStyle
  2

 70
     7
 71
     1
 72
     0
 73
     1
 90
        0
 40
-0.6
 41
-30.0
 62
     5
 63
     7
 74
     0
 91
        4
 64
     7
 65
   257
 75
     1
175
     1
 42
1.0
 92
        8
 66
     7
 43
1.0
 76
     1
 77
     6
 78
     2
 67
     7
 79
     5
170
     0
171
     0
290
     0
174
     0
 93
        1
 44
0.0
173
     0
291
     1
 45
0.0
1001
ACAD
1000
AcDbSavedByObjectVersion
1070
     0
  0
VISUALSTYLE
  5
35
102
{ACAD_XDICTIONARY
360
946
102
}
102
{ACAD_REACTORS
330
29
102
}
330
29
100
AcDbVisualStyle
  2

 70
    12
 71
     2
 72
     2
 73
     0
 90
        0
 40
-0.6
 41
-30.0
 62
     5
 63
     7
 74
     1
 91
        4
 64
     7
 65
   257
 75
     1
175
     1
 42
1.0
 92
        8
 66
     7
 43
1.0
 76
     1
 77
     6
 78
     2
 67
     7
 79
     5
170
     0
171
     0
290
     0
174
     0
 93
        1
 44
50.0
173
     0
291
     1
 45
0.0
1001
ACAD
1000
AcDbSavedByObjectVersion
1070
     0
  0
VISUALSTYLE
  5
39
102
{ACAD_XDICTIONARY
360
94E
102
}
102
{ACAD_REACTORS
330
29
102
}
330
29
100
AcDbVisualStyle
  2

 70
    16
 71
     2
 72
     2
 73
     3
 90
        0
 40
-0.6
 41
-30.0
 62
     5
 63
     8
 74
     1
 91
        4
 64
     7
 65
   257
 75
     1
175
     1
 42
1.0
 92
        8
 66
     8
 43
1.0
 76
     1
 77
     6
 78
     2
 67
     7
 79
     5
170
     0
171
     0
290
     0
174
     0
 93
        1
 44
0.0
173
     0
291
     1
 45
0.0
1001
ACAD
1000
AcDbSavedByObjectVersion
1070
     0
  0
VISUALSTYLE
  5
32
102
{ACAD_XDICTIONARY
360
940
102
}
102
{ACAD_REACTORS
330
29
102
}
330
29
100
AcDbVisualStyle
  2

 70
     9
 71
     3
 72
     2
 73
     0
 90
        0
 40
-0.6
 41
-30.0
 62
     5
 63
     7
 74
     2
 91
        2
 64
     7
 65
   257
 75
     1
175
     1
 42
179.0
 92
        8
 66
     7
 43
1.0
 76
     1
 77
     6
 78
     2
 67
     7
 79
     3
170
     0
171
     0
290
     0
174
     0
 93
        1
 44
0.0
173
     0
291
     0
 45
0.0
1001
ACAD
1000
AcDbSavedByObjectVersion
1070
     0
  0
VISUALSTYLE
  5
34
102
{ACAD_XDICTIONARY
360
944
102
}
102
{ACAD_REACTORS
330
29
102
}
330
29
100
AcDbVisualStyle
  2

 70
    11
 71
     2
 72
     2
 73
     0
 90
        0
 40
-0.6
 41
-30.0
 62
     5
 63
     7
 74
     1
 91
        4
 64
     7
 65
   257
 75
     1
175
     1
 42
1.0
 92
        8
 66
     7
 43
1.0
 76
     1
 77
     6
 78
     2
 67
     7
 79
     5
170
     0
171
     0
290
     0
174
     0
 93
        1
 44
-50.0
173
     0
291
     1
 45
0.0
1001
ACAD
1000
AcDbSavedByObjectVersion
1070
     0
  0
VISUALSTYLE
  5
41
102
{ACAD_XDICTIONARY
360
95E
102
}
102
{ACAD_REACTORS
330
29
102
}
330
29
100
AcDbVisualStyle
  2

 70
    22
 71
     2
 72
     2
 73
     0
 90
        0
 40
-0.6
 41
-30.0
 62
     5
 63
     7
 74
     1
 91
        4
 64
     7
 65
   257
 75
     1
175
     1
 42
1.0
 92
        8
 66
     7
 43
1.0
 76
     1
 77
     6
 78
     2
 67
     7
 79
     5
170
     0
171
     0
290
     0
174
     0
 93
        1
 44
0.0
173
     0
291
     1
 45
0.0
1001
ACAD
1000
AcDbSavedByObjectVersion
1070
     0
  0
VISUALSTYLE
  5
38
102
{ACAD_XDICTIONARY
360
94C
102
}
102
{ACAD_REACTORS
330
29
102
}
330
29
100
AcDbVisualStyle
  2

 70
    15
 71
     2
 72
     2
 73
     0
 90
        0
 40
-0.6
 41
-30.0
 62
     5
 63
     7
 74
     1
 91
        4
 64
     7
 65
   257
 75
     1
175
     1
 42
1.0
 92
        8
 66
     7
 43
1.0
 76
     1
 77
     6
 78
     2
 67
     7
 79
     5
170
     0
171
     0
290
     0
174
     0
 93
        1
 44
0.0
173
     0
291
     1
 45
0.0
1001
ACAD
1000
AcDbSavedByObjectVersion
1070
     0
  0
VISUALSTYLE
  5
2A
102
{ACAD_XDICTIONARY
360
930
102
}
102
{ACAD_REACTORS
330
29
102
}
330
29
100
AcDbVisualStyle
  2

 70
     0
 71
     2
 72
     1
 73
     1
 90
        2
 40
-0.6
 41
30.0
 62
     5
 63
     7
 74
     0
 91
        0
 64
     7
 65
   257
 75
     1
175
     1
 42
1.0
 92
        8
 66
     7
 43
1.0
 76
     1
 77
     6
 78
     2
 67
     7
 79
     5
170
     0
171
     0
290
     0
174
     0
 93
       13
 44
0.0
173
     0
291
     1
 45
0.0
1001
ACAD
1000
AcDbSavedByObjectVersion
1070
     0
  0
VISUALSTYLE
  5
2B
102
{ACAD_XDICTIONARY
360
932
102
}
102
{ACAD_REACTORS
330
29
102
}
330
29
100
AcDbVisualStyle
  2

 70
     1
 71
     2
 72
     1
 73
     1
 90
        2
 40
-0.6
 41
30.0
 62
     5
 63
     7
 74
     1
 91
        0
 64
     7
 65
   257
 75
     1
175
     1
 42
1.0
 92
        0
 66
   257
 43
1.0
 76
     1
 77
     6
 78
     2
 67
     7
 79
     5
170
     0
171
     0
290
     0
174
     0
 93
       13
 44
0.0
173
     0
291
     1
 45
0.0
1001
ACAD
1000
AcDbSavedByObjectVersion
1070
     0
  0
VISUALSTYLE
  5
2C
102
{ACAD_XDICTIONARY
360
934
102
}
102
{ACAD_REACTORS
330
29
102
}
330
29
100
AcDbVisualStyle
  2

 70
     2
 71
     2
 72
     2
 73
     1
 90
        2
 40
-0.6
 41
30.0
 62
     5
 63
     7
 74
     0
 91
        0
 64
     7
 65
   257
 75
     1
175
     1
 42
1.0
 92
        0
 66
     7
 43
1.0
 76
     1
 77
     6
 78
     2
 67
     7
 79
     5
170
     0
171
     0
290
     0
174
     0
 93
       13
 44
0.0
173
     0
291
     1
 45
0.0
1001
ACAD
1000
AcDbSavedByObjectVersion
1070
     0
  0
VISUALSTYLE
  5
2D
102
{ACAD_XDICTIONARY
360
936
102
}
102
{ACAD_REACTORS
330
29
102
}
330
29
100
AcDbVisualStyle
  2

 70
     3
 71
     2
 72
     2
 73
     1
 90
        2
 40
-0.6
 41
30.0
 62
     5
 63
     7
 74
     1
 91
        0
 64
     7
 65
   257
 75
     1
175
     1
 42
1.0
 92
        0
 66
   257
 43
1.0
 76
     1
 77
     6
 78
     2
 67
     7
 79
     5
170
     0
171
     0
290
     0
174
     0
 93
       13
 44
0.0
173
     0
291
     1
 45
0.0
1001
ACAD
1000
AcDbSavedByObjectVersion
1070
     0
  0
VISUALSTYLE
  5
31
102
{ACAD_XDICTIONARY
360
93E
102
}
102
{ACAD_REACTORS
330
29
102
}
330
29
100
AcDbVisualStyle
  2

 70
     6
 71
     1
 72
     2
 73
     2
 90
        0
 40
-0.6
 41
-30.0
 62
     5
 63
     7
 74
     2
 91
        2
 64
     7
 65
   257
 75
     2
175
     1
 42
40.0
 92
        0
 66
   257
 43
1.0
 76
     1
 77
     6
 78
     2
 67
     7
 79
     3
170
     0
171
     0
290
     0
174
     0
 93
        1
 44
0.0
173
     0
291
     0
 45
0.0
1001
ACAD
1000
AcDbSavedByObjectVersion
1070
     0
  0
VISUALSTYLE
  5
3F
102
{ACAD_XDICTIONARY
360
95A
102
}
102
{ACAD_REACTORS
330
29
102
}
330
29
100
AcDbVisualStyle
  2

 70
    20
 71
     2
 72
     2
 73
     0
 90
        0
 40
-0.6
 41
-30.0
 62
     5
 63
     7
 74
     1
 91
        4
 64
     7
 65
   257
 75
     1
175
     1
 42
1.0
 92
       10
 66
     7
 43
1.0
 76
     1
 77
     6
 78
     2
 67
     7
 79
     5
170
     0
171
     0
290
     0
174
     0
 93
        1
 44
0.0
173
     0
291
     1
 45
0.0
1001
ACAD
1000
AcDbSavedByObjectVersion
1070
     0
  0
VISUALSTYLE
  5
37
102
{ACAD_XDICTIONARY
360
94A
102
}
102
{ACAD_REACTORS
330
29
102
}
330
29
100
AcDbVisualStyle
  2

 70
    14
 71
     2
 72
     2
 73
     0
 90
        0
 40
-0.6
 41
-30.0
 62
     5
 63
     7
 74
     1
 91
        4
 64
     7
 65
   257
 75
     7
175
     7
 42
1.0
 92
        8
 66
     7
 43
1.0
 76
     1
 77
     6
 78
     2
 67
     7
 79
     5
170
     0
171
     0
290
     0
174
     0
 93
        1
 44
0.0
173
     0
291
     1
 45
0.0
1001
ACAD
1000
AcDbSavedByObjectVersion
1070
     0
  0
VISUALSTYLE
  5
40
102
{ACAD_XDICTIONARY
360
95C
102
}
102
{ACAD_REACTORS
330
29
102
}
330
29
100
AcDbVisualStyle
  2

 70
    21
 71
     2
 72
     2
 73
     0
 90
        0
 40
-0.6
 41
-30.0
 62
     5
 63
     7
 74
     1
 91
        4
 64
     7
 65
   257
 75
     1
175
     1
 42
1.0
 92
        9
 66
     7
 43
1.0
 76
     1
 77
     6
 78
     2
 67
     7
 79
     5
170
     0
171
     0
290
     0
174
     0
 93
        1
 44
0.0
173
     0
291
     1
 45
0.0
1001
ACAD
1000
AcDbSavedByObjectVersion
1070
     0
  0
VISUALSTYLE
  5
33
102
{ACAD_XDICTIONARY
360
942
102
}
102
{ACAD_REACTORS
330
29
102
}
330
29
100
AcDbVisualStyle
  2

 70
     8
 71
     2
 72
     3
 73
     0
 90
        2
 40
-0.6
 41
30.0
 62
     5
 63
     7
 74
     0
 91
        0
 64
     7
 65
   257
 75
     1
175
     1
 42
1.0
 92
        8
 66
   257
 43
1.0
 76
     1
 77
     6
 78
     2
 67
     7
 79
     3
170
     0
171
     0
290
     0
174
     0
 93
       13
 44
0.0
173
     0
291
     0
 45
0.0
1001
ACAD
1000
AcDbSavedByObjectVersion
1070
     0
  0
VISUALSTYLE
  5
3E
102
{ACAD_XDICTIONARY
360
958
102
}
102
{ACAD_REACTORS
330
29
102
}
330
29
100
AcDbVisualStyle
  2

 70
    27
 71
     2
 72
     2
 73
     1
 90
        2
 40
-0.6
 41
30.0
 62
     5
 63
     7
 74
     0
 91
        4
 64
     7
 65
   257
 75
     1
175
     1
 42
1.0
 92
        8
 66
   257
 43
1.0
 76
     1
 77
     6
 78
     2
 67
     8
 79
     3
170
     0
171
     0
290
     0
174
     0
 93
        5
 44
0.0
173
     0
291
     0
 45
0.0
1001
ACAD
1000
AcDbSavedByObjectVersion
1070
     0
  0
VISUALSTYLE
  5
3D
102
{ACAD_XDICTIONARY
360
956
102
}
102
{ACAD_REACTORS
330
29
102
}
330
29
100
AcDbVisualStyle
  2

 70
    26
 71
     2
 72
     2
 73
     1
 90
        2
 40
-0.6
 41
30.0
 62
     5
 63
     7
 74
     1
 91
       10
 64
     7
 65
   257
 75
     2
175
     1
 42
1.0
 92
        8
 66
   257
 43
1.0
 76
     1
 77
     6
 78
     2
 67
     7
 79
     3
170
     0
171
     0
290
     0
174
     0
 93
        5
 44
0.0
173
     0
291
     0
 45
0.0
1001
ACAD
1000
AcDbSavedByObjectVersion
1070
     0
  0
VISUALSTYLE
  5
3A
102
{ACAD_XDICTIONARY
360
950
102
}
102
{ACAD_REACTORS
330
29
102
}
330
29
100
AcDbVisualStyle
  2

 70
    23
 71
     2
 72
     2
 73
     3
 90
        0
 40
-0.6
 41
-30.0
 62
     5
 63
     7
 74
     2
 91
        2
 64
     7
 65
     7
 75
     1
175
     1
 42
40.0
 92
        8
 66
     7
 43
1.0
 76
     1
 77
     6
 78
     2
 67
     7
 79
     3
170
     0
171
     0
290
     0
174
     0
 93
        1
 44
0.0
173
     0
291
     0
 45
0.0
1001
ACAD
1000
AcDbSavedByObjectVersion
1070
     0
  0
VISUALSTYLE
  5
3B
102
{ACAD_XDICTIONARY
360
952
102
}
102
{ACAD_REACTORS
330
29
102
}
330
29
100
AcDbVisualStyle
  2

 70
    24
 71
     1
 72
     2
 73
     2
 90
        0
 40
-0.6
 41
-30.0
 62
     5
 63
     7
 74
     2
 91
        2
 64
     7
 65
     7
 75
     1
175
     1
 42
40.0
 92
       11
 66
     7
 43
1.0
 76
     1
 77
     6
 78
     2
 67
     7
 79
     6
170
     0
171
     0
290
     0
174
     0
 93
        1
 44
0.0
173
     0
291
     0
 45
0.0
1001
ACAD
1000
AcDbSavedByObjectVersion
1070
     0
  0
VISUALSTYLE
  5
36
102
{ACAD_XDICTIONARY
360
948
102
}
102
{ACAD_REACTORS
330
29
102
}
330
29
100
AcDbVisualStyle
  2

 70
    13
 71
     2
 72
     2
 73
     0
 90
        0
 40
-0.6
 41
-30.0
 62
     5
 63
     7
 74
     1
 91
        4
 64
     7
 65
   257
 75
     1
175
     1
 42
1.0
 92
       12
 66
     7
 43
1.0
 76
     1
 77
     6
 78
     2
 67
     7
 79
     5
170
     0
171
     0
290
     0
174
     0
 93
        1
 44
0.0
173
     0
291
     1
 45
0.0
1001
ACAD
1000
AcDbSavedByObjectVersion
1070
     0
  0
VISUALSTYLE
  5
30
102
{ACAD_XDICTIONARY
360
93C
102
}
102
{ACAD_REACTORS
330
29
102
}
330
29
100
AcDbVisualStyle
  2

 70
     5
 71
     0
 72
     2
 73
     0
 90
        0
 40
-0.6
 41
-30.0
 62
     5
 63
     7
 74
     1
 91
        4
 64
     7
 65
   257
 75
     1
175
     1
 42
1.0
 92
        0
 66
   257
 43
1.0
 76
     1
 77
     6
 78
     2
 67
     7
 79
     3
170
     0
171
     0
290
     0
174
     0
 93
        1
 44
0.0
173
     0
291
     0
 45
0.0
1001
ACAD
1000
AcDbSavedByObjectVersion
1070
     0
  0
VISUALSTYLE
  5
3C
102
{ACAD_XDICTIONARY
360
954
102
}
102
{ACAD_REACTORS
330
29
102
}
330
29
100
AcDbVisualStyle
  2

 70
    25
 71
     2
 72
     2
 73
     1
 90
        1
 40
0.5
 41
-30.0
 62
     5
 63
     7
 74
     1
 91
        0
 64
     7
 65
   257
 75
     1
175
     1
 42
1.0
 92
        8
 66
     7
 43
1.0
 76
     1
 77
     6
 78
     2
 67
     7
 79
     3
170
     0
171
     0
290
     0
174
     0
 93
       13
 44
0.0
173
     0
291
     0
 45
0.0
1001
ACAD
1000
AcDbSavedByObjectVersion
1070
     0
  0
DICTIONARYVAR
  5
6AE
102
{ACAD_REACTORS
330
6AB
102
}
330
6AB
100
DictionaryVariables
280
     0
  1
1:1
  0
DICTIONARYVAR
  5
6AD
102
{ACAD_REACTORS
330
6AB
102
}
330
6AB
100
DictionaryVariables
280
     0
  1
STANDARD
  0
DICTIONARYVAR
  5
6AC
102
{ACAD_REACTORS
330
6AB
102
}
330
6AB
100
DictionaryVariables
280
     0
  1
STANDARD
  0
DICTIONARYVAR
  5
6B1
102
{ACAD_REACTORS
330
6AB
102
}
330
6AB
100
DictionaryVariables
280
     0
  1
1
  0
DICTIONARYVAR
  5
6B0
102
{ACAD_REACTORS
330
6AB
102
}
330
6AB
100
DictionaryVariables
280
     0
  1
0
  0
DICTIONARYVAR
  5
6AF
102
{ACAD_REACTORS
330
6AB
102
}
330
6AB
100
DictionaryVariables
280
     0
  1
127
  0
DICTIONARYVAR
  5
80D
102
{ACAD_REACTORS
330
6AB
102
}
330
6AB
100
DictionaryVariables
280
     0
  1
2
  0
DICTIONARY
  5
963
330
6E
100
AcDbDictionary
280
     1
281
     1
  3
ACAD_XREC_ROUNDTRIP
360
964
  0
DICTIONARY
  5
961
330
6A
100
AcDbDictionary
280
     1
281
     1
  3
ACAD_XREC_ROUNDTRIP
360
962
  0
DICTIONARY
  5
1A
330
19
100
AcDbDictionary
280
     1
281
     1
  3
ACAD_XREC_ROUNDTRIP
360
6B8
  3
BUMPTILE
360
1C
  3
DIFFUSETILE
360
1B
  3
OPACITYTILE
360
1F
  3
REFLECTIONTILE
360
1E
  3
REFRACTIONTILE
360
20
  3
SPECULARTILE
360
1D
  0
DICTIONARY
  5
12
330
11
100
AcDbDictionary
280
     1
281
     1
  3
ACAD_XREC_ROUNDTRIP
360
6B7
  3
BUMPTILE
360
14
  3
DIFFUSETILE
360
13
  3
OPACITYTILE
360
17
  3
REFLECTIONTILE
360
16
  3
REFRACTIONTILE
360
18
  3
SPECULARTILE
360
15
  0
DICTIONARY
  5
22
330
21
100
AcDbDictionary
280
     1
281
     1
  3
ACAD_XREC_ROUNDTRIP
360
6B9
  3
BUMPTILE
360
24
  3
DIFFUSETILE
360
23
  3
OPACITYTILE
360
27
  3
REFLECTIONTILE
360
26
  3
REFRACTIONTILE
360
28
  3
SPECULARTILE
360
25
  0
DICTIONARY
  5
6B3
330
64
100
AcDbDictionary
280
     1
281
     1
  3
ACAD_ROUNDTRIP_2008_TABLESTYLE_CELLSTYLEMAP
360
929
  3
ACAD_XREC_ROUNDTRIP
360
960
  0
DICTIONARY
  5
93A
330
2F
100
AcDbDictionary
280
     1
281
     1
  3
ACAD_XREC_ROUNDTRIP
360
93B
  0
DICTIONARY
  5
967
330
6F8
100
AcDbDictionary
280
     1
281
     1
  3
ACAD_XREC_ROUNDTRIP
360
968
  0
DICTIONARY
  5
965
330
53F
100
AcDbDictionary
280
     1
281
     1
  3
ACAD_XREC_ROUNDTRIP
360
966
  0
DICTIONARY
  5
938
330
2E
100
AcDbDictionary
280
     1
281
     1
  3
ACAD_XREC_ROUNDTRIP
360
939
  0
DICTIONARY
  5
946
330
35
100
AcDbDictionary
280
     1
281
     1
  3
ACAD_XREC_ROUNDTRIP
360
947
  0
DICTIONARY
  5
94E
330
39
100
AcDbDictionary
280
     1
281
     1
  3
ACAD_XREC_ROUNDTRIP
360
94F
  0
DICTIONARY
  5
940
330
32
100
AcDbDictionary
280
     1
281
     1
  3
ACAD_XREC_ROUNDTRIP
360
941
  0
DICTIONARY
  5
944
330
34
100
AcDbDictionary
280
     1
281
     1
  3
ACAD_XREC_ROUNDTRIP
360
945
  0
DICTIONARY
  5
95E
330
41
100
AcDbDictionary
280
     1
281
     1
  3
ACAD_XREC_ROUNDTRIP
360
95F
  0
DICTIONARY
  5
94C
330
38
100
AcDbDictionary
280
     1
281
     1
  3
ACAD_XREC_ROUNDTRIP
360
94D
  0
DICTIONARY
  5
930
330
2A
100
AcDbDictionary
280
     1
281
     1
  3
ACAD_XREC_ROUNDTRIP
360
931
  0
DICTIONARY
  5
932
330
2B
100
AcDbDictionary
280
     1
281
     1
  3
ACAD_XREC_ROUNDTRIP
360
933
  0
DICTIONARY
  5
934
330
2C
100
AcDbDictionary
280
     1
281
     1
  3
ACAD_XREC_ROUNDTRIP
360
935
  0
DICTIONARY
  5
936
330
2D
100
AcDbDictionary
280
     1
281
     1
  3
ACAD_XREC_ROUNDTRIP
360
937
  0
DICTIONARY
  5
93E
330
31
100
AcDbDictionary
280
     1
281
     1
  3
ACAD_XREC_ROUNDTRIP
360
93F
  0
DICTIONARY
  5
95A
330
3F
100
AcDbDictionary
280
     1
281
     1
  3
ACAD_XREC_ROUNDTRIP
360
95B
  0
DICTIONARY
  5
94A
330
37
100
AcDbDictionary
280
     1
281
     1
  3
ACAD_XREC_ROUNDTRIP
360
94B
  0
DICTIONARY
  5
95C
330
40
100
AcDbDictionary
280
     1
281
     1
  3
ACAD_XREC_ROUNDTRIP
360
95D
  0
DICTIONARY
  5
942
330
33
100
AcDbDictionary
280
     1
281
     1
  3
ACAD_XREC_ROUNDTRIP
360
943
  0
DICTIONARY
  5
958
330
3E
100
AcDbDictionary
280
     1
281
     1
  3
ACAD_XREC_ROUNDTRIP
360
959
  0
DICTIONARY
  5
956
330
3D
100
AcDbDictionary
280
     1
281
     1
  3
ACAD_XREC_ROUNDTRIP
360
957
  0
DICTIONARY
  5
950
330
3A
100
AcDbDictionary
280
     1
281
     1
  3
ACAD_XREC_ROUNDTRIP
360
951
  0
DICTIONARY
  5
952
330
3B
100
AcDbDictionary
280
     1
281
     1
  3
ACAD_XREC_ROUNDTRIP
360
953
  0
DICTIONARY
  5
948
330
36
100
AcDbDictionary
280
     1
281
     1
  3
ACAD_XREC_ROUNDTRIP
360
949
  0
DICTIONARY
  5
93C
330
30
100
AcDbDictionary
280
     1
281
     1
  3
ACAD_XREC_ROUNDTRIP
360
93D
  0
DICTIONARY
  5
954
330
3C
100
AcDbDictionary
280
     1
281
     1
  3
ACAD_XREC_ROUNDTRIP
360
955
  0
XRECORD
  5
964
102
{ACAD_REACTORS
330
963
102
}
330
963
100
AcDbXrecord
280
     1
102
SHADEPLOT
 70
     0
102
SHADEPLOTRESLEVEL
 70
     2
102
SHADEPLOTCUSTOMDPI
 70
   300
  0
XRECORD
  5
962
102
{ACAD_REACTORS
330
961
102
}
330
961
100
AcDbXrecord
280
     1
102
SHADEPLOT
 70
     0
102
SHADEPLOTRESLEVEL
 70
     2
102
SHADEPLOTCUSTOMDPI
 70
   300
  0
XRECORD
  5
6B8
102
{ACAD_REACTORS
330
1A
102
}
330
1A
100
AcDbXrecord
280
     1
102
MATERIAL
148
0.0
149
0.0
149
0.0
 93
        0
 94
      127
282
     0
 72
     0
 77
     0
171
     0
175
     0
179
     0
273
     0
  0
XRECORD
  5
1C
102
{ACAD_REACTORS
330
1A
102
}
330
1A
100
AcDbXrecord
280
     1
270
     1
271
     1
  0
XRECORD
  5
1B
102
{ACAD_REACTORS
330
1A
102
}
330
1A
100
AcDbXrecord
280
     1
270
     1
271
     1
  0
XRECORD
  5
1F
102
{ACAD_REACTORS
330
1A
102
}
330
1A
100
AcDbXrecord
280
     1
270
     1
271
     1
  0
XRECORD
  5
1E
102
{ACAD_REACTORS
330
1A
102
}
330
1A
100
AcDbXrecord
280
     1
270
     1
271
     1
  0
XRECORD
  5
20
102
{ACAD_REACTORS
330
1A
102
}
330
1A
100
AcDbXrecord
280
     1
270
     1
271
     1
  0
XRECORD
  5
1D
102
{ACAD_REACTORS
330
1A
102
}
330
1A
100
AcDbXrecord
280
     1
270
     1
271
     1
  0
XRECORD
  5
6B7
102
{ACAD_REACTORS
330
12
102
}
330
12
100
AcDbXrecord
280
     1
102
MATERIAL
148
0.0
149
0.0
149
0.0
 93
        0
 94
      127
282
     0
 72
     0
 77
     0
171
     0
175
     0
179
     0
273
     0
  0
XRECORD
  5
14
102
{ACAD_REACTORS
330
12
102
}
330
12
100
AcDbXrecord
280
     1
270
     1
271
     1
  0
XRECORD
  5
13
102
{ACAD_REACTORS
330
12
102
}
330
12
100
AcDbXrecord
280
     1
270
     1
271
     1
  0
XRECORD
  5
17
102
{ACAD_REACTORS
330
12
102
}
330
12
100
AcDbXrecord
280
     1
270
     1
271
     1
  0
XRECORD
  5
16
102
{ACAD_REACTORS
330
12
102
}
330
12
100
AcDbXrecord
280
     1
270
     1
271
     1
  0
XRECORD
  5
18
102
{ACAD_REACTORS
330
12
102
}
330
12
100
AcDbXrecord
280
     1
270
     1
271
     1
  0
XRECORD
  5
15
102
{ACAD_REACTORS
330
12
102
}
330
12
100
AcDbXrecord
280
     1
270
     1
271
     1
  0
XRECORD
  5
6B9
102
{ACAD_REACTORS
330
22
102
}
330
22
100
AcDbXrecord
280
     1
102
MATERIAL
148
0.0
149
0.0
149
0.0
 93
        0
 94
      127
282
     0
 72
     0
 77
     0
171
     0
175
     0
179
     0
273
     0
  0
XRECORD
  5
24
102
{ACAD_REACTORS
330
22
102
}
330
22
100
AcDbXrecord
280
     1
270
     1
271
     1
  0
XRECORD
  5
23
102
{ACAD_REACTORS
330
22
102
}
330
22
100
AcDbXrecord
280
     1
270
     1
271
     1
  0
XRECORD
  5
27
102
{ACAD_REACTORS
330
22
102
}
330
22
100
AcDbXrecord
280
     1
270
     1
271
     1
  0
XRECORD
  5
26
102
{ACAD_REACTORS
330
22
102
}
330
22
100
AcDbXrecord
280
     1
270
     1
271
     1
  0
XRECORD
  5
28
102
{ACAD_REACTORS
330
22
102
}
330
22
100
AcDbXrecord
280
     1
270
     1
271
     1
  0
XRECORD
  5
25
102
{ACAD_REACTORS
330
22
102
}
330
22
100
AcDbXrecord
280
     1
270
     1
271
     1
  0
CELLSTYLEMAP
  5
929
102
{ACAD_REACTORS
330
6B3
102
}
330
6B3
100
AcDbCellStyleMap
 90
        3
300
CELLSTYLE
  1
TABLEFORMAT_BEGIN
 90
        5
170
     1
 91
        0
 92
    32768
 62
   257
 93
        1
300
CONTENTFORMAT
  1
CONTENTFORMAT_BEGIN
 90
        0
 91
        0
 92
      512
 93
        0
300

 40
0.0
140
1.0
 94
        5
 62
     0
340
55
144
0.25
309
CONTENTFORMAT_END
171
     1
301
MARGIN
  1
CELLMARGIN_BEGIN
 40
0.06
 40
0.06
 40
0.06
 40
0.06
 40
0.18
 40
0.18
309
CELLMARGIN_END
 94
        6
 95
        1
302
GRIDFORMAT
  1
GRIDFORMAT_BEGIN
 90
        0
 91
        1
 62
     0
 92
       -2
340
0
 93
        0
 40
0.045
309
GRIDFORMAT_END
 95
        2
302
GRIDFORMAT
  1
GRIDFORMAT_BEGIN
 90
        0
 91
        1
 62
     0
 92
       -2
340
0
 93
        0
 40
0.045
309
GRIDFORMAT_END
 95
        4
302
GRIDFORMAT
  1
GRIDFORMAT_BEGIN
 90
        0
 91
        1
 62
     0
 92
       -2
340
0
 93
        0
 40
0.045
309
GRIDFORMAT_END
 95
        8
302
GRIDFORMAT
  1
GRIDFORMAT_BEGIN
 90
        0
 91
        1
 62
     0
 92
       -2
340
0
 93
        0
 40
0.045
309
GRIDFORMAT_END
 95
       16
302
GRIDFORMAT
  1
GRIDFORMAT_BEGIN
 90
        0
 91
        1
 62
     0
 92
       -2
340
0
 93
        0
 40
0.045
309
GRIDFORMAT_END
 95
       32
302
GRIDFORMAT
  1
GRIDFORMAT_BEGIN
 90
        0
 91
        1
 62
     0
 92
       -2
340
0
 93
        0
 40
0.045
309
GRIDFORMAT_END
309
TABLEFORMAT_END
  1
CELLSTYLE_BEGIN
 90
        1
 91
        1
300
_TITLE
309
CELLSTYLE_END
300
CELLSTYLE
  1
TABLEFORMAT_BEGIN
 90
        5
170
     1
 91
        0
 92
        0
 62
   257
 93
        1
300
CONTENTFORMAT
  1
CONTENTFORMAT_BEGIN
 90
        0
 91
        0
 92
      512
 93
        0
300

 40
0.0
140
1.0
 94
        5
 62
     0
340
55
144
0.18
309
CONTENTFORMAT_END
171
     1
301
MARGIN
  1
CELLMARGIN_BEGIN
 40
0.06
 40
0.06
 40
0.06
 40
0.06
 40
0.18
 40
0.18
309
CELLMARGIN_END
 94
        6
 95
        1
302
GRIDFORMAT
  1
GRIDFORMAT_BEGIN
 90
        0
 91
        1
 62
     0
 92
       -2
340
0
 93
        0
 40
0.045
309
GRIDFORMAT_END
 95
        2
302
GRIDFORMAT
  1
GRIDFORMAT_BEGIN
 90
        0
 91
        1
 62
     0
 92
       -2
340
0
 93
        0
 40
0.045
309
GRIDFORMAT_END
 95
        4
302
GRIDFORMAT
  1
GRIDFORMAT_BEGIN
 90
        0
 91
        1
 62
     0
 92
       -2
340
0
 93
        0
 40
0.045
309
GRIDFORMAT_END
 95
        8
302
GRIDFORMAT
  1
GRIDFORMAT_BEGIN
 90
        0
 91
        1
 62
     0
 92
       -2
340
0
 93
        0
 40
0.045
309
GRIDFORMAT_END
 95
       16
302
GRIDFORMAT
  1
GRIDFORMAT_BEGIN
 90
        0
 91
        1
 62
     0
 92
       -2
340
0
 93
        0
 40
0.045
309
GRIDFORMAT_END
 95
       32
302
GRIDFORMAT
  1
GRIDFORMAT_BEGIN
 90
        0
 91
        1
 62
     0
 92
       -2
340
0
 93
        0
 40
0.045
309
GRIDFORMAT_END
309
TABLEFORMAT_END
  1
CELLSTYLE_BEGIN
 90
        2
 91
        1
300
_HEADER
309
CELLSTYLE_END
300
CELLSTYLE
  1
TABLEFORMAT_BEGIN
 90
        5
170
     1
 91
        0
 92
        0
 62
   257
 93
        1
300
CONTENTFORMAT
  1
CONTENTFORMAT_BEGIN
 90
        0
 91
        0
 92
      512
 93
        0
300

 40
0.0
140
1.0
 94
        2
 62
     0
340
55
144
0.18
309
CONTENTFORMAT_END
171
     1
301
MARGIN
  1
CELLMARGIN_BEGIN
 40
0.06
 40
0.06
 40
0.06
 40
0.06
 40
0.18
 40
0.18
309
CELLMARGIN_END
 94
        6
 95
        1
302
GRIDFORMAT
  1
GRIDFORMAT_BEGIN
 90
        0
 91
        1
 62
     0
 92
       -2
340
0
 93
        0
 40
0.045
309
GRIDFORMAT_END
 95
        2
302
GRIDFORMAT
  1
GRIDFORMAT_BEGIN
 90
        0
 91
        1
 62
     0
 92
       -2
340
0
 93
        0
 40
0.045
309
GRIDFORMAT_END
 95
        4
302
GRIDFORMAT
  1
GRIDFORMAT_BEGIN
 90
        0
 91
        1
 62
     0
 92
       -2
340
0
 93
        0
 40
0.045
309
GRIDFORMAT_END
 95
        8
302
GRIDFORMAT
  1
GRIDFORMAT_BEGIN
 90
        0
 91
        1
 62
     0
 92
       -2
340
0
 93
        0
 40
0.045
309
GRIDFORMAT_END
 95
       16
302
GRIDFORMAT
  1
GRIDFORMAT_BEGIN
 90
        0
 91
        1
 62
     0
 92
       -2
340
0
 93
        0
 40
0.045
309
GRIDFORMAT_END
 95
       32
302
GRIDFORMAT
  1
GRIDFORMAT_BEGIN
 90
        0
 91
        1
 62
     0
 92
       -2
340
0
 93
        0
 40
0.045
309
GRIDFORMAT_END
309
TABLEFORMAT_END
  1
CELLSTYLE_BEGIN
 90
        3
 91
        2
300
_DATA
309
CELLSTYLE_END
  0
XRECORD
  5
960
102
{ACAD_REACTORS
330
6B3
102
}
330
6B3
100
AcDbXrecord
280
     1
102
ACAD_ROUNDTRIP_PRE2007_TABLESTYLE
 90
      512
 91
        0
  1

 92
      512
 93
        0
  2

 94
      512
 95
        0
  3

  0
XRECORD
  5
93B
102
{ACAD_REACTORS
330
93A
102
}
330
93A
100
AcDbXrecord
280
     1
102
RTVSPropertyOp0
 70
     1
102
RTVSPropertyOp1
 70
     1
102
RTVSPropertyOp2
 70
     1
102
RTVSPropertyOp3
 70
     1
102
RTVSPropertyOp4
 70
     1
102
RTVSPropertyOp5
 70
     1
102
RTVSPropertyOp6
 70
     1
102
RTVSPropertyOp7
 70
     1
102
RTVSPropertyOp8
 70
     1
102
RTVSPropertyOp9
 70
     1
102
RTVSPropertyOp10
 70
     1
102
RTVSPropertyOp11
 70
     1
102
RTVSPropertyOp12
 70
     1
102
RTVSPropertyOp13
 70
     1
102
RTVSPropertyOp14
 70
     1
102
RTVSPropertyOp15
 70
     1
102
RTVSPropertyOp16
 70
     1
102
RTVSPropertyOp17
 70
     1
102
RTVSPropertyOp18
 70
     1
102
RTVSPropertyOp19
 70
     1
102
RTVSPropertyOp20
 70
     1
102
RTVSPropertyOp21
 70
     1
102
RTVSPropertyOp22
 70
     1
102
RTVSPropertyOp23
 70
     1
102
RTVSPropertyOp24
 70
     1
102
RTVSPropertyOp25
 70
     1
102
RTVSPropertyOp26
 70
     1
102
RTVSPropertyOp27
 70
     1
102
RTVSPropertyOp28
 70
     1
102
RTVSPropertyOp29
 70
     1
102
RTVSPropertyOp30
 70
     1
102
RTVSPropertyOp31
 70
     1
102
RTVSPropertyOp32
 70
     1
  0
XRECORD
  5
968
102
{ACAD_REACTORS
330
967
102
}
330
967
100
AcDbXrecord
280
     1
102
RTVSPropertyOp0
 70
     1
102
RTVSPropertyOp1
 70
     1
102
RTVSPropertyOp2
 70
     1
102
RTVSPropertyOp3
 70
     1
102
RTVSPropertyOp4
 70
     1
102
RTVSPropertyOp5
 70
     1
102
RTVSPropertyOp6
 70
     1
102
RTVSPropertyOp7
 70
     1
102
RTVSPropertyOp8
 70
     1
102
RTVSPropertyOp9
 70
     1
102
RTVSPropertyOp10
 70
     1
102
RTVSPropertyOp11
 70
     1
102
RTVSPropertyOp12
 70
     1
102
RTVSPropertyOp13
 70
     1
102
RTVSPropertyOp14
 70
     1
102
RTVSPropertyOp15
 70
     1
102
RTVSPropertyOp16
 70
     1
102
RTVSPropertyOp17
 70
     1
102
RTVSPropertyOp18
 70
     1
102
RTVSPropertyOp19
 70
     1
102
RTVSPropertyOp20
 70
     1
102
RTVSPropertyOp21
 70
     1
102
RTVSPropertyOp22
 70
     1
102
RTVSPropertyOp23
 70
     1
102
RTVSPropertyOp24
 70
     1
102
RTVSPropertyOp25
 70
     1
102
RTVSPropertyOp26
 70
     1
102
RTVSPropertyOp27
 70
     1
102
RTVSPropertyOp28
 70
     1
102
RTVSPropertyOp29
 70
     1
102
RTVSPropertyOp30
 70
     1
102
RTVSPropertyOp31
 70
     1
102
RTVSPropertyOp32
 70
     1
  0
XRECORD
  5
966
102
{ACAD_REACTORS
330
965
102
}
330
965
100
AcDbXrecord
280
     1
102
RTVSPropertyOp0
 70
     1
102
RTVSPropertyOp1
 70
     1
102
RTVSPropertyOp2
 70
     1
102
RTVSPropertyOp3
 70
     1
102
RTVSPropertyOp4
 70
     1
102
RTVSPropertyOp5
 70
     1
102
RTVSPropertyOp6
 70
     1
102
RTVSPropertyOp7
 70
     1
102
RTVSPropertyOp8
 70
     1
102
RTVSPropertyOp9
 70
     1
102
RTVSPropertyOp10
 70
     1
102
RTVSPropertyOp11
 70
     1
102
RTVSPropertyOp12
 70
     1
102
RTVSPropertyOp13
 70
     1
102
RTVSPropertyOp14
 70
     1
102
RTVSPropertyOp15
 70
     1
102
RTVSPropertyOp16
 70
     1
102
RTVSPropertyOp17
 70
     1
102
RTVSPropertyOp18
 70
     1
102
RTVSPropertyOp19
 70
     1
102
RTVSPropertyOp20
 70
     1
102
RTVSPropertyOp21
 70
     1
102
RTVSPropertyOp22
 70
     1
102
RTVSPropertyOp23
 70
     1
102
RTVSPropertyOp24
 70
     1
102
RTVSPropertyOp25
 70
     1
102
RTVSPropertyOp26
 70
     1
102
RTVSPropertyOp27
 70
     1
102
RTVSPropertyOp28
 70
     1
102
RTVSPropertyOp29
 70
     1
102
RTVSPropertyOp30
 70
     1
102
RTVSPropertyOp31
 70
     1
102
RTVSPropertyOp32
 70
     1
  0
XRECORD
  5
939
102
{ACAD_REACTORS
330
938
102
}
330
938
100
AcDbXrecord
280
     1
102
RTVSPropertyOp0
 70
     1
102
RTVSPropertyOp1
 70
     1
102
RTVSPropertyOp2
 70
     1
102
RTVSPropertyOp3
 70
     1
102
RTVSPropertyOp4
 70
     1
102
RTVSPropertyOp5
 70
     1
102
RTVSPropertyOp6
 70
     1
102
RTVSPropertyOp7
 70
     1
102
RTVSPropertyOp8
 70
     1
102
RTVSPropertyOp9
 70
     1
102
RTVSPropertyOp10
 70
     1
102
RTVSPropertyOp11
 70
     1
102
RTVSPropertyOp12
 70
     1
102
RTVSPropertyOp13
 70
     1
102
RTVSPropertyOp14
 70
     1
102
RTVSPropertyOp15
 70
     1
102
RTVSPropertyOp16
 70
     1
102
RTVSPropertyOp17
 70
     1
102
RTVSPropertyOp18
 70
     1
102
RTVSPropertyOp19
 70
     1
102
RTVSPropertyOp20
 70
     1
102
RTVSPropertyOp21
 70
     1
102
RTVSPropertyOp22
 70
     1
102
RTVSPropertyOp23
 70
     1
102
RTVSPropertyOp24
 70
     1
102
RTVSPropertyOp25
 70
     1
102
RTVSPropertyOp26
 70
     1
102
RTVSPropertyOp27
 70
     1
102
RTVSPropertyOp28
 70
     1
102
RTVSPropertyOp29
 70
     1
102
RTVSPropertyOp30
 70
     1
102
RTVSPropertyOp31
 70
     1
102
RTVSPropertyOp32
 70
     1
  0
XRECORD
  5
947
102
{ACAD_REACTORS
330
946
102
}
330
946
100
AcDbXrecord
280
     1
102
RTVSPropertyOp0
 70
     1
102
RTVSPropertyOp1
 70
     1
102
RTVSPropertyOp2
 70
     1
102
RTVSPropertyOp3
 70
     1
102
RTVSPropertyOp4
 70
     1
102
RTVSPropertyOp5
 70
     1
102
RTVSPropertyOp6
 70
     1
102
RTVSPropertyOp7
 70
     1
102
RTVSPropertyOp8
 70
     1
102
RTVSPropertyOp9
 70
     1
102
RTVSPropertyOp10
 70
     1
102
RTVSPropertyOp11
 70
     1
102
RTVSPropertyOp12
 70
     1
102
RTVSPropertyOp13
 70
     1
102
RTVSPropertyOp14
 70
     1
102
RTVSPropertyOp15
 70
     1
102
RTVSPropertyOp16
 70
     1
102
RTVSPropertyOp17
 70
     1
102
RTVSPropertyOp18
 70
     1
102
RTVSPropertyOp19
 70
     1
102
RTVSPropertyOp20
 70
     1
102
RTVSPropertyOp21
 70
     1
102
RTVSPropertyOp22
 70
     1
102
RTVSPropertyOp23
 70
     1
102
RTVSPropertyOp24
 70
     1
102
RTVSPropertyOp25
 70
     1
102
RTVSPropertyOp26
 70
     1
102
RTVSPropertyOp27
 70
     1
102
RTVSPropertyOp28
 70
     1
102
RTVSPropertyOp29
 70
     1
102
RTVSPropertyOp30
 70
     1
102
RTVSPropertyOp31
 70
     1
102
RTVSPropertyOp32
 70
     1
  0
XRECORD
  5
94F
102
{ACAD_REACTORS
330
94E
102
}
330
94E
100
AcDbXrecord
280
     1
102
RTVSPropertyOp0
 70
     1
102
RTVSPropertyOp1
 70
     1
102
RTVSPropertyOp2
 70
     1
102
RTVSPropertyOp3
 70
     1
102
RTVSPropertyOp4
 70
     1
102
RTVSPropertyOp5
 70
     1
102
RTVSPropertyOp6
 70
     1
102
RTVSPropertyOp7
 70
     1
102
RTVSPropertyOp8
 70
     1
102
RTVSPropertyOp9
 70
     1
102
RTVSPropertyOp10
 70
     1
102
RTVSPropertyOp11
 70
     1
102
RTVSPropertyOp12
 70
     1
102
RTVSPropertyOp13
 70
     1
102
RTVSPropertyOp14
 70
     1
102
RTVSPropertyOp15
 70
     1
102
RTVSPropertyOp16
 70
     1
102
RTVSPropertyOp17
 70
     1
102
RTVSPropertyOp18
 70
     1
102
RTVSPropertyOp19
 70
     1
102
RTVSPropertyOp20
 70
     1
102
RTVSPropertyOp21
 70
     1
102
RTVSPropertyOp22
 70
     1
102
RTVSPropertyOp23
 70
     1
102
RTVSPropertyOp24
 70
     1
102
RTVSPropertyOp25
 70
     1
102
RTVSPropertyOp26
 70
     1
102
RTVSPropertyOp27
 70
     1
102
RTVSPropertyOp28
 70
     1
102
RTVSPropertyOp29
 70
     1
102
RTVSPropertyOp30
 70
     1
102
RTVSPropertyOp31
 70
     1
102
RTVSPropertyOp32
 70
     1
  0
XRECORD
  5
941
102
{ACAD_REACTORS
330
940
102
}
330
940
100
AcDbXrecord
280
     1
102
RTVSPropertyOp0
 70
     1
102
RTVSPropertyOp1
 70
     1
102
RTVSPropertyOp2
 70
     1
102
RTVSPropertyOp3
 70
     1
102
RTVSPropertyOp4
 70
     1
102
RTVSPropertyOp5
 70
     1
102
RTVSPropertyOp6
 70
     1
102
RTVSPropertyOp7
 70
     1
102
RTVSPropertyOp8
 70
     1
102
RTVSPropertyOp9
 70
     1
102
RTVSPropertyOp10
 70
     1
102
RTVSPropertyOp11
 70
     1
102
RTVSPropertyOp12
 70
     1
102
RTVSPropertyOp13
 70
     1
102
RTVSPropertyOp14
 70
     1
102
RTVSPropertyOp15
 70
     1
102
RTVSPropertyOp16
 70
     1
102
RTVSPropertyOp17
 70
     1
102
RTVSPropertyOp18
 70
     1
102
RTVSPropertyOp19
 70
     1
102
RTVSPropertyOp20
 70
     1
102
RTVSPropertyOp21
 70
     1
102
RTVSPropertyOp22
 70
     1
102
RTVSPropertyOp23
 70
     1
102
RTVSPropertyOp24
 70
     1
102
RTVSPropertyOp25
 70
     1
102
RTVSPropertyOp26
 70
     1
102
RTVSPropertyOp27
 70
     1
102
RTVSPropertyOp28
 70
     1
102
RTVSPropertyOp29
 70
     1
102
RTVSPropertyOp30
 70
     1
102
RTVSPropertyOp31
 70
     1
102
RTVSPropertyOp32
 70
     1
  0
XRECORD
  5
945
102
{ACAD_REACTORS
330
944
102
}
330
944
100
AcDbXrecord
280
     1
102
RTVSPropertyOp0
 70
     1
102
RTVSPropertyOp1
 70
     1
102
RTVSPropertyOp2
 70
     1
102
RTVSPropertyOp3
 70
     1
102
RTVSPropertyOp4
 70
     1
102
RTVSPropertyOp5
 70
     1
102
RTVSPropertyOp6
 70
     1
102
RTVSPropertyOp7
 70
     1
102
RTVSPropertyOp8
 70
     1
102
RTVSPropertyOp9
 70
     1
102
RTVSPropertyOp10
 70
     1
102
RTVSPropertyOp11
 70
     1
102
RTVSPropertyOp12
 70
     1
102
RTVSPropertyOp13
 70
     1
102
RTVSPropertyOp14
 70
     1
102
RTVSPropertyOp15
 70
     1
102
RTVSPropertyOp16
 70
     1
102
RTVSPropertyOp17
 70
     1
102
RTVSPropertyOp18
 70
     1
102
RTVSPropertyOp19
 70
     1
102
RTVSPropertyOp20
 70
     1
102
RTVSPropertyOp21
 70
     1
102
RTVSPropertyOp22
 70
     1
102
RTVSPropertyOp23
 70
     1
102
RTVSPropertyOp24
 70
     1
102
RTVSPropertyOp25
 70
     1
102
RTVSPropertyOp26
 70
     1
102
RTVSPropertyOp27
 70
     1
102
RTVSPropertyOp28
 70
     1
102
RTVSPropertyOp29
 70
     1
102
RTVSPropertyOp30
 70
     1
102
RTVSPropertyOp31
 70
     1
102
RTVSPropertyOp32
 70
     1
  0
XRECORD
  5
95F
102
{ACAD_REACTORS
330
95E
102
}
330
95E
100
AcDbXrecord
280
     1
102
RTVSPropertyOp0
 70
     0
102
RTVSPropertyOp1
 70
     0
102
RTVSPropertyOp2
 70
     0
102
RTVSPropertyOp3
 70
     0
102
RTVSPropertyOp4
 70
     0
102
RTVSPropertyOp5
 70
     0
102
RTVSPropertyOp6
 70
     0
102
RTVSPropertyOp7
 70
     0
102
RTVSPropertyOp8
 70
     0
102
RTVSPropertyOp9
 70
     0
102
RTVSPropertyOp10
 70
     0
102
RTVSPropertyOp11
 70
     0
102
RTVSPropertyOp12
 70
     0
102
RTVSPropertyOp13
 70
     0
102
RTVSPropertyOp14
 70
     2
102
RTVSPropertyOp15
 70
     0
102
RTVSPropertyOp16
 70
     0
102
RTVSPropertyOp17
 70
     0
102
RTVSPropertyOp18
 70
     0
102
RTVSPropertyOp19
 70
     0
102
RTVSPropertyOp20
 70
     0
102
RTVSPropertyOp21
 70
     0
102
RTVSPropertyOp22
 70
     0
102
RTVSPropertyOp23
 70
     0
102
RTVSPropertyOp24
 70
     0
102
RTVSPropertyOp25
 70
     0
102
RTVSPropertyOp26
 70
     0
102
RTVSPropertyOp27
 70
     0
102
RTVSPropertyOp28
 70
     0
102
RTVSPropertyOp29
 70
     0
102
RTVSPropertyOp30
 70
     0
102
RTVSPropertyOp31
 70
     0
102
RTVSPropertyOp32
 70
     0
  0
XRECORD
  5
94D
102
{ACAD_REACTORS
330
94C
102
}
330
94C
100
AcDbXrecord
280
     1
102
RTVSPropertyOp0
 70
     1
102
RTVSPropertyOp1
 70
     1
102
RTVSPropertyOp2
 70
     1
102
RTVSPropertyOp3
 70
     1
102
RTVSPropertyOp4
 70
     1
102
RTVSPropertyOp5
 70
     1
102
RTVSPropertyOp6
 70
     1
102
RTVSPropertyOp7
 70
     1
102
RTVSPropertyOp8
 70
     1
102
RTVSPropertyOp9
 70
     1
102
RTVSPropertyOp10
 70
     1
102
RTVSPropertyOp11
 70
     1
102
RTVSPropertyOp12
 70
     1
102
RTVSPropertyOp13
 70
     1
102
RTVSPropertyOp14
 70
     1
102
RTVSPropertyOp15
 70
     1
102
RTVSPropertyOp16
 70
     1
102
RTVSPropertyOp17
 70
     1
102
RTVSPropertyOp18
 70
     1
102
RTVSPropertyOp19
 70
     1
102
RTVSPropertyOp20
 70
     1
102
RTVSPropertyOp21
 70
     1
102
RTVSPropertyOp22
 70
     1
102
RTVSPropertyOp23
 70
     1
102
RTVSPropertyOp24
 70
     1
102
RTVSPropertyOp25
 70
     1
102
RTVSPropertyOp26
 70
     1
102
RTVSPropertyOp27
 70
     1
102
RTVSPropertyOp28
 70
     1
102
RTVSPropertyOp29
 70
     1
102
RTVSPropertyOp30
 70
     1
102
RTVSPropertyOp31
 70
     1
102
RTVSPropertyOp32
 70
     1
  0
XRECORD
  5
931
102
{ACAD_REACTORS
330
930
102
}
330
930
100
AcDbXrecord
280
     1
102
RTVSPropertyOp0
 70
     1
102
RTVSPropertyOp1
 70
     1
102
RTVSPropertyOp2
 70
     1
102
RTVSPropertyOp3
 70
     1
102
RTVSPropertyOp4
 70
     1
102
RTVSPropertyOp5
 70
     1
102
RTVSPropertyOp6
 70
     1
102
RTVSPropertyOp7
 70
     1
102
RTVSPropertyOp8
 70
     1
102
RTVSPropertyOp9
 70
     1
102
RTVSPropertyOp10
 70
     1
102
RTVSPropertyOp11
 70
     1
102
RTVSPropertyOp12
 70
     1
102
RTVSPropertyOp13
 70
     1
102
RTVSPropertyOp14
 70
     1
102
RTVSPropertyOp15
 70
     1
102
RTVSPropertyOp16
 70
     1
102
RTVSPropertyOp17
 70
     1
102
RTVSPropertyOp18
 70
     1
102
RTVSPropertyOp19
 70
     1
102
RTVSPropertyOp20
 70
     1
102
RTVSPropertyOp21
 70
     1
102
RTVSPropertyOp22
 70
     1
102
RTVSPropertyOp23
 70
     1
102
RTVSPropertyOp24
 70
     1
102
RTVSPropertyOp25
 70
     1
102
RTVSPropertyOp26
 70
     1
102
RTVSPropertyOp27
 70
     1
102
RTVSPropertyOp28
 70
     1
102
RTVSPropertyOp29
 70
     1
102
RTVSPropertyOp30
 70
     1
102
RTVSPropertyOp31
 70
     1
102
RTVSPropertyOp32
 70
     1
  0
XRECORD
  5
933
102
{ACAD_REACTORS
330
932
102
}
330
932
100
AcDbXrecord
280
     1
102
RTVSPropertyOp0
 70
     1
102
RTVSPropertyOp1
 70
     1
102
RTVSPropertyOp2
 70
     1
102
RTVSPropertyOp3
 70
     1
102
RTVSPropertyOp4
 70
     1
102
RTVSPropertyOp5
 70
     1
102
RTVSPropertyOp6
 70
     1
102
RTVSPropertyOp7
 70
     1
102
RTVSPropertyOp8
 70
     1
102
RTVSPropertyOp9
 70
     1
102
RTVSPropertyOp10
 70
     1
102
RTVSPropertyOp11
 70
     1
102
RTVSPropertyOp12
 70
     1
102
RTVSPropertyOp13
 70
     1
102
RTVSPropertyOp14
 70
     1
102
RTVSPropertyOp15
 70
     1
102
RTVSPropertyOp16
 70
     1
102
RTVSPropertyOp17
 70
     1
102
RTVSPropertyOp18
 70
     1
102
RTVSPropertyOp19
 70
     1
102
RTVSPropertyOp20
 70
     1
102
RTVSPropertyOp21
 70
     1
102
RTVSPropertyOp22
 70
     1
102
RTVSPropertyOp23
 70
     1
102
RTVSPropertyOp24
 70
     1
102
RTVSPropertyOp25
 70
     1
102
RTVSPropertyOp26
 70
     1
102
RTVSPropertyOp27
 70
     1
102
RTVSPropertyOp28
 70
     1
102
RTVSPropertyOp29
 70
     1
102
RTVSPropertyOp30
 70
     1
102
RTVSPropertyOp31
 70
     1
102
RTVSPropertyOp32
 70
     1
  0
XRECORD
  5
935
102
{ACAD_REACTORS
330
934
102
}
330
934
100
AcDbXrecord
280
     1
102
RTVSPropertyOp0
 70
     1
102
RTVSPropertyOp1
 70
     1
102
RTVSPropertyOp2
 70
     1
102
RTVSPropertyOp3
 70
     1
102
RTVSPropertyOp4
 70
     1
102
RTVSPropertyOp5
 70
     1
102
RTVSPropertyOp6
 70
     1
102
RTVSPropertyOp7
 70
     1
102
RTVSPropertyOp8
 70
     1
102
RTVSPropertyOp9
 70
     1
102
RTVSPropertyOp10
 70
     1
102
RTVSPropertyOp11
 70
     1
102
RTVSPropertyOp12
 70
     1
102
RTVSPropertyOp13
 70
     1
102
RTVSPropertyOp14
 70
     1
102
RTVSPropertyOp15
 70
     1
102
RTVSPropertyOp16
 70
     1
102
RTVSPropertyOp17
 70
     1
102
RTVSPropertyOp18
 70
     1
102
RTVSPropertyOp19
 70
     1
102
RTVSPropertyOp20
 70
     1
102
RTVSPropertyOp21
 70
     1
102
RTVSPropertyOp22
 70
     1
102
RTVSPropertyOp23
 70
     1
102
RTVSPropertyOp24
 70
     1
102
RTVSPropertyOp25
 70
     1
102
RTVSPropertyOp26
 70
     1
102
RTVSPropertyOp27
 70
     1
102
RTVSPropertyOp28
 70
     1
102
RTVSPropertyOp29
 70
     1
102
RTVSPropertyOp30
 70
     1
102
RTVSPropertyOp31
 70
     1
102
RTVSPropertyOp32
 70
     1
  0
XRECORD
  5
937
102
{ACAD_REACTORS
330
936
102
}
330
936
100
AcDbXrecord
280
     1
102
RTVSPropertyOp0
 70
     1
102
RTVSPropertyOp1
 70
     1
102
RTVSPropertyOp2
 70
     1
102
RTVSPropertyOp3
 70
     1
102
RTVSPropertyOp4
 70
     1
102
RTVSPropertyOp5
 70
     1
102
RTVSPropertyOp6
 70
     1
102
RTVSPropertyOp7
 70
     1
102
RTVSPropertyOp8
 70
     1
102
RTVSPropertyOp9
 70
     1
102
RTVSPropertyOp10
 70
     1
102
RTVSPropertyOp11
 70
     1
102
RTVSPropertyOp12
 70
     1
102
RTVSPropertyOp13
 70
     1
102
RTVSPropertyOp14
 70
     1
102
RTVSPropertyOp15
 70
     1
102
RTVSPropertyOp16
 70
     1
102
RTVSPropertyOp17
 70
     1
102
RTVSPropertyOp18
 70
     1
102
RTVSPropertyOp19
 70
     1
102
RTVSPropertyOp20
 70
     1
102
RTVSPropertyOp21
 70
     1
102
RTVSPropertyOp22
 70
     1
102
RTVSPropertyOp23
 70
     1
102
RTVSPropertyOp24
 70
     1
102
RTVSPropertyOp25
 70
     1
102
RTVSPropertyOp26
 70
     1
102
RTVSPropertyOp27
 70
     1
102
RTVSPropertyOp28
 70
     1
102
RTVSPropertyOp29
 70
     1
102
RTVSPropertyOp30
 70
     1
102
RTVSPropertyOp31
 70
     1
102
RTVSPropertyOp32
 70
     1
  0
XRECORD
  5
93F
102
{ACAD_REACTORS
330
93E
102
}
330
93E
100
AcDbXrecord
280
     1
102
RTVSPropertyOp0
 70
     1
102
RTVSPropertyOp1
 70
     1
102
RTVSPropertyOp2
 70
     1
102
RTVSPropertyOp3
 70
     1
102
RTVSPropertyOp4
 70
     1
102
RTVSPropertyOp5
 70
     1
102
RTVSPropertyOp6
 70
     1
102
RTVSPropertyOp7
 70
     1
102
RTVSPropertyOp8
 70
     1
102
RTVSPropertyOp9
 70
     1
102
RTVSPropertyOp10
 70
     1
102
RTVSPropertyOp11
 70
     1
102
RTVSPropertyOp12
 70
     1
102
RTVSPropertyOp13
 70
     1
102
RTVSPropertyOp14
 70
     1
102
RTVSPropertyOp15
 70
     1
102
RTVSPropertyOp16
 70
     1
102
RTVSPropertyOp17
 70
     1
102
RTVSPropertyOp18
 70
     1
102
RTVSPropertyOp19
 70
     1
102
RTVSPropertyOp20
 70
     1
102
RTVSPropertyOp21
 70
     1
102
RTVSPropertyOp22
 70
     1
102
RTVSPropertyOp23
 70
     1
102
RTVSPropertyOp24
 70
     1
102
RTVSPropertyOp25
 70
     1
102
RTVSPropertyOp26
 70
     1
102
RTVSPropertyOp27
 70
     1
102
RTVSPropertyOp28
 70
     1
102
RTVSPropertyOp29
 70
     1
102
RTVSPropertyOp30
 70
     1
102
RTVSPropertyOp31
 70
     1
102
RTVSPropertyOp32
 70
     1
  0
XRECORD
  5
95B
102
{ACAD_REACTORS
330
95A
102
}
330
95A
100
AcDbXrecord
280
     1
102
RTVSPropertyOp0
 70
     0
102
RTVSPropertyOp1
 70
     0
102
RTVSPropertyOp2
 70
     0
102
RTVSPropertyOp3
 70
     0
102
RTVSPropertyOp4
 70
     0
102
RTVSPropertyOp5
 70
     0
102
RTVSPropertyOp6
 70
     0
102
RTVSPropertyOp7
 70
     0
102
RTVSPropertyOp8
 70
     0
102
RTVSPropertyOp9
 70
     0
102
RTVSPropertyOp10
 70
     0
102
RTVSPropertyOp11
 70
     0
102
RTVSPropertyOp12
 70
     0
102
RTVSPropertyOp13
 70
     0
102
RTVSPropertyOp14
 70
     2
102
RTVSPropertyOp15
 70
     0
102
RTVSPropertyOp16
 70
     0
102
RTVSPropertyOp17
 70
     0
102
RTVSPropertyOp18
 70
     0
102
RTVSPropertyOp19
 70
     0
102
RTVSPropertyOp20
 70
     0
102
RTVSPropertyOp21
 70
     0
102
RTVSPropertyOp22
 70
     0
102
RTVSPropertyOp23
 70
     0
102
RTVSPropertyOp24
 70
     0
102
RTVSPropertyOp25
 70
     0
102
RTVSPropertyOp26
 70
     0
102
RTVSPropertyOp27
 70
     0
102
RTVSPropertyOp28
 70
     0
102
RTVSPropertyOp29
 70
     0
102
RTVSPropertyOp30
 70
     0
102
RTVSPropertyOp31
 70
     0
102
RTVSPropertyOp32
 70
     0
  0
XRECORD
  5
94B
102
{ACAD_REACTORS
330
94A
102
}
330
94A
100
AcDbXrecord
280
     1
102
RTVSPropertyOp0
 70
     1
102
RTVSPropertyOp1
 70
     1
102
RTVSPropertyOp2
 70
     1
102
RTVSPropertyOp3
 70
     1
102
RTVSPropertyOp4
 70
     1
102
RTVSPropertyOp5
 70
     1
102
RTVSPropertyOp6
 70
     1
102
RTVSPropertyOp7
 70
     1
102
RTVSPropertyOp8
 70
     1
102
RTVSPropertyOp9
 70
     1
102
RTVSPropertyOp10
 70
     1
102
RTVSPropertyOp11
 70
     1
102
RTVSPropertyOp12
 70
     1
102
RTVSPropertyOp13
 70
     1
102
RTVSPropertyOp14
 70
     1
102
RTVSPropertyOp15
 70
     1
102
RTVSPropertyOp16
 70
     1
102
RTVSPropertyOp17
 70
     1
102
RTVSPropertyOp18
 70
     1
102
RTVSPropertyOp19
 70
     1
102
RTVSPropertyOp20
 70
     1
102
RTVSPropertyOp21
 70
     1
102
RTVSPropertyOp22
 70
     1
102
RTVSPropertyOp23
 70
     1
102
RTVSPropertyOp24
 70
     1
102
RTVSPropertyOp25
 70
     1
102
RTVSPropertyOp26
 70
     1
102
RTVSPropertyOp27
 70
     1
102
RTVSPropertyOp28
 70
     1
102
RTVSPropertyOp29
 70
     1
102
RTVSPropertyOp30
 70
     1
102
RTVSPropertyOp31
 70
     1
102
RTVSPropertyOp32
 70
     1
  0
XRECORD
  5
95D
102
{ACAD_REACTORS
330
95C
102
}
330
95C
100
AcDbXrecord
280
     1
102
RTVSPropertyOp0
 70
     0
102
RTVSPropertyOp1
 70
     0
102
RTVSPropertyOp2
 70
     0
102
RTVSPropertyOp3
 70
     0
102
RTVSPropertyOp4
 70
     0
102
RTVSPropertyOp5
 70
     0
102
RTVSPropertyOp6
 70
     0
102
RTVSPropertyOp7
 70
     0
102
RTVSPropertyOp8
 70
     0
102
RTVSPropertyOp9
 70
     0
102
RTVSPropertyOp10
 70
     0
102
RTVSPropertyOp11
 70
     0
102
RTVSPropertyOp12
 70
     0
102
RTVSPropertyOp13
 70
     0
102
RTVSPropertyOp14
 70
     2
102
RTVSPropertyOp15
 70
     0
102
RTVSPropertyOp16
 70
     0
102
RTVSPropertyOp17
 70
     0
102
RTVSPropertyOp18
 70
     0
102
RTVSPropertyOp19
 70
     0
102
RTVSPropertyOp20
 70
     0
102
RTVSPropertyOp21
 70
     0
102
RTVSPropertyOp22
 70
     0
102
RTVSPropertyOp23
 70
     0
102
RTVSPropertyOp24
 70
     0
102
RTVSPropertyOp25
 70
     0
102
RTVSPropertyOp26
 70
     0
102
RTVSPropertyOp27
 70
     0
102
RTVSPropertyOp28
 70
     0
102
RTVSPropertyOp29
 70
     0
102
RTVSPropertyOp30
 70
     0
102
RTVSPropertyOp31
 70
     0
102
RTVSPropertyOp32
 70
     0
  0
XRECORD
  5
943
102
{ACAD_REACTORS
330
942
102
}
330
942
100
AcDbXrecord
280
     1
102
RTVSPropertyOp0
 70
     1
102
RTVSPropertyOp1
 70
     1
102
RTVSPropertyOp2
 70
     1
102
RTVSPropertyOp3
 70
     1
102
RTVSPropertyOp4
 70
     1
102
RTVSPropertyOp5
 70
     1
102
RTVSPropertyOp6
 70
     1
102
RTVSPropertyOp7
 70
     1
102
RTVSPropertyOp8
 70
     1
102
RTVSPropertyOp9
 70
     1
102
RTVSPropertyOp10
 70
     1
102
RTVSPropertyOp11
 70
     1
102
RTVSPropertyOp12
 70
     1
102
RTVSPropertyOp13
 70
     1
102
RTVSPropertyOp14
 70
     1
102
RTVSPropertyOp15
 70
     1
102
RTVSPropertyOp16
 70
     1
102
RTVSPropertyOp17
 70
     1
102
RTVSPropertyOp18
 70
     1
102
RTVSPropertyOp19
 70
     1
102
RTVSPropertyOp20
 70
     1
102
RTVSPropertyOp21
 70
     1
102
RTVSPropertyOp22
 70
     1
102
RTVSPropertyOp23
 70
     1
102
RTVSPropertyOp24
 70
     1
102
RTVSPropertyOp25
 70
     1
102
RTVSPropertyOp26
 70
     1
102
RTVSPropertyOp27
 70
     1
102
RTVSPropertyOp28
 70
     1
102
RTVSPropertyOp29
 70
     1
102
RTVSPropertyOp30
 70
     1
102
RTVSPropertyOp31
 70
     1
102
RTVSPropertyOp32
 70
     1
  0
XRECORD
  5
959
102
{ACAD_REACTORS
330
958
102
}
330
958
100
AcDbXrecord
280
     1
102
RTVSPropertyOp0
 70
     1
102
RTVSPropertyOp1
 70
     1
102
RTVSPropertyOp2
 70
     1
102
RTVSPropertyOp3
 70
     1
102
RTVSPropertyOp4
 70
     1
102
RTVSPropertyOp5
 70
     1
102
RTVSPropertyOp6
 70
     1
102
RTVSPropertyOp7
 70
     1
102
RTVSPropertyOp8
 70
     1
102
RTVSPropertyOp9
 70
     1
102
RTVSPropertyOp10
 70
     1
102
RTVSPropertyOp11
 70
     1
102
RTVSPropertyOp12
 70
     1
102
RTVSPropertyOp13
 70
     1
102
RTVSPropertyOp14
 70
     1
102
RTVSPropertyOp15
 70
     1
102
RTVSPropertyOp16
 70
     1
102
RTVSPropertyOp17
 70
     1
102
RTVSPropertyOp18
 70
     1
102
RTVSPropertyOp19
 70
     1
102
RTVSPropertyOp20
 70
     1
102
RTVSPropertyOp21
 70
     1
102
RTVSPropertyOp22
 70
     1
102
RTVSPropertyOp23
 70
     1
102
RTVSPropertyOp24
 70
     1
102
RTVSPropertyOp25
 70
     1
102
RTVSPropertyOp26
 70
     1
102
RTVSPropertyOp27
 70
     1
102
RTVSPropertyOp28
 70
     1
102
RTVSPropertyOp29
 70
     1
102
RTVSPropertyOp30
 70
     1
102
RTVSPropertyOp31
 70
     1
102
RTVSPropertyOp32
 70
     1
  0
XRECORD
  5
957
102
{ACAD_REACTORS
330
956
102
}
330
956
100
AcDbXrecord
280
     1
102
RTVSPropertyOp0
 70
     1
102
RTVSPropertyOp1
 70
     1
102
RTVSPropertyOp2
 70
     1
102
RTVSPropertyOp3
 70
     1
102
RTVSPropertyOp4
 70
     1
102
RTVSPropertyOp5
 70
     1
102
RTVSPropertyOp6
 70
     1
102
RTVSPropertyOp7
 70
     1
102
RTVSPropertyOp8
 70
     1
102
RTVSPropertyOp9
 70
     1
102
RTVSPropertyOp10
 70
     1
102
RTVSPropertyOp11
 70
     1
102
RTVSPropertyOp12
 70
     1
102
RTVSPropertyOp13
 70
     1
102
RTVSPropertyOp14
 70
     1
102
RTVSPropertyOp15
 70
     1
102
RTVSPropertyOp16
 70
     1
102
RTVSPropertyOp17
 70
     1
102
RTVSPropertyOp18
 70
     1
102
RTVSPropertyOp19
 70
     1
102
RTVSPropertyOp20
 70
     1
102
RTVSPropertyOp21
 70
     1
102
RTVSPropertyOp22
 70
     1
102
RTVSPropertyOp23
 70
     1
102
RTVSPropertyOp24
 70
     1
102
RTVSPropertyOp25
 70
     1
102
RTVSPropertyOp26
 70
     1
102
RTVSPropertyOp27
 70
     1
102
RTVSPropertyOp28
 70
     1
102
RTVSPropertyOp29
 70
     1
102
RTVSPropertyOp30
 70
     1
102
RTVSPropertyOp31
 70
     1
102
RTVSPropertyOp32
 70
     1
  0
XRECORD
  5
951
102
{ACAD_REACTORS
330
950
102
}
330
950
100
AcDbXrecord
280
     1
102
RTVSPropertyOp0
 70
     1
102
RTVSPropertyOp1
 70
     1
102
RTVSPropertyOp2
 70
     1
102
RTVSPropertyOp3
 70
     1
102
RTVSPropertyOp4
 70
     1
102
RTVSPropertyOp5
 70
     1
102
RTVSPropertyOp6
 70
     1
102
RTVSPropertyOp7
 70
     1
102
RTVSPropertyOp8
 70
     1
102
RTVSPropertyOp9
 70
     1
102
RTVSPropertyOp10
 70
     1
102
RTVSPropertyOp11
 70
     1
102
RTVSPropertyOp12
 70
     1
102
RTVSPropertyOp13
 70
     1
102
RTVSPropertyOp14
 70
     1
102
RTVSPropertyOp15
 70
     1
102
RTVSPropertyOp16
 70
     1
102
RTVSPropertyOp17
 70
     1
102
RTVSPropertyOp18
 70
     1
102
RTVSPropertyOp19
 70
     1
102
RTVSPropertyOp20
 70
     1
102
RTVSPropertyOp21
 70
     1
102
RTVSPropertyOp22
 70
     1
102
RTVSPropertyOp23
 70
     1
102
RTVSPropertyOp24
 70
     1
102
RTVSPropertyOp25
 70
     1
102
RTVSPropertyOp26
 70
     1
102
RTVSPropertyOp27
 70
     1
102
RTVSPropertyOp28
 70
     1
102
RTVSPropertyOp29
 70
     1
102
RTVSPropertyOp30
 70
     1
102
RTVSPropertyOp31
 70
     1
102
RTVSPropertyOp32
 70
     1
  0
XRECORD
  5
953
102
{ACAD_REACTORS
330
952
102
}
330
952
100
AcDbXrecord
280
     1
102
RTVSPropertyOp0
 70
     1
102
RTVSPropertyOp1
 70
     1
102
RTVSPropertyOp2
 70
     1
102
RTVSPropertyOp3
 70
     1
102
RTVSPropertyOp4
 70
     1
102
RTVSPropertyOp5
 70
     1
102
RTVSPropertyOp6
 70
     1
102
RTVSPropertyOp7
 70
     1
102
RTVSPropertyOp8
 70
     1
102
RTVSPropertyOp9
 70
     1
102
RTVSPropertyOp10
 70
     1
102
RTVSPropertyOp11
 70
     1
102
RTVSPropertyOp12
 70
     1
102
RTVSPropertyOp13
 70
     1
102
RTVSPropertyOp14
 70
     1
102
RTVSPropertyOp15
 70
     1
102
RTVSPropertyOp16
 70
     1
102
RTVSPropertyOp17
 70
     1
102
RTVSPropertyOp18
 70
     1
102
RTVSPropertyOp19
 70
     1
102
RTVSPropertyOp20
 70
     1
102
RTVSPropertyOp21
 70
     1
102
RTVSPropertyOp22
 70
     1
102
RTVSPropertyOp23
 70
     1
102
RTVSPropertyOp24
 70
     1
102
RTVSPropertyOp25
 70
     1
102
RTVSPropertyOp26
 70
     1
102
RTVSPropertyOp27
 70
     1
102
RTVSPropertyOp28
 70
     1
102
RTVSPropertyOp29
 70
     1
102
RTVSPropertyOp30
 70
     1
102
RTVSPropertyOp31
 70
     1
102
RTVSPropertyOp32
 70
     1
  0
XRECORD
  5
949
102
{ACAD_REACTORS
330
948
102
}
330
948
100
AcDbXrecord
280
     1
102
RTVSPropertyOp0
 70
     1
102
RTVSPropertyOp1
 70
     1
102
RTVSPropertyOp2
 70
     1
102
RTVSPropertyOp3
 70
     1
102
RTVSPropertyOp4
 70
     1
102
RTVSPropertyOp5
 70
     1
102
RTVSPropertyOp6
 70
     1
102
RTVSPropertyOp7
 70
     1
102
RTVSPropertyOp8
 70
     1
102
RTVSPropertyOp9
 70
     1
102
RTVSPropertyOp10
 70
     1
102
RTVSPropertyOp11
 70
     1
102
RTVSPropertyOp12
 70
     1
102
RTVSPropertyOp13
 70
     1
102
RTVSPropertyOp14
 70
     1
102
RTVSPropertyOp15
 70
     1
102
RTVSPropertyOp16
 70
     1
102
RTVSPropertyOp17
 70
     1
102
RTVSPropertyOp18
 70
     1
102
RTVSPropertyOp19
 70
     1
102
RTVSPropertyOp20
 70
     1
102
RTVSPropertyOp21
 70
     1
102
RTVSPropertyOp22
 70
     1
102
RTVSPropertyOp23
 70
     1
102
RTVSPropertyOp24
 70
     1
102
RTVSPropertyOp25
 70
     1
102
RTVSPropertyOp26
 70
     1
102
RTVSPropertyOp27
 70
     1
102
RTVSPropertyOp28
 70
     1
102
RTVSPropertyOp29
 70
     1
102
RTVSPropertyOp30
 70
     1
102
RTVSPropertyOp31
 70
     1
102
RTVSPropertyOp32
 70
     1
  0
XRECORD
  5
93D
102
{ACAD_REACTORS
330
93C
102
}
330
93C
100
AcDbXrecord
280
     1
102
RTVSPropertyOp0
 70
     1
102
RTVSPropertyOp1
 70
     1
102
RTVSPropertyOp2
 70
     1
102
RTVSPropertyOp3
 70
     1
102
RTVSPropertyOp4
 70
     1
102
RTVSPropertyOp5
 70
     1
102
RTVSPropertyOp6
 70
     1
102
RTVSPropertyOp7
 70
     1
102
RTVSPropertyOp8
 70
     1
102
RTVSPropertyOp9
 70
     1
102
RTVSPropertyOp10
 70
     1
102
RTVSPropertyOp11
 70
     1
102
RTVSPropertyOp12
 70
     1
102
RTVSPropertyOp13
 70
     1
102
RTVSPropertyOp14
 70
     1
102
RTVSPropertyOp15
 70
     1
102
RTVSPropertyOp16
 70
     1
102
RTVSPropertyOp17
 70
     1
102
RTVSPropertyOp18
 70
     1
102
RTVSPropertyOp19
 70
     1
102
RTVSPropertyOp20
 70
     1
102
RTVSPropertyOp21
 70
     1
102
RTVSPropertyOp22
 70
     1
102
RTVSPropertyOp23
 70
     1
102
RTVSPropertyOp24
 70
     1
102
RTVSPropertyOp25
 70
     1
102
RTVSPropertyOp26
 70
     1
102
RTVSPropertyOp27
 70
     1
102
RTVSPropertyOp28
 70
     1
102
RTVSPropertyOp29
 70
     1
102
RTVSPropertyOp30
 70
     1
102
RTVSPropertyOp31
 70
     1
102
RTVSPropertyOp32
 70
     1
  0
XRECORD
  5
955
102
{ACAD_REACTORS
330
954
102
}
330
954
100
AcDbXrecord
280
     1
102
RTVSPropertyOp0
 70
     1
102
RTVSPropertyOp1
 70
     1
102
RTVSPropertyOp2
 70
     1
102
RTVSPropertyOp3
 70
     1
102
RTVSPropertyOp4
 70
     1
102
RTVSPropertyOp5
 70
     1
102
RTVSPropertyOp6
 70
     1
102
RTVSPropertyOp7
 70
     1
102
RTVSPropertyOp8
 70
     1
102
RTVSPropertyOp9
 70
     1
102
RTVSPropertyOp10
 70
     1
102
RTVSPropertyOp11
 70
     1
102
RTVSPropertyOp12
 70
     1
102
RTVSPropertyOp13
 70
     1
102
RTVSPropertyOp14
 70
     1
102
RTVSPropertyOp15
 70
     1
102
RTVSPropertyOp16
 70
     1
102
RTVSPropertyOp17
 70
     1
102
RTVSPropertyOp18
 70
     1
102
RTVSPropertyOp19
 70
     1
102
RTVSPropertyOp20
 70
     1
102
RTVSPropertyOp21
 70
     1
102
RTVSPropertyOp22
 70
     1
102
RTVSPropertyOp23
 70
     1
102
RTVSPropertyOp24
 70
     1
102
RTVSPropertyOp25
 70
     1
102
RTVSPropertyOp26
 70
     1
102
RTVSPropertyOp27
 70
     1
102
RTVSPropertyOp28
 70
     1
102
RTVSPropertyOp29
 70
     1
102
RTVSPropertyOp30
 70
     1
102
RTVSPropertyOp31
 70
     1
102
RTVSPropertyOp32
 70
     1
  0
ENDSEC
  0
EOF
