  0
SECTION
  2
HEADER
  9
$ACADVER
  1
AC1015
  9
$ACADMAINTVER
 70
    20
  9
$DWGCODEPAGE
  3
ANSI_932
  9
$INSBASE
 10
0.0
 20
0.0
 30
0.0
  9
$EXTMIN
 10
126.480652
 20
-27.590568
 30
0.0
  9
$EXTMAX
 10
531.4806519999998
 20
246.409432
 30
0.0
  9
$LIMMIN
 10
126.479652
 20
-27.591569
  9
$LIMMAX
 10
531.507531
 20
246.465798
  9
$ORTHOMODE
 70
     1
  9
$REGENMODE
 70
     1
  9
$FILLMODE
 70
     1
  9
$QTEXTMODE
 70
     0
  9
$MIRRTEXT
 70
     0
  9
$LTSCALE
 40
6.750430999999997
  9
$ATTMODE
 70
     1
  9
$TEXTSIZE
 40
3.2
  9
$TRACEWID
 40
0.05
  9
$TEXTSTYLE
  7
高3.2
  9
$CLAYER
  8
0
  9
$CELTYPE
  6
CONTINUOUS
  9
$CECOLOR
 62
   256
  9
$CELTSCALE
 40
1.0
  9
$DISPSILH
 70
     0
  9
$DIMSCALE
 40
1.0
  9
$DIMASZ
 40
2.5
  9
$DIMEXO
 40
0.25
  9
$DIMDLI
 40
0.2
  9
$DIMRND
 40
0.0
  9
$DIMDLE
 40
0.0
  9
$DIMEXE
 40
1.25
  9
$DIMTP
 40
0.0
  9
$DIMTM
 40
0.0
  9
$DIMTXT
 40
3.0
  9
$DIMCEN
 40
0.0
  9
$DIMTSZ
 40
0.0
  9
$DIMTOL
 70
     0
  9
$DIMLIM
 70
     0
  9
$DIMTIH
 70
     0
  9
$DIMTOH
 70
     0
  9
$DIMSE1
 70
     0
  9
$DIMSE2
 70
     0
  9
$DIMTAD
 70
     3
  9
$DIMZIN
 70
     8
  9
$DIMBLK
  1
Open30
  9
$DIMASO
 70
     1
  9
$DIMSHO
 70
     1
  9
$DIMPOST
  1

  9
$DIMAPOST
  1

  9
$DIMALT
 70
     0
  9
$DIMALTD
 70
     3
  9
$DIMALTF
 40
0.03937007874016
  9
$DIMLFAC
 40
2.0
  9
$DIMTOFL
 70
     1
  9
$DIMTVP
 40
0.0
  9
$DIMTIX
 70
     0
  9
$DIMSOXD
 70
     0
  9
$DIMSAH
 70
     0
  9
$DIMBLK1
  1

  9
$DIMBLK2
  1

  9
$DIMSTYLE
  2
1／2
  9
$DIMCLRD
 70
     0
  9
$DIMCLRE
 70
     0
  9
$DIMCLRT
 70
     4
  9
$DIMTFAC
 40
1.0
  9
$DIMGAP
 40
0.625
  9
$DIMJUST
 70
     0
  9
$DIMSD1
 70
     0
  9
$DIMSD2
 70
     0
  9
$DIMTOLJ
 70
     0
  9
$DIMTZIN
 70
     8
  9
$DIMALTZ
 70
     0
  9
$DIMALTTZ
 70
     0
  9
$DIMUPT
 70
     1
  9
$DIMDEC
 70
     2
  9
$DIMTDEC
 70
     2
  9
$DIMALTU
 70
     2
  9
$DIMALTTD
 70
     3
  9
$DIMTXSTY
  7
STANDARD
  9
$DIMAUNIT
 70
     0
  9
$DIMADEC
 70
     1
  9
$DIMALTRND
 40
0.0
  9
$DIMAZIN
 70
     2
  9
$DIMDSEP
 70
    46
  9
$DIMATFIT
 70
     0
  9
$DIMFRAC
 70
     0
  9
$DIMLDRBLK
  1
Open30
  9
$DIMLUNIT
 70
     2
  9
$DIMLWD
 70
    -2
  9
$DIMLWE
 70
    -2
  9
$DIMTMOVE
 70
     0
  9
$LUNITS
 70
     2
  9
$LUPREC
 70
     4
  9
$SKETCHINC
 40
0.1
  9
$FILLETRAD
 40
0.0
  9
$AUNITS
 70
     0
  9
$AUPREC
 70
     0
  9
$MENU
  1
.
  9
$ELEVATION
 40
0.0
  9
$PELEVATION
 40
0.0
  9
$THICKNESS
 40
0.0
  9
$LIMCHECK
 70
     0
  9
$CHAMFERA
 40
0.0
  9
$CHAMFERB
 40
0.0
  9
$CHAMFERC
 40
0.0
  9
$CHAMFERD
 40
0.0
  9
$SKPOLY
 70
     0
  9
$TDCREATE
 40
2455646.735115764
  9
$TDUCREATE
 40
2455646.360115764
  9
$TDUPDATE
 40
2458256.828041343
  9
$TDUUPDATE
 40
2458256.453041343
  9
$TDINDWG
 40
0.0155949884
  9
$TDUSRTIMER
 40
0.0155944560
  9
$USRTIMER
 70
     1
  9
$ANGBASE
 50
0.0
  9
$ANGDIR
 70
     0
  9
$PDMODE
 70
     0
  9
$PDSIZE
 40
0.0
  9
$PLINEWID
 40
0.0
  9
$SPLFRAME
 70
     0
  9
$SPLINETYPE
 70
     6
  9
$SPLINESEGS
 70
     8
  9
$HANDSEED
  5
91E
  9
$SURFTAB1
 70
     6
  9
$SURFTAB2
 70
     6
  9
$SURFTYPE
 70
     6
  9
$SURFU
 70
     6
  9
$SURFV
 70
     6
  9
$UCSBASE
  2

  9
$UCSNAME
  2

  9
$UCSORG
 10
0.0
 20
0.0
 30
0.0
  9
$UCSXDIR
 10
1.0
 20
0.0
 30
0.0
  9
$UCSYDIR
 10
0.0
 20
1.0
 30
0.0
  9
$UCSORTHOREF
  2

  9
$UCSORTHOVIEW
 70
     0
  9
$UCSORGTOP
 10
0.0
 20
0.0
 30
0.0
  9
$UCSORGBOTTOM
 10
0.0
 20
0.0
 30
0.0
  9
$UCSORGLEFT
 10
0.0
 20
0.0
 30
0.0
  9
$UCSORGRIGHT
 10
0.0
 20
0.0
 30
0.0
  9
$UCSORGFRONT
 10
0.0
 20
0.0
 30
0.0
  9
$UCSORGBACK
 10
0.0
 20
0.0
 30
0.0
  9
$PUCSBASE
  2

  9
$PUCSNAME
  2

  9
$PUCSORG
 10
0.0
 20
0.0
 30
0.0
  9
$PUCSXDIR
 10
1.0
 20
0.0
 30
0.0
  9
$PUCSYDIR
 10
0.0
 20
1.0
 30
0.0
  9
$PUCSORTHOREF
  2

  9
$PUCSORTHOVIEW
 70
     0
  9
$PUCSORGTOP
 10
0.0
 20
0.0
 30
0.0
  9
$PUCSORGBOTTOM
 10
0.0
 20
0.0
 30
0.0
  9
$PUCSORGLEFT
 10
0.0
 20
0.0
 30
0.0
  9
$PUCSORGRIGHT
 10
0.0
 20
0.0
 30
0.0
  9
$PUCSORGFRONT
 10
0.0
 20
0.0
 30
0.0
  9
$PUCSORGBACK
 10
0.0
 20
0.0
 30
0.0
  9
$USERI1
 70
     0
  9
$USERI2
 70
     0
  9
$USERI3
 70
     0
  9
$USERI4
 70
     0
  9
$USERI5
 70
     0
  9
$USERR1
 40
0.0
  9
$USERR2
 40
0.0
  9
$USERR3
 40
0.0
  9
$USERR4
 40
0.0
  9
$USERR5
 40
0.0
  9
$WORLDVIEW
 70
     1
  9
$SHADEDGE
 70
     3
  9
$SHADEDIF
 70
    70
  9
$TILEMODE
 70
     1
  9
$MAXACTVP
 70
    64
  9
$PINSBASE
 10
0.0
 20
0.0
 30
0.0
  9
$PLIMCHECK
 70
     0
  9
$PEXTMIN
 10
1.000000000000000E+20
 20
1.000000000000000E+20
 30
1.000000000000000E+20
  9
$PEXTMAX
 10
-1.000000000000000E+20
 20
-1.000000000000000E+20
 30
-1.000000000000000E+20
  9
$PLIMMIN
 10
0.0
 20
0.0
  9
$PLIMMAX
 10
12.0
 20
9.0
  9
$UNITMODE
 70
     0
  9
$VISRETAIN
 70
     1
  9
$PLINEGEN
 70
     0
  9
$PSLTSCALE
 70
     1
  9
$TREEDEPTH
 70
  3020
  9
$CMLSTYLE
  2
Standard
  9
$CMLJUST
 70
     0
  9
$CMLSCALE
 40
1.0
  9
$PROXYGRAPHICS
 70
     1
  9
$MEASUREMENT
 70
     0
  9
$CELWEIGHT
370
    -1
  9
$ENDCAPS
280
     0
  9
$JOINSTYLE
280
     0
  9
$LWDISPLAY
290
     0
  9
$INSUNITS
 70
     0
  9
$HYPERLINKBASE
  1

  9
$STYLESHEET
  1

  9
$XEDIT
290
     1
  9
$CEPSNTYPE
380
     0
  9
$PSTYLEMODE
290
     1
  9
$FINGERPRINTGUID
  2
{AA746F3C-28E0-40F5-996F-A5BD3AB44280}
  9
$VERSIONGUID
  2
{52ED9296-21DC-4C50-8CAA-D4E0A491C5CE}
  9
$EXTNAMES
290
     1
  9
$PSVPSCALE
 40
0.0
  9
$OLESTARTUP
290
     0
  0
ENDSEC
  0
SECTION
  2
CLASSES
  0
CLASS
  1
ACDBDICTIONARYWDFLT
  2
AcDbDictionaryWithDefault
  3
ObjectDBX Classes
 90
        0
280
     0
281
     0
  0
CLASS
  1
MATERIAL
  2
AcDbMaterial
  3
ObjectDBX Classes
 90
     1153
280
     0
281
     0
  0
CLASS
  1
VISUALSTYLE
  2
AcDbVisualStyle
  3
ObjectDBX Classes
 90
     4095
280
     0
281
     0
  0
CLASS
  1
TABLESTYLE
  2
AcDbTableStyle
  3
ObjectDBX Classes
 90
     4095
280
     0
281
     0
  0
CLASS
  1
DICTIONARYVAR
  2
AcDbDictionaryVar
  3
ObjectDBX Classes
 90
        0
280
     0
281
     0
  0
CLASS
  1
ACDBPLACEHOLDER
  2
AcDbPlaceHolder
  3
ObjectDBX Classes
 90
        0
280
     0
281
     0
  0
CLASS
  1
LAYOUT
  2
AcDbLayout
  3
ObjectDBX Classes
 90
        0
280
     0
281
     0
  0
CLASS
  1
SCALE
  2
AcDbScale
  3
ObjectDBX Classes
 90
     1153
280
     0
281
     0
  0
CLASS
  1
MLEADERSTYLE
  2
AcDbMLeaderStyle
  3
ACDB_MLEADERSTYLE_CLASS
 90
     4095
280
     0
281
     0
  0
CLASS
  1
SORTENTSTABLE
  2
AcDbSortentsTable
  3
ObjectDBX Classes
 90
        0
280
     0
281
     0
  0
CLASS
  1
CELLSTYLEMAP
  2
AcDbCellStyleMap
  3
ObjectDBX Classes
 90
     1152
280
     0
281
     0
  0
ENDSEC
  0
SECTION
  2
TABLES
  0
TABLE
  2
VPORT
  5
8
330
0
100
AcDbSymbolTable
 70
     1
  0
VPORT
  5
56
330
8
100
AcDbSymbolTableRecord
100
AcDbViewportTableRecord
  2
*Active
 70
     0
 10
0.0
 20
0.0
 11
1.0
 21
1.0
 12
266.6688411188435
 22
53.04646895875487
 13
0.0
 23
0.0
 14
1.0
 24
1.0
 15
0.0
 25
0.0
 16
0.0
 26
0.0
 36
1.0
 17
0.0
 27
0.0
 37
0.0
 40
633.8862702445533
 41
1.390896921017402
 42
50.0
 43
0.0
 44
0.0
 50
0.0
 51
0.0
 71
     0
 72
   100
 73
     1
 74
     1
 75
     0
 76
     0
 77
     0
 78
     0
281
     0
 65
     1
110
0.0
120
0.0
130
0.0
111
1.0
121
0.0
131
0.0
112
0.0
122
1.0
132
0.0
 79
     0
146
0.0
  0
ENDTAB
  0
TABLE
  2
LTYPE
  5
5
330
0
100
AcDbSymbolTable
 70
     3
  0
LTYPE
  5
28
330
5
100
AcDbSymbolTableRecord
100
AcDbLinetypeTableRecord
  2
ByBlock
 70
     0
  3

 72
    65
 73
     0
 40
0.0
  0
LTYPE
  5
29
330
5
100
AcDbSymbolTableRecord
100
AcDbLinetypeTableRecord
  2
ByLayer
 70
     0
  3

 72
    65
 73
     0
 40
0.0
  0
LTYPE
  5
2A
330
5
100
AcDbSymbolTableRecord
100
AcDbLinetypeTableRecord
  2
CONTINUOUS
 70
     0
  3
Solid-line
 72
    65
 73
     0
 40
0.0
  0
LTYPE
  5
4F
330
5
100
AcDbSymbolTableRecord
100
AcDbLinetypeTableRecord
  2
PHANTOM
 70
     0
  3
PHANTOM
 72
    65
 73
     6
 40
2.5
 49
1.25
 74
     0
 49
-0.25
 74
     0
 49
0.25
 74
     0
 49
-0.25
 74
     0
 49
0.25
 74
     0
 49
-0.25
 74
     0
  0
ENDTAB
  0
TABLE
  2
LAYER
  5
2
102
{ACAD_XDICTIONARY
360
570
102
}
330
0
100
AcDbSymbolTable
 70
     2
  0
LAYER
  5
25
102
{ACAD_XDICTIONARY
360
721
102
}
330
2
100
AcDbSymbolTableRecord
100
AcDbLayerTableRecord
  2
0
 70
     0
 62
     7
  6
CONTINUOUS
370
    -3
390
F
  0
LAYER
  5
55A
330
2
100
AcDbSymbolTableRecord
100
AcDbLayerTableRecord
  2
Defpoints
 70
     0
 62
     7
  6
CONTINUOUS
290
     0
370
    -3
390
F
  0
ENDTAB
  0
TABLE
  2
STYLE
  5
3
330
0
100
AcDbSymbolTable
 70
     5
  0
STYLE
  5
26
330
3
100
AcDbSymbolTableRecord
100
AcDbTextStyleTableRecord
  2
STANDARD
 70
     0
 40
0.0
 41
1.0
 50
0.0
 71
     0
 42
0.2
  3
TXT
  4
BIGFONT
  0
STYLE
  5
55B
330
3
100
AcDbSymbolTableRecord
100
AcDbTextStyleTableRecord
  2
高3.2
 70
     0
 40
3.2
 41
1.0
 50
0.0
 71
     0
 42
3.2
  3
txt.shx
  4
bigfont.shx
  0
STYLE
  5
55C
330
3
100
AcDbSymbolTableRecord
100
AcDbTextStyleTableRecord
  2
高6.3
 70
     0
 40
6.299999999999998
 41
1.0
 50
0.0
 71
     0
 42
6.299999999999998
  3
txt.shx
  4
bigfont.shx
  0
STYLE
  5
55E
330
3
100
AcDbSymbolTableRecord
100
AcDbTextStyleTableRecord
  2
高4.5
 70
     0
 40
4.5
 41
1.0
 50
0.0
 71
     0
 42
6.299999999999998
  3
txt.shx
  4
bigfont.shx
  0
STYLE
  5
55F
330
3
100
AcDbSymbolTableRecord
100
AcDbTextStyleTableRecord
  2
高2
 70
     0
 40
2.0
 41
1.0
 50
0.0
 71
     0
 42
2.0
  3
txt.shx
  4
bigfont.shx
  0
ENDTAB
  0
TABLE
  2
VIEW
  5
6
330
0
100
AcDbSymbolTable
 70
     0
  0
ENDTAB
  0
TABLE
  2
UCS
  5
7
330
0
100
AcDbSymbolTable
 70
     0
  0
ENDTAB
  0
TABLE
  2
APPID
  5
9
330
0
100
AcDbSymbolTable
 70
     9
  0
APPID
  5
27
330
9
100
AcDbSymbolTableRecord
100
AcDbRegAppTableRecord
  2
ACAD
 70
     0
  0
APPID
  5
56A
330
9
100
AcDbSymbolTableRecord
100
AcDbRegAppTableRecord
  2
ACAD_DSTYLE_DIMJOGGED_JOGANGLE_SYMBOL
 70
     0
  0
APPID
  5
56B
330
9
100
AcDbSymbolTableRecord
100
AcDbRegAppTableRecord
  2
ACAD_DSTYLE_DIMJAG
 70
     0
  0
APPID
  5
56C
330
9
100
AcDbSymbolTableRecord
100
AcDbRegAppTableRecord
  2
ACAD_DSTYLE_DIMBREAK
 70
     0
  0
APPID
  5
56D
330
9
100
AcDbSymbolTableRecord
100
AcDbRegAppTableRecord
  2
ACAD_DSTYLE_DIMTALN
 70
     0
  0
APPID
  5
6D4
330
9
100
AcDbSymbolTableRecord
100
AcDbRegAppTableRecord
  2
ACAD_EXEMPT_FROM_CAD_STANDARDS
 70
     0
  0
APPID
  5
767
330
9
100
AcDbSymbolTableRecord
100
AcDbRegAppTableRecord
  2
ACAD_MLEADERVER
 70
     0
  0
APPID
  5
768
330
9
100
AcDbSymbolTableRecord
100
AcDbRegAppTableRecord
  2
ACAD_DSTYLE_DIMARC_LENGTH_SYMBOL
 70
     0
  0
APPID
  5
769
330
9
100
AcDbSymbolTableRecord
100
AcDbRegAppTableRecord
  2
ACAD_DSTYLE_DIMEXT_LENGTH
 70
     0
  0
ENDTAB
  0
TABLE
  2
DIMSTYLE
  5
A
330
0
100
AcDbSymbolTable
 70
     2
100
AcDbDimStyleTable
 71
     1
340
564
  0
DIMSTYLE
105
493
330
A
100
AcDbSymbolTableRecord
100
AcDbDimStyleTableRecord
  2
Standard
 70
     0
340
26
  0
DIMSTYLE
105
564
330
A
100
AcDbSymbolTableRecord
100
AcDbDimStyleTableRecord
  2
1／2
 70
     0
 41
2.5
 42
0.25
 43
0.2
 44
1.25
 73
     0
 74
     0
 77
     3
 78
     8
 79
     2
140
3.0
141
0.0
143
0.03937007874016
144
2.0
147
0.625
171
     3
172
     1
178
     4
179
     1
271
     2
272
     2
274
     3
283
     0
284
     8
288
     1
289
     0
340
26
341
4CA
342
4CA
1001
ACAD_DSTYLE_DIMARC_LENGTH_SYMBOL
1070
   379
1070
     2
1001
ACAD_DSTYLE_DIMEXT_LENGTH
1070
   378
1040
1.25
1001
ACAD_DSTYLE_DIMJOGGED_JOGANGLE_SYMBOL
1070
   384
1040
1.570796326794896
  0
ENDTAB
  0
TABLE
  2
BLOCK_RECORD
  5
1
330
0
100
AcDbSymbolTable
 70
     5
  0
BLOCK_RECORD
  5
36
102
{ACAD_XDICTIONARY
360
6FB
102
}
330
1
100
AcDbSymbolTableRecord
100
AcDbBlockTableRecord
  2
*Model_Space
340
39
  0
BLOCK_RECORD
  5
32
330
1
100
AcDbSymbolTableRecord
100
AcDbBlockTableRecord
  2
*Paper_Space
340
35
  0
BLOCK_RECORD
  5
4CA
330
1
100
AcDbSymbolTableRecord
100
AcDbBlockTableRecord
  2
_Open30
340
0
102
{BLKREFS
331
7E5
331
7E6
331
7EE
331
7EF
331
7F7
331
7F8
331
800
331
801
102
}
  0
BLOCK_RECORD
  5
6B0
330
1
100
AcDbSymbolTableRecord
100
AcDbBlockTableRecord
  2
*D1
340
0
  0
BLOCK_RECORD
  5
6BC
330
1
100
AcDbSymbolTableRecord
100
AcDbBlockTableRecord
  2
*D2
340
0
  0
BLOCK_RECORD
  5
6C8
330
1
100
AcDbSymbolTableRecord
100
AcDbBlockTableRecord
  2
*D3
340
0
  0
BLOCK_RECORD
  5
6DF
330
1
100
AcDbSymbolTableRecord
100
AcDbBlockTableRecord
  2
*D4
340
0
  0
ENDTAB
  0
ENDSEC
  0
SECTION
  2
BLOCKS
  0
BLOCK
  5
37
330
36
100
AcDbEntity
  8
0
100
AcDbBlockBegin
  2
*Model_Space
 70
     0
 10
0.0
 20
0.0
 30
0.0
  3
*Model_Space
  1

  0
ENDBLK
  5
38
330
36
100
AcDbEntity
  8
0
100
AcDbBlockEnd
  0
BLOCK
  5
33
330
32
100
AcDbEntity
 67
     1
  8
0
100
AcDbBlockBegin
  2
*Paper_Space
 70
     0
 10
0.0
 20
0.0
 30
0.0
  3
*Paper_Space
  1

  0
ENDBLK
  5
34
330
32
100
AcDbEntity
 67
     1
  8
0
100
AcDbBlockEnd
  0
BLOCK
  5
4CB
330
4CA
100
AcDbEntity
  8
0
100
AcDbBlockBegin
  2
_Open30
 70
     0
 10
0.0
 20
0.0
 30
0.0
  3
_Open30
  1

  0
LINE
  5
4CC
330
4CA
100
AcDbEntity
  8
0
  6
ByBlock
 62
     0
370
    -2
100
AcDbLine
 10
-1.0
 20
0.267949
 30
0.0
 11
0.0
 21
0.0
 31
0.0
  0
LINE
  5
4CD
330
4CA
100
AcDbEntity
  8
0
  6
ByBlock
 62
     0
370
    -2
100
AcDbLine
 10
0.0
 20
0.0
 30
0.0
 11
-1.0
 21
-0.267949
 31
0.0
  0
LINE
  5
4CE
330
4CA
100
AcDbEntity
  8
0
  6
ByBlock
 62
     0
370
    -2
100
AcDbLine
 10
0.0
 20
0.0
 30
0.0
 11
-1.0
 21
0.0
 31
0.0
  0
ENDBLK
  5
4CF
330
4CA
100
AcDbEntity
  8
0
100
AcDbBlockEnd
  0
BLOCK
  5
6B1
330
6B0
100
AcDbEntity
  8
0
100
AcDbBlockBegin
  2
*D1
 70
     1
 10
0.0
 20
0.0
 30
0.0
  3
*D1
  1

  0
LINE
  5
7E2
330
6B0
100
AcDbEntity
  8
0
 62
     0
370
    -2
100
AcDbLine
 10
230.425413
 20
195.357361
 30
0.0
 11
230.425413
 21
171.162144
 31
0.0
  0
LINE
  5
7E3
330
6B0
100
AcDbEntity
  8
0
 62
     0
370
    -2
100
AcDbLine
 10
405.425413
 20
195.357361
 30
0.0
 11
405.425413
 21
171.162144
 31
0.0
  0
LINE
  5
7E4
330
6B0
100
AcDbEntity
  8
0
 62
     0
370
    -2
100
AcDbLine
 10
232.925413
 20
172.412144
 30
0.0
 11
402.9254129999999
 21
172.412144
 31
0.0
  0
INSERT
  5
7E5
330
6B0
100
AcDbEntity
  8
0
 62
     0
370
    -2
100
AcDbBlockReference
  2
_Open30
 10
230.425413
 20
172.412144
 30
0.0
 41
2.5
 42
2.5
 43
2.5
 50
180.0
  0
INSERT
  5
7E6
330
6B0
100
AcDbEntity
  8
0
 62
     0
370
    -2
100
AcDbBlockReference
  2
_Open30
 10
405.425413
 20
172.412144
 30
0.0
 41
2.5
 42
2.5
 43
2.5
  0
MTEXT
  5
7E7
330
6B0
100
AcDbEntity
  8
0
 62
     4
100
AcDbMText
 10
317.925413
 20
174.5371439999999
 30
0.0
 40
3.0
 41
0.0
 71
     5
 72
     1
  1
350
 73
     1
 44
1.0
1001
ACAD
1000
MTEXTBEGIN
1070
    73
1070
     1
1070
    44
1040
1.0
1070
    74
1070
     0
1000
MTEXTEND
  0
POINT
  5
7E8
330
6B0
100
AcDbEntity
  8
Defpoints
 62
     0
100
AcDbPoint
 10
230.425413
 20
195.607361
 30
0.0
  0
POINT
  5
7E9
330
6B0
100
AcDbEntity
  8
Defpoints
 62
     0
100
AcDbPoint
 10
405.425413
 20
195.607361
 30
0.0
  0
POINT
  5
7EA
330
6B0
100
AcDbEntity
  8
Defpoints
 62
     0
100
AcDbPoint
 10
405.425413
 20
172.412144
 30
0.0
  0
ENDBLK
  5
6B2
330
6B0
100
AcDbEntity
  8
0
100
AcDbBlockEnd
  0
BLOCK
  5
6BD
330
6BC
100
AcDbEntity
  8
0
100
AcDbBlockBegin
  2
*D2
 70
     1
 10
0.0
 20
0.0
 30
0.0
  3
*D2
  1

  0
LINE
  5
7EB
330
6BC
100
AcDbEntity
  8
0
 62
     0
370
    -2
100
AcDbLine
 10
241.50455
 20
183.626128
 30
0.0
 11
219.740548
 21
183.626128
 31
0.0
  0
LINE
  5
7EC
330
6BC
100
AcDbEntity
  8
0
 62
     0
370
    -2
100
AcDbLine
 10
241.50455
 20
213.364447
 30
0.0
 11
219.740548
 21
213.364447
 31
0.0
  0
LINE
  5
7ED
330
6BC
100
AcDbEntity
  8
0
 62
     0
370
    -2
100
AcDbLine
 10
220.990548
 20
186.126128
 30
0.0
 11
220.990548
 21
210.864447
 31
0.0
  0
INSERT
  5
7EE
330
6BC
100
AcDbEntity
  8
0
 62
     0
370
    -2
100
AcDbBlockReference
  2
_Open30
 10
220.990548
 20
183.626128
 30
0.0
 41
2.5
 42
2.5
 43
2.5
 50
270.0
  0
INSERT
  5
7EF
330
6BC
100
AcDbEntity
  8
0
 62
     0
370
    -2
100
AcDbBlockReference
  2
_Open30
 10
220.990548
 20
213.364447
 30
0.0
 41
2.5
 42
2.5
 43
2.5
 50
90.0
  0
MTEXT
  5
7F0
330
6BC
100
AcDbEntity
  8
0
 62
     4
100
AcDbMText
 10
218.8655479999999
 20
198.4952875
 30
0.0
 40
3.0
 41
0.0
 71
     5
 72
     1
  1
60
 11
0.0000000000000001
 21
1.0
 31
0.0
 73
     1
 44
1.0
1001
ACAD
1000
MTEXTBEGIN
1070
    73
1070
     1
1070
    44
1040
1.0
1070
    74
1070
     0
1000
MTEXTEND
  0
POINT
  5
7F1
330
6BC
100
AcDbEntity
  8
Defpoints
 62
     0
100
AcDbPoint
 10
241.75455
 20
183.626128
 30
0.0
  0
POINT
  5
7F2
330
6BC
100
AcDbEntity
  8
Defpoints
 62
     0
100
AcDbPoint
 10
241.75455
 20
213.364447
 30
0.0
  0
POINT
  5
7F3
330
6BC
100
AcDbEntity
  8
Defpoints
 62
     0
100
AcDbPoint
 10
220.990548
 20
213.364447
 30
0.0
  0
ENDBLK
  5
6BE
330
6BC
100
AcDbEntity
  8
0
100
AcDbBlockEnd
  0
BLOCK
  5
6C9
330
6C8
100
AcDbEntity
  8
0
100
AcDbBlockBegin
  2
*D3
 70
     1
 10
0.0
 20
0.0
 30
0.0
  3
*D3
  1

  0
LINE
  5
7F4
330
6C8
100
AcDbEntity
  8
0
 62
     0
370
    -2
100
AcDbLine
 10
317.675413
 20
181.495287
 30
0.0
 11
211.306385
 21
181.495287
 31
0.0
  0
LINE
  5
7F5
330
6C8
100
AcDbEntity
  8
0
 62
     0
370
    -2
100
AcDbLine
 10
317.675413
 20
215.495287
 30
0.0
 11
211.306385
 21
215.495287
 31
0.0
  0
LINE
  5
7F6
330
6C8
100
AcDbEntity
  8
0
 62
     0
370
    -2
100
AcDbLine
 10
212.556385
 20
183.995287
 30
0.0
 11
212.556385
 21
212.995287
 31
0.0
  0
INSERT
  5
7F7
330
6C8
100
AcDbEntity
  8
0
 62
     0
370
    -2
100
AcDbBlockReference
  2
_Open30
 10
212.556385
 20
181.495287
 30
0.0
 41
2.5
 42
2.5
 43
2.5
 50
270.0
  0
INSERT
  5
7F8
330
6C8
100
AcDbEntity
  8
0
 62
     0
370
    -2
100
AcDbBlockReference
  2
_Open30
 10
212.556385
 20
215.495287
 30
0.0
 41
2.5
 42
2.5
 43
2.5
 50
90.0
  0
MTEXT
  5
7F9
330
6C8
100
AcDbEntity
  8
0
 62
     4
100
AcDbMText
 10
210.431385
 20
198.495287
 30
0.0
 40
3.0
 41
0.0
 71
     5
 72
     1
  1
68
 11
0.0000000000000001
 21
1.0
 31
0.0
 73
     1
 44
1.0
1001
ACAD
1000
MTEXTBEGIN
1070
    73
1070
     1
1070
    44
1040
1.0
1070
    74
1070
     0
1000
MTEXTEND
  0
POINT
  5
7FA
330
6C8
100
AcDbEntity
  8
Defpoints
 62
     0
100
AcDbPoint
 10
317.925413
 20
181.495287
 30
0.0
  0
POINT
  5
7FB
330
6C8
100
AcDbEntity
  8
Defpoints
 62
     0
100
AcDbPoint
 10
317.925413
 20
215.495287
 30
0.0
  0
POINT
  5
7FC
330
6C8
100
AcDbEntity
  8
Defpoints
 62
     0
100
AcDbPoint
 10
212.556385
 20
215.495287
 30
0.0
  0
ENDBLK
  5
6CA
330
6C8
100
AcDbEntity
  8
0
100
AcDbBlockEnd
  0
BLOCK
  5
6E0
330
6DF
100
AcDbEntity
  8
0
100
AcDbBlockBegin
  2
*D4
 70
     1
 10
0.0
 20
0.0
 30
0.0
  3
*D4
  1

  0
LINE
  5
7FD
330
6DF
100
AcDbEntity
  8
0
 62
     0
370
    -2
100
AcDbLine
 10
232.675413
 20
101.22692
 30
0.0
 11
217.941616
 21
101.22692
 31
0.0
  0
LINE
  5
7FE
330
6DF
100
AcDbEntity
  8
0
 62
     0
370
    -2
100
AcDbLine
 10
232.675413
 20
160.238029
 30
0.0
 11
217.941616
 21
160.238029
 31
0.0
  0
LINE
  5
7FF
330
6DF
100
AcDbEntity
  8
0
 62
     0
370
    -2
100
AcDbLine
 10
219.191616
 20
103.72692
 30
0.0
 11
219.191616
 21
157.738029
 31
0.0
  0
INSERT
  5
800
330
6DF
100
AcDbEntity
  8
0
 62
     0
370
    -2
100
AcDbBlockReference
  2
_Open30
 10
219.191616
 20
101.22692
 30
0.0
 41
2.5
 42
2.5
 43
2.5
 50
270.0
  0
INSERT
  5
801
330
6DF
100
AcDbEntity
  8
0
 62
     0
370
    -2
100
AcDbBlockReference
  2
_Open30
 10
219.191616
 20
160.238029
 30
0.0
 41
2.5
 42
2.5
 43
2.5
 50
90.0
  0
MTEXT
  5
802
330
6DF
100
AcDbEntity
  8
0
 62
     4
100
AcDbMText
 10
217.066616
 20
130.7324745
 30
0.0
 40
3.0
 41
0.0
 71
     5
 72
     1
  1
118
 11
0.0000000000000001
 21
1.0
 31
0.0
 73
     1
 44
1.0
1001
ACAD
1000
MTEXTBEGIN
1070
    73
1070
     1
1070
    44
1040
1.0
1070
    74
1070
     0
1000
MTEXTEND
  0
POINT
  5
803
330
6DF
100
AcDbEntity
  8
Defpoints
 62
     0
100
AcDbPoint
 10
232.925413
 20
101.22692
 30
0.0
  0
POINT
  5
804
330
6DF
100
AcDbEntity
  8
Defpoints
 62
     0
100
AcDbPoint
 10
232.925413
 20
160.238029
 30
0.0
  0
POINT
  5
805
330
6DF
100
AcDbEntity
  8
Defpoints
 62
     0
100
AcDbPoint
 10
219.191616
 20
160.238029
 30
0.0
  0
ENDBLK
  5
6E1
330
6DF
100
AcDbEntity
  8
0
100
AcDbBlockEnd
  0
ENDSEC
  0
SECTION
  2
ENTITIES
  0
ARC
  5
93
330
36
100
AcDbEntity
  8
0
 62
     3
100
AcDbCircle
 10
317.925413
 20
-144.02308
 30
0.0
 40
258.25
100
AcDbArc
 50
86.49096
 51
86.59479899999999
  0
CIRCLE
  5
94
330
36
100
AcDbEntity
  8
0
 62
     3
100
AcDbCircle
 10
363.86247
 20
144.238029
 30
0.0
 40
2.0
  0
LINE
  5
95
330
36
100
AcDbEntity
  8
0
 62
     3
100
AcDbLine
 10
306.050413
 20
105.287737
 30
0.0
 11
306.050413
 21
104.787737
 31
0.0
  0
LINE
  5
96
330
36
100
AcDbEntity
  8
0
 62
     3
100
AcDbLine
 10
299.800413
 20
105.287737
 30
0.0
 11
299.800413
 21
104.801973
 31
0.0
  0
LINE
  5
97
330
36
100
AcDbEntity
  8
0
 62
     3
100
AcDbLine
 10
352.925413
 20
51.33456699999999
 30
0.0
 11
352.925413
 21
58.58456700000001
 31
0.0
  0
LINE
  5
98
330
36
100
AcDbEntity
  8
0
 62
     3
100
AcDbLine
 10
352.925413
 20
51.33456699999999
 30
0.0
 11
352.925413
 21
47.424013
 31
0.0
  0
LINE
  5
99
330
36
100
AcDbEntity
  8
0
 62
     3
100
AcDbLine
 10
282.925413
 20
47.424013
 30
0.0
 11
282.925413
 21
58.58456700000001
 31
0.0
  0
LINE
  5
9A
330
36
100
AcDbEntity
  8
0
 62
     3
100
AcDbLine
 10
352.925413
 20
46.33456699999999
 30
0.0
 11
282.80528
 21
46.33456699999999
 31
0.0
  0
ARC
  5
9B
330
36
100
AcDbEntity
  8
0
 62
     3
100
AcDbCircle
 10
357.925413
 20
47.424013
 30
0.0
 40
5.0
100
AcDbArc
 50
180.0
 51
271.6885180000001
  0
LINE
  5
9C
330
36
100
AcDbEntity
  8
0
 62
     3
100
AcDbLine
 10
300.425413
 20
51.584567
 30
0.0
 11
305.425413
 21
51.584567
 31
0.0
  0
LINE
  5
9D
330
36
100
AcDbEntity
  8
0
 62
     3
100
AcDbLine
 10
282.925413
 20
66.334567
 30
0.0
 11
282.925413
 21
59.08456700000001
 31
0.0
  0
LINE
  5
9E
330
36
100
AcDbEntity
  8
0
 62
     3
100
AcDbLine
 10
282.925413
 20
66.334567
 30
0.0
 11
282.925413
 21
70.24512
 31
0.0
  0
LINE
  5
9F
330
36
100
AcDbEntity
  8
0
 62
     3
100
AcDbLine
 10
352.925413
 20
70.24512
 30
0.0
 11
352.925413
 21
59.08456700000001
 31
0.0
  0
LINE
  5
A0
330
36
100
AcDbEntity
  8
0
 62
     3
100
AcDbLine
 10
335.425413
 20
66.08456700000001
 30
0.0
 11
330.425413
 21
66.08456700000001
 31
0.0
  0
LINE
  5
A1
330
36
100
AcDbEntity
  8
0
 62
     3
100
AcDbLine
 10
282.425413
 20
59.08456700000001
 30
0.0
 11
282.425413
 21
58.58456700000001
 31
0.0
  0
LINE
  5
A2
330
36
100
AcDbEntity
  8
0
 62
     3
100
AcDbLine
 10
300.425413
 20
66.08456700000001
 30
0.0
 11
305.425413
 21
66.08456700000001
 31
0.0
  0
LINE
  5
A3
330
36
100
AcDbEntity
  8
0
 62
     3
100
AcDbLine
 10
335.425413
 20
51.584567
 30
0.0
 11
330.425413
 21
51.584567
 31
0.0
  0
LINE
  5
A4
330
36
100
AcDbEntity
  8
0
 62
     3
100
AcDbLine
 10
353.425413
 20
58.58456700000001
 30
0.0
 11
353.425413
 21
59.08456700000001
 31
0.0
  0
LINE
  5
A5
330
36
100
AcDbEntity
  8
0
100
AcDbLine
 10
317.925413
 20
59.08456700000001
 30
0.0
 11
355.425413
 21
59.08456700000001
 31
0.0
  0
LINE
  5
A6
330
36
100
AcDbEntity
  8
0
100
AcDbLine
 10
317.925413
 20
58.58456700000001
 30
0.0
 11
355.425413
 21
58.58456700000001
 31
0.0
  0
LINE
  5
A7
330
36
100
AcDbEntity
  8
0
100
AcDbLine
 10
317.925413
 20
59.08456700000001
 30
0.0
 11
280.425413
 21
59.08456700000001
 31
0.0
  0
LINE
  5
A8
330
36
100
AcDbEntity
  8
0
100
AcDbLine
 10
317.925413
 20
58.58456700000001
 30
0.0
 11
280.425413
 21
58.58456700000001
 31
0.0
  0
LINE
  5
A9
330
36
100
AcDbEntity
  8
0
100
AcDbLine
 10
261.0495279999999
 20
59.08456700000001
 30
0.0
 11
263.549528
 21
59.08456700000001
 31
0.0
  0
LINE
  5
AA
330
36
100
AcDbEntity
  8
0
100
AcDbLine
 10
261.0495279999999
 20
58.58456700000001
 30
0.0
 11
263.549528
 21
58.58456700000001
 31
0.0
  0
LINE
  5
AB
330
36
100
AcDbEntity
  8
0
100
AcDbLine
 10
372.301298
 20
59.08456700000001
 30
0.0
 11
374.801298
 21
59.08456700000001
 31
0.0
  0
LINE
  5
AC
330
36
100
AcDbEntity
  8
0
100
AcDbLine
 10
374.801298
 20
58.58456700000001
 30
0.0
 11
372.301298
 21
58.58456700000001
 31
0.0
  0
TEXT
  5
C0
330
36
100
AcDbEntity
  8
0
 62
     3
100
AcDbText
 10
494.6700179999998
 20
-16.380832
 30
0.0
 40
3.2
  1
1996.12.18
  7
高3.2
100
AcDbText
  0
TEXT
  5
C1
330
36
100
AcDbEntity
  8
0
 62
     3
100
AcDbText
 10
437.547524
 20
4.285929
 30
0.0
 40
4.5
  1
ハンドリール
  7
高4.5
100
AcDbText
  0
TEXT
  5
C2
330
36
100
AcDbEntity
  8
0
 62
     3
100
AcDbText
 10
465.8497829999998
 20
-16.380832
 30
0.0
 40
3.2
  1
1/2
  7
高3.2
100
AcDbText
  0
CIRCLE
  5
C3
330
36
100
AcDbEntity
  8
0
100
AcDbCircle
 10
401.925413
 20
157.329303
 30
0.0
 40
0.8
  0
CIRCLE
  5
C4
330
36
100
AcDbEntity
  8
0
100
AcDbCircle
 10
363.86247
 20
144.238029
 30
0.0
 40
1.125
  0
CIRCLE
  5
C5
330
36
100
AcDbEntity
  8
0
100
AcDbCircle
 10
369.306823
 20
106.22692
 30
0.0
 40
1.125
  0
CIRCLE
  5
C6
330
36
100
AcDbEntity
  8
0
100
AcDbCircle
 10
401.925413
 20
104.135646
 30
0.0
 40
0.8
  0
CIRCLE
  5
C7
330
36
100
AcDbEntity
  8
0
100
AcDbCircle
 10
290.425413
 20
106.22692
 30
0.0
 40
1.125
  0
CIRCLE
  5
C8
330
36
100
AcDbEntity
  8
0
 62
     3
100
AcDbCircle
 10
401.925413
 20
104.135646
 30
0.0
 40
2.0
  0
CIRCLE
  5
C9
330
36
100
AcDbEntity
  8
0
 62
     3
100
AcDbCircle
 10
401.925413
 20
157.329303
 30
0.0
 40
2.0
  0
CIRCLE
  5
CA
330
36
100
AcDbEntity
  8
0
 62
     3
100
AcDbCircle
 10
369.306823
 20
106.22692
 30
0.0
 40
2.0
  0
CIRCLE
  5
CB
330
36
100
AcDbEntity
  8
0
 62
     3
100
AcDbCircle
 10
290.425413
 20
106.22692
 30
0.0
 40
2.0
  0
CIRCLE
  5
CC
330
36
100
AcDbEntity
  8
0
  6
PHANTOM
100
AcDbCircle
 10
372.223417
 20
146.022187
 30
0.0
 40
3.0
  0
CIRCLE
  5
CD
330
36
100
AcDbEntity
  8
0
  6
PHANTOM
100
AcDbCircle
 10
372.223417
 20
140.022187
 30
0.0
 40
3.0
  0
CIRCLE
  5
CE
330
36
100
AcDbEntity
  8
0
  6
PHANTOM
100
AcDbCircle
 10
372.223417
 20
134.022187
 30
0.0
 40
3.0
  0
CIRCLE
  5
CF
330
36
100
AcDbEntity
  8
0
  6
PHANTOM
100
AcDbCircle
 10
372.223417
 20
128.022187
 30
0.0
 40
3.0
  0
CIRCLE
  5
D0
330
36
100
AcDbEntity
  8
0
  6
PHANTOM
100
AcDbCircle
 10
372.223417
 20
122.022187
 30
0.0
 40
3.0
  0
CIRCLE
  5
D1
330
36
100
AcDbEntity
  8
0
  6
PHANTOM
100
AcDbCircle
 10
372.223417
 20
116.022187
 30
0.0
 40
3.0
  0
CIRCLE
  5
D2
330
36
100
AcDbEntity
  8
0
  6
PHANTOM
100
AcDbCircle
 10
263.627408
 20
145.522187
 30
0.0
 40
3.0
  0
CIRCLE
  5
D3
330
36
100
AcDbEntity
  8
0
  6
PHANTOM
100
AcDbCircle
 10
263.627408
 20
139.522187
 30
0.0
 40
3.0
  0
CIRCLE
  5
D4
330
36
100
AcDbEntity
  8
0
  6
PHANTOM
100
AcDbCircle
 10
263.627408
 20
133.522187
 30
0.0
 40
3.0
  0
CIRCLE
  5
D5
330
36
100
AcDbEntity
  8
0
  6
PHANTOM
100
AcDbCircle
 10
263.627408
 20
127.522187
 30
0.0
 40
3.0
  0
CIRCLE
  5
D6
330
36
100
AcDbEntity
  8
0
  6
PHANTOM
100
AcDbCircle
 10
263.627408
 20
121.522187
 30
0.0
 40
3.0
  0
CIRCLE
  5
D7
330
36
100
AcDbEntity
  8
0
  6
PHANTOM
100
AcDbCircle
 10
263.627408
 20
115.522187
 30
0.0
 40
3.0
  0
LINE
  5
D8
330
36
100
AcDbEntity
  8
0
 62
     3
100
AcDbLine
 10
437.0600269999997
 20
55.138765
 30
0.0
 11
437.0600269999997
 21
26.338765
 31
0.0
  0
LINE
  5
D9
330
36
100
AcDbEntity
  8
0
100
AcDbLine
 10
437.0600269999997
 20
39.778765
 30
0.0
 11
492.4824086981328
 21
39.77876500000001
 31
0.0
  0
LINE
  5
DA
330
36
100
AcDbEntity
  8
0
100
AcDbLine
 10
437.0600269999997
 20
33.058765
 30
0.0
 11
492.4824086981328
 21
33.05876500000001
 31
0.0
  0
LINE
  5
DB
330
36
100
AcDbEntity
  8
0
100
AcDbLine
 10
462.485733439707
 20
39.778765
 30
0.0
 11
462.485733439707
 21
26.338765
 31
0.0
  0
LINE
  5
DC
330
36
100
AcDbEntity
  8
0
 62
     3
100
AcDbLine
 10
437.0600269999997
 20
26.338765
 30
0.0
 11
492.4824086981328
 21
26.33876500000001
 31
0.0
  0
LINE
  5
DD
330
36
100
AcDbEntity
  8
0
 62
     3
100
AcDbLine
 10
492.4824086981328
 20
55.138765
 30
0.0
 11
492.4824086981328
 21
26.338765
 31
0.0
  0
LINE
  5
DE
330
36
100
AcDbEntity
  8
0
100
AcDbLine
 10
437.0600269999997
 20
47.458765
 30
0.0
 11
492.4824086981328
 21
47.458765
 31
0.0
  0
LINE
  5
DF
330
36
100
AcDbEntity
  8
0
 62
     3
100
AcDbLine
 10
437.0600269999997
 20
55.138765
 30
0.0
 11
492.4824086981328
 21
55.13876500000001
 31
0.0
  0
TEXT
  5
E0
330
36
100
AcDbEntity
  8
0
 62
     3
100
AcDbText
 10
439.9194273372882
 20
48.870584
 30
0.0
 40
4.5
  1
電工ドラム（屋内型）
  7
高4.5
100
AcDbText
  0
LINE
  5
E1
330
36
100
AcDbEntity
  8
0
 62
     3
100
AcDbLine
 10
352.925413
 20
125.670964
 30
0.0
 11
351.933681
 21
125.670964
 31
0.0
  0
LINE
  5
E2
330
36
100
AcDbEntity
  8
0
 62
     3
100
AcDbLine
 10
352.925413
 20
117.22692
 30
0.0
 11
351.933681
 21
117.22692
 31
0.0
  0
ARC
  5
E3
330
36
100
AcDbEntity
  8
0
 62
     3
100
AcDbCircle
 10
276.622262
 20
121.448942
 30
0.0
 40
7.586513
100
AcDbArc
 50
326.184746
 51
33.815254
  0
LINE
  5
E4
330
36
100
AcDbEntity
  8
0
 62
     3
100
AcDbLine
 10
351.933681
 20
125.670964
 30
0.0
 11
351.933681
 21
117.22692
 31
0.0
  0
TEXT
  5
E5
330
36
100
AcDbEntity
  8
0
 62
     3
100
AcDbText
 10
438.052345
 20
-8.880972999999997
 30
0.0
 40
3.2
  1
別　掲
  7
高3.2
100
AcDbText
  0
LINE
  5
E6
330
36
100
AcDbEntity
  8
0
  6
PHANTOM
100
AcDbLine
 10
351.933681
 20
124.522187
 30
0.0
 11
263.627408
 21
118.522187
 31
0.0
  0
LINE
  5
E7
330
36
100
AcDbEntity
  8
0
  6
PHANTOM
100
AcDbLine
 10
351.933681
 20
118.522187
 30
0.0
 11
263.627408
 21
112.522187
 31
0.0
  0
LINE
  5
F1
330
36
100
AcDbEntity
  8
0
  6
PHANTOM
100
AcDbLine
 10
372.223417
 20
149.022187
 30
0.0
 11
416.59862
 21
149.022187
 31
0.0
  0
LINE
  5
F2
330
36
100
AcDbEntity
  8
0
  6
PHANTOM
100
AcDbLine
 10
372.223417
 20
143.022187
 30
0.0
 11
417.000901
 21
143.022187
 31
0.0
  0
LINE
  5
F3
330
36
100
AcDbEntity
  8
0
100
AcDbLine
 10
374.801298
 20
198.745287
 30
0.0
 11
366.800413
 21
198.745287
 31
0.0
  0
LINE
  5
F4
330
36
100
AcDbEntity
  8
0
100
AcDbLine
 10
374.801298
 20
198.245287
 30
0.0
 11
366.800413
 21
198.245287
 31
0.0
  0
LINE
  5
F5
330
36
100
AcDbEntity
  8
0
100
AcDbLine
 10
261.0495279999999
 20
198.745287
 30
0.0
 11
269.050413
 21
198.745287
 31
0.0
  0
LINE
  5
F6
330
36
100
AcDbEntity
  8
0
100
AcDbLine
 10
261.0495279999999
 20
198.245287
 30
0.0
 11
269.050413
 21
198.245287
 31
0.0
  0
LINE
  5
F7
330
36
100
AcDbEntity
  8
0
100
AcDbLine
 10
489.2563527321683
 20
101.9712566935845
 30
0.0
 11
506.7778880266224
 21
101.9712566935845
 31
0.0
  0
LINE
  5
F8
330
36
100
AcDbEntity
  8
0
100
AcDbLine
 10
482.7983628996921
 20
93.70351354476122
 30
0.0
 11
507.2645696300758
 21
93.70351354476122
 31
0.0
  0
TEXT
  5
F9
330
36
100
AcDbEntity
  8
0
 62
     4
100
AcDbText
 10
489.470748
 20
102.723488
 30
0.0
 40
3.2
  1
4Pプラグ
  7
高3.2
100
AcDbText
  0
ARC
  5
FA
330
36
100
AcDbEntity
  8
0
100
AcDbCircle
 10
343.546092
 20
197.429226
 30
0.0
 40
0.25
100
AcDbArc
 50
180.0
 51
270.0
  0
LINE
  5
FB
330
36
100
AcDbEntity
  8
0
100
AcDbLine
 10
348.796092
 20
197.179226
 30
0.0
 11
343.546092
 21
197.179226
 31
0.0
  0
ARC
  5
FC
330
36
100
AcDbEntity
  8
0
100
AcDbCircle
 10
348.796092
 20
197.429226
 30
0.0
 40
0.25
100
AcDbArc
 50
270.0
 51
0.0
  0
LINE
  5
FD
330
36
100
AcDbEntity
  8
0
100
AcDbLine
 10
349.046092
 20
199.554226
 30
0.0
 11
349.046092
 21
197.429226
 31
0.0
  0
ARC
  5
FE
330
36
100
AcDbEntity
  8
0
100
AcDbCircle
 10
348.796092
 20
199.554226
 30
0.0
 40
0.25
100
AcDbArc
 50
0.0
 51
90.0
  0
LINE
  5
FF
330
36
100
AcDbEntity
  8
0
100
AcDbLine
 10
348.796092
 20
199.804226
 30
0.0
 11
343.546092
 21
199.804226
 31
0.0
  0
ARC
  5
100
330
36
100
AcDbEntity
  8
0
100
AcDbCircle
 10
343.546092
 20
199.554226
 30
0.0
 40
0.25
100
AcDbArc
 50
90.0
 51
180.0
  0
LINE
  5
101
330
36
100
AcDbEntity
  8
0
100
AcDbLine
 10
343.296092
 20
197.429226
 30
0.0
 11
343.296092
 21
199.554226
 31
0.0
  0
LINE
  5
102
330
36
100
AcDbEntity
  8
0
100
AcDbLine
 10
337.546092
 20
201.116726
 30
0.0
 11
337.546092
 21
195.866726
 31
0.0
  0
ARC
  5
103
330
36
100
AcDbEntity
  8
0
100
AcDbCircle
 10
337.296092
 20
201.116726
 30
0.0
 40
0.25
100
AcDbArc
 50
0.0
 51
90.0
  0
LINE
  5
104
330
36
100
AcDbEntity
  8
0
100
AcDbLine
 10
337.296092
 20
201.366726
 30
0.0
 11
335.046092
 21
201.366726
 31
0.0
  0
ARC
  5
105
330
36
100
AcDbEntity
  8
0
100
AcDbCircle
 10
335.046092
 20
201.116726
 30
0.0
 40
0.25
100
AcDbArc
 50
90.0
 51
180.0
  0
LINE
  5
106
330
36
100
AcDbEntity
  8
0
100
AcDbLine
 10
334.796092
 20
195.866726
 30
0.0
 11
334.796092
 21
201.116726
 31
0.0
  0
ARC
  5
107
330
36
100
AcDbEntity
  8
0
100
AcDbCircle
 10
335.046092
 20
195.866726
 30
0.0
 40
0.25
100
AcDbArc
 50
180.0
 51
270.0
  0
LINE
  5
108
330
36
100
AcDbEntity
  8
0
100
AcDbLine
 10
337.296092
 20
195.616726
 30
0.0
 11
335.046092
 21
195.616726
 31
0.0
  0
ARC
  5
109
330
36
100
AcDbEntity
  8
0
100
AcDbCircle
 10
337.296092
 20
195.866726
 30
0.0
 40
0.25
100
AcDbArc
 50
270.0
 51
0.0
  0
LINE
  5
10A
330
36
100
AcDbEntity
  8
0
100
AcDbLine
 10
344.046092
 20
194.616726
 30
0.0
 11
338.796092
 21
194.616726
 31
0.0
  0
ARC
  5
10B
330
36
100
AcDbEntity
  8
0
100
AcDbCircle
 10
338.796092
 20
194.366726
 30
0.0
 40
0.25
100
AcDbArc
 50
90.0
 51
180.0
  0
LINE
  5
10C
330
36
100
AcDbEntity
  8
0
100
AcDbLine
 10
338.546092
 20
192.241726
 30
0.0
 11
338.546092
 21
194.366726
 31
0.0
  0
ARC
  5
10D
330
36
100
AcDbEntity
  8
0
100
AcDbCircle
 10
338.796092
 20
192.241726
 30
0.0
 40
0.25
100
AcDbArc
 50
180.0
 51
270.0
  0
LINE
  5
10E
330
36
100
AcDbEntity
  8
0
100
AcDbLine
 10
344.046092
 20
191.991726
 30
0.0
 11
338.796092
 21
191.991726
 31
0.0
  0
ARC
  5
10F
330
36
100
AcDbEntity
  8
0
100
AcDbCircle
 10
344.046092
 20
192.241726
 30
0.0
 40
0.25
100
AcDbArc
 50
270.0
 51
0.0
  0
LINE
  5
110
330
36
100
AcDbEntity
  8
0
100
AcDbLine
 10
344.296092
 20
194.366726
 30
0.0
 11
344.296092
 21
192.241726
 31
0.0
  0
ARC
  5
111
330
36
100
AcDbEntity
  8
0
100
AcDbCircle
 10
344.046092
 20
194.366726
 30
0.0
 40
0.25
100
AcDbArc
 50
0.0
 51
90.0
  0
LINE
  5
112
330
36
100
AcDbEntity
  8
0
100
AcDbLine
 10
344.046092
 20
202.366726
 30
0.0
 11
338.796092
 21
202.366726
 31
0.0
  0
ARC
  5
113
330
36
100
AcDbEntity
  8
0
100
AcDbCircle
 10
338.796092
 20
202.616726
 30
0.0
 40
0.25
100
AcDbArc
 50
180.0
 51
270.0
  0
LINE
  5
114
330
36
100
AcDbEntity
  8
0
100
AcDbLine
 10
338.546092
 20
202.616726
 30
0.0
 11
338.546092
 21
204.741726
 31
0.0
  0
ARC
  5
115
330
36
100
AcDbEntity
  8
0
100
AcDbCircle
 10
338.796092
 20
204.741726
 30
0.0
 40
0.25
100
AcDbArc
 50
90.0
 51
180.0
  0
LINE
  5
116
330
36
100
AcDbEntity
  8
0
100
AcDbLine
 10
338.796092
 20
204.991726
 30
0.0
 11
344.046092
 21
204.991726
 31
0.0
  0
ARC
  5
117
330
36
100
AcDbEntity
  8
0
100
AcDbCircle
 10
344.046092
 20
204.741726
 30
0.0
 40
0.25
100
AcDbArc
 50
0.0
 51
90.0
  0
LINE
  5
118
330
36
100
AcDbEntity
  8
0
100
AcDbLine
 10
344.296092
 20
202.616726
 30
0.0
 11
344.296092
 21
204.741726
 31
0.0
  0
ARC
  5
119
330
36
100
AcDbEntity
  8
0
100
AcDbCircle
 10
344.046092
 20
202.616726
 30
0.0
 40
0.25
100
AcDbArc
 50
270.0
 51
0.0
  0
ARC
  5
11A
330
36
100
AcDbEntity
  8
0
100
AcDbCircle
 10
296.548634
 20
197.429226
 30
0.0
 40
0.25
100
AcDbArc
 50
180.0
 51
270.0
  0
LINE
  5
11B
330
36
100
AcDbEntity
  8
0
100
AcDbLine
 10
301.798634
 20
197.179226
 30
0.0
 11
296.548634
 21
197.179226
 31
0.0
  0
ARC
  5
11C
330
36
100
AcDbEntity
  8
0
100
AcDbCircle
 10
301.798634
 20
197.429226
 30
0.0
 40
0.25
100
AcDbArc
 50
270.0
 51
0.0
  0
LINE
  5
11D
330
36
100
AcDbEntity
  8
0
100
AcDbLine
 10
302.048634
 20
199.554226
 30
0.0
 11
302.048634
 21
197.429226
 31
0.0
  0
ARC
  5
11E
330
36
100
AcDbEntity
  8
0
100
AcDbCircle
 10
301.798634
 20
199.554226
 30
0.0
 40
0.25
100
AcDbArc
 50
0.0
 51
90.0
  0
LINE
  5
11F
330
36
100
AcDbEntity
  8
0
100
AcDbLine
 10
301.798634
 20
199.804226
 30
0.0
 11
296.548634
 21
199.804226
 31
0.0
  0
ARC
  5
120
330
36
100
AcDbEntity
  8
0
100
AcDbCircle
 10
296.548634
 20
199.554226
 30
0.0
 40
0.25
100
AcDbArc
 50
90.0
 51
180.0
  0
LINE
  5
121
330
36
100
AcDbEntity
  8
0
100
AcDbLine
 10
296.298634
 20
197.429226
 30
0.0
 11
296.298634
 21
199.554226
 31
0.0
  0
LINE
  5
122
330
36
100
AcDbEntity
  8
0
100
AcDbLine
 10
290.548634
 20
201.116726
 30
0.0
 11
290.548634
 21
195.866726
 31
0.0
  0
ARC
  5
123
330
36
100
AcDbEntity
  8
0
100
AcDbCircle
 10
290.298634
 20
201.116726
 30
0.0
 40
0.25
100
AcDbArc
 50
0.0
 51
90.0
  0
LINE
  5
124
330
36
100
AcDbEntity
  8
0
100
AcDbLine
 10
290.298634
 20
201.366726
 30
0.0
 11
288.048634
 21
201.366726
 31
0.0
  0
ARC
  5
125
330
36
100
AcDbEntity
  8
0
100
AcDbCircle
 10
288.048634
 20
201.116726
 30
0.0
 40
0.25
100
AcDbArc
 50
90.0
 51
180.0
  0
LINE
  5
126
330
36
100
AcDbEntity
  8
0
100
AcDbLine
 10
287.798634
 20
195.866726
 30
0.0
 11
287.798634
 21
201.116726
 31
0.0
  0
ARC
  5
127
330
36
100
AcDbEntity
  8
0
100
AcDbCircle
 10
288.048634
 20
195.866726
 30
0.0
 40
0.25
100
AcDbArc
 50
180.0
 51
270.0
  0
LINE
  5
128
330
36
100
AcDbEntity
  8
0
100
AcDbLine
 10
290.298634
 20
195.616726
 30
0.0
 11
288.048634
 21
195.616726
 31
0.0
  0
ARC
  5
129
330
36
100
AcDbEntity
  8
0
100
AcDbCircle
 10
290.298634
 20
195.866726
 30
0.0
 40
0.25
100
AcDbArc
 50
270.0
 51
0.0
  0
LINE
  5
12A
330
36
100
AcDbEntity
  8
0
100
AcDbLine
 10
297.048634
 20
194.616726
 30
0.0
 11
291.798634
 21
194.616726
 31
0.0
  0
ARC
  5
12B
330
36
100
AcDbEntity
  8
0
100
AcDbCircle
 10
291.798634
 20
194.366726
 30
0.0
 40
0.25
100
AcDbArc
 50
90.0
 51
180.0
  0
LINE
  5
12C
330
36
100
AcDbEntity
  8
0
100
AcDbLine
 10
291.548634
 20
192.241726
 30
0.0
 11
291.548634
 21
194.366726
 31
0.0
  0
ARC
  5
12D
330
36
100
AcDbEntity
  8
0
100
AcDbCircle
 10
291.798634
 20
192.241726
 30
0.0
 40
0.25
100
AcDbArc
 50
180.0
 51
270.0
  0
LINE
  5
12E
330
36
100
AcDbEntity
  8
0
100
AcDbLine
 10
297.048634
 20
191.991726
 30
0.0
 11
291.798634
 21
191.991726
 31
0.0
  0
ARC
  5
12F
330
36
100
AcDbEntity
  8
0
100
AcDbCircle
 10
297.048634
 20
192.241726
 30
0.0
 40
0.25
100
AcDbArc
 50
270.0
 51
0.0
  0
LINE
  5
130
330
36
100
AcDbEntity
  8
0
100
AcDbLine
 10
297.298634
 20
194.366726
 30
0.0
 11
297.298634
 21
192.241726
 31
0.0
  0
ARC
  5
131
330
36
100
AcDbEntity
  8
0
100
AcDbCircle
 10
297.048634
 20
194.366726
 30
0.0
 40
0.25
100
AcDbArc
 50
0.0
 51
90.0
  0
LINE
  5
132
330
36
100
AcDbEntity
  8
0
100
AcDbLine
 10
297.048634
 20
202.366726
 30
0.0
 11
291.798634
 21
202.366726
 31
0.0
  0
ARC
  5
133
330
36
100
AcDbEntity
  8
0
100
AcDbCircle
 10
291.798634
 20
202.616726
 30
0.0
 40
0.25
100
AcDbArc
 50
180.0
 51
270.0
  0
LINE
  5
134
330
36
100
AcDbEntity
  8
0
100
AcDbLine
 10
291.548634
 20
202.616726
 30
0.0
 11
291.548634
 21
204.741726
 31
0.0
  0
ARC
  5
135
330
36
100
AcDbEntity
  8
0
100
AcDbCircle
 10
291.798634
 20
204.741726
 30
0.0
 40
0.25
100
AcDbArc
 50
90.0
 51
180.0
  0
LINE
  5
136
330
36
100
AcDbEntity
  8
0
100
AcDbLine
 10
291.798634
 20
204.991726
 30
0.0
 11
297.048634
 21
204.991726
 31
0.0
  0
ARC
  5
137
330
36
100
AcDbEntity
  8
0
100
AcDbCircle
 10
297.048634
 20
204.741726
 30
0.0
 40
0.25
100
AcDbArc
 50
0.0
 51
90.0
  0
LINE
  5
138
330
36
100
AcDbEntity
  8
0
100
AcDbLine
 10
297.298634
 20
202.616726
 30
0.0
 11
297.298634
 21
204.741726
 31
0.0
  0
ARC
  5
139
330
36
100
AcDbEntity
  8
0
100
AcDbCircle
 10
297.048634
 20
202.616726
 30
0.0
 40
0.25
100
AcDbArc
 50
270.0
 51
0.0
  0
LINE
  5
13A
330
36
100
AcDbEntity
  8
0
100
AcDbLine
 10
276.416595
 20
190.164684
 30
0.0
 11
276.726835
 21
190.164684
 31
0.0
  0
LINE
  5
13B
330
36
100
AcDbEntity
  8
0
100
AcDbLine
 10
276.416595
 20
190.276684
 30
0.0
 11
276.416595
 21
190.164684
 31
0.0
  0
LINE
  5
13C
330
36
100
AcDbEntity
  8
0
100
AcDbLine
 10
274.717555
 20
190.423404
 30
0.0
 11
276.269875
 21
190.423404
 31
0.0
  0
ARC
  5
13D
330
36
100
AcDbEntity
  8
0
100
AcDbCircle
 10
276.269875
 20
190.276684
 30
0.0
 40
0.14672
100
AcDbArc
 50
0.0
 51
90.0
  0
LINE
  5
13E
330
36
100
AcDbEntity
  8
0
100
AcDbLine
 10
274.717562
 20
194.126224
 30
0.0
 11
276.269882
 21
194.126197
 31
0.0
  0
LINE
  5
13F
330
36
100
AcDbEntity
  8
0
100
AcDbLine
 10
276.416605
 20
194.272914
 30
0.0
 11
276.416606
 21
194.384914
 31
0.0
  0
ARC
  5
140
330
36
100
AcDbEntity
  8
0
100
AcDbCircle
 10
276.269885
 20
194.272917
 30
0.0
 40
0.14672
100
AcDbArc
 50
269.999
 51
359.999
  0
LINE
  5
141
330
36
100
AcDbEntity
  8
0
100
AcDbLine
 10
276.416606
 20
194.384914
 30
0.0
 11
276.726846
 21
194.384909
 31
0.0
  0
LINE
  5
142
330
36
100
AcDbEntity
  8
0
100
AcDbLine
 10
276.726823
 20
193.039789
 30
0.0
 11
276.726846
 21
194.384909
 31
0.0
  0
LINE
  5
143
330
36
100
AcDbEntity
  8
0
100
AcDbLine
 10
275.280556
 20
190.819884
 30
0.0
 11
276.269875
 21
190.819884
 31
0.0
  0
ARC
  5
144
330
36
100
AcDbEntity
  8
0
100
AcDbCircle
 10
276.269875
 20
190.966604
 30
0.0
 40
0.14672
100
AcDbArc
 50
270.0
 51
0.0
  0
LINE
  5
145
330
36
100
AcDbEntity
  8
0
100
AcDbLine
 10
276.726835
 20
190.164684
 30
0.0
 11
276.726835
 21
191.078604
 31
0.0
  0
LINE
  5
146
330
36
100
AcDbEntity
  8
0
100
AcDbLine
 10
276.269933
 20
197.39008
 30
0.0
 11
274.717613
 21
197.39008
 31
0.0
  0
LINE
  5
147
330
36
100
AcDbEntity
  8
0
100
AcDbLine
 10
274.614013
 20
197.28648
 30
0.0
 11
274.614013
 21
197.17448
 31
0.0
  0
LINE
  5
148
330
36
100
AcDbEntity
  8
0
100
AcDbLine
 10
274.614013
 20
197.17448
 30
0.0
 11
274.260653
 21
197.17448
 31
0.0
  0
LINE
  5
149
330
36
100
AcDbEntity
  8
0
100
AcDbLine
 10
274.260653
 20
197.17448
 30
0.0
 11
274.260653
 21
198.43336
 31
0.0
  0
LINE
  5
14A
330
36
100
AcDbEntity
  8
0
100
AcDbLine
 10
276.726893
 20
197.17448
 30
0.0
 11
276.373533
 21
197.17448
 31
0.0
  0
LINE
  5
14B
330
36
100
AcDbEntity
  8
0
100
AcDbLine
 10
276.373533
 20
197.28648
 30
0.0
 11
276.373533
 21
197.17448
 31
0.0
  0
ARC
  5
14C
330
36
100
AcDbEntity
  8
0
100
AcDbCircle
 10
276.269933
 20
197.28648
 30
0.0
 40
0.1036
100
AcDbArc
 50
0.0
 51
90.0
  0
ARC
  5
14D
330
36
100
AcDbEntity
  8
0
100
AcDbCircle
 10
275.493715
 20
195.852486
 30
0.0
 40
1.233119999999997
100
AcDbArc
 50
136.75288
 51
42.82312
  0
ARC
  5
14E
330
36
100
AcDbEntity
  8
0
100
AcDbCircle
 10
275.464677
 20
188.0047
 30
0.0
 40
8.736
100
AcDbArc
 50
83.86600599999999
 51
87.69403399999999
  0
LINE
  5
14F
330
36
100
AcDbEntity
  8
0
100
AcDbLine
 10
275.814013
 20
196.148752
 30
0.0
 11
275.816177
 21
196.733625
 31
0.0
  0
LINE
  5
192
330
36
100
AcDbEntity
  8
0
100
AcDbLine
 10
275.175618
 20
196.1511139999999
 30
0.0
 11
275.177782
 21
196.735988
 31
0.0
  0
ARC
  5
193
330
36
100
AcDbEntity
  8
0
100
AcDbCircle
 10
275.464677
 20
188.0047
 30
0.0
 40
8.736
100
AcDbArc
 50
91.88196600000001
 51
95.70999399999998
  0
ARC
  5
194
330
36
100
AcDbEntity
  8
0
100
AcDbCircle
 10
274.717565
 20
194.272944
 30
0.0
 40
0.14672
100
AcDbArc
 50
179.999028
 51
269.999
  0
LINE
  5
195
330
36
100
AcDbEntity
  8
0
100
AcDbLine
 10
274.260606
 20
194.384952
 30
0.0
 11
274.570846
 21
194.384947
 31
0.0
  0
LINE
  5
196
330
36
100
AcDbEntity
  8
0
100
AcDbLine
 10
274.260583
 20
193.039832
 30
0.0
 11
274.260606
 21
194.384952
 31
0.0
  0
LINE
  5
197
330
36
100
AcDbEntity
  8
0
100
AcDbLine
 10
274.570845
 20
194.272947
 30
0.0
 11
274.570846
 21
194.384947
 31
0.0
  0
ARC
  5
198
330
36
100
AcDbEntity
  8
0
100
AcDbCircle
 10
274.7175529999999
 20
193.1518129999999
 30
0.0
 40
0.14672
100
AcDbArc
 50
89.999803
 51
179.999774
  0
LINE
  5
199
330
36
100
AcDbEntity
  8
0
100
AcDbLine
 10
274.7175529999999
 20
193.298533
 30
0.0
 11
276.269873
 21
193.298528
 31
0.0
  0
ARC
  5
19A
330
36
100
AcDbEntity
  8
0
100
AcDbCircle
 10
276.269865
 20
193.151797
 30
0.0
 40
0.14672
100
AcDbArc
 50
359.999
 51
89.999
  0
LINE
  5
19B
330
36
100
AcDbEntity
  8
0
100
AcDbLine
 10
276.416583
 20
193.039794
 30
0.0
 11
276.726823
 21
193.039789
 31
0.0
  0
LINE
  5
19C
330
36
100
AcDbEntity
  8
0
100
AcDbLine
 10
276.416585
 20
193.151794
 30
0.0
 11
276.416583
 21
193.039794
 31
0.0
  0
LINE
  5
19D
330
36
100
AcDbEntity
  8
0
100
AcDbLine
 10
274.260583
 20
193.039832
 30
0.0
 11
274.570823
 21
193.039827
 31
0.0
  0
LINE
  5
19E
330
36
100
AcDbEntity
  8
0
100
AcDbLine
 10
274.570825
 20
193.151827
 30
0.0
 11
274.570823
 21
193.039827
 31
0.0
  0
LINE
  5
19F
330
36
100
AcDbEntity
  8
0
100
AcDbLine
 10
276.726893
 20
197.17448
 30
0.0
 11
276.726893
 21
198.43336
 31
0.0
  0
ARC
  5
1A0
330
36
100
AcDbEntity
  8
0
100
AcDbCircle
 10
274.717613
 20
197.28648
 30
0.0
 40
0.1036
100
AcDbArc
 50
90.0
 51
180.0
  0
LINE
  5
1A1
330
36
100
AcDbEntity
  8
0
100
AcDbLine
 10
276.416595
 20
191.078604
 30
0.0
 11
276.726835
 21
191.078604
 31
0.0
  0
LINE
  5
1A2
330
36
100
AcDbEntity
  8
0
100
AcDbLine
 10
276.416595
 20
190.966604
 30
0.0
 11
276.416595
 21
191.078604
 31
0.0
  0
LINE
  5
1A3
330
36
100
AcDbEntity
  8
0
100
AcDbLine
 10
275.280556
 20
190.819884
 30
0.0
 11
276.726835
 21
191.723808
 31
0.0
  0
LINE
  5
1A4
330
36
100
AcDbEntity
  8
0
100
AcDbLine
 10
276.726835
 20
191.723808
 30
0.0
 11
276.726835
 21
192.329084
 31
0.0
  0
LINE
  5
1A5
330
36
100
AcDbEntity
  8
0
100
AcDbLine
 10
274.803795
 20
192.329084
 30
0.0
 11
276.726835
 21
192.329084
 31
0.0
  0
ARC
  5
1A6
330
36
100
AcDbEntity
  8
0
100
AcDbCircle
 10
274.803795
 20
192.562044
 30
0.0
 40
0.23296
100
AcDbArc
 50
173.651426
 51
270.0
  0
LINE
  5
1A7
330
36
100
AcDbEntity
  8
0
100
AcDbLine
 10
274.260595
 20
192.587804
 30
0.0
 11
274.5722629999999
 21
192.587804
 31
0.0
  0
LINE
  5
1A8
330
36
100
AcDbEntity
  8
0
100
AcDbLine
 10
274.260595
 20
191.673884
 30
0.0
 11
274.260595
 21
192.587804
 31
0.0
  0
LINE
  5
1A9
330
36
100
AcDbEntity
  8
0
100
AcDbLine
 10
274.260595
 20
191.673884
 30
0.0
 11
274.570835
 21
191.673884
 31
0.0
  0
LINE
  5
1AA
330
36
100
AcDbEntity
  8
0
100
AcDbLine
 10
274.570835
 20
191.673884
 30
0.0
 11
274.570835
 21
191.785884
 31
0.0
  0
ARC
  5
1AB
330
36
100
AcDbEntity
  8
0
100
AcDbCircle
 10
274.717555
 20
191.785884
 30
0.0
 40
0.14672
100
AcDbArc
 50
90.0
 51
180.0
  0
LINE
  5
1AC
330
36
100
AcDbEntity
  8
0
100
AcDbLine
 10
275.377633
 20
191.932604
 30
0.0
 11
274.717555
 21
191.932604
 31
0.0
  0
LINE
  5
1AD
330
36
100
AcDbEntity
  8
0
100
AcDbLine
 10
275.377633
 20
191.932604
 30
0.0
 11
274.260595
 21
191.199547
 31
0.0
  0
LINE
  5
1AE
330
36
100
AcDbEntity
  8
0
100
AcDbLine
 10
274.260595
 20
190.164684
 30
0.0
 11
274.260595
 21
191.199547
 31
0.0
  0
LINE
  5
1AF
330
36
100
AcDbEntity
  8
0
100
AcDbLine
 10
274.260595
 20
190.164684
 30
0.0
 11
274.570835
 21
190.164684
 31
0.0
  0
LINE
  5
1B0
330
36
100
AcDbEntity
  8
0
100
AcDbLine
 10
274.570835
 20
190.276684
 30
0.0
 11
274.570835
 21
190.164684
 31
0.0
  0
ARC
  5
1B1
330
36
100
AcDbEntity
  8
0
100
AcDbCircle
 10
274.717555
 20
190.276684
 30
0.0
 40
0.14672
100
AcDbArc
 50
90.0
 51
180.0
  0
LINE
  5
1B2
330
36
100
AcDbEntity
  8
0
100
AcDbLine
 10
274.570835
 20
200.44707
 30
0.0
 11
274.570835
 21
200.33507
 31
0.0
  0
ARC
  5
1B3
330
36
100
AcDbEntity
  8
0
100
AcDbCircle
 10
274.717555
 20
200.44707
 30
0.0
 40
0.14672
100
AcDbArc
 50
90.0
 51
180.0
  0
LINE
  5
1B4
330
36
100
AcDbEntity
  8
0
100
AcDbLine
 10
274.717555
 20
200.59379
 30
0.0
 11
276.269875
 21
200.59379
 31
0.0
  0
LINE
  5
1B5
330
36
100
AcDbEntity
  8
0
100
AcDbLine
 10
276.726835
 20
201.68019
 30
0.0
 11
276.726835
 21
200.33507
 31
0.0
  0
LINE
  5
1B6
330
36
100
AcDbEntity
  8
0
100
AcDbLine
 10
276.416595
 20
201.68019
 30
0.0
 11
276.726835
 21
201.68019
 31
0.0
  0
LINE
  5
1B7
330
36
100
AcDbEntity
  8
0
100
AcDbLine
 10
276.416595
 20
201.56819
 30
0.0
 11
276.416595
 21
201.68019
 31
0.0
  0
ARC
  5
1B8
330
36
100
AcDbEntity
  8
0
100
AcDbCircle
 10
276.269875
 20
201.56819
 30
0.0
 40
0.14672
100
AcDbArc
 50
270.0
 51
0.0
  0
LINE
  5
1B9
330
36
100
AcDbEntity
  8
0
100
AcDbLine
 10
274.260653
 20
199.8132
 30
0.0
 11
274.260653
 21
198.55432
 31
0.0
  0
LINE
  5
1BA
330
36
100
AcDbEntity
  8
0
100
AcDbLine
 10
274.260653
 20
199.8132
 30
0.0
 11
274.572945
 21
199.8132
 31
0.0
  0
LINE
  5
1BB
330
36
100
AcDbEntity
  8
0
100
AcDbLine
 10
274.572945
 20
199.719866
 30
0.0
 11
274.572945
 21
199.8132
 31
0.0
  0
ARC
  5
1BC
330
36
100
AcDbEntity
  8
0
100
AcDbCircle
 10
274.717613
 20
199.74432
 30
0.0
 40
0.14672
100
AcDbArc
 50
189.5940679999999
 51
270.0
  0
LINE
  5
1BD
330
36
100
AcDbEntity
  8
0
100
AcDbLine
 10
274.717613
 20
199.5976
 30
0.0
 11
276.269933
 21
199.5976
 31
0.0
  0
ARC
  5
1BE
330
36
100
AcDbEntity
  8
0
100
AcDbCircle
 10
276.269933
 20
199.74432
 30
0.0
 40
0.14672
100
AcDbArc
 50
270.0
 51
350.405932
  0
LINE
  5
1BF
330
36
100
AcDbEntity
  8
0
100
AcDbLine
 10
276.414601
 20
199.719866
 30
0.0
 11
276.414601
 21
199.8132
 31
0.0
  0
LINE
  5
1C0
330
36
100
AcDbEntity
  8
0
100
AcDbLine
 10
276.414601
 20
199.8132
 30
0.0
 11
276.726893
 21
199.8132
 31
0.0
  0
LINE
  5
1C1
330
36
100
AcDbEntity
  8
0
100
AcDbLine
 10
276.726893
 20
199.8132
 30
0.0
 11
276.726893
 21
198.55432
 31
0.0
  0
ARC
  5
1C2
330
36
100
AcDbEntity
  8
0
100
AcDbCircle
 10
274.717555
 20
201.56819
 30
0.0
 40
0.14672
100
AcDbArc
 50
180.0
 51
270.0
  0
LINE
  5
1C3
330
36
100
AcDbEntity
  8
0
100
AcDbLine
 10
274.717555
 20
201.42147
 30
0.0
 11
276.269875
 21
201.42147
 31
0.0
  0
LINE
  5
1C4
330
36
100
AcDbEntity
  8
0
100
AcDbLine
 10
274.260595
 20
201.68019
 30
0.0
 11
274.570835
 21
201.68019
 31
0.0
  0
LINE
  5
1C5
330
36
100
AcDbEntity
  8
0
100
AcDbLine
 10
274.570835
 20
201.56819
 30
0.0
 11
274.570835
 21
201.68019
 31
0.0
  0
LINE
  5
1C6
330
36
100
AcDbEntity
  8
0
100
AcDbLine
 10
274.260595
 20
201.68019
 30
0.0
 11
274.260595
 21
200.33507
 31
0.0
  0
LINE
  5
1C7
330
36
100
AcDbEntity
  8
0
100
AcDbLine
 10
274.260595
 20
200.33507
 30
0.0
 11
274.570835
 21
200.33507
 31
0.0
  0
LINE
  5
1C8
330
36
100
AcDbEntity
  8
0
100
AcDbLine
 10
276.416595
 20
202.181517
 30
0.0
 11
276.726835
 21
202.181517
 31
0.0
  0
ARC
  5
1C9
330
36
100
AcDbEntity
  8
0
100
AcDbCircle
 10
276.269875
 20
202.293517
 30
0.0
 40
0.14672
100
AcDbArc
 50
0.0
 51
90.0
  0
LINE
  5
1CA
330
36
100
AcDbEntity
  8
0
100
AcDbLine
 10
276.416595
 20
202.293517
 30
0.0
 11
276.416595
 21
202.181517
 31
0.0
  0
LINE
  5
1CB
330
36
100
AcDbEntity
  8
0
100
AcDbLine
 10
276.726835
 20
203.633978
 30
0.0
 11
276.726835
 21
202.181517
 31
0.0
  0
LINE
  5
1CC
330
36
100
AcDbEntity
  8
0
100
AcDbLine
 10
274.717555
 20
202.440237
 30
0.0
 11
276.269875
 21
202.440237
 31
0.0
  0
LINE
  5
1CD
330
36
100
AcDbEntity
  8
0
100
AcDbLine
 10
274.657075
 20
203.267917
 30
0.0
 11
276.330355
 21
203.267917
 31
0.0
  0
LINE
  5
1CE
330
36
100
AcDbEntity
  8
0
100
AcDbLine
 10
276.330355
 20
203.267917
 30
0.0
 11
276.330355
 21
203.380756
 31
0.0
  0
ARC
  5
1CF
330
36
100
AcDbEntity
  8
0
100
AcDbCircle
 10
275.493715
 20
202.80377
 30
0.0
 40
1.016307
100
AcDbArc
 50
34.591955
 51
145.408045
  0
ARC
  5
1D0
330
36
100
AcDbEntity
  8
0
100
AcDbCircle
 10
275.752435
 20
203.633978
 30
0.0
 40
0.9743999999999999
100
AcDbArc
 50
0.0
 51
72.691251
  0
ARC
  5
1D1
330
36
100
AcDbEntity
  8
0
100
AcDbCircle
 10
275.234995
 20
203.633978
 30
0.0
 40
0.9743999999999999
100
AcDbArc
 50
107.308749
 51
180.0
  0
ARC
  5
1D2
330
36
100
AcDbEntity
  8
0
100
AcDbCircle
 10
275.493715
 20
202.80377
 30
0.0
 40
1.843986999999999
100
AcDbArc
 50
72.691251
 51
107.308566
  0
LINE
  5
1D3
330
36
100
AcDbEntity
  8
0
100
AcDbLine
 10
274.260595
 20
203.633978
 30
0.0
 11
274.260595
 21
202.181517
 31
0.0
  0
LINE
  5
1D4
330
36
100
AcDbEntity
  8
0
100
AcDbLine
 10
274.260595
 20
202.181517
 30
0.0
 11
274.570835
 21
202.181517
 31
0.0
  0
LINE
  5
1D5
330
36
100
AcDbEntity
  8
0
100
AcDbLine
 10
274.570835
 20
202.293517
 30
0.0
 11
274.570835
 21
202.181517
 31
0.0
  0
ARC
  5
1D6
330
36
100
AcDbEntity
  8
0
100
AcDbCircle
 10
274.717555
 20
202.293517
 30
0.0
 40
0.14672
100
AcDbArc
 50
90.0
 51
180.0
  0
ARC
  5
1D7
330
36
100
AcDbEntity
  8
0
100
AcDbCircle
 10
276.269875
 20
200.44707
 30
0.0
 40
0.14672
100
AcDbArc
 50
0.0
 51
90.0
  0
LINE
  5
1D8
330
36
100
AcDbEntity
  8
0
100
AcDbLine
 10
276.416595
 20
200.44707
 30
0.0
 11
276.416595
 21
200.33507
 31
0.0
  0
LINE
  5
1D9
330
36
100
AcDbEntity
  8
0
100
AcDbLine
 10
276.416595
 20
200.33507
 30
0.0
 11
276.726835
 21
200.33507
 31
0.0
  0
ARC
  5
1DA
330
36
100
AcDbEntity
  8
0
100
AcDbCircle
 10
275.48935
 20
205.962495
 30
0.0
 40
1.233119999999997
100
AcDbArc
 50
300.35784
 51
233.008079
  0
ARC
  5
1DB
330
36
100
AcDbEntity
  8
0
100
AcDbCircle
 10
275.336806
 20
203.330522
 30
0.0
 40
1.749347
100
AcDbArc
 50
63.675284
 51
109.690635
  0
ARC
  5
1DC
330
36
100
AcDbEntity
  8
0
100
AcDbCircle
 10
275.512749
 20
207.321516
 30
0.0
 40
1.636274999999999
100
AcDbArc
 50
239.334413
 51
299.361467
  0
ARC
  5
1DD
330
36
100
AcDbEntity
  8
0
100
AcDbCircle
 10
275.512751
 20
204.603473
 30
0.0
 40
1.636274999999999
100
AcDbArc
 50
60.37227300000001
 51
120.840525
  0
ARC
  5
1DE
330
36
100
AcDbEntity
  8
0
100
AcDbCircle
 10
274.721626
 20
205.963291
 30
0.0
 40
0.065643
100
AcDbArc
 50
136.621771
 51
228.589269
  0
ARC
  5
1DF
330
36
100
AcDbEntity
  8
0
100
AcDbCircle
 10
276.265804
 20
205.963291
 30
0.0
 40
0.083843
100
AcDbArc
 50
305.965123
 51
48.221816
  0
LINE
  5
1E0
330
36
100
AcDbEntity
  8
0
100
AcDbLine
 10
274.657075
 20
203.267917
 30
0.0
 11
274.657075
 21
203.380756
 31
0.0
  0
LINE
  5
1E1
330
36
100
AcDbEntity
  8
0
100
AcDbLine
 10
274.572945
 20
198.55432
 30
0.0
 11
274.260653
 21
198.55432
 31
0.0
  0
ARC
  5
1E2
330
36
100
AcDbEntity
  8
0
100
AcDbCircle
 10
274.717613
 20
198.6232
 30
0.0
 40
0.14672
100
AcDbArc
 50
90.0
 51
170.405932
  0
LINE
  5
1E3
330
36
100
AcDbEntity
  8
0
100
AcDbLine
 10
274.572945
 20
198.647653
 30
0.0
 11
274.572945
 21
198.55432
 31
0.0
  0
LINE
  5
1E4
330
36
100
AcDbEntity
  8
0
100
AcDbLine
 10
275.295533
 20
198.76992
 30
0.0
 11
274.717613
 21
198.76992
 31
0.0
  0
LINE
  5
1E5
330
36
100
AcDbEntity
  8
0
100
AcDbLine
 10
276.414601
 20
198.647653
 30
0.0
 11
276.414601
 21
198.55432
 31
0.0
  0
ARC
  5
1E6
330
36
100
AcDbEntity
  8
0
100
AcDbCircle
 10
276.269933
 20
198.6232
 30
0.0
 40
0.14672
100
AcDbArc
 50
9.594068
 51
90.0
  0
LINE
  5
1E7
330
36
100
AcDbEntity
  8
0
100
AcDbLine
 10
276.269933
 20
198.76992
 30
0.0
 11
275.692013
 21
198.76992
 31
0.0
  0
LINE
  5
1E8
330
36
100
AcDbEntity
  8
0
100
AcDbLine
 10
276.414601
 20
198.55432
 30
0.0
 11
276.726893
 21
198.55432
 31
0.0
  0
LINE
  5
1E9
330
36
100
AcDbEntity
  8
0
100
AcDbLine
 10
274.572945
 20
198.340026
 30
0.0
 11
274.572945
 21
198.43336
 31
0.0
  0
ARC
  5
1EA
330
36
100
AcDbEntity
  8
0
100
AcDbCircle
 10
274.717613
 20
198.36448
 30
0.0
 40
0.14672
100
AcDbArc
 50
189.5940679999999
 51
270.0
  0
LINE
  5
1EB
330
36
100
AcDbEntity
  8
0
100
AcDbLine
 10
275.295533
 20
198.21776
 30
0.0
 11
274.717613
 21
198.21776
 31
0.0
  0
LINE
  5
1EC
330
36
100
AcDbEntity
  8
0
100
AcDbLine
 10
275.295533
 20
198.76992
 30
0.0
 11
275.295533
 21
198.21776
 31
0.0
  0
LINE
  5
1ED
330
36
100
AcDbEntity
  8
0
100
AcDbLine
 10
275.692013
 20
198.76992
 30
0.0
 11
275.692013
 21
198.21776
 31
0.0
  0
LINE
  5
1EE
330
36
100
AcDbEntity
  8
0
100
AcDbLine
 10
276.269933
 20
198.21776
 30
0.0
 11
275.692013
 21
198.21776
 31
0.0
  0
ARC
  5
1EF
330
36
100
AcDbEntity
  8
0
100
AcDbCircle
 10
276.269933
 20
198.36448
 30
0.0
 40
0.14672
100
AcDbArc
 50
270.0
 51
350.405932
  0
LINE
  5
1F0
330
36
100
AcDbEntity
  8
0
100
AcDbLine
 10
276.414601
 20
198.340026
 30
0.0
 11
276.414601
 21
198.43336
 31
0.0
  0
LINE
  5
1F1
330
36
100
AcDbEntity
  8
0
100
AcDbLine
 10
276.414601
 20
198.43336
 30
0.0
 11
276.726893
 21
198.43336
 31
0.0
  0
LINE
  5
1F2
330
36
100
AcDbEntity
  8
0
100
AcDbLine
 10
274.572945
 20
198.43336
 30
0.0
 11
274.260653
 21
198.43336
 31
0.0
  0
LINE
  5
1F3
330
36
100
AcDbEntity
  8
0
 62
     3
100
AcDbLine
 10
300.425413
 20
59.08456700000001
 30
0.0
 11
300.425413
 21
66.08456700000001
 31
0.0
  0
LINE
  5
1F4
330
36
100
AcDbEntity
  8
0
 62
     3
100
AcDbLine
 10
300.425413
 20
58.58456700000001
 30
0.0
 11
300.425413
 21
51.584567
 31
0.0
  0
LINE
  5
1F5
330
36
100
AcDbEntity
  8
0
 62
     3
100
AcDbLine
 10
305.425413
 20
59.08456700000001
 30
0.0
 11
305.425413
 21
66.08456700000001
 31
0.0
  0
LINE
  5
1F6
330
36
100
AcDbEntity
  8
0
 62
     3
100
AcDbLine
 10
305.425413
 20
58.58456700000001
 30
0.0
 11
305.425413
 21
51.584567
 31
0.0
  0
LINE
  5
1F7
330
36
100
AcDbEntity
  8
0
 62
     3
100
AcDbLine
 10
330.425413
 20
59.08456700000001
 30
0.0
 11
330.425413
 21
66.08456700000001
 31
0.0
  0
LINE
  5
1F8
330
36
100
AcDbEntity
  8
0
 62
     3
100
AcDbLine
 10
330.425413
 20
58.58456700000001
 30
0.0
 11
330.425413
 21
51.584567
 31
0.0
  0
LINE
  5
1F9
330
36
100
AcDbEntity
  8
0
 62
     3
100
AcDbLine
 10
335.425413
 20
58.58456700000001
 30
0.0
 11
335.425413
 21
51.584567
 31
0.0
  0
LINE
  5
1FA
330
36
100
AcDbEntity
  8
0
 62
     3
100
AcDbLine
 10
335.425413
 20
59.08456700000001
 30
0.0
 11
335.425413
 21
66.08456700000001
 31
0.0
  0
LINE
  5
1FB
330
36
100
AcDbEntity
  8
0
 62
     3
100
AcDbLine
 10
449.6951469999998
 20
156.027579
 30
0.0
 11
481.6951469999998
 21
156.027579
 31
0.0
  0
TEXT
  5
1FC
330
36
100
AcDbEntity
  8
0
100
AcDbText
 10
456.6696889999998
 20
137.139973
 30
0.0
 40
2.56
  1
<PS>E JET
 41
0.871887
100
AcDbText
  0
LINE
  5
206
330
36
100
AcDbEntity
  8
0
100
AcDbLine
 10
461.3351469999998
 20
104.827579
 30
0.0
 11
461.3351469999998
 21
106.427579
 31
0.0
  0
LINE
  5
207
330
36
100
AcDbEntity
  8
0
100
AcDbLine
 10
461.3351469999998
 20
101.627579
 30
0.0
 11
461.3351469999998
 21
103.227579
 31
0.0
  0
LINE
  5
208
330
36
100
AcDbEntity
  8
0
100
AcDbLine
 10
461.3351469999998
 20
98.42757900000002
 30
0.0
 11
461.3351469999998
 21
100.027579
 31
0.0
  0
LINE
  5
209
330
36
100
AcDbEntity
  8
0
100
AcDbLine
 10
461.3351469999998
 20
95.227579
 30
0.0
 11
461.3351469999998
 21
96.827579
 31
0.0
  0
LINE
  5
20A
330
36
100
AcDbEntity
  8
0
100
AcDbLine
 10
470.0551469999998
 20
104.827579
 30
0.0
 11
470.0551469999998
 21
106.427579
 31
0.0
  0
LINE
  5
20B
330
36
100
AcDbEntity
  8
0
100
AcDbLine
 10
470.0551469999998
 20
101.627579
 30
0.0
 11
470.0551469999998
 21
103.227579
 31
0.0
  0
LINE
  5
20C
330
36
100
AcDbEntity
  8
0
100
AcDbLine
 10
470.0551469999998
 20
98.42757900000002
 30
0.0
 11
470.0551469999998
 21
100.027579
 31
0.0
  0
LINE
  5
20D
330
36
100
AcDbEntity
  8
0
100
AcDbLine
 10
470.0551469999998
 20
95.227579
 30
0.0
 11
470.0551469999998
 21
96.827579
 31
0.0
  0
LINE
  5
20E
330
36
100
AcDbEntity
  8
0
100
AcDbLine
 10
473.2951469999998
 20
171.030206
 30
0.0
 11
474.8951469999998
 21
171.030206
 31
0.0
  0
LINE
  5
20F
330
36
100
AcDbEntity
  8
0
100
AcDbLine
 10
468.8951469999998
 20
170.871421
 30
0.0
 11
466.495147
 21
170.871421
 31
0.0
  0
LINE
  5
210
330
36
100
AcDbEntity
  8
0
100
AcDbLine
 10
464.8951469999998
 20
173.489816
 30
0.0
 11
466.495147
 21
173.489816
 31
0.0
  0
LINE
  5
211
330
36
100
AcDbEntity
  8
0
100
AcDbLine
 10
462.495147
 20
170.871421
 30
0.0
 11
464.8951469999998
 21
170.871421
 31
0.0
  0
LINE
  5
212
330
36
100
AcDbEntity
  8
0
100
AcDbLine
 10
456.4951469999998
 20
171.030206
 30
0.0
 11
458.095147
 21
171.030206
 31
0.0
  0
TEXT
  5
213
330
36
100
AcDbEntity
  8
0
 62
     4
100
AcDbText
 10
482.972036
 20
94.773806
 30
0.0
 40
3.2
  1
19A 250V
  7
高3.2
100
AcDbText
  0
CIRCLE
  5
214
330
36
100
AcDbEntity
  8
0
 62
     3
100
AcDbCircle
 10
317.922363
 20
198.49384
 30
0.0
 40
4.375
  0
CIRCLE
  5
215
330
36
100
AcDbEntity
  8
0
100
AcDbCircle
 10
309.547524
 20
198.49384
 30
0.0
 40
1.125
  0
CIRCLE
  5
216
330
36
100
AcDbEntity
  8
0
100
AcDbCircle
 10
279.297524
 20
198.49384
 30
0.0
 40
1.125
  0
CIRCLE
  5
217
330
36
100
AcDbEntity
  8
0
100
AcDbCircle
 10
326.297201
 20
198.49384
 30
0.0
 40
1.125
  0
CIRCLE
  5
218
330
36
100
AcDbEntity
  8
0
100
AcDbCircle
 10
356.547201
 20
198.49384
 30
0.0
 40
1.125
  0
CIRCLE
  5
219
330
36
100
AcDbEntity
  8
0
100
AcDbCircle
 10
317.922363
 20
198.49384
 30
0.0
 40
3.875
  0
CIRCLE
  5
21A
330
36
100
AcDbEntity
  8
0
 62
     3
100
AcDbCircle
 10
341.422201
 20
198.49384
 30
0.0
 40
10.375
  0
CIRCLE
  5
21B
330
36
100
AcDbEntity
  8
0
 62
     3
100
AcDbCircle
 10
294.424743
 20
198.49384
 30
0.0
 40
10.375
  0
CIRCLE
  5
21C
330
36
100
AcDbEntity
  8
0
 62
     3
100
AcDbCircle
 10
279.297524
 20
198.49384
 30
0.0
 40
1.75
  0
CIRCLE
  5
21D
330
36
100
AcDbEntity
  8
0
 62
     3
100
AcDbCircle
 10
309.547524
 20
198.49384
 30
0.0
 40
1.75
  0
CIRCLE
  5
21E
330
36
100
AcDbEntity
  8
0
 62
     3
100
AcDbCircle
 10
326.297201
 20
198.49384
 30
0.0
 40
1.75
  0
CIRCLE
  5
21F
330
36
100
AcDbEntity
  8
0
 62
     3
100
AcDbCircle
 10
356.547201
 20
198.49384
 30
0.0
 40
1.75
  0
LINE
  5
220
330
36
100
AcDbEntity
  8
0
 62
     3
100
AcDbLine
 10
141.480652
 20
246.409432
 30
0.0
 11
141.480652
 21
-27.590568
 31
0.0
  0
LINE
  5
221
330
36
100
AcDbEntity
  8
0
 62
     3
100
AcDbLine
 10
531.4806519999998
 20
-27.590568
 30
0.0
 11
531.4806519999998
 21
246.409432
 31
0.0
  0
LINE
  5
222
330
36
100
AcDbEntity
  8
0
 62
     3
100
AcDbLine
 10
141.480652
 20
246.409432
 30
0.0
 11
531.4806519999998
 21
246.409432
 31
0.0
  0
LINE
  5
223
330
36
100
AcDbEntity
  8
0
 62
     3
100
AcDbLine
 10
470.0551469999998
 20
82.17346799999999
 30
0.0
 11
470.0551469999998
 21
92.02757899999999
 31
0.0
  0
LINE
  5
224
330
36
100
AcDbEntity
  8
0
 62
     3
100
AcDbLine
 10
461.3351469999998
 20
82.55669199999998
 30
0.0
 11
461.3351469999998
 21
92.02757899999999
 31
0.0
  0
LINE
  5
225
330
36
100
AcDbEntity
  8
0
 62
     3
100
AcDbLine
 10
531.4806519999998
 20
-27.590568
 30
0.0
 11
141.480652
 21
-27.590568
 31
0.0
  0
LINE
  5
228
330
36
100
AcDbEntity
  8
0
 62
     3
100
AcDbLine
 10
460.6951469999998
 20
92.02757899999999
 30
0.0
 11
470.6951469999999
 21
92.02757899999999
 31
0.0
  0
ARC
  5
229
330
36
100
AcDbEntity
  8
0
 62
     3
100
AcDbCircle
 10
480.8951469999998
 20
151.227579
 30
0.0
 40
2.399999999999999
100
AcDbArc
 50
270.0
 51
90.0
  0
LINE
  5
22A
330
36
100
AcDbEntity
  8
0
 62
     3
100
AcDbLine
 10
473.5878480000001
 20
116.765779
 30
0.0
 11
475.295147
 21
115.627579
 31
0.0
  0
LINE
  5
22B
330
36
100
AcDbEntity
  8
0
 62
     3
100
AcDbLine
 10
475.295147
 20
115.627579
 30
0.0
 11
472.2951469999999
 21
113.627579
 31
0.0
  0
LINE
  5
22C
330
36
100
AcDbEntity
  8
0
 62
     3
100
AcDbLine
 10
457.8024459999999
 20
116.765779
 30
0.0
 11
456.095147
 21
115.627579
 31
0.0
  0
LINE
  5
22D
330
36
100
AcDbEntity
  8
0
 62
     3
100
AcDbLine
 10
459.095147
 20
113.627579
 30
0.0
 11
456.095147
 21
115.627579
 31
0.0
  0
LINE
  5
22E
330
36
100
AcDbEntity
  8
0
 62
     3
100
AcDbLine
 10
458.271723
 20
118.945058
 30
0.0
 11
450.095147
 21
132.027579
 31
0.0
  0
LINE
  5
22F
330
36
100
AcDbEntity
  8
0
 62
     3
100
AcDbLine
 10
473.118571
 20
118.945058
 30
0.0
 11
481.2951469999998
 21
132.027579
 31
0.0
  0
LINE
  5
230
330
36
100
AcDbEntity
  8
0
 62
     3
100
AcDbLine
 10
481.6951469999998
 20
153.627579
 30
0.0
 11
481.6951469999998
 21
156.027579
 31
0.0
  0
LINE
  5
231
330
36
100
AcDbEntity
  8
0
 62
     3
100
AcDbLine
 10
481.2951469999998
 20
132.027579
 30
0.0
 11
481.2951469999998
 21
148.861147
 31
0.0
  0
ARC
  5
232
330
36
100
AcDbEntity
  8
0
 62
     3
100
AcDbCircle
 10
456.9149259999998
 20
118.097059
 30
0.0
 40
1.6
100
AcDbArc
 50
303.690068
 51
32.005383
  0
ARC
  5
233
330
36
100
AcDbEntity
  8
0
 62
     3
100
AcDbCircle
 10
474.4753679999998
 20
118.097059
 30
0.0
 40
1.6
100
AcDbArc
 50
147.994617
 51
236.309932
  0
ARC
  5
234
330
36
100
AcDbEntity
  8
0
 62
     3
100
AcDbCircle
 10
472.2951469999999
 20
108.827579
 30
0.0
 40
0.8
100
AcDbArc
 50
270.0
 51
90.0
  0
ARC
  5
235
330
36
100
AcDbEntity
  8
0
 62
     3
100
AcDbCircle
 10
459.095147
 20
108.827579
 30
0.0
 40
0.8
100
AcDbArc
 50
90.0
 51
270.0
  0
LINE
  5
236
330
36
100
AcDbEntity
  8
0
 62
     3
100
AcDbLine
 10
472.2951469999999
 20
93.627579
 30
0.0
 11
472.2951469999999
 21
108.027579
 31
0.0
  0
LINE
  5
237
330
36
100
AcDbEntity
  8
0
 62
     3
100
AcDbLine
 10
472.2951469999999
 20
109.627579
 30
0.0
 11
472.2951469999999
 21
113.627579
 31
0.0
  0
LINE
  5
238
330
36
100
AcDbEntity
  8
0
 62
     3
100
AcDbLine
 10
459.095147
 20
93.627579
 30
0.0
 11
459.095147
 21
108.027579
 31
0.0
  0
LINE
  5
239
330
36
100
AcDbEntity
  8
0
 62
     3
100
AcDbLine
 10
459.095147
 20
109.627579
 30
0.0
 11
459.095147
 21
113.627579
 31
0.0
  0
ARC
  5
23A
330
36
100
AcDbEntity
  8
0
 62
     3
100
AcDbCircle
 10
470.6951469999999
 20
93.627579
 30
0.0
 40
1.6
100
AcDbArc
 50
270.0
 51
0.0
  0
ARC
  5
23B
330
36
100
AcDbEntity
  8
0
 62
     3
100
AcDbCircle
 10
460.6951469999998
 20
93.627579
 30
0.0
 40
1.6
100
AcDbArc
 50
180.0
 51
270.0
  0
TEXT
  5
23C
330
36
100
AcDbEntity
  8
0
100
AcDbText
 10
457.388608
 20
141.650625
 30
0.0
 40
2.56
  1
19A 250V
 41
0.8775529999999999
100
AcDbText
  0
LINE
  5
23D
330
36
100
AcDbEntity
  8
0
100
AcDbLine
 10
456.095147
 20
115.627579
 30
0.0
 11
475.295147
 21
115.627579
 31
0.0
  0
ARC
  5
23E
330
36
100
AcDbEntity
  8
0
100
AcDbCircle
 10
476.095147
 20
136.027579
 30
0.0
 40
0.8
100
AcDbArc
 50
270.0
 51
0.0
  0
LINE
  5
23F
330
36
100
AcDbEntity
  8
0
100
AcDbLine
 10
455.295147
 20
135.227579
 30
0.0
 11
476.095147
 21
135.227579
 31
0.0
  0
ARC
  5
240
330
36
100
AcDbEntity
  8
0
100
AcDbCircle
 10
455.295147
 20
136.027579
 30
0.0
 40
0.8
100
AcDbArc
 50
180.0
 51
270.0
  0
LINE
  5
241
330
36
100
AcDbEntity
  8
0
100
AcDbLine
 10
454.4951469999999
 20
144.827579
 30
0.0
 11
454.4951469999999
 21
136.027579
 31
0.0
  0
ARC
  5
242
330
36
100
AcDbEntity
  8
0
100
AcDbCircle
 10
455.295147
 20
144.827579
 30
0.0
 40
0.8
100
AcDbArc
 50
90.0
 51
180.0
  0
LINE
  5
243
330
36
100
AcDbEntity
  8
0
100
AcDbLine
 10
476.095147
 20
145.627579
 30
0.0
 11
455.295147
 21
145.627579
 31
0.0
  0
ARC
  5
244
330
36
100
AcDbEntity
  8
0
100
AcDbCircle
 10
476.095147
 20
144.827579
 30
0.0
 40
0.8
100
AcDbArc
 50
0.0
 51
90.0
  0
LINE
  5
245
330
36
100
AcDbEntity
  8
0
100
AcDbLine
 10
476.8951469999998
 20
144.827579
 30
0.0
 11
476.8951469999998
 21
136.027579
 31
0.0
  0
ARC
  5
246
330
36
100
AcDbEntity
  8
0
 62
     3
100
AcDbCircle
 10
450.4951469999999
 20
151.227579
 30
0.0
 40
2.399999999999999
100
AcDbArc
 50
90.0
 51
270.0
  0
LINE
  5
247
330
36
100
AcDbEntity
  8
0
 62
     3
100
AcDbLine
 10
450.095147
 20
132.027579
 30
0.0
 11
450.095147
 21
148.827579
 31
0.0
  0
LINE
  5
248
330
36
100
AcDbEntity
  8
0
 62
     3
100
AcDbLine
 10
449.6951469999998
 20
153.490321
 30
0.0
 11
449.6951469999998
 21
156.027579
 31
0.0
  0
LINE
  5
249
330
36
100
AcDbEntity
  8
0
100
AcDbLine
 10
459.095147
 20
106.427579
 30
0.0
 11
464.095147
 21
106.427579
 31
0.0
  0
LINE
  5
24A
330
36
100
AcDbEntity
  8
0
100
AcDbLine
 10
467.295147
 20
106.427579
 30
0.0
 11
472.2951469999999
 21
106.427579
 31
0.0
  0
LINE
  5
24B
330
36
100
AcDbEntity
  8
0
100
AcDbLine
 10
459.095147
 20
104.827579
 30
0.0
 11
464.095147
 21
104.827579
 31
0.0
  0
LINE
  5
24C
330
36
100
AcDbEntity
  8
0
100
AcDbLine
 10
467.295147
 20
104.827579
 30
0.0
 11
472.2951469999999
 21
104.827579
 31
0.0
  0
LINE
  5
24D
330
36
100
AcDbEntity
  8
0
100
AcDbLine
 10
459.095147
 20
103.227579
 30
0.0
 11
464.095147
 21
103.227579
 31
0.0
  0
LINE
  5
24E
330
36
100
AcDbEntity
  8
0
100
AcDbLine
 10
467.295147
 20
103.227579
 30
0.0
 11
472.2951469999999
 21
103.227579
 31
0.0
  0
LINE
  5
24F
330
36
100
AcDbEntity
  8
0
100
AcDbLine
 10
459.095147
 20
101.627579
 30
0.0
 11
464.095147
 21
101.627579
 31
0.0
  0
LINE
  5
250
330
36
100
AcDbEntity
  8
0
100
AcDbLine
 10
467.295147
 20
101.627579
 30
0.0
 11
472.2951469999999
 21
101.627579
 31
0.0
  0
LINE
  5
251
330
36
100
AcDbEntity
  8
0
100
AcDbLine
 10
459.095147
 20
100.027579
 30
0.0
 11
464.095147
 21
100.027579
 31
0.0
  0
LINE
  5
252
330
36
100
AcDbEntity
  8
0
100
AcDbLine
 10
467.295147
 20
100.027579
 30
0.0
 11
472.2951469999999
 21
100.027579
 31
0.0
  0
LINE
  5
253
330
36
100
AcDbEntity
  8
0
100
AcDbLine
 10
459.095147
 20
98.42757900000002
 30
0.0
 11
464.095147
 21
98.42757900000002
 31
0.0
  0
LINE
  5
254
330
36
100
AcDbEntity
  8
0
100
AcDbLine
 10
467.295147
 20
98.42757900000002
 30
0.0
 11
472.2951469999999
 21
98.42757900000002
 31
0.0
  0
LINE
  5
255
330
36
100
AcDbEntity
  8
0
100
AcDbLine
 10
459.095147
 20
96.827579
 30
0.0
 11
464.095147
 21
96.827579
 31
0.0
  0
LINE
  5
256
330
36
100
AcDbEntity
  8
0
100
AcDbLine
 10
467.295147
 20
96.827579
 30
0.0
 11
472.2951469999999
 21
96.827579
 31
0.0
  0
LINE
  5
257
330
36
100
AcDbEntity
  8
0
100
AcDbLine
 10
459.095147
 20
95.227579
 30
0.0
 11
464.095147
 21
95.227579
 31
0.0
  0
LINE
  5
258
330
36
100
AcDbEntity
  8
0
100
AcDbLine
 10
467.295147
 20
95.227579
 30
0.0
 11
472.2951469999999
 21
95.227579
 31
0.0
  0
LINE
  5
259
330
36
100
AcDbEntity
  8
0
100
AcDbLine
 10
467.295147
 20
104.827579
 30
0.0
 11
467.295147
 21
106.427579
 31
0.0
  0
LINE
  5
25A
330
36
100
AcDbEntity
  8
0
100
AcDbLine
 10
464.095147
 20
104.827579
 30
0.0
 11
464.095147
 21
106.427579
 31
0.0
  0
LINE
  5
25B
330
36
100
AcDbEntity
  8
0
100
AcDbLine
 10
467.295147
 20
101.627579
 30
0.0
 11
467.295147
 21
103.227579
 31
0.0
  0
LINE
  5
25C
330
36
100
AcDbEntity
  8
0
100
AcDbLine
 10
464.095147
 20
101.627579
 30
0.0
 11
464.095147
 21
103.227579
 31
0.0
  0
LINE
  5
25D
330
36
100
AcDbEntity
  8
0
100
AcDbLine
 10
467.295147
 20
98.42757900000002
 30
0.0
 11
467.295147
 21
100.027579
 31
0.0
  0
LINE
  5
25E
330
36
100
AcDbEntity
  8
0
100
AcDbLine
 10
464.095147
 20
98.42757900000002
 30
0.0
 11
464.095147
 21
100.027579
 31
0.0
  0
LINE
  5
25F
330
36
100
AcDbEntity
  8
0
100
AcDbLine
 10
467.295147
 20
95.227579
 30
0.0
 11
467.295147
 21
96.827579
 31
0.0
  0
LINE
  5
260
330
36
100
AcDbEntity
  8
0
100
AcDbLine
 10
464.095147
 20
95.227579
 30
0.0
 11
464.095147
 21
96.827579
 31
0.0
  0
CIRCLE
  5
261
330
36
100
AcDbEntity
  8
0
 62
     3
100
AcDbCircle
 10
364.176538
 20
192.88834
 30
0.0
 40
1.75
  0
CIRCLE
  5
262
330
36
100
AcDbEntity
  8
0
 62
     3
100
AcDbCircle
 10
317.925413
 20
208.995287
 30
0.0
 40
1.75
  0
CIRCLE
  5
263
330
36
100
AcDbEntity
  8
0
 62
     3
100
AcDbCircle
 10
317.925413
 20
187.995287
 30
0.0
 40
1.75
  0
CIRCLE
  5
264
330
36
100
AcDbEntity
  8
0
 62
     3
100
AcDbCircle
 10
364.176538
 20
204.102235
 30
0.0
 40
1.75
  0
CIRCLE
  5
265
330
36
100
AcDbEntity
  8
0
 62
     3
100
AcDbCircle
 10
271.674287
 20
204.102235
 30
0.0
 40
1.75
  0
CIRCLE
  5
266
330
36
100
AcDbEntity
  8
0
 62
     3
100
AcDbCircle
 10
271.674287
 20
192.88834
 30
0.0
 40
1.75
  0
LINE
  5
26E
330
36
100
AcDbEntity
  8
0
 62
     3
100
AcDbLine
 10
282.925413
 20
103.72692
 30
0.0
 11
282.925413
 21
117.22692
 31
0.0
  0
ARC
  5
26F
330
36
100
AcDbEntity
  8
0
 62
     3
100
AcDbCircle
 10
280.425413
 20
109.412878
 30
0.0
 40
2.5
100
AcDbArc
 50
0.0
 51
90.0
  0
LINE
  5
270
330
36
100
AcDbEntity
  8
0
 62
     3
100
AcDbLine
 10
280.425413
 20
111.912878
 30
0.0
 11
277.925413
 21
111.912878
 31
0.0
  0
LINE
  5
271
330
36
100
AcDbEntity
  8
0
 62
     3
100
AcDbLine
 10
259.549528
 20
109.931693
 30
0.0
 11
277.925413
 21
111.912878
 31
0.0
  0
ARC
  5
272
330
36
100
AcDbEntity
  8
0
 62
     3
100
AcDbCircle
 10
280.425413
 20
103.72692
 30
0.0
 40
2.5
100
AcDbArc
 50
318.555703
 51
0.0
  0
ARC
  5
273
330
36
100
AcDbEntity
  8
0
 62
     3
100
AcDbCircle
 10
280.425413
 20
103.72692
 30
0.0
 40
2.5
100
AcDbArc
 50
270.0
 51
318.555703
  0
LINE
  5
274
330
36
100
AcDbEntity
  8
0
 62
     3
100
AcDbLine
 10
299.172411
 20
101.22692
 30
0.0
 11
292.925413
 21
101.22692
 31
0.0
  0
ARC
  5
275
330
36
100
AcDbEntity
  8
0
 62
     3
100
AcDbCircle
 10
299.172411
 20
102.479922
 30
0.0
 40
1.253001999999999
100
AcDbArc
 50
270.0
 51
25.149305
  0
LINE
  5
276
330
36
100
AcDbEntity
  8
0
 62
     3
100
AcDbLine
 10
300.306632
 20
103.012421
 30
0.0
 11
300.096652
 21
103.459679
 31
0.0
  0
ARC
  5
277
330
36
100
AcDbEntity
  8
0
 62
     3
100
AcDbCircle
 10
302.925413
 20
104.787737
 30
0.0
 40
3.125
100
AcDbArc
 50
180.0
 51
205.149305
  0
ARC
  5
278
330
36
100
AcDbEntity
  8
0
 62
     3
100
AcDbCircle
 10
302.925413
 20
105.287737
 30
0.0
 40
3.125
100
AcDbArc
 50
0.0
 51
180.0
  0
LINE
  5
279
330
36
100
AcDbEntity
  8
0
 62
     3
100
AcDbLine
 10
305.544193
 20
103.012421
 30
0.0
 11
305.754173
 21
103.459679
 31
0.0
  0
ARC
  5
27A
330
36
100
AcDbEntity
  8
0
 62
     3
100
AcDbCircle
 10
302.925413
 20
104.787737
 30
0.0
 40
3.125
100
AcDbArc
 50
334.850695
 51
0.0
  0
ARC
  5
27B
330
36
100
AcDbEntity
  8
0
 62
     3
100
AcDbCircle
 10
306.678415
 20
102.479922
 30
0.0
 40
1.253001999999999
100
AcDbArc
 50
154.850695
 51
270.0
  0
LINE
  5
27C
330
36
100
AcDbEntity
  8
0
 62
     3
100
AcDbLine
 10
306.678415
 20
101.22692
 30
0.0
 11
317.925413
 21
101.22692
 31
0.0
  0
LINE
  5
27D
330
36
100
AcDbEntity
  8
0
 62
     3
100
AcDbLine
 10
329.172411
 20
101.22692
 30
0.0
 11
317.925413
 21
101.22692
 31
0.0
  0
ARC
  5
27E
330
36
100
AcDbEntity
  8
0
 62
     3
100
AcDbCircle
 10
329.172411
 20
102.479922
 30
0.0
 40
1.253001999999999
100
AcDbArc
 50
270.0
 51
25.149305
  0
LINE
  5
27F
330
36
100
AcDbEntity
  8
0
 62
     3
100
AcDbLine
 10
330.306632
 20
103.012421
 30
0.0
 11
330.096652
 21
103.459679
 31
0.0
  0
ARC
  5
280
330
36
100
AcDbEntity
  8
0
 62
     3
100
AcDbCircle
 10
332.925413
 20
104.787737
 30
0.0
 40
3.125
100
AcDbArc
 50
180.0
 51
205.149305
  0
ARC
  5
281
330
36
100
AcDbEntity
  8
0
 62
     3
100
AcDbCircle
 10
332.925413
 20
105.287737
 30
0.0
 40
3.125
100
AcDbArc
 50
0.0
 51
180.0
  0
LINE
  5
282
330
36
100
AcDbEntity
  8
0
 62
     3
100
AcDbLine
 10
336.050413
 20
105.287737
 30
0.0
 11
336.050413
 21
104.801973
 31
0.0
  0
ARC
  5
283
330
36
100
AcDbEntity
  8
0
 62
     3
100
AcDbCircle
 10
332.925413
 20
104.787737
 30
0.0
 40
3.125
100
AcDbArc
 50
334.850695
 51
0.0
  0
LINE
  5
284
330
36
100
AcDbEntity
  8
0
 62
     3
100
AcDbLine
 10
335.544193
 20
103.012421
 30
0.0
 11
335.754173
 21
103.459679
 31
0.0
  0
ARC
  5
285
330
36
100
AcDbEntity
  8
0
 62
     3
100
AcDbCircle
 10
336.678415
 20
102.479922
 30
0.0
 40
1.253001999999999
100
AcDbArc
 50
154.850695
 51
270.0
  0
LINE
  5
286
330
36
100
AcDbEntity
  8
0
 62
     3
100
AcDbLine
 10
336.678415
 20
101.22692
 30
0.0
 11
342.925413
 21
101.22692
 31
0.0
  0
LINE
  5
287
330
36
100
AcDbEntity
  8
0
 62
     3
100
AcDbLine
 10
329.800413
 20
105.287737
 30
0.0
 11
329.800413
 21
104.787737
 31
0.0
  0
ARC
  5
288
330
36
100
AcDbEntity
  8
0
 62
     3
100
AcDbCircle
 10
342.925413
 20
122.22692
 30
0.0
 40
21.0
100
AcDbArc
 50
270.0
 51
291.86529
  0
ARC
  5
289
330
36
100
AcDbEntity
  8
0
 62
     3
100
AcDbCircle
 10
351.677415
 20
100.417462
 30
0.0
 40
2.5
100
AcDbArc
 50
41.44429699999998
 51
111.86529
  0
ARC
  5
28A
330
36
100
AcDbEntity
  8
0
 62
     3
100
AcDbCircle
 10
355.425413
 20
103.72692
 30
0.0
 40
2.5
100
AcDbArc
 50
221.444297
 51
270.0
  0
LINE
  5
28B
330
36
100
AcDbEntity
  8
0
 62
     3
100
AcDbLine
 10
402.9254129999998
 20
101.22692
 30
0.0
 11
355.425413
 21
101.22692
 31
0.0
  0
ARC
  5
28C
330
36
100
AcDbEntity
  8
0
 62
     3
100
AcDbCircle
 10
402.9254129999998
 20
103.72692
 30
0.0
 40
2.5
100
AcDbArc
 50
270.0
 51
0.0
  0
LINE
  5
28D
330
36
100
AcDbEntity
  8
0
 62
     3
100
AcDbLine
 10
405.425413
 20
105.893713
 30
0.0
 11
405.425413
 21
103.72692
 31
0.0
  0
ARC
  5
28E
330
36
100
AcDbEntity
  8
0
 62
     3
100
AcDbCircle
 10
404.4254129999997
 20
105.893713
 30
0.0
 40
1.0
100
AcDbArc
 50
0.0
 51
83.84645799999999
  0
LINE
  5
28F
330
36
100
AcDbEntity
  8
0
 62
     3
100
AcDbLine
 10
352.925413
 20
117.22692
 30
0.0
 11
352.925413
 21
103.72692
 31
0.0
  0
ARC
  5
290
330
36
100
AcDbEntity
  8
0
 62
     3
100
AcDbCircle
 10
355.425413
 20
109.412878
 30
0.0
 40
2.5
100
AcDbArc
 50
90.0
 51
180.0
  0
LINE
  5
291
330
36
100
AcDbEntity
  8
0
 62
     3
100
AcDbLine
 10
355.425413
 20
111.912878
 30
0.0
 11
357.925413
 21
111.912878
 31
0.0
  0
LINE
  5
292
330
36
100
AcDbEntity
  8
0
 62
     3
100
AcDbLine
 10
404.5326059999998
 20
106.887951
 30
0.0
 11
357.925413
 21
111.912878
 31
0.0
  0
ARC
  5
293
330
36
100
AcDbEntity
  8
0
 62
     3
100
AcDbCircle
 10
355.425413
 20
103.72692
 30
0.0
 40
2.5
100
AcDbArc
 50
180.0
 51
221.444297
  0
LINE
  5
294
330
36
100
AcDbEntity
  8
0
 62
     3
100
AcDbLine
 10
347.925413
 20
112.22692
 30
0.0
 11
338.326027
 21
112.22692
 31
0.0
  0
ARC
  5
295
330
36
100
AcDbEntity
  8
0
 62
     3
100
AcDbCircle
 10
333.150413
 20
104.260552
 30
0.0
 40
9.5
100
AcDbArc
 50
56.98890200000001
 51
86.49096
  0
LINE
  5
296
330
36
100
AcDbEntity
  8
0
 62
     3
100
AcDbLine
 10
329.125433
 20
113.770964
 30
0.0
 11
332.136141
 21
113.770964
 31
0.0
  0
ARC
  5
297
330
36
100
AcDbEntity
  8
0
 62
     3
100
AcDbCircle
 10
332.700413
 20
104.287737
 30
0.0
 40
9.5
100
AcDbArc
 50
86.59479899999999
 51
93.405201
  0
ARC
  5
298
330
36
100
AcDbEntity
  8
0
 62
     3
100
AcDbCircle
 10
329.125433
 20
108.770964
 30
0.0
 40
5.0
100
AcDbArc
 50
90.0
 51
115.594768
  0
ARC
  5
299
330
36
100
AcDbEntity
  8
0
 62
     3
100
AcDbCircle
 10
317.925413
 20
132.152688
 30
0.0
 40
20.925768
100
AcDbArc
 50
270.684529
 51
295.594768
  0
ARC
  5
29A
330
36
100
AcDbEntity
  8
0
 62
     3
100
AcDbCircle
 10
317.925413
 20
132.152688
 30
0.0
 40
20.925768
100
AcDbArc
 50
244.405232
 51
270.684529
  0
ARC
  5
29B
330
36
100
AcDbEntity
  8
0
 62
     3
100
AcDbCircle
 10
306.725393
 20
108.770964
 30
0.0
 40
5.0
100
AcDbArc
 50
64.405232
 51
90.0
  0
LINE
  5
29C
330
36
100
AcDbEntity
  8
0
 62
     3
100
AcDbLine
 10
306.725393
 20
113.770964
 30
0.0
 11
303.714684
 21
113.770964
 31
0.0
  0
ARC
  5
29D
330
36
100
AcDbEntity
  8
0
 62
     3
100
AcDbCircle
 10
317.925413
 20
-144.02308
 30
0.0
 40
258.25
100
AcDbArc
 50
93.405201
 51
93.50903999999999
  0
ARC
  5
29E
330
36
100
AcDbEntity
  8
0
 62
     3
100
AcDbCircle
 10
303.150413
 20
104.287737
 30
0.0
 40
9.5
100
AcDbArc
 50
86.59479899999999
 51
93.405201
  0
ARC
  5
29F
330
36
100
AcDbEntity
  8
0
 62
     3
100
AcDbCircle
 10
302.700413
 20
104.260552
 30
0.0
 40
9.5
100
AcDbArc
 50
93.50903999999999
 51
123.011098
  0
LINE
  5
2A0
330
36
100
AcDbEntity
  8
0
 62
     3
100
AcDbLine
 10
287.925413
 20
112.22692
 30
0.0
 11
297.524799
 21
112.22692
 31
0.0
  0
ARC
  5
2A1
330
36
100
AcDbEntity
  8
0
 62
     3
100
AcDbCircle
 10
287.925413
 20
117.22692
 30
0.0
 40
5.0
100
AcDbArc
 50
180.0
 51
270.0
  0
LINE
  5
2A2
330
36
100
AcDbEntity
  8
0
 62
     3
100
AcDbLine
 10
282.925413
 20
117.22692
 30
0.0
 11
282.925413
 21
125.670964
 31
0.0
  0
ARC
  5
2A3
330
36
100
AcDbEntity
  8
0
 62
     3
100
AcDbCircle
 10
285.425413
 20
125.670964
 30
0.0
 40
2.5
100
AcDbArc
 50
90.0
 51
180.0
  0
LINE
  5
2A4
330
36
100
AcDbEntity
  8
0
 62
     3
100
AcDbLine
 10
317.925413
 20
128.170964
 30
0.0
 11
285.425413
 21
128.170964
 31
0.0
  0
LINE
  5
2A5
330
36
100
AcDbEntity
  8
0
 62
     3
100
AcDbLine
 10
350.425413
 20
128.170964
 30
0.0
 11
317.925413
 21
128.170964
 31
0.0
  0
ARC
  5
2A6
330
36
100
AcDbEntity
  8
0
 62
     3
100
AcDbCircle
 10
350.425413
 20
125.670964
 30
0.0
 40
2.5
100
AcDbArc
 50
0.0
 51
90.0
  0
LINE
  5
2A7
330
36
100
AcDbEntity
  8
0
 62
     3
100
AcDbLine
 10
352.925413
 20
125.670964
 30
0.0
 11
352.925413
 21
117.22692
 31
0.0
  0
ARC
  5
2A8
330
36
100
AcDbEntity
  8
0
 62
     3
100
AcDbCircle
 10
347.925413
 20
117.22692
 30
0.0
 40
5.0
100
AcDbArc
 50
270.0
 51
0.0
  0
LINE
  5
2A9
330
36
100
AcDbEntity
  8
0
 62
     3
100
AcDbLine
 10
368.925413
 20
146.248126
 30
0.0
 11
368.925413
 21
115.216824
 31
0.0
  0
LINE
  5
2AA
330
36
100
AcDbEntity
  8
0
 62
     3
100
AcDbLine
 10
373.801298
 20
151.26372
 30
0.0
 11
404.5326059999998
 21
154.576998
 31
0.0
  0
ARC
  5
2AB
330
36
100
AcDbEntity
  8
0
 62
     3
100
AcDbCircle
 10
404.4254129999997
 20
155.571237
 30
0.0
 40
1.0
100
AcDbArc
 50
276.153542
 51
0.0
  0
LINE
  5
2AC
330
36
100
AcDbEntity
  8
0
 62
     3
100
AcDbLine
 10
405.425413
 20
155.553395
 30
0.0
 11
405.425413
 21
157.738029
 31
0.0
  0
ARC
  5
2AD
330
36
100
AcDbEntity
  8
0
 62
     3
100
AcDbCircle
 10
402.9254129999998
 20
157.738029
 30
0.0
 40
2.5
100
AcDbArc
 50
0.0
 51
90.0
  0
LINE
  5
2AE
330
36
100
AcDbEntity
  8
0
 62
     3
100
AcDbLine
 10
373.801298
 20
160.238029
 30
0.0
 11
402.9254129999998
 21
160.238029
 31
0.0
  0
LINE
  5
2AF
330
36
100
AcDbEntity
  8
0
 62
     3
100
AcDbLine
 10
373.801298
 20
160.238029
 30
0.0
 11
317.925413
 21
160.238029
 31
0.0
  0
ARC
  5
2B0
330
36
100
AcDbEntity
  8
0
 62
     3
100
AcDbCircle
 10
232.925413
 20
157.738029
 30
0.0
 40
2.5
100
AcDbArc
 50
90.0
 51
180.0
  0
LINE
  5
2B1
330
36
100
AcDbEntity
  8
0
 62
     3
100
AcDbLine
 10
230.425413
 20
155.553395
 30
0.0
 11
230.425413
 21
157.738029
 31
0.0
  0
ARC
  5
2B2
330
36
100
AcDbEntity
  8
0
 62
     3
100
AcDbCircle
 10
231.425413
 20
155.571237
 30
0.0
 40
1.0
100
AcDbArc
 50
180.0
 51
263.846458
  0
LINE
  5
2B3
330
36
100
AcDbEntity
  8
0
 62
     3
100
AcDbLine
 10
231.31822
 20
154.576998
 30
0.0
 11
235.425413
 21
154.134184
 31
0.0
  0
LINE
  5
2B4
330
36
100
AcDbEntity
  8
0
 62
     3
100
AcDbLine
 10
235.425413
 20
107.330765
 30
0.0
 11
259.549528
 21
109.931693
 31
0.0
  0
LINE
  5
2B5
330
36
100
AcDbEntity
  8
0
 62
     3
100
AcDbLine
 10
231.31822
 20
106.887951
 30
0.0
 11
235.425413
 21
107.330765
 31
0.0
  0
ARC
  5
2B6
330
36
100
AcDbEntity
  8
0
 62
     3
100
AcDbCircle
 10
231.425413
 20
105.893713
 30
0.0
 40
1.0
100
AcDbArc
 50
96.153542
 51
180.0
  0
LINE
  5
2B7
330
36
100
AcDbEntity
  8
0
 62
     3
100
AcDbLine
 10
230.425413
 20
105.893713
 30
0.0
 11
230.425413
 21
103.72692
 31
0.0
  0
ARC
  5
2B8
330
36
100
AcDbEntity
  8
0
 62
     3
100
AcDbCircle
 10
232.925413
 20
103.72692
 30
0.0
 40
2.5
100
AcDbArc
 50
180.0
 51
270.0
  0
LINE
  5
2B9
330
36
100
AcDbEntity
  8
0
 62
     3
100
AcDbLine
 10
280.425413
 20
101.22692
 30
0.0
 11
232.925413
 21
101.22692
 31
0.0
  0
ARC
  5
2BA
330
36
100
AcDbEntity
  8
0
 62
     3
100
AcDbCircle
 10
261.925413
 20
115.216824
 30
0.0
 40
5.0
100
AcDbArc
 50
276.153542
 51
0.0
  0
LINE
  5
2BB
330
36
100
AcDbEntity
  8
0
 62
     3
100
AcDbLine
 10
266.925413
 20
115.216824
 30
0.0
 11
266.925413
 21
146.28244
 31
0.0
  0
ARC
  5
2BC
330
36
100
AcDbEntity
  8
0
 62
     3
100
AcDbCircle
 10
261.925541
 20
146.28244
 30
0.0
 40
5.0
100
AcDbArc
 50
0.0
 51
77.148061
  0
ARC
  5
2BD
330
36
100
AcDbEntity
  8
0
 62
     3
100
AcDbCircle
 10
284.173411
 20
100.417462
 30
0.0
 40
2.5
100
AcDbArc
 50
68.13470999999998
 51
138.555703
  0
ARC
  5
2BE
330
36
100
AcDbEntity
  8
0
 62
     3
100
AcDbCircle
 10
292.925413
 20
122.22692
 30
0.0
 40
21.0
100
AcDbArc
 50
248.13471
 51
270.0
  0
ARC
  5
2BF
330
36
100
AcDbEntity
  8
0
 62
     3
100
AcDbCircle
 10
393.425413
 20
201.383214
 30
0.0
 40
12.0
100
AcDbArc
 50
0.0
 51
86.79519599999997
  0
LINE
  5
2C0
330
36
100
AcDbEntity
  8
0
 62
     3
100
AcDbLine
 10
405.425413
 20
201.383214
 30
0.0
 11
405.425413
 21
198.495287
 31
0.0
  0
ARC
  5
2C1
330
36
100
AcDbEntity
  8
0
 62
     3
100
AcDbCircle
 10
393.425413
 20
195.607361
 30
0.0
 40
12.0
100
AcDbArc
 50
273.204804
 51
0.0
  0
ARC
  5
2C2
330
36
100
AcDbEntity
  8
0
 62
     3
100
AcDbCircle
 10
317.925413
 20
-1147.004713
 30
0.0
 40
1362.5
100
AcDbArc
 50
86.79519599999997
 51
93.204804
  0
ARC
  5
2C3
330
36
100
AcDbEntity
  8
0
 62
     3
100
AcDbCircle
 10
317.925413
 20
1543.995287
 30
0.0
 40
1362.5
100
AcDbArc
 50
266.795196
 51
273.204804
  0
ARC
  5
2C4
330
36
100
AcDbEntity
  8
0
 62
     3
100
AcDbCircle
 10
277.925413
 20
47.424013
 30
0.0
 40
5.0
100
AcDbArc
 50
268.311482
 51
0.0
  0
LINE
  5
2C5
330
36
100
AcDbEntity
  8
0
 62
     3
100
AcDbLine
 10
398.425413
 20
58.834567
 30
0.0
 11
405.425413
 21
58.834567
 31
0.0
  0
ARC
  5
2C6
330
36
100
AcDbEntity
  8
0
 62
     3
100
AcDbCircle
 10
357.925413
 20
70.24512
 30
0.0
 40
5.0
100
AcDbArc
 50
88.31148199999999
 51
180.0
  0
LINE
  5
2C7
330
36
100
AcDbEntity
  8
0
 62
     3
100
AcDbLine
 10
405.425413
 20
55.94664
 30
0.0
 11
405.425413
 21
58.834567
 31
0.0
  0
ARC
  5
2C8
330
36
100
AcDbEntity
  8
0
 62
     3
100
AcDbCircle
 10
393.425413
 20
55.94664
 30
0.0
 40
12.0
100
AcDbArc
 50
273.204804
 51
0.0
  0
ARC
  5
2C9
330
36
100
AcDbEntity
  8
0
 62
     3
100
AcDbCircle
 10
393.425413
 20
61.722493
 30
0.0
 40
12.0
100
AcDbArc
 50
0.0
 51
86.79519599999997
  0
ARC
  5
2CA
330
36
100
AcDbEntity
  8
0
 62
     3
100
AcDbCircle
 10
348.925413
 20
70.33456700000001
 30
0.0
 40
4.0
100
AcDbArc
 50
270.0
 51
0.0
  0
LINE
  5
2CB
330
36
100
AcDbEntity
  8
0
 62
     3
100
AcDbLine
 10
282.925413
 20
71.334567
 30
0.0
 11
353.045545
 21
71.334567
 31
0.0
  0
ARC
  5
2CC
330
36
100
AcDbEntity
  8
0
 62
     3
100
AcDbCircle
 10
286.925413
 20
70.33456700000001
 30
0.0
 40
4.0
100
AcDbArc
 50
180.0
 51
270.0
  0
ARC
  5
2CD
330
36
100
AcDbEntity
  8
0
 62
     3
100
AcDbCircle
 10
277.925413
 20
70.24512
 30
0.0
 40
5.0
100
AcDbArc
 50
0.0
 51
91.688518
  0
ARC
  5
2CE
330
36
100
AcDbEntity
  8
0
 62
     3
100
AcDbCircle
 10
317.925413
 20
-1286.665433
 30
0.0
 40
1362.5
100
AcDbArc
 50
86.79519599999997
 51
93.204804
  0
ARC
  5
2CF
330
36
100
AcDbEntity
  8
0
 62
     3
100
AcDbCircle
 10
242.425413
 20
61.722493
 30
0.0
 40
12.0
100
AcDbArc
 50
93.204804
 51
180.0
  0
ARC
  5
2D0
330
36
100
AcDbEntity
  8
0
 62
     3
100
AcDbCircle
 10
317.925413
 20
1404.334567
 30
0.0
 40
1362.5
100
AcDbArc
 50
266.795196
 51
273.204804
  0
LINE
  5
2D1
330
36
100
AcDbEntity
  8
0
 62
     3
100
AcDbLine
 10
230.425413
 20
55.94664
 30
0.0
 11
230.425413
 21
61.722493
 31
0.0
  0
ARC
  5
2D2
330
36
100
AcDbEntity
  8
0
 62
     3
100
AcDbCircle
 10
242.425413
 20
55.94664
 30
0.0
 40
12.0
100
AcDbArc
 50
180.0
 51
266.795196
  0
ARC
  5
2D3
330
36
100
AcDbEntity
  8
0
 62
     3
100
AcDbCircle
 10
242.425413
 20
195.607361
 30
0.0
 40
12.0
100
AcDbArc
 50
180.0
 51
266.795196
  0
LINE
  5
2D4
330
36
100
AcDbEntity
  8
0
 62
     3
100
AcDbLine
 10
230.425413
 20
195.607361
 30
0.0
 11
230.425413
 21
198.495287
 31
0.0
  0
ARC
  5
2D5
330
36
100
AcDbEntity
  8
0
 62
     3
100
AcDbCircle
 10
242.425413
 20
201.383214
 30
0.0
 40
12.0
100
AcDbArc
 50
93.204804
 51
180.0
  0
LINE
  5
2D6
330
36
100
AcDbEntity
  8
0
 62
     3
100
AcDbLine
 10
230.425413
 20
201.383214
 30
0.0
 11
230.425413
 21
198.495287
 31
0.0
  0
LINE
  5
2D7
330
36
100
AcDbEntity
  8
0
 62
     3
100
AcDbLine
 10
371.243314
 20
106.72692
 30
0.0
 11
371.801298
 21
106.72692
 31
0.0
  0
LINE
  5
2D8
330
36
100
AcDbEntity
  8
0
 62
     3
100
AcDbLine
 10
371.243314
 20
105.72692
 30
0.0
 11
371.801298
 21
105.72692
 31
0.0
  0
ARC
  5
2D9
330
36
100
AcDbEntity
  8
0
 62
     3
100
AcDbCircle
 10
373.925413
 20
146.248126
 30
0.0
 40
5.0
100
AcDbArc
 50
100.798319
 51
180.0
  0
ARC
  5
2DA
330
36
100
AcDbEntity
  8
0
 62
     3
100
AcDbCircle
 10
373.925413
 20
115.216824
 30
0.0
 40
5.0
100
AcDbArc
 50
180.0
 51
259.201681
  0
LINE
  5
2DB
330
36
100
AcDbEntity
  8
0
 62
     3
100
AcDbLine
 10
357.925413
 20
149.552071
 30
0.0
 11
373.801298
 21
151.26372
 31
0.0
  0
LINE
  5
2DC
330
36
100
AcDbEntity
  8
0
 62
     3
100
AcDbLine
 10
317.925413
 20
149.552071
 30
0.0
 11
357.925413
 21
149.552071
 31
0.0
  0
LINE
  5
2DD
330
36
100
AcDbEntity
  8
0
 62
     3
100
AcDbLine
 10
317.925413
 20
149.552071
 30
0.0
 11
277.925413
 21
149.552071
 31
0.0
  0
ARC
  5
2DE
330
36
100
AcDbEntity
  8
0
 62
     3
100
AcDbCircle
 10
305.675413
 20
51.584567
 30
0.0
 40
0.25
100
AcDbArc
 50
180.0
 51
270.0
  0
ARC
  5
2DF
330
36
100
AcDbEntity
  8
0
 62
     3
100
AcDbCircle
 10
300.175413
 20
51.584567
 30
0.0
 40
0.25
100
AcDbArc
 50
270.0
 51
0.0
  0
ARC
  5
2E0
330
36
100
AcDbEntity
  8
0
 62
     3
100
AcDbCircle
 10
305.675413
 20
66.08456700000001
 30
0.0
 40
0.25
100
AcDbArc
 50
90.0
 51
180.0
  0
ARC
  5
2E1
330
36
100
AcDbEntity
  8
0
 62
     3
100
AcDbCircle
 10
300.175413
 20
66.08456700000001
 30
0.0
 40
0.25
100
AcDbArc
 50
0.0
 51
90.0
  0
ARC
  5
2E2
330
36
100
AcDbEntity
  8
0
 62
     3
100
AcDbCircle
 10
330.175413
 20
51.584567
 30
0.0
 40
0.25
100
AcDbArc
 50
270.0
 51
0.0
  0
ARC
  5
2E3
330
36
100
AcDbEntity
  8
0
 62
     3
100
AcDbCircle
 10
335.675413
 20
51.584567
 30
0.0
 40
0.25
100
AcDbArc
 50
180.0
 51
270.0
  0
ARC
  5
2E4
330
36
100
AcDbEntity
  8
0
 62
     3
100
AcDbCircle
 10
335.675413
 20
66.08456700000001
 30
0.0
 40
0.25
100
AcDbArc
 50
90.0
 51
180.0
  0
ARC
  5
2E5
330
36
100
AcDbEntity
  8
0
 62
     3
100
AcDbCircle
 10
330.175413
 20
66.08456700000001
 30
0.0
 40
0.25
100
AcDbArc
 50
0.0
 51
90.0
  0
LINE
  5
2E6
330
36
100
AcDbEntity
  8
0
 62
     3
100
AcDbLine
 10
330.166695
 20
58.58456700000001
 30
0.0
 11
330.166695
 21
59.08456700000001
 31
0.0
  0
LINE
  5
2E7
330
36
100
AcDbEntity
  8
0
 62
     3
100
AcDbLine
 10
335.684131
 20
58.58456700000001
 30
0.0
 11
335.684131
 21
59.08456700000001
 31
0.0
  0
LINE
  5
2E8
330
36
100
AcDbEntity
  8
0
 62
     3
100
AcDbLine
 10
300.166695
 20
59.08456700000001
 30
0.0
 11
300.166695
 21
58.58456700000001
 31
0.0
  0
LINE
  5
2E9
330
36
100
AcDbEntity
  8
0
 62
     3
100
AcDbLine
 10
305.684131
 20
59.08456700000001
 30
0.0
 11
305.684131
 21
58.58456700000001
 31
0.0
  0
LINE
  5
2EA
330
36
100
AcDbEntity
  8
0
 62
     3
100
AcDbLine
 10
232.925413
 20
160.238029
 30
0.0
 11
317.925413
 21
160.238029
 31
0.0
  0
LINE
  5
2EB
330
36
100
AcDbEntity
  8
0
 62
     3
100
AcDbLine
 10
277.925413
 20
149.552071
 30
0.0
 11
235.425413
 21
154.134184
 31
0.0
  0
LINE
  5
2EC
330
36
100
AcDbEntity
  8
0
 62
     3
100
AcDbLine
 10
405.425413
 20
198.495287
 30
0.0
 11
398.425413
 21
198.495287
 31
0.0
  0
LINE
  5
2ED
330
36
100
AcDbEntity
  8
0
 62
     3
100
AcDbLine
 10
405.425413
 20
195.607361
 30
0.0
 11
405.425413
 21
198.495287
 31
0.0
  0
LINE
  5
2EE
330
36
100
AcDbEntity
  8
0
 62
     3
100
AcDbLine
 10
237.425413
 20
198.495287
 30
0.0
 11
230.425413
 21
198.495287
 31
0.0
  0
LINE
  5
2EF
330
36
100
AcDbEntity
  8
0
 62
     3
100
AcDbLine
 10
237.425413
 20
58.834567
 30
0.0
 11
230.425413
 21
58.834567
 31
0.0
  0
LINE
  5
2F0
330
36
100
AcDbEntity
  8
0
 62
     3
100
AcDbLine
 10
405.425413
 20
61.722493
 30
0.0
 11
405.425413
 21
58.834567
 31
0.0
  0
LINE
  5
2F1
330
36
100
AcDbEntity
  8
0
 62
     3
100
AcDbLine
 10
374.301298
 20
58.58456700000001
 30
0.0
 11
374.301298
 21
59.08456700000001
 31
0.0
  0
LINE
  5
2F2
330
36
100
AcDbEntity
  8
0
 62
     3
100
AcDbLine
 10
261.549528
 20
59.08456700000001
 30
0.0
 11
261.549528
 21
58.58456700000001
 31
0.0
  0
LINE
  5
2F3
330
36
100
AcDbEntity
  8
0
 62
     3
100
AcDbLine
 10
261.0495279999999
 20
193.867006
 30
0.0
 11
261.0495279999999
 21
198.245287
 31
0.0
  0
LINE
  5
2F4
330
36
100
AcDbEntity
  8
0
 62
     3
100
AcDbLine
 10
261.0495279999999
 20
203.078109
 30
0.0
 11
261.0495279999999
 21
198.745287
 31
0.0
  0
ARC
  5
2F5
330
36
100
AcDbEntity
  8
0
 62
     3
100
AcDbCircle
 10
317.925413
 20
-1147.004713
 30
0.0
 40
1355.5
100
AcDbArc
 50
92.58165899999999
 51
93.204804
  0
ARC
  5
2F6
330
36
100
AcDbEntity
  8
0
 62
     3
100
AcDbCircle
 10
242.425413
 20
201.383214
 30
0.0
 40
5.0
100
AcDbArc
 50
93.204804
 51
180.0
  0
LINE
  5
2F7
330
36
100
AcDbEntity
  8
0
 62
     3
100
AcDbLine
 10
237.425413
 20
201.383214
 30
0.0
 11
237.425413
 21
195.607361
 31
0.0
  0
ARC
  5
2F8
330
36
100
AcDbEntity
  8
0
 62
     3
100
AcDbCircle
 10
242.425413
 20
195.607361
 30
0.0
 40
5.0
100
AcDbArc
 50
180.0
 51
266.795196
  0
ARC
  5
2F9
330
36
100
AcDbEntity
  8
0
 62
     3
100
AcDbCircle
 10
317.925413
 20
1543.995287
 30
0.0
 40
1355.5
100
AcDbArc
 50
266.795196
 51
267.418341
  0
LINE
  5
2FA
330
36
100
AcDbEntity
  8
0
 62
     3
100
AcDbLine
 10
374.801298
 20
203.078109
 30
0.0
 11
374.801298
 21
198.745287
 31
0.0
  0
ARC
  5
2FB
330
36
100
AcDbEntity
  8
0
 62
     3
100
AcDbCircle
 10
317.925413
 20
-1147.004713
 30
0.0
 40
1355.5
100
AcDbArc
 50
86.79519599999997
 51
87.418341
  0
ARC
  5
2FC
330
36
100
AcDbEntity
  8
0
 62
     3
100
AcDbCircle
 10
393.425413
 20
201.383214
 30
0.0
 40
5.0
100
AcDbArc
 50
0.0
 51
86.79519599999997
  0
LINE
  5
2FD
330
36
100
AcDbEntity
  8
0
 62
     3
100
AcDbLine
 10
398.425413
 20
201.383214
 30
0.0
 11
398.425413
 21
195.607361
 31
0.0
  0
ARC
  5
2FE
330
36
100
AcDbEntity
  8
0
 62
     3
100
AcDbCircle
 10
393.425413
 20
195.607361
 30
0.0
 40
5.0
100
AcDbArc
 50
273.204804
 51
0.0
  0
ARC
  5
2FF
330
36
100
AcDbEntity
  8
0
 62
     3
100
AcDbCircle
 10
317.925413
 20
1543.995287
 30
0.0
 40
1355.5
100
AcDbArc
 50
272.581659
 51
273.204804
  0
LINE
  5
300
330
36
100
AcDbEntity
  8
0
 62
     3
100
AcDbLine
 10
374.801298
 20
193.867006
 30
0.0
 11
374.801298
 21
198.245287
 31
0.0
  0
LINE
  5
301
330
36
100
AcDbEntity
  8
0
 62
     3
100
AcDbLine
 10
348.925413
 20
66.334567
 30
0.0
 11
335.675413
 21
66.334567
 31
0.0
  0
LINE
  5
302
330
36
100
AcDbEntity
  8
0
 62
     3
100
AcDbLine
 10
330.175413
 20
66.334567
 30
0.0
 11
317.925413
 21
66.334567
 31
0.0
  0
LINE
  5
303
330
36
100
AcDbEntity
  8
0
 62
     3
100
AcDbLine
 10
348.925413
 20
51.33456699999999
 30
0.0
 11
335.675413
 21
51.33456699999999
 31
0.0
  0
LINE
  5
304
330
36
100
AcDbEntity
  8
0
 62
     3
100
AcDbLine
 10
330.175413
 20
51.33456699999999
 30
0.0
 11
317.925413
 21
51.33456699999999
 31
0.0
  0
LINE
  5
305
330
36
100
AcDbEntity
  8
0
 62
     3
100
AcDbLine
 10
286.925413
 20
66.334567
 30
0.0
 11
300.175413
 21
66.334567
 31
0.0
  0
LINE
  5
306
330
36
100
AcDbEntity
  8
0
 62
     3
100
AcDbLine
 10
305.675413
 20
66.334567
 30
0.0
 11
317.925413
 21
66.334567
 31
0.0
  0
ARC
  5
307
330
36
100
AcDbEntity
  8
0
 62
     3
100
AcDbCircle
 10
317.925413
 20
-1286.665433
 30
0.0
 40
1355.5
100
AcDbArc
 50
86.79519599999997
 51
87.418341
  0
ARC
  5
308
330
36
100
AcDbEntity
  8
0
 62
     3
100
AcDbCircle
 10
393.425413
 20
61.722493
 30
0.0
 40
5.0
100
AcDbArc
 50
0.0
 51
86.79519599999997
  0
LINE
  5
309
330
36
100
AcDbEntity
  8
0
 62
     3
100
AcDbLine
 10
398.425413
 20
55.94664
 30
0.0
 11
398.425413
 21
58.834567
 31
0.0
  0
ARC
  5
30A
330
36
100
AcDbEntity
  8
0
 62
     3
100
AcDbCircle
 10
393.425413
 20
55.94664
 30
0.0
 40
5.0
100
AcDbArc
 50
273.204804
 51
0.0
  0
ARC
  5
30B
330
36
100
AcDbEntity
  8
0
 62
     3
100
AcDbCircle
 10
317.925413
 20
1404.334567
 30
0.0
 40
1355.5
100
AcDbArc
 50
272.581659
 51
273.204804
  0
LINE
  5
30C
330
36
100
AcDbEntity
  8
0
 62
     3
100
AcDbLine
 10
374.801298
 20
63.417388
 30
0.0
 11
374.801298
 21
59.08456700000001
 31
0.0
  0
LINE
  5
30D
330
36
100
AcDbEntity
  8
0
 62
     3
100
AcDbLine
 10
398.425413
 20
61.722493
 30
0.0
 11
398.425413
 21
58.834567
 31
0.0
  0
LINE
  5
30E
330
36
100
AcDbEntity
  8
0
 62
     3
100
AcDbLine
 10
374.801298
 20
54.206285
 30
0.0
 11
374.801298
 21
58.58456700000001
 31
0.0
  0
LINE
  5
30F
330
36
100
AcDbEntity
  8
0
 62
     3
100
AcDbLine
 10
261.0495279999999
 20
54.206285
 30
0.0
 11
261.0495279999999
 21
58.58456700000001
 31
0.0
  0
LINE
  5
310
330
36
100
AcDbEntity
  8
0
 62
     3
100
AcDbLine
 10
261.0495279999999
 20
63.417388
 30
0.0
 11
261.0495279999999
 21
59.08456700000001
 31
0.0
  0
LINE
  5
311
330
36
100
AcDbEntity
  8
0
 62
     3
100
AcDbLine
 10
237.425413
 20
61.722493
 30
0.0
 11
237.425413
 21
58.834567
 31
0.0
  0
LINE
  5
312
330
36
100
AcDbEntity
  8
0
 62
     3
100
AcDbLine
 10
237.425413
 20
55.94664
 30
0.0
 11
237.425413
 21
58.834567
 31
0.0
  0
ARC
  5
313
330
36
100
AcDbEntity
  8
0
 62
     3
100
AcDbCircle
 10
317.925413
 20
-1286.665433
 30
0.0
 40
1355.5
100
AcDbArc
 50
92.58165899999999
 51
93.204804
  0
ARC
  5
314
330
36
100
AcDbEntity
  8
0
 62
     3
100
AcDbCircle
 10
317.925413
 20
1404.334567
 30
0.0
 40
1355.5
100
AcDbArc
 50
266.795196
 51
267.418341
  0
ARC
  5
315
330
36
100
AcDbEntity
  8
0
 62
     3
100
AcDbCircle
 10
277.922363
 20
202.24384
 30
0.0
 40
8.875
100
AcDbArc
 50
90.0
 51
180.0
  0
LINE
  5
316
330
36
100
AcDbEntity
  8
0
 62
     3
100
AcDbLine
 10
277.922363
 20
211.11884
 30
0.0
 11
357.9223629999999
 21
211.11884
 31
0.0
  0
LINE
  5
317
330
36
100
AcDbEntity
  8
0
 62
     3
100
AcDbLine
 10
269.047363
 20
194.74384
 30
0.0
 11
269.047363
 21
202.24384
 31
0.0
  0
LINE
  5
318
330
36
100
AcDbEntity
  8
0
 62
     3
100
AcDbLine
 10
366.797363
 20
198.49384
 30
0.0
 11
366.797363
 21
202.24384
 31
0.0
  0
LINE
  5
319
330
36
100
AcDbEntity
  8
0
 62
     3
100
AcDbLine
 10
366.797363
 20
198.49384
 30
0.0
 11
366.797363
 21
194.74384
 31
0.0
  0
LINE
  5
31A
330
36
100
AcDbEntity
  8
0
 62
     3
100
AcDbLine
 10
277.922363
 20
185.86884
 30
0.0
 11
357.9223629999999
 21
185.86884
 31
0.0
  0
ARC
  5
31B
330
36
100
AcDbEntity
  8
0
 62
     3
100
AcDbCircle
 10
357.9223629999999
 20
194.74384
 30
0.0
 40
8.875
100
AcDbArc
 50
270.0
 51
0.0
  0
ARC
  5
31C
330
36
100
AcDbEntity
  8
0
 62
     3
100
AcDbCircle
 10
357.9223629999999
 20
202.24384
 30
0.0
 40
8.875
100
AcDbArc
 50
0.0
 51
90.0
  0
ARC
  5
31D
330
36
100
AcDbEntity
  8
0
 62
     3
100
AcDbCircle
 10
242.425413
 20
61.722493
 30
0.0
 40
5.0
100
AcDbArc
 50
93.204804
 51
180.0
  0
ARC
  5
31E
330
36
100
AcDbEntity
  8
0
 62
     3
100
AcDbCircle
 10
242.425413
 20
55.94664
 30
0.0
 40
5.0
100
AcDbArc
 50
180.0
 51
266.795196
  0
LINE
  5
31F
330
36
100
AcDbEntity
  8
0
 62
     3
100
AcDbLine
 10
305.675413
 20
51.33456699999999
 30
0.0
 11
317.925413
 21
51.33456699999999
 31
0.0
  0
LINE
  5
320
330
36
100
AcDbEntity
  8
0
 62
     3
100
AcDbLine
 10
286.925413
 20
51.33456699999999
 30
0.0
 11
300.175413
 21
51.33456699999999
 31
0.0
  0
ARC
  5
321
330
36
100
AcDbEntity
  8
0
 62
     3
100
AcDbCircle
 10
286.925413
 20
47.334567
 30
0.0
 40
4.0
100
AcDbArc
 50
90.0
 51
180.0
  0
ARC
  5
322
330
36
100
AcDbEntity
  8
0
 62
     3
100
AcDbCircle
 10
348.925413
 20
47.334567
 30
0.0
 40
4.0
100
AcDbArc
 50
0.0
 51
90.0
  0
LINE
  5
323
330
36
100
AcDbEntity
  8
0
 62
     3
100
AcDbLine
 10
277.925413
 20
211.120287
 30
0.0
 11
357.925413
 21
211.120287
 31
0.0
  0
LINE
  5
324
330
36
100
AcDbEntity
  8
0
 62
     3
100
AcDbLine
 10
269.050413
 20
194.745287
 30
0.0
 11
269.050413
 21
202.245287
 31
0.0
  0
ARC
  5
325
330
36
100
AcDbEntity
  8
0
 62
     3
100
AcDbCircle
 10
277.925413
 20
194.745287
 30
0.0
 40
8.875
100
AcDbArc
 50
180.0
 51
270.0
  0
ARC
  5
326
330
36
100
AcDbEntity
  8
0
 62
     3
100
AcDbCircle
 10
357.925413
 20
202.245287
 30
0.0
 40
8.875
100
AcDbArc
 50
0.0
 51
90.0
  0
ARC
  5
327
330
36
100
AcDbEntity
  8
0
 62
     3
100
AcDbCircle
 10
357.925413
 20
194.745287
 30
0.0
 40
8.875
100
AcDbArc
 50
270.0
 51
0.0
  0
LINE
  5
328
330
36
100
AcDbEntity
  8
0
 62
     3
100
AcDbLine
 10
277.925413
 20
185.870287
 30
0.0
 11
357.925413
 21
185.870287
 31
0.0
  0
ARC
  5
329
330
36
100
AcDbEntity
  8
0
 62
     3
100
AcDbCircle
 10
257.0495279999999
 20
193.867006
 30
0.0
 40
4.0
100
AcDbArc
 50
267.418341
 51
0.0
  0
ARC
  5
32A
330
36
100
AcDbEntity
  8
0
 62
     3
100
AcDbCircle
 10
257.0495279999999
 20
203.123569
 30
0.0
 40
4.0
100
AcDbArc
 50
0.0
 51
92.58165899999999
  0
ARC
  5
32B
330
36
100
AcDbEntity
  8
0
 62
     3
100
AcDbCircle
 10
378.801298
 20
203.123569
 30
0.0
 40
4.0
100
AcDbArc
 50
87.418341
 51
180.0
  0
ARC
  5
32C
330
36
100
AcDbEntity
  8
0
 62
     3
100
AcDbCircle
 10
378.801298
 20
193.867006
 30
0.0
 40
4.0
100
AcDbArc
 50
180.0
 51
272.581659
  0
LINE
  5
32D
330
36
100
AcDbEntity
  8
0
 62
     3
100
AcDbLine
 10
366.800413
 20
198.495287
 30
0.0
 11
366.800413
 21
194.745287
 31
0.0
  0
LINE
  5
32E
330
36
100
AcDbEntity
  8
0
 62
     3
100
AcDbLine
 10
366.800413
 20
198.495287
 30
0.0
 11
366.800413
 21
202.245287
 31
0.0
  0
ARC
  5
32F
330
36
100
AcDbEntity
  8
0
 62
     3
100
AcDbCircle
 10
378.801298
 20
63.462848
 30
0.0
 40
4.0
100
AcDbArc
 50
87.418341
 51
180.0
  0
ARC
  5
330
330
36
100
AcDbEntity
  8
0
 62
     3
100
AcDbCircle
 10
378.801298
 20
54.206285
 30
0.0
 40
4.0
100
AcDbArc
 50
180.0
 51
272.581659
  0
ARC
  5
331
330
36
100
AcDbEntity
  8
0
 62
     3
100
AcDbCircle
 10
257.0495279999999
 20
63.462848
 30
0.0
 40
4.0
100
AcDbArc
 50
0.0
 51
92.58165899999999
  0
ARC
  5
332
330
36
100
AcDbEntity
  8
0
 62
     3
100
AcDbCircle
 10
257.0495279999999
 20
54.206285
 30
0.0
 40
4.0
100
AcDbArc
 50
267.418341
 51
0.0
  0
LINE
  5
333
330
36
100
AcDbEntity
  8
0
100
AcDbLine
 10
450.4951469999999
 20
153.627579
 30
0.0
 11
480.8951469999998
 21
153.627579
 31
0.0
  0
LINE
  5
334
330
36
100
AcDbEntity
  8
0
100
AcDbLine
 10
458.095147
 20
171.030206
 30
0.0
 11
458.095147
 21
156.027579
 31
0.0
  0
LINE
  5
335
330
36
100
AcDbEntity
  8
0
100
AcDbLine
 10
456.4951469999998
 20
171.030206
 30
0.0
 11
456.4951469999998
 21
156.027579
 31
0.0
  0
LINE
  5
336
330
36
100
AcDbEntity
  8
0
100
AcDbLine
 10
466.495147
 20
173.489816
 30
0.0
 11
466.495147
 21
156.027579
 31
0.0
  0
LINE
  5
337
330
36
100
AcDbEntity
  8
0
100
AcDbLine
 10
464.8951469999998
 20
173.489816
 30
0.0
 11
464.8951469999998
 21
156.027579
 31
0.0
  0
LINE
  5
338
330
36
100
AcDbEntity
  8
0
100
AcDbLine
 10
468.8951469999998
 20
170.871421
 30
0.0
 11
468.8951469999998
 21
156.027579
 31
0.0
  0
LINE
  5
339
330
36
100
AcDbEntity
  8
0
100
AcDbLine
 10
462.495147
 20
170.871421
 30
0.0
 11
462.495147
 21
156.027579
 31
0.0
  0
LINE
  5
33A
330
36
100
AcDbEntity
  8
0
100
AcDbLine
 10
474.8951469999998
 20
171.030206
 30
0.0
 11
474.8951469999998
 21
156.027579
 31
0.0
  0
LINE
  5
33B
330
36
100
AcDbEntity
  8
0
100
AcDbLine
 10
473.2951469999998
 20
171.030206
 30
0.0
 11
473.2951469999998
 21
156.027579
 31
0.0
  0
LINE
  5
33C
330
36
100
AcDbEntity
  8
0
100
AcDbLine
 10
473.5408759999998
 20
172.027579
 30
0.0
 11
474.649417
 21
172.027579
 31
0.0
  0
LINE
  5
33D
330
36
100
AcDbEntity
  8
0
100
AcDbLine
 10
456.7408759999998
 20
172.027579
 30
0.0
 11
457.8494169999998
 21
172.027579
 31
0.0
  0
LINE
  5
33E
330
36
100
AcDbEntity
  8
0
100
AcDbLine
 10
462.7601
 20
172.027579
 30
0.0
 11
464.8951469999998
 21
172.027579
 31
0.0
  0
LINE
  5
33F
330
36
100
AcDbEntity
  8
0
100
AcDbLine
 10
466.495147
 20
172.027579
 30
0.0
 11
468.6301939999999
 21
172.027579
 31
0.0
  0
LINE
  5
340
330
36
100
AcDbEntity
  8
0
100
AcDbLine
 10
474.8951469999998
 20
171.030206
 30
0.0
 11
474.649417
 21
172.027579
 31
0.0
  0
LINE
  5
341
330
36
100
AcDbEntity
  8
0
100
AcDbLine
 10
466.495147
 20
173.489816
 30
0.0
 11
466.21984
 21
174.427579
 31
0.0
  0
LINE
  5
342
330
36
100
AcDbEntity
  8
0
100
AcDbLine
 10
468.8951469999998
 20
170.871421
 30
0.0
 11
468.6301939999999
 21
172.027579
 31
0.0
  0
LINE
  5
343
330
36
100
AcDbEntity
  8
0
100
AcDbLine
 10
473.2951469999998
 20
171.030206
 30
0.0
 11
473.5408759999998
 21
172.027579
 31
0.0
  0
LINE
  5
344
330
36
100
AcDbEntity
  8
0
100
AcDbLine
 10
462.495147
 20
170.871421
 30
0.0
 11
462.7601
 21
172.027579
 31
0.0
  0
LINE
  5
345
330
36
100
AcDbEntity
  8
0
100
AcDbLine
 10
464.8951469999998
 20
173.489816
 30
0.0
 11
465.1704539999998
 21
174.427579
 31
0.0
  0
LINE
  5
346
330
36
100
AcDbEntity
  8
0
100
AcDbLine
 10
456.4951469999998
 20
171.030206
 30
0.0
 11
456.7408759999998
 21
172.027579
 31
0.0
  0
LINE
  5
347
330
36
100
AcDbEntity
  8
0
100
AcDbLine
 10
458.095147
 20
171.030206
 30
0.0
 11
457.8494169999998
 21
172.027579
 31
0.0
  0
LINE
  5
348
330
36
100
AcDbEntity
  8
0
100
AcDbLine
 10
465.1704539999998
 20
174.427579
 30
0.0
 11
466.21984
 21
174.427579
 31
0.0
  0
LINE
  5
349
330
36
100
AcDbEntity
  8
0
100
AcDbLine
 10
459.095147
 20
117.627579
 30
0.0
 11
472.2951469999999
 21
117.627579
 31
0.0
  0
LINE
  5
34A
330
36
100
AcDbEntity
  8
0
100
AcDbLine
 10
459.095147
 20
113.627579
 30
0.0
 11
472.2951469999999
 21
113.627579
 31
0.0
  0
LINE
  5
34B
330
36
100
AcDbEntity
  8
0
100
AcDbLine
 10
459.095147
 20
109.627579
 30
0.0
 11
472.2951469999999
 21
109.627579
 31
0.0
  0
LINE
  5
34C
330
36
100
AcDbEntity
  8
0
100
AcDbLine
 10
459.095147
 20
108.027579
 30
0.0
 11
472.2951469999999
 21
108.027579
 31
0.0
  0
LINE
  5
34D
330
36
100
AcDbEntity
  8
0
100
AcDbLine
 10
450.095147
 20
132.027579
 30
0.0
 11
481.2951469999998
 21
132.027579
 31
0.0
  0
LINE
  5
34E
330
36
100
AcDbEntity
  8
0
100
AcDbLine
 10
450.4951469999999
 20
148.827579
 30
0.0
 11
480.8951469999998
 21
148.827579
 31
0.0
  0
CIRCLE
  5
34F
330
36
100
AcDbEntity
  8
0
100
AcDbCircle
 10
364.176538
 20
192.88834
 30
0.0
 40
1.0
  0
CIRCLE
  5
350
330
36
100
AcDbEntity
  8
0
100
AcDbCircle
 10
364.176538
 20
204.102235
 30
0.0
 40
1.0
  0
LINE
  5
351
330
36
100
AcDbEntity
  8
0
100
AcDbLine
 10
343.796092
 20
199.304226
 30
0.0
 11
348.546092
 21
199.304226
 31
0.0
  0
LINE
  5
352
330
36
100
AcDbEntity
  8
0
100
AcDbLine
 10
348.546092
 20
197.741726
 30
0.0
 11
348.546092
 21
199.304226
 31
0.0
  0
LINE
  5
353
330
36
100
AcDbEntity
  8
0
100
AcDbLine
 10
343.796092
 20
197.679226
 30
0.0
 11
348.546092
 21
197.679226
 31
0.0
  0
LINE
  5
354
330
36
100
AcDbEntity
  8
0
100
AcDbLine
 10
343.796092
 20
197.679226
 30
0.0
 11
343.796092
 21
199.304226
 31
0.0
  0
LINE
  5
355
330
36
100
AcDbEntity
  8
0
100
AcDbLine
 10
339.046092
 20
202.866726
 30
0.0
 11
343.796092
 21
202.866726
 31
0.0
  0
LINE
  5
356
330
36
100
AcDbEntity
  8
0
100
AcDbLine
 10
343.796092
 20
202.866726
 30
0.0
 11
343.796092
 21
204.491726
 31
0.0
  0
LINE
  5
357
330
36
100
AcDbEntity
  8
0
100
AcDbLine
 10
339.046092
 20
204.491726
 30
0.0
 11
343.796092
 21
204.491726
 31
0.0
  0
LINE
  5
358
330
36
100
AcDbEntity
  8
0
100
AcDbLine
 10
339.046092
 20
202.866726
 30
0.0
 11
339.046092
 21
204.491726
 31
0.0
  0
LINE
  5
359
330
36
100
AcDbEntity
  8
0
100
AcDbLine
 10
337.046092
 20
196.116726
 30
0.0
 11
337.046092
 21
200.866726
 31
0.0
  0
LINE
  5
35A
330
36
100
AcDbEntity
  8
0
100
AcDbLine
 10
335.296092
 20
200.866726
 30
0.0
 11
337.046092
 21
200.866726
 31
0.0
  0
LINE
  5
35B
330
36
100
AcDbEntity
  8
0
100
AcDbLine
 10
335.296092
 20
196.116726
 30
0.0
 11
335.296092
 21
200.866726
 31
0.0
  0
LINE
  5
35C
330
36
100
AcDbEntity
  8
0
100
AcDbLine
 10
335.296092
 20
196.116726
 30
0.0
 11
337.046092
 21
196.116726
 31
0.0
  0
LINE
  5
35D
330
36
100
AcDbEntity
  8
0
100
AcDbLine
 10
339.046092
 20
194.116726
 30
0.0
 11
343.796092
 21
194.116726
 31
0.0
  0
LINE
  5
35E
330
36
100
AcDbEntity
  8
0
100
AcDbLine
 10
339.046092
 20
192.491726
 30
0.0
 11
343.796092
 21
192.491726
 31
0.0
  0
LINE
  5
35F
330
36
100
AcDbEntity
  8
0
100
AcDbLine
 10
343.796092
 20
192.491726
 30
0.0
 11
343.796092
 21
194.116726
 31
0.0
  0
LINE
  5
360
330
36
100
AcDbEntity
  8
0
100
AcDbLine
 10
339.046092
 20
192.491726
 30
0.0
 11
339.046092
 21
194.116726
 31
0.0
  0
CIRCLE
  5
361
330
36
100
AcDbEntity
  8
0
100
AcDbCircle
 10
341.421092
 20
198.491726
 30
0.0
 40
8.875
  0
CIRCLE
  5
362
330
36
100
AcDbEntity
  8
0
100
AcDbCircle
 10
294.423634
 20
198.491726
 30
0.0
 40
8.875
  0
LINE
  5
363
330
36
100
AcDbEntity
  8
0
100
AcDbLine
 10
296.798634
 20
197.679226
 30
0.0
 11
301.548634
 21
197.679226
 31
0.0
  0
LINE
  5
364
330
36
100
AcDbEntity
  8
0
100
AcDbLine
 10
296.798634
 20
199.304226
 30
0.0
 11
301.548634
 21
199.304226
 31
0.0
  0
LINE
  5
365
330
36
100
AcDbEntity
  8
0
100
AcDbLine
 10
296.798634
 20
197.679226
 30
0.0
 11
296.798634
 21
199.304226
 31
0.0
  0
LINE
  5
366
330
36
100
AcDbEntity
  8
0
100
AcDbLine
 10
301.548634
 20
197.741726
 30
0.0
 11
301.548634
 21
199.304226
 31
0.0
  0
CIRCLE
  5
367
330
36
100
AcDbEntity
  8
0
100
AcDbCircle
 10
317.925413
 20
208.995287
 30
0.0
 40
1.0
  0
CIRCLE
  5
368
330
36
100
AcDbEntity
  8
0
100
AcDbCircle
 10
317.925413
 20
187.995287
 30
0.0
 40
1.0
  0
LINE
  5
369
330
36
100
AcDbEntity
  8
0
100
AcDbLine
 10
292.048634
 20
204.491726
 30
0.0
 11
296.798634
 21
204.491726
 31
0.0
  0
LINE
  5
36A
330
36
100
AcDbEntity
  8
0
100
AcDbLine
 10
292.048634
 20
202.866726
 30
0.0
 11
296.798634
 21
202.866726
 31
0.0
  0
LINE
  5
36B
330
36
100
AcDbEntity
  8
0
100
AcDbLine
 10
296.798634
 20
202.866726
 30
0.0
 11
296.798634
 21
204.491726
 31
0.0
  0
LINE
  5
36C
330
36
100
AcDbEntity
  8
0
100
AcDbLine
 10
292.048634
 20
202.866726
 30
0.0
 11
292.048634
 21
204.491726
 31
0.0
  0
LINE
  5
36D
330
36
100
AcDbEntity
  8
0
100
AcDbLine
 10
290.048634
 20
196.116726
 30
0.0
 11
290.048634
 21
200.866726
 31
0.0
  0
LINE
  5
36E
330
36
100
AcDbEntity
  8
0
100
AcDbLine
 10
288.298634
 20
196.116726
 30
0.0
 11
288.298634
 21
200.866726
 31
0.0
  0
LINE
  5
36F
330
36
100
AcDbEntity
  8
0
100
AcDbLine
 10
288.298634
 20
200.866726
 30
0.0
 11
290.048634
 21
200.866726
 31
0.0
  0
LINE
  5
370
330
36
100
AcDbEntity
  8
0
100
AcDbLine
 10
288.298634
 20
196.116726
 30
0.0
 11
290.048634
 21
196.116726
 31
0.0
  0
LINE
  5
371
330
36
100
AcDbEntity
  8
0
100
AcDbLine
 10
292.048634
 20
194.116726
 30
0.0
 11
296.798634
 21
194.116726
 31
0.0
  0
LINE
  5
372
330
36
100
AcDbEntity
  8
0
100
AcDbLine
 10
292.048634
 20
192.491726
 30
0.0
 11
296.798634
 21
192.491726
 31
0.0
  0
LINE
  5
373
330
36
100
AcDbEntity
  8
0
100
AcDbLine
 10
296.798634
 20
192.491726
 30
0.0
 11
296.798634
 21
194.116726
 31
0.0
  0
LINE
  5
374
330
36
100
AcDbEntity
  8
0
100
AcDbLine
 10
292.048634
 20
192.491726
 30
0.0
 11
292.048634
 21
194.116726
 31
0.0
  0
CIRCLE
  5
375
330
36
100
AcDbEntity
  8
0
100
AcDbCircle
 10
271.674287
 20
204.102235
 30
0.0
 40
1.0
  0
CIRCLE
  5
376
330
36
100
AcDbEntity
  8
0
100
AcDbCircle
 10
271.674287
 20
192.88834
 30
0.0
 40
1.0
  0
LINE
  5
377
330
36
100
AcDbEntity
  8
0
100
AcDbLine
 10
317.925413
 20
155.738029
 30
0.0
 11
264.049528
 21
155.738029
 31
0.0
  0
LINE
  5
378
330
36
100
AcDbEntity
  8
0
100
AcDbLine
 10
317.925413
 20
154.738029
 30
0.0
 11
264.049528
 21
154.738029
 31
0.0
  0
LINE
  5
379
330
36
100
AcDbEntity
  8
0
100
AcDbLine
 10
317.925413
 20
157.738029
 30
0.0
 11
264.049528
 21
157.738029
 31
0.0
  0
ARC
  5
37A
330
36
100
AcDbEntity
  8
0
100
AcDbCircle
 10
264.049528
 20
156.738029
 30
0.0
 40
1.0
100
AcDbArc
 50
90.0
 51
269.999998
  0
ARC
  5
37B
330
36
100
AcDbEntity
  8
0
100
AcDbCircle
 10
264.049528
 20
153.738029
 30
0.0
 40
1.0
100
AcDbArc
 50
90.0
 51
270.0
  0
LINE
  5
37C
330
36
100
AcDbEntity
  8
0
100
AcDbLine
 10
264.049528
 20
152.738029
 30
0.0
 11
371.801298
 21
152.738029
 31
0.0
  0
LINE
  5
37D
330
36
100
AcDbEntity
  8
0
100
AcDbLine
 10
317.925413
 20
154.738029
 30
0.0
 11
371.801298
 21
154.738029
 31
0.0
  0
LINE
  5
37E
330
36
100
AcDbEntity
  8
0
100
AcDbLine
 10
317.925413
 20
155.738029
 30
0.0
 11
371.801298
 21
155.738029
 31
0.0
  0
LINE
  5
37F
330
36
100
AcDbEntity
  8
0
100
AcDbLine
 10
317.925413
 20
157.738029
 30
0.0
 11
371.801298
 21
157.738029
 31
0.0
  0
ARC
  5
380
330
36
100
AcDbEntity
  8
0
100
AcDbCircle
 10
371.801298
 20
156.738029
 30
0.0
 40
1.0
100
AcDbArc
 50
270.000002
 51
90.0
  0
ARC
  5
381
330
36
100
AcDbEntity
  8
0
100
AcDbCircle
 10
371.801298
 20
153.738029
 30
0.0
 40
1.0
100
AcDbArc
 50
270.0
 51
90.0
  0
ARC
  5
382
330
36
100
AcDbEntity
  8
0
100
AcDbCircle
 10
371.801298
 20
104.72692
 30
0.0
 40
1.0
100
AcDbArc
 50
270.0
 51
89.99999800000002
  0
ARC
  5
383
330
36
100
AcDbEntity
  8
0
100
AcDbCircle
 10
371.801298
 20
107.72692
 30
0.0
 40
1.0
100
AcDbArc
 50
270.0
 51
90.0
  0
LINE
  5
384
330
36
100
AcDbEntity
  8
0
100
AcDbLine
 10
359.043277
 20
108.72692
 30
0.0
 11
371.801298
 21
108.72692
 31
0.0
  0
LINE
  5
385
330
36
100
AcDbEntity
  8
0
100
AcDbLine
 10
359.043277
 20
106.72692
 30
0.0
 11
367.370331
 21
106.72692
 31
0.0
  0
LINE
  5
386
330
36
100
AcDbEntity
  8
0
100
AcDbLine
 10
358.931941
 20
105.72692
 30
0.0
 11
367.370331
 21
105.72692
 31
0.0
  0
LINE
  5
387
330
36
100
AcDbEntity
  8
0
100
AcDbLine
 10
359.043277
 20
103.72692
 30
0.0
 11
371.801298
 21
103.72692
 31
0.0
  0
ARC
  5
388
330
36
100
AcDbEntity
  8
0
100
AcDbCircle
 10
359.043277
 20
104.72692
 30
0.0
 40
1.0
100
AcDbArc
 50
90.0
 51
270.0
  0
ARC
  5
389
330
36
100
AcDbEntity
  8
0
100
AcDbCircle
 10
359.043277
 20
107.72692
 30
0.0
 40
1.0
100
AcDbArc
 50
90.00000199999998
 51
270.0
  0
ARC
  5
38A
330
36
100
AcDbEntity
  8
0
100
AcDbCircle
 10
276.807549
 20
107.72692
 30
0.0
 40
1.0
100
AcDbArc
 50
270.0
 51
89.99999800000002
  0
LINE
  5
38B
330
36
100
AcDbEntity
  8
0
100
AcDbLine
 10
276.807549
 20
108.72692
 30
0.0
 11
264.049528
 21
108.72692
 31
0.0
  0
LINE
  5
38C
330
36
100
AcDbEntity
  8
0
100
AcDbLine
 10
276.807549
 20
106.72692
 30
0.0
 11
264.049528
 21
106.72692
 31
0.0
  0
LINE
  5
38D
330
36
100
AcDbEntity
  8
0
100
AcDbLine
 10
276.918884
 20
105.72692
 30
0.0
 11
264.049528
 21
105.72692
 31
0.0
  0
ARC
  5
38E
330
36
100
AcDbEntity
  8
0
100
AcDbCircle
 10
276.807549
 20
104.72692
 30
0.0
 40
1.0
100
AcDbArc
 50
270.0
 51
90.0
  0
LINE
  5
38F
330
36
100
AcDbEntity
  8
0
100
AcDbLine
 10
276.807549
 20
103.72692
 30
0.0
 11
264.049528
 21
103.72692
 31
0.0
  0
ARC
  5
390
330
36
100
AcDbEntity
  8
0
100
AcDbCircle
 10
264.049528
 20
104.72692
 30
0.0
 40
1.0
100
AcDbArc
 50
90.00000199999998
 51
270.0
  0
ARC
  5
391
330
36
100
AcDbEntity
  8
0
100
AcDbCircle
 10
264.049528
 20
107.72692
 30
0.0
 40
1.0
100
AcDbArc
 50
90.0
 51
270.0
  0
LINE
  5
394
330
36
100
AcDbEntity
  8
0
 62
     3
100
AcDbLine
 10
505.781289
 20
-10.924845
 30
0.0
 11
505.781289
 21
12.075155
 31
0.0
  0
LINE
  5
396
330
36
100
AcDbEntity
  8
0
 62
     3
100
AcDbLine
 10
452.727679
 20
-17.924845
 30
0.0
 11
452.727679
 21
-3.924844999999999
 31
0.0
  0
TEXT
  5
398
330
36
100
AcDbEntity
  8
0
 62
     3
100
AcDbText
 10
481.791607
 20
8.280271
 30
0.0
 40
2.0
  1
A
 41
0.7
100
AcDbText
  0
TEXT
  5
399
330
36
100
AcDbEntity
  8
0
 62
     3
100
AcDbText
 10
484.3268929999998
 20
8.280271
 30
0.0
 40
2.0
  1
P
 41
0.7
100
AcDbText
  0
TEXT
  5
39A
330
36
100
AcDbEntity
  8
0
 62
     3
100
AcDbText
 10
486.862179
 20
8.280271
 30
0.0
 40
2.0
  1
P
 41
0.7
100
AcDbText
  0
TEXT
  5
39B
330
36
100
AcDbEntity
  8
0
 62
     3
100
AcDbText
 10
489.397465
 20
8.280271
 30
0.0
 40
2.0
  1
D
 41
0.7
100
AcDbText
  0
TEXT
  5
39C
330
36
100
AcDbEntity
  8
0
 62
     3
100
AcDbText
 10
494.766149
 20
8.280271
 30
0.0
 40
2.0
  1
C
 41
0.7
100
AcDbText
  0
TEXT
  5
39D
330
36
100
AcDbEntity
  8
0
 62
     3
100
AcDbText
 10
497.3014349999998
 20
8.280271
 30
0.0
 40
2.0
  1
H
 41
0.7
100
AcDbText
  0
TEXT
  5
39E
330
36
100
AcDbEntity
  8
0
 62
     3
100
AcDbText
 10
499.836721
 20
8.280271
 30
0.0
 40
2.0
  1
C
 41
0.7
100
AcDbText
  0
TEXT
  5
39F
330
36
100
AcDbEntity
  8
0
 62
     3
100
AcDbText
 10
502.372007
 20
8.280271
 30
0.0
 40
2.0
  1
K
 41
0.7
100
AcDbText
  0
TEXT
  5
3A0
330
36
100
AcDbEntity
  8
0
 62
     3
100
AcDbText
 10
508.045974
 20
8.280271
 30
0.0
 40
2.0
  1
DESN
 41
1.216762999999998
100
AcDbText
  0
TEXT
  5
3A1
330
36
100
AcDbEntity
  8
0
 62
     3
100
AcDbText
 10
423.039615
 20
-21.066227
 30
0.0
 40
2.0
  1
NICHIDO IND.CO.LTD
 41
1.274876
100
AcDbText
  0
LINE
  5
3A2
330
36
100
AcDbEntity
  8
0
 62
     3
100
AcDbLine
 10
433.4226440000001
 20
12.075155
 30
0.0
 11
433.4226440000001
 21
-10.924845
 31
0.0
  0
LINE
  5
3A3
330
36
100
AcDbEntity
  8
0
 62
     3
100
AcDbLine
 10
479.7812889999998
 20
12.075155
 30
0.0
 11
479.7812889999998
 21
-27.590568
 31
0.0
  0
LINE
  5
3A8
330
36
100
AcDbEntity
  8
0
 62
     3
100
AcDbLine
 10
492.7812889999996
 20
12.075155
 30
0.0
 11
492.7812889999998
 21
-17.924845
 31
0.0
  0
TEXT
  5
3A9
330
36
100
AcDbEntity
  8
0
 62
     3
100
AcDbText
 10
480.893733
 20
-17.060159
 30
0.0
 40
3.2
  1
作成日
 41
1.017225999999997
100
AcDbText
  0
LINE
  5
3AA
330
36
100
AcDbEntity
  8
0
 62
     3
100
AcDbLine
 10
531.4806519999998
 20
12.075155
 30
0.0
 11
420.1772099999998
 21
12.075155
 31
0.0
  0
LINE
  5
3AB
330
36
100
AcDbEntity
  8
0
 62
     3
100
AcDbLine
 10
518.781289
 20
-10.924845
 30
0.0
 11
518.781289
 21
12.075155
 31
0.0
  0
TEXT
  5
3AC
330
36
100
AcDbEntity
  8
0
 62
     3
100
AcDbText
 10
522.105092
 20
8.366089
 30
0.0
 40
1.8
  1
D
 41
0.666667
100
AcDbText
  0
TEXT
  5
3AD
330
36
100
AcDbEntity
  8
0
 62
     3
100
AcDbText
 10
524.92172
 20
8.366089
 30
0.0
 40
1.8
  1
E
 41
0.666667
100
AcDbText
  0
TEXT
  5
3AE
330
36
100
AcDbEntity
  8
0
 62
     3
100
AcDbText
 10
527.7383480000001
 20
8.366089
 30
0.0
 40
1.8
  1
F
 41
0.666667
100
AcDbText
  0
TEXT
  5
3AF
330
36
100
AcDbEntity
  8
0
 62
     3
100
AcDbText
 10
522.105092
 20
4.373535999999996
 30
0.0
 40
3.2
  1
製図
 41
1.076369
100
AcDbText
  0
LINE
  5
3B0
330
36
100
AcDbEntity
  8
0
 62
     3
100
AcDbLine
 10
420.1772099999998
 20
12.075155
 30
0.0
 11
420.1772099999998
 21
-27.590568
 31
0.0
  0
TEXT
  5
3B1
330
36
100
AcDbEntity
  8
0
 62
     3
100
AcDbText
 10
421.553863
 20
-27.258102
 30
0.0
 40
5.0
  1
日動工業株式会社
 41
0.833333
100
AcDbText
  0
LINE
  5
3B2
330
36
100
AcDbEntity
  8
0
 62
     3
100
AcDbLine
 10
463.0596139999998
 20
-3.924844999999999
 30
0.0
 11
463.0596139999998
 21
-27.590568
 31
0.0
  0
LINE
  5
3B3
330
36
100
AcDbEntity
  8
0
 62
     3
100
AcDbLine
 10
463.0596139999998
 20
-22.757707
 30
0.0
 11
479.7812889999998
 21
-22.757707
 31
0.0
  0
TEXT
  5
3B4
330
36
100
AcDbEntity
  8
0
 62
     3
100
AcDbText
 10
463.646216
 20
-21.941276
 30
0.0
 40
3.2
  1
出図コード
 41
0.8356860000000001
100
AcDbText
  0
LINE
  5
3B6
330
36
100
AcDbEntity
  8
0
 62
     3
100
AcDbLine
 10
420.1772099999998
 20
-17.924845
 30
0.0
 11
531.4806519999998
 21
-17.924845
 31
0.0
  0
LINE
  5
3B8
330
36
100
AcDbEntity
  8
0
 62
     3
100
AcDbLine
 10
420.1772099999997
 20
3.075154999999998
 30
0.0
 11
531.4806519999998
 21
3.075155
 31
0.0
  0
LINE
  5
3BE
330
36
100
AcDbEntity
  8
0
 62
     3
100
AcDbLine
 10
420.1772099999998
 20
-3.924844999999999
 30
0.0
 11
479.7812889999998
 21
-3.924844999999999
 31
0.0
  0
LINE
  5
3C4
330
36
100
AcDbEntity
  8
0
 62
     3
100
AcDbLine
 10
420.1772099999997
 20
-10.924845
 30
0.0
 11
531.4806519999998
 21
-10.924845
 31
0.0
  0
TEXT
  5
3C5
330
36
100
AcDbEntity
  8
0
 62
     3
100
AcDbText
 10
463.513667
 20
-27.13168644435973
 30
0.0
 40
3.2
  1
ZK-A3X
 41
0.8112849999999999
100
AcDbText
  0
TEXT
  5
3C6
330
36
100
AcDbEntity
  8
0
 62
     3
100
AcDbText
 10
421.994607
 20
8.24468
 30
0.0
 40
2.0
  1
CONPONENTS
 41
0.5331600000000001
100
AcDbText
  0
TEXT
  5
3C7
330
36
100
AcDbEntity
  8
0
 62
     3
100
AcDbText
 10
421.64488
 20
-10.687496
 30
0.0
 40
3.0
  1
材
 41
0.833333
100
AcDbText
  0
TEXT
  5
3C8
330
36
100
AcDbEntity
  8
0
 62
     3
100
AcDbText
 10
429.180523
 20
-10.687496
 30
0.0
 40
3.0
  1
質
 41
0.833333
100
AcDbText
  0
TEXT
  5
3C9
330
36
100
AcDbEntity
  8
0
 62
     3
100
AcDbText
 10
421.7329509999998
 20
-0.062972
 30
0.0
 40
2.0
  1
MODEL
 41
1.031072999999999
100
AcDbText
  0
TEXT
  5
3CA
330
36
100
AcDbEntity
  8
0
 62
     3
100
AcDbText
 10
421.64488
 20
-7.005188
 30
0.0
 40
2.0
  1
MATERIAL
 41
0.659278
100
AcDbText
  0
TEXT
  5
3CB
330
36
100
AcDbEntity
  8
0
 62
     3
100
AcDbText
 10
452.9521599999998
 20
-10.687496
 30
0.0
 40
3.0
  1
備
 41
0.833333
100
AcDbText
  0
TEXT
  5
3CC
330
36
100
AcDbEntity
  8
0
 62
     3
100
AcDbText
 10
459.6851619999998
 20
-10.687496
 30
0.0
 40
3.0
  1
考
 41
0.833333
100
AcDbText
  0
TEXT
  5
3CD
330
36
100
AcDbEntity
  8
0
 62
     3
100
AcDbText
 10
453.3190931912232
 20
-7.005188
 30
0.0
 40
2.0
  1
REMARKS
 41
0.675794
100
AcDbText
  0
TEXT
  5
3CE
330
36
100
AcDbEntity
  8
0
 62
     3
100
AcDbText
 10
423.234609
 20
-13.925309
 30
0.0
 40
2.0
  1
3AD
 41
1.42614
100
AcDbText
  0
TEXT
  5
3CF
330
36
100
AcDbEntity
  8
0
 62
     3
100
AcDbText
 10
432.5455889999998
 20
-13.759575
 30
0.0
 40
2.0
  1
ANGLE
 41
1.669883999999996
100
AcDbText
  0
TEXT
  5
3D0
330
36
100
AcDbEntity
  8
0
 62
     3
100
AcDbText
 10
453.4794759999998
 20
-14.136416
 30
0.0
 40
2.0
  1
SCALE
 41
0.7719630000000001
100
AcDbText
  0
TEXT
  5
3D1
330
36
100
AcDbEntity
  8
0
 62
     3
100
AcDbText
 10
422.920739
 20
-17.924845
 30
0.0
 40
3.0
  1
第
 41
0.833333
100
AcDbText
  0
TEXT
  5
3D2
330
36
100
AcDbEntity
  8
0
 62
     3
100
AcDbText
 10
430.707589
 20
-17.924845
 30
0.0
 40
3.0
  1
三
 41
0.833333
100
AcDbText
  0
TEXT
  5
3D3
330
36
100
AcDbEntity
  8
0
 62
     3
100
AcDbText
 10
438.4944389999998
 20
-17.924845
 30
0.0
 40
3.0
  1
角
 41
0.833333
100
AcDbText
  0
TEXT
  5
3D4
330
36
100
AcDbEntity
  8
0
 62
     3
100
AcDbText
 10
446.2812889999998
 20
-17.924845
 30
0.0
 40
3.0
  1
法
 41
0.833333
100
AcDbText
  0
TEXT
  5
3D5
330
36
100
AcDbEntity
  8
0
 62
     3
100
AcDbText
 10
453.3426809999999
 20
-17.636416
 30
0.0
 40
3.0
  1
尺
 41
0.833333
100
AcDbText
  0
TEXT
  5
3D6
330
36
100
AcDbEntity
  8
0
 62
     3
100
AcDbText
 10
460.0756819999999
 20
-17.636416
 30
0.0
 40
3.0
  1
度
 41
0.833333
100
AcDbText
  0
TEXT
  5
3D7
330
36
100
AcDbEntity
  8
0
 62
     3
100
AcDbText
 10
482.658953
 20
4.532883999999999
 30
0.0
 40
3.0
  1
承認
 41
1.089472999999999
100
AcDbText
  0
TEXT
  5
3D8
330
36
100
AcDbEntity
  8
0
 62
     3
100
AcDbText
 10
495.901833
 20
4.475154999999999
 30
0.0
 40
3.0
  1
検図
 41
0.931761
100
AcDbText
  0
TEXT
  5
3D9
330
36
100
AcDbEntity
  8
0
 62
     3
100
AcDbText
 10
508.9022299999998
 20
4.475154999999999
 30
0.0
 40
3.0
  1
設
 41
0.833333
100
AcDbText
  0
TEXT
  5
3DA
330
36
100
AcDbEntity
  8
0
 62
     3
100
AcDbText
 10
513.392098
 20
4.475154999999999
 30
0.0
 40
3.0
  1
計
 41
0.833333
100
AcDbText
  0
TEXT
  5
3DB
330
36
100
AcDbEntity
  8
0
 62
     3
100
AcDbText
 10
422.0647129999998
 20
4.647706999999996
 30
0.0
 40
3.0
  1
品
 41
0.833333
100
AcDbText
  0
TEXT
  5
3DC
330
36
100
AcDbEntity
  8
0
 62
     3
100
AcDbText
 10
429.600355
 20
4.647706999999996
 30
0.0
 40
3.0
  1
名
 41
0.833333
100
AcDbText
  0
TEXT
  5
3DD
330
36
100
AcDbEntity
  8
0
 62
     3
100
AcDbText
 10
421.7329509999998
 20
-3.568869162477533
 30
0.0
 40
3.0
  1
型
 41
0.833333
100
AcDbText
  0
TEXT
  5
3DE
330
36
100
AcDbEntity
  8
0
 62
     3
100
AcDbText
 10
429.281041
 20
-3.568869162477533
 30
0.0
 40
3.0
  1
式
 41
0.833333
100
AcDbText
  0
LINE
  5
3DF
330
36
100
AcDbEntity
  8
0
 62
     3
100
AcDbLine
 10
236.591162536422
 20
-27.590568
 30
0.0
 11
236.591162536422
 21
17.409432
 31
0.0
  0
LINE
  5
3E0
330
36
100
AcDbEntity
  8
0
 62
     7
100
AcDbLine
 10
182.4432730512872
 20
-27.590568
 30
0.0
 11
182.4432730512872
 21
17.409432
 31
0.0
  0
LINE
  5
3E1
330
36
100
AcDbEntity
  8
0
 62
     7
100
AcDbLine
 10
190.1807038846205
 20
-27.590568
 30
0.0
 11
190.1807038846205
 21
17.409432
 31
0.0
  0
LINE
  5
3E2
330
36
100
AcDbEntity
  8
0
 62
     7
100
AcDbLine
 10
206.3502078392136
 20
-27.590568
 30
0.0
 11
206.3502078392136
 21
17.409432
 31
0.0
  0
LINE
  5
3E3
330
36
100
AcDbEntity
  8
0
 62
     7
100
AcDbLine
 10
149.6070353333333
 20
-27.590568
 30
0.0
 11
149.6070353333333
 21
17.409432
 31
0.0
  0
TEXT
  5
3E4
330
36
100
AcDbEntity
  8
0
 62
     3
100
AcDbText
 10
183.9432730512872
 20
7.909432000000002
 30
0.0
 40
3.2
  1
1
 41
0.8
  7
高3.2
100
AcDbText
  0
TEXT
  5
3E5
330
36
100
AcDbEntity
  8
0
 62
     3
100
AcDbText
 10
183.9432730512872
 20
-17.090568
 30
0.0
 40
3.2
  1
1
 41
0.8
  7
高3.2
100
AcDbText
  0
TEXT
  5
3E6
330
36
100
AcDbEntity
  8
0
 62
     3
100
AcDbText
 10
183.9432730512872
 20
2.909432000000001
 30
0.0
 40
3.2
  1
1
 41
0.8
  7
高3.2
100
AcDbText
  0
TEXT
  5
3E7
330
36
100
AcDbEntity
  8
0
 62
     3
100
AcDbText
 10
191.6807038846205
 20
-17.090568
 30
0.0
 40
3.2
  1
ABS樹脂
 41
0.8
  7
高3.2
100
AcDbText
  0
TEXT
  5
3E8
330
36
100
AcDbEntity
  8
0
 62
     3
100
AcDbText
 10
191.6807038846205
 20
-7.090567999999997
 30
0.0
 40
3.2
  1
PF樹脂
 41
0.8
  7
高3.2
100
AcDbText
  0
TEXT
  5
3E9
330
36
100
AcDbEntity
  8
0
 62
     3
100
AcDbText
 10
183.9432730512872
 20
-2.090567999999996
 30
0.0
 40
3.2
  1
1
 41
0.8
  7
高3.2
100
AcDbText
  0
TEXT
  5
3EA
330
36
100
AcDbEntity
  8
0
 62
     3
100
AcDbText
 10
151.1070353333333
 20
-22.090568
 30
0.0
 40
3.2
  1
フレーム
 41
0.8
  7
高3.2
100
AcDbText
  0
TEXT
  5
3EB
330
36
100
AcDbEntity
  8
0
 62
     3
100
AcDbText
 10
151.1070353333333
 20
-17.090568
 30
0.0
 40
3.2
  1
コンセントパネル
 41
0.8
  7
高3.2
100
AcDbText
  0
TEXT
  5
3EC
330
36
100
AcDbEntity
  8
0
 62
     3
100
AcDbText
 10
151.1070353333333
 20
-2.090567999999996
 30
0.0
 40
3.2
  1
線止め
 41
0.8
  7
高3.2
100
AcDbText
  0
TEXT
  5
3ED
330
36
100
AcDbEntity
  8
0
 62
     3
100
AcDbText
 10
151.1070353333333
 20
2.909432000000001
 30
0.0
 40
3.2
  1
ホールプラグ
 41
0.8
  7
高3.2
100
AcDbText
  0
TEXT
  5
3EE
330
36
100
AcDbEntity
  8
0
 62
     3
100
AcDbText
 10
191.6807038846205
 20
-2.090567999999996
 30
0.0
 40
3.2
  1
PA6
 41
0.8
  7
高3.2
100
AcDbText
  0
TEXT
  5
3EF
330
36
100
AcDbEntity
  8
0
 62
     3
100
AcDbText
 10
191.6807038846205
 20
-22.090568
 30
0.0
 40
3.2
  1
ABS樹脂
 41
0.8
  7
高3.2
100
AcDbText
  0
TEXT
  5
3F0
330
36
100
AcDbEntity
  8
0
 62
     3
100
AcDbText
 10
191.6807038846205
 20
2.909432000000001
 30
0.0
 40
3.2
  1
PP樹脂
 41
0.8
  7
高3.2
100
AcDbText
  0
TEXT
  5
3F1
330
36
100
AcDbEntity
  8
0
 62
     3
100
AcDbText
 10
183.9432730512872
 20
-22.090568
 30
0.0
 40
3.2
  1
1式
 41
0.8
  7
高3.2
100
AcDbText
  0
TEXT
  5
3F2
330
36
100
AcDbEntity
  8
0
 62
     3
100
AcDbText
 10
151.1070353333333
 20
12.909432
 30
0.0
 40
3.2
  1
型式　取説表示シール
 41
0.8
  7
高3.2
100
AcDbText
  0
TEXT
  5
3F3
330
36
100
AcDbEntity
  8
0
 62
     3
100
AcDbText
 10
183.9432730512872
 20
12.909432
 30
0.0
 40
3.2
  1
各1
 41
0.8
  7
高3.2
100
AcDbText
  0
TEXT
  5
3F4
330
36
100
AcDbEntity
  8
0
 62
     3
100
AcDbText
 10
191.6807038846205
 20
-12.090568
 30
0.0
 40
3.2
  1
ネオン球
 41
0.8
  7
高3.2
100
AcDbText
  0
TEXT
  5
3F5
330
36
100
AcDbEntity
  8
0
 62
     3
100
AcDbText
 10
183.9432730512872
 20
-12.090568
 30
0.0
 40
3.2
  1
1
 41
0.8
  7
高3.2
100
AcDbText
  0
TEXT
  5
3F6
330
36
100
AcDbEntity
  8
0
 62
     3
100
AcDbText
 10
151.1070353333333
 20
-12.090568
 30
0.0
 40
3.2
  1
電源ランプ
 41
0.8
  7
高3.2
100
AcDbText
  0
TEXT
  5
3F7
330
36
100
AcDbEntity
  8
0
 62
     3
100
AcDbText
 10
142.980652
 20
12.909432
 30
0.0
 40
3.2
  1
8
 41
0.8
  7
高3.2
100
AcDbText
  0
TEXT
  5
3F8
330
36
100
AcDbEntity
  8
0
 62
     3
100
AcDbText
 10
142.980652
 20
7.909432000000002
 30
0.0
 40
3.2
  1
7
 41
0.8
  7
高3.2
100
AcDbText
  0
TEXT
  5
3F9
330
36
100
AcDbEntity
  8
0
 62
     3
100
AcDbText
 10
142.980652
 20
2.909432000000001
 30
0.0
 40
3.2
  1
6
 41
0.8
  7
高3.2
100
AcDbText
  0
TEXT
  5
3FA
330
36
100
AcDbEntity
  8
0
 62
     3
100
AcDbText
 10
142.980652
 20
-2.090567999999996
 30
0.0
 40
3.2
  1
5
 41
0.8
  7
高3.2
100
AcDbText
  0
TEXT
  5
3FB
330
36
100
AcDbEntity
  8
0
 62
     3
100
AcDbText
 10
142.980652
 20
-7.090567999999997
 30
0.0
 40
3.2
  1
4
 41
0.8
  7
高3.2
100
AcDbText
  0
TEXT
  5
3FC
330
36
100
AcDbEntity
  8
0
 62
     3
100
AcDbText
 10
142.980652
 20
-12.090568
 30
0.0
 40
3.2
  1
3
 41
0.8
  7
高3.2
100
AcDbText
  0
TEXT
  5
3FD
330
36
100
AcDbEntity
  8
0
 62
     3
100
AcDbText
 10
142.980652
 20
-17.090568
 30
0.0
 40
3.2
  1
2
 41
0.8
  7
高3.2
100
AcDbText
  0
TEXT
  5
3FE
330
36
100
AcDbEntity
  8
0
 62
     3
100
AcDbText
 10
142.980652
 20
-22.090568
 30
0.0
 40
3.2
  1
1
 41
0.8
  7
高3.2
100
AcDbText
  0
TEXT
  5
3FF
330
36
100
AcDbEntity
  8
0
 62
     3
100
AcDbText
 10
151.1070353333333
 20
7.909432000000002
 30
0.0
 40
3.2
  1
4Pプラグ付き電線
 41
0.8
  7
高3.2
100
AcDbText
  0
TEXT
  5
400
330
36
100
AcDbEntity
  8
0
 62
     3
100
AcDbText
 10
151.1070353333333
 20
-7.090567999999997
 30
0.0
 40
3.2
  1
コンセント
 41
0.8
  7
高3.2
100
AcDbText
  0
TEXT
  5
401
330
36
100
AcDbEntity
  8
0
 62
     3
100
AcDbText
 10
183.9432730512872
 20
-7.090567999999997
 30
0.0
 40
3.2
  1
2
 41
0.8
  7
高3.2
100
AcDbText
  0
TEXT
  5
402
330
36
100
AcDbEntity
  8
0
 62
     3
100
AcDbText
 10
191.6807038846205
 20
7.909432000000002
 30
0.0
 40
3.2
  1
VCT
 41
0.8
  7
高3.2
100
AcDbText
  0
TEXT
  5
403
330
36
100
AcDbEntity
  8
0
 62
     3
100
AcDbText
 10
207.8502078392136
 20
-7.090567999999997
 30
0.0
 40
3.2
  1
3PE.20A.250V
 41
0.8
  7
高3.2
100
AcDbText
  0
TEXT
  5
404
330
36
100
AcDbEntity
  8
0
 62
     3
100
AcDbText
 10
207.8502078392136
 20
-12.090568
 30
0.0
 40
3.2
  1
200V用
 41
0.8
  7
高3.2
100
AcDbText
  0
ARC
  5
405
330
36
100
AcDbEntity
  8
0
100
AcDbCircle
 10
371.301298
 20
72.09015100000002
 30
0.0
 40
1.0
100
AcDbArc
 50
0.0
 51
90.0
  0
LINE
  5
406
330
36
100
AcDbEntity
  8
0
100
AcDbLine
 10
372.301298
 20
59.08456700000001
 30
0.0
 11
372.301298
 21
72.09015100000002
 31
0.0
  0
LINE
  5
407
330
36
100
AcDbEntity
  8
0
100
AcDbLine
 10
371.301298
 20
73.090151
 30
0.0
 11
356.425413
 21
73.090151
 31
0.0
  0
ARC
  5
408
330
36
100
AcDbEntity
  8
0
100
AcDbCircle
 10
356.425413
 20
72.09015100000002
 30
0.0
 40
1.0
100
AcDbArc
 50
90.0
 51
180.0
  0
LINE
  5
409
330
36
100
AcDbEntity
  8
0
100
AcDbLine
 10
355.425413
 20
72.09015100000002
 30
0.0
 11
355.425413
 21
58.58456700000001
 31
0.0
  0
LINE
  5
40A
330
36
100
AcDbEntity
  8
0
100
AcDbLine
 10
372.301298
 20
59.08456700000001
 30
0.0
 11
372.301298
 21
45.578982
 31
0.0
  0
ARC
  5
40B
330
36
100
AcDbEntity
  8
0
100
AcDbCircle
 10
371.301298
 20
45.578982
 30
0.0
 40
1.0
100
AcDbArc
 50
270.0
 51
0.0
  0
LINE
  5
40C
330
36
100
AcDbEntity
  8
0
100
AcDbLine
 10
371.301298
 20
44.578982
 30
0.0
 11
356.425413
 21
44.578982
 31
0.0
  0
ARC
  5
40D
330
36
100
AcDbEntity
  8
0
100
AcDbCircle
 10
356.425413
 20
45.578982
 30
0.0
 40
1.0
100
AcDbArc
 50
180.0
 51
270.0
  0
LINE
  5
40E
330
36
100
AcDbEntity
  8
0
100
AcDbLine
 10
355.425413
 20
45.578982
 30
0.0
 11
355.425413
 21
58.58456700000001
 31
0.0
  0
LINE
  5
40F
330
36
100
AcDbEntity
  8
0
100
AcDbLine
 10
280.425413
 20
45.578982
 30
0.0
 11
280.425413
 21
72.09015100000002
 31
0.0
  0
ARC
  5
410
330
36
100
AcDbEntity
  8
0
100
AcDbCircle
 10
279.425413
 20
72.09015100000002
 30
0.0
 40
1.0
100
AcDbArc
 50
0.0
 51
90.0
  0
LINE
  5
411
330
36
100
AcDbEntity
  8
0
100
AcDbLine
 10
264.549528
 20
73.090151
 30
0.0
 11
279.425413
 21
73.090151
 31
0.0
  0
ARC
  5
412
330
36
100
AcDbEntity
  8
0
100
AcDbCircle
 10
264.549528
 20
72.09015100000002
 30
0.0
 40
1.0
100
AcDbArc
 50
90.0
 51
180.0
  0
LINE
  5
413
330
36
100
AcDbEntity
  8
0
100
AcDbLine
 10
263.549528
 20
72.09015100000002
 30
0.0
 11
263.549528
 21
45.578982
 31
0.0
  0
ARC
  5
414
330
36
100
AcDbEntity
  8
0
100
AcDbCircle
 10
264.549528
 20
45.578982
 30
0.0
 40
1.0
100
AcDbArc
 50
180.0
 51
270.0
  0
LINE
  5
415
330
36
100
AcDbEntity
  8
0
100
AcDbLine
 10
264.549528
 20
44.578982
 30
0.0
 11
279.425413
 21
44.578982
 31
0.0
  0
ARC
  5
416
330
36
100
AcDbEntity
  8
0
100
AcDbCircle
 10
279.425413
 20
45.578982
 30
0.0
 40
1.0
100
AcDbArc
 50
270.0
 51
0.0
  0
LINE
  5
417
330
36
100
AcDbEntity
  8
0
 62
     3
100
AcDbLine
 10
531.380616
 20
18.075155
 30
0.0
 11
479.781253
 21
18.075155
 31
0.0
  0
TEXT
  5
418
330
36
100
AcDbEntity
  8
0
 62
     3
100
AcDbText
 10
484.7759850369008
 20
12.63124
 30
0.0
 40
4.5
  1
コード
  7
高4.5
100
AcDbText
  0
LINE
  5
419
330
36
100
AcDbEntity
  8
0
 62
     3
100
AcDbLine
 10
505.781253
 20
12.075155
 30
0.0
 11
505.781253
 21
18.075155
 31
0.0
  0
LINE
  5
41A
330
36
100
AcDbEntity
  8
0
 62
     3
100
AcDbLine
 10
479.781253
 20
12.075155
 30
0.0
 11
479.781253
 21
18.075155
 31
0.0
  0
LINE
  5
426
330
36
100
AcDbEntity
  8
0
100
AcDbLine
 10
361.728165
 20
71.090151
 30
0.0
 11
353.581575
 21
82.50146800000001
 31
0.0
  0
LINE
  5
427
330
36
100
AcDbEntity
  8
0
100
AcDbLine
 10
353.581575
 20
82.50146800000001
 30
0.0
 11
337.081575
 21
82.50146800000001
 31
0.0
  0
TEXT
  5
428
330
36
100
AcDbEntity
  8
0
 62
     4
100
AcDbText
 10
339.831575
 20
83.501468
 30
0.0
 40
3.2
  1
型式銘版
 41
0.716146
100
AcDbText
  0
LINE
  5
42E
330
36
100
AcDbEntity
  8
0
100
AcDbLine
 10
272.1413720000001
 20
71.090151
 30
0.0
 11
278.630375
 21
82.50146800000001
 31
0.0
  0
LINE
  5
42F
330
36
100
AcDbEntity
  8
0
100
AcDbLine
 10
278.630375
 20
82.50146800000001
 30
0.0
 11
303.380375
 21
82.50146800000001
 31
0.0
  0
TEXT
  5
430
330
36
100
AcDbEntity
  8
0
 62
     4
100
AcDbText
 10
281.380375
 20
83.501468
 30
0.0
 40
3.2
  1
取り扱いシール
 41
0.716146
100
AcDbText
  0
LINE
  5
431
330
36
100
AcDbEntity
  8
0
 62
     3
100
AcDbLine
 10
129.078728
 20
112.909432
 30
0.0
 11
126.480652
 21
111.409432
 31
0.0
  0
LINE
  5
432
330
36
100
AcDbEntity
  8
0
 62
     3
100
AcDbLine
 10
129.078728
 20
112.909432
 30
0.0
 11
126.480652
 21
114.409432
 31
0.0
  0
LINE
  5
433
330
36
100
AcDbEntity
  8
0
 62
     3
100
AcDbLine
 10
126.480652
 20
111.409432
 30
0.0
 11
126.480652
 21
114.409432
 31
0.0
  0
LINE
  5
439
330
36
100
AcDbEntity
  8
0
100
AcDbLine
 10
463.6218480000001
 20
85.111368
 30
0.0
 11
449.2793009999998
 21
99.748491
 31
0.0
  0
CIRCLE
  5
43A
330
36
100
AcDbEntity
  8
0
100
AcDbCircle
 10
445.779886
 20
103.319778
 30
0.0
 40
5.0
  0
TEXT
  5
43B
330
36
100
AcDbEntity
  8
0
 62
     4
100
AcDbText
 10
443.661509799243
 20
99.91696899328207
 30
0.0
 40
6.299999999999998
  1
7
  7
高6.3
100
AcDbText
  0
LINE
  5
441
330
36
100
AcDbEntity
  8
0
100
AcDbLine
 10
365.568482
 20
69.57492600000001
 30
0.0
 11
371.116819
 21
84.569287
 31
0.0
  0
CIRCLE
  5
442
330
36
100
AcDbEntity
  8
0
100
AcDbCircle
 10
372.85198
 20
89.258553
 30
0.0
 40
5.0
  0
TEXT
  5
443
330
36
100
AcDbEntity
  8
0
 62
     4
100
AcDbText
 10
370.7336037992432
 20
85.85574399328207
 30
0.0
 40
6.299999999999998
  1
8
  7
高6.3
100
AcDbText
  0
LINE
  5
449
330
36
100
AcDbEntity
  8
0
100
AcDbLine
 10
351.933681
 20
117.22692
 30
0.0
 11
327.677327
 21
95.272848
 31
0.0
  0
CIRCLE
  5
44A
330
36
100
AcDbEntity
  8
0
100
AcDbCircle
 10
323.970245
 20
91.91762199999999
 30
0.0
 40
5.0
  0
TEXT
  5
44B
330
36
100
AcDbEntity
  8
0
 62
     4
100
AcDbText
 10
321.8518687992433
 20
88.51481299328209
 30
0.0
 40
6.299999999999998
  1
5
  7
高6.3
100
AcDbText
  0
LINE
  5
451
330
36
100
AcDbEntity
  8
0
100
AcDbLine
 10
284.16275
 20
121.492246
 30
0.0
 11
307.149285
 21
95.541277
 31
0.0
  0
CIRCLE
  5
452
330
36
100
AcDbEntity
  8
0
100
AcDbCircle
 10
310.464574
 20
91.79843599999999
 30
0.0
 40
5.0
  0
TEXT
  5
453
330
36
100
AcDbEntity
  8
0
 62
     4
100
AcDbText
 10
308.3461977992433
 20
88.3956269932821
 30
0.0
 40
6.299999999999998
  1
6
  7
高6.3
100
AcDbText
  0
LINE
  5
459
330
36
100
AcDbEntity
  8
0
100
AcDbLine
 10
268.531688
 20
69.57492600000001
 30
0.0
 11
262.983351
 21
84.569287
 31
0.0
  0
CIRCLE
  5
45A
330
36
100
AcDbEntity
  8
0
100
AcDbCircle
 10
261.248191
 20
89.258553
 30
0.0
 40
5.0
  0
TEXT
  5
45B
330
36
100
AcDbEntity
  8
0
 62
     4
100
AcDbText
 10
259.1298147992433
 20
85.85574399328207
 30
0.0
 40
6.299999999999998
  1
8
  7
高6.3
100
AcDbText
  0
TEXT
  5
45C
330
36
100
AcDbEntity
  8
0
 62
     3
100
AcDbText
 10
444.1850091840879
 20
41.449269
 30
0.0
 40
4.5
  1
三相200V仕様
  7
高4.5
100
AcDbText
  0
TEXT
  5
45D
330
36
100
AcDbEntity
  8
0
 62
     3
100
AcDbText
 10
438.4750281532003
 20
33.821615
 30
0.0
 40
4.5
  1
定格電圧
  7
高4.5
100
AcDbText
  0
TEXT
  5
45E
330
36
100
AcDbEntity
  8
0
 62
     3
100
AcDbText
 10
438.4750281532003
 20
27.293615
 30
0.0
 40
4.5
  1
定格電流
  7
高4.5
100
AcDbText
  0
TEXT
  5
45F
330
36
100
AcDbEntity
  8
0
 62
     3
100
AcDbText
 10
472.8056897637083
 20
27.12859
 30
0.0
 40
4.5
  1
8A
  7
高4.5
100
AcDbText
  0
TEXT
  5
460
330
36
100
AcDbEntity
  8
0
 62
     3
100
AcDbText
 10
468.6777072341079
 20
34.246681
 30
0.0
 40
4.5
  1
250V
  7
高4.5
100
AcDbText
  0
LINE
  5
466
330
36
100
AcDbEntity
  8
0
100
AcDbLine
 10
372.232982
 20
210.046023
 30
0.0
 11
378.226659
 21
222.262693
 31
0.0
  0
CIRCLE
  5
467
330
36
100
AcDbEntity
  8
0
100
AcDbCircle
 10
380.428959
 20
226.751554
 30
0.0
 40
5.0
  0
TEXT
  5
468
330
36
100
AcDbEntity
  8
0
 62
     4
100
AcDbText
 10
379.1870142796477
 20
223.5394368095482
 30
0.0
 40
6.299999999999998
  1
1
  7
高6.3
100
AcDbText
  0
LINE
  5
46E
330
36
100
AcDbEntity
  8
0
100
AcDbLine
 10
349.297691
 20
208.751168
 30
0.0
 11
354.94756
 21
222.14467
 31
0.0
  0
CIRCLE
  5
46F
330
36
100
AcDbEntity
  8
0
100
AcDbCircle
 10
356.890912
 20
226.751554
 30
0.0
 40
5.0
  0
TEXT
  5
470
330
36
100
AcDbEntity
  8
0
 62
     4
100
AcDbText
 10
354.7725357992433
 20
223.3487449932821
 30
0.0
 40
6.299999999999998
  1
2
  7
高6.3
100
AcDbText
  0
LINE
  5
476
330
36
100
AcDbEntity
  8
0
100
AcDbLine
 10
316.179045
 20
200.786523
 30
0.0
 11
308.500671
 21
222.048807
 31
0.0
  0
CIRCLE
  5
477
330
36
100
AcDbEntity
  8
0
100
AcDbCircle
 10
306.802385
 20
226.751554
 30
0.0
 40
5.0
  0
TEXT
  5
478
330
36
100
AcDbEntity
  8
0
 62
     4
100
AcDbText
 10
304.6840087992432
 20
223.3487449932821
 30
0.0
 40
6.299999999999998
  1
3
  7
高6.3
100
AcDbText
  0
LINE
  5
47E
330
36
100
AcDbEntity
  8
0
100
AcDbLine
 10
288.385912
 20
203.68935
 30
0.0
 11
281.555777
 21
222.06484
 31
0.0
  0
CIRCLE
  5
47F
330
36
100
AcDbEntity
  8
0
100
AcDbCircle
 10
279.813734
 20
226.751554
 30
0.0
 40
5.0
  0
TEXT
  5
480
330
36
100
AcDbEntity
  8
0
 62
     4
100
AcDbText
 10
277.6953577992433
 20
223.3487449932821
 30
0.0
 40
6.299999999999998
  1
4
  7
高6.3
100
AcDbText
  0
TEXT
  5
481
330
36
100
AcDbEntity
  8
0
 62
     3
100
AcDbText
 10
438.473642
 20
-3.173036999999998
 30
0.0
 40
4.5
  1
HR-E310
  7
高4.5
100
AcDbText
  0
TEXT
  5
482
330
36
100
AcDbEntity
  8
0
 62
     3
100
AcDbText
 10
482.9347281275366
 20
-26.685771
 30
0.0
 40
6.299999999999998
  1
HR-E310
  7
高6.3
100
AcDbText
  0
TEXT
  5
483
330
36
100
AcDbEntity
  8
0
 62
     3
100
AcDbText
 10
183.9432730512872
 20
-27.090568
 30
0.0
 40
3.2
  1
数
 41
0.8
  7
高3.2
100
AcDbText
  0
TEXT
  5
484
330
36
100
AcDbEntity
  8
0
 62
     3
100
AcDbText
 10
142.980652
 20
-27.090568
 30
0.0
 40
3.2
  1
No
 41
0.8
  7
高3.2
100
AcDbText
  0
TEXT
  5
485
330
36
100
AcDbEntity
  8
0
 62
     3
100
AcDbText
 10
151.1070353333333
 20
-27.090568
 30
0.0
 40
3.2
  1
部　　品　　名
 41
0.8
  7
高3.2
100
AcDbText
  0
TEXT
  5
486
330
36
100
AcDbEntity
  8
0
 62
     3
100
AcDbText
 10
191.6807038846205
 20
-27.090568
 30
0.0
 40
3.2
  1
材　　質
 41
0.8
  7
高3.2
100
AcDbText
  0
TEXT
  5
487
330
36
100
AcDbEntity
  8
0
 62
     3
100
AcDbText
 10
207.8502078392136
 20
-27.090568
 30
0.0
 40
3.2
  1
備　　　　考
 41
0.8
  7
高3.2
100
AcDbText
  0
TEXT
  5
488
330
36
100
AcDbEntity
  8
0
 62
     3
100
AcDbText
 10
510.4548853962355
 20
12.573511
 30
0.0
 40
4.5
  1
5380
  7
高4.5
100
AcDbText
  0
TEXT
  5
492
330
36
100
AcDbEntity
  8
0
 62
     3
100
AcDbText
 10
207.8502078392136
 20
7.909432000000002
 30
0.0
 40
3.2
  1
2.0sqx4cx10m
 41
0.8
  7
高3.2
100
AcDbText
  0
TEXT
  5
5A5
330
36
100
AcDbEntity
  8
0
 62
     3
100
AcDbText
 10
518.9806519999998
 20
236.909432
 30
0.0
 40
3.2
  1
担　当
  7
高3.2
100
AcDbText
  0
TEXT
  5
5A6
330
36
100
AcDbEntity
  8
0
 62
     3
100
AcDbText
 10
474.9806519999999
 20
236.909432
 30
0.0
 40
3.2
  1
変更・追記内容
  7
高3.2
100
AcDbText
  0
TEXT
  5
5A7
330
36
100
AcDbEntity
  8
0
 62
     3
100
AcDbText
 10
450.0941670003391
 20
232.2388934900917
 30
0.0
 40
2.0
  1
1
  7
高2
100
AcDbText
  0
TEXT
  5
5A8
330
36
100
AcDbEntity
  8
0
 62
     3
100
AcDbText
 10
449.7856555235816
 20
227.0690767778188
 30
0.0
 40
2.0
  1
2
  7
高2
100
AcDbText
  0
TEXT
  5
5A9
330
36
100
AcDbEntity
  8
0
 62
     3
100
AcDbText
 10
456.9806519999998
 20
236.909432
 30
0.0
 40
3.2
  1
日　付
  7
高3.2
100
AcDbText
  0
TEXT
  5
5AA
330
36
100
AcDbEntity
  8
0
 62
     3
100
AcDbText
 10
456.9806519999998
 20
241.909432
 30
0.0
 40
3.2
  1
図　　　　面　　　　略　　　　歴
  7
高3.2
100
AcDbText
  0
TEXT
  5
5AB
330
36
100
AcDbEntity
  8
0
 62
     3
100
AcDbText
 10
446.9806519999998
 20
236.909432
 30
0.0
 40
3.2
  1
記号
  7
高3.2
100
AcDbText
  0
LINE
  5
5AC
330
36
100
AcDbEntity
  8
0
100
AcDbLine
 10
450.4806519999998
 20
230.200328
 30
0.0
 11
448.5806519999998
 21
226.909432
 31
0.0
  0
LINE
  5
5AD
330
36
100
AcDbEntity
  8
0
100
AcDbLine
 10
450.4806519999998
 20
230.200328
 30
0.0
 11
452.3806519999998
 21
226.909432
 31
0.0
  0
LINE
  5
5AE
330
36
100
AcDbEntity
  8
0
100
AcDbLine
 10
448.5806519999998
 20
226.909432
 30
0.0
 11
452.3806519999998
 21
226.909432
 31
0.0
  0
LINE
  5
5AF
330
36
100
AcDbEntity
  8
0
100
AcDbLine
 10
450.4806519999998
 20
235.2003290000001
 30
0.0
 11
448.5806519999998
 21
231.909432
 31
0.0
  0
LINE
  5
5B0
330
36
100
AcDbEntity
  8
0
100
AcDbLine
 10
450.4806519999998
 20
235.2003290000001
 30
0.0
 11
452.3806519999998
 21
231.909432
 31
0.0
  0
LINE
  5
5B1
330
36
100
AcDbEntity
  8
0
100
AcDbLine
 10
448.5806519999998
 20
231.909432
 30
0.0
 11
452.3806519999998
 21
231.909432
 31
0.0
  0
LINE
  5
5B2
330
36
100
AcDbEntity
  8
0
 62
     3
100
AcDbLine
 10
445.4806519999998
 20
241.409432
 30
0.0
 11
531.4806519999998
 21
241.409432
 31
0.0
  0
LINE
  5
5B3
330
36
100
AcDbEntity
  8
0
 62
     3
100
AcDbLine
 10
445.4806519999998
 20
236.409432
 30
0.0
 11
531.4806519999998
 21
236.409432
 31
0.0
  0
LINE
  5
5B4
330
36
100
AcDbEntity
  8
0
 62
     7
100
AcDbLine
 10
445.4806519999998
 20
231.409432
 30
0.0
 11
531.4806519999998
 21
231.409432
 31
0.0
  0
LINE
  5
5B5
330
36
100
AcDbEntity
  8
0
 62
     3
100
AcDbLine
 10
445.4806519999998
 20
226.409432
 30
0.0
 11
531.4806519999998
 21
226.409432
 31
0.0
  0
LINE
  5
5B6
330
36
100
AcDbEntity
  8
0
 62
     7
100
AcDbLine
 10
517.4806519999998
 20
226.409432
 30
0.0
 11
517.4806519999998
 21
241.409432
 31
0.0
  0
LINE
  5
5B7
330
36
100
AcDbEntity
  8
0
 62
     7
100
AcDbLine
 10
473.4806519999998
 20
226.409432
 30
0.0
 11
473.4806519999998
 21
241.409432
 31
0.0
  0
LINE
  5
5B8
330
36
100
AcDbEntity
  8
0
 62
     7
100
AcDbLine
 10
455.4806519999998
 20
226.409432
 30
0.0
 11
455.4806519999998
 21
241.409432
 31
0.0
  0
LINE
  5
5B9
330
36
100
AcDbEntity
  8
0
 62
     3
100
AcDbLine
 10
445.4806519999998
 20
226.409432
 30
0.0
 11
445.4806519999998
 21
246.409432
 31
0.0
  0
LINE
  5
793
330
36
100
AcDbEntity
  8
0
 62
     7
100
AcDbLine
 10
236.591162536422
 20
-22.59056799999999
 30
0.0
 11
141.480652
 21
-22.590568
 31
0.0
  0
LINE
  5
794
330
36
100
AcDbEntity
  8
0
 62
     7
100
AcDbLine
 10
236.591162536422
 20
-17.59056799999999
 30
0.0
 11
141.480652
 21
-17.59056799999999
 31
0.0
  0
LINE
  5
795
330
36
100
AcDbEntity
  8
0
 62
     7
100
AcDbLine
 10
236.591162536422
 20
-12.59056799999999
 30
0.0
 11
141.480652
 21
-12.59056799999999
 31
0.0
  0
LINE
  5
796
330
36
100
AcDbEntity
  8
0
 62
     7
100
AcDbLine
 10
236.591162536422
 20
-7.590567999999997
 30
0.0
 11
141.480652
 21
-7.590567999999997
 31
0.0
  0
LINE
  5
797
330
36
100
AcDbEntity
  8
0
 62
     7
100
AcDbLine
 10
236.591162536422
 20
-2.590567999999997
 30
0.0
 11
141.480652
 21
-2.590567999999997
 31
0.0
  0
LINE
  5
798
330
36
100
AcDbEntity
  8
0
 62
     7
100
AcDbLine
 10
236.591162536422
 20
2.409432000000002
 30
0.0
 11
141.480652
 21
2.409432000000002
 31
0.0
  0
LINE
  5
799
330
36
100
AcDbEntity
  8
0
 62
     7
100
AcDbLine
 10
236.591162536422
 20
7.409432000000001
 30
0.0
 11
141.480652
 21
7.409432000000002
 31
0.0
  0
LINE
  5
79A
330
36
100
AcDbEntity
  8
0
 62
     7
100
AcDbLine
 10
236.591162536422
 20
12.409432
 30
0.0
 11
141.480652
 21
12.409432
 31
0.0
  0
LINE
  5
79B
330
36
100
AcDbEntity
  8
0
 62
     3
100
AcDbLine
 10
236.591162536422
 20
17.409432
 30
0.0
 11
141.480652
 21
17.409432
 31
0.0
  0
LINE
  5
849
330
36
100
AcDbEntity
  8
0
100
AcDbLine
 10
287.186774
 20
205.377324
 30
0.0
 11
288.385912
 21
203.68935
 31
0.0
  0
LINE
  5
84A
330
36
100
AcDbEntity
  8
0
100
AcDbLine
 10
288.385912
 20
203.68935
 30
0.0
 11
288.191415
 21
205.750747
 31
0.0
  0
LINE
  5
84B
330
36
100
AcDbEntity
  8
0
100
AcDbLine
 10
314.995692
 20
202.4856
 30
0.0
 11
316.179045
 21
200.786523
 31
0.0
  0
LINE
  5
84C
330
36
100
AcDbEntity
  8
0
100
AcDbLine
 10
316.179045
 20
200.786523
 30
0.0
 11
316.003769
 21
202.849643
 31
0.0
  0
LINE
  5
84D
330
36
100
AcDbEntity
  8
0
100
AcDbLine
 10
349.581268
 20
210.80221
 30
0.0
 11
349.297691
 21
208.751168
 31
0.0
  0
LINE
  5
84E
330
36
100
AcDbEntity
  8
0
100
AcDbLine
 10
349.297691
 20
208.751168
 30
0.0
 11
350.568796
 21
210.385634
 31
0.0
  0
LINE
  5
84F
330
36
100
AcDbEntity
  8
0
100
AcDbLine
 10
372.632788
 20
212.077609
 30
0.0
 11
372.232982
 21
210.046023
 31
0.0
  0
LINE
  5
850
330
36
100
AcDbEntity
  8
0
100
AcDbLine
 10
372.232982
 20
210.046023
 30
0.0
 11
373.595017
 21
211.6055259999999
 31
0.0
  0
LINE
  5
851
330
36
100
AcDbEntity
  8
0
100
AcDbLine
 10
267.33503
 20
71.264658
 30
0.0
 11
268.531688
 21
69.57492600000001
 31
0.0
  0
LINE
  5
852
330
36
100
AcDbEntity
  8
0
100
AcDbLine
 10
268.531688
 20
69.57492600000001
 30
0.0
 11
268.340218
 21
71.636606
 31
0.0
  0
LINE
  5
853
330
36
100
AcDbEntity
  8
0
100
AcDbLine
 10
285.8900220000001
 20
120.350441
 30
0.0
 11
284.16275
 21
121.492246
 31
0.0
  0
LINE
  5
854
330
36
100
AcDbEntity
  8
0
100
AcDbLine
 10
284.16275
 20
121.492246
 30
0.0
 11
285.087709
 21
119.639778
 31
0.0
  0
LINE
  5
855
330
36
100
AcDbEntity
  8
0
100
AcDbLine
 10
350.81046
 20
115.487505
 30
0.0
 11
351.933681
 21
117.22692
 31
0.0
  0
LINE
  5
856
330
36
100
AcDbEntity
  8
0
100
AcDbLine
 10
351.933681
 20
117.22692
 30
0.0
 11
350.091236
 21
116.282153
 31
0.0
  0
LINE
  5
857
330
36
100
AcDbEntity
  8
0
100
AcDbLine
 10
365.759953
 20
71.636606
 30
0.0
 11
365.568482
 21
69.57492600000001
 31
0.0
  0
LINE
  5
858
330
36
100
AcDbEntity
  8
0
100
AcDbLine
 10
365.568482
 20
69.57492600000001
 30
0.0
 11
366.765141
 21
71.264658
 31
0.0
  0
LINE
  5
859
330
36
100
AcDbEntity
  8
0
100
AcDbLine
 10
461.839313
 20
86.16481699999999
 30
0.0
 11
463.6218480000001
 21
85.111368
 31
0.0
  0
LINE
  5
85A
330
36
100
AcDbEntity
  8
0
100
AcDbLine
 10
463.6218480000001
 20
85.111368
 30
0.0
 11
462.6048519999998
 21
86.91495000000001
 31
0.0
  0
LINE
  5
85B
330
36
100
AcDbEntity
  8
0
100
AcDbLine
 10
272.664154
 20
73.09362
 30
0.0
 11
272.1413720000001
 21
71.090151
 31
0.0
  0
LINE
  5
85C
330
36
100
AcDbEntity
  8
0
100
AcDbLine
 10
272.1413720000001
 20
71.090151
 30
0.0
 11
273.5958490000001
 21
72.563815
 31
0.0
  0
LINE
  5
85D
330
36
100
AcDbEntity
  8
0
100
AcDbLine
 10
360.129942
 20
72.406537
 30
0.0
 11
361.728165
 21
71.090151
 31
0.0
  0
LINE
  5
85E
330
36
100
AcDbEntity
  8
0
100
AcDbLine
 10
361.728165
 20
71.090151
 30
0.0
 11
361.002257
 21
73.029286
 31
0.0
  0
LINE
  5
85F
330
36
100
AcDbEntity
  8
0
100
AcDbLine
 10
458.864025
 20
81.611562
 30
0.0
 11
461.1645389999998
 21
82.507234
 31
0.0
  0
LINE
  5
860
330
36
100
AcDbEntity
  8
0
100
AcDbLine
 10
461.1645389999998
 20
82.507234
 30
0.0
 11
463.468146
 21
82.78766500000001
 31
0.0
  0
LINE
  5
861
330
36
100
AcDbEntity
  8
0
100
AcDbLine
 10
463.468146
 20
82.78766500000001
 30
0.0
 11
465.504431
 21
82.26541
 31
0.0
  0
LINE
  5
862
330
36
100
AcDbEntity
  8
0
100
AcDbLine
 10
465.504431
 20
82.26541
 30
0.0
 11
467.5343599999997
 21
81.75743500000001
 31
0.0
  0
LINE
  5
863
330
36
100
AcDbEntity
  8
0
100
AcDbLine
 10
467.5343599999997
 20
81.75743500000001
 30
0.0
 11
469.9154809999998
 21
82.12366800000003
 31
0.0
  0
LINE
  5
864
330
36
100
AcDbEntity
  8
0
100
AcDbLine
 10
469.9154809999998
 20
82.12366800000003
 30
0.0
 11
472.284355
 21
83.17969899999999
 31
0.0
  0
LINE
  5
865
330
36
100
AcDbEntity
  8
0
100
AcDbLine
 10
275.175618
 20
196.1511139999999
 30
0.0
 11
275.104804
 21
196.1400539999999
 31
0.0
  0
LINE
  5
866
330
36
100
AcDbEntity
  8
0
100
AcDbLine
 10
275.104804
 20
196.1400539999999
 30
0.0
 11
275.036996
 21
196.126771
 31
0.0
  0
LINE
  5
867
330
36
100
AcDbEntity
  8
0
100
AcDbLine
 10
275.036996
 20
196.126771
 30
0.0
 11
274.972719
 21
196.111369
 31
0.0
  0
LINE
  5
868
330
36
100
AcDbEntity
  8
0
100
AcDbLine
 10
274.972719
 20
196.111369
 30
0.0
 11
274.912468
 21
196.093965
 31
0.0
  0
LINE
  5
869
330
36
100
AcDbEntity
  8
0
100
AcDbLine
 10
274.912468
 20
196.093965
 30
0.0
 11
274.85671
 21
196.074695
 31
0.0
  0
LINE
  5
86A
330
36
100
AcDbEntity
  8
0
100
AcDbLine
 10
274.85671
 20
196.074695
 30
0.0
 11
274.805876
 21
196.053707
 31
0.0
  0
LINE
  5
86B
330
36
100
AcDbEntity
  8
0
100
AcDbLine
 10
274.805876
 20
196.053707
 30
0.0
 11
274.760359
 21
196.031164
 31
0.0
  0
LINE
  5
86C
330
36
100
AcDbEntity
  8
0
100
AcDbLine
 10
274.760359
 20
196.031164
 30
0.0
 11
274.72051
 21
196.007239
 31
0.0
  0
LINE
  5
86D
330
36
100
AcDbEntity
  8
0
100
AcDbLine
 10
274.72051
 20
196.007239
 30
0.0
 11
274.686638
 21
195.9821189999999
 31
0.0
  0
LINE
  5
86E
330
36
100
AcDbEntity
  8
0
100
AcDbLine
 10
274.686638
 20
195.9821189999999
 30
0.0
 11
274.659003
 21
195.955997
 31
0.0
  0
LINE
  5
86F
330
36
100
AcDbEntity
  8
0
100
AcDbLine
 10
274.659003
 20
195.955997
 30
0.0
 11
274.637821
 21
195.929074
 31
0.0
  0
LINE
  5
870
330
36
100
AcDbEntity
  8
0
100
AcDbLine
 10
274.637821
 20
195.929074
 30
0.0
 11
274.623255
 21
195.90156
 31
0.0
  0
LINE
  5
871
330
36
100
AcDbEntity
  8
0
100
AcDbLine
 10
274.623255
 20
195.90156
 30
0.0
 11
274.6154160000001
 21
195.8736659999999
 31
0.0
  0
LINE
  5
872
330
36
100
AcDbEntity
  8
0
100
AcDbLine
 10
274.6154160000001
 20
195.8736659999999
 30
0.0
 11
274.614367
 21
195.845609
 31
0.0
  0
LINE
  5
873
330
36
100
AcDbEntity
  8
0
100
AcDbLine
 10
274.614367
 20
195.845609
 30
0.0
 11
274.620114
 21
195.817604
 31
0.0
  0
LINE
  5
874
330
36
100
AcDbEntity
  8
0
100
AcDbLine
 10
274.620114
 20
195.817604
 30
0.0
 11
274.632614
 21
195.78987
 31
0.0
  0
LINE
  5
875
330
36
100
AcDbEntity
  8
0
100
AcDbLine
 10
274.632614
 20
195.78987
 30
0.0
 11
274.651769
 21
195.762619
 31
0.0
  0
LINE
  5
876
330
36
100
AcDbEntity
  8
0
100
AcDbLine
 10
274.651769
 20
195.762619
 30
0.0
 11
274.677433
 21
195.736063
 31
0.0
  0
LINE
  5
877
330
36
100
AcDbEntity
  8
0
100
AcDbLine
 10
274.677433
 20
195.736063
 30
0.0
 11
274.709405
 21
195.710407
 31
0.0
  0
LINE
  5
878
330
36
100
AcDbEntity
  8
0
100
AcDbLine
 10
274.709405
 20
195.710407
 30
0.0
 11
274.7474410000001
 21
195.685849
 31
0.0
  0
LINE
  5
879
330
36
100
AcDbEntity
  8
0
100
AcDbLine
 10
274.7474410000001
 20
195.685849
 30
0.0
 11
274.791244
 21
195.662579
 31
0.0
  0
LINE
  5
87A
330
36
100
AcDbEntity
  8
0
100
AcDbLine
 10
274.791244
 20
195.662579
 30
0.0
 11
274.840477
 21
195.640777
 31
0.0
  0
LINE
  5
87B
330
36
100
AcDbEntity
  8
0
100
AcDbLine
 10
274.840477
 20
195.640777
 30
0.0
 11
274.89476
 21
195.620611
 31
0.0
  0
LINE
  5
87C
330
36
100
AcDbEntity
  8
0
100
AcDbLine
 10
274.89476
 20
195.620611
 30
0.0
 11
274.953672
 21
195.602238
 31
0.0
  0
LINE
  5
87D
330
36
100
AcDbEntity
  8
0
100
AcDbLine
 10
274.953672
 20
195.602238
 30
0.0
 11
275.016758
 21
195.585798
 31
0.0
  0
LINE
  5
87E
330
36
100
AcDbEntity
  8
0
100
AcDbLine
 10
275.016758
 20
195.585798
 30
0.0
 11
275.083531
 21
195.571421
 31
0.0
  0
LINE
  5
87F
330
36
100
AcDbEntity
  8
0
100
AcDbLine
 10
275.083531
 20
195.571421
 30
0.0
 11
275.153474
 21
195.559215
 31
0.0
  0
LINE
  5
880
330
36
100
AcDbEntity
  8
0
100
AcDbLine
 10
275.153474
 20
195.559215
 30
0.0
 11
275.226048
 21
195.549277
 31
0.0
  0
LINE
  5
881
330
36
100
AcDbEntity
  8
0
100
AcDbLine
 10
275.226048
 20
195.549277
 30
0.0
 11
275.30069
 21
195.541682
 31
0.0
  0
LINE
  5
882
330
36
100
AcDbEntity
  8
0
100
AcDbLine
 10
275.30069
 20
195.541682
 30
0.0
 11
275.376824
 21
195.53649
 31
0.0
  0
LINE
  5
883
330
36
100
AcDbEntity
  8
0
100
AcDbLine
 10
275.376824
 20
195.53649
 30
0.0
 11
275.453862
 21
195.53374
 31
0.0
  0
LINE
  5
884
330
36
100
AcDbEntity
  8
0
100
AcDbLine
 10
275.453862
 20
195.53374
 30
0.0
 11
275.531208
 21
195.533454
 31
0.0
  0
LINE
  5
885
330
36
100
AcDbEntity
  8
0
100
AcDbLine
 10
275.531208
 20
195.533454
 30
0.0
 11
275.608264
 21
195.535633
 31
0.0
  0
LINE
  5
886
330
36
100
AcDbEntity
  8
0
100
AcDbLine
 10
275.608264
 20
195.535633
 30
0.0
 11
275.684434
 21
195.540262
 31
0.0
  0
LINE
  5
887
330
36
100
AcDbEntity
  8
0
100
AcDbLine
 10
275.684434
 20
195.540262
 30
0.0
 11
275.759131
 21
195.547305
 31
0.0
  0
LINE
  5
888
330
36
100
AcDbEntity
  8
0
100
AcDbLine
 10
275.759131
 20
195.547305
 30
0.0
 11
275.831775
 21
195.556706
 31
0.0
  0
LINE
  5
889
330
36
100
AcDbEntity
  8
0
100
AcDbLine
 10
275.831775
 20
195.556706
 30
0.0
 11
275.901807
 21
195.568393
 31
0.0
  0
LINE
  5
88A
330
36
100
AcDbEntity
  8
0
100
AcDbLine
 10
275.901807
 20
195.568393
 30
0.0
 11
275.968685
 21
195.582276
 31
0.0
  0
LINE
  5
88B
330
36
100
AcDbEntity
  8
0
100
AcDbLine
 10
275.968685
 20
195.582276
 30
0.0
 11
276.031891
 21
195.598248
 31
0.0
  0
LINE
  5
88C
330
36
100
AcDbEntity
  8
0
100
AcDbLine
 10
276.031891
 20
195.598248
 30
0.0
 11
276.090937
 21
195.616185
 31
0.0
  0
LINE
  5
88D
330
36
100
AcDbEntity
  8
0
100
AcDbLine
 10
276.090937
 20
195.616185
 30
0.0
 11
276.145368
 21
195.635948
 31
0.0
  0
LINE
  5
88E
330
36
100
AcDbEntity
  8
0
100
AcDbLine
 10
276.145368
 20
195.635948
 30
0.0
 11
276.1947609999999
 21
195.657386
 31
0.0
  0
LINE
  5
88F
330
36
100
AcDbEntity
  8
0
100
AcDbLine
 10
276.1947609999999
 20
195.657386
 30
0.0
 11
276.238735
 21
195.680331
 31
0.0
  0
LINE
  5
890
330
36
100
AcDbEntity
  8
0
100
AcDbLine
 10
276.238735
 20
195.680331
 30
0.0
 11
276.276951
 21
195.704607
 31
0.0
  0
LINE
  5
891
330
36
100
AcDbEntity
  8
0
100
AcDbLine
 10
276.276951
 20
195.704607
 30
0.0
 11
276.309113
 21
195.730025
 31
0.0
  0
LINE
  5
892
330
36
100
AcDbEntity
  8
0
100
AcDbLine
 10
276.309113
 20
195.730025
 30
0.0
 11
276.334972
 21
195.756391
 31
0.0
  0
LINE
  5
893
330
36
100
AcDbEntity
  8
0
100
AcDbLine
 10
276.334972
 20
195.756391
 30
0.0
 11
276.354329
 21
195.783499
 31
0.0
  0
LINE
  5
894
330
36
100
AcDbEntity
  8
0
100
AcDbLine
 10
276.354329
 20
195.783499
 30
0.0
 11
276.367034
 21
195.81114
 31
0.0
  0
LINE
  5
895
330
36
100
AcDbEntity
  8
0
100
AcDbLine
 10
276.367034
 20
195.81114
 30
0.0
 11
276.372988
 21
195.839101
 31
0.0
  0
LINE
  5
896
330
36
100
AcDbEntity
  8
0
100
AcDbLine
 10
276.372988
 20
195.839101
 30
0.0
 11
276.372146
 21
195.867166
 31
0.0
  0
LINE
  5
897
330
36
100
AcDbEntity
  8
0
100
AcDbLine
 10
276.372146
 20
195.867166
 30
0.0
 11
276.364514
 21
195.895117
 31
0.0
  0
LINE
  5
898
330
36
100
AcDbEntity
  8
0
100
AcDbLine
 10
276.364514
 20
195.895117
 30
0.0
 11
276.350152
 21
195.922738
 31
0.0
  0
LINE
  5
899
330
36
100
AcDbEntity
  8
0
100
AcDbLine
 10
276.350152
 20
195.922738
 30
0.0
 11
276.329169
 21
195.949817
 31
0.0
  0
LINE
  5
89A
330
36
100
AcDbEntity
  8
0
100
AcDbLine
 10
276.329169
 20
195.949817
 30
0.0
 11
276.301729
 21
195.976143
 31
0.0
  0
LINE
  5
89B
330
36
100
AcDbEntity
  8
0
100
AcDbLine
 10
276.301729
 20
195.976143
 30
0.0
 11
276.268043
 21
196.001513
 31
0.0
  0
LINE
  5
89C
330
36
100
AcDbEntity
  8
0
100
AcDbLine
 10
276.268043
 20
196.001513
 30
0.0
 11
276.228373
 21
196.025732
 31
0.0
  0
LINE
  5
89D
330
36
100
AcDbEntity
  8
0
100
AcDbLine
 10
276.228373
 20
196.025732
 30
0.0
 11
276.183023
 21
196.048611
 31
0.0
  0
LINE
  5
89E
330
36
100
AcDbEntity
  8
0
100
AcDbLine
 10
276.183023
 20
196.048611
 30
0.0
 11
276.132346
 21
196.069975
 31
0.0
  0
LINE
  5
89F
330
36
100
AcDbEntity
  8
0
100
AcDbLine
 10
276.132346
 20
196.069975
 30
0.0
 11
276.076732
 21
196.089657
 31
0.0
  0
LINE
  5
8A0
330
36
100
AcDbEntity
  8
0
100
AcDbLine
 10
276.076732
 20
196.089657
 30
0.0
 11
276.016612
 21
196.107506
 31
0.0
  0
LINE
  5
8A1
330
36
100
AcDbEntity
  8
0
100
AcDbLine
 10
276.016612
 20
196.107506
 30
0.0
 11
275.952451
 21
196.123384
 31
0.0
  0
LINE
  5
8A2
330
36
100
AcDbEntity
  8
0
100
AcDbLine
 10
275.952451
 20
196.123384
 30
0.0
 11
275.884743
 21
196.137168
 31
0.0
  0
LINE
  5
8A3
330
36
100
AcDbEntity
  8
0
100
AcDbLine
 10
275.884743
 20
196.137168
 30
0.0
 11
275.814013
 21
196.148752
 31
0.0
  0
LINE
  5
8A4
330
36
100
AcDbEntity
  8
0
100
AcDbLine
 10
417.243749
 20
150.196891
 30
0.0
 11
416.297415
 21
148.33099
 31
0.0
  0
LINE
  5
8A5
330
36
100
AcDbEntity
  8
0
100
AcDbLine
 10
416.297415
 20
148.33099
 30
0.0
 11
416.1587629999998
 21
146.522802
 31
0.0
  0
LINE
  5
8A6
330
36
100
AcDbEntity
  8
0
100
AcDbLine
 10
416.1587629999998
 20
146.522802
 30
0.0
 11
416.668439
 21
145.481688
 31
0.0
  0
LINE
  5
8A7
330
36
100
AcDbEntity
  8
0
100
AcDbLine
 10
416.668439
 20
145.481688
 30
0.0
 11
417.1486269999999
 21
144.447953
 31
0.0
  0
LINE
  5
8A8
330
36
100
AcDbEntity
  8
0
100
AcDbLine
 10
417.1486269999999
 20
144.447953
 30
0.0
 11
416.886327
 21
142.757288
 31
0.0
  0
LINE
  5
8A9
330
36
100
AcDbEntity
  8
0
100
AcDbLine
 10
416.886327
 20
142.757288
 30
0.0
 11
415.8080009999998
 21
141.032478
 31
0.0
  0
LINE
  5
8AA
330
36
100
AcDbEntity
  8
0
100
AcDbLine
 10
317.675413
 20
181.495287
 30
0.0
 11
211.306385
 21
181.495287
 31
0.0
  0
LINE
  5
8AB
330
36
100
AcDbEntity
  8
0
100
AcDbLine
 10
317.675413
 20
215.495287
 30
0.0
 11
211.306385
 21
215.495287
 31
0.0
  0
LINE
  5
8AC
330
36
100
AcDbEntity
  8
0
100
AcDbLine
 10
212.556385
 20
183.995287
 30
0.0
 11
212.556385
 21
212.995287
 31
0.0
  0
LINE
  5
8B0
330
36
100
AcDbEntity
  8
0
100
AcDbLine
 10
230.425413
 20
195.357361
 30
0.0
 11
230.425413
 21
171.162144
 31
0.0
  0
LINE
  5
8B1
330
36
100
AcDbEntity
  8
0
100
AcDbLine
 10
405.425413
 20
195.357361
 30
0.0
 11
405.425413
 21
171.162144
 31
0.0
  0
LINE
  5
8B2
330
36
100
AcDbEntity
  8
0
100
AcDbLine
 10
232.925413
 20
172.412144
 30
0.0
 11
402.9254129999999
 21
172.412144
 31
0.0
  0
LINE
  5
8B6
330
36
100
AcDbEntity
  8
0
100
AcDbLine
 10
241.50455
 20
183.626128
 30
0.0
 11
219.740548
 21
183.626128
 31
0.0
  0
LINE
  5
8B7
330
36
100
AcDbEntity
  8
0
100
AcDbLine
 10
241.50455
 20
213.364447
 30
0.0
 11
219.740548
 21
213.364447
 31
0.0
  0
LINE
  5
8B8
330
36
100
AcDbEntity
  8
0
100
AcDbLine
 10
220.990548
 20
186.126128
 30
0.0
 11
220.990548
 21
210.864447
 31
0.0
  0
LINE
  5
8BC
330
36
100
AcDbEntity
  8
0
100
AcDbLine
 10
232.675413
 20
101.22692
 30
0.0
 11
217.941616
 21
101.22692
 31
0.0
  0
LINE
  5
8BD
330
36
100
AcDbEntity
  8
0
100
AcDbLine
 10
232.675413
 20
160.238029
 30
0.0
 11
217.941616
 21
160.238029
 31
0.0
  0
LINE
  5
8BE
330
36
100
AcDbEntity
  8
0
100
AcDbLine
 10
219.191616
 20
103.72692
 30
0.0
 11
219.191616
 21
157.738029
 31
0.0
  0
TEXT
  5
8C2
330
36
100
AcDbEntity
  8
0
  6
Continuous
 62
     4
100
AcDbText
 10
211.931385
 20
195.9952870000001
 30
0.0
 40
3.0
  1
68
 50
90.0
100
AcDbText
  0
LINE
  5
8C3
330
36
100
AcDbEntity
  8
0
  6
ByBlock
 62
     0
370
    -2
100
AcDbLine
 10
211.8865125
 20
212.995287
 30
0.0
 11
212.556385
 21
215.495287
 31
0.0
  0
LINE
  5
8C4
330
36
100
AcDbEntity
  8
0
  6
ByBlock
 62
     0
370
    -2
100
AcDbLine
 10
212.556385
 20
215.495287
 30
0.0
 11
213.2262575
 21
212.995287
 31
0.0
  0
LINE
  5
8C5
330
36
100
AcDbEntity
  8
0
  6
ByBlock
 62
     0
370
    -2
100
AcDbLine
 10
212.556385
 20
215.495287
 30
0.0
 11
212.556385
 21
212.995287
 31
0.0
  0
LINE
  5
8C6
330
36
100
AcDbEntity
  8
0
  6
ByBlock
 62
     0
370
    -2
100
AcDbLine
 10
213.2262575
 20
183.995287
 30
0.0
 11
212.556385
 21
181.495287
 31
0.0
  0
LINE
  5
8C7
330
36
100
AcDbEntity
  8
0
  6
ByBlock
 62
     0
370
    -2
100
AcDbLine
 10
212.556385
 20
181.495287
 30
0.0
 11
211.8865125
 21
183.995287
 31
0.0
  0
LINE
  5
8C8
330
36
100
AcDbEntity
  8
0
  6
ByBlock
 62
     0
370
    -2
100
AcDbLine
 10
212.556385
 20
181.495287
 30
0.0
 11
212.556385
 21
183.995287
 31
0.0
  0
TEXT
  5
8C9
330
36
100
AcDbEntity
  8
0
  6
Continuous
 62
     4
100
AcDbText
 10
314.175413
 20
173.037144
 30
0.0
 40
3.0
  1
350
100
AcDbText
  0
LINE
  5
8CA
330
36
100
AcDbEntity
  8
0
  6
ByBlock
 62
     0
370
    -2
100
AcDbLine
 10
402.9254129999999
 20
173.0820165
 30
0.0
 11
405.425413
 21
172.412144
 31
0.0
  0
LINE
  5
8CB
330
36
100
AcDbEntity
  8
0
  6
ByBlock
 62
     0
370
    -2
100
AcDbLine
 10
405.425413
 20
172.412144
 30
0.0
 11
402.9254129999999
 21
171.7422715
 31
0.0
  0
LINE
  5
8CC
330
36
100
AcDbEntity
  8
0
  6
ByBlock
 62
     0
370
    -2
100
AcDbLine
 10
405.425413
 20
172.412144
 30
0.0
 11
402.9254129999999
 21
172.412144
 31
0.0
  0
LINE
  5
8CD
330
36
100
AcDbEntity
  8
0
  6
ByBlock
 62
     0
370
    -2
100
AcDbLine
 10
232.925413
 20
171.7422715
 30
0.0
 11
230.425413
 21
172.412144
 31
0.0
  0
LINE
  5
8CE
330
36
100
AcDbEntity
  8
0
  6
ByBlock
 62
     0
370
    -2
100
AcDbLine
 10
230.425413
 20
172.412144
 30
0.0
 11
232.925413
 21
173.0820165
 31
0.0
  0
LINE
  5
8CF
330
36
100
AcDbEntity
  8
0
  6
ByBlock
 62
     0
370
    -2
100
AcDbLine
 10
230.425413
 20
172.412144
 30
0.0
 11
232.925413
 21
172.412144
 31
0.0
  0
TEXT
  5
8D0
330
36
100
AcDbEntity
  8
0
  6
Continuous
 62
     4
100
AcDbText
 10
220.3655479999999
 20
196.2452875000001
 30
0.0
 40
3.0
  1
60
 50
90.0
100
AcDbText
  0
LINE
  5
8D1
330
36
100
AcDbEntity
  8
0
  6
ByBlock
 62
     0
370
    -2
100
AcDbLine
 10
220.3206755
 20
210.864447
 30
0.0
 11
220.990548
 21
213.364447
 31
0.0
  0
LINE
  5
8D2
330
36
100
AcDbEntity
  8
0
  6
ByBlock
 62
     0
370
    -2
100
AcDbLine
 10
220.990548
 20
213.364447
 30
0.0
 11
221.6604205
 21
210.864447
 31
0.0
  0
LINE
  5
8D3
330
36
100
AcDbEntity
  8
0
  6
ByBlock
 62
     0
370
    -2
100
AcDbLine
 10
220.990548
 20
213.364447
 30
0.0
 11
220.990548
 21
210.864447
 31
0.0
  0
LINE
  5
8D4
330
36
100
AcDbEntity
  8
0
  6
ByBlock
 62
     0
370
    -2
100
AcDbLine
 10
221.6604204999999
 20
186.126128
 30
0.0
 11
220.990548
 21
183.626128
 31
0.0
  0
LINE
  5
8D5
330
36
100
AcDbEntity
  8
0
  6
ByBlock
 62
     0
370
    -2
100
AcDbLine
 10
220.990548
 20
183.626128
 30
0.0
 11
220.3206755
 21
186.126128
 31
0.0
  0
LINE
  5
8D6
330
36
100
AcDbEntity
  8
0
  6
ByBlock
 62
     0
370
    -2
100
AcDbLine
 10
220.990548
 20
183.626128
 30
0.0
 11
220.990548
 21
186.126128
 31
0.0
  0
TEXT
  5
8D7
330
36
100
AcDbEntity
  8
0
  6
Continuous
 62
     4
100
AcDbText
 10
218.566616
 20
127.7324745
 30
0.0
 40
3.0
  1
118
 50
90.0
100
AcDbText
  0
LINE
  5
8D8
330
36
100
AcDbEntity
  8
0
  6
ByBlock
 62
     0
370
    -2
100
AcDbLine
 10
218.5217435
 20
157.738029
 30
0.0
 11
219.191616
 21
160.238029
 31
0.0
  0
LINE
  5
8D9
330
36
100
AcDbEntity
  8
0
  6
ByBlock
 62
     0
370
    -2
100
AcDbLine
 10
219.191616
 20
160.238029
 30
0.0
 11
219.8614885
 21
157.738029
 31
0.0
  0
LINE
  5
8DA
330
36
100
AcDbEntity
  8
0
  6
ByBlock
 62
     0
370
    -2
100
AcDbLine
 10
219.191616
 20
160.238029
 30
0.0
 11
219.191616
 21
157.738029
 31
0.0
  0
LINE
  5
8DB
330
36
100
AcDbEntity
  8
0
  6
ByBlock
 62
     0
370
    -2
100
AcDbLine
 10
219.8614885
 20
103.72692
 30
0.0
 11
219.191616
 21
101.22692
 31
0.0
  0
LINE
  5
8DC
330
36
100
AcDbEntity
  8
0
  6
ByBlock
 62
     0
370
    -2
100
AcDbLine
 10
219.191616
 20
101.22692
 30
0.0
 11
218.5217435
 21
103.72692
 31
0.0
  0
LINE
  5
8DD
330
36
100
AcDbEntity
  8
0
  6
ByBlock
 62
     0
370
    -2
100
AcDbLine
 10
219.191616
 20
101.22692
 30
0.0
 11
219.191616
 21
103.72692
 31
0.0
  0
ENDSEC
  0
SECTION
  2
OBJECTS
  0
DICTIONARY
  5
C
330
0
100
AcDbDictionary
281
     1
  3
ACAD_2007HEADERVARS_RT
350
8E1
  3
ACAD_COLOR
350
2F
  3
ACAD_GROUP
350
D
  3
ACAD_LAYOUT
350
2E
  3
ACAD_MATERIAL
350
10
  3
ACAD_MLEADERSTYLE
350
4C7
  3
ACAD_MLINESTYLE
350
2B
  3
ACAD_PLOTSETTINGS
350
2D
  3
ACAD_PLOTSTYLENAME
350
E
  3
ACAD_SCALELIST
350
4B5
  3
ACAD_TABLESTYLE
350
30
  3
ACAD_VISUALSTYLE
350
14
  3
ACDB_RECOMPOSE_DATA
350
8DF
  3
AcDbVariableDictionary
350
495
  3
DWGPROPS
350
8E0
  0
DICTIONARY
  5
570
330
2
100
AcDbDictionary
280
     1
281
     1
  3
ACAD_LAYERSTATES
360
571
  0
DICTIONARY
  5
721
330
25
100
AcDbDictionary
280
     1
281
     1
  3
ADSK_XREC_LAYER_RECONCILED
360
722
  0
DICTIONARY
  5
6FB
330
36
100
AcDbDictionary
280
     1
281
     1
  3
ACAD_SORTENTS
360
6FC
  0
DICTIONARY
  5
8E1
102
{ACAD_REACTORS
330
C
102
}
330
C
100
AcDbDictionary
281
     1
  3
DIMARCSYM
350
8E3
  3
DIMFXL
350
8E2
  3
DIMJOGANG
350
8E4
  0
DICTIONARY
  5
2F
102
{ACAD_REACTORS
330
C
102
}
330
C
100
AcDbDictionary
281
     1
  0
DICTIONARY
  5
D
102
{ACAD_REACTORS
330
C
102
}
330
C
100
AcDbDictionary
281
     1
  0
DICTIONARY
  5
2E
102
{ACAD_REACTORS
330
C
102
}
330
C
100
AcDbDictionary
281
     1
  3
Model
350
39
  3
レイアウト1
350
35
  0
DICTIONARY
  5
10
102
{ACAD_REACTORS
330
C
102
}
330
C
100
AcDbDictionary
281
     1
  3
ByBlock
350
12
  3
ByLayer
350
11
  3
Global
350
13
  0
DICTIONARY
  5
4C7
102
{ACAD_REACTORS
330
C
102
}
330
C
100
AcDbDictionary
281
     1
  3
Standard
350
4C8
  0
DICTIONARY
  5
2B
102
{ACAD_REACTORS
330
C
102
}
330
C
100
AcDbDictionary
281
     1
  3
Standard
350
2C
  0
DICTIONARY
  5
2D
102
{ACAD_REACTORS
330
C
102
}
330
C
100
AcDbDictionary
281
     1
  0
ACDBDICTIONARYWDFLT
  5
E
102
{ACAD_REACTORS
330
C
102
}
330
C
100
AcDbDictionary
281
     1
  3
Normal
350
F
100
AcDbDictionaryWithDefault
340
F
  0
DICTIONARY
  5
4B5
102
{ACAD_REACTORS
330
C
102
}
330
C
100
AcDbDictionary
281
     1
  3
A0
350
4B6
  3
A1
350
4B7
  3
A2
350
4B8
  3
A3
350
4B9
  3
A4
350
4BA
  3
A5
350
4BB
  3
A6
350
4BC
  3
A7
350
4BD
  3
A8
350
4BE
  3
A9
350
4BF
  3
B0
350
4C0
  3
B1
350
4C1
  3
B2
350
4C2
  3
B3
350
4C3
  3
B4
350
4C4
  3
B5
350
4C5
  3
B6
350
4C6
  0
DICTIONARY
  5
30
102
{ACAD_REACTORS
330
C
102
}
330
C
100
AcDbDictionary
281
     1
  3
Standard
350
31
  0
DICTIONARY
  5
14
102
{ACAD_REACTORS
330
C
102
}
330
C
100
AcDbDictionary
281
     1
  3
2dWireframe
350
1A
  3
3D Hidden
350
1C
  3
3dWireframe
350
1B
  3
Basic
350
19
  3
Brighten
350
20
  3
ColorChange
350
24
  3
Conceptual
350
1D
  3
Dim
350
1F
  3
EdgeColorOff
350
4B4
  3
Facepattern
350
23
  3
Flat
350
15
  3
FlatWithEdges
350
16
  3
Gouraud
350
17
  3
GouraudWithEdges
350
18
  3
Hidden
350
4AC
  3
JitterOff
350
4B2
  3
Linepattern
350
22
  3
OverhangOff
350
4B3
  3
Realistic
350
1E
  3
Shaded
350
4B1
  3
Shaded with edges
350
4B0
  3
Shades of Gray
350
4AD
  3
Sketchy
350
4AE
  3
Thicken
350
21
  3
Wireframe
350
4AB
  3
X-Ray
350
4AF
  0
XRECORD
  5
8DF
102
{ACAD_REACTORS
330
C
102
}
330
C
100
AcDbXrecord
280
     1
 90
        1
330
31
  0
DICTIONARY
  5
495
102
{ACAD_REACTORS
330
C
102
}
330
C
100
AcDbDictionary
281
     1
  3
CANNOSCALE
350
724
  3
CMLEADERSTYLE
350
723
  3
CTABLESTYLE
350
496
  3
DIMASSOC
350
499
  3
INDEXCTL
350
498
  3
SORTENTS
350
497
  3
XCLIPFRAME
350
808
  0
XRECORD
  5
8E0
102
{ACAD_REACTORS
330
C
102
}
330
C
100
AcDbXrecord
280
     1
  1
DWGPROPS COOKIE
  2

  3

  4

  6

  7

  8
kaiha
  9

300
=
301
=
302
=
303
=
304
=
305
=
306
=
307
=
308
=
309
=
 40
0.0155948148148148
 41
2455646.735115764
 42
2458256.828041343
  1

 90
        0
  0
DICTIONARY
  5
571
102
{ACAD_REACTORS
330
570
102
}
330
570
100
AcDbDictionary
281
     1
  0
XRECORD
  5
722
102
{ACAD_REACTORS
330
721
102
}
330
721
100
AcDbXrecord
280
     1
290
     1
  0
SORTENTSTABLE
  5
6FC
102
{ACAD_REACTORS
330
6FB
102
}
330
6FB
100
AcDbSortentsTable
330
36
331
486
  5
8C5
331
482
  5
8C1
331
443
  5
897
331
404
  5
86A
331
3C5
  5
5A7
331
38E
  5
444
331
34F
  5
3ED
331
8C6
  5
D3
331
400
  5
866
331
38A
  5
43B
331
34B
  5
3E9
331
8C2
  5
D9
331
3FC
  5
862
331
386
  5
432
331
347
  5
3E5
331
8BE
  5
95
331
3F8
  5
85E
331
382
  5
42E
331
343
  5
3E1
331
315
  5
3A3
331
2D6
  5
360
331
29F
  5
329
331
311
  5
39F
331
2D2
  5
35C
331
29B
  5
325
331
25C
  5
2ED
331
225
  5
2AF
331
1E6
  5
273
331
1AF
  5
235
331
30D
  5
39B
331
2CE
  5
358
331
297
  5
321
331
258
  5
2E9
331
221
  5
2AB
331
1E2
  5
26F
331
1AB
  5
230
331
134
  5
1B0
331
309
  5
395
331
2CA
  5
354
331
293
  5
31D
331
254
  5
2E5
331
21D
  5
2A7
331
1DE
  5
264
331
1A7
  5
22C
331
130
  5
1AC
331
FD
  5
137
331
897
  5
207
331
C6
  5
103
331
250
  5
2E1
331
219
  5
2A3
331
1DA
  5
260
331
1A3
  5
225
331
12C
  5
1A8
331
F9
  5
133
331
854
  5
89E
331
893
  5
1FA
331
C2
  5
FF
331
128
  5
1A4
331
850
  5
8AD
331
88F
  5
1F6
331
F5
  5
12F
331
F1
  5
12B
331
47E
  5
8BD
331
84C
  5
8B7
331
88B
  5
1F2
331
AA
  5
FA
331
43B
  5
892
331
799
  5
2B6
331
476
  5
8B8
331
5B9
  5
8DD
331
433
  5
88D
331
3F4
  5
85A
331
37E
  5
426
331
33F
  5
3DD
331
8B6
  5
A6
331
3F0
  5
856
331
3B1
  5
482
331
37A
  5
418
331
33B
  5
3D9
331
8B2
  5
C8
331
3EC
  5
852
331
3AD
  5
479
331
376
  5
414
331
337
  5
3D5
331
3E8
  5
84E
331
3A9
  5
470
331
372
  5
410
331
333
  5
3D1
331
305
  5
38F
331
2C6
  5
350
331
28F
  5
319
331
301
  5
38B
331
2C2
  5
34C
331
28B
  5
315
331
24C
  5
2DD
331
215
  5
29F
331
1D6
  5
25C
331
19F
  5
221
331
2FD
  5
387
331
2BE
  5
348
331
287
  5
311
331
248
  5
2D9
331
211
  5
29B
331
1D2
  5
258
331
19B
  5
21D
331
124
  5
1A0
331
2F9
  5
383
331
2BA
  5
344
331
283
  5
30D
331
244
  5
2D5
331
20D
  5
297
331
1CE
  5
254
331
197
  5
219
331
120
  5
19C
331
887
  5
1EE
331
A6
  5
F6
331
240
  5
2D1
331
209
  5
293
331
1CA
  5
250
331
193
  5
215
331
11C
  5
198
331
883
  5
1EA
331
A2
  5
F2
331
118
  5
194
331
E5
  5
122
331
87F
  5
1E6
331
9E
  5
E5
331
E1
  5
11E
331
5B5
  5
8D9
331
794
  5
2B1
331
87B
  5
1E2
331
9A
  5
E1
331
46E
  5
8B3
331
42F
  5
889
331
5B1
  5
8D5
331
5AD
  5
8D1
331
466
  5
8AE
331
427
  5
884
331
5A9
  5
8CD
331
3E4
  5
84A
331
36E
  5
40C
331
3E0
  5
79A
331
36A
  5
408
331
3DC
  5
796
331
366
  5
404
331
8DD
  5
9B
331
3D8
  5
6FA
331
3A1
  5
468
331
362
  5
400
331
8D9
  5
A0
331
2F5
  5
37F
331
27F
  5
309
331
2F1
  5
37B
331
27B
  5
305
331
32C
  5
3CA
331
2ED
  5
377
331
2B6
  5
340
331
277
  5
301
331
328
  5
3C6
331
2E9
  5
373
331
2B2
  5
33C
331
273
  5
2FD
331
23C
  5
2CD
331
1C6
  5
24C
331
14F
  5
1CB
331
877
  5
1DE
331
DD
  5
11A
331
238
  5
2C9
331
1F9
  5
286
331
1C2
  5
248
331
14B
  5
1C7
331
873
  5
1DA
331
D9
  5
116
331
114
  5
14E
331
86F
  5
1D6
331
D5
  5
112
331
110
  5
14A
331
D1
  5
10E
331
45E
  5
8A9
331
86B
  5
1D2
331
8AA
  5
D0
331
45A
  5
8A5
331
5A5
  5
8C9
331
94
  5
DB
331
452
  5
8A0
331
417
  5
87D
331
413
  5
879
331
3D4
  5
5B6
331
39D
  5
45E
331
35E
  5
3FC
331
8D5
  5
C0
331
40F
  5
875
331
3D0
  5
5B2
331
399
  5
459
331
35A
  5
3F8
331
8D1
  5
C2
331
40B
  5
871
331
3CC
  5
5AE
331
356
  5
3F4
331
8CD
  5
C9
331
3C8
  5
5AA
331
391
  5
44C
331
352
  5
3F0
331
8C9
  5
CF
331
324
  5
3B7
331
2E5
  5
36F
331
2AE
  5
338
331
26F
  5
2F9
331
320
  5
3B2
331
2E1
  5
36B
331
2AA
  5
334
331
234
  5
2C5
331
1F5
  5
282
331
1BE
  5
244
331
147
  5
1C3
331
31C
  5
3AE
331
2DD
  5
367
331
2A6
  5
330
331
230
  5
2C1
331
1F1
  5
27E
331
1BA
  5
240
331
143
  5
1BF
331
318
  5
3AA
331
2D9
  5
363
331
2A2
  5
32C
331
263
  5
2F4
331
22C
  5
2BD
331
1ED
  5
27A
331
1B6
  5
23C
331
13F
  5
1BB
331
10C
  5
146
331
867
  5
1CE
331
8A6
  5
127
331
CD
  5
10A
331
228
  5
2B9
331
1E9
  5
276
331
1B2
  5
238
331
13B
  5
1B7
331
108
  5
142
331
863
  5
28E
331
8A2
  5
212
331
C9
  5
106
331
85F
  5
28A
331
89E
  5
20E
331
104
  5
13E
331
85B
  5
886
331
89A
  5
20A
331
100
  5
13A
331
44A
  5
89B
331
485
  5
8C4
331
481
  5
8C0
331
442
  5
896
331
407
  5
86D
331
403
  5
869
331
3C4
  5
5A6
331
38D
  5
443
331
34E
  5
3EC
331
8C5
  5
D8
331
3FF
  5
865
331
389
  5
43A
331
34A
  5
3E8
331
3FB
  5
861
331
385
  5
431
331
346
  5
3E4
331
8BD
  5
94
331
3B8
  5
489
331
381
  5
429
331
342
  5
3E0
331
314
  5
3A2
331
2D5
  5
35F
331
29E
  5
328
331
25F
  5
2F0
331
310
  5
39E
331
2D1
  5
35B
331
29A
  5
324
331
25B
  5
2EC
331
224
  5
2AE
331
1E5
  5
272
331
1AE
  5
234
331
137
  5
1B3
331
30C
  5
39A
331
2CD
  5
357
331
296
  5
320
331
257
  5
2E8
331
220
  5
2AA
331
1E1
  5
26E
331
1AA
  5
22F
331
133
  5
1AF
331
308
  5
392
331
2C9
  5
353
331
292
  5
31C
331
253
  5
2E4
331
21C
  5
2A6
331
1DD
  5
263
331
1A6
  5
22B
331
12F
  5
1AB
331
FC
  5
136
331
857
  5
893
331
896
  5
206
331
C5
  5
102
331
218
  5
2A2
331
1D9
  5
25F
331
1A2
  5
224
331
12B
  5
1A7
331
F8
  5
132
331
853
  5
89D
331
892
  5
1F9
331
C1
  5
FE
331
84F
  5
8AC
331
88E
  5
1F5
331
F4
  5
12E
331
84B
  5
8B6
331
88A
  5
1F1
331
A9
  5
F9
331
43A
  5
891
331
798
  5
2B5
331
5B8
  5
8DC
331
432
  5
88C
331
3F7
  5
85D
331
3F3
  5
859
331
3B4
  5
486
331
37D
  5
421
331
33E
  5
3DC
331
3EF
  5
855
331
3B0
  5
481
331
379
  5
417
331
33A
  5
3D8
331
8B1
  5
C7
331
3EB
  5
851
331
3AC
  5
477
331
375
  5
413
331
336
  5
3D4
331
3A8
  5
46F
331
371
  5
40F
331
332
  5
3D0
331
304
  5
38E
331
2C5
  5
34F
331
28E
  5
318
331
24F
  5
2E0
331
300
  5
38A
331
2C1
  5
34B
331
28A
  5
314
331
24B
  5
2DC
331
214
  5
29E
331
1D5
  5
25B
331
19E
  5
220
331
127
  5
1A3
331
2FC
  5
386
331
2BD
  5
347
331
286
  5
310
331
247
  5
2D8
331
210
  5
29A
331
1D1
  5
257
331
19A
  5
21C
331
123
  5
19F
331
2F8
  5
382
331
2B9
  5
343
331
282
  5
30C
331
243
  5
2D4
331
20C
  5
296
331
1CD
  5
253
331
196
  5
218
331
11F
  5
19B
331
886
  5
1ED
331
A5
  5
F5
331
208
  5
292
331
1C9
  5
24F
331
192
  5
214
331
11B
  5
197
331
882
  5
1E9
331
A1
  5
F1
331
E4
  5
121
331
797
  5
2B4
331
87E
  5
1E5
331
9D
  5
E4
331
E0
  5
11D
331
5B4
  5
8D8
331
793
  5
2B0
331
87A
  5
1E1
331
99
  5
E0
331
42E
  5
888
331
5B0
  5
8D4
331
5AC
  5
8D0
331
426
  5
883
331
5A8
  5
8CC
331
3E7
  5
84D
331
3E3
  5
849
331
36D
  5
40B
331
3DF
  5
799
331
369
  5
407
331
41A
  5
880
331
3DB
  5
795
331
365
  5
403
331
8DC
  5
9A
331
3A0
  5
466
331
361
  5
3FF
331
8D8
  5
9F
331
2F4
  5
37E
331
27E
  5
308
331
32F
  5
3CD
331
2F0
  5
37A
331
27A
  5
304
331
32B
  5
3C9
331
2EC
  5
376
331
2B5
  5
33F
331
276
  5
300
331
23F
  5
2D0
331
2E8
  5
372
331
2B1
  5
33B
331
272
  5
2FC
331
23B
  5
2CC
331
1FC
  5
289
331
1C5
  5
24B
331
14E
  5
1CA
331
876
  5
1DD
331
DC
  5
119
331
1F8
  5
285
331
1C1
  5
247
331
14A
  5
1C6
331
117
  5
193
331
872
  5
1D9
331
D8
  5
115
331
113
  5
14D
331
86E
  5
1D5
331
D4
  5
111
331
45D
  5
8A8
331
86A
  5
1D1
331
8A9
  5
12A
331
D0
  5
10D
331
459
  5
8A4
331
97
  5
DE
331
93
  5
DA
331
451
  5
89F
331
416
  5
87C
331
3D7
  5
5B9
331
412
  5
878
331
3D3
  5
5B5
331
39C
  5
45D
331
35D
  5
3FB
331
8D4
  5
AC
331
40E
  5
874
331
3CF
  5
5B1
331
398
  5
454
331
359
  5
3F7
331
8D0
  5
C5
331
40A
  5
870
331
3CB
  5
5AD
331
394
  5
451
331
355
  5
3F3
331
8CC
  5
CE
331
390
  5
44A
331
351
  5
3EF
331
8C8
  5
D5
331
327
  5
3C5
331
323
  5
3B5
331
2E4
  5
36E
331
2AD
  5
337
331
26E
  5
2F8
331
237
  5
2C8
331
31F
  5
3B1
331
2E0
  5
36A
331
2A9
  5
333
331
233
  5
2C4
331
1F4
  5
281
331
1BD
  5
243
331
146
  5
1C2
331
31B
  5
3AD
331
2DC
  5
366
331
2A5
  5
32F
331
266
  5
2F7
331
22F
  5
2C0
331
1F0
  5
27D
331
1B9
  5
23F
331
142
  5
1BE
331
10F
  5
149
331
2D8
  5
362
331
2A1
  5
32B
331
262
  5
2F3
331
22B
  5
2BC
331
1EC
  5
279
331
1B5
  5
23B
331
13E
  5
1BA
331
10B
  5
145
331
866
  5
1CD
331
8A5
  5
126
331
CC
  5
109
331
1E8
  5
275
331
1B1
  5
237
331
13A
  5
1B6
331
107
  5
141
331
862
  5
28D
331
8A1
  5
211
331
C8
  5
105
331
85E
  5
882
331
89D
  5
20D
331
103
  5
13D
331
85A
  5
88F
331
899
  5
209
331
488
  5
8C7
331
449
  5
89A
331
484
  5
8C3
331
480
  5
8BF
331
441
  5
895
331
406
  5
86C
331
3C7
  5
5A9
331
402
  5
868
331
38C
  5
442
331
34D
  5
3EB
331
8C4
  5
D7
331
3FE
  5
864
331
388
  5
439
331
349
  5
3E7
331
3FA
  5
860
331
384
  5
430
331
345
  5
3E3
331
8BC
  5
93
331
380
  5
428
331
341
  5
3DF
331
8B8
  5
AB
331
317
  5
3A9
331
313
  5
3A1
331
2D4
  5
35E
331
29D
  5
327
331
25E
  5
2EF
331
30F
  5
39D
331
2D0
  5
35A
331
299
  5
323
331
25A
  5
2EB
331
223
  5
2AD
331
1E4
  5
271
331
1AD
  5
233
331
136
  5
1B2
331
30B
  5
399
331
2CC
  5
356
331
295
  5
31F
331
256
  5
2E7
331
21F
  5
2A9
331
1E0
  5
266
331
1A9
  5
22E
331
132
  5
1AE
331
FF
  5
139
331
2C8
  5
352
331
291
  5
31B
331
252
  5
2E3
331
21B
  5
2A5
331
1DC
  5
262
331
1A5
  5
22A
331
12E
  5
1AA
331
FB
  5
135
331
856
  5
899
331
895
  5
1FC
331
C4
  5
101
331
1D8
  5
25E
331
1A1
  5
223
331
12A
  5
1A6
331
F7
  5
131
331
852
  5
8A3
331
891
  5
1F8
331
C0
  5
FD
331
F3
  5
12D
331
84E
  5
8B2
331
88D
  5
1F4
331
AC
  5
FC
331
84A
  5
8BC
331
889
  5
1F0
331
A8
  5
F8
331
79B
  5
2B8
331
478
  5
8BA
331
439
  5
890
331
470
  5
8B5
331
431
  5
88B
331
3F6
  5
85C
331
3F2
  5
858
331
3B3
  5
485
331
37C
  5
41A
331
33D
  5
3DB
331
3EE
  5
854
331
3AF
  5
47F
331
378
  5
416
331
339
  5
3D7
331
8B0
  5
C6
331
3EA
  5
850
331
3AB
  5
476
331
374
  5
412
331
335
  5
3D3
331
370
  5
40E
331
331
  5
3CF
331
307
  5
391
331
303
  5
38D
331
2C4
  5
34E
331
28D
  5
317
331
24E
  5
2DF
331
217
  5
2A1
331
2FF
  5
389
331
2C0
  5
34A
331
289
  5
313
331
24A
  5
2DB
331
213
  5
29D
331
1D4
  5
25A
331
19D
  5
21F
331
126
  5
1A2
331
2FB
  5
385
331
2BC
  5
346
331
285
  5
30F
331
246
  5
2D7
331
20F
  5
299
331
1D0
  5
256
331
199
  5
21B
331
122
  5
19E
331
2B8
  5
342
331
281
  5
30B
331
242
  5
2D3
331
20B
  5
295
331
1CC
  5
252
331
195
  5
217
331
11E
  5
19A
331
885
  5
1EC
331
A4
  5
F4
331
1C8
  5
24E
331
11A
  5
196
331
E7
  5
124
331
881
  5
1E8
331
A0
  5
E7
331
E3
  5
120
331
5B7
  5
8DB
331
796
  5
2B3
331
87D
  5
1E4
331
9C
  5
E3
331
5B3
  5
8D7
331
879
  5
1E0
331
98
  5
DF
331
5AF
  5
8D3
331
468
  5
8B0
331
5AB
  5
8CF
331
460
  5
8AB
331
3E6
  5
84C
331
3E2
  5
79C
331
36C
  5
40A
331
3DE
  5
798
331
368
  5
406
331
419
  5
87F
331
3DA
  5
794
331
3A3
  5
46E
331
364
  5
402
331
8DB
  5
99
331
360
  5
3FE
331
2F7
  5
381
331
2F3
  5
37D
331
27D
  5
307
331
207
  5
291
331
32E
  5
3CC
331
2EF
  5
379
331
279
  5
303
331
32A
  5
3C8
331
2EB
  5
375
331
2B4
  5
33E
331
275
  5
2FF
331
23E
  5
2CF
331
DF
  5
11C
331
2B0
  5
33A
331
271
  5
2FB
331
23A
  5
2CB
331
1FB
  5
288
331
1C4
  5
24A
331
14D
  5
1C9
331
875
  5
1DC
331
DB
  5
118
331
1C0
  5
246
331
149
  5
1C5
331
116
  5
192
331
871
  5
1D8
331
D7
  5
114
331
112
  5
14C
331
D3
  5
110
331
86D
  5
1D4
331
8AC
  5
D2
331
45C
  5
8A7
331
869
  5
1D0
331
8A8
  5
129
331
5A7
  5
8CB
331
96
  5
DD
331
415
  5
87B
331
3D6
  5
5B8
331
39F
  5
461
331
8D7
  5
A5
331
411
  5
877
331
3D2
  5
5B4
331
39B
  5
45C
331
35C
  5
3FA
331
8D3
  5
C4
331
40D
  5
873
331
3CE
  5
5B0
331
358
  5
3F6
331
8CF
  5
CB
331
409
  5
86F
331
3CA
  5
5AC
331
354
  5
3F2
331
8CB
  5
CD
331
350
  5
3EE
331
326
  5
3BF
331
2E7
  5
371
331
322
  5
3B4
331
2E3
  5
36D
331
2AC
  5
336
331
236
  5
2C7
331
1F7
  5
284
331
31E
  5
3B0
331
2DF
  5
369
331
2A8
  5
332
331
232
  5
2C3
331
1F3
  5
280
331
1BC
  5
242
331
145
  5
1C1
331
31A
  5
3AC
331
2DB
  5
365
331
2A4
  5
32E
331
265
  5
2F6
331
22E
  5
2BF
331
1EF
  5
27C
331
1B8
  5
23E
331
141
  5
1BD
331
10E
  5
148
331
CF
  5
10C
331
2A0
  5
32A
331
261
  5
2F2
331
22A
  5
2BB
331
1EB
  5
278
331
1B4
  5
23A
331
13D
  5
1B9
331
10A
  5
144
331
865
  5
1CC
331
8A4
  5
125
331
CB
  5
108
331
1B0
  5
236
331
139
  5
1B5
331
861
  5
28C
331
8A0
  5
210
331
106
  5
140
331
85D
  5
881
331
89C
  5
20C
331
102
  5
13C
331
492
  5
8C8
331
859
  5
88E
331
898
  5
208
331
487
  5
8C6
331
483
  5
8C2
331
405
  5
86B
331
3C6
  5
5A8
331
38F
  5
449
331
8C7
  5
D4
331
401
  5
867
331
38B
  5
441
331
34C
  5
3EA
331
8C3
  5
D6
331
3FD
  5
863
331
3BE
  5
599
331
387
  5
433
331
348
  5
3E6
331
3F9
  5
85F
331
383
  5
42F
331
344
  5
3E2
331
340
  5
3DE
331
316
  5
3A5
331
2D7
  5
361
331
312
  5
3A0
331
2D3
  5
35D
331
29C
  5
326
331
25D
  5
2EE
331
1E7
  5
274
331
30E
  5
39C
331
2CF
  5
359
331
298
  5
322
331
259
  5
2EA
331
222
  5
2AC
331
1E3
  5
270
331
1AC
  5
231
331
135
  5
1B1
331
30A
  5
397
331
2CB
  5
355
331
294
  5
31E
331
255
  5
2E6
331
21E
  5
2A8
331
1DF
  5
265
331
1A8
  5
22D
331
131
  5
1AD
331
FE
  5
138
331
C7
  5
104
331
290
  5
31A
331
251
  5
2E2
331
21A
  5
2A4
331
1DB
  5
261
331
1A4
  5
229
331
12D
  5
1A9
331
FA
  5
134
331
855
  5
898
331
894
  5
1FB
331
C3
  5
100
331
1A0
  5
222
331
129
  5
1A5
331
851
  5
8A2
331
890
  5
1F7
331
F6
  5
130
331
F2
  5
12C
331
47F
  5
8BE
331
84D
  5
8B1
331
88C
  5
1F3
331
AB
  5
FB
331
849
  5
8BB
331
888
  5
1EF
331
79A
  5
2B7
331
477
  5
8B9
331
430
  5
88A
331
3F5
  5
85B
331
3B6
  5
487
331
37F
  5
427
331
8B7
  5
A7
331
3F1
  5
857
331
3B2
  5
483
331
37B
  5
419
331
33C
  5
3DA
331
3ED
  5
853
331
3AE
  5
47E
331
377
  5
415
331
338
  5
3D6
331
3E9
  5
84F
331
3AA
  5
471
331
373
  5
411
331
334
  5
3D2
331
330
  5
3CE
331
306
  5
390
331
2C7
  5
351
331
302
  5
38C
331
2C3
  5
34D
331
28C
  5
316
331
24D
  5
2DE
331
216
  5
2A0
331
1D7
  5
25D
331
2FE
  5
388
331
2BF
  5
349
331
288
  5
312
331
249
  5
2DA
331
212
  5
29C
331
1D3
  5
259
331
19C
  5
21E
331
125
  5
1A1
331
2FA
  5
384
331
2BB
  5
345
331
284
  5
30E
331
245
  5
2D6
331
20E
  5
298
331
1CF
  5
255
331
198
  5
21A
331
121
  5
19D
331
A7
  5
F7
331
280
  5
30A
331
241
  5
2D2
331
20A
  5
294
331
1CB
  5
251
331
194
  5
216
331
11D
  5
199
331
884
  5
1EB
331
A3
  5
F3
331
119
  5
195
331
E6
  5
123
331
880
  5
1E7
331
9F
  5
E6
331
E2
  5
11F
331
5B6
  5
8DA
331
795
  5
2B2
331
87C
  5
1E3
331
9B
  5
E2
331
46F
  5
8B4
331
5B2
  5
8D6
331
878
  5
1DF
331
5AE
  5
8D2
331
467
  5
8AF
331
428
  5
885
331
5AA
  5
8CE
331
3E5
  5
84B
331
36F
  5
40D
331
3E1
  5
79B
331
36B
  5
409
331
3DD
  5
797
331
367
  5
405
331
418
  5
87E
331
3D9
  5
793
331
3A2
  5
469
331
363
  5
401
331
8DA
  5
A1
331
2F6
  5
380
331
2F2
  5
37C
331
27C
  5
306
331
206
  5
290
331
32D
  5
3CB
331
2EE
  5
378
331
2B7
  5
341
331
278
  5
302
331
329
  5
3C7
331
2EA
  5
374
331
2B3
  5
33D
331
274
  5
2FE
331
23D
  5
2CE
331
1C7
  5
24D
331
DE
  5
11B
331
270
  5
2FA
331
239
  5
2CA
331
1FA
  5
287
331
1C3
  5
249
331
14C
  5
1C8
331
874
  5
1DB
331
DA
  5
117
331
148
  5
1C4
331
115
  5
14F
331
870
  5
1D7
331
D6
  5
113
331
111
  5
14B
331
D2
  5
10F
331
45F
  5
8AA
331
86C
  5
1D3
331
8AB
  5
D1
331
45B
  5
8A6
331
868
  5
1CF
331
5A6
  5
8CA
331
95
  5
DC
331
453
  5
8A1
331
414
  5
87A
331
3D5
  5
5B7
331
39E
  5
460
331
35F
  5
3FD
331
8D6
  5
C1
331
410
  5
876
331
3D1
  5
5B3
331
39A
  5
45A
331
35B
  5
3F9
331
8D2
  5
C3
331
40C
  5
872
331
3CD
  5
5AF
331
396
  5
452
331
357
  5
3F5
331
8CE
  5
CA
331
408
  5
86E
331
3C9
  5
5AB
331
353
  5
3F1
331
8CA
  5
CC
331
325
  5
3B9
331
2E6
  5
370
331
2AF
  5
339
331
321
  5
3B3
331
2E2
  5
36C
331
2AB
  5
335
331
235
  5
2C6
331
1F6
  5
283
331
1BF
  5
245
331
31D
  5
3AF
331
2DE
  5
368
331
2A7
  5
331
331
231
  5
2C2
331
1F2
  5
27F
331
1BB
  5
241
331
144
  5
1C0
331
319
  5
3AB
331
2DA
  5
364
331
2A3
  5
32D
331
264
  5
2F5
331
22D
  5
2BE
331
1EE
  5
27B
331
1B7
  5
23D
331
140
  5
1BC
331
10D
  5
147
331
8A7
  5
128
331
CE
  5
10B
331
260
  5
2F1
331
229
  5
2BA
331
1EA
  5
277
331
1B3
  5
239
331
13C
  5
1B8
331
109
  5
143
331
864
  5
28F
331
8A3
  5
213
331
CA
  5
107
331
138
  5
1B4
331
860
  5
28B
331
89F
  5
20F
331
105
  5
13F
331
85C
  5
887
331
89B
  5
20B
331
101
  5
13B
331
44B
  5
89C
331
858
  5
894
  0
XRECORD
  5
8E3
102
{ACAD_REACTORS
330
8E1
102
}
330
8E1
100
AcDbXrecord
280
     1
 70
     2
  0
XRECORD
  5
8E2
102
{ACAD_REACTORS
330
8E1
102
}
330
8E1
100
AcDbXrecord
280
     1
 40
1.25
  0
XRECORD
  5
8E4
102
{ACAD_REACTORS
330
8E1
102
}
330
8E1
100
AcDbXrecord
280
     1
 40
1.570796326794896
  0
LAYOUT
  5
39
102
{ACAD_XDICTIONARY
360
908
102
}
102
{ACAD_REACTORS
330
2E
102
}
330
2E
100
AcDbPlotSettings
  1

  2
PDF Complete
  4

  6

 40
0.0
 41
0.0
 42
0.0
 43
0.0
 44
0.0
 45
0.0
 46
0.0
 47
0.0
 48
0.0
 49
0.0
140
0.0
141
0.0
142
1.0
143
1.0
 70
  1712
 72
     0
 73
     0
 74
     0
  7

 75
     0
147
1.0
148
0.0
149
0.0
100
AcDbLayout
  1
Model
 70
     1
 71
     0
 10
0.0
 20
0.0
 11
12.0
 21
9.0
 12
0.0
 22
0.0
 32
0.0
 14
0.0
 24
0.0
 34
0.0
 15
0.0
 25
0.0
 35
0.0
146
0.0
 13
0.0
 23
0.0
 33
0.0
 16
1.0
 26
0.0
 36
0.0
 17
0.0
 27
1.0
 37
0.0
 76
     0
330
36
331
56
  0
LAYOUT
  5
35
102
{ACAD_XDICTIONARY
360
906
102
}
102
{ACAD_REACTORS
330
2E
102
}
330
2E
100
AcDbPlotSettings
  1

  2
PDF Complete
  4

  6

 40
0.0
 41
0.0
 42
0.0
 43
0.0
 44
0.0
 45
0.0
 46
0.0
 47
0.0
 48
0.0
 49
0.0
140
0.0
141
0.0
142
1.0
143
1.0
 70
   688
 72
     0
 73
     0
 74
     5
  7

 75
    16
147
1.0
148
0.0
149
0.0
100
AcDbLayout
  1
レイアウト1
 70
     1
 71
     1
 10
0.0
 20
0.0
 11
12.0
 21
9.0
 12
0.0
 22
0.0
 32
0.0
 14
1.000000000000000E+20
 24
1.000000000000000E+20
 34
1.000000000000000E+20
 15
-1.000000000000000E+20
 25
-1.000000000000000E+20
 35
-1.000000000000000E+20
146
0.0
 13
0.0
 23
0.0
 33
0.0
 16
1.0
 26
0.0
 36
0.0
 17
0.0
 27
1.0
 37
0.0
 76
     0
330
32
  0
MATERIAL
  5
12
102
{ACAD_XDICTIONARY
360
49D
102
}
102
{ACAD_REACTORS
330
10
102
}
330
10
100
AcDbMaterial
  1
ByBlock
  0
MATERIAL
  5
11
102
{ACAD_XDICTIONARY
360
49B
102
}
102
{ACAD_REACTORS
330
10
102
}
330
10
100
AcDbMaterial
  1
ByLayer
  0
MATERIAL
  5
13
102
{ACAD_XDICTIONARY
360
49F
102
}
102
{ACAD_REACTORS
330
10
102
}
330
10
100
AcDbMaterial
  1
Global
  0
MLEADERSTYLE
  5
4C8
102
{ACAD_REACTORS
330
4C7
102
}
330
4C7
100
AcDbMLeaderStyle
170
     2
171
     1
172
     0
 90
        2
 40
0.0
 41
0.0
173
     1
 91
-1056964608
340
28
 92
       -2
290
     1
 42
0.09
291
     1
 43
0.36
  3
Standard
 44
0.18
300

342
26
174
     1
178
     6
175
     1
176
     0
 93
-1056964608
 45
0.18
292
     0
297
     0
 46
0.18
 94
-1056964608
 47
1.0
 49
1.0
140
1.0
293
     1
141
0.0
294
     1
177
     0
142
1.0
295
     0
296
     0
143
0.125
1001
ACAD_MLEADERVER
1070
     2
  0
MLINESTYLE
  5
2C
102
{ACAD_REACTORS
330
2B
102
}
330
2B
100
AcDbMlineStyle
  2
STANDARD
 70
     0
  3

 62
   256
 51
90.0
 52
90.0
 71
     2
 49
0.5
 62
   256
  6
BYLAYER
 49
-0.5
 62
   256
  6
BYLAYER
  0
ACDBPLACEHOLDER
  5
F
102
{ACAD_REACTORS
330
E
102
}
330
E
  0
SCALE
  5
4B6
102
{ACAD_REACTORS
330
4B5
102
}
330
4B5
100
AcDbScale
 70
     0
300
1:1
140
1.0
141
1.0
290
     1
  0
SCALE
  5
4B7
102
{ACAD_REACTORS
330
4B5
102
}
330
4B5
100
AcDbScale
 70
     0
300
1/128" = 1'-0"
140
0.0078125
141
12.0
290
     0
  0
SCALE
  5
4B8
102
{ACAD_REACTORS
330
4B5
102
}
330
4B5
100
AcDbScale
 70
     0
300
1/64" = 1'-0"
140
0.015625
141
12.0
290
     0
  0
SCALE
  5
4B9
102
{ACAD_REACTORS
330
4B5
102
}
330
4B5
100
AcDbScale
 70
     0
300
1/32" = 1'-0"
140
0.03125
141
12.0
290
     0
  0
SCALE
  5
4BA
102
{ACAD_REACTORS
330
4B5
102
}
330
4B5
100
AcDbScale
 70
     0
300
1/16" = 1'-0"
140
0.0625
141
12.0
290
     0
  0
SCALE
  5
4BB
102
{ACAD_REACTORS
330
4B5
102
}
330
4B5
100
AcDbScale
 70
     0
300
3/32" = 1'-0"
140
0.09375
141
12.0
290
     0
  0
SCALE
  5
4BC
102
{ACAD_REACTORS
330
4B5
102
}
330
4B5
100
AcDbScale
 70
     0
300
1/8" = 1'-0"
140
0.125
141
12.0
290
     0
  0
SCALE
  5
4BD
102
{ACAD_REACTORS
330
4B5
102
}
330
4B5
100
AcDbScale
 70
     0
300
3/16" = 1'-0"
140
0.1875
141
12.0
290
     0
  0
SCALE
  5
4BE
102
{ACAD_REACTORS
330
4B5
102
}
330
4B5
100
AcDbScale
 70
     0
300
1/4" = 1'-0"
140
0.25
141
12.0
290
     0
  0
SCALE
  5
4BF
102
{ACAD_REACTORS
330
4B5
102
}
330
4B5
100
AcDbScale
 70
     0
300
3/8" = 1'-0"
140
0.375
141
12.0
290
     0
  0
SCALE
  5
4C0
102
{ACAD_REACTORS
330
4B5
102
}
330
4B5
100
AcDbScale
 70
     0
300
1/2" = 1'-0"
140
0.5
141
12.0
290
     0
  0
SCALE
  5
4C1
102
{ACAD_REACTORS
330
4B5
102
}
330
4B5
100
AcDbScale
 70
     0
300
3/4" = 1'-0"
140
0.75
141
12.0
290
     0
  0
SCALE
  5
4C2
102
{ACAD_REACTORS
330
4B5
102
}
330
4B5
100
AcDbScale
 70
     0
300
1" = 1'-0"
140
1.0
141
12.0
290
     0
  0
SCALE
  5
4C3
102
{ACAD_REACTORS
330
4B5
102
}
330
4B5
100
AcDbScale
 70
     0
300
1-1/2" = 1'-0"
140
1.5
141
12.0
290
     0
  0
SCALE
  5
4C4
102
{ACAD_REACTORS
330
4B5
102
}
330
4B5
100
AcDbScale
 70
     0
300
3" = 1'-0"
140
3.0
141
12.0
290
     0
  0
SCALE
  5
4C5
102
{ACAD_REACTORS
330
4B5
102
}
330
4B5
100
AcDbScale
 70
     0
300
6" = 1'-0"
140
6.0
141
12.0
290
     0
  0
SCALE
  5
4C6
102
{ACAD_REACTORS
330
4B5
102
}
330
4B5
100
AcDbScale
 70
     0
300
1'-0" = 1'-0"
140
12.0
141
12.0
290
     0
  0
TABLESTYLE
  5
31
102
{ACAD_XDICTIONARY
360
726
102
}
102
{ACAD_REACTORS
330
30
102
}
330
30
100
AcDbTableStyle
  3
Standard
 70
     0
 71
     0
 40
0.06
 41
0.06
280
     0
281
     0
  7
STANDARD
140
0.18
170
     2
 62
     0
 63
     7
283
     0
274
    -2
284
     1
 64
     0
275
    -2
285
     1
 65
     0
276
    -2
286
     1
 66
     0
277
    -2
287
     1
 67
     0
278
    -2
288
     1
 68
     0
279
    -2
289
     1
 69
     0
  7
STANDARD
140
0.25
170
     5
 62
     0
 63
     7
283
     0
274
    -2
284
     1
 64
     0
275
    -2
285
     1
 65
     0
276
    -2
286
     1
 66
     0
277
    -2
287
     1
 67
     0
278
    -2
288
     1
 68
     0
279
    -2
289
     1
 69
     0
  7
STANDARD
140
0.18
170
     5
 62
     0
 63
     7
283
     0
274
    -2
284
     1
 64
     0
275
    -2
285
     1
 65
     0
276
    -2
286
     1
 66
     0
277
    -2
287
     1
 67
     0
278
    -2
288
     1
 68
     0
279
    -2
289
     1
 69
     0
  0
VISUALSTYLE
  5
1A
102
{ACAD_XDICTIONARY
360
8EF
102
}
102
{ACAD_REACTORS
330
14
102
}
330
14
100
AcDbVisualStyle
  2

 70
     4
 71
     0
 72
     2
 73
     0
 90
        0
 40
-0.6
 41
-30.0
 62
     5
 63
     7
 74
     1
 91
        4
 64
     7
 65
   257
 75
     1
175
     1
 42
1.0
 92
        0
 66
   257
 43
1.0
 76
     1
 77
     6
 78
     2
 67
     7
 79
     5
170
     0
171
     0
290
     0
174
     0
 93
        1
 44
0.0
173
     0
291
     0
 45
0.0
1001
ACAD
1000
AcDbSavedByObjectVersion
1070
     0
  0
VISUALSTYLE
  5
1C
102
{ACAD_XDICTIONARY
360
8F3
102
}
102
{ACAD_REACTORS
330
14
102
}
330
14
100
AcDbVisualStyle
  2

 70
     6
 71
     1
 72
     2
 73
     2
 90
        0
 40
-0.6
 41
-30.0
 62
     5
 63
     7
 74
     2
 91
        2
 64
     7
 65
   257
 75
     2
175
     1
 42
40.0
 92
        0
 66
   257
 43
1.0
 76
     1
 77
     6
 78
     2
 67
     7
 79
     3
170
     0
171
     0
290
     0
174
     0
 93
        1
 44
0.0
173
     0
291
     0
 45
0.0
1001
ACAD
1000
AcDbSavedByObjectVersion
1070
     0
  0
VISUALSTYLE
  5
1B
102
{ACAD_XDICTIONARY
360
8F1
102
}
102
{ACAD_REACTORS
330
14
102
}
330
14
100
AcDbVisualStyle
  2

 70
     5
 71
     0
 72
     2
 73
     0
 90
        0
 40
-0.6
 41
-30.0
 62
     5
 63
     7
 74
     1
 91
        4
 64
     7
 65
   257
 75
     1
175
     1
 42
1.0
 92
        0
 66
   257
 43
1.0
 76
     1
 77
     6
 78
     2
 67
     7
 79
     5
170
     0
171
     0
290
     0
174
     0
 93
        1
 44
0.0
173
     0
291
     0
 45
0.0
1001
ACAD
1000
AcDbSavedByObjectVersion
1070
     0
  0
VISUALSTYLE
  5
19
102
{ACAD_XDICTIONARY
360
8ED
102
}
102
{ACAD_REACTORS
330
14
102
}
330
14
100
AcDbVisualStyle
  2

 70
     7
 71
     1
 72
     0
 73
     1
 90
        0
 40
-0.6
 41
-30.0
 62
     5
 63
     7
 74
     0
 91
        4
 64
     7
 65
   257
 75
     1
175
     1
 42
1.0
 92
        8
 66
     7
 43
1.0
 76
     1
 77
     6
 78
     2
 67
     7
 79
     5
170
     0
171
     0
290
     0
174
     0
 93
        1
 44
0.0
173
     0
291
     1
 45
0.0
1001
ACAD
1000
AcDbSavedByObjectVersion
1070
     0
  0
VISUALSTYLE
  5
20
102
{ACAD_XDICTIONARY
360
8FB
102
}
102
{ACAD_REACTORS
330
14
102
}
330
14
100
AcDbVisualStyle
  2

 70
    12
 71
     2
 72
     2
 73
     0
 90
        0
 40
-0.6
 41
-30.0
 62
     5
 63
     7
 74
     1
 91
        4
 64
     7
 65
   257
 75
     1
175
     1
 42
1.0
 92
        8
 66
     7
 43
1.0
 76
     1
 77
     6
 78
     2
 67
     7
 79
     5
170
     0
171
     0
290
     0
174
     0
 93
        1
 44
50.0
173
     0
291
     1
 45
0.0
1001
ACAD
1000
AcDbSavedByObjectVersion
1070
     0
  0
VISUALSTYLE
  5
24
102
{ACAD_XDICTIONARY
360
903
102
}
102
{ACAD_REACTORS
330
14
102
}
330
14
100
AcDbVisualStyle
  2

 70
    16
 71
     2
 72
     2
 73
     3
 90
        0
 40
-0.6
 41
-30.0
 62
     5
 63
     8
 74
     1
 91
        4
 64
     7
 65
   257
 75
     1
175
     1
 42
1.0
 92
        8
 66
     8
 43
1.0
 76
     1
 77
     6
 78
     2
 67
     7
 79
     5
170
     0
171
     0
290
     0
174
     0
 93
        1
 44
0.0
173
     0
291
     1
 45
0.0
1001
ACAD
1000
AcDbSavedByObjectVersion
1070
     0
  0
VISUALSTYLE
  5
1D
102
{ACAD_XDICTIONARY
360
8F5
102
}
102
{ACAD_REACTORS
330
14
102
}
330
14
100
AcDbVisualStyle
  2

 70
     9
 71
     3
 72
     2
 73
     0
 90
        0
 40
-0.6
 41
-30.0
 62
     5
 63
     7
 74
     2
 91
        2
 64
     7
 65
   257
 75
     1
175
     1
 42
40.0
 92
        8
 66
     7
 43
1.0
 76
     1
 77
     6
 78
     2
 67
     7
 79
     3
170
     0
171
     0
290
     0
174
     0
 93
        1
 44
0.0
173
     0
291
     0
 45
0.0
1001
ACAD
1000
AcDbSavedByObjectVersion
1070
     0
  0
VISUALSTYLE
  5
1F
102
{ACAD_XDICTIONARY
360
8F9
102
}
102
{ACAD_REACTORS
330
14
102
}
330
14
100
AcDbVisualStyle
  2

 70
    11
 71
     2
 72
     2
 73
     0
 90
        0
 40
-0.6
 41
-30.0
 62
     5
 63
     7
 74
     1
 91
        4
 64
     7
 65
   257
 75
     1
175
     1
 42
1.0
 92
        8
 66
     7
 43
1.0
 76
     1
 77
     6
 78
     2
 67
     7
 79
     5
170
     0
171
     0
290
     0
174
     0
 93
        1
 44
-50.0
173
     0
291
     1
 45
0.0
1001
ACAD
1000
AcDbSavedByObjectVersion
1070
     0
  0
VISUALSTYLE
  5
4B4
102
{ACAD_XDICTIONARY
360
91C
102
}
102
{ACAD_REACTORS
330
14
102
}
330
14
100
AcDbVisualStyle
  2

 70
    22
 71
     2
 72
     2
 73
     0
 90
        0
 40
-0.6
 41
-30.0
 62
     5
 63
     7
 74
     1
 91
        4
 64
     7
 65
   257
 75
     1
175
     1
 42
1.0
 92
        8
 66
     7
 43
1.0
 76
     1
 77
     6
 78
     2
 67
     7
 79
     5
170
     0
171
     0
290
     0
174
     0
 93
        1
 44
0.0
173
     0
291
     1
 45
0.0
1001
ACAD
1000
AcDbSavedByObjectVersion
1070
     0
  0
VISUALSTYLE
  5
23
102
{ACAD_XDICTIONARY
360
901
102
}
102
{ACAD_REACTORS
330
14
102
}
330
14
100
AcDbVisualStyle
  2

 70
    15
 71
     2
 72
     2
 73
     0
 90
        0
 40
-0.6
 41
-30.0
 62
     5
 63
     7
 74
     1
 91
        4
 64
     7
 65
   257
 75
     1
175
     1
 42
1.0
 92
        8
 66
     7
 43
1.0
 76
     1
 77
     6
 78
     2
 67
     7
 79
     5
170
     0
171
     0
290
     0
174
     0
 93
        1
 44
0.0
173
     0
291
     1
 45
0.0
1001
ACAD
1000
AcDbSavedByObjectVersion
1070
     0
  0
VISUALSTYLE
  5
15
102
{ACAD_XDICTIONARY
360
8E5
102
}
102
{ACAD_REACTORS
330
14
102
}
330
14
100
AcDbVisualStyle
  2

 70
     0
 71
     2
 72
     1
 73
     1
 90
        2
 40
-0.6
 41
30.0
 62
     5
 63
     7
 74
     0
 91
        4
 64
     7
 65
   257
 75
     1
175
     1
 42
1.0
 92
        8
 66
     7
 43
1.0
 76
     1
 77
     6
 78
     2
 67
     7
 79
     5
170
     0
171
     0
290
     0
174
     0
 93
       13
 44
0.0
173
     0
291
     1
 45
0.0
1001
ACAD
1000
AcDbSavedByObjectVersion
1070
     0
  0
VISUALSTYLE
  5
16
102
{ACAD_XDICTIONARY
360
8E7
102
}
102
{ACAD_REACTORS
330
14
102
}
330
14
100
AcDbVisualStyle
  2

 70
     1
 71
     2
 72
     1
 73
     1
 90
        2
 40
-0.6
 41
30.0
 62
     5
 63
     7
 74
     1
 91
        4
 64
     7
 65
   257
 75
     1
175
     1
 42
1.0
 92
        0
 66
   257
 43
1.0
 76
     1
 77
     6
 78
     2
 67
     7
 79
     5
170
     0
171
     0
290
     0
174
     0
 93
       13
 44
0.0
173
     0
291
     1
 45
0.0
1001
ACAD
1000
AcDbSavedByObjectVersion
1070
     0
  0
VISUALSTYLE
  5
17
102
{ACAD_XDICTIONARY
360
8E9
102
}
102
{ACAD_REACTORS
330
14
102
}
330
14
100
AcDbVisualStyle
  2

 70
     2
 71
     2
 72
     2
 73
     1
 90
        2
 40
-0.6
 41
30.0
 62
     5
 63
     7
 74
     0
 91
        4
 64
     7
 65
   257
 75
     1
175
     1
 42
1.0
 92
        0
 66
     7
 43
1.0
 76
     1
 77
     6
 78
     2
 67
     7
 79
     5
170
     0
171
     0
290
     0
174
     0
 93
       13
 44
0.0
173
     0
291
     1
 45
0.0
1001
ACAD
1000
AcDbSavedByObjectVersion
1070
     0
  0
VISUALSTYLE
  5
18
102
{ACAD_XDICTIONARY
360
8EB
102
}
102
{ACAD_REACTORS
330
14
102
}
330
14
100
AcDbVisualStyle
  2

 70
     3
 71
     2
 72
     2
 73
     1
 90
        2
 40
-0.6
 41
30.0
 62
     5
 63
     7
 74
     1
 91
        4
 64
     7
 65
   257
 75
     1
175
     1
 42
1.0
 92
        0
 66
   257
 43
1.0
 76
     1
 77
     6
 78
     2
 67
     7
 79
     5
170
     0
171
     0
290
     0
174
     0
 93
       13
 44
0.0
173
     0
291
     1
 45
0.0
1001
ACAD
1000
AcDbSavedByObjectVersion
1070
     0
  0
VISUALSTYLE
  5
4AC
102
{ACAD_XDICTIONARY
360
90C
102
}
102
{ACAD_REACTORS
330
14
102
}
330
14
100
AcDbVisualStyle
  2

 70
     6
 71
     1
 72
     2
 73
     2
 90
        0
 40
-0.6
 41
-30.0
 62
     5
 63
     7
 74
     2
 91
        2
 64
     7
 65
   257
 75
     2
175
     1
 42
40.0
 92
        0
 66
   257
 43
1.0
 76
     1
 77
     6
 78
     2
 67
     7
 79
     3
170
     0
171
     0
290
     0
174
     0
 93
        1
 44
0.0
173
     0
291
     0
 45
0.0
1001
ACAD
1000
AcDbSavedByObjectVersion
1070
     0
  0
VISUALSTYLE
  5
4B2
102
{ACAD_XDICTIONARY
360
918
102
}
102
{ACAD_REACTORS
330
14
102
}
330
14
100
AcDbVisualStyle
  2

 70
    20
 71
     2
 72
     2
 73
     0
 90
        0
 40
-0.6
 41
-30.0
 62
     5
 63
     7
 74
     1
 91
        4
 64
     7
 65
   257
 75
     1
175
     1
 42
1.0
 92
       10
 66
     7
 43
1.0
 76
     1
 77
     6
 78
     2
 67
     7
 79
     5
170
     0
171
     0
290
     0
174
     0
 93
        1
 44
0.0
173
     0
291
     1
 45
0.0
1001
ACAD
1000
AcDbSavedByObjectVersion
1070
     0
  0
VISUALSTYLE
  5
22
102
{ACAD_XDICTIONARY
360
8FF
102
}
102
{ACAD_REACTORS
330
14
102
}
330
14
100
AcDbVisualStyle
  2

 70
    14
 71
     2
 72
     2
 73
     0
 90
        0
 40
-0.6
 41
-30.0
 62
     5
 63
     7
 74
     1
 91
        4
 64
     7
 65
   257
 75
     7
175
     7
 42
1.0
 92
        8
 66
     7
 43
1.0
 76
     1
 77
     6
 78
     2
 67
     7
 79
     5
170
     0
171
     0
290
     0
174
     0
 93
        1
 44
0.0
173
     0
291
     1
 45
0.0
1001
ACAD
1000
AcDbSavedByObjectVersion
1070
     0
  0
VISUALSTYLE
  5
4B3
102
{ACAD_XDICTIONARY
360
91A
102
}
102
{ACAD_REACTORS
330
14
102
}
330
14
100
AcDbVisualStyle
  2

 70
    21
 71
     2
 72
     2
 73
     0
 90
        0
 40
-0.6
 41
-30.0
 62
     5
 63
     7
 74
     1
 91
        4
 64
     7
 65
   257
 75
     1
175
     1
 42
1.0
 92
        9
 66
     7
 43
1.0
 76
     1
 77
     6
 78
     2
 67
     7
 79
     5
170
     0
171
     0
290
     0
174
     0
 93
        1
 44
0.0
173
     0
291
     1
 45
0.0
1001
ACAD
1000
AcDbSavedByObjectVersion
1070
     0
  0
VISUALSTYLE
  5
1E
102
{ACAD_XDICTIONARY
360
8F7
102
}
102
{ACAD_REACTORS
330
14
102
}
330
14
100
AcDbVisualStyle
  2

 70
     8
 71
     2
 72
     2
 73
     0
 90
        0
 40
-0.6
 41
-30.0
 62
     5
 63
     7
 74
     1
 91
        0
 64
     7
 65
   257
 75
     1
175
     1
 42
1.0
 92
        8
 66
     8
 43
1.0
 76
     1
 77
     6
 78
     2
 67
     7
 79
     5
170
     0
171
     0
290
     0
174
     0
 93
       13
 44
0.0
173
     0
291
     0
 45
0.0
1001
ACAD
1000
AcDbSavedByObjectVersion
1070
     0
  0
VISUALSTYLE
  5
4B1
102
{ACAD_XDICTIONARY
360
916
102
}
102
{ACAD_REACTORS
330
14
102
}
330
14
100
AcDbVisualStyle
  2

 70
    27
 71
     2
 72
     2
 73
     1
 90
        2
 40
-0.6
 41
30.0
 62
     5
 63
     7
 74
     0
 91
        4
 64
     7
 65
   257
 75
     1
175
     1
 42
1.0
 92
        8
 66
   257
 43
1.0
 76
     1
 77
     6
 78
     2
 67
     8
 79
     3
170
     0
171
     0
290
     0
174
     0
 93
        5
 44
0.0
173
     0
291
     0
 45
0.0
1001
ACAD
1000
AcDbSavedByObjectVersion
1070
     0
  0
VISUALSTYLE
  5
4B0
102
{ACAD_XDICTIONARY
360
914
102
}
102
{ACAD_REACTORS
330
14
102
}
330
14
100
AcDbVisualStyle
  2

 70
    26
 71
     2
 72
     2
 73
     1
 90
        2
 40
-0.6
 41
30.0
 62
     5
 63
     7
 74
     1
 91
       10
 64
     7
 65
   257
 75
     2
175
     1
 42
1.0
 92
        8
 66
   257
 43
1.0
 76
     1
 77
     6
 78
     2
 67
     7
 79
     3
170
     0
171
     0
290
     0
174
     0
 93
        5
 44
0.0
173
     0
291
     0
 45
0.0
1001
ACAD
1000
AcDbSavedByObjectVersion
1070
     0
  0
VISUALSTYLE
  5
4AD
102
{ACAD_XDICTIONARY
360
90E
102
}
102
{ACAD_REACTORS
330
14
102
}
330
14
100
AcDbVisualStyle
  2

 70
    23
 71
     2
 72
     2
 73
     3
 90
        0
 40
-0.6
 41
-30.0
 62
     5
 63
     7
 74
     2
 91
        2
 64
     7
 65
     7
 75
     1
175
     1
 42
40.0
 92
        8
 66
     7
 43
1.0
 76
     1
 77
     6
 78
     2
 67
     7
 79
     3
170
     0
171
     0
290
     0
174
     0
 93
        1
 44
0.0
173
     0
291
     0
 45
0.0
1001
ACAD
1000
AcDbSavedByObjectVersion
1070
     0
  0
VISUALSTYLE
  5
4AE
102
{ACAD_XDICTIONARY
360
910
102
}
102
{ACAD_REACTORS
330
14
102
}
330
14
100
AcDbVisualStyle
  2

 70
    24
 71
     1
 72
     2
 73
     2
 90
        0
 40
-0.6
 41
-30.0
 62
     5
 63
     7
 74
     2
 91
        2
 64
     7
 65
     7
 75
     1
175
     1
 42
40.0
 92
       11
 66
     7
 43
1.0
 76
     1
 77
     6
 78
     2
 67
     7
 79
     6
170
     0
171
     0
290
     0
174
     0
 93
        1
 44
0.0
173
     0
291
     0
 45
0.0
1001
ACAD
1000
AcDbSavedByObjectVersion
1070
     0
  0
VISUALSTYLE
  5
21
102
{ACAD_XDICTIONARY
360
8FD
102
}
102
{ACAD_REACTORS
330
14
102
}
330
14
100
AcDbVisualStyle
  2

 70
    13
 71
     2
 72
     2
 73
     0
 90
        0
 40
-0.6
 41
-30.0
 62
     5
 63
     7
 74
     1
 91
        4
 64
     7
 65
   257
 75
     1
175
     1
 42
1.0
 92
       12
 66
     7
 43
1.0
 76
     1
 77
     6
 78
     2
 67
     7
 79
     5
170
     0
171
     0
290
     0
174
     0
 93
        1
 44
0.0
173
     0
291
     1
 45
0.0
1001
ACAD
1000
AcDbSavedByObjectVersion
1070
     0
  0
VISUALSTYLE
  5
4AB
102
{ACAD_XDICTIONARY
360
90A
102
}
102
{ACAD_REACTORS
330
14
102
}
330
14
100
AcDbVisualStyle
  2

 70
     5
 71
     0
 72
     2
 73
     0
 90
        0
 40
-0.6
 41
-30.0
 62
     5
 63
     7
 74
     1
 91
        4
 64
     7
 65
   257
 75
     1
175
     1
 42
1.0
 92
        0
 66
   257
 43
1.0
 76
     1
 77
     6
 78
     2
 67
     7
 79
     3
170
     0
171
     0
290
     0
174
     0
 93
        1
 44
0.0
173
     0
291
     0
 45
0.0
1001
ACAD
1000
AcDbSavedByObjectVersion
1070
     0
  0
VISUALSTYLE
  5
4AF
102
{ACAD_XDICTIONARY
360
912
102
}
102
{ACAD_REACTORS
330
14
102
}
330
14
100
AcDbVisualStyle
  2

 70
    25
 71
     2
 72
     2
 73
     1
 90
        1
 40
0.5
 41
-30.0
 62
     5
 63
     7
 74
     1
 91
        0
 64
     7
 65
   257
 75
     1
175
     1
 42
1.0
 92
        8
 66
     7
 43
1.0
 76
     1
 77
     6
 78
     2
 67
     7
 79
     3
170
     0
171
     0
290
     0
174
     0
 93
       13
 44
0.0
173
     0
291
     0
 45
0.0
1001
ACAD
1000
AcDbSavedByObjectVersion
1070
     0
  0
DICTIONARYVAR
  5
724
102
{ACAD_REACTORS
330
495
102
}
330
495
100
DictionaryVariables
280
     0
  1
1:1
  0
DICTIONARYVAR
  5
723
102
{ACAD_REACTORS
330
495
102
}
330
495
100
DictionaryVariables
280
     0
  1
STANDARD
  0
DICTIONARYVAR
  5
496
102
{ACAD_REACTORS
330
495
102
}
330
495
100
DictionaryVariables
280
     0
  1
STANDARD
  0
DICTIONARYVAR
  5
499
102
{ACAD_REACTORS
330
495
102
}
330
495
100
DictionaryVariables
280
     0
  1
1
  0
DICTIONARYVAR
  5
498
102
{ACAD_REACTORS
330
495
102
}
330
495
100
DictionaryVariables
280
     0
  1
0
  0
DICTIONARYVAR
  5
497
102
{ACAD_REACTORS
330
495
102
}
330
495
100
DictionaryVariables
280
     0
  1
127
  0
DICTIONARYVAR
  5
808
102
{ACAD_REACTORS
330
495
102
}
330
495
100
DictionaryVariables
280
     0
  1
2
  0
DICTIONARY
  5
908
330
39
100
AcDbDictionary
280
     1
281
     1
  3
ACAD_XREC_ROUNDTRIP
360
909
  0
DICTIONARY
  5
906
330
35
100
AcDbDictionary
280
     1
281
     1
  3
ACAD_XREC_ROUNDTRIP
360
907
  0
DICTIONARY
  5
49D
330
12
100
AcDbDictionary
280
     1
281
     1
  3
ACAD_XREC_ROUNDTRIP
360
49E
  0
DICTIONARY
  5
49B
330
11
100
AcDbDictionary
280
     1
281
     1
  3
ACAD_XREC_ROUNDTRIP
360
49C
  0
DICTIONARY
  5
49F
330
13
100
AcDbDictionary
280
     1
281
     1
  3
ACAD_XREC_ROUNDTRIP
360
4A0
  0
DICTIONARY
  5
726
330
31
100
AcDbDictionary
280
     1
281
     1
  3
ACAD_ROUNDTRIP_2008_TABLESTYLE_CELLSTYLEMAP
360
8DE
  3
ACAD_XREC_ROUNDTRIP
360
905
  0
DICTIONARY
  5
8EF
330
1A
100
AcDbDictionary
280
     1
281
     1
  3
ACAD_XREC_ROUNDTRIP
360
8F0
  0
DICTIONARY
  5
8F3
330
1C
100
AcDbDictionary
280
     1
281
     1
  3
ACAD_XREC_ROUNDTRIP
360
8F4
  0
DICTIONARY
  5
8F1
330
1B
100
AcDbDictionary
280
     1
281
     1
  3
ACAD_XREC_ROUNDTRIP
360
8F2
  0
DICTIONARY
  5
8ED
330
19
100
AcDbDictionary
280
     1
281
     1
  3
ACAD_XREC_ROUNDTRIP
360
8EE
  0
DICTIONARY
  5
8FB
330
20
100
AcDbDictionary
280
     1
281
     1
  3
ACAD_XREC_ROUNDTRIP
360
8FC
  0
DICTIONARY
  5
903
330
24
100
AcDbDictionary
280
     1
281
     1
  3
ACAD_XREC_ROUNDTRIP
360
904
  0
DICTIONARY
  5
8F5
330
1D
100
AcDbDictionary
280
     1
281
     1
  3
ACAD_XREC_ROUNDTRIP
360
8F6
  0
DICTIONARY
  5
8F9
330
1F
100
AcDbDictionary
280
     1
281
     1
  3
ACAD_XREC_ROUNDTRIP
360
8FA
  0
DICTIONARY
  5
91C
330
4B4
100
AcDbDictionary
280
     1
281
     1
  3
ACAD_XREC_ROUNDTRIP
360
91D
  0
DICTIONARY
  5
901
330
23
100
AcDbDictionary
280
     1
281
     1
  3
ACAD_XREC_ROUNDTRIP
360
902
  0
DICTIONARY
  5
8E5
330
15
100
AcDbDictionary
280
     1
281
     1
  3
ACAD_XREC_ROUNDTRIP
360
8E6
  0
DICTIONARY
  5
8E7
330
16
100
AcDbDictionary
280
     1
281
     1
  3
ACAD_XREC_ROUNDTRIP
360
8E8
  0
DICTIONARY
  5
8E9
330
17
100
AcDbDictionary
280
     1
281
     1
  3
ACAD_XREC_ROUNDTRIP
360
8EA
  0
DICTIONARY
  5
8EB
330
18
100
AcDbDictionary
280
     1
281
     1
  3
ACAD_XREC_ROUNDTRIP
360
8EC
  0
DICTIONARY
  5
90C
330
4AC
100
AcDbDictionary
280
     1
281
     1
  3
ACAD_XREC_ROUNDTRIP
360
90D
  0
DICTIONARY
  5
918
330
4B2
100
AcDbDictionary
280
     1
281
     1
  3
ACAD_XREC_ROUNDTRIP
360
919
  0
DICTIONARY
  5
8FF
330
22
100
AcDbDictionary
280
     1
281
     1
  3
ACAD_XREC_ROUNDTRIP
360
900
  0
DICTIONARY
  5
91A
330
4B3
100
AcDbDictionary
280
     1
281
     1
  3
ACAD_XREC_ROUNDTRIP
360
91B
  0
DICTIONARY
  5
8F7
330
1E
100
AcDbDictionary
280
     1
281
     1
  3
ACAD_XREC_ROUNDTRIP
360
8F8
  0
DICTIONARY
  5
916
330
4B1
100
AcDbDictionary
280
     1
281
     1
  3
ACAD_XREC_ROUNDTRIP
360
917
  0
DICTIONARY
  5
914
330
4B0
100
AcDbDictionary
280
     1
281
     1
  3
ACAD_XREC_ROUNDTRIP
360
915
  0
DICTIONARY
  5
90E
330
4AD
100
AcDbDictionary
280
     1
281
     1
  3
ACAD_XREC_ROUNDTRIP
360
90F
  0
DICTIONARY
  5
910
330
4AE
100
AcDbDictionary
280
     1
281
     1
  3
ACAD_XREC_ROUNDTRIP
360
911
  0
DICTIONARY
  5
8FD
330
21
100
AcDbDictionary
280
     1
281
     1
  3
ACAD_XREC_ROUNDTRIP
360
8FE
  0
DICTIONARY
  5
90A
330
4AB
100
AcDbDictionary
280
     1
281
     1
  3
ACAD_XREC_ROUNDTRIP
360
90B
  0
DICTIONARY
  5
912
330
4AF
100
AcDbDictionary
280
     1
281
     1
  3
ACAD_XREC_ROUNDTRIP
360
913
  0
XRECORD
  5
909
102
{ACAD_REACTORS
330
908
102
}
330
908
100
AcDbXrecord
280
     1
102
SHADEPLOT
 70
     0
102
SHADEPLOTRESLEVEL
 70
     2
102
SHADEPLOTCUSTOMDPI
 70
   300
  0
XRECORD
  5
907
102
{ACAD_REACTORS
330
906
102
}
330
906
100
AcDbXrecord
280
     1
102
SHADEPLOT
 70
     0
102
SHADEPLOTRESLEVEL
 70
     2
102
SHADEPLOTCUSTOMDPI
 70
   300
  0
XRECORD
  5
49E
102
{ACAD_REACTORS
330
49D
102
}
330
49D
100
AcDbXrecord
280
     1
102
MATERIAL
148
0.0
149
0.0
149
0.0
 93
        0
 94
      127
282
     0
 72
     1
 77
     1
171
     1
175
     1
179
     1
273
     0
  0
XRECORD
  5
49C
102
{ACAD_REACTORS
330
49B
102
}
330
49B
100
AcDbXrecord
280
     1
102
MATERIAL
148
0.0
149
0.0
149
0.0
 93
        0
 94
      127
282
     0
 72
     1
 77
     1
171
     1
175
     1
179
     1
273
     0
  0
XRECORD
  5
4A0
102
{ACAD_REACTORS
330
49F
102
}
330
49F
100
AcDbXrecord
280
     1
102
MATERIAL
148
0.0
149
0.0
149
0.0
 93
        0
 94
      127
282
     0
 72
     1
 77
     1
171
     1
175
     1
179
     1
273
     0
  0
CELLSTYLEMAP
  5
8DE
102
{ACAD_REACTORS
330
726
102
}
330
726
100
AcDbCellStyleMap
 90
        3
300
CELLSTYLE
  1
TABLEFORMAT_BEGIN
 90
        5
170
     1
 91
        0
 92
    32768
 62
   257
 93
        1
300
CONTENTFORMAT
  1
CONTENTFORMAT_BEGIN
 90
        0
 91
        0
 92
      512
 93
        0
300

 40
0.0
140
1.0
 94
        5
 62
     0
340
26
144
0.25
309
CONTENTFORMAT_END
171
     1
301
MARGIN
  1
CELLMARGIN_BEGIN
 40
0.06
 40
0.06
 40
0.06
 40
0.06
 40
0.18
 40
0.18
309
CELLMARGIN_END
 94
        6
 95
        1
302
GRIDFORMAT
  1
GRIDFORMAT_BEGIN
 90
        0
 91
        1
 62
     0
 92
       -2
340
0
 93
        0
 40
0.045
309
GRIDFORMAT_END
 95
        2
302
GRIDFORMAT
  1
GRIDFORMAT_BEGIN
 90
        0
 91
        1
 62
     0
 92
       -2
340
0
 93
        0
 40
0.045
309
GRIDFORMAT_END
 95
        4
302
GRIDFORMAT
  1
GRIDFORMAT_BEGIN
 90
        0
 91
        1
 62
     0
 92
       -2
340
0
 93
        0
 40
0.045
309
GRIDFORMAT_END
 95
        8
302
GRIDFORMAT
  1
GRIDFORMAT_BEGIN
 90
        0
 91
        1
 62
     0
 92
       -2
340
0
 93
        0
 40
0.045
309
GRIDFORMAT_END
 95
       16
302
GRIDFORMAT
  1
GRIDFORMAT_BEGIN
 90
        0
 91
        1
 62
     0
 92
       -2
340
0
 93
        0
 40
0.045
309
GRIDFORMAT_END
 95
       32
302
GRIDFORMAT
  1
GRIDFORMAT_BEGIN
 90
        0
 91
        1
 62
     0
 92
       -2
340
0
 93
        0
 40
0.045
309
GRIDFORMAT_END
309
TABLEFORMAT_END
  1
CELLSTYLE_BEGIN
 90
        1
 91
        1
300
_TITLE
309
CELLSTYLE_END
300
CELLSTYLE
  1
TABLEFORMAT_BEGIN
 90
        5
170
     1
 91
        0
 92
        0
 62
   257
 93
        1
300
CONTENTFORMAT
  1
CONTENTFORMAT_BEGIN
 90
        0
 91
        0
 92
      512
 93
        0
300

 40
0.0
140
1.0
 94
        5
 62
     0
340
26
144
0.18
309
CONTENTFORMAT_END
171
     1
301
MARGIN
  1
CELLMARGIN_BEGIN
 40
0.06
 40
0.06
 40
0.06
 40
0.06
 40
0.18
 40
0.18
309
CELLMARGIN_END
 94
        6
 95
        1
302
GRIDFORMAT
  1
GRIDFORMAT_BEGIN
 90
        0
 91
        1
 62
     0
 92
       -2
340
0
 93
        0
 40
0.045
309
GRIDFORMAT_END
 95
        2
302
GRIDFORMAT
  1
GRIDFORMAT_BEGIN
 90
        0
 91
        1
 62
     0
 92
       -2
340
0
 93
        0
 40
0.045
309
GRIDFORMAT_END
 95
        4
302
GRIDFORMAT
  1
GRIDFORMAT_BEGIN
 90
        0
 91
        1
 62
     0
 92
       -2
340
0
 93
        0
 40
0.045
309
GRIDFORMAT_END
 95
        8
302
GRIDFORMAT
  1
GRIDFORMAT_BEGIN
 90
        0
 91
        1
 62
     0
 92
       -2
340
0
 93
        0
 40
0.045
309
GRIDFORMAT_END
 95
       16
302
GRIDFORMAT
  1
GRIDFORMAT_BEGIN
 90
        0
 91
        1
 62
     0
 92
       -2
340
0
 93
        0
 40
0.045
309
GRIDFORMAT_END
 95
       32
302
GRIDFORMAT
  1
GRIDFORMAT_BEGIN
 90
        0
 91
        1
 62
     0
 92
       -2
340
0
 93
        0
 40
0.045
309
GRIDFORMAT_END
309
TABLEFORMAT_END
  1
CELLSTYLE_BEGIN
 90
        2
 91
        1
300
_HEADER
309
CELLSTYLE_END
300
CELLSTYLE
  1
TABLEFORMAT_BEGIN
 90
        5
170
     1
 91
        0
 92
        0
 62
   257
 93
        1
300
CONTENTFORMAT
  1
CONTENTFORMAT_BEGIN
 90
        0
 91
        0
 92
      512
 93
        0
300

 40
0.0
140
1.0
 94
        2
 62
     0
340
26
144
0.18
309
CONTENTFORMAT_END
171
     1
301
MARGIN
  1
CELLMARGIN_BEGIN
 40
0.06
 40
0.06
 40
0.06
 40
0.06
 40
0.18
 40
0.18
309
CELLMARGIN_END
 94
        6
 95
        1
302
GRIDFORMAT
  1
GRIDFORMAT_BEGIN
 90
        0
 91
        1
 62
     0
 92
       -2
340
0
 93
        0
 40
0.045
309
GRIDFORMAT_END
 95
        2
302
GRIDFORMAT
  1
GRIDFORMAT_BEGIN
 90
        0
 91
        1
 62
     0
 92
       -2
340
0
 93
        0
 40
0.045
309
GRIDFORMAT_END
 95
        4
302
GRIDFORMAT
  1
GRIDFORMAT_BEGIN
 90
        0
 91
        1
 62
     0
 92
       -2
340
0
 93
        0
 40
0.045
309
GRIDFORMAT_END
 95
        8
302
GRIDFORMAT
  1
GRIDFORMAT_BEGIN
 90
        0
 91
        1
 62
     0
 92
       -2
340
0
 93
        0
 40
0.045
309
GRIDFORMAT_END
 95
       16
302
GRIDFORMAT
  1
GRIDFORMAT_BEGIN
 90
        0
 91
        1
 62
     0
 92
       -2
340
0
 93
        0
 40
0.045
309
GRIDFORMAT_END
 95
       32
302
GRIDFORMAT
  1
GRIDFORMAT_BEGIN
 90
        0
 91
        1
 62
     0
 92
       -2
340
0
 93
        0
 40
0.045
309
GRIDFORMAT_END
309
TABLEFORMAT_END
  1
CELLSTYLE_BEGIN
 90
        3
 91
        2
300
_DATA
309
CELLSTYLE_END
  0
XRECORD
  5
905
102
{ACAD_REACTORS
330
726
102
}
330
726
100
AcDbXrecord
280
     1
102
ACAD_ROUNDTRIP_PRE2007_TABLESTYLE
 90
      512
 91
        0
  1

 92
      512
 93
        0
  2

 94
      512
 95
        0
  3

  0
XRECORD
  5
8F0
102
{ACAD_REACTORS
330
8EF
102
}
330
8EF
100
AcDbXrecord
280
     1
102
RTVSPropertyOp0
 70
     1
102
RTVSPropertyOp1
 70
     1
102
RTVSPropertyOp2
 70
     1
102
RTVSPropertyOp3
 70
     1
102
RTVSPropertyOp4
 70
     1
102
RTVSPropertyOp5
 70
     1
102
RTVSPropertyOp6
 70
     1
102
RTVSPropertyOp7
 70
     1
102
RTVSPropertyOp8
 70
     1
102
RTVSPropertyOp9
 70
     1
102
RTVSPropertyOp10
 70
     1
102
RTVSPropertyOp11
 70
     1
102
RTVSPropertyOp12
 70
     1
102
RTVSPropertyOp13
 70
     1
102
RTVSPropertyOp14
 70
     1
102
RTVSPropertyOp15
 70
     1
102
RTVSPropertyOp16
 70
     1
102
RTVSPropertyOp17
 70
     1
102
RTVSPropertyOp18
 70
     1
102
RTVSPropertyOp19
 70
     1
102
RTVSPropertyOp20
 70
     1
102
RTVSPropertyOp21
 70
     1
102
RTVSPropertyOp22
 70
     1
102
RTVSPropertyOp23
 70
     1
102
RTVSPropertyOp24
 70
     1
102
RTVSPropertyOp25
 70
     1
102
RTVSPropertyOp26
 70
     1
102
RTVSPropertyOp27
 70
     1
102
RTVSPropertyOp28
 70
     1
102
RTVSPropertyOp29
 70
     1
102
RTVSPropertyOp30
 70
     1
102
RTVSPropertyOp31
 70
     1
102
RTVSPropertyOp32
 70
     1
  0
XRECORD
  5
8F4
102
{ACAD_REACTORS
330
8F3
102
}
330
8F3
100
AcDbXrecord
280
     1
102
RTVSPropertyOp0
 70
     1
102
RTVSPropertyOp1
 70
     1
102
RTVSPropertyOp2
 70
     1
102
RTVSPropertyOp3
 70
     1
102
RTVSPropertyOp4
 70
     1
102
RTVSPropertyOp5
 70
     1
102
RTVSPropertyOp6
 70
     1
102
RTVSPropertyOp7
 70
     1
102
RTVSPropertyOp8
 70
     1
102
RTVSPropertyOp9
 70
     1
102
RTVSPropertyOp10
 70
     1
102
RTVSPropertyOp11
 70
     1
102
RTVSPropertyOp12
 70
     1
102
RTVSPropertyOp13
 70
     1
102
RTVSPropertyOp14
 70
     1
102
RTVSPropertyOp15
 70
     1
102
RTVSPropertyOp16
 70
     1
102
RTVSPropertyOp17
 70
     1
102
RTVSPropertyOp18
 70
     1
102
RTVSPropertyOp19
 70
     1
102
RTVSPropertyOp20
 70
     1
102
RTVSPropertyOp21
 70
     1
102
RTVSPropertyOp22
 70
     1
102
RTVSPropertyOp23
 70
     1
102
RTVSPropertyOp24
 70
     1
102
RTVSPropertyOp25
 70
     1
102
RTVSPropertyOp26
 70
     1
102
RTVSPropertyOp27
 70
     1
102
RTVSPropertyOp28
 70
     1
102
RTVSPropertyOp29
 70
     1
102
RTVSPropertyOp30
 70
     1
102
RTVSPropertyOp31
 70
     1
102
RTVSPropertyOp32
 70
     1
  0
XRECORD
  5
8F2
102
{ACAD_REACTORS
330
8F1
102
}
330
8F1
100
AcDbXrecord
280
     1
102
RTVSPropertyOp0
 70
     1
102
RTVSPropertyOp1
 70
     1
102
RTVSPropertyOp2
 70
     1
102
RTVSPropertyOp3
 70
     1
102
RTVSPropertyOp4
 70
     1
102
RTVSPropertyOp5
 70
     1
102
RTVSPropertyOp6
 70
     1
102
RTVSPropertyOp7
 70
     1
102
RTVSPropertyOp8
 70
     1
102
RTVSPropertyOp9
 70
     1
102
RTVSPropertyOp10
 70
     1
102
RTVSPropertyOp11
 70
     1
102
RTVSPropertyOp12
 70
     1
102
RTVSPropertyOp13
 70
     1
102
RTVSPropertyOp14
 70
     1
102
RTVSPropertyOp15
 70
     1
102
RTVSPropertyOp16
 70
     1
102
RTVSPropertyOp17
 70
     1
102
RTVSPropertyOp18
 70
     1
102
RTVSPropertyOp19
 70
     1
102
RTVSPropertyOp20
 70
     1
102
RTVSPropertyOp21
 70
     1
102
RTVSPropertyOp22
 70
     1
102
RTVSPropertyOp23
 70
     1
102
RTVSPropertyOp24
 70
     1
102
RTVSPropertyOp25
 70
     1
102
RTVSPropertyOp26
 70
     1
102
RTVSPropertyOp27
 70
     1
102
RTVSPropertyOp28
 70
     1
102
RTVSPropertyOp29
 70
     1
102
RTVSPropertyOp30
 70
     1
102
RTVSPropertyOp31
 70
     1
102
RTVSPropertyOp32
 70
     1
  0
XRECORD
  5
8EE
102
{ACAD_REACTORS
330
8ED
102
}
330
8ED
100
AcDbXrecord
280
     1
102
RTVSPropertyOp0
 70
     1
102
RTVSPropertyOp1
 70
     1
102
RTVSPropertyOp2
 70
     1
102
RTVSPropertyOp3
 70
     1
102
RTVSPropertyOp4
 70
     1
102
RTVSPropertyOp5
 70
     1
102
RTVSPropertyOp6
 70
     1
102
RTVSPropertyOp7
 70
     1
102
RTVSPropertyOp8
 70
     1
102
RTVSPropertyOp9
 70
     1
102
RTVSPropertyOp10
 70
     1
102
RTVSPropertyOp11
 70
     1
102
RTVSPropertyOp12
 70
     1
102
RTVSPropertyOp13
 70
     1
102
RTVSPropertyOp14
 70
     1
102
RTVSPropertyOp15
 70
     1
102
RTVSPropertyOp16
 70
     1
102
RTVSPropertyOp17
 70
     1
102
RTVSPropertyOp18
 70
     1
102
RTVSPropertyOp19
 70
     1
102
RTVSPropertyOp20
 70
     1
102
RTVSPropertyOp21
 70
     1
102
RTVSPropertyOp22
 70
     1
102
RTVSPropertyOp23
 70
     1
102
RTVSPropertyOp24
 70
     1
102
RTVSPropertyOp25
 70
     1
102
RTVSPropertyOp26
 70
     1
102
RTVSPropertyOp27
 70
     1
102
RTVSPropertyOp28
 70
     1
102
RTVSPropertyOp29
 70
     1
102
RTVSPropertyOp30
 70
     1
102
RTVSPropertyOp31
 70
     1
102
RTVSPropertyOp32
 70
     1
  0
XRECORD
  5
8FC
102
{ACAD_REACTORS
330
8FB
102
}
330
8FB
100
AcDbXrecord
280
     1
102
RTVSPropertyOp0
 70
     1
102
RTVSPropertyOp1
 70
     1
102
RTVSPropertyOp2
 70
     1
102
RTVSPropertyOp3
 70
     1
102
RTVSPropertyOp4
 70
     1
102
RTVSPropertyOp5
 70
     1
102
RTVSPropertyOp6
 70
     1
102
RTVSPropertyOp7
 70
     1
102
RTVSPropertyOp8
 70
     1
102
RTVSPropertyOp9
 70
     1
102
RTVSPropertyOp10
 70
     1
102
RTVSPropertyOp11
 70
     1
102
RTVSPropertyOp12
 70
     1
102
RTVSPropertyOp13
 70
     1
102
RTVSPropertyOp14
 70
     1
102
RTVSPropertyOp15
 70
     1
102
RTVSPropertyOp16
 70
     1
102
RTVSPropertyOp17
 70
     1
102
RTVSPropertyOp18
 70
     1
102
RTVSPropertyOp19
 70
     1
102
RTVSPropertyOp20
 70
     1
102
RTVSPropertyOp21
 70
     1
102
RTVSPropertyOp22
 70
     1
102
RTVSPropertyOp23
 70
     1
102
RTVSPropertyOp24
 70
     1
102
RTVSPropertyOp25
 70
     1
102
RTVSPropertyOp26
 70
     1
102
RTVSPropertyOp27
 70
     1
102
RTVSPropertyOp28
 70
     1
102
RTVSPropertyOp29
 70
     1
102
RTVSPropertyOp30
 70
     1
102
RTVSPropertyOp31
 70
     1
102
RTVSPropertyOp32
 70
     1
  0
XRECORD
  5
904
102
{ACAD_REACTORS
330
903
102
}
330
903
100
AcDbXrecord
280
     1
102
RTVSPropertyOp0
 70
     1
102
RTVSPropertyOp1
 70
     1
102
RTVSPropertyOp2
 70
     1
102
RTVSPropertyOp3
 70
     1
102
RTVSPropertyOp4
 70
     1
102
RTVSPropertyOp5
 70
     1
102
RTVSPropertyOp6
 70
     1
102
RTVSPropertyOp7
 70
     1
102
RTVSPropertyOp8
 70
     1
102
RTVSPropertyOp9
 70
     1
102
RTVSPropertyOp10
 70
     1
102
RTVSPropertyOp11
 70
     1
102
RTVSPropertyOp12
 70
     1
102
RTVSPropertyOp13
 70
     1
102
RTVSPropertyOp14
 70
     1
102
RTVSPropertyOp15
 70
     1
102
RTVSPropertyOp16
 70
     1
102
RTVSPropertyOp17
 70
     1
102
RTVSPropertyOp18
 70
     1
102
RTVSPropertyOp19
 70
     1
102
RTVSPropertyOp20
 70
     1
102
RTVSPropertyOp21
 70
     1
102
RTVSPropertyOp22
 70
     1
102
RTVSPropertyOp23
 70
     1
102
RTVSPropertyOp24
 70
     1
102
RTVSPropertyOp25
 70
     1
102
RTVSPropertyOp26
 70
     1
102
RTVSPropertyOp27
 70
     1
102
RTVSPropertyOp28
 70
     1
102
RTVSPropertyOp29
 70
     1
102
RTVSPropertyOp30
 70
     1
102
RTVSPropertyOp31
 70
     1
102
RTVSPropertyOp32
 70
     1
  0
XRECORD
  5
8F6
102
{ACAD_REACTORS
330
8F5
102
}
330
8F5
100
AcDbXrecord
280
     1
102
RTVSPropertyOp0
 70
     1
102
RTVSPropertyOp1
 70
     1
102
RTVSPropertyOp2
 70
     1
102
RTVSPropertyOp3
 70
     1
102
RTVSPropertyOp4
 70
     1
102
RTVSPropertyOp5
 70
     1
102
RTVSPropertyOp6
 70
     1
102
RTVSPropertyOp7
 70
     1
102
RTVSPropertyOp8
 70
     1
102
RTVSPropertyOp9
 70
     1
102
RTVSPropertyOp10
 70
     1
102
RTVSPropertyOp11
 70
     1
102
RTVSPropertyOp12
 70
     1
102
RTVSPropertyOp13
 70
     1
102
RTVSPropertyOp14
 70
     1
102
RTVSPropertyOp15
 70
     1
102
RTVSPropertyOp16
 70
     1
102
RTVSPropertyOp17
 70
     1
102
RTVSPropertyOp18
 70
     1
102
RTVSPropertyOp19
 70
     1
102
RTVSPropertyOp20
 70
     1
102
RTVSPropertyOp21
 70
     1
102
RTVSPropertyOp22
 70
     1
102
RTVSPropertyOp23
 70
     1
102
RTVSPropertyOp24
 70
     1
102
RTVSPropertyOp25
 70
     1
102
RTVSPropertyOp26
 70
     1
102
RTVSPropertyOp27
 70
     1
102
RTVSPropertyOp28
 70
     1
102
RTVSPropertyOp29
 70
     1
102
RTVSPropertyOp30
 70
     1
102
RTVSPropertyOp31
 70
     1
102
RTVSPropertyOp32
 70
     1
  0
XRECORD
  5
8FA
102
{ACAD_REACTORS
330
8F9
102
}
330
8F9
100
AcDbXrecord
280
     1
102
RTVSPropertyOp0
 70
     1
102
RTVSPropertyOp1
 70
     1
102
RTVSPropertyOp2
 70
     1
102
RTVSPropertyOp3
 70
     1
102
RTVSPropertyOp4
 70
     1
102
RTVSPropertyOp5
 70
     1
102
RTVSPropertyOp6
 70
     1
102
RTVSPropertyOp7
 70
     1
102
RTVSPropertyOp8
 70
     1
102
RTVSPropertyOp9
 70
     1
102
RTVSPropertyOp10
 70
     1
102
RTVSPropertyOp11
 70
     1
102
RTVSPropertyOp12
 70
     1
102
RTVSPropertyOp13
 70
     1
102
RTVSPropertyOp14
 70
     1
102
RTVSPropertyOp15
 70
     1
102
RTVSPropertyOp16
 70
     1
102
RTVSPropertyOp17
 70
     1
102
RTVSPropertyOp18
 70
     1
102
RTVSPropertyOp19
 70
     1
102
RTVSPropertyOp20
 70
     1
102
RTVSPropertyOp21
 70
     1
102
RTVSPropertyOp22
 70
     1
102
RTVSPropertyOp23
 70
     1
102
RTVSPropertyOp24
 70
     1
102
RTVSPropertyOp25
 70
     1
102
RTVSPropertyOp26
 70
     1
102
RTVSPropertyOp27
 70
     1
102
RTVSPropertyOp28
 70
     1
102
RTVSPropertyOp29
 70
     1
102
RTVSPropertyOp30
 70
     1
102
RTVSPropertyOp31
 70
     1
102
RTVSPropertyOp32
 70
     1
  0
XRECORD
  5
91D
102
{ACAD_REACTORS
330
91C
102
}
330
91C
100
AcDbXrecord
280
     1
102
RTVSPropertyOp0
 70
     0
102
RTVSPropertyOp1
 70
     0
102
RTVSPropertyOp2
 70
     0
102
RTVSPropertyOp3
 70
     0
102
RTVSPropertyOp4
 70
     0
102
RTVSPropertyOp5
 70
     0
102
RTVSPropertyOp6
 70
     0
102
RTVSPropertyOp7
 70
     0
102
RTVSPropertyOp8
 70
     0
102
RTVSPropertyOp9
 70
     0
102
RTVSPropertyOp10
 70
     0
102
RTVSPropertyOp11
 70
     0
102
RTVSPropertyOp12
 70
     0
102
RTVSPropertyOp13
 70
     0
102
RTVSPropertyOp14
 70
     2
102
RTVSPropertyOp15
 70
     0
102
RTVSPropertyOp16
 70
     0
102
RTVSPropertyOp17
 70
     0
102
RTVSPropertyOp18
 70
     0
102
RTVSPropertyOp19
 70
     0
102
RTVSPropertyOp20
 70
     0
102
RTVSPropertyOp21
 70
     0
102
RTVSPropertyOp22
 70
     0
102
RTVSPropertyOp23
 70
     0
102
RTVSPropertyOp24
 70
     0
102
RTVSPropertyOp25
 70
     0
102
RTVSPropertyOp26
 70
     0
102
RTVSPropertyOp27
 70
     0
102
RTVSPropertyOp28
 70
     0
102
RTVSPropertyOp29
 70
     0
102
RTVSPropertyOp30
 70
     0
102
RTVSPropertyOp31
 70
     0
102
RTVSPropertyOp32
 70
     0
  0
XRECORD
  5
902
102
{ACAD_REACTORS
330
901
102
}
330
901
100
AcDbXrecord
280
     1
102
RTVSPropertyOp0
 70
     1
102
RTVSPropertyOp1
 70
     1
102
RTVSPropertyOp2
 70
     1
102
RTVSPropertyOp3
 70
     1
102
RTVSPropertyOp4
 70
     1
102
RTVSPropertyOp5
 70
     1
102
RTVSPropertyOp6
 70
     1
102
RTVSPropertyOp7
 70
     1
102
RTVSPropertyOp8
 70
     1
102
RTVSPropertyOp9
 70
     1
102
RTVSPropertyOp10
 70
     1
102
RTVSPropertyOp11
 70
     1
102
RTVSPropertyOp12
 70
     1
102
RTVSPropertyOp13
 70
     1
102
RTVSPropertyOp14
 70
     1
102
RTVSPropertyOp15
 70
     1
102
RTVSPropertyOp16
 70
     1
102
RTVSPropertyOp17
 70
     1
102
RTVSPropertyOp18
 70
     1
102
RTVSPropertyOp19
 70
     1
102
RTVSPropertyOp20
 70
     1
102
RTVSPropertyOp21
 70
     1
102
RTVSPropertyOp22
 70
     1
102
RTVSPropertyOp23
 70
     1
102
RTVSPropertyOp24
 70
     1
102
RTVSPropertyOp25
 70
     1
102
RTVSPropertyOp26
 70
     1
102
RTVSPropertyOp27
 70
     1
102
RTVSPropertyOp28
 70
     1
102
RTVSPropertyOp29
 70
     1
102
RTVSPropertyOp30
 70
     1
102
RTVSPropertyOp31
 70
     1
102
RTVSPropertyOp32
 70
     1
  0
XRECORD
  5
8E6
102
{ACAD_REACTORS
330
8E5
102
}
330
8E5
100
AcDbXrecord
280
     1
102
RTVSPropertyOp0
 70
     1
102
RTVSPropertyOp1
 70
     1
102
RTVSPropertyOp2
 70
     1
102
RTVSPropertyOp3
 70
     1
102
RTVSPropertyOp4
 70
     1
102
RTVSPropertyOp5
 70
     1
102
RTVSPropertyOp6
 70
     1
102
RTVSPropertyOp7
 70
     1
102
RTVSPropertyOp8
 70
     1
102
RTVSPropertyOp9
 70
     1
102
RTVSPropertyOp10
 70
     1
102
RTVSPropertyOp11
 70
     1
102
RTVSPropertyOp12
 70
     1
102
RTVSPropertyOp13
 70
     1
102
RTVSPropertyOp14
 70
     1
102
RTVSPropertyOp15
 70
     1
102
RTVSPropertyOp16
 70
     1
102
RTVSPropertyOp17
 70
     1
102
RTVSPropertyOp18
 70
     1
102
RTVSPropertyOp19
 70
     1
102
RTVSPropertyOp20
 70
     1
102
RTVSPropertyOp21
 70
     1
102
RTVSPropertyOp22
 70
     1
102
RTVSPropertyOp23
 70
     1
102
RTVSPropertyOp24
 70
     1
102
RTVSPropertyOp25
 70
     1
102
RTVSPropertyOp26
 70
     1
102
RTVSPropertyOp27
 70
     1
102
RTVSPropertyOp28
 70
     1
102
RTVSPropertyOp29
 70
     1
102
RTVSPropertyOp30
 70
     1
102
RTVSPropertyOp31
 70
     1
102
RTVSPropertyOp32
 70
     1
  0
XRECORD
  5
8E8
102
{ACAD_REACTORS
330
8E7
102
}
330
8E7
100
AcDbXrecord
280
     1
102
RTVSPropertyOp0
 70
     1
102
RTVSPropertyOp1
 70
     1
102
RTVSPropertyOp2
 70
     1
102
RTVSPropertyOp3
 70
     1
102
RTVSPropertyOp4
 70
     1
102
RTVSPropertyOp5
 70
     1
102
RTVSPropertyOp6
 70
     1
102
RTVSPropertyOp7
 70
     1
102
RTVSPropertyOp8
 70
     1
102
RTVSPropertyOp9
 70
     1
102
RTVSPropertyOp10
 70
     1
102
RTVSPropertyOp11
 70
     1
102
RTVSPropertyOp12
 70
     1
102
RTVSPropertyOp13
 70
     1
102
RTVSPropertyOp14
 70
     1
102
RTVSPropertyOp15
 70
     1
102
RTVSPropertyOp16
 70
     1
102
RTVSPropertyOp17
 70
     1
102
RTVSPropertyOp18
 70
     1
102
RTVSPropertyOp19
 70
     1
102
RTVSPropertyOp20
 70
     1
102
RTVSPropertyOp21
 70
     1
102
RTVSPropertyOp22
 70
     1
102
RTVSPropertyOp23
 70
     1
102
RTVSPropertyOp24
 70
     1
102
RTVSPropertyOp25
 70
     1
102
RTVSPropertyOp26
 70
     1
102
RTVSPropertyOp27
 70
     1
102
RTVSPropertyOp28
 70
     1
102
RTVSPropertyOp29
 70
     1
102
RTVSPropertyOp30
 70
     1
102
RTVSPropertyOp31
 70
     1
102
RTVSPropertyOp32
 70
     1
  0
XRECORD
  5
8EA
102
{ACAD_REACTORS
330
8E9
102
}
330
8E9
100
AcDbXrecord
280
     1
102
RTVSPropertyOp0
 70
     1
102
RTVSPropertyOp1
 70
     1
102
RTVSPropertyOp2
 70
     1
102
RTVSPropertyOp3
 70
     1
102
RTVSPropertyOp4
 70
     1
102
RTVSPropertyOp5
 70
     1
102
RTVSPropertyOp6
 70
     1
102
RTVSPropertyOp7
 70
     1
102
RTVSPropertyOp8
 70
     1
102
RTVSPropertyOp9
 70
     1
102
RTVSPropertyOp10
 70
     1
102
RTVSPropertyOp11
 70
     1
102
RTVSPropertyOp12
 70
     1
102
RTVSPropertyOp13
 70
     1
102
RTVSPropertyOp14
 70
     1
102
RTVSPropertyOp15
 70
     1
102
RTVSPropertyOp16
 70
     1
102
RTVSPropertyOp17
 70
     1
102
RTVSPropertyOp18
 70
     1
102
RTVSPropertyOp19
 70
     1
102
RTVSPropertyOp20
 70
     1
102
RTVSPropertyOp21
 70
     1
102
RTVSPropertyOp22
 70
     1
102
RTVSPropertyOp23
 70
     1
102
RTVSPropertyOp24
 70
     1
102
RTVSPropertyOp25
 70
     1
102
RTVSPropertyOp26
 70
     1
102
RTVSPropertyOp27
 70
     1
102
RTVSPropertyOp28
 70
     1
102
RTVSPropertyOp29
 70
     1
102
RTVSPropertyOp30
 70
     1
102
RTVSPropertyOp31
 70
     1
102
RTVSPropertyOp32
 70
     1
  0
XRECORD
  5
8EC
102
{ACAD_REACTORS
330
8EB
102
}
330
8EB
100
AcDbXrecord
280
     1
102
RTVSPropertyOp0
 70
     1
102
RTVSPropertyOp1
 70
     1
102
RTVSPropertyOp2
 70
     1
102
RTVSPropertyOp3
 70
     1
102
RTVSPropertyOp4
 70
     1
102
RTVSPropertyOp5
 70
     1
102
RTVSPropertyOp6
 70
     1
102
RTVSPropertyOp7
 70
     1
102
RTVSPropertyOp8
 70
     1
102
RTVSPropertyOp9
 70
     1
102
RTVSPropertyOp10
 70
     1
102
RTVSPropertyOp11
 70
     1
102
RTVSPropertyOp12
 70
     1
102
RTVSPropertyOp13
 70
     1
102
RTVSPropertyOp14
 70
     1
102
RTVSPropertyOp15
 70
     1
102
RTVSPropertyOp16
 70
     1
102
RTVSPropertyOp17
 70
     1
102
RTVSPropertyOp18
 70
     1
102
RTVSPropertyOp19
 70
     1
102
RTVSPropertyOp20
 70
     1
102
RTVSPropertyOp21
 70
     1
102
RTVSPropertyOp22
 70
     1
102
RTVSPropertyOp23
 70
     1
102
RTVSPropertyOp24
 70
     1
102
RTVSPropertyOp25
 70
     1
102
RTVSPropertyOp26
 70
     1
102
RTVSPropertyOp27
 70
     1
102
RTVSPropertyOp28
 70
     1
102
RTVSPropertyOp29
 70
     1
102
RTVSPropertyOp30
 70
     1
102
RTVSPropertyOp31
 70
     1
102
RTVSPropertyOp32
 70
     1
  0
XRECORD
  5
90D
102
{ACAD_REACTORS
330
90C
102
}
330
90C
100
AcDbXrecord
280
     1
102
RTVSPropertyOp0
 70
     1
102
RTVSPropertyOp1
 70
     1
102
RTVSPropertyOp2
 70
     1
102
RTVSPropertyOp3
 70
     1
102
RTVSPropertyOp4
 70
     1
102
RTVSPropertyOp5
 70
     1
102
RTVSPropertyOp6
 70
     1
102
RTVSPropertyOp7
 70
     1
102
RTVSPropertyOp8
 70
     1
102
RTVSPropertyOp9
 70
     1
102
RTVSPropertyOp10
 70
     1
102
RTVSPropertyOp11
 70
     1
102
RTVSPropertyOp12
 70
     1
102
RTVSPropertyOp13
 70
     1
102
RTVSPropertyOp14
 70
     1
102
RTVSPropertyOp15
 70
     1
102
RTVSPropertyOp16
 70
     1
102
RTVSPropertyOp17
 70
     1
102
RTVSPropertyOp18
 70
     1
102
RTVSPropertyOp19
 70
     1
102
RTVSPropertyOp20
 70
     1
102
RTVSPropertyOp21
 70
     1
102
RTVSPropertyOp22
 70
     1
102
RTVSPropertyOp23
 70
     1
102
RTVSPropertyOp24
 70
     1
102
RTVSPropertyOp25
 70
     1
102
RTVSPropertyOp26
 70
     1
102
RTVSPropertyOp27
 70
     1
102
RTVSPropertyOp28
 70
     1
102
RTVSPropertyOp29
 70
     1
102
RTVSPropertyOp30
 70
     1
102
RTVSPropertyOp31
 70
     1
102
RTVSPropertyOp32
 70
     1
  0
XRECORD
  5
919
102
{ACAD_REACTORS
330
918
102
}
330
918
100
AcDbXrecord
280
     1
102
RTVSPropertyOp0
 70
     0
102
RTVSPropertyOp1
 70
     0
102
RTVSPropertyOp2
 70
     0
102
RTVSPropertyOp3
 70
     0
102
RTVSPropertyOp4
 70
     0
102
RTVSPropertyOp5
 70
     0
102
RTVSPropertyOp6
 70
     0
102
RTVSPropertyOp7
 70
     0
102
RTVSPropertyOp8
 70
     0
102
RTVSPropertyOp9
 70
     0
102
RTVSPropertyOp10
 70
     0
102
RTVSPropertyOp11
 70
     0
102
RTVSPropertyOp12
 70
     0
102
RTVSPropertyOp13
 70
     0
102
RTVSPropertyOp14
 70
     2
102
RTVSPropertyOp15
 70
     0
102
RTVSPropertyOp16
 70
     0
102
RTVSPropertyOp17
 70
     0
102
RTVSPropertyOp18
 70
     0
102
RTVSPropertyOp19
 70
     0
102
RTVSPropertyOp20
 70
     0
102
RTVSPropertyOp21
 70
     0
102
RTVSPropertyOp22
 70
     0
102
RTVSPropertyOp23
 70
     0
102
RTVSPropertyOp24
 70
     0
102
RTVSPropertyOp25
 70
     0
102
RTVSPropertyOp26
 70
     0
102
RTVSPropertyOp27
 70
     0
102
RTVSPropertyOp28
 70
     0
102
RTVSPropertyOp29
 70
     0
102
RTVSPropertyOp30
 70
     0
102
RTVSPropertyOp31
 70
     0
102
RTVSPropertyOp32
 70
     0
  0
XRECORD
  5
900
102
{ACAD_REACTORS
330
8FF
102
}
330
8FF
100
AcDbXrecord
280
     1
102
RTVSPropertyOp0
 70
     1
102
RTVSPropertyOp1
 70
     1
102
RTVSPropertyOp2
 70
     1
102
RTVSPropertyOp3
 70
     1
102
RTVSPropertyOp4
 70
     1
102
RTVSPropertyOp5
 70
     1
102
RTVSPropertyOp6
 70
     1
102
RTVSPropertyOp7
 70
     1
102
RTVSPropertyOp8
 70
     1
102
RTVSPropertyOp9
 70
     1
102
RTVSPropertyOp10
 70
     1
102
RTVSPropertyOp11
 70
     1
102
RTVSPropertyOp12
 70
     1
102
RTVSPropertyOp13
 70
     1
102
RTVSPropertyOp14
 70
     1
102
RTVSPropertyOp15
 70
     1
102
RTVSPropertyOp16
 70
     1
102
RTVSPropertyOp17
 70
     1
102
RTVSPropertyOp18
 70
     1
102
RTVSPropertyOp19
 70
     1
102
RTVSPropertyOp20
 70
     1
102
RTVSPropertyOp21
 70
     1
102
RTVSPropertyOp22
 70
     1
102
RTVSPropertyOp23
 70
     1
102
RTVSPropertyOp24
 70
     1
102
RTVSPropertyOp25
 70
     1
102
RTVSPropertyOp26
 70
     1
102
RTVSPropertyOp27
 70
     1
102
RTVSPropertyOp28
 70
     1
102
RTVSPropertyOp29
 70
     1
102
RTVSPropertyOp30
 70
     1
102
RTVSPropertyOp31
 70
     1
102
RTVSPropertyOp32
 70
     1
  0
XRECORD
  5
91B
102
{ACAD_REACTORS
330
91A
102
}
330
91A
100
AcDbXrecord
280
     1
102
RTVSPropertyOp0
 70
     0
102
RTVSPropertyOp1
 70
     0
102
RTVSPropertyOp2
 70
     0
102
RTVSPropertyOp3
 70
     0
102
RTVSPropertyOp4
 70
     0
102
RTVSPropertyOp5
 70
     0
102
RTVSPropertyOp6
 70
     0
102
RTVSPropertyOp7
 70
     0
102
RTVSPropertyOp8
 70
     0
102
RTVSPropertyOp9
 70
     0
102
RTVSPropertyOp10
 70
     0
102
RTVSPropertyOp11
 70
     0
102
RTVSPropertyOp12
 70
     0
102
RTVSPropertyOp13
 70
     0
102
RTVSPropertyOp14
 70
     2
102
RTVSPropertyOp15
 70
     0
102
RTVSPropertyOp16
 70
     0
102
RTVSPropertyOp17
 70
     0
102
RTVSPropertyOp18
 70
     0
102
RTVSPropertyOp19
 70
     0
102
RTVSPropertyOp20
 70
     0
102
RTVSPropertyOp21
 70
     0
102
RTVSPropertyOp22
 70
     0
102
RTVSPropertyOp23
 70
     0
102
RTVSPropertyOp24
 70
     0
102
RTVSPropertyOp25
 70
     0
102
RTVSPropertyOp26
 70
     0
102
RTVSPropertyOp27
 70
     0
102
RTVSPropertyOp28
 70
     0
102
RTVSPropertyOp29
 70
     0
102
RTVSPropertyOp30
 70
     0
102
RTVSPropertyOp31
 70
     0
102
RTVSPropertyOp32
 70
     0
  0
XRECORD
  5
8F8
102
{ACAD_REACTORS
330
8F7
102
}
330
8F7
100
AcDbXrecord
280
     1
102
RTVSPropertyOp0
 70
     1
102
RTVSPropertyOp1
 70
     1
102
RTVSPropertyOp2
 70
     1
102
RTVSPropertyOp3
 70
     1
102
RTVSPropertyOp4
 70
     1
102
RTVSPropertyOp5
 70
     1
102
RTVSPropertyOp6
 70
     1
102
RTVSPropertyOp7
 70
     1
102
RTVSPropertyOp8
 70
     1
102
RTVSPropertyOp9
 70
     1
102
RTVSPropertyOp10
 70
     1
102
RTVSPropertyOp11
 70
     1
102
RTVSPropertyOp12
 70
     1
102
RTVSPropertyOp13
 70
     1
102
RTVSPropertyOp14
 70
     1
102
RTVSPropertyOp15
 70
     1
102
RTVSPropertyOp16
 70
     1
102
RTVSPropertyOp17
 70
     1
102
RTVSPropertyOp18
 70
     1
102
RTVSPropertyOp19
 70
     1
102
RTVSPropertyOp20
 70
     1
102
RTVSPropertyOp21
 70
     1
102
RTVSPropertyOp22
 70
     1
102
RTVSPropertyOp23
 70
     1
102
RTVSPropertyOp24
 70
     1
102
RTVSPropertyOp25
 70
     1
102
RTVSPropertyOp26
 70
     1
102
RTVSPropertyOp27
 70
     1
102
RTVSPropertyOp28
 70
     1
102
RTVSPropertyOp29
 70
     1
102
RTVSPropertyOp30
 70
     1
102
RTVSPropertyOp31
 70
     1
102
RTVSPropertyOp32
 70
     1
  0
XRECORD
  5
917
102
{ACAD_REACTORS
330
916
102
}
330
916
100
AcDbXrecord
280
     1
102
RTVSPropertyOp0
 70
     1
102
RTVSPropertyOp1
 70
     1
102
RTVSPropertyOp2
 70
     1
102
RTVSPropertyOp3
 70
     1
102
RTVSPropertyOp4
 70
     1
102
RTVSPropertyOp5
 70
     1
102
RTVSPropertyOp6
 70
     1
102
RTVSPropertyOp7
 70
     1
102
RTVSPropertyOp8
 70
     1
102
RTVSPropertyOp9
 70
     1
102
RTVSPropertyOp10
 70
     1
102
RTVSPropertyOp11
 70
     1
102
RTVSPropertyOp12
 70
     1
102
RTVSPropertyOp13
 70
     1
102
RTVSPropertyOp14
 70
     1
102
RTVSPropertyOp15
 70
     1
102
RTVSPropertyOp16
 70
     1
102
RTVSPropertyOp17
 70
     1
102
RTVSPropertyOp18
 70
     1
102
RTVSPropertyOp19
 70
     1
102
RTVSPropertyOp20
 70
     1
102
RTVSPropertyOp21
 70
     1
102
RTVSPropertyOp22
 70
     1
102
RTVSPropertyOp23
 70
     1
102
RTVSPropertyOp24
 70
     1
102
RTVSPropertyOp25
 70
     1
102
RTVSPropertyOp26
 70
     1
102
RTVSPropertyOp27
 70
     1
102
RTVSPropertyOp28
 70
     1
102
RTVSPropertyOp29
 70
     1
102
RTVSPropertyOp30
 70
     1
102
RTVSPropertyOp31
 70
     1
102
RTVSPropertyOp32
 70
     1
  0
XRECORD
  5
915
102
{ACAD_REACTORS
330
914
102
}
330
914
100
AcDbXrecord
280
     1
102
RTVSPropertyOp0
 70
     1
102
RTVSPropertyOp1
 70
     1
102
RTVSPropertyOp2
 70
     1
102
RTVSPropertyOp3
 70
     1
102
RTVSPropertyOp4
 70
     1
102
RTVSPropertyOp5
 70
     1
102
RTVSPropertyOp6
 70
     1
102
RTVSPropertyOp7
 70
     1
102
RTVSPropertyOp8
 70
     1
102
RTVSPropertyOp9
 70
     1
102
RTVSPropertyOp10
 70
     1
102
RTVSPropertyOp11
 70
     1
102
RTVSPropertyOp12
 70
     1
102
RTVSPropertyOp13
 70
     1
102
RTVSPropertyOp14
 70
     1
102
RTVSPropertyOp15
 70
     1
102
RTVSPropertyOp16
 70
     1
102
RTVSPropertyOp17
 70
     1
102
RTVSPropertyOp18
 70
     1
102
RTVSPropertyOp19
 70
     1
102
RTVSPropertyOp20
 70
     1
102
RTVSPropertyOp21
 70
     1
102
RTVSPropertyOp22
 70
     1
102
RTVSPropertyOp23
 70
     1
102
RTVSPropertyOp24
 70
     1
102
RTVSPropertyOp25
 70
     1
102
RTVSPropertyOp26
 70
     1
102
RTVSPropertyOp27
 70
     1
102
RTVSPropertyOp28
 70
     1
102
RTVSPropertyOp29
 70
     1
102
RTVSPropertyOp30
 70
     1
102
RTVSPropertyOp31
 70
     1
102
RTVSPropertyOp32
 70
     1
  0
XRECORD
  5
90F
102
{ACAD_REACTORS
330
90E
102
}
330
90E
100
AcDbXrecord
280
     1
102
RTVSPropertyOp0
 70
     1
102
RTVSPropertyOp1
 70
     1
102
RTVSPropertyOp2
 70
     1
102
RTVSPropertyOp3
 70
     1
102
RTVSPropertyOp4
 70
     1
102
RTVSPropertyOp5
 70
     1
102
RTVSPropertyOp6
 70
     1
102
RTVSPropertyOp7
 70
     1
102
RTVSPropertyOp8
 70
     1
102
RTVSPropertyOp9
 70
     1
102
RTVSPropertyOp10
 70
     1
102
RTVSPropertyOp11
 70
     1
102
RTVSPropertyOp12
 70
     1
102
RTVSPropertyOp13
 70
     1
102
RTVSPropertyOp14
 70
     1
102
RTVSPropertyOp15
 70
     1
102
RTVSPropertyOp16
 70
     1
102
RTVSPropertyOp17
 70
     1
102
RTVSPropertyOp18
 70
     1
102
RTVSPropertyOp19
 70
     1
102
RTVSPropertyOp20
 70
     1
102
RTVSPropertyOp21
 70
     1
102
RTVSPropertyOp22
 70
     1
102
RTVSPropertyOp23
 70
     1
102
RTVSPropertyOp24
 70
     1
102
RTVSPropertyOp25
 70
     1
102
RTVSPropertyOp26
 70
     1
102
RTVSPropertyOp27
 70
     1
102
RTVSPropertyOp28
 70
     1
102
RTVSPropertyOp29
 70
     1
102
RTVSPropertyOp30
 70
     1
102
RTVSPropertyOp31
 70
     1
102
RTVSPropertyOp32
 70
     1
  0
XRECORD
  5
911
102
{ACAD_REACTORS
330
910
102
}
330
910
100
AcDbXrecord
280
     1
102
RTVSPropertyOp0
 70
     1
102
RTVSPropertyOp1
 70
     1
102
RTVSPropertyOp2
 70
     1
102
RTVSPropertyOp3
 70
     1
102
RTVSPropertyOp4
 70
     1
102
RTVSPropertyOp5
 70
     1
102
RTVSPropertyOp6
 70
     1
102
RTVSPropertyOp7
 70
     1
102
RTVSPropertyOp8
 70
     1
102
RTVSPropertyOp9
 70
     1
102
RTVSPropertyOp10
 70
     1
102
RTVSPropertyOp11
 70
     1
102
RTVSPropertyOp12
 70
     1
102
RTVSPropertyOp13
 70
     1
102
RTVSPropertyOp14
 70
     1
102
RTVSPropertyOp15
 70
     1
102
RTVSPropertyOp16
 70
     1
102
RTVSPropertyOp17
 70
     1
102
RTVSPropertyOp18
 70
     1
102
RTVSPropertyOp19
 70
     1
102
RTVSPropertyOp20
 70
     1
102
RTVSPropertyOp21
 70
     1
102
RTVSPropertyOp22
 70
     1
102
RTVSPropertyOp23
 70
     1
102
RTVSPropertyOp24
 70
     1
102
RTVSPropertyOp25
 70
     1
102
RTVSPropertyOp26
 70
     1
102
RTVSPropertyOp27
 70
     1
102
RTVSPropertyOp28
 70
     1
102
RTVSPropertyOp29
 70
     1
102
RTVSPropertyOp30
 70
     1
102
RTVSPropertyOp31
 70
     1
102
RTVSPropertyOp32
 70
     1
  0
XRECORD
  5
8FE
102
{ACAD_REACTORS
330
8FD
102
}
330
8FD
100
AcDbXrecord
280
     1
102
RTVSPropertyOp0
 70
     1
102
RTVSPropertyOp1
 70
     1
102
RTVSPropertyOp2
 70
     1
102
RTVSPropertyOp3
 70
     1
102
RTVSPropertyOp4
 70
     1
102
RTVSPropertyOp5
 70
     1
102
RTVSPropertyOp6
 70
     1
102
RTVSPropertyOp7
 70
     1
102
RTVSPropertyOp8
 70
     1
102
RTVSPropertyOp9
 70
     1
102
RTVSPropertyOp10
 70
     1
102
RTVSPropertyOp11
 70
     1
102
RTVSPropertyOp12
 70
     1
102
RTVSPropertyOp13
 70
     1
102
RTVSPropertyOp14
 70
     1
102
RTVSPropertyOp15
 70
     1
102
RTVSPropertyOp16
 70
     1
102
RTVSPropertyOp17
 70
     1
102
RTVSPropertyOp18
 70
     1
102
RTVSPropertyOp19
 70
     1
102
RTVSPropertyOp20
 70
     1
102
RTVSPropertyOp21
 70
     1
102
RTVSPropertyOp22
 70
     1
102
RTVSPropertyOp23
 70
     1
102
RTVSPropertyOp24
 70
     1
102
RTVSPropertyOp25
 70
     1
102
RTVSPropertyOp26
 70
     1
102
RTVSPropertyOp27
 70
     1
102
RTVSPropertyOp28
 70
     1
102
RTVSPropertyOp29
 70
     1
102
RTVSPropertyOp30
 70
     1
102
RTVSPropertyOp31
 70
     1
102
RTVSPropertyOp32
 70
     1
  0
XRECORD
  5
90B
102
{ACAD_REACTORS
330
90A
102
}
330
90A
100
AcDbXrecord
280
     1
102
RTVSPropertyOp0
 70
     1
102
RTVSPropertyOp1
 70
     1
102
RTVSPropertyOp2
 70
     1
102
RTVSPropertyOp3
 70
     1
102
RTVSPropertyOp4
 70
     1
102
RTVSPropertyOp5
 70
     1
102
RTVSPropertyOp6
 70
     1
102
RTVSPropertyOp7
 70
     1
102
RTVSPropertyOp8
 70
     1
102
RTVSPropertyOp9
 70
     1
102
RTVSPropertyOp10
 70
     1
102
RTVSPropertyOp11
 70
     1
102
RTVSPropertyOp12
 70
     1
102
RTVSPropertyOp13
 70
     1
102
RTVSPropertyOp14
 70
     1
102
RTVSPropertyOp15
 70
     1
102
RTVSPropertyOp16
 70
     1
102
RTVSPropertyOp17
 70
     1
102
RTVSPropertyOp18
 70
     1
102
RTVSPropertyOp19
 70
     1
102
RTVSPropertyOp20
 70
     1
102
RTVSPropertyOp21
 70
     1
102
RTVSPropertyOp22
 70
     1
102
RTVSPropertyOp23
 70
     1
102
RTVSPropertyOp24
 70
     1
102
RTVSPropertyOp25
 70
     1
102
RTVSPropertyOp26
 70
     1
102
RTVSPropertyOp27
 70
     1
102
RTVSPropertyOp28
 70
     1
102
RTVSPropertyOp29
 70
     1
102
RTVSPropertyOp30
 70
     1
102
RTVSPropertyOp31
 70
     1
102
RTVSPropertyOp32
 70
     1
  0
XRECORD
  5
913
102
{ACAD_REACTORS
330
912
102
}
330
912
100
AcDbXrecord
280
     1
102
RTVSPropertyOp0
 70
     1
102
RTVSPropertyOp1
 70
     1
102
RTVSPropertyOp2
 70
     1
102
RTVSPropertyOp3
 70
     1
102
RTVSPropertyOp4
 70
     1
102
RTVSPropertyOp5
 70
     1
102
RTVSPropertyOp6
 70
     1
102
RTVSPropertyOp7
 70
     1
102
RTVSPropertyOp8
 70
     1
102
RTVSPropertyOp9
 70
     1
102
RTVSPropertyOp10
 70
     1
102
RTVSPropertyOp11
 70
     1
102
RTVSPropertyOp12
 70
     1
102
RTVSPropertyOp13
 70
     1
102
RTVSPropertyOp14
 70
     1
102
RTVSPropertyOp15
 70
     1
102
RTVSPropertyOp16
 70
     1
102
RTVSPropertyOp17
 70
     1
102
RTVSPropertyOp18
 70
     1
102
RTVSPropertyOp19
 70
     1
102
RTVSPropertyOp20
 70
     1
102
RTVSPropertyOp21
 70
     1
102
RTVSPropertyOp22
 70
     1
102
RTVSPropertyOp23
 70
     1
102
RTVSPropertyOp24
 70
     1
102
RTVSPropertyOp25
 70
     1
102
RTVSPropertyOp26
 70
     1
102
RTVSPropertyOp27
 70
     1
102
RTVSPropertyOp28
 70
     1
102
RTVSPropertyOp29
 70
     1
102
RTVSPropertyOp30
 70
     1
102
RTVSPropertyOp31
 70
     1
102
RTVSPropertyOp32
 70
     1
  0
ENDSEC
  0
EOF
