  0
SECTION
  2
HEADER
  9
$ACADVER
  1
AC1015
  9
$ACADMAINTVER
 70
    20
  9
$DWGCODEPAGE
  3
ANSI_932
  9
$INSBASE
 10
0.0
 20
0.0
 30
0.0
  9
$EXTMIN
 10
-379.3029369678643
 20
-28.01460385318683
 30
-0.0015258207003583
  9
$EXTMAX
 10
25.72494383846424
 20
245.9975400244406
 30
0.0000000349246037
  9
$LIMMIN
 10
-379.283501
 20
-28.0045
  9
$LIMMAX
 10
25.744361
 20
246.052865
  9
$ORTHOMODE
 70
     1
  9
$REGENMODE
 70
     1
  9
$FILLMODE
 70
     1
  9
$QTEXTMODE
 70
     0
  9
$MIRRTEXT
 70
     0
  9
$LTSCALE
 40
6.750430999999997
  9
$ATTMODE
 70
     1
  9
$TEXTSIZE
 40
3.2
  9
$TRACEWID
 40
0.05
  9
$TEXTSTYLE
  7
高3.2
  9
$CLAYER
  8
0
  9
$CELTYPE
  6
CONTINUOUS
  9
$CECOLOR
 62
   256
  9
$CELTSCALE
 40
1.0
  9
$DISPSILH
 70
     0
  9
$DIMSCALE
 40
1.0
  9
$DIMASZ
 40
2.5
  9
$DIMEXO
 40
0.25
  9
$DIMDLI
 40
0.2
  9
$DIMRND
 40
0.0
  9
$DIMDLE
 40
0.0
  9
$DIMEXE
 40
1.25
  9
$DIMTP
 40
0.0
  9
$DIMTM
 40
0.0
  9
$DIMTXT
 40
3.0
  9
$DIMCEN
 40
0.0
  9
$DIMTSZ
 40
0.0
  9
$DIMTOL
 70
     0
  9
$DIMLIM
 70
     0
  9
$DIMTIH
 70
     0
  9
$DIMTOH
 70
     0
  9
$DIMSE1
 70
     0
  9
$DIMSE2
 70
     0
  9
$DIMTAD
 70
     3
  9
$DIMZIN
 70
     8
  9
$DIMBLK
  1
Open30
  9
$DIMASO
 70
     1
  9
$DIMSHO
 70
     1
  9
$DIMPOST
  1

  9
$DIMAPOST
  1

  9
$DIMALT
 70
     0
  9
$DIMALTD
 70
     3
  9
$DIMALTF
 40
0.03937007874016
  9
$DIMLFAC
 40
2.0
  9
$DIMTOFL
 70
     1
  9
$DIMTVP
 40
0.0
  9
$DIMTIX
 70
     0
  9
$DIMSOXD
 70
     0
  9
$DIMSAH
 70
     0
  9
$DIMBLK1
  1

  9
$DIMBLK2
  1

  9
$DIMSTYLE
  2
1／2
  9
$DIMCLRD
 70
     0
  9
$DIMCLRE
 70
     0
  9
$DIMCLRT
 70
     4
  9
$DIMTFAC
 40
1.0
  9
$DIMGAP
 40
0.625
  9
$DIMJUST
 70
     0
  9
$DIMSD1
 70
     0
  9
$DIMSD2
 70
     0
  9
$DIMTOLJ
 70
     0
  9
$DIMTZIN
 70
     8
  9
$DIMALTZ
 70
     0
  9
$DIMALTTZ
 70
     0
  9
$DIMUPT
 70
     1
  9
$DIMDEC
 70
     2
  9
$DIMTDEC
 70
     2
  9
$DIMALTU
 70
     2
  9
$DIMALTTD
 70
     3
  9
$DIMTXSTY
  7
STANDARD
  9
$DIMAUNIT
 70
     0
  9
$DIMADEC
 70
     1
  9
$DIMALTRND
 40
0.0
  9
$DIMAZIN
 70
     2
  9
$DIMDSEP
 70
    46
  9
$DIMATFIT
 70
     0
  9
$DIMFRAC
 70
     0
  9
$DIMLDRBLK
  1
Open30
  9
$DIMLUNIT
 70
     2
  9
$DIMLWD
 70
    -2
  9
$DIMLWE
 70
    -2
  9
$DIMTMOVE
 70
     0
  9
$LUNITS
 70
     2
  9
$LUPREC
 70
     4
  9
$SKETCHINC
 40
0.1
  9
$FILLETRAD
 40
0.0
  9
$AUNITS
 70
     0
  9
$AUPREC
 70
     0
  9
$MENU
  1
.
  9
$ELEVATION
 40
0.0
  9
$PELEVATION
 40
0.0
  9
$THICKNESS
 40
0.0
  9
$LIMCHECK
 70
     0
  9
$CHAMFERA
 40
0.0
  9
$CHAMFERB
 40
0.0
  9
$CHAMFERC
 40
0.0
  9
$CHAMFERD
 40
0.0
  9
$SKPOLY
 70
     0
  9
$TDCREATE
 40
2455646.753243113
  9
$TDUCREATE
 40
2455646.378243113
  9
$TDUPDATE
 40
2456667.847624283
  9
$TDUUPDATE
 40
2456667.472624283
  9
$TDINDWG
 40
0.0562305556
  9
$TDUSRTIMER
 40
0.0562302431
  9
$USRTIMER
 70
     1
  9
$ANGBASE
 50
0.0
  9
$ANGDIR
 70
     0
  9
$PDMODE
 70
     0
  9
$PDSIZE
 40
0.0
  9
$PLINEWID
 40
0.0
  9
$SPLFRAME
 70
     0
  9
$SPLINETYPE
 70
     6
  9
$SPLINESEGS
 70
     8
  9
$HANDSEED
  5
97C
  9
$SURFTAB1
 70
     6
  9
$SURFTAB2
 70
     6
  9
$SURFTYPE
 70
     6
  9
$SURFU
 70
     6
  9
$SURFV
 70
     6
  9
$UCSBASE
  2

  9
$UCSNAME
  2

  9
$UCSORG
 10
0.0
 20
0.0
 30
0.0
  9
$UCSXDIR
 10
1.0
 20
0.0
 30
0.0
  9
$UCSYDIR
 10
0.0
 20
1.0
 30
0.0
  9
$UCSORTHOREF
  2

  9
$UCSORTHOVIEW
 70
     0
  9
$UCSORGTOP
 10
0.0
 20
0.0
 30
0.0
  9
$UCSORGBOTTOM
 10
0.0
 20
0.0
 30
0.0
  9
$UCSORGLEFT
 10
0.0
 20
0.0
 30
0.0
  9
$UCSORGRIGHT
 10
0.0
 20
0.0
 30
0.0
  9
$UCSORGFRONT
 10
0.0
 20
0.0
 30
0.0
  9
$UCSORGBACK
 10
0.0
 20
0.0
 30
0.0
  9
$PUCSBASE
  2

  9
$PUCSNAME
  2

  9
$PUCSORG
 10
0.0
 20
0.0
 30
0.0
  9
$PUCSXDIR
 10
1.0
 20
0.0
 30
0.0
  9
$PUCSYDIR
 10
0.0
 20
1.0
 30
0.0
  9
$PUCSORTHOREF
  2

  9
$PUCSORTHOVIEW
 70
     0
  9
$PUCSORGTOP
 10
0.0
 20
0.0
 30
0.0
  9
$PUCSORGBOTTOM
 10
0.0
 20
0.0
 30
0.0
  9
$PUCSORGLEFT
 10
0.0
 20
0.0
 30
0.0
  9
$PUCSORGRIGHT
 10
0.0
 20
0.0
 30
0.0
  9
$PUCSORGFRONT
 10
0.0
 20
0.0
 30
0.0
  9
$PUCSORGBACK
 10
0.0
 20
0.0
 30
0.0
  9
$USERI1
 70
     0
  9
$USERI2
 70
     0
  9
$USERI3
 70
     0
  9
$USERI4
 70
     0
  9
$USERI5
 70
     0
  9
$USERR1
 40
0.0
  9
$USERR2
 40
0.0
  9
$USERR3
 40
0.0
  9
$USERR4
 40
0.0
  9
$USERR5
 40
0.0
  9
$WORLDVIEW
 70
     1
  9
$SHADEDGE
 70
     3
  9
$SHADEDIF
 70
    70
  9
$TILEMODE
 70
     1
  9
$MAXACTVP
 70
    64
  9
$PINSBASE
 10
0.0
 20
0.0
 30
0.0
  9
$PLIMCHECK
 70
     0
  9
$PEXTMIN
 10
1.000000000000000E+20
 20
1.000000000000000E+20
 30
1.000000000000000E+20
  9
$PEXTMAX
 10
-1.000000000000000E+20
 20
-1.000000000000000E+20
 30
-1.000000000000000E+20
  9
$PLIMMIN
 10
0.0
 20
0.0
  9
$PLIMMAX
 10
12.0
 20
9.0
  9
$UNITMODE
 70
     0
  9
$VISRETAIN
 70
     1
  9
$PLINEGEN
 70
     0
  9
$PSLTSCALE
 70
     1
  9
$TREEDEPTH
 70
  3020
  9
$CMLSTYLE
  2
Standard
  9
$CMLJUST
 70
     0
  9
$CMLSCALE
 40
1.0
  9
$PROXYGRAPHICS
 70
     1
  9
$MEASUREMENT
 70
     0
  9
$CELWEIGHT
370
    -1
  9
$ENDCAPS
280
     0
  9
$JOINSTYLE
280
     0
  9
$LWDISPLAY
290
     0
  9
$INSUNITS
 70
     0
  9
$HYPERLINKBASE
  1

  9
$STYLESHEET
  1
n-plot.ctb
  9
$XEDIT
290
     1
  9
$CEPSNTYPE
380
     0
  9
$PSTYLEMODE
290
     1
  9
$FINGERPRINTGUID
  2
{50209FFB-A98C-43D2-A9AA-1F1C43A59A75}
  9
$VERSIONGUID
  2
{7128F01C-E9E7-4ED7-BA6A-ACAE43633162}
  9
$EXTNAMES
290
     1
  9
$PSVPSCALE
 40
0.0
  9
$OLESTARTUP
290
     0
  0
ENDSEC
  0
SECTION
  2
CLASSES
  0
CLASS
  1
ACDBDICTIONARYWDFLT
  2
AcDbDictionaryWithDefault
  3
ObjectDBX Classes
 90
        0
280
     0
281
     0
  0
CLASS
  1
MATERIAL
  2
AcDbMaterial
  3
ObjectDBX Classes
 90
     1153
280
     0
281
     0
  0
CLASS
  1
VISUALSTYLE
  2
AcDbVisualStyle
  3
ObjectDBX Classes
 90
     4095
280
     0
281
     0
  0
CLASS
  1
TABLESTYLE
  2
AcDbTableStyle
  3
ObjectDBX Classes
 90
     4095
280
     0
281
     0
  0
CLASS
  1
DICTIONARYVAR
  2
AcDbDictionaryVar
  3
ObjectDBX Classes
 90
        0
280
     0
281
     0
  0
CLASS
  1
ACDBPLACEHOLDER
  2
AcDbPlaceHolder
  3
ObjectDBX Classes
 90
        0
280
     0
281
     0
  0
CLASS
  1
LAYOUT
  2
AcDbLayout
  3
ObjectDBX Classes
 90
        0
280
     0
281
     0
  0
CLASS
  1
SCALE
  2
AcDbScale
  3
ObjectDBX Classes
 90
     1153
280
     0
281
     0
  0
CLASS
  1
MLEADERSTYLE
  2
AcDbMLeaderStyle
  3
ACDB_MLEADERSTYLE_CLASS
 90
     4095
280
     0
281
     0
  0
CLASS
  1
SORTENTSTABLE
  2
AcDbSortentsTable
  3
ObjectDBX Classes
 90
        0
280
     0
281
     0
  0
CLASS
  1
CELLSTYLEMAP
  2
AcDbCellStyleMap
  3
ObjectDBX Classes
 90
     1152
280
     0
281
     0
  0
ENDSEC
  0
SECTION
  2
TABLES
  0
TABLE
  2
VPORT
  5
8
330
0
100
AcDbSymbolTable
 70
     1
  0
VPORT
  5
56
330
8
100
AcDbSymbolTableRecord
100
AcDbViewportTableRecord
  2
*Active
 70
     0
 10
0.0
 20
0.0
 11
1.0
 21
1.0
 12
-106.1250940631146
 22
88.50890376866425
 13
0.0
 23
0.0
 14
1.0
 24
1.0
 15
0.0
 25
0.0
 16
0.0
 26
0.0
 36
1.0
 17
0.0
 27
0.0
 37
0.0
 40
527.2083868326858
 41
1.812949640287769
 42
50.0
 43
0.0
 44
0.0
 50
0.0
 51
0.0
 71
     0
 72
   100
 73
     1
 74
     1
 75
     0
 76
     0
 77
     0
 78
     0
281
     0
 65
     1
110
0.0
120
0.0
130
0.0
111
1.0
121
0.0
131
0.0
112
0.0
122
1.0
132
0.0
 79
     0
146
0.0
  0
ENDTAB
  0
TABLE
  2
LTYPE
  5
5
330
0
100
AcDbSymbolTable
 70
     3
  0
LTYPE
  5
28
330
5
100
AcDbSymbolTableRecord
100
AcDbLinetypeTableRecord
  2
ByBlock
 70
     0
  3

 72
    65
 73
     0
 40
0.0
  0
LTYPE
  5
29
330
5
100
AcDbSymbolTableRecord
100
AcDbLinetypeTableRecord
  2
ByLayer
 70
     0
  3

 72
    65
 73
     0
 40
0.0
  0
LTYPE
  5
2A
330
5
100
AcDbSymbolTableRecord
100
AcDbLinetypeTableRecord
  2
CONTINUOUS
 70
     0
  3
Solid-line
 72
    65
 73
     0
 40
0.0
  0
LTYPE
  5
4F
330
5
100
AcDbSymbolTableRecord
100
AcDbLinetypeTableRecord
  2
PHANTOM
 70
     0
  3
PHANTOM
 72
    65
 73
     6
 40
2.5
 49
1.25
 74
     0
 49
-0.25
 74
     0
 49
0.25
 74
     0
 49
-0.25
 74
     0
 49
0.25
 74
     0
 49
-0.25
 74
     0
  0
ENDTAB
  0
TABLE
  2
LAYER
  5
2
102
{ACAD_XDICTIONARY
360
606
102
}
330
0
100
AcDbSymbolTable
 70
     2
  0
LAYER
  5
25
102
{ACAD_XDICTIONARY
360
7C6
102
}
330
2
100
AcDbSymbolTableRecord
100
AcDbLayerTableRecord
  2
0
 70
     0
 62
     7
  6
CONTINUOUS
370
    -3
390
F
  0
LAYER
  5
5F0
330
2
100
AcDbSymbolTableRecord
100
AcDbLayerTableRecord
  2
Defpoints
 70
     0
 62
     7
  6
CONTINUOUS
290
     0
370
    -3
390
F
  0
ENDTAB
  0
TABLE
  2
STYLE
  5
3
330
0
100
AcDbSymbolTable
 70
     6
  0
STYLE
  5
26
330
3
100
AcDbSymbolTableRecord
100
AcDbTextStyleTableRecord
  2
STANDARD
 70
     0
 40
0.0
 41
1.0
 50
0.0
 71
     0
 42
0.2
  3
TXT
  4
BIGFONT
  0
STYLE
  5
5F1
330
3
100
AcDbSymbolTableRecord
100
AcDbTextStyleTableRecord
  2
高3.2
 70
     0
 40
3.2
 41
1.0
 50
0.0
 71
     0
 42
3.2
  3
txt.shx
  4
bigfont.shx
  0
STYLE
  5
5F2
330
3
100
AcDbSymbolTableRecord
100
AcDbTextStyleTableRecord
  2
高6.3
 70
     0
 40
6.299999999999998
 41
1.0
 50
0.0
 71
     0
 42
6.299999999999998
  3
txt.shx
  4
bigfont.shx
  0
STYLE
  5
5F4
330
3
100
AcDbSymbolTableRecord
100
AcDbTextStyleTableRecord
  2
高4.5
 70
     0
 40
4.5
 41
1.0
 50
0.0
 71
     0
 42
6.299999999999998
  3
txt.shx
  4
bigfont.shx
  0
STYLE
  5
5F5
330
3
100
AcDbSymbolTableRecord
100
AcDbTextStyleTableRecord
  2
高2
 70
     0
 40
2.0
 41
1.0
 50
0.0
 71
     0
 42
2.0
  3
txt.shx
  4
bigfont.shx
  0
ENDTAB
  0
TABLE
  2
VIEW
  5
6
330
0
100
AcDbSymbolTable
 70
     0
  0
ENDTAB
  0
TABLE
  2
UCS
  5
7
330
0
100
AcDbSymbolTable
 70
     0
  0
ENDTAB
  0
TABLE
  2
APPID
  5
9
330
0
100
AcDbSymbolTable
 70
    10
  0
APPID
  5
27
330
9
100
AcDbSymbolTableRecord
100
AcDbRegAppTableRecord
  2
ACAD
 70
     0
  0
APPID
  5
600
330
9
100
AcDbSymbolTableRecord
100
AcDbRegAppTableRecord
  2
ACAD_DSTYLE_DIMJOGGED_JOGANGLE_SYMBOL
 70
     0
  0
APPID
  5
601
330
9
100
AcDbSymbolTableRecord
100
AcDbRegAppTableRecord
  2
ACAD_DSTYLE_DIMJAG
 70
     0
  0
APPID
  5
602
330
9
100
AcDbSymbolTableRecord
100
AcDbRegAppTableRecord
  2
ACAD_DSTYLE_DIMBREAK
 70
     0
  0
APPID
  5
603
330
9
100
AcDbSymbolTableRecord
100
AcDbRegAppTableRecord
  2
ACAD_DSTYLE_DIMTALN
 70
     0
  0
APPID
  5
77F
330
9
100
AcDbSymbolTableRecord
100
AcDbRegAppTableRecord
  2
ACAD_EXEMPT_FROM_CAD_STANDARDS
 70
     0
  0
APPID
  5
80C
330
9
100
AcDbSymbolTableRecord
100
AcDbRegAppTableRecord
  2
ACAD_MLEADERVER
 70
     0
  0
APPID
  5
80D
330
9
100
AcDbSymbolTableRecord
100
AcDbRegAppTableRecord
  2
ACAD_DSTYLE_DIMARC_LENGTH_SYMBOL
 70
     0
  0
APPID
  5
80E
330
9
100
AcDbSymbolTableRecord
100
AcDbRegAppTableRecord
  2
ACAD_DSTYLE_DIMEXT_LENGTH
 70
     0
  0
APPID
  5
88E
330
9
100
AcDbSymbolTableRecord
100
AcDbRegAppTableRecord
  2
ACAD_PSEXT
 70
     0
  0
ENDTAB
  0
TABLE
  2
DIMSTYLE
  5
A
330
0
100
AcDbSymbolTable
 70
     3
100
AcDbDimStyleTable
 71
     2
340
5FA
340
529
  0
DIMSTYLE
105
529
330
A
100
AcDbSymbolTableRecord
100
AcDbDimStyleTableRecord
  2
Standard
 70
     0
340
26
  0
DIMSTYLE
105
5FA
330
A
100
AcDbSymbolTableRecord
100
AcDbDimStyleTableRecord
  2
1／2
 70
     0
 41
2.5
 42
0.25
 43
0.2
 44
1.25
 73
     0
 74
     0
 77
     3
 78
     8
 79
     2
140
3.0
141
0.0
143
0.03937007874016
144
2.0
147
0.625
171
     3
172
     1
178
     4
179
     1
271
     2
272
     2
274
     3
283
     0
284
     8
288
     1
289
     0
340
26
341
560
342
560
1001
ACAD_DSTYLE_DIMARC_LENGTH_SYMBOL
1070
   379
1070
     2
1001
ACAD_DSTYLE_DIMEXT_LENGTH
1070
   378
1040
1.25
1001
ACAD_DSTYLE_DIMJOGGED_JOGANGLE_SYMBOL
1070
   384
1040
1.570796326794896
  0
ENDTAB
  0
TABLE
  2
BLOCK_RECORD
  5
1
330
0
100
AcDbSymbolTable
 70
     6
  0
BLOCK_RECORD
  5
36
102
{ACAD_XDICTIONARY
360
792
102
}
330
1
100
AcDbSymbolTableRecord
100
AcDbBlockTableRecord
  2
*Model_Space
340
39
  0
BLOCK_RECORD
  5
32
330
1
100
AcDbSymbolTableRecord
100
AcDbBlockTableRecord
  2
*Paper_Space
340
35
  0
BLOCK_RECORD
  5
560
330
1
100
AcDbSymbolTableRecord
100
AcDbBlockTableRecord
  2
_Open30
340
0
102
{BLKREFS
331
816
331
817
331
81F
331
820
331
828
331
829
331
831
331
832
102
}
  0
BLOCK_RECORD
  5
746
330
1
100
AcDbSymbolTableRecord
100
AcDbBlockTableRecord
  2
*D1
340
0
  0
BLOCK_RECORD
  5
752
330
1
100
AcDbSymbolTableRecord
100
AcDbBlockTableRecord
  2
*D2
340
0
  0
BLOCK_RECORD
  5
75E
330
1
100
AcDbSymbolTableRecord
100
AcDbBlockTableRecord
  2
*D3
340
0
  0
BLOCK_RECORD
  5
76A
330
1
100
AcDbSymbolTableRecord
100
AcDbBlockTableRecord
  2
*D4
340
0
  0
ENDTAB
  0
ENDSEC
  0
SECTION
  2
BLOCKS
  0
BLOCK
  5
37
330
36
100
AcDbEntity
  8
0
100
AcDbBlockBegin
  2
*Model_Space
 70
     0
 10
0.0
 20
0.0
 30
0.0
  3
*Model_Space
  1

  0
ENDBLK
  5
38
330
36
100
AcDbEntity
  8
0
100
AcDbBlockEnd
  0
BLOCK
  5
33
330
32
100
AcDbEntity
 67
     1
  8
0
100
AcDbBlockBegin
  2
*Paper_Space
 70
     0
 10
0.0
 20
0.0
 30
0.0
  3
*Paper_Space
  1

  0
ENDBLK
  5
34
330
32
100
AcDbEntity
 67
     1
  8
0
100
AcDbBlockEnd
  0
BLOCK
  5
561
330
560
100
AcDbEntity
  8
0
100
AcDbBlockBegin
  2
_Open30
 70
     0
 10
0.0
 20
0.0
 30
0.0
  3
_Open30
  1

  0
LINE
  5
562
330
560
100
AcDbEntity
  8
0
  6
ByBlock
 62
     0
370
    -2
100
AcDbLine
 10
-1.0
 20
0.267949
 30
0.0
 11
0.0
 21
0.0
 31
0.0
  0
LINE
  5
563
330
560
100
AcDbEntity
  8
0
  6
ByBlock
 62
     0
370
    -2
100
AcDbLine
 10
0.0
 20
0.0
 30
0.0
 11
-1.0
 21
-0.267949
 31
0.0
  0
LINE
  5
564
330
560
100
AcDbEntity
  8
0
  6
ByBlock
 62
     0
370
    -2
100
AcDbLine
 10
0.0
 20
0.0
 30
0.0
 11
-1.0
 21
0.0
 31
0.0
  0
ENDBLK
  5
565
330
560
100
AcDbEntity
  8
0
100
AcDbBlockEnd
  0
BLOCK
  5
747
330
746
100
AcDbEntity
  8
0
100
AcDbBlockBegin
  2
*D1
 70
     1
 10
0.0
 20
0.0
 30
0.0
  3
*D1
  1

  0
LINE
  5
813
330
746
100
AcDbEntity
  8
0
 62
     0
370
    -2
100
AcDbLine
 10
-268.37141
 20
192.456454
 30
0.0
 11
-268.37141
 21
168.949168
 31
0.0
  0
LINE
  5
814
330
746
100
AcDbEntity
  8
0
 62
     0
370
    -2
100
AcDbLine
 10
-93.37141
 20
192.456454
 30
0.0
 11
-93.37141
 21
168.949168
 31
0.0
  0
LINE
  5
815
330
746
100
AcDbEntity
  8
0
 62
     0
370
    -2
100
AcDbLine
 10
-265.87141
 20
170.199168
 30
0.0
 11
-95.87141
 21
170.199168
 31
0.0
  0
INSERT
  5
816
330
746
100
AcDbEntity
  8
0
 62
     0
370
    -2
100
AcDbBlockReference
  2
_Open30
 10
-268.37141
 20
170.199168
 30
0.0
 41
2.5
 42
2.5
 43
2.5
 50
180.0
  0
INSERT
  5
817
330
746
100
AcDbEntity
  8
0
 62
     0
370
    -2
100
AcDbBlockReference
  2
_Open30
 10
-93.37141
 20
170.199168
 30
0.0
 41
2.5
 42
2.5
 43
2.5
  0
MTEXT
  5
818
330
746
100
AcDbEntity
  8
0
 62
     4
100
AcDbMText
 10
-180.87141
 20
172.324168
 30
0.0
 40
3.0
 41
0.0
 71
     5
 72
     1
  1
350
 73
     1
 44
1.0
1001
ACAD
1000
MTEXTBEGIN
1070
    73
1070
     1
1070
    44
1040
1.0
1070
    74
1070
     0
1000
MTEXTEND
  0
POINT
  5
819
330
746
100
AcDbEntity
  8
Defpoints
 62
     0
100
AcDbPoint
 10
-268.37141
 20
192.706454
 30
0.0
  0
POINT
  5
81A
330
746
100
AcDbEntity
  8
Defpoints
 62
     0
100
AcDbPoint
 10
-93.37141
 20
192.706454
 30
0.0
  0
POINT
  5
81B
330
746
100
AcDbEntity
  8
Defpoints
 62
     0
100
AcDbPoint
 10
-93.37141
 20
170.199168
 30
0.0
  0
ENDBLK
  5
748
330
746
100
AcDbEntity
  8
0
100
AcDbBlockEnd
  0
BLOCK
  5
753
330
752
100
AcDbEntity
  8
0
100
AcDbBlockBegin
  2
*D2
 70
     1
 10
0.0
 20
0.0
 30
0.0
  3
*D2
  1

  0
LINE
  5
81C
330
752
100
AcDbEntity
  8
0
 62
     0
370
    -2
100
AcDbLine
 10
-257.292272
 20
180.725221
 30
0.0
 11
-279.056275
 21
180.725221
 31
0.0
  0
LINE
  5
81D
330
752
100
AcDbEntity
  8
0
 62
     0
370
    -2
100
AcDbLine
 10
-257.292272
 20
210.46354
 30
0.0
 11
-279.056275
 21
210.46354
 31
0.0
  0
LINE
  5
81E
330
752
100
AcDbEntity
  8
0
 62
     0
370
    -2
100
AcDbLine
 10
-277.806275
 20
183.225221
 30
0.0
 11
-277.806275
 21
207.96354
 31
0.0
  0
INSERT
  5
81F
330
752
100
AcDbEntity
  8
0
 62
     0
370
    -2
100
AcDbBlockReference
  2
_Open30
 10
-277.806275
 20
180.725221
 30
0.0
 41
2.5
 42
2.5
 43
2.5
 50
270.0
  0
INSERT
  5
820
330
752
100
AcDbEntity
  8
0
 62
     0
370
    -2
100
AcDbBlockReference
  2
_Open30
 10
-277.806275
 20
210.46354
 30
0.0
 41
2.5
 42
2.5
 43
2.5
 50
90.0
  0
MTEXT
  5
821
330
752
100
AcDbEntity
  8
0
 62
     4
100
AcDbMText
 10
-279.9312750000001
 20
195.5943805
 30
0.0
 40
3.0
 41
0.0
 71
     5
 72
     1
  1
60
 11
0.0000000000000001
 21
1.0
 31
0.0
 73
     1
 44
1.0
1001
ACAD
1000
MTEXTBEGIN
1070
    73
1070
     1
1070
    44
1040
1.0
1070
    74
1070
     0
1000
MTEXTEND
  0
POINT
  5
822
330
752
100
AcDbEntity
  8
Defpoints
 62
     0
100
AcDbPoint
 10
-257.042272
 20
180.725221
 30
0.0
  0
POINT
  5
823
330
752
100
AcDbEntity
  8
Defpoints
 62
     0
100
AcDbPoint
 10
-257.042272
 20
210.46354
 30
0.0
  0
POINT
  5
824
330
752
100
AcDbEntity
  8
Defpoints
 62
     0
100
AcDbPoint
 10
-277.806275
 20
210.46354
 30
0.0
  0
ENDBLK
  5
754
330
752
100
AcDbEntity
  8
0
100
AcDbBlockEnd
  0
BLOCK
  5
75F
330
75E
100
AcDbEntity
  8
0
100
AcDbBlockBegin
  2
*D3
 70
     1
 10
0.0
 20
0.0
 30
0.0
  3
*D3
  1

  0
LINE
  5
825
330
75E
100
AcDbEntity
  8
0
 62
     0
370
    -2
100
AcDbLine
 10
-181.12141
 20
178.59438
 30
0.0
 11
-287.490447
 21
178.59438
 31
0.0
  0
LINE
  5
826
330
75E
100
AcDbEntity
  8
0
 62
     0
370
    -2
100
AcDbLine
 10
-181.12141
 20
212.59438
 30
0.0
 11
-287.490447
 21
212.59438
 31
0.0
  0
LINE
  5
827
330
75E
100
AcDbEntity
  8
0
 62
     0
370
    -2
100
AcDbLine
 10
-286.240447
 20
181.09438
 30
0.0
 11
-286.240447
 21
210.09438
 31
0.0
  0
INSERT
  5
828
330
75E
100
AcDbEntity
  8
0
 62
     0
370
    -2
100
AcDbBlockReference
  2
_Open30
 10
-286.240447
 20
178.59438
 30
0.0
 41
2.5
 42
2.5
 43
2.5
 50
270.0
  0
INSERT
  5
829
330
75E
100
AcDbEntity
  8
0
 62
     0
370
    -2
100
AcDbBlockReference
  2
_Open30
 10
-286.240447
 20
212.59438
 30
0.0
 41
2.5
 42
2.5
 43
2.5
 50
90.0
  0
MTEXT
  5
82A
330
75E
100
AcDbEntity
  8
0
 62
     4
100
AcDbMText
 10
-288.3654470000001
 20
195.59438
 30
0.0
 40
3.0
 41
0.0
 71
     5
 72
     1
  1
68
 11
0.0000000000000001
 21
1.0
 31
0.0
 73
     1
 44
1.0
1001
ACAD
1000
MTEXTBEGIN
1070
    73
1070
     1
1070
    44
1040
1.0
1070
    74
1070
     0
1000
MTEXTEND
  0
POINT
  5
82B
330
75E
100
AcDbEntity
  8
Defpoints
 62
     0
100
AcDbPoint
 10
-180.87141
 20
178.59438
 30
0.0
  0
POINT
  5
82C
330
75E
100
AcDbEntity
  8
Defpoints
 62
     0
100
AcDbPoint
 10
-180.87141
 20
212.59438
 30
0.0
  0
POINT
  5
82D
330
75E
100
AcDbEntity
  8
Defpoints
 62
     0
100
AcDbPoint
 10
-286.240447
 20
212.59438
 30
0.0
  0
ENDBLK
  5
760
330
75E
100
AcDbEntity
  8
0
100
AcDbBlockEnd
  0
BLOCK
  5
76B
330
76A
100
AcDbEntity
  8
0
100
AcDbBlockBegin
  2
*D4
 70
     1
 10
0.0
 20
0.0
 30
0.0
  3
*D4
  1

  0
LINE
  5
82E
330
76A
100
AcDbEntity
  8
0
 62
     0
370
    -2
100
AcDbLine
 10
-266.12141
 20
98.326013
 30
0.0
 11
-280.8552060000001
 21
98.326013
 31
0.0
  0
LINE
  5
82F
330
76A
100
AcDbEntity
  8
0
 62
     0
370
    -2
100
AcDbLine
 10
-266.12141
 20
157.337123
 30
0.0
 11
-280.855206
 21
157.337123
 31
0.0
  0
LINE
  5
830
330
76A
100
AcDbEntity
  8
0
 62
     0
370
    -2
100
AcDbLine
 10
-279.605206
 20
100.826013
 30
0.0
 11
-279.605206
 21
154.837123
 31
0.0
  0
INSERT
  5
831
330
76A
100
AcDbEntity
  8
0
 62
     0
370
    -2
100
AcDbBlockReference
  2
_Open30
 10
-279.605206
 20
98.326013
 30
0.0
 41
2.5
 42
2.5
 43
2.5
 50
270.0
  0
INSERT
  5
832
330
76A
100
AcDbEntity
  8
0
 62
     0
370
    -2
100
AcDbBlockReference
  2
_Open30
 10
-279.605206
 20
157.337123
 30
0.0
 41
2.5
 42
2.5
 43
2.5
 50
90.0
  0
MTEXT
  5
833
330
76A
100
AcDbEntity
  8
0
 62
     4
100
AcDbMText
 10
-281.7302060000001
 20
127.8315679999999
 30
0.0
 40
3.0
 41
0.0
 71
     5
 72
     1
  1
118
 11
0.0000000000000001
 21
1.0
 31
0.0
 73
     1
 44
1.0
1001
ACAD
1000
MTEXTBEGIN
1070
    73
1070
     1
1070
    44
1040
1.0
1070
    74
1070
     0
1000
MTEXTEND
  0
POINT
  5
834
330
76A
100
AcDbEntity
  8
Defpoints
 62
     0
100
AcDbPoint
 10
-265.87141
 20
98.326013
 30
0.0
  0
POINT
  5
835
330
76A
100
AcDbEntity
  8
Defpoints
 62
     0
100
AcDbPoint
 10
-265.87141
 20
157.337123
 30
0.0
  0
POINT
  5
836
330
76A
100
AcDbEntity
  8
Defpoints
 62
     0
100
AcDbPoint
 10
-279.605206
 20
157.337123
 30
0.0
  0
ENDBLK
  5
76C
330
76A
100
AcDbEntity
  8
0
100
AcDbBlockEnd
  0
ENDSEC
  0
SECTION
  2
ENTITIES
  0
ARC
  5
93
330
36
100
AcDbEntity
  8
0
 62
     3
100
AcDbCircle
 10
-180.87141
 20
-146.923987
 30
0.0
 40
258.25
100
AcDbArc
 50
86.49096
 51
86.59479899999999
  0
CIRCLE
  5
94
330
36
100
AcDbEntity
  8
0
 62
     3
100
AcDbCircle
 10
-134.934352
 20
141.337123
 30
0.0
 40
2.0
  0
LINE
  5
95
330
36
100
AcDbEntity
  8
0
 62
     3
100
AcDbLine
 10
-192.74641
 20
102.38683
 30
0.0
 11
-192.74641
 21
101.88683
 31
0.0
  0
LINE
  5
96
330
36
100
AcDbEntity
  8
0
 62
     3
100
AcDbLine
 10
-198.99641
 20
102.38683
 30
0.0
 11
-198.99641
 21
101.901066
 31
0.0
  0
LINE
  5
97
330
36
100
AcDbEntity
  8
0
 62
     3
100
AcDbLine
 10
-145.87141
 20
48.43365999999999
 30
0.0
 11
-145.87141
 21
55.68366
 31
0.0
  0
LINE
  5
98
330
36
100
AcDbEntity
  8
0
 62
     3
100
AcDbLine
 10
-145.87141
 20
48.43365999999999
 30
0.0
 11
-145.87141
 21
44.52310599999999
 31
0.0
  0
LINE
  5
99
330
36
100
AcDbEntity
  8
0
 62
     3
100
AcDbLine
 10
-215.87141
 20
44.52310599999999
 30
0.0
 11
-215.87141
 21
55.68366
 31
0.0
  0
LINE
  5
9A
330
36
100
AcDbEntity
  8
0
 62
     3
100
AcDbLine
 10
-145.87141
 20
43.43365999999998
 30
0.0
 11
-215.991542
 21
43.43365999999998
 31
0.0
  0
LINE
  5
9B
330
36
100
AcDbEntity
  8
0
 62
     3
100
AcDbLine
 10
-198.37141
 20
48.68365999999999
 30
0.0
 11
-193.37141
 21
48.68365999999999
 31
0.0
  0
LINE
  5
9C
330
36
100
AcDbEntity
  8
0
 62
     3
100
AcDbLine
 10
-215.87141
 20
63.43365999999999
 30
0.0
 11
-215.87141
 21
56.18365999999999
 31
0.0
  0
LINE
  5
9D
330
36
100
AcDbEntity
  8
0
 62
     3
100
AcDbLine
 10
-215.87141
 20
63.43365999999999
 30
0.0
 11
-215.87141
 21
67.344213
 31
0.0
  0
LINE
  5
9E
330
36
100
AcDbEntity
  8
0
 62
     3
100
AcDbLine
 10
-145.87141
 20
67.344213
 30
0.0
 11
-145.87141
 21
56.18365999999999
 31
0.0
  0
LINE
  5
9F
330
36
100
AcDbEntity
  8
0
 62
     3
100
AcDbLine
 10
-163.37141
 20
63.18366
 30
0.0
 11
-168.37141
 21
63.18366
 31
0.0
  0
LINE
  5
A0
330
36
100
AcDbEntity
  8
0
 62
     3
100
AcDbLine
 10
-216.37141
 20
56.18365999999999
 30
0.0
 11
-216.37141
 21
55.68366
 31
0.0
  0
LINE
  5
A1
330
36
100
AcDbEntity
  8
0
 62
     3
100
AcDbLine
 10
-198.37141
 20
63.18366
 30
0.0
 11
-193.37141
 21
63.18366
 31
0.0
  0
LINE
  5
A2
330
36
100
AcDbEntity
  8
0
 62
     3
100
AcDbLine
 10
-163.37141
 20
48.68365999999999
 30
0.0
 11
-168.37141
 21
48.68365999999999
 31
0.0
  0
LINE
  5
A3
330
36
100
AcDbEntity
  8
0
 62
     3
100
AcDbLine
 10
-145.37141
 20
55.68366
 30
0.0
 11
-145.37141
 21
56.18365999999999
 31
0.0
  0
TEXT
  5
B7
330
36
100
AcDbEntity
  8
0
 62
     3
100
AcDbText
 10
-12.371539
 20
-16.86727
 30
0.0
 40
3.2
  1
1996.12.18
  7
高3.2
100
AcDbText
  0
TEXT
  5
B8
330
36
100
AcDbEntity
  8
0
 62
     3
100
AcDbText
 10
-68.13883299999999
 20
4.343784999999997
 30
0.0
 40
4.5
  1
ハンドリール
  7
高4.5
100
AcDbText
  0
TEXT
  5
B9
330
36
100
AcDbEntity
  8
0
 62
     3
100
AcDbText
 10
-39.614398
 20
-16.656215
 30
0.0
 40
3.2
  1
1/2
  7
高3.2
100
AcDbText
  0
CIRCLE
  5
BA
330
36
100
AcDbEntity
  8
0
 62
     3
100
AcDbCircle
 10
-96.87141
 20
101.234739
 30
0.0
 40
2.0
  0
CIRCLE
  5
BB
330
36
100
AcDbEntity
  8
0
 62
     3
100
AcDbCircle
 10
-96.87141
 20
154.428396
 30
0.0
 40
2.0
  0
CIRCLE
  5
BC
330
36
100
AcDbEntity
  8
0
 62
     3
100
AcDbCircle
 10
-129.49
 20
103.326013
 30
0.0
 40
2.0
  0
CIRCLE
  5
BD
330
36
100
AcDbEntity
  8
0
 62
     3
100
AcDbCircle
 10
-208.37141
 20
103.326013
 30
0.0
 40
2.0
  0
LINE
  5
BE
330
36
100
AcDbEntity
  8
0
 62
     3
100
AcDbLine
 10
-65.219952
 20
52.735455
 30
0.0
 11
-65.219952
 21
23.935455
 31
0.0
  0
LINE
  5
BF
330
36
100
AcDbEntity
  8
0
 62
     3
100
AcDbLine
 10
-65.219952
 20
23.935455
 30
0.0
 11
-10.82139239392904
 21
23.935455
 31
0.0
  0
LINE
  5
C0
330
36
100
AcDbEntity
  8
0
 62
     3
100
AcDbLine
 10
-10.82139239392904
 20
52.735455
 30
0.0
 11
-10.82139239392904
 21
23.935455
 31
0.0
  0
LINE
  5
C1
330
36
100
AcDbEntity
  8
0
 62
     3
100
AcDbLine
 10
-65.219952
 20
52.735455
 30
0.0
 11
-10.82139239392904
 21
52.735455
 31
0.0
  0
TEXT
  5
C2
330
36
100
AcDbEntity
  8
0
 62
     3
100
AcDbText
 10
-63.41771719020061
 20
46.46727399999998
 30
0.0
 40
4.5
  1
電工ドラム（屋内型）
  7
高4.5
100
AcDbText
  0
LINE
  5
C3
330
36
100
AcDbEntity
  8
0
 62
     3
100
AcDbLine
 10
-41.11045299999999
 20
122.612448
 30
0.0
 11
-41.610453
 21
106.987451
 31
0.0
  0
LINE
  5
C4
330
36
100
AcDbEntity
  8
0
 62
     3
100
AcDbLine
 10
-48.181881
 20
122.612448
 30
0.0
 11
-47.610453
 21
106.987451
 31
0.0
  0
LINE
  5
C5
330
36
100
AcDbEntity
  8
0
 62
     3
100
AcDbLine
 10
-145.87141
 20
122.770057
 30
0.0
 11
-146.863142
 21
122.770057
 31
0.0
  0
LINE
  5
C6
330
36
100
AcDbEntity
  8
0
 62
     3
100
AcDbLine
 10
-145.87141
 20
114.326013
 30
0.0
 11
-146.863142
 21
114.326013
 31
0.0
  0
ARC
  5
C7
330
36
100
AcDbEntity
  8
0
 62
     3
100
AcDbCircle
 10
-222.17456
 20
118.548035
 30
0.0
 40
7.586513
100
AcDbArc
 50
326.184746
 51
33.815254
  0
LINE
  5
C8
330
36
100
AcDbEntity
  8
0
 62
     3
100
AcDbLine
 10
-146.863142
 20
122.770057
 30
0.0
 11
-146.863142
 21
114.326013
 31
0.0
  0
TEXT
  5
C9
330
36
100
AcDbEntity
  8
0
 62
     3
100
AcDbText
 10
-67.667276
 20
-9.656214999999999
 30
0.0
 40
3.2
  1
別　掲
  7
高3.2
100
AcDbText
  0
LINE
  5
CA
330
36
100
AcDbEntity
  8
0
 62
     3
100
AcDbLine
 10
-127.553508
 20
102.826013
 30
0.0
 11
-126.995525
 21
102.826013
 31
0.0
  0
LINE
  5
CB
330
36
100
AcDbEntity
  8
0
 62
     3
100
AcDbLine
 10
-127.553508
 20
103.826013
 30
0.0
 11
-126.995525
 21
103.826013
 31
0.0
  0
TEXT
  5
CC
330
36
100
AcDbEntity
  8
0
 62
     4
100
AcDbText
 10
-46.82287364560092
 20
97.36540981548932
 30
0.0
 40
3.2
  1
2PE 15A 125V
  7
高3.2
100
AcDbText
  0
LINE
  5
CD
330
36
100
AcDbEntity
  8
0
 62
     3
100
AcDbLine
 10
-364.2825
 20
245.9965
 30
0.0
 11
-364.2825
 21
-28.0035
 31
0.0
  0
LINE
  5
CE
330
36
100
AcDbEntity
  8
0
 62
     3
100
AcDbLine
 10
25.7175
 20
-28.0035
 30
0.0
 11
25.7175
 21
245.9965
 31
0.0
  0
LINE
  5
CF
330
36
100
AcDbEntity
  8
0
 62
     3
100
AcDbLine
 10
-364.2825
 20
245.9965
 30
0.0
 11
25.7175
 21
245.9965
 31
0.0
  0
LINE
  5
D0
330
36
100
AcDbEntity
  8
0
 62
     3
100
AcDbLine
 10
-364.2825
 20
-28.0035
 30
0.0
 11
25.7175
 21
-28.0035
 31
0.0
  0
LINE
  5
D1
330
36
100
AcDbEntity
  8
0
 62
     3
100
AcDbLine
 10
-45.360453
 20
134.219589
 30
0.0
 11
-43.860453
 21
134.219589
 31
0.0
  0
LINE
  5
D2
330
36
100
AcDbEntity
  8
0
 62
     3
100
AcDbLine
 10
-42.824739
 20
134.219589
 30
0.0
 11
-42.824739
 21
129.308876
 31
0.0
  0
LINE
  5
D3
330
36
100
AcDbEntity
  8
0
 62
     3
100
AcDbLine
 10
-43.860453
 20
134.219589
 30
0.0
 11
-42.824739
 21
134.219589
 31
0.0
  0
LINE
  5
D4
330
36
100
AcDbEntity
  8
0
 62
     3
100
AcDbLine
 10
-45.360453
 20
134.219589
 30
0.0
 11
-46.396167
 21
134.219589
 31
0.0
  0
LINE
  5
D5
330
36
100
AcDbEntity
  8
0
 62
     3
100
AcDbLine
 10
-46.396167
 20
134.219589
 30
0.0
 11
-46.396167
 21
129.308876
 31
0.0
  0
LINE
  5
D6
330
36
100
AcDbEntity
  8
0
 62
     3
100
AcDbLine
 10
-48.181881
 20
122.612448
 30
0.0
 11
-46.396167
 21
129.308876
 31
0.0
  0
LINE
  5
D7
330
36
100
AcDbEntity
  8
0
 62
     3
100
AcDbLine
 10
-41.240097
 20
123.366466
 30
0.0
 11
-42.824739
 21
129.308876
 31
0.0
  0
ARC
  5
D8
330
36
100
AcDbEntity
  8
0
 62
     3
100
AcDbCircle
 10
-45.553645
 20
122.216187
 30
0.0
 40
4.464285
100
AcDbArc
 50
5.092422
 51
14.931417
  0
LINE
  5
D9
330
36
100
AcDbEntity
  8
0
 62
     3
100
AcDbLine
 10
-46.785453
 20
106.987451
 30
0.0
 11
-42.435453
 21
106.987451
 31
0.0
  0
LINE
  5
DA
330
36
100
AcDbEntity
  8
0
 62
     3
100
AcDbLine
 10
-42.435453
 20
106.987451
 30
0.0
 11
-41.610453
 21
106.987451
 31
0.0
  0
LINE
  5
DB
330
36
100
AcDbEntity
  8
0
 62
     3
100
AcDbLine
 10
-46.785453
 20
106.987451
 30
0.0
 11
-47.610453
 21
106.987451
 31
0.0
  0
ARC
  5
DC
330
36
100
AcDbEntity
  8
0
 62
     3
100
AcDbCircle
 10
-20.768237
 20
125.398282
 30
0.0
 40
1.416666999999999
100
AcDbArc
 50
298.072487
 51
61.92751300000002
  0
LINE
  5
DD
330
36
100
AcDbEntity
  8
0
 62
     3
100
AcDbLine
 10
-19.85157
 20
124.318158
 30
0.0
 11
-19.85157
 21
123.648282
 31
0.0
  0
LINE
  5
DE
330
36
100
AcDbEntity
  8
0
 62
     3
100
AcDbLine
 10
-37.35157
 20
123.648282
 30
0.0
 11
-19.85157
 21
123.648282
 31
0.0
  0
LINE
  5
DF
330
36
100
AcDbEntity
  8
0
 62
     3
100
AcDbLine
 10
-37.35157
 20
124.318158
 30
0.0
 11
-37.35157
 21
123.648282
 31
0.0
  0
ARC
  5
E0
330
36
100
AcDbEntity
  8
0
 62
     3
100
AcDbCircle
 10
-36.43490300000003
 20
125.398282
 30
0.0
 40
1.416666999999999
100
AcDbArc
 50
118.072487
 51
241.927513
  0
ARC
  5
E1
330
36
100
AcDbEntity
  8
0
 62
     3
100
AcDbCircle
 10
-35.451008
 20
141.198703
 30
0.0
 40
0.25
100
AcDbArc
 50
306.861424
 51
40.236358
  0
ARC
  5
E2
330
36
100
AcDbEntity
  8
0
 62
     3
100
AcDbCircle
 10
-33.60157
 20
144.801209
 30
0.0
 40
0.25
100
AcDbArc
 50
229.763642
 51
0.0
  0
LINE
  5
E3
330
36
100
AcDbEntity
  8
0
 62
     3
100
AcDbLine
 10
-31.862804
 20
156.648282
 30
0.0
 11
-25.340335
 21
156.648282
 31
0.0
  0
ARC
  5
E4
330
36
100
AcDbEntity
  8
0
 62
     3
100
AcDbCircle
 10
-25.340335
 20
156.148282
 30
0.0
 40
0.5
100
AcDbArc
 50
1.301953
 51
90.0
  0
LINE
  5
E5
330
36
100
AcDbEntity
  8
0
 62
     3
100
AcDbLine
 10
-24.840465
 20
156.1596429999999
 30
0.0
 11
-24.60157000000001
 21
145.648282
 31
0.0
  0
LINE
  5
E6
330
36
100
AcDbEntity
  8
0
 62
     3
100
AcDbLine
 10
-32.362675
 20
156.1596429999999
 30
0.0
 11
-32.60157
 21
145.648282
 31
0.0
  0
LINE
  5
E7
330
36
100
AcDbEntity
  8
0
 62
     3
100
AcDbLine
 10
-33.35157000000001
 20
144.801209
 30
0.0
 11
-33.35157000000001
 21
145.148282
 31
0.0
  0
ARC
  5
E8
330
36
100
AcDbEntity
  8
0
 62
     3
100
AcDbCircle
 10
-32.85157
 20
145.148282
 30
0.0
 40
0.5
100
AcDbArc
 50
90.0
 51
180.0
  0
LINE
  5
E9
330
36
100
AcDbEntity
  8
0
 62
     3
100
AcDbLine
 10
-32.85157
 20
145.648282
 30
0.0
 11
-24.35157
 21
145.648282
 31
0.0
  0
ARC
  5
EA
330
36
100
AcDbEntity
  8
0
 62
     3
100
AcDbCircle
 10
-20.10157
 20
144.31294
 30
0.0
 40
3.75
100
AcDbArc
 50
180.0
 51
236.944269
  0
LINE
  5
EB
330
36
100
AcDbEntity
  8
0
 62
     3
100
AcDbLine
 10
-23.85157
 20
145.148282
 30
0.0
 11
-23.85157
 21
144.31294
 31
0.0
  0
ARC
  5
EC
330
36
100
AcDbEntity
  8
0
 62
     3
100
AcDbCircle
 10
-24.35157
 20
145.148282
 30
0.0
 40
0.5
100
AcDbArc
 50
0.0
 51
90.0
  0
ARC
  5
ED
330
36
100
AcDbEntity
  8
0
 62
     3
100
AcDbCircle
 10
-32.60157
 20
137.398282
 30
0.0
 40
4.5
100
AcDbArc
 50
126.861424
 51
180.0
  0
LINE
  5
EE
330
36
100
AcDbEntity
  8
0
 62
     3
100
AcDbLine
 10
-35.260161
 20
141.360189
 30
0.0
 11
-37.04966300000001
 21
143.475055
 31
0.0
  0
LINE
  5
EF
330
36
100
AcDbEntity
  8
0
 62
     3
100
AcDbLine
 10
-37.04966300000001
 20
143.475055
 30
0.0
 11
-34.928343
 21
145.596375
 31
0.0
  0
LINE
  5
F0
330
36
100
AcDbEntity
  8
0
 62
     3
100
AcDbLine
 10
-33.763056
 20
144.610363
 30
0.0
 11
-34.928343
 21
145.596375
 31
0.0
  0
ARC
  5
F1
330
36
100
AcDbEntity
  8
0
 62
     3
100
AcDbCircle
 10
-31.862804
 20
156.148282
 30
0.0
 40
0.5
100
AcDbArc
 50
90.0
 51
178.698047
  0
LINE
  5
F2
330
36
100
AcDbEntity
  8
0
 62
     3
100
AcDbLine
 10
-20.10157
 20
137.398282
 30
0.0
 11
-20.10157
 21
126.648282
 31
0.0
  0
LINE
  5
F3
330
36
100
AcDbEntity
  8
0
 62
     3
100
AcDbLine
 10
-37.10157000000001
 20
137.398282
 30
0.0
 11
-37.10157000000001
 21
126.648282
 31
0.0
  0
ARC
  5
F4
330
36
100
AcDbEntity
  8
0
 62
     3
100
AcDbCircle
 10
-24.60157000000001
 20
137.398282
 30
0.0
 40
4.5
100
AcDbArc
 50
0.0
 51
56.94426899999999
  0
LINE
  5
F5
330
36
100
AcDbEntity
  8
0
 62
     3
100
AcDbLine
 10
-31.35157
 20
164.85074
 30
0.0
 11
-31.35157
 21
156.648282
 31
0.0
  0
LINE
  5
F6
330
36
100
AcDbEntity
  8
0
 62
     3
100
AcDbLine
 10
-25.85157000000001
 20
164.878592
 30
0.0
 11
-25.85157000000001
 21
156.648282
 31
0.0
  0
CIRCLE
  5
F7
330
36
100
AcDbEntity
  8
0
 62
     3
100
AcDbCircle
 10
-134.620284
 20
201.201328
 30
0.0
 40
1.75
  0
CIRCLE
  5
F8
330
36
100
AcDbEntity
  8
0
 62
     3
100
AcDbCircle
 10
-134.620284
 20
189.987433
 30
0.0
 40
1.75
  0
CIRCLE
  5
F9
330
36
100
AcDbEntity
  8
0
 62
     3
100
AcDbCircle
 10
-180.87141
 20
206.09438
 30
0.0
 40
1.75
  0
CIRCLE
  5
FA
330
36
100
AcDbEntity
  8
0
 62
     3
100
AcDbCircle
 10
-180.87141
 20
185.09438
 30
0.0
 40
1.75
  0
CIRCLE
  5
FB
330
36
100
AcDbEntity
  8
0
 62
     3
100
AcDbCircle
 10
-227.122535
 20
201.201328
 30
0.0
 40
1.75
  0
CIRCLE
  5
FC
330
36
100
AcDbEntity
  8
0
 62
     3
100
AcDbCircle
 10
-227.122535
 20
189.987433
 30
0.0
 40
1.75
  0
LINE
  5
FD
330
36
100
AcDbEntity
  8
0
 62
     3
100
AcDbLine
 10
-215.87141
 20
100.826013
 30
0.0
 11
-215.87141
 21
114.326013
 31
0.0
  0
ARC
  5
FE
330
36
100
AcDbEntity
  8
0
 62
     3
100
AcDbCircle
 10
-218.37141
 20
106.511971
 30
0.0
 40
2.5
100
AcDbArc
 50
0.0
 51
90.0
  0
LINE
  5
FF
330
36
100
AcDbEntity
  8
0
 62
     3
100
AcDbLine
 10
-218.37141
 20
109.011971
 30
0.0
 11
-220.87141
 21
109.011971
 31
0.0
  0
LINE
  5
100
330
36
100
AcDbEntity
  8
0
 62
     3
100
AcDbLine
 10
-239.247295
 20
107.030786
 30
0.0
 11
-220.87141
 21
109.011971
 31
0.0
  0
ARC
  5
101
330
36
100
AcDbEntity
  8
0
 62
     3
100
AcDbCircle
 10
-218.37141
 20
100.826013
 30
0.0
 40
2.5
100
AcDbArc
 50
318.555703
 51
0.0
  0
ARC
  5
102
330
36
100
AcDbEntity
  8
0
 62
     3
100
AcDbCircle
 10
-218.37141
 20
100.826013
 30
0.0
 40
2.5
100
AcDbArc
 50
270.0
 51
318.555703
  0
LINE
  5
103
330
36
100
AcDbEntity
  8
0
 62
     3
100
AcDbLine
 10
-199.624412
 20
98.326013
 30
0.0
 11
-205.87141
 21
98.326013
 31
0.0
  0
ARC
  5
104
330
36
100
AcDbEntity
  8
0
 62
     3
100
AcDbCircle
 10
-199.624412
 20
99.579015
 30
0.0
 40
1.253001999999999
100
AcDbArc
 50
270.0
 51
25.149305
  0
LINE
  5
105
330
36
100
AcDbEntity
  8
0
 62
     3
100
AcDbLine
 10
-198.49019
 20
100.111514
 30
0.0
 11
-198.70017
 21
100.558772
 31
0.0
  0
ARC
  5
106
330
36
100
AcDbEntity
  8
0
 62
     3
100
AcDbCircle
 10
-195.87141
 20
101.88683
 30
0.0
 40
3.125
100
AcDbArc
 50
180.0
 51
205.149305
  0
ARC
  5
107
330
36
100
AcDbEntity
  8
0
 62
     3
100
AcDbCircle
 10
-195.87141
 20
102.38683
 30
0.0
 40
3.125
100
AcDbArc
 50
0.0
 51
180.0
  0
LINE
  5
108
330
36
100
AcDbEntity
  8
0
 62
     3
100
AcDbLine
 10
-193.252629
 20
100.111514
 30
0.0
 11
-193.042649
 21
100.558772
 31
0.0
  0
ARC
  5
109
330
36
100
AcDbEntity
  8
0
 62
     3
100
AcDbCircle
 10
-195.87141
 20
101.88683
 30
0.0
 40
3.125
100
AcDbArc
 50
334.850695
 51
0.0
  0
ARC
  5
10A
330
36
100
AcDbEntity
  8
0
 62
     3
100
AcDbCircle
 10
-192.118407
 20
99.579015
 30
0.0
 40
1.253001999999999
100
AcDbArc
 50
154.850695
 51
270.0
  0
LINE
  5
10B
330
36
100
AcDbEntity
  8
0
 62
     3
100
AcDbLine
 10
-192.118407
 20
98.326013
 30
0.0
 11
-180.87141
 21
98.326013
 31
0.0
  0
LINE
  5
10C
330
36
100
AcDbEntity
  8
0
 62
     3
100
AcDbLine
 10
-169.624412
 20
98.326013
 30
0.0
 11
-180.87141
 21
98.326013
 31
0.0
  0
ARC
  5
10D
330
36
100
AcDbEntity
  8
0
 62
     3
100
AcDbCircle
 10
-169.624412
 20
99.579015
 30
0.0
 40
1.253001999999999
100
AcDbArc
 50
270.0
 51
25.149305
  0
LINE
  5
10E
330
36
100
AcDbEntity
  8
0
 62
     3
100
AcDbLine
 10
-168.49019
 20
100.111514
 30
0.0
 11
-168.70017
 21
100.558772
 31
0.0
  0
ARC
  5
10F
330
36
100
AcDbEntity
  8
0
 62
     3
100
AcDbCircle
 10
-165.87141
 20
101.88683
 30
0.0
 40
3.125
100
AcDbArc
 50
180.0
 51
205.149305
  0
ARC
  5
110
330
36
100
AcDbEntity
  8
0
 62
     3
100
AcDbCircle
 10
-165.87141
 20
102.38683
 30
0.0
 40
3.125
100
AcDbArc
 50
0.0
 51
180.0
  0
LINE
  5
111
330
36
100
AcDbEntity
  8
0
 62
     3
100
AcDbLine
 10
-162.74641
 20
102.38683
 30
0.0
 11
-162.74641
 21
101.901066
 31
0.0
  0
ARC
  5
112
330
36
100
AcDbEntity
  8
0
 62
     3
100
AcDbCircle
 10
-165.87141
 20
101.88683
 30
0.0
 40
3.125
100
AcDbArc
 50
334.850695
 51
0.0
  0
LINE
  5
113
330
36
100
AcDbEntity
  8
0
 62
     3
100
AcDbLine
 10
-163.252629
 20
100.111514
 30
0.0
 11
-163.042649
 21
100.558772
 31
0.0
  0
ARC
  5
114
330
36
100
AcDbEntity
  8
0
 62
     3
100
AcDbCircle
 10
-162.118407
 20
99.579015
 30
0.0
 40
1.253001999999999
100
AcDbArc
 50
154.850695
 51
270.0
  0
LINE
  5
115
330
36
100
AcDbEntity
  8
0
 62
     3
100
AcDbLine
 10
-162.118407
 20
98.326013
 30
0.0
 11
-155.87141
 21
98.326013
 31
0.0
  0
LINE
  5
116
330
36
100
AcDbEntity
  8
0
 62
     3
100
AcDbLine
 10
-168.99641
 20
102.38683
 30
0.0
 11
-168.99641
 21
101.88683
 31
0.0
  0
ARC
  5
117
330
36
100
AcDbEntity
  8
0
 62
     3
100
AcDbCircle
 10
-155.87141
 20
119.326013
 30
0.0
 40
21.0
100
AcDbArc
 50
270.0
 51
291.86529
  0
ARC
  5
118
330
36
100
AcDbEntity
  8
0
 62
     3
100
AcDbCircle
 10
-147.119408
 20
97.51655500000001
 30
0.0
 40
2.5
100
AcDbArc
 50
41.44429699999998
 51
111.86529
  0
ARC
  5
119
330
36
100
AcDbEntity
  8
0
 62
     3
100
AcDbCircle
 10
-143.37141
 20
100.826013
 30
0.0
 40
2.5
100
AcDbArc
 50
221.444297
 51
270.0
  0
LINE
  5
11A
330
36
100
AcDbEntity
  8
0
 62
     3
100
AcDbLine
 10
-95.87141
 20
98.326013
 30
0.0
 11
-143.37141
 21
98.326013
 31
0.0
  0
ARC
  5
11B
330
36
100
AcDbEntity
  8
0
 62
     3
100
AcDbCircle
 10
-95.87141
 20
100.826013
 30
0.0
 40
2.5
100
AcDbArc
 50
270.0
 51
0.0
  0
LINE
  5
11C
330
36
100
AcDbEntity
  8
0
 62
     3
100
AcDbLine
 10
-93.37141
 20
102.992806
 30
0.0
 11
-93.37141
 21
100.826013
 31
0.0
  0
ARC
  5
11D
330
36
100
AcDbEntity
  8
0
 62
     3
100
AcDbCircle
 10
-94.37141
 20
102.992806
 30
0.0
 40
1.0
100
AcDbArc
 50
0.0
 51
83.84645799999999
  0
LINE
  5
11E
330
36
100
AcDbEntity
  8
0
 62
     3
100
AcDbLine
 10
-145.87141
 20
114.326013
 30
0.0
 11
-145.87141
 21
100.826013
 31
0.0
  0
ARC
  5
11F
330
36
100
AcDbEntity
  8
0
 62
     3
100
AcDbCircle
 10
-143.37141
 20
106.511971
 30
0.0
 40
2.5
100
AcDbArc
 50
90.0
 51
180.0
  0
LINE
  5
120
330
36
100
AcDbEntity
  8
0
 62
     3
100
AcDbLine
 10
-143.37141
 20
109.011971
 30
0.0
 11
-140.87141
 21
109.011971
 31
0.0
  0
LINE
  5
121
330
36
100
AcDbEntity
  8
0
 62
     3
100
AcDbLine
 10
-94.26421600000001
 20
103.987044
 30
0.0
 11
-140.87141
 21
109.011971
 31
0.0
  0
ARC
  5
122
330
36
100
AcDbEntity
  8
0
 62
     3
100
AcDbCircle
 10
-143.37141
 20
100.826013
 30
0.0
 40
2.5
100
AcDbArc
 50
180.0
 51
221.444297
  0
LINE
  5
123
330
36
100
AcDbEntity
  8
0
 62
     3
100
AcDbLine
 10
-150.87141
 20
109.326013
 30
0.0
 11
-160.470796
 21
109.326013
 31
0.0
  0
ARC
  5
124
330
36
100
AcDbEntity
  8
0
 62
     3
100
AcDbCircle
 10
-165.64641
 20
101.359645
 30
0.0
 40
9.5
100
AcDbArc
 50
56.98890200000001
 51
86.49096
  0
LINE
  5
125
330
36
100
AcDbEntity
  8
0
 62
     3
100
AcDbLine
 10
-169.67139
 20
110.870057
 30
0.0
 11
-166.660681
 21
110.870057
 31
0.0
  0
ARC
  5
126
330
36
100
AcDbEntity
  8
0
 62
     3
100
AcDbCircle
 10
-166.09641
 20
101.38683
 30
0.0
 40
9.5
100
AcDbArc
 50
86.59479899999999
 51
93.405201
  0
ARC
  5
127
330
36
100
AcDbEntity
  8
0
 62
     3
100
AcDbCircle
 10
-169.67139
 20
105.870057
 30
0.0
 40
5.0
100
AcDbArc
 50
90.0
 51
115.594768
  0
ARC
  5
128
330
36
100
AcDbEntity
  8
0
 62
     3
100
AcDbCircle
 10
-180.87141
 20
129.251781
 30
0.0
 40
20.925768
100
AcDbArc
 50
270.684529
 51
295.594768
  0
ARC
  5
129
330
36
100
AcDbEntity
  8
0
 62
     3
100
AcDbCircle
 10
-180.87141
 20
129.251781
 30
0.0
 40
20.925768
100
AcDbArc
 50
244.405232
 51
270.684529
  0
ARC
  5
12A
330
36
100
AcDbEntity
  8
0
 62
     3
100
AcDbCircle
 10
-192.071429
 20
105.870057
 30
0.0
 40
5.0
100
AcDbArc
 50
64.405232
 51
90.0
  0
LINE
  5
12B
330
36
100
AcDbEntity
  8
0
 62
     3
100
AcDbLine
 10
-192.071429
 20
110.870057
 30
0.0
 11
-195.082138
 21
110.870057
 31
0.0
  0
ARC
  5
12C
330
36
100
AcDbEntity
  8
0
 62
     3
100
AcDbCircle
 10
-180.87141
 20
-146.923987
 30
0.0
 40
258.25
100
AcDbArc
 50
93.405201
 51
93.50903999999999
  0
ARC
  5
12D
330
36
100
AcDbEntity
  8
0
 62
     3
100
AcDbCircle
 10
-195.64641
 20
101.38683
 30
0.0
 40
9.5
100
AcDbArc
 50
86.59479899999999
 51
93.405201
  0
ARC
  5
12E
330
36
100
AcDbEntity
  8
0
 62
     3
100
AcDbCircle
 10
-196.09641
 20
101.359645
 30
0.0
 40
9.5
100
AcDbArc
 50
93.50903999999999
 51
123.011098
  0
LINE
  5
12F
330
36
100
AcDbEntity
  8
0
 62
     3
100
AcDbLine
 10
-210.87141
 20
109.326013
 30
0.0
 11
-201.272024
 21
109.326013
 31
0.0
  0
ARC
  5
130
330
36
100
AcDbEntity
  8
0
 62
     3
100
AcDbCircle
 10
-210.87141
 20
114.326013
 30
0.0
 40
5.0
100
AcDbArc
 50
180.0
 51
270.0
  0
LINE
  5
131
330
36
100
AcDbEntity
  8
0
 62
     3
100
AcDbLine
 10
-215.87141
 20
114.326013
 30
0.0
 11
-215.87141
 21
122.770057
 31
0.0
  0
ARC
  5
132
330
36
100
AcDbEntity
  8
0
 62
     3
100
AcDbCircle
 10
-213.37141
 20
122.770057
 30
0.0
 40
2.5
100
AcDbArc
 50
90.0
 51
180.0
  0
LINE
  5
133
330
36
100
AcDbEntity
  8
0
 62
     3
100
AcDbLine
 10
-180.87141
 20
125.270057
 30
0.0
 11
-213.37141
 21
125.270057
 31
0.0
  0
LINE
  5
134
330
36
100
AcDbEntity
  8
0
 62
     3
100
AcDbLine
 10
-148.37141
 20
125.270057
 30
0.0
 11
-180.87141
 21
125.270057
 31
0.0
  0
ARC
  5
135
330
36
100
AcDbEntity
  8
0
 62
     3
100
AcDbCircle
 10
-148.37141
 20
122.770057
 30
0.0
 40
2.5
100
AcDbArc
 50
0.0
 51
90.0
  0
LINE
  5
136
330
36
100
AcDbEntity
  8
0
 62
     3
100
AcDbLine
 10
-145.87141
 20
122.770057
 30
0.0
 11
-145.87141
 21
114.326013
 31
0.0
  0
ARC
  5
137
330
36
100
AcDbEntity
  8
0
 62
     3
100
AcDbCircle
 10
-150.87141
 20
114.326013
 30
0.0
 40
5.0
100
AcDbArc
 50
270.0
 51
0.0
  0
LINE
  5
138
330
36
100
AcDbEntity
  8
0
 62
     3
100
AcDbLine
 10
-129.87141
 20
143.347219
 30
0.0
 11
-129.87141
 21
112.315917
 31
0.0
  0
LINE
  5
139
330
36
100
AcDbEntity
  8
0
 62
     3
100
AcDbLine
 10
-124.995525
 20
148.362813
 30
0.0
 11
-94.26421600000001
 21
151.676092
 31
0.0
  0
ARC
  5
13A
330
36
100
AcDbEntity
  8
0
 62
     3
100
AcDbCircle
 10
-94.37141
 20
152.67033
 30
0.0
 40
1.0
100
AcDbArc
 50
276.153542
 51
0.0
  0
LINE
  5
13B
330
36
100
AcDbEntity
  8
0
 62
     3
100
AcDbLine
 10
-93.37141
 20
152.652488
 30
0.0
 11
-93.37141
 21
154.837123
 31
0.0
  0
ARC
  5
13C
330
36
100
AcDbEntity
  8
0
 62
     3
100
AcDbCircle
 10
-95.87141
 20
154.837123
 30
0.0
 40
2.5
100
AcDbArc
 50
0.0
 51
90.0
  0
LINE
  5
13D
330
36
100
AcDbEntity
  8
0
 62
     3
100
AcDbLine
 10
-124.995525
 20
157.337123
 30
0.0
 11
-95.87141
 21
157.337123
 31
0.0
  0
LINE
  5
13E
330
36
100
AcDbEntity
  8
0
 62
     3
100
AcDbLine
 10
-124.995525
 20
157.337123
 30
0.0
 11
-180.87141
 21
157.337123
 31
0.0
  0
ARC
  5
13F
330
36
100
AcDbEntity
  8
0
 62
     3
100
AcDbCircle
 10
-265.87141
 20
154.837123
 30
0.0
 40
2.5
100
AcDbArc
 50
90.0
 51
180.0
  0
LINE
  5
140
330
36
100
AcDbEntity
  8
0
 62
     3
100
AcDbLine
 10
-268.37141
 20
152.652488
 30
0.0
 11
-268.37141
 21
154.837123
 31
0.0
  0
ARC
  5
141
330
36
100
AcDbEntity
  8
0
 62
     3
100
AcDbCircle
 10
-267.37141
 20
152.67033
 30
0.0
 40
1.0
100
AcDbArc
 50
180.0
 51
263.846458
  0
LINE
  5
142
330
36
100
AcDbEntity
  8
0
 62
     3
100
AcDbLine
 10
-267.4786029999999
 20
151.676092
 30
0.0
 11
-263.37141
 21
151.233277
 31
0.0
  0
LINE
  5
143
330
36
100
AcDbEntity
  8
0
 62
     3
100
AcDbLine
 10
-263.37141
 20
104.429858
 30
0.0
 11
-239.247295
 21
107.030786
 31
0.0
  0
LINE
  5
144
330
36
100
AcDbEntity
  8
0
 62
     3
100
AcDbLine
 10
-267.4786029999999
 20
103.987044
 30
0.0
 11
-263.37141
 21
104.429858
 31
0.0
  0
ARC
  5
145
330
36
100
AcDbEntity
  8
0
 62
     3
100
AcDbCircle
 10
-267.37141
 20
102.992806
 30
0.0
 40
1.0
100
AcDbArc
 50
96.153542
 51
180.0
  0
LINE
  5
146
330
36
100
AcDbEntity
  8
0
 62
     3
100
AcDbLine
 10
-268.37141
 20
102.992806
 30
0.0
 11
-268.37141
 21
100.826013
 31
0.0
  0
ARC
  5
147
330
36
100
AcDbEntity
  8
0
 62
     3
100
AcDbCircle
 10
-265.87141
 20
100.826013
 30
0.0
 40
2.5
100
AcDbArc
 50
180.0
 51
270.0
  0
LINE
  5
148
330
36
100
AcDbEntity
  8
0
 62
     3
100
AcDbLine
 10
-218.37141
 20
98.326013
 30
0.0
 11
-265.87141
 21
98.326013
 31
0.0
  0
ARC
  5
149
330
36
100
AcDbEntity
  8
0
 62
     3
100
AcDbCircle
 10
-236.87141
 20
112.315917
 30
0.0
 40
5.0
100
AcDbArc
 50
276.153542
 51
0.0
  0
LINE
  5
14A
330
36
100
AcDbEntity
  8
0
 62
     3
100
AcDbLine
 10
-231.87141
 20
112.315917
 30
0.0
 11
-231.87141
 21
143.381533
 31
0.0
  0
ARC
  5
14B
330
36
100
AcDbEntity
  8
0
 62
     3
100
AcDbCircle
 10
-236.871282
 20
143.381533
 30
0.0
 40
5.0
100
AcDbArc
 50
0.0
 51
77.148061
  0
ARC
  5
14C
330
36
100
AcDbEntity
  8
0
 62
     3
100
AcDbCircle
 10
-214.623412
 20
97.51655500000001
 30
0.0
 40
2.5
100
AcDbArc
 50
68.13470999999998
 51
138.555703
  0
ARC
  5
14D
330
36
100
AcDbEntity
  8
0
 62
     3
100
AcDbCircle
 10
-205.87141
 20
119.326013
 30
0.0
 40
21.0
100
AcDbArc
 50
248.13471
 51
270.0
  0
ARC
  5
14E
330
36
100
AcDbEntity
  8
0
 62
     3
100
AcDbCircle
 10
-105.37141
 20
198.482307
 30
0.0
 40
12.0
100
AcDbArc
 50
0.0
 51
86.79519599999997
  0
LINE
  5
14F
330
36
100
AcDbEntity
  8
0
 62
     3
100
AcDbLine
 10
-93.37141
 20
198.482307
 30
0.0
 11
-93.37141
 21
195.59438
 31
0.0
  0
ARC
  5
150
330
36
100
AcDbEntity
  8
0
 62
     3
100
AcDbCircle
 10
-105.37141
 20
192.706454
 30
0.0
 40
12.0
100
AcDbArc
 50
273.204804
 51
0.0
  0
ARC
  5
151
330
36
100
AcDbEntity
  8
0
 62
     3
100
AcDbCircle
 10
-180.87141
 20
-1149.90562
 30
0.0
 40
1362.5
100
AcDbArc
 50
86.79519599999997
 51
93.204804
  0
ARC
  5
152
330
36
100
AcDbEntity
  8
0
 62
     3
100
AcDbCircle
 10
-180.87141
 20
1541.09438
 30
0.0
 40
1362.5
100
AcDbArc
 50
266.795196
 51
273.204804
  0
ARC
  5
153
330
36
100
AcDbEntity
  8
0
 62
     3
100
AcDbCircle
 10
-220.87141
 20
44.52310599999999
 30
0.0
 40
5.0
100
AcDbArc
 50
268.311482
 51
0.0
  0
LINE
  5
154
330
36
100
AcDbEntity
  8
0
 62
     3
100
AcDbLine
 10
-100.37141
 20
55.93365999999999
 30
0.0
 11
-93.37141
 21
55.93365999999999
 31
0.0
  0
ARC
  5
155
330
36
100
AcDbEntity
  8
0
 62
     3
100
AcDbCircle
 10
-140.87141
 20
67.344213
 30
0.0
 40
5.0
100
AcDbArc
 50
88.31148199999999
 51
180.0
  0
LINE
  5
156
330
36
100
AcDbEntity
  8
0
 62
     3
100
AcDbLine
 10
-93.37141
 20
53.045733
 30
0.0
 11
-93.37141
 21
55.93365999999999
 31
0.0
  0
ARC
  5
157
330
36
100
AcDbEntity
  8
0
 62
     3
100
AcDbCircle
 10
-105.37141
 20
53.045733
 30
0.0
 40
12.0
100
AcDbArc
 50
273.204804
 51
0.0
  0
ARC
  5
158
330
36
100
AcDbEntity
  8
0
 62
     3
100
AcDbCircle
 10
-105.37141
 20
58.821586
 30
0.0
 40
12.0
100
AcDbArc
 50
0.0
 51
86.79519599999997
  0
ARC
  5
159
330
36
100
AcDbEntity
  8
0
 62
     3
100
AcDbCircle
 10
-149.87141
 20
67.43366
 30
0.0
 40
4.0
100
AcDbArc
 50
270.0
 51
0.0
  0
LINE
  5
15A
330
36
100
AcDbEntity
  8
0
 62
     3
100
AcDbLine
 10
-215.87141
 20
68.43366
 30
0.0
 11
-145.751277
 21
68.43366
 31
0.0
  0
ARC
  5
15B
330
36
100
AcDbEntity
  8
0
 62
     3
100
AcDbCircle
 10
-211.87141
 20
67.43366
 30
0.0
 40
4.0
100
AcDbArc
 50
180.0
 51
270.0
  0
ARC
  5
15C
330
36
100
AcDbEntity
  8
0
 62
     3
100
AcDbCircle
 10
-220.87141
 20
67.344213
 30
0.0
 40
5.0
100
AcDbArc
 50
0.0
 51
91.688518
  0
ARC
  5
15D
330
36
100
AcDbEntity
  8
0
 62
     3
100
AcDbCircle
 10
-180.87141
 20
-1289.56634
 30
0.0
 40
1362.5
100
AcDbArc
 50
86.79519599999997
 51
93.204804
  0
ARC
  5
15E
330
36
100
AcDbEntity
  8
0
 62
     3
100
AcDbCircle
 10
-256.37141
 20
58.821586
 30
0.0
 40
12.0
100
AcDbArc
 50
93.204804
 51
180.0
  0
ARC
  5
15F
330
36
100
AcDbEntity
  8
0
 62
     3
100
AcDbCircle
 10
-180.87141
 20
1401.43366
 30
0.0
 40
1362.5
100
AcDbArc
 50
266.795196
 51
273.204804
  0
LINE
  5
160
330
36
100
AcDbEntity
  8
0
 62
     3
100
AcDbLine
 10
-268.37141
 20
53.045733
 30
0.0
 11
-268.37141
 21
58.821586
 31
0.0
  0
ARC
  5
161
330
36
100
AcDbEntity
  8
0
 62
     3
100
AcDbCircle
 10
-256.37141
 20
53.045733
 30
0.0
 40
12.0
100
AcDbArc
 50
180.0
 51
266.795196
  0
ARC
  5
162
330
36
100
AcDbEntity
  8
0
 62
     3
100
AcDbCircle
 10
-256.37141
 20
192.706454
 30
0.0
 40
12.0
100
AcDbArc
 50
180.0
 51
266.795196
  0
LINE
  5
163
330
36
100
AcDbEntity
  8
0
 62
     3
100
AcDbLine
 10
-268.37141
 20
192.706454
 30
0.0
 11
-268.37141
 21
195.59438
 31
0.0
  0
ARC
  5
164
330
36
100
AcDbEntity
  8
0
 62
     3
100
AcDbCircle
 10
-256.37141
 20
198.482307
 30
0.0
 40
12.0
100
AcDbArc
 50
93.204804
 51
180.0
  0
LINE
  5
165
330
36
100
AcDbEntity
  8
0
 62
     3
100
AcDbLine
 10
-268.37141
 20
198.482307
 30
0.0
 11
-268.37141
 21
195.59438
 31
0.0
  0
ARC
  5
166
330
36
100
AcDbEntity
  8
0
 62
     3
100
AcDbCircle
 10
-124.87141
 20
143.347219
 30
0.0
 40
5.0
100
AcDbArc
 50
100.798319
 51
180.0
  0
ARC
  5
167
330
36
100
AcDbEntity
  8
0
 62
     3
100
AcDbCircle
 10
-124.87141
 20
112.315917
 30
0.0
 40
5.0
100
AcDbArc
 50
180.0
 51
259.201681
  0
LINE
  5
168
330
36
100
AcDbEntity
  8
0
 62
     3
100
AcDbLine
 10
-140.87141
 20
146.651164
 30
0.0
 11
-124.995525
 21
148.362813
 31
0.0
  0
LINE
  5
169
330
36
100
AcDbEntity
  8
0
 62
     3
100
AcDbLine
 10
-180.87141
 20
146.651164
 30
0.0
 11
-140.87141
 21
146.651164
 31
0.0
  0
LINE
  5
16A
330
36
100
AcDbEntity
  8
0
 62
     3
100
AcDbLine
 10
-180.87141
 20
146.651164
 30
0.0
 11
-220.87141
 21
146.651164
 31
0.0
  0
LINE
  5
16B
330
36
100
AcDbEntity
  8
0
 62
     3
100
AcDbLine
 10
-198.37141
 20
55.68366
 30
0.0
 11
-198.37141
 21
48.68365999999999
 31
0.0
  0
LINE
  5
16C
330
36
100
AcDbEntity
  8
0
 62
     3
100
AcDbLine
 10
-198.37141
 20
56.18365999999999
 30
0.0
 11
-198.37141
 21
63.18366
 31
0.0
  0
LINE
  5
16D
330
36
100
AcDbEntity
  8
0
 62
     3
100
AcDbLine
 10
-193.37141
 20
56.18365999999999
 30
0.0
 11
-193.37141
 21
63.18366
 31
0.0
  0
LINE
  5
16E
330
36
100
AcDbEntity
  8
0
 62
     3
100
AcDbLine
 10
-193.37141
 20
55.68366
 30
0.0
 11
-193.37141
 21
48.68365999999999
 31
0.0
  0
ARC
  5
16F
330
36
100
AcDbEntity
  8
0
 62
     3
100
AcDbCircle
 10
-193.12141
 20
48.68365999999999
 30
0.0
 40
0.25
100
AcDbArc
 50
180.0
 51
270.0
  0
ARC
  5
170
330
36
100
AcDbEntity
  8
0
 62
     3
100
AcDbCircle
 10
-198.62141
 20
48.68365999999999
 30
0.0
 40
0.25
100
AcDbArc
 50
270.0
 51
0.0
  0
ARC
  5
171
330
36
100
AcDbEntity
  8
0
 62
     3
100
AcDbCircle
 10
-193.12141
 20
63.18366
 30
0.0
 40
0.25
100
AcDbArc
 50
90.0
 51
180.0
  0
ARC
  5
172
330
36
100
AcDbEntity
  8
0
 62
     3
100
AcDbCircle
 10
-198.62141
 20
63.18366
 30
0.0
 40
0.25
100
AcDbArc
 50
0.0
 51
90.0
  0
LINE
  5
173
330
36
100
AcDbEntity
  8
0
 62
     3
100
AcDbLine
 10
-163.37141
 20
55.68366
 30
0.0
 11
-163.37141
 21
48.68365999999999
 31
0.0
  0
LINE
  5
174
330
36
100
AcDbEntity
  8
0
 62
     3
100
AcDbLine
 10
-168.37141
 20
55.68366
 30
0.0
 11
-168.37141
 21
48.68365999999999
 31
0.0
  0
ARC
  5
175
330
36
100
AcDbEntity
  8
0
 62
     3
100
AcDbCircle
 10
-168.62141
 20
48.68365999999999
 30
0.0
 40
0.25
100
AcDbArc
 50
270.0
 51
0.0
  0
ARC
  5
176
330
36
100
AcDbEntity
  8
0
 62
     3
100
AcDbCircle
 10
-163.12141
 20
48.68365999999999
 30
0.0
 40
0.25
100
AcDbArc
 50
180.0
 51
270.0
  0
LINE
  5
177
330
36
100
AcDbEntity
  8
0
 62
     3
100
AcDbLine
 10
-163.37141
 20
56.18365999999999
 30
0.0
 11
-163.37141
 21
63.18366
 31
0.0
  0
ARC
  5
178
330
36
100
AcDbEntity
  8
0
 62
     3
100
AcDbCircle
 10
-163.12141
 20
63.18366
 30
0.0
 40
0.25
100
AcDbArc
 50
90.0
 51
180.0
  0
ARC
  5
179
330
36
100
AcDbEntity
  8
0
 62
     3
100
AcDbCircle
 10
-168.62141
 20
63.18366
 30
0.0
 40
0.25
100
AcDbArc
 50
0.0
 51
90.0
  0
LINE
  5
17A
330
36
100
AcDbEntity
  8
0
 62
     3
100
AcDbLine
 10
-168.37141
 20
56.18365999999999
 30
0.0
 11
-168.37141
 21
63.18366
 31
0.0
  0
LINE
  5
17B
330
36
100
AcDbEntity
  8
0
 62
     3
100
AcDbLine
 10
-168.630128
 20
55.68366
 30
0.0
 11
-168.630128
 21
56.18365999999999
 31
0.0
  0
LINE
  5
17C
330
36
100
AcDbEntity
  8
0
 62
     3
100
AcDbLine
 10
-163.1126919999999
 20
55.68366
 30
0.0
 11
-163.1126919999999
 21
56.18365999999999
 31
0.0
  0
LINE
  5
17D
330
36
100
AcDbEntity
  8
0
 62
     3
100
AcDbLine
 10
-198.630128
 20
56.18365999999999
 30
0.0
 11
-198.630128
 21
55.68366
 31
0.0
  0
LINE
  5
17E
330
36
100
AcDbEntity
  8
0
 62
     3
100
AcDbLine
 10
-193.112692
 20
56.18365999999999
 30
0.0
 11
-193.112692
 21
55.68366
 31
0.0
  0
LINE
  5
17F
330
36
100
AcDbEntity
  8
0
 62
     3
100
AcDbLine
 10
-265.87141
 20
157.337123
 30
0.0
 11
-180.87141
 21
157.337123
 31
0.0
  0
LINE
  5
180
330
36
100
AcDbEntity
  8
0
 62
     3
100
AcDbLine
 10
-220.87141
 20
146.651164
 30
0.0
 11
-263.37141
 21
151.233277
 31
0.0
  0
LINE
  5
181
330
36
100
AcDbEntity
  8
0
 62
     3
100
AcDbLine
 10
-93.37141
 20
195.59438
 30
0.0
 11
-100.37141
 21
195.59438
 31
0.0
  0
LINE
  5
182
330
36
100
AcDbEntity
  8
0
 62
     3
100
AcDbLine
 10
-93.37141
 20
192.706454
 30
0.0
 11
-93.37141
 21
195.59438
 31
0.0
  0
LINE
  5
183
330
36
100
AcDbEntity
  8
0
 62
     3
100
AcDbLine
 10
-261.37141
 20
195.59438
 30
0.0
 11
-268.37141
 21
195.59438
 31
0.0
  0
LINE
  5
184
330
36
100
AcDbEntity
  8
0
 62
     3
100
AcDbLine
 10
-261.37141
 20
55.93365999999999
 30
0.0
 11
-268.37141
 21
55.93365999999999
 31
0.0
  0
LINE
  5
185
330
36
100
AcDbEntity
  8
0
 62
     3
100
AcDbLine
 10
-93.37141
 20
58.821586
 30
0.0
 11
-93.37141
 21
55.93365999999999
 31
0.0
  0
LINE
  5
186
330
36
100
AcDbEntity
  8
0
 62
     3
100
AcDbLine
 10
-124.495525
 20
55.68366
 30
0.0
 11
-124.495525
 21
56.18365999999999
 31
0.0
  0
LINE
  5
187
330
36
100
AcDbEntity
  8
0
 62
     3
100
AcDbLine
 10
-237.247295
 20
56.18365999999999
 30
0.0
 11
-237.247295
 21
55.68366
 31
0.0
  0
LINE
  5
188
330
36
100
AcDbEntity
  8
0
 62
     3
100
AcDbLine
 10
-237.747295
 20
190.966099
 30
0.0
 11
-237.747295
 21
195.34438
 31
0.0
  0
LINE
  5
189
330
36
100
AcDbEntity
  8
0
 62
     3
100
AcDbLine
 10
-237.747295
 20
200.177202
 30
0.0
 11
-237.747295
 21
195.84438
 31
0.0
  0
ARC
  5
18A
330
36
100
AcDbEntity
  8
0
 62
     3
100
AcDbCircle
 10
-180.87141
 20
-1149.90562
 30
0.0
 40
1355.5
100
AcDbArc
 50
92.58165899999999
 51
93.204804
  0
ARC
  5
18B
330
36
100
AcDbEntity
  8
0
 62
     3
100
AcDbCircle
 10
-256.37141
 20
198.482307
 30
0.0
 40
5.0
100
AcDbArc
 50
93.204804
 51
180.0
  0
LINE
  5
18C
330
36
100
AcDbEntity
  8
0
 62
     3
100
AcDbLine
 10
-261.37141
 20
198.482307
 30
0.0
 11
-261.37141
 21
192.706454
 31
0.0
  0
ARC
  5
18D
330
36
100
AcDbEntity
  8
0
 62
     3
100
AcDbCircle
 10
-256.37141
 20
192.706454
 30
0.0
 40
5.0
100
AcDbArc
 50
180.0
 51
266.795196
  0
ARC
  5
18E
330
36
100
AcDbEntity
  8
0
 62
     3
100
AcDbCircle
 10
-180.87141
 20
1541.09438
 30
0.0
 40
1355.5
100
AcDbArc
 50
266.795196
 51
267.418341
  0
LINE
  5
18F
330
36
100
AcDbEntity
  8
0
 62
     3
100
AcDbLine
 10
-123.995525
 20
200.177202
 30
0.0
 11
-123.995525
 21
195.84438
 31
0.0
  0
ARC
  5
190
330
36
100
AcDbEntity
  8
0
 62
     3
100
AcDbCircle
 10
-180.87141
 20
-1149.90562
 30
0.0
 40
1355.5
100
AcDbArc
 50
86.79519599999997
 51
87.418341
  0
ARC
  5
191
330
36
100
AcDbEntity
  8
0
 62
     3
100
AcDbCircle
 10
-105.37141
 20
198.482307
 30
0.0
 40
5.0
100
AcDbArc
 50
0.0
 51
86.79519599999997
  0
LINE
  5
192
330
36
100
AcDbEntity
  8
0
 62
     3
100
AcDbLine
 10
-100.37141
 20
198.482307
 30
0.0
 11
-100.37141
 21
192.706454
 31
0.0
  0
ARC
  5
193
330
36
100
AcDbEntity
  8
0
 62
     3
100
AcDbCircle
 10
-105.37141
 20
192.706454
 30
0.0
 40
5.0
100
AcDbArc
 50
273.204804
 51
0.0
  0
ARC
  5
194
330
36
100
AcDbEntity
  8
0
 62
     3
100
AcDbCircle
 10
-180.87141
 20
1541.09438
 30
0.0
 40
1355.5
100
AcDbArc
 50
272.581659
 51
273.204804
  0
LINE
  5
195
330
36
100
AcDbEntity
  8
0
 62
     3
100
AcDbLine
 10
-123.995525
 20
190.966099
 30
0.0
 11
-123.995525
 21
195.34438
 31
0.0
  0
LINE
  5
196
330
36
100
AcDbEntity
  8
0
 62
     3
100
AcDbLine
 10
-149.87141
 20
63.43365999999999
 30
0.0
 11
-163.12141
 21
63.43365999999999
 31
0.0
  0
LINE
  5
197
330
36
100
AcDbEntity
  8
0
 62
     3
100
AcDbLine
 10
-168.62141
 20
63.43365999999999
 30
0.0
 11
-180.87141
 21
63.43365999999999
 31
0.0
  0
LINE
  5
198
330
36
100
AcDbEntity
  8
0
 62
     3
100
AcDbLine
 10
-149.87141
 20
48.43365999999999
 30
0.0
 11
-163.12141
 21
48.43365999999999
 31
0.0
  0
LINE
  5
199
330
36
100
AcDbEntity
  8
0
 62
     3
100
AcDbLine
 10
-168.62141
 20
48.43365999999999
 30
0.0
 11
-180.87141
 21
48.43365999999999
 31
0.0
  0
LINE
  5
19A
330
36
100
AcDbEntity
  8
0
 62
     3
100
AcDbLine
 10
-211.87141
 20
63.43365999999999
 30
0.0
 11
-198.62141
 21
63.43365999999999
 31
0.0
  0
LINE
  5
19B
330
36
100
AcDbEntity
  8
0
 62
     3
100
AcDbLine
 10
-193.12141
 20
63.43365999999999
 30
0.0
 11
-180.87141
 21
63.43365999999999
 31
0.0
  0
ARC
  5
19C
330
36
100
AcDbEntity
  8
0
 62
     3
100
AcDbCircle
 10
-180.87141
 20
-1289.56634
 30
0.0
 40
1355.5
100
AcDbArc
 50
86.79519599999997
 51
87.418341
  0
ARC
  5
19D
330
36
100
AcDbEntity
  8
0
 62
     3
100
AcDbCircle
 10
-105.37141
 20
58.821586
 30
0.0
 40
5.0
100
AcDbArc
 50
0.0
 51
86.79519599999997
  0
LINE
  5
19E
330
36
100
AcDbEntity
  8
0
 62
     3
100
AcDbLine
 10
-100.37141
 20
53.045733
 30
0.0
 11
-100.37141
 21
55.93365999999999
 31
0.0
  0
ARC
  5
19F
330
36
100
AcDbEntity
  8
0
 62
     3
100
AcDbCircle
 10
-105.37141
 20
53.045733
 30
0.0
 40
5.0
100
AcDbArc
 50
273.204804
 51
0.0
  0
ARC
  5
1A0
330
36
100
AcDbEntity
  8
0
 62
     3
100
AcDbCircle
 10
-180.87141
 20
1401.43366
 30
0.0
 40
1355.5
100
AcDbArc
 50
272.581659
 51
273.204804
  0
LINE
  5
1A1
330
36
100
AcDbEntity
  8
0
 62
     3
100
AcDbLine
 10
-123.995525
 20
60.51648100000001
 30
0.0
 11
-123.995525
 21
56.18365999999999
 31
0.0
  0
LINE
  5
1A2
330
36
100
AcDbEntity
  8
0
 62
     3
100
AcDbLine
 10
-100.37141
 20
58.821586
 30
0.0
 11
-100.37141
 21
55.93365999999999
 31
0.0
  0
LINE
  5
1A3
330
36
100
AcDbEntity
  8
0
 62
     3
100
AcDbLine
 10
-123.995525
 20
51.305378
 30
0.0
 11
-123.995525
 21
55.68366
 31
0.0
  0
LINE
  5
1A4
330
36
100
AcDbEntity
  8
0
 62
     3
100
AcDbLine
 10
-237.747295
 20
51.305378
 30
0.0
 11
-237.747295
 21
55.68366
 31
0.0
  0
LINE
  5
1A5
330
36
100
AcDbEntity
  8
0
 62
     3
100
AcDbLine
 10
-237.747295
 20
60.51648100000001
 30
0.0
 11
-237.747295
 21
56.18365999999999
 31
0.0
  0
LINE
  5
1A6
330
36
100
AcDbEntity
  8
0
 62
     3
100
AcDbLine
 10
-261.37141
 20
53.045733
 30
0.0
 11
-261.37141
 21
55.93365999999999
 31
0.0
  0
ARC
  5
1A7
330
36
100
AcDbEntity
  8
0
 62
     3
100
AcDbCircle
 10
-180.87141
 20
-1289.56634
 30
0.0
 40
1355.5
100
AcDbArc
 50
92.58165899999999
 51
93.204804
  0
ARC
  5
1A8
330
36
100
AcDbEntity
  8
0
 62
     3
100
AcDbCircle
 10
-180.87141
 20
1401.43366
 30
0.0
 40
1355.5
100
AcDbArc
 50
266.795196
 51
267.418341
  0
LINE
  5
1A9
330
36
100
AcDbEntity
  8
0
 62
     3
100
AcDbLine
 10
-193.12141
 20
48.43365999999999
 30
0.0
 11
-180.87141
 21
48.43365999999999
 31
0.0
  0
LINE
  5
1AA
330
36
100
AcDbEntity
  8
0
 62
     3
100
AcDbLine
 10
-211.87141
 20
48.43365999999999
 30
0.0
 11
-198.62141
 21
48.43365999999999
 31
0.0
  0
ARC
  5
1AB
330
36
100
AcDbEntity
  8
0
 62
     3
100
AcDbCircle
 10
-211.87141
 20
44.43366
 30
0.0
 40
4.0
100
AcDbArc
 50
90.0
 51
180.0
  0
ARC
  5
1AC
330
36
100
AcDbEntity
  8
0
 62
     3
100
AcDbCircle
 10
-149.87141
 20
44.43366
 30
0.0
 40
4.0
100
AcDbArc
 50
0.0
 51
90.0
  0
ARC
  5
1AD
330
36
100
AcDbEntity
  8
0
 62
     3
100
AcDbCircle
 10
-140.87141
 20
44.52310599999999
 30
0.0
 40
5.0
100
AcDbArc
 50
180.0
 51
271.6885180000001
  0
ARC
  5
1AE
330
36
100
AcDbEntity
  8
0
 62
     3
100
AcDbCircle
 10
-256.37141
 20
58.821586
 30
0.0
 40
5.0
100
AcDbArc
 50
93.204804
 51
180.0
  0
ARC
  5
1AF
330
36
100
AcDbEntity
  8
0
 62
     3
100
AcDbCircle
 10
-256.37141
 20
53.045733
 30
0.0
 40
5.0
100
AcDbArc
 50
180.0
 51
266.795196
  0
LINE
  5
1B0
330
36
100
AcDbEntity
  8
0
 62
     3
100
AcDbLine
 10
-261.37141
 20
58.821586
 30
0.0
 11
-261.37141
 21
55.93365999999999
 31
0.0
  0
ARC
  5
1B1
330
36
100
AcDbEntity
  8
0
 62
     3
100
AcDbCircle
 10
-220.87141
 20
199.34438
 30
0.0
 40
8.875
100
AcDbArc
 50
90.0
 51
180.0
  0
LINE
  5
1B2
330
36
100
AcDbEntity
  8
0
 62
     3
100
AcDbLine
 10
-220.87141
 20
208.21938
 30
0.0
 11
-140.87141
 21
208.21938
 31
0.0
  0
LINE
  5
1B3
330
36
100
AcDbEntity
  8
0
 62
     3
100
AcDbLine
 10
-229.74641
 20
191.84438
 30
0.0
 11
-229.74641
 21
199.34438
 31
0.0
  0
ARC
  5
1B4
330
36
100
AcDbEntity
  8
0
 62
     3
100
AcDbCircle
 10
-220.87141
 20
191.84438
 30
0.0
 40
8.875
100
AcDbArc
 50
180.0
 51
270.0
  0
ARC
  5
1B5
330
36
100
AcDbEntity
  8
0
 62
     3
100
AcDbCircle
 10
-195.316823
 20
198.965036
 30
0.0
 40
5.0
100
AcDbArc
 50
90.0
 51
180.0
  0
ARC
  5
1B6
330
36
100
AcDbEntity
  8
0
 62
     3
100
AcDbCircle
 10
-195.316823
 20
192.215036
 30
0.0
 40
5.0
100
AcDbArc
 50
180.0
 51
270.0
  0
LINE
  5
1B7
330
36
100
AcDbEntity
  8
0
 62
     3
100
AcDbLine
 10
-191.316823
 20
187.215036
 30
0.0
 11
-195.316823
 21
187.215036
 31
0.0
  0
LINE
  5
1B8
330
36
100
AcDbEntity
  8
0
 62
     3
100
AcDbLine
 10
-195.316823
 20
203.965036
 30
0.0
 11
-191.316823
 21
203.965036
 31
0.0
  0
ARC
  5
1B9
330
36
100
AcDbEntity
  8
0
 62
     3
100
AcDbCircle
 10
-140.87141
 20
199.34438
 30
0.0
 40
8.875
100
AcDbArc
 50
0.0
 51
90.0
  0
ARC
  5
1BA
330
36
100
AcDbEntity
  8
0
 62
     3
100
AcDbCircle
 10
-140.87141
 20
191.84438
 30
0.0
 40
8.875
100
AcDbArc
 50
270.0
 51
0.0
  0
ARC
  5
1BB
330
36
100
AcDbEntity
  8
0
 62
     3
100
AcDbCircle
 10
-214.816823
 20
192.215036
 30
0.0
 40
5.0
100
AcDbArc
 50
180.0
 51
270.0
  0
LINE
  5
1BC
330
36
100
AcDbEntity
  8
0
 62
     3
100
AcDbLine
 10
-219.816823
 20
192.215036
 30
0.0
 11
-219.816823
 21
195.590036
 31
0.0
  0
LINE
  5
1BD
330
36
100
AcDbEntity
  8
0
 62
     3
100
AcDbLine
 10
-219.816823
 20
198.965036
 30
0.0
 11
-219.816823
 21
195.590036
 31
0.0
  0
ARC
  5
1BE
330
36
100
AcDbEntity
  8
0
 62
     3
100
AcDbCircle
 10
-214.816823
 20
198.965036
 30
0.0
 40
5.0
100
AcDbArc
 50
90.0
 51
180.0
  0
LINE
  5
1BF
330
36
100
AcDbEntity
  8
0
 62
     3
100
AcDbLine
 10
-214.816823
 20
203.965036
 30
0.0
 11
-210.816823
 21
203.965036
 31
0.0
  0
ARC
  5
1C0
330
36
100
AcDbEntity
  8
0
 62
     3
100
AcDbCircle
 10
-210.816823
 20
198.965036
 30
0.0
 40
5.0
100
AcDbArc
 50
0.0
 51
90.0
  0
ARC
  5
1C1
330
36
100
AcDbEntity
  8
0
 62
     3
100
AcDbCircle
 10
-210.816823
 20
192.215036
 30
0.0
 40
5.0
100
AcDbArc
 50
270.0
 51
0.0
  0
LINE
  5
1C2
330
36
100
AcDbEntity
  8
0
 62
     3
100
AcDbLine
 10
-205.816823
 20
198.965036
 30
0.0
 11
-205.816823
 21
195.590036
 31
0.0
  0
LINE
  5
1C3
330
36
100
AcDbEntity
  8
0
 62
     3
100
AcDbLine
 10
-205.816823
 20
192.215036
 30
0.0
 11
-205.816823
 21
195.590036
 31
0.0
  0
LINE
  5
1C4
330
36
100
AcDbEntity
  8
0
 62
     3
100
AcDbLine
 10
-214.816823
 20
187.215036
 30
0.0
 11
-210.816823
 21
187.215036
 31
0.0
  0
LINE
  5
1C5
330
36
100
AcDbEntity
  8
0
 62
     3
100
AcDbLine
 10
-200.316823
 20
198.965036
 30
0.0
 11
-200.316823
 21
192.215036
 31
0.0
  0
ARC
  5
1C6
330
36
100
AcDbEntity
  8
0
 62
     3
100
AcDbCircle
 10
-191.316823
 20
198.965036
 30
0.0
 40
5.0
100
AcDbArc
 50
0.0
 51
90.0
  0
LINE
  5
1C7
330
36
100
AcDbEntity
  8
0
 62
     3
100
AcDbLine
 10
-186.316823
 20
198.965036
 30
0.0
 11
-186.316823
 21
195.590036
 31
0.0
  0
LINE
  5
1C8
330
36
100
AcDbEntity
  8
0
 62
     3
100
AcDbLine
 10
-186.316823
 20
192.215036
 30
0.0
 11
-186.316823
 21
195.590036
 31
0.0
  0
ARC
  5
1C9
330
36
100
AcDbEntity
  8
0
 62
     3
100
AcDbCircle
 10
-191.316823
 20
192.215036
 30
0.0
 40
5.0
100
AcDbArc
 50
270.0
 51
0.0
  0
LINE
  5
1CA
330
36
100
AcDbEntity
  8
0
 62
     3
100
AcDbLine
 10
-220.87141
 20
182.96938
 30
0.0
 11
-140.87141
 21
182.96938
 31
0.0
  0
ARC
  5
1CB
330
36
100
AcDbEntity
  8
0
 62
     3
100
AcDbCircle
 10
-241.747295
 20
190.966099
 30
0.0
 40
4.0
100
AcDbArc
 50
267.418341
 51
0.0
  0
ARC
  5
1CC
330
36
100
AcDbEntity
  8
0
 62
     3
100
AcDbCircle
 10
-241.747295
 20
200.222662
 30
0.0
 40
4.0
100
AcDbArc
 50
0.0
 51
92.58165899999999
  0
ARC
  5
1CD
330
36
100
AcDbEntity
  8
0
 62
     3
100
AcDbCircle
 10
-119.995525
 20
200.222662
 30
0.0
 40
4.0
100
AcDbArc
 50
87.418341
 51
180.0
  0
ARC
  5
1CE
330
36
100
AcDbEntity
  8
0
 62
     3
100
AcDbCircle
 10
-119.995525
 20
190.966099
 30
0.0
 40
4.0
100
AcDbArc
 50
180.0
 51
272.581659
  0
LINE
  5
1CF
330
36
100
AcDbEntity
  8
0
 62
     3
100
AcDbLine
 10
-131.99641
 20
195.59438
 30
0.0
 11
-131.99641
 21
191.84438
 31
0.0
  0
LINE
  5
1D0
330
36
100
AcDbEntity
  8
0
 62
     3
100
AcDbLine
 10
-131.99641
 20
195.59438
 30
0.0
 11
-131.99641
 21
199.34438
 31
0.0
  0
ARC
  5
1D1
330
36
100
AcDbEntity
  8
0
 62
     3
100
AcDbCircle
 10
-119.995525
 20
51.305378
 30
0.0
 40
4.0
100
AcDbArc
 50
180.0
 51
272.581659
  0
ARC
  5
1D2
330
36
100
AcDbEntity
  8
0
 62
     3
100
AcDbCircle
 10
-119.995525
 20
60.561941
 30
0.0
 40
4.0
100
AcDbArc
 50
87.418341
 51
180.0
  0
ARC
  5
1D3
330
36
100
AcDbEntity
  8
0
 62
     3
100
AcDbCircle
 10
-241.747295
 20
51.305378
 30
0.0
 40
4.0
100
AcDbArc
 50
267.418341
 51
0.0
  0
ARC
  5
1D4
330
36
100
AcDbEntity
  8
0
 62
     3
100
AcDbCircle
 10
-241.747295
 20
60.561941
 30
0.0
 40
4.0
100
AcDbArc
 50
0.0
 51
92.58165899999999
  0
ARC
  5
1D5
330
36
100
AcDbEntity
  8
0
 62
     3
100
AcDbCircle
 10
-170.425997
 20
198.965036
 30
0.0
 40
5.0
100
AcDbArc
 50
90.0
 51
180.0
  0
ARC
  5
1D6
330
36
100
AcDbEntity
  8
0
 62
     3
100
AcDbCircle
 10
-170.425997
 20
192.215036
 30
0.0
 40
5.0
100
AcDbArc
 50
180.0
 51
270.0
  0
LINE
  5
1D7
330
36
100
AcDbEntity
  8
0
 62
     3
100
AcDbLine
 10
-170.425997
 20
203.965036
 30
0.0
 11
-166.425997
 21
203.965036
 31
0.0
  0
ARC
  5
1D8
330
36
100
AcDbEntity
  8
0
 62
     3
100
AcDbCircle
 10
-150.925997
 20
192.215036
 30
0.0
 40
5.0
100
AcDbArc
 50
180.0
 51
270.0
  0
LINE
  5
1D9
330
36
100
AcDbEntity
  8
0
 62
     3
100
AcDbLine
 10
-155.925997
 20
192.215036
 30
0.0
 11
-155.925997
 21
195.590036
 31
0.0
  0
LINE
  5
1DA
330
36
100
AcDbEntity
  8
0
 62
     3
100
AcDbLine
 10
-155.925997
 20
198.965036
 30
0.0
 11
-155.925997
 21
195.590036
 31
0.0
  0
ARC
  5
1DB
330
36
100
AcDbEntity
  8
0
 62
     3
100
AcDbCircle
 10
-150.925997
 20
198.965036
 30
0.0
 40
5.0
100
AcDbArc
 50
90.0
 51
180.0
  0
LINE
  5
1DC
330
36
100
AcDbEntity
  8
0
 62
     3
100
AcDbLine
 10
-150.925997
 20
203.965036
 30
0.0
 11
-146.925997
 21
203.965036
 31
0.0
  0
ARC
  5
1DD
330
36
100
AcDbEntity
  8
0
 62
     3
100
AcDbCircle
 10
-146.925997
 20
198.965036
 30
0.0
 40
5.0
100
AcDbArc
 50
0.0
 51
90.0
  0
ARC
  5
1DE
330
36
100
AcDbEntity
  8
0
 62
     3
100
AcDbCircle
 10
-146.925997
 20
192.215036
 30
0.0
 40
5.0
100
AcDbArc
 50
270.0
 51
0.0
  0
ARC
  5
1DF
330
36
100
AcDbEntity
  8
0
 62
     3
100
AcDbCircle
 10
-166.425997
 20
198.965036
 30
0.0
 40
5.0
100
AcDbArc
 50
0.0
 51
90.0
  0
LINE
  5
1E0
330
36
100
AcDbEntity
  8
0
 62
     3
100
AcDbLine
 10
-161.425997
 20
198.965036
 30
0.0
 11
-161.425997
 21
195.590036
 31
0.0
  0
LINE
  5
1E1
330
36
100
AcDbEntity
  8
0
 62
     3
100
AcDbLine
 10
-161.425997
 20
192.215036
 30
0.0
 11
-161.425997
 21
195.590036
 31
0.0
  0
ARC
  5
1E2
330
36
100
AcDbEntity
  8
0
 62
     3
100
AcDbCircle
 10
-166.425997
 20
192.215036
 30
0.0
 40
5.0
100
AcDbArc
 50
270.0
 51
0.0
  0
LINE
  5
1E3
330
36
100
AcDbEntity
  8
0
 62
     3
100
AcDbLine
 10
-141.925997
 20
192.215036
 30
0.0
 11
-141.925997
 21
195.590036
 31
0.0
  0
LINE
  5
1E4
330
36
100
AcDbEntity
  8
0
 62
     3
100
AcDbLine
 10
-141.925997
 20
198.965036
 30
0.0
 11
-141.925997
 21
195.590036
 31
0.0
  0
LINE
  5
1E5
330
36
100
AcDbEntity
  8
0
 62
     3
100
AcDbLine
 10
-150.925997
 20
187.215036
 30
0.0
 11
-146.925997
 21
187.215036
 31
0.0
  0
LINE
  5
1E6
330
36
100
AcDbEntity
  8
0
 62
     3
100
AcDbLine
 10
-166.425997
 20
187.215036
 30
0.0
 11
-170.425997
 21
187.215036
 31
0.0
  0
LINE
  5
1E7
330
36
100
AcDbEntity
  8
0
 62
     3
100
AcDbLine
 10
-175.425997
 20
198.965036
 30
0.0
 11
-175.425997
 21
192.215036
 31
0.0
  0
CIRCLE
  5
1E8
330
36
100
AcDbEntity
  8
0
 62
     3
100
AcDbCircle
 10
-180.87141
 20
195.59438
 30
0.0
 40
4.0
  0
LINE
  5
1EB
330
36
100
AcDbEntity
  8
0
 62
     3
100
AcDbLine
 10
0.018137
 20
-11.337778
 30
0.0
 11
0.018137
 21
11.662222
 31
0.0
  0
LINE
  5
1ED
330
36
100
AcDbEntity
  8
0
 62
     3
100
AcDbLine
 10
-53.03547299999999
 20
-18.337778
 30
0.0
 11
-53.03547299999999
 21
-4.337778
 31
0.0
  0
TEXT
  5
1EF
330
36
100
AcDbEntity
  8
0
 62
     3
100
AcDbText
 10
-23.971545
 20
7.867338
 30
0.0
 40
2.0
  1
A
 41
0.7
100
AcDbText
  0
TEXT
  5
1F0
330
36
100
AcDbEntity
  8
0
 62
     3
100
AcDbText
 10
-21.436259
 20
7.867338
 30
0.0
 40
2.0
  1
P
 41
0.7
100
AcDbText
  0
TEXT
  5
1F1
330
36
100
AcDbEntity
  8
0
 62
     3
100
AcDbText
 10
-18.900973
 20
7.867338
 30
0.0
 40
2.0
  1
P
 41
0.7
100
AcDbText
  0
TEXT
  5
1F2
330
36
100
AcDbEntity
  8
0
 62
     3
100
AcDbText
 10
-16.365686
 20
7.867338
 30
0.0
 40
2.0
  1
D
 41
0.7
100
AcDbText
  0
TEXT
  5
1F3
330
36
100
AcDbEntity
  8
0
 62
     3
100
AcDbText
 10
-10.997003
 20
7.867338
 30
0.0
 40
2.0
  1
C
 41
0.7
100
AcDbText
  0
TEXT
  5
1F4
330
36
100
AcDbEntity
  8
0
 62
     3
100
AcDbText
 10
-8.461717
 20
7.867338
 30
0.0
 40
2.0
  1
H
 41
0.7
100
AcDbText
  0
TEXT
  5
1F5
330
36
100
AcDbEntity
  8
0
 62
     3
100
AcDbText
 10
-5.926431
 20
7.867338
 30
0.0
 40
2.0
  1
C
 41
0.7
100
AcDbText
  0
TEXT
  5
1F6
330
36
100
AcDbEntity
  8
0
 62
     3
100
AcDbText
 10
-3.391144999999998
 20
7.867338
 30
0.0
 40
2.0
  1
K
 41
0.7
100
AcDbText
  0
TEXT
  5
1F7
330
36
100
AcDbEntity
  8
0
 62
     3
100
AcDbText
 10
2.282821999999999
 20
7.867338
 30
0.0
 40
2.0
  1
DESN
 41
1.216762999999998
100
AcDbText
  0
TEXT
  5
1F8
330
36
100
AcDbEntity
  8
0
 62
     3
100
AcDbText
 10
-82.723537
 20
-21.47916
 30
0.0
 40
2.0
  1
NICHIDO IND.CO.LTD
 41
1.274876
100
AcDbText
  0
LINE
  5
1F9
330
36
100
AcDbEntity
  8
0
 62
     3
100
AcDbLine
 10
-72.34050699999997
 20
11.662222
 30
0.0
 11
-72.34050699999997
 21
-11.337778
 31
0.0
  0
LINE
  5
1FA
330
36
100
AcDbEntity
  8
0
 62
     3
100
AcDbLine
 10
-25.981863
 20
11.662222
 30
0.0
 11
-25.981863
 21
-28.0035
 31
0.0
  0
LINE
  5
1FF
330
36
100
AcDbEntity
  8
0
 62
     3
100
AcDbLine
 10
-12.981863
 20
11.662222
 30
0.0
 11
-12.981863
 21
-18.337778
 31
0.0
  0
TEXT
  5
200
330
36
100
AcDbEntity
  8
0
 62
     3
100
AcDbText
 10
-24.869418
 20
-17.473091
 30
0.0
 40
3.2
  1
作成日
 41
1.017225999999997
100
AcDbText
  0
LINE
  5
201
330
36
100
AcDbEntity
  8
0
 62
     3
100
AcDbLine
 10
25.7175
 20
11.662222
 30
0.0
 11
-85.58594199999998
 21
11.662222
 31
0.0
  0
LINE
  5
202
330
36
100
AcDbEntity
  8
0
 62
     3
100
AcDbLine
 10
13.018137
 20
-11.337778
 30
0.0
 11
13.018137
 21
11.662222
 31
0.0
  0
TEXT
  5
203
330
36
100
AcDbEntity
  8
0
 62
     3
100
AcDbText
 10
16.34194
 20
7.953157
 30
0.0
 40
1.8
  1
D
 41
0.666667
100
AcDbText
  0
TEXT
  5
204
330
36
100
AcDbEntity
  8
0
 62
     3
100
AcDbText
 10
19.158568
 20
7.953157
 30
0.0
 40
1.8
  1
E
 41
0.666667
100
AcDbText
  0
TEXT
  5
205
330
36
100
AcDbEntity
  8
0
 62
     3
100
AcDbText
 10
21.975197
 20
7.953157
 30
0.0
 40
1.8
  1
F
 41
0.666667
100
AcDbText
  0
TEXT
  5
206
330
36
100
AcDbEntity
  8
0
 62
     3
100
AcDbText
 10
16.34194
 20
3.960602999999998
 30
0.0
 40
3.2
  1
製図
 41
1.076369
100
AcDbText
  0
LINE
  5
207
330
36
100
AcDbEntity
  8
0
 62
     3
100
AcDbLine
 10
-85.58594199999998
 20
11.662222
 30
0.0
 11
-85.58594199999998
 21
-28.0035
 31
0.0
  0
TEXT
  5
208
330
36
100
AcDbEntity
  8
0
 62
     3
100
AcDbText
 10
-84.20928899999998
 20
-27.671035
 30
0.0
 40
5.0
  1
日動工業株式会社
 41
0.833333
100
AcDbText
  0
LINE
  5
209
330
36
100
AcDbEntity
  8
0
 62
     3
100
AcDbLine
 10
-42.703538
 20
-4.337777999999999
 30
0.0
 11
-42.703538
 21
-28.0035
 31
0.0
  0
LINE
  5
20A
330
36
100
AcDbEntity
  8
0
 62
     3
100
AcDbLine
 10
-42.703538
 20
-23.170639
 30
0.0
 11
-25.981863
 21
-23.170639
 31
0.0
  0
TEXT
  5
20B
330
36
100
AcDbEntity
  8
0
 62
     3
100
AcDbText
 10
-42.11693599999999
 20
-22.354209
 30
0.0
 40
3.2
  1
出図コード
 41
0.8356860000000001
100
AcDbText
  0
LINE
  5
20D
330
36
100
AcDbEntity
  8
0
 62
     3
100
AcDbLine
 10
-85.58594199999998
 20
-18.337778
 30
0.0
 11
25.7175
 21
-18.337778
 31
0.0
  0
LINE
  5
20F
330
36
100
AcDbEntity
  8
0
 62
     3
100
AcDbLine
 10
-85.58594199999998
 20
2.662222
 30
0.0
 11
25.7175
 21
2.662222
 31
0.0
  0
LINE
  5
215
330
36
100
AcDbEntity
  8
0
 62
     3
100
AcDbLine
 10
-85.58594199999999
 20
-4.337778
 30
0.0
 11
-25.981863
 21
-4.337778
 31
0.0
  0
LINE
  5
21B
330
36
100
AcDbEntity
  8
0
 62
     3
100
AcDbLine
 10
-85.58594199999998
 20
-11.337778
 30
0.0
 11
25.7175
 21
-11.337778
 31
0.0
  0
TEXT
  5
21C
330
36
100
AcDbEntity
  8
0
 62
     3
100
AcDbText
 10
-42.24948499999999
 20
-27.74250888921529
 30
0.0
 40
3.2
  1
ZK-A3X
 41
0.8112849999999999
100
AcDbText
  0
TEXT
  5
21D
330
36
100
AcDbEntity
  8
0
 62
     3
100
AcDbText
 10
-83.76854499999998
 20
7.831747999999997
 30
0.0
 40
2.0
  1
CONPONENTS
 41
0.5331600000000001
100
AcDbText
  0
TEXT
  5
21E
330
36
100
AcDbEntity
  8
0
 62
     3
100
AcDbText
 10
-84.11827199999997
 20
-11.100429
 30
0.0
 40
3.0
  1
材
 41
0.833333
100
AcDbText
  0
TEXT
  5
21F
330
36
100
AcDbEntity
  8
0
 62
     3
100
AcDbText
 10
-76.582629
 20
-11.100429
 30
0.0
 40
3.0
  1
質
 41
0.833333
100
AcDbText
  0
TEXT
  5
220
330
36
100
AcDbEntity
  8
0
 62
     3
100
AcDbText
 10
-84.030201
 20
-0.475904
 30
0.0
 40
2.0
  1
MODEL
 41
1.031072999999999
100
AcDbText
  0
TEXT
  5
221
330
36
100
AcDbEntity
  8
0
 62
     3
100
AcDbText
 10
-84.11827199999997
 20
-7.418121000000001
 30
0.0
 40
2.0
  1
MATERIAL
 41
0.659278
100
AcDbText
  0
TEXT
  5
222
330
36
100
AcDbEntity
  8
0
 62
     3
100
AcDbText
 10
-52.810991
 20
-11.100429
 30
0.0
 40
3.0
  1
備
 41
0.833333
100
AcDbText
  0
TEXT
  5
223
330
36
100
AcDbEntity
  8
0
 62
     3
100
AcDbText
 10
-46.07798999999999
 20
-11.100429
 30
0.0
 40
3.0
  1
考
 41
0.833333
100
AcDbText
  0
TEXT
  5
224
330
36
100
AcDbEntity
  8
0
 62
     3
100
AcDbText
 10
-52.50399738251325
 20
-7.418121000000001
 30
0.0
 40
2.0
  1
REMARKS
 41
0.675794
100
AcDbText
  0
TEXT
  5
225
330
36
100
AcDbEntity
  8
0
 62
     3
100
AcDbText
 10
-82.528543
 20
-14.338241
 30
0.0
 40
2.0
  1
3AD
 41
1.42614
100
AcDbText
  0
TEXT
  5
226
330
36
100
AcDbEntity
  8
0
 62
     3
100
AcDbText
 10
-73.217563
 20
-14.172508
 30
0.0
 40
2.0
  1
ANGLE
 41
1.669883999999997
100
AcDbText
  0
TEXT
  5
227
330
36
100
AcDbEntity
  8
0
 62
     3
100
AcDbText
 10
-52.283676
 20
-14.549349
 30
0.0
 40
2.0
  1
SCALE
 41
0.7719630000000001
100
AcDbText
  0
TEXT
  5
228
330
36
100
AcDbEntity
  8
0
 62
     3
100
AcDbText
 10
-82.84241299999996
 20
-18.337778
 30
0.0
 40
3.0
  1
第
 41
0.833333
100
AcDbText
  0
TEXT
  5
229
330
36
100
AcDbEntity
  8
0
 62
     3
100
AcDbText
 10
-75.05556300000002
 20
-18.337778
 30
0.0
 40
3.0
  1
三
 41
0.833333
100
AcDbText
  0
TEXT
  5
22A
330
36
100
AcDbEntity
  8
0
 62
     3
100
AcDbText
 10
-67.268713
 20
-18.337778
 30
0.0
 40
3.0
  1
角
 41
0.833333
100
AcDbText
  0
TEXT
  5
22B
330
36
100
AcDbEntity
  8
0
 62
     3
100
AcDbText
 10
-59.48186299999999
 20
-18.337778
 30
0.0
 40
3.0
  1
法
 41
0.833333
100
AcDbText
  0
TEXT
  5
22C
330
36
100
AcDbEntity
  8
0
 62
     3
100
AcDbText
 10
-52.420471
 20
-18.049349
 30
0.0
 40
3.0
  1
尺
 41
0.833333
100
AcDbText
  0
TEXT
  5
22D
330
36
100
AcDbEntity
  8
0
 62
     3
100
AcDbText
 10
-45.68746899999999
 20
-18.049349
 30
0.0
 40
3.0
  1
度
 41
0.833333
100
AcDbText
  0
TEXT
  5
22E
330
36
100
AcDbEntity
  8
0
 62
     3
100
AcDbText
 10
-23.104199
 20
4.119951
 30
0.0
 40
3.0
  1
承認
 41
1.089472999999999
100
AcDbText
  0
TEXT
  5
22F
330
36
100
AcDbEntity
  8
0
 62
     3
100
AcDbText
 10
-9.861318999999999
 20
4.062222
 30
0.0
 40
3.0
  1
検図
 41
0.931761
100
AcDbText
  0
TEXT
  5
230
330
36
100
AcDbEntity
  8
0
 62
     3
100
AcDbText
 10
3.139078
 20
4.062222
 30
0.0
 40
3.0
  1
設
 41
0.833333
100
AcDbText
  0
TEXT
  5
231
330
36
100
AcDbEntity
  8
0
 62
     3
100
AcDbText
 10
7.628946
 20
4.062222
 30
0.0
 40
3.0
  1
計
 41
0.833333
100
AcDbText
  0
TEXT
  5
232
330
36
100
AcDbEntity
  8
0
 62
     3
100
AcDbText
 10
-83.69843900000002
 20
4.234773999999998
 30
0.0
 40
3.0
  1
品
 41
0.833333
100
AcDbText
  0
TEXT
  5
233
330
36
100
AcDbEntity
  8
0
 62
     3
100
AcDbText
 10
-76.162796
 20
4.234773999999998
 30
0.0
 40
3.0
  1
名
 41
0.833333
100
AcDbText
  0
TEXT
  5
234
330
36
100
AcDbEntity
  8
0
 62
     3
100
AcDbText
 10
-84.030201
 20
-4.006411922590515
 30
0.0
 40
3.0
  1
型
 41
0.833333
100
AcDbText
  0
TEXT
  5
235
330
36
100
AcDbEntity
  8
0
 62
     3
100
AcDbText
 10
-76.48211100000001
 20
-4.006411922590515
 30
0.0
 40
3.0
  1
式
 41
0.833333
100
AcDbText
  0
LINE
  5
236
330
36
100
AcDbEntity
  8
0
100
AcDbLine
 10
-180.87141
 20
56.18365999999999
 30
0.0
 11
-143.37141
 21
56.18365999999999
 31
0.0
  0
LINE
  5
237
330
36
100
AcDbEntity
  8
0
100
AcDbLine
 10
-180.87141
 20
55.68366
 30
0.0
 11
-143.37141
 21
55.68366
 31
0.0
  0
LINE
  5
238
330
36
100
AcDbEntity
  8
0
100
AcDbLine
 10
-180.87141
 20
56.18365999999999
 30
0.0
 11
-218.37141
 21
56.18365999999999
 31
0.0
  0
LINE
  5
239
330
36
100
AcDbEntity
  8
0
100
AcDbLine
 10
-180.87141
 20
55.68366
 30
0.0
 11
-218.37141
 21
55.68366
 31
0.0
  0
LINE
  5
23A
330
36
100
AcDbEntity
  8
0
100
AcDbLine
 10
-237.747295
 20
56.18365999999999
 30
0.0
 11
-235.247295
 21
56.18365999999999
 31
0.0
  0
LINE
  5
23B
330
36
100
AcDbEntity
  8
0
100
AcDbLine
 10
-237.747295
 20
55.68366
 30
0.0
 11
-235.247295
 21
55.68366
 31
0.0
  0
LINE
  5
23C
330
36
100
AcDbEntity
  8
0
100
AcDbLine
 10
-126.495525
 20
56.18365999999999
 30
0.0
 11
-123.995525
 21
56.18365999999999
 31
0.0
  0
LINE
  5
23D
330
36
100
AcDbEntity
  8
0
100
AcDbLine
 10
-123.995525
 20
55.68366
 30
0.0
 11
-126.495525
 21
55.68366
 31
0.0
  0
CIRCLE
  5
23E
330
36
100
AcDbEntity
  8
0
100
AcDbCircle
 10
-96.87141
 20
154.428396
 30
0.0
 40
0.8
  0
CIRCLE
  5
23F
330
36
100
AcDbEntity
  8
0
100
AcDbCircle
 10
-134.934352
 20
141.337123
 30
0.0
 40
1.125
  0
CIRCLE
  5
240
330
36
100
AcDbEntity
  8
0
100
AcDbCircle
 10
-129.49
 20
103.326013
 30
0.0
 40
1.125
  0
CIRCLE
  5
241
330
36
100
AcDbEntity
  8
0
100
AcDbCircle
 10
-96.87141
 20
101.234739
 30
0.0
 40
0.8
  0
CIRCLE
  5
242
330
36
100
AcDbEntity
  8
0
100
AcDbCircle
 10
-208.37141
 20
103.326013
 30
0.0
 40
1.125
  0
CIRCLE
  5
243
330
36
100
AcDbEntity
  8
0
  6
PHANTOM
100
AcDbCircle
 10
-126.573405
 20
143.12128
 30
0.0
 40
3.0
  0
CIRCLE
  5
244
330
36
100
AcDbEntity
  8
0
  6
PHANTOM
100
AcDbCircle
 10
-126.573405
 20
137.12128
 30
0.0
 40
3.0
  0
CIRCLE
  5
245
330
36
100
AcDbEntity
  8
0
  6
PHANTOM
100
AcDbCircle
 10
-126.573405
 20
131.12128
 30
0.0
 40
3.0
  0
CIRCLE
  5
246
330
36
100
AcDbEntity
  8
0
  6
PHANTOM
100
AcDbCircle
 10
-126.573405
 20
125.12128
 30
0.0
 40
3.0
  0
CIRCLE
  5
247
330
36
100
AcDbEntity
  8
0
  6
PHANTOM
100
AcDbCircle
 10
-126.573405
 20
119.12128
 30
0.0
 40
3.0
  0
CIRCLE
  5
248
330
36
100
AcDbEntity
  8
0
  6
PHANTOM
100
AcDbCircle
 10
-126.573405
 20
113.12128
 30
0.0
 40
3.0
  0
CIRCLE
  5
249
330
36
100
AcDbEntity
  8
0
  6
PHANTOM
100
AcDbCircle
 10
-235.169414
 20
142.62128
 30
0.0
 40
3.0
  0
CIRCLE
  5
24A
330
36
100
AcDbEntity
  8
0
  6
PHANTOM
100
AcDbCircle
 10
-235.169414
 20
136.62128
 30
0.0
 40
3.0
  0
CIRCLE
  5
24B
330
36
100
AcDbEntity
  8
0
  6
PHANTOM
100
AcDbCircle
 10
-235.169414
 20
130.62128
 30
0.0
 40
3.0
  0
CIRCLE
  5
24C
330
36
100
AcDbEntity
  8
0
  6
PHANTOM
100
AcDbCircle
 10
-235.169414
 20
124.62128
 30
0.0
 40
3.0
  0
CIRCLE
  5
24D
330
36
100
AcDbEntity
  8
0
  6
PHANTOM
100
AcDbCircle
 10
-235.169414
 20
118.62128
 30
0.0
 40
3.0
  0
CIRCLE
  5
24E
330
36
100
AcDbEntity
  8
0
  6
PHANTOM
100
AcDbCircle
 10
-235.169414
 20
112.62128
 30
0.0
 40
3.0
  0
LINE
  5
24F
330
36
100
AcDbEntity
  8
0
100
AcDbLine
 10
-65.219952
 20
37.375455
 30
0.0
 11
-10.82139239392904
 21
37.375455
 31
0.0
  0
LINE
  5
250
330
36
100
AcDbEntity
  8
0
100
AcDbLine
 10
-65.219952
 20
30.655455
 30
0.0
 11
-10.82139239392904
 21
30.65545500000001
 31
0.0
  0
LINE
  5
251
330
36
100
AcDbEntity
  8
0
100
AcDbLine
 10
-40.94715506854027
 20
37.375455
 30
0.0
 11
-40.94715506854027
 21
23.935455
 31
0.0
  0
LINE
  5
252
330
36
100
AcDbEntity
  8
0
100
AcDbLine
 10
-65.219952
 20
45.055455
 30
0.0
 11
-10.82139239392904
 21
45.055455
 31
0.0
  0
LINE
  5
253
330
36
100
AcDbEntity
  8
0
  6
PHANTOM
100
AcDbLine
 10
-146.863142
 20
121.62128
 30
0.0
 11
-235.169414
 21
115.62128
 31
0.0
  0
LINE
  5
254
330
36
100
AcDbEntity
  8
0
  6
PHANTOM
100
AcDbLine
 10
-146.863142
 20
115.62128
 30
0.0
 11
-235.169414
 21
109.62128
 31
0.0
  0
LINE
  5
267
330
36
100
AcDbEntity
  8
0
  6
PHANTOM
100
AcDbLine
 10
-126.573405
 20
146.12128
 30
0.0
 11
-82.198203
 21
146.12128
 31
0.0
  0
LINE
  5
268
330
36
100
AcDbEntity
  8
0
  6
PHANTOM
100
AcDbLine
 10
-126.573405
 20
140.12128
 30
0.0
 11
-81.795922
 21
140.12128
 31
0.0
  0
LINE
  5
269
330
36
100
AcDbEntity
  8
0
100
AcDbLine
 10
-123.995525
 20
195.84438
 30
0.0
 11
-131.99641
 21
195.84438
 31
0.0
  0
LINE
  5
26A
330
36
100
AcDbEntity
  8
0
100
AcDbLine
 10
-123.995525
 20
195.34438
 30
0.0
 11
-131.99641
 21
195.34438
 31
0.0
  0
LINE
  5
26B
330
36
100
AcDbEntity
  8
0
100
AcDbLine
 10
-237.747295
 20
195.84438
 30
0.0
 11
-229.74641
 21
195.84438
 31
0.0
  0
LINE
  5
26C
330
36
100
AcDbEntity
  8
0
100
AcDbLine
 10
-237.747295
 20
195.34438
 30
0.0
 11
-229.74641
 21
195.34438
 31
0.0
  0
LINE
  5
26D
330
36
100
AcDbEntity
  8
0
100
AcDbLine
 10
-46.82287364560092
 20
96.54907299884941
 30
0.0
 11
-12.53878105388185
 21
96.54907299884941
 31
0.0
  0
ARC
  5
26E
330
36
100
AcDbEntity
  8
0
100
AcDbCircle
 10
-37.10157000000001
 20
144.31294
 30
0.0
 40
3.75
100
AcDbArc
 50
303.055731
 51
0.0
  0
LINE
  5
28B
330
36
100
AcDbEntity
  8
0
100
AcDbLine
 10
-28.10157
 20
153.148282
 30
0.0
 11
-28.10157
 21
152.398282
 31
0.0
  0
LINE
  5
28C
330
36
100
AcDbEntity
  8
0
100
AcDbLine
 10
-29.10157
 20
153.148282
 30
0.0
 11
-29.10157
 21
152.398282
 31
0.0
  0
LINE
  5
28D
330
36
100
AcDbEntity
  8
0
100
AcDbLine
 10
-28.10157
 20
151.398282
 30
0.0
 11
-28.10157
 21
150.648282
 31
0.0
  0
LINE
  5
28E
330
36
100
AcDbEntity
  8
0
100
AcDbLine
 10
-29.10157
 20
151.398282
 30
0.0
 11
-29.10157
 21
150.648282
 31
0.0
  0
LINE
  5
28F
330
36
100
AcDbEntity
  8
0
100
AcDbLine
 10
-28.10157
 20
149.648282
 30
0.0
 11
-28.10157
 21
148.898282
 31
0.0
  0
LINE
  5
290
330
36
100
AcDbEntity
  8
0
100
AcDbLine
 10
-28.10157
 20
147.898282
 30
0.0
 11
-28.10157
 21
147.148282
 31
0.0
  0
LINE
  5
291
330
36
100
AcDbEntity
  8
0
100
AcDbLine
 10
-29.10157
 20
149.648282
 30
0.0
 11
-29.10157
 21
148.898282
 31
0.0
  0
LINE
  5
292
330
36
100
AcDbEntity
  8
0
100
AcDbLine
 10
-29.10157
 20
147.898282
 30
0.0
 11
-29.10157
 21
147.148282
 31
0.0
  0
LINE
  5
293
330
36
100
AcDbEntity
  8
0
100
AcDbLine
 10
-32.010532
 20
149.648282
 30
0.0
 11
-32.027577
 21
148.898282
 31
0.0
  0
LINE
  5
294
330
36
100
AcDbEntity
  8
0
100
AcDbLine
 10
-31.930986
 20
153.148282
 30
0.0
 11
-31.948032
 21
152.398282
 31
0.0
  0
LINE
  5
295
330
36
100
AcDbEntity
  8
0
100
AcDbLine
 10
-31.970759
 20
151.398282
 30
0.0
 11
-31.987804
 21
150.648282
 31
0.0
  0
LINE
  5
296
330
36
100
AcDbEntity
  8
0
100
AcDbLine
 10
-32.567479
 20
147.148282
 30
0.0
 11
-24.635661
 21
147.148282
 31
0.0
  0
LINE
  5
297
330
36
100
AcDbEntity
  8
0
100
AcDbLine
 10
-32.550434
 20
147.898282
 30
0.0
 11
-24.652706
 21
147.898282
 31
0.0
  0
LINE
  5
298
330
36
100
AcDbEntity
  8
0
100
AcDbLine
 10
-32.527706
 20
148.898282
 30
0.0
 11
-24.675434
 21
148.898282
 31
0.0
  0
LINE
  5
299
330
36
100
AcDbEntity
  8
0
100
AcDbLine
 10
-32.510661
 20
149.648282
 30
0.0
 11
-24.692479
 21
149.648282
 31
0.0
  0
LINE
  5
29A
330
36
100
AcDbEntity
  8
0
100
AcDbLine
 10
-32.487934
 20
150.648282
 30
0.0
 11
-24.715206
 21
150.648282
 31
0.0
  0
LINE
  5
29B
330
36
100
AcDbEntity
  8
0
100
AcDbLine
 10
-32.470888
 20
151.398282
 30
0.0
 11
-24.732252
 21
151.398282
 31
0.0
  0
LINE
  5
29C
330
36
100
AcDbEntity
  8
0
100
AcDbLine
 10
-32.448161
 20
152.398282
 30
0.0
 11
-24.75497900000001
 21
152.398282
 31
0.0
  0
LINE
  5
29D
330
36
100
AcDbEntity
  8
0
100
AcDbLine
 10
-32.43111500000001
 20
153.148282
 30
0.0
 11
-24.772024
 21
153.148282
 31
0.0
  0
LINE
  5
29E
330
36
100
AcDbEntity
  8
0
100
AcDbLine
 10
-32.050304
 20
147.898282
 30
0.0
 11
-32.06735
 21
147.148282
 31
0.0
  0
LINE
  5
29F
330
36
100
AcDbEntity
  8
0
100
AcDbLine
 10
-25.255108
 20
152.398282
 30
0.0
 11
-25.272154
 21
153.148282
 31
0.0
  0
LINE
  5
2A0
330
36
100
AcDbEntity
  8
0
100
AcDbLine
 10
-25.215335
 20
150.648282
 30
0.0
 11
-25.232381
 21
151.398282
 31
0.0
  0
LINE
  5
2A1
330
36
100
AcDbEntity
  8
0
100
AcDbLine
 10
-25.175563
 20
148.898282
 30
0.0
 11
-25.192608
 21
149.648282
 31
0.0
  0
LINE
  5
2A2
330
36
100
AcDbEntity
  8
0
100
AcDbLine
 10
-25.13579
 20
147.148282
 30
0.0
 11
-25.152835
 21
147.898282
 31
0.0
  0
LINE
  5
2A3
330
36
100
AcDbEntity
  8
0
100
AcDbLine
 10
-37.35157
 20
124.148282
 30
0.0
 11
-19.85157
 21
124.148282
 31
0.0
  0
CIRCLE
  5
2A4
330
36
100
AcDbEntity
  8
0
100
AcDbCircle
 10
-189.1613129999999
 20
199.295223
 30
0.0
 40
0.777605
  0
LINE
  5
2A5
330
36
100
AcDbEntity
  8
0
100
AcDbLine
 10
-188.823234
 20
198.795223
 30
0.0
 11
-188.823234
 21
199.792164
 31
0.0
  0
LINE
  5
2A6
330
36
100
AcDbEntity
  8
0
100
AcDbLine
 10
-188.573234
 20
199.045223
 30
0.0
 11
-188.573234
 21
199.545223
 31
0.0
  0
LINE
  5
2A7
330
36
100
AcDbEntity
  8
0
100
AcDbLine
 10
-189.073234
 20
199.295223
 30
0.0
 11
-189.073234
 21
199.920223
 31
0.0
  0
LINE
  5
2A8
330
36
100
AcDbEntity
  8
0
100
AcDbLine
 10
-189.073234
 20
199.295223
 30
0.0
 11
-189.073234
 21
198.670223
 31
0.0
  0
LINE
  5
2A9
330
36
100
AcDbEntity
  8
0
100
AcDbLine
 10
-189.712852
 20
199.295223
 30
0.0
 11
-189.073234
 21
199.295223
 31
0.0
  0
CIRCLE
  5
2AA
330
36
100
AcDbEntity
  8
0
100
AcDbCircle
 10
-208.661313
 20
199.295223
 30
0.0
 40
0.777605
  0
LINE
  5
2AB
330
36
100
AcDbEntity
  8
0
100
AcDbLine
 10
-208.323234
 20
198.795223
 30
0.0
 11
-208.323234
 21
199.792164
 31
0.0
  0
LINE
  5
2AC
330
36
100
AcDbEntity
  8
0
100
AcDbLine
 10
-208.073234
 20
199.045223
 30
0.0
 11
-208.073234
 21
199.545223
 31
0.0
  0
LINE
  5
2AD
330
36
100
AcDbEntity
  8
0
100
AcDbLine
 10
-208.573234
 20
199.295223
 30
0.0
 11
-208.573234
 21
199.920223
 31
0.0
  0
LINE
  5
2AE
330
36
100
AcDbEntity
  8
0
100
AcDbLine
 10
-208.573234
 20
199.295223
 30
0.0
 11
-208.573234
 21
198.670223
 31
0.0
  0
LINE
  5
2AF
330
36
100
AcDbEntity
  8
0
100
AcDbLine
 10
-209.212852
 20
199.295223
 30
0.0
 11
-208.573234
 21
199.295223
 31
0.0
  0
CIRCLE
  5
2B0
330
36
100
AcDbEntity
  8
0
100
AcDbCircle
 10
-164.270487
 20
199.295223
 30
0.0
 40
0.777605
  0
LINE
  5
2B1
330
36
100
AcDbEntity
  8
0
100
AcDbLine
 10
-163.932408
 20
198.795223
 30
0.0
 11
-163.932408
 21
199.792164
 31
0.0
  0
LINE
  5
2B2
330
36
100
AcDbEntity
  8
0
100
AcDbLine
 10
-163.682408
 20
199.045223
 30
0.0
 11
-163.682408
 21
199.545223
 31
0.0
  0
LINE
  5
2B3
330
36
100
AcDbEntity
  8
0
100
AcDbLine
 10
-164.182408
 20
199.295223
 30
0.0
 11
-164.182408
 21
199.920223
 31
0.0
  0
LINE
  5
2B4
330
36
100
AcDbEntity
  8
0
100
AcDbLine
 10
-164.182408
 20
199.295223
 30
0.0
 11
-164.182408
 21
198.670223
 31
0.0
  0
LINE
  5
2B5
330
36
100
AcDbEntity
  8
0
100
AcDbLine
 10
-164.822026
 20
199.295223
 30
0.0
 11
-164.182408
 21
199.295223
 31
0.0
  0
CIRCLE
  5
2B6
330
36
100
AcDbEntity
  8
0
100
AcDbCircle
 10
-144.770487
 20
199.295223
 30
0.0
 40
0.777605
  0
LINE
  5
2B7
330
36
100
AcDbEntity
  8
0
100
AcDbLine
 10
-144.432408
 20
198.795223
 30
0.0
 11
-144.432408
 21
199.792164
 31
0.0
  0
LINE
  5
2B8
330
36
100
AcDbEntity
  8
0
100
AcDbLine
 10
-144.182408
 20
199.045223
 30
0.0
 11
-144.182408
 21
199.545223
 31
0.0
  0
LINE
  5
2B9
330
36
100
AcDbEntity
  8
0
100
AcDbLine
 10
-144.682408
 20
199.295223
 30
0.0
 11
-144.682408
 21
199.920223
 31
0.0
  0
LINE
  5
2BA
330
36
100
AcDbEntity
  8
0
100
AcDbLine
 10
-144.682408
 20
199.295223
 30
0.0
 11
-144.682408
 21
198.670223
 31
0.0
  0
LINE
  5
2BB
330
36
100
AcDbEntity
  8
0
100
AcDbLine
 10
-145.322026
 20
199.295223
 30
0.0
 11
-144.682408
 21
199.295223
 31
0.0
  0
LINE
  5
2BC
330
36
100
AcDbEntity
  8
0
100
AcDbLine
 10
-153.625997
 20
191.165036
 30
0.0
 11
-148.1259969999999
 21
191.165036
 31
0.0
  0
ARC
  5
2BD
330
36
100
AcDbEntity
  8
0
100
AcDbCircle
 10
-148.1259969999999
 20
191.915036
 30
0.0
 40
0.75
100
AcDbArc
 50
270.0
 51
0.0
  0
LINE
  5
2BE
330
36
100
AcDbEntity
  8
0
100
AcDbLine
 10
-147.375997
 20
192.915036
 30
0.0
 11
-147.375997
 21
191.915036
 31
0.0
  0
ARC
  5
2BF
330
36
100
AcDbEntity
  8
0
100
AcDbCircle
 10
-148.1259969999999
 20
192.915036
 30
0.0
 40
0.75
100
AcDbArc
 50
0.0
 51
90.0
  0
LINE
  5
2C0
330
36
100
AcDbEntity
  8
0
100
AcDbLine
 10
-148.1259969999999
 20
193.665036
 30
0.0
 11
-153.625997
 21
193.665036
 31
0.0
  0
ARC
  5
2C1
330
36
100
AcDbEntity
  8
0
100
AcDbCircle
 10
-153.625997
 20
192.915036
 30
0.0
 40
0.75
100
AcDbArc
 50
90.0
 51
180.0
  0
LINE
  5
2C2
330
36
100
AcDbEntity
  8
0
100
AcDbLine
 10
-154.375997
 20
192.915036
 30
0.0
 11
-154.375997
 21
191.915036
 31
0.0
  0
ARC
  5
2C3
330
36
100
AcDbEntity
  8
0
100
AcDbCircle
 10
-153.625997
 20
191.915036
 30
0.0
 40
0.75
100
AcDbArc
 50
180.0
 51
270.0
  0
LINE
  5
2C4
330
36
100
AcDbEntity
  8
0
100
AcDbLine
 10
-148.1259969999999
 20
197.515036
 30
0.0
 11
-153.625997
 21
197.515036
 31
0.0
  0
ARC
  5
2C5
330
36
100
AcDbEntity
  8
0
100
AcDbCircle
 10
-153.625997
 20
198.265036
 30
0.0
 40
0.75
100
AcDbArc
 50
180.0
 51
270.0
  0
LINE
  5
2C6
330
36
100
AcDbEntity
  8
0
100
AcDbLine
 10
-154.375997
 20
199.265036
 30
0.0
 11
-154.375997
 21
198.265036
 31
0.0
  0
ARC
  5
2C7
330
36
100
AcDbEntity
  8
0
100
AcDbCircle
 10
-153.625997
 20
199.265036
 30
0.0
 40
0.75
100
AcDbArc
 50
90.0
 51
180.0
  0
LINE
  5
2C8
330
36
100
AcDbEntity
  8
0
100
AcDbLine
 10
-148.1259969999999
 20
200.015036
 30
0.0
 11
-153.625997
 21
200.015036
 31
0.0
  0
ARC
  5
2C9
330
36
100
AcDbEntity
  8
0
100
AcDbCircle
 10
-148.1259969999999
 20
199.265036
 30
0.0
 40
0.75
100
AcDbArc
 50
0.0
 51
90.0
  0
LINE
  5
2CA
330
36
100
AcDbEntity
  8
0
100
AcDbLine
 10
-147.375997
 20
199.265036
 30
0.0
 11
-147.375997
 21
198.265036
 31
0.0
  0
ARC
  5
2CB
330
36
100
AcDbEntity
  8
0
100
AcDbCircle
 10
-148.1259969999999
 20
198.265036
 30
0.0
 40
0.75
100
AcDbArc
 50
270.0
 51
0.0
  0
LINE
  5
2CC
330
36
100
AcDbEntity
  8
0
100
AcDbLine
 10
-143.325997
 20
193.490036
 30
0.0
 11
-144.925997
 21
193.490036
 31
0.0
  0
LINE
  5
2CD
330
36
100
AcDbEntity
  8
0
100
AcDbLine
 10
-142.825997
 20
193.990036
 30
0.0
 11
-142.825997
 21
197.190036
 31
0.0
  0
LINE
  5
2CE
330
36
100
AcDbEntity
  8
0
100
AcDbLine
 10
-143.575997
 20
196.940036
 30
0.0
 11
-142.972443
 21
197.543589
 31
0.0
  0
LINE
  5
2CF
330
36
100
AcDbEntity
  8
0
100
AcDbLine
 10
-143.325997
 20
197.690036
 30
0.0
 11
-144.925997
 21
197.690036
 31
0.0
  0
ARC
  5
2D0
330
36
100
AcDbEntity
  8
0
100
AcDbCircle
 10
-143.325997
 20
197.190036
 30
0.0
 40
0.5
100
AcDbArc
 50
0.0
 51
90.0
  0
ARC
  5
2D1
330
36
100
AcDbEntity
  8
0
100
AcDbCircle
 10
-143.325997
 20
193.990036
 30
0.0
 40
0.5
100
AcDbArc
 50
270.0
 51
0.0
  0
ARC
  5
2D2
330
36
100
AcDbEntity
  8
0
100
AcDbCircle
 10
-144.925997
 20
195.590036
 30
0.0
 40
2.1
100
AcDbArc
 50
90.0
 51
270.0
  0
LINE
  5
2D3
330
36
100
AcDbEntity
  8
0
100
AcDbLine
 10
-163.075997
 20
196.940036
 30
0.0
 11
-162.472443
 21
197.543589
 31
0.0
  0
LINE
  5
2D4
330
36
100
AcDbEntity
  8
0
100
AcDbLine
 10
-162.825997
 20
197.690036
 30
0.0
 11
-164.425997
 21
197.690036
 31
0.0
  0
ARC
  5
2D5
330
36
100
AcDbEntity
  8
0
100
AcDbCircle
 10
-162.825997
 20
197.190036
 30
0.0
 40
0.5
100
AcDbArc
 50
0.0
 51
90.0
  0
LINE
  5
2D6
330
36
100
AcDbEntity
  8
0
100
AcDbLine
 10
-162.325997
 20
193.990036
 30
0.0
 11
-162.325997
 21
197.190036
 31
0.0
  0
ARC
  5
2D7
330
36
100
AcDbEntity
  8
0
100
AcDbCircle
 10
-162.825997
 20
193.990036
 30
0.0
 40
0.5
100
AcDbArc
 50
270.0
 51
0.0
  0
LINE
  5
2D8
330
36
100
AcDbEntity
  8
0
100
AcDbLine
 10
-163.075997
 20
194.240036
 30
0.0
 11
-162.472443
 21
193.636482
 31
0.0
  0
LINE
  5
2D9
330
36
100
AcDbEntity
  8
0
100
AcDbLine
 10
-162.825997
 20
193.490036
 30
0.0
 11
-164.425997
 21
193.490036
 31
0.0
  0
ARC
  5
2DA
330
36
100
AcDbEntity
  8
0
100
AcDbCircle
 10
-164.425997
 20
195.590036
 30
0.0
 40
2.1
100
AcDbArc
 50
90.0
 51
270.0
  0
LINE
  5
2DB
330
36
100
AcDbEntity
  8
0
100
AcDbLine
 10
-167.625997
 20
197.515036
 30
0.0
 11
-173.125997
 21
197.515036
 31
0.0
  0
ARC
  5
2DC
330
36
100
AcDbEntity
  8
0
100
AcDbCircle
 10
-167.625997
 20
198.265036
 30
0.0
 40
0.75
100
AcDbArc
 50
270.0
 51
0.0
  0
LINE
  5
2DD
330
36
100
AcDbEntity
  8
0
100
AcDbLine
 10
-166.875997
 20
199.265036
 30
0.0
 11
-166.875997
 21
198.265036
 31
0.0
  0
ARC
  5
2DE
330
36
100
AcDbEntity
  8
0
100
AcDbCircle
 10
-167.625997
 20
199.265036
 30
0.0
 40
0.75
100
AcDbArc
 50
0.0
 51
90.0
  0
LINE
  5
2DF
330
36
100
AcDbEntity
  8
0
100
AcDbLine
 10
-167.625997
 20
200.015036
 30
0.0
 11
-173.125997
 21
200.015036
 31
0.0
  0
ARC
  5
2E0
330
36
100
AcDbEntity
  8
0
100
AcDbCircle
 10
-173.125997
 20
199.265036
 30
0.0
 40
0.75
100
AcDbArc
 50
90.0
 51
180.0
  0
LINE
  5
2E1
330
36
100
AcDbEntity
  8
0
100
AcDbLine
 10
-173.875997
 20
199.265036
 30
0.0
 11
-173.875997
 21
198.265036
 31
0.0
  0
ARC
  5
2E2
330
36
100
AcDbEntity
  8
0
100
AcDbCircle
 10
-173.125997
 20
198.265036
 30
0.0
 40
0.75
100
AcDbArc
 50
180.0
 51
270.0
  0
LINE
  5
2E3
330
36
100
AcDbEntity
  8
0
100
AcDbLine
 10
-172.125997
 20
198.215036
 30
0.0
 11
-173.549118
 21
197.645787
 31
0.0
  0
LINE
  5
2E4
330
36
100
AcDbEntity
  8
0
100
AcDbLine
 10
-172.125997
 20
199.315036
 30
0.0
 11
-173.549118
 21
199.884284
 31
0.0
  0
LINE
  5
2E5
330
36
100
AcDbEntity
  8
0
100
AcDbLine
 10
-168.625997
 20
199.315036
 30
0.0
 11
-167.202876
 21
199.884284
 31
0.0
  0
LINE
  5
2E6
330
36
100
AcDbEntity
  8
0
100
AcDbLine
 10
-167.202876
 20
197.645787
 30
0.0
 11
-168.625997
 21
198.215036
 31
0.0
  0
LINE
  5
2E7
330
36
100
AcDbEntity
  8
0
100
AcDbLine
 10
-168.200997
 20
192.965036
 30
0.0
 11
-167.169399
 21
193.510031
 31
0.0
  0
LINE
  5
2E8
330
36
100
AcDbEntity
  8
0
100
AcDbLine
 10
-167.625997
 20
193.665036
 30
0.0
 11
-173.125997
 21
193.665036
 31
0.0
  0
ARC
  5
2E9
330
36
100
AcDbEntity
  8
0
100
AcDbCircle
 10
-167.625997
 20
192.915036
 30
0.0
 40
0.75
100
AcDbArc
 50
0.0
 51
90.0
  0
LINE
  5
2EA
330
36
100
AcDbEntity
  8
0
100
AcDbLine
 10
-166.875997
 20
192.915036
 30
0.0
 11
-166.875997
 21
191.915036
 31
0.0
  0
ARC
  5
2EB
330
36
100
AcDbEntity
  8
0
100
AcDbCircle
 10
-167.625997
 20
191.915036
 30
0.0
 40
0.75
100
AcDbArc
 50
270.0
 51
0.0
  0
LINE
  5
2EC
330
36
100
AcDbEntity
  8
0
100
AcDbLine
 10
-173.125997
 20
191.165036
 30
0.0
 11
-167.625997
 21
191.165036
 31
0.0
  0
LINE
  5
2ED
330
36
100
AcDbEntity
  8
0
100
AcDbLine
 10
-168.200997
 20
191.865036
 30
0.0
 11
-167.169399
 21
191.320041
 31
0.0
  0
ARC
  5
2EE
330
36
100
AcDbEntity
  8
0
100
AcDbCircle
 10
-173.125997
 20
191.915036
 30
0.0
 40
0.75
100
AcDbArc
 50
180.0
 51
270.0
  0
LINE
  5
2EF
330
36
100
AcDbEntity
  8
0
100
AcDbLine
 10
-172.550997
 20
191.865036
 30
0.0
 11
-173.582594
 21
191.320041
 31
0.0
  0
LINE
  5
2F0
330
36
100
AcDbEntity
  8
0
100
AcDbLine
 10
-173.875997
 20
192.915036
 30
0.0
 11
-173.875997
 21
191.915036
 31
0.0
  0
ARC
  5
2F1
330
36
100
AcDbEntity
  8
0
100
AcDbCircle
 10
-173.125997
 20
192.915036
 30
0.0
 40
0.75
100
AcDbArc
 50
90.0
 51
180.0
  0
LINE
  5
2F2
330
36
100
AcDbEntity
  8
0
100
AcDbLine
 10
-172.550997
 20
192.965036
 30
0.0
 11
-173.582594
 21
193.510031
 31
0.0
  0
LINE
  5
2F3
330
36
100
AcDbEntity
  8
0
100
AcDbLine
 10
-143.575997
 20
194.240036
 30
0.0
 11
-142.972443
 21
193.636482
 31
0.0
  0
LINE
  5
2F4
330
36
100
AcDbEntity
  8
0
100
AcDbLine
 10
-148.700997
 20
192.965036
 30
0.0
 11
-147.669399
 21
193.510031
 31
0.0
  0
LINE
  5
2F5
330
36
100
AcDbEntity
  8
0
100
AcDbLine
 10
-148.700997
 20
191.865036
 30
0.0
 11
-147.669399
 21
191.320041
 31
0.0
  0
LINE
  5
2F6
330
36
100
AcDbEntity
  8
0
100
AcDbLine
 10
-153.050997
 20
192.965036
 30
0.0
 11
-154.082594
 21
193.510031
 31
0.0
  0
LINE
  5
2F7
330
36
100
AcDbEntity
  8
0
100
AcDbLine
 10
-153.050997
 20
191.865036
 30
0.0
 11
-154.082594
 21
191.320041
 31
0.0
  0
LINE
  5
2F8
330
36
100
AcDbEntity
  8
0
100
AcDbLine
 10
-152.625997
 20
198.215036
 30
0.0
 11
-154.049118
 21
197.645787
 31
0.0
  0
LINE
  5
2F9
330
36
100
AcDbEntity
  8
0
100
AcDbLine
 10
-152.625997
 20
199.315036
 30
0.0
 11
-154.049118
 21
199.884284
 31
0.0
  0
LINE
  5
2FA
330
36
100
AcDbEntity
  8
0
100
AcDbLine
 10
-149.1259969999999
 20
199.315036
 30
0.0
 11
-147.702876
 21
199.884284
 31
0.0
  0
LINE
  5
2FB
330
36
100
AcDbEntity
  8
0
100
AcDbLine
 10
-147.702876
 20
197.645787
 30
0.0
 11
-149.1259969999999
 21
198.215036
 31
0.0
  0
LINE
  5
2FC
330
36
100
AcDbEntity
  8
0
100
AcDbLine
 10
-187.716823
 20
193.490036
 30
0.0
 11
-189.316823
 21
193.490036
 31
0.0
  0
LINE
  5
2FD
330
36
100
AcDbEntity
  8
0
100
AcDbLine
 10
-187.966823
 20
194.240036
 30
0.0
 11
-187.363269
 21
193.636482
 31
0.0
  0
LINE
  5
2FE
330
36
100
AcDbEntity
  8
0
100
AcDbLine
 10
-187.216823
 20
193.990036
 30
0.0
 11
-187.216823
 21
197.190036
 31
0.0
  0
ARC
  5
2FF
330
36
100
AcDbEntity
  8
0
100
AcDbCircle
 10
-187.716823
 20
197.190036
 30
0.0
 40
0.5
100
AcDbArc
 50
0.0
 51
90.0
  0
ARC
  5
300
330
36
100
AcDbEntity
  8
0
100
AcDbCircle
 10
-187.716823
 20
193.990036
 30
0.0
 40
0.5
100
AcDbArc
 50
270.0
 51
0.0
  0
ARC
  5
301
330
36
100
AcDbEntity
  8
0
100
AcDbCircle
 10
-189.316823
 20
195.590036
 30
0.0
 40
2.1
100
AcDbArc
 50
90.0
 51
270.0
  0
LINE
  5
302
330
36
100
AcDbEntity
  8
0
100
AcDbLine
 10
-187.716823
 20
197.690036
 30
0.0
 11
-189.316823
 21
197.690036
 31
0.0
  0
LINE
  5
303
330
36
100
AcDbEntity
  8
0
100
AcDbLine
 10
-187.966823
 20
196.940036
 30
0.0
 11
-187.363269
 21
197.543589
 31
0.0
  0
LINE
  5
304
330
36
100
AcDbEntity
  8
0
100
AcDbLine
 10
-191.766823
 20
199.265036
 30
0.0
 11
-191.766823
 21
198.265036
 31
0.0
  0
ARC
  5
305
330
36
100
AcDbEntity
  8
0
100
AcDbCircle
 10
-192.516823
 20
199.265036
 30
0.0
 40
0.75
100
AcDbArc
 50
0.0
 51
90.0
  0
LINE
  5
306
330
36
100
AcDbEntity
  8
0
100
AcDbLine
 10
-192.516823
 20
200.015036
 30
0.0
 11
-198.016823
 21
200.015036
 31
0.0
  0
LINE
  5
307
330
36
100
AcDbEntity
  8
0
100
AcDbLine
 10
-193.516823
 20
199.315036
 30
0.0
 11
-192.093702
 21
199.884284
 31
0.0
  0
ARC
  5
308
330
36
100
AcDbEntity
  8
0
100
AcDbCircle
 10
-192.516823
 20
198.265036
 30
0.0
 40
0.75
100
AcDbArc
 50
270.0
 51
0.0
  0
LINE
  5
309
330
36
100
AcDbEntity
  8
0
100
AcDbLine
 10
-192.093702
 20
197.645787
 30
0.0
 11
-193.516823
 21
198.215036
 31
0.0
  0
LINE
  5
30A
330
36
100
AcDbEntity
  8
0
100
AcDbLine
 10
-192.516823
 20
197.515036
 30
0.0
 11
-198.016823
 21
197.515036
 31
0.0
  0
LINE
  5
30B
330
36
100
AcDbEntity
  8
0
100
AcDbLine
 10
-197.016823
 20
198.215036
 30
0.0
 11
-198.439944
 21
197.645787
 31
0.0
  0
ARC
  5
30C
330
36
100
AcDbEntity
  8
0
100
AcDbCircle
 10
-198.016823
 20
198.265036
 30
0.0
 40
0.75
100
AcDbArc
 50
180.0
 51
270.0
  0
LINE
  5
30D
330
36
100
AcDbEntity
  8
0
100
AcDbLine
 10
-198.766823
 20
199.265036
 30
0.0
 11
-198.766823
 21
198.265036
 31
0.0
  0
ARC
  5
30E
330
36
100
AcDbEntity
  8
0
100
AcDbCircle
 10
-198.016823
 20
199.265036
 30
0.0
 40
0.75
100
AcDbArc
 50
90.0
 51
180.0
  0
LINE
  5
30F
330
36
100
AcDbEntity
  8
0
100
AcDbLine
 10
-197.016823
 20
199.315036
 30
0.0
 11
-198.439944
 21
199.884284
 31
0.0
  0
ARC
  5
310
330
36
100
AcDbEntity
  8
0
100
AcDbCircle
 10
-198.016823
 20
192.915036
 30
0.0
 40
0.75
100
AcDbArc
 50
90.0
 51
180.0
  0
LINE
  5
311
330
36
100
AcDbEntity
  8
0
100
AcDbLine
 10
-192.516823
 20
193.665036
 30
0.0
 11
-198.016823
 21
193.665036
 31
0.0
  0
LINE
  5
312
330
36
100
AcDbEntity
  8
0
100
AcDbLine
 10
-198.766823
 20
192.915036
 30
0.0
 11
-198.766823
 21
191.915036
 31
0.0
  0
LINE
  5
313
330
36
100
AcDbEntity
  8
0
100
AcDbLine
 10
-197.441823
 20
192.965036
 30
0.0
 11
-198.47342
 21
193.510031
 31
0.0
  0
LINE
  5
314
330
36
100
AcDbEntity
  8
0
100
AcDbLine
 10
-197.441823
 20
191.865036
 30
0.0
 11
-198.47342
 21
191.320041
 31
0.0
  0
LINE
  5
315
330
36
100
AcDbEntity
  8
0
100
AcDbLine
 10
-198.016823
 20
191.165036
 30
0.0
 11
-192.516823
 21
191.165036
 31
0.0
  0
ARC
  5
316
330
36
100
AcDbEntity
  8
0
100
AcDbCircle
 10
-198.016823
 20
191.915036
 30
0.0
 40
0.75
100
AcDbArc
 50
180.0
 51
270.0
  0
ARC
  5
317
330
36
100
AcDbEntity
  8
0
100
AcDbCircle
 10
-192.516823
 20
191.915036
 30
0.0
 40
0.75
100
AcDbArc
 50
270.0
 51
0.0
  0
LINE
  5
318
330
36
100
AcDbEntity
  8
0
100
AcDbLine
 10
-193.091823
 20
191.865036
 30
0.0
 11
-192.060225
 21
191.320041
 31
0.0
  0
LINE
  5
319
330
36
100
AcDbEntity
  8
0
100
AcDbLine
 10
-191.766823
 20
192.915036
 30
0.0
 11
-191.766823
 21
191.915036
 31
0.0
  0
ARC
  5
31A
330
36
100
AcDbEntity
  8
0
100
AcDbCircle
 10
-192.516823
 20
192.915036
 30
0.0
 40
0.75
100
AcDbArc
 50
0.0
 51
90.0
  0
LINE
  5
31B
330
36
100
AcDbEntity
  8
0
100
AcDbLine
 10
-193.091823
 20
192.965036
 30
0.0
 11
-192.060225
 21
193.510031
 31
0.0
  0
LINE
  5
31C
330
36
100
AcDbEntity
  8
0
100
AcDbLine
 10
-207.466823
 20
196.940036
 30
0.0
 11
-206.863269
 21
197.543589
 31
0.0
  0
ARC
  5
31D
330
36
100
AcDbEntity
  8
0
100
AcDbCircle
 10
-207.216823
 20
197.190036
 30
0.0
 40
0.5
100
AcDbArc
 50
0.0
 51
90.0
  0
LINE
  5
31E
330
36
100
AcDbEntity
  8
0
100
AcDbLine
 10
-207.216823
 20
197.690036
 30
0.0
 11
-208.816823
 21
197.690036
 31
0.0
  0
ARC
  5
31F
330
36
100
AcDbEntity
  8
0
100
AcDbCircle
 10
-208.816823
 20
195.590036
 30
0.0
 40
2.1
100
AcDbArc
 50
90.0
 51
270.0
  0
LINE
  5
320
330
36
100
AcDbEntity
  8
0
100
AcDbLine
 10
-207.216823
 20
193.490036
 30
0.0
 11
-208.816823
 21
193.490036
 31
0.0
  0
ARC
  5
321
330
36
100
AcDbEntity
  8
0
100
AcDbCircle
 10
-207.216823
 20
193.990036
 30
0.0
 40
0.5
100
AcDbArc
 50
270.0
 51
0.0
  0
LINE
  5
322
330
36
100
AcDbEntity
  8
0
100
AcDbLine
 10
-207.466823
 20
194.240036
 30
0.0
 11
-206.863269
 21
193.636482
 31
0.0
  0
LINE
  5
323
330
36
100
AcDbEntity
  8
0
100
AcDbLine
 10
-206.716823
 20
193.990036
 30
0.0
 11
-206.716823
 21
197.190036
 31
0.0
  0
ARC
  5
324
330
36
100
AcDbEntity
  8
0
100
AcDbCircle
 10
-212.016823
 20
191.915036
 30
0.0
 40
0.75
100
AcDbArc
 50
270.0
 51
0.0
  0
LINE
  5
325
330
36
100
AcDbEntity
  8
0
100
AcDbLine
 10
-212.591823
 20
191.865036
 30
0.0
 11
-211.560225
 21
191.320041
 31
0.0
  0
LINE
  5
326
330
36
100
AcDbEntity
  8
0
100
AcDbLine
 10
-211.266823
 20
192.915036
 30
0.0
 11
-211.266823
 21
191.915036
 31
0.0
  0
ARC
  5
327
330
36
100
AcDbEntity
  8
0
100
AcDbCircle
 10
-212.016823
 20
192.915036
 30
0.0
 40
0.75
100
AcDbArc
 50
0.0
 51
90.0
  0
LINE
  5
328
330
36
100
AcDbEntity
  8
0
100
AcDbLine
 10
-212.591823
 20
192.965036
 30
0.0
 11
-211.560225
 21
193.510031
 31
0.0
  0
LINE
  5
329
330
36
100
AcDbEntity
  8
0
100
AcDbLine
 10
-212.016823
 20
193.665036
 30
0.0
 11
-217.516823
 21
193.665036
 31
0.0
  0
ARC
  5
32A
330
36
100
AcDbEntity
  8
0
100
AcDbCircle
 10
-217.516823
 20
192.915036
 30
0.0
 40
0.75
100
AcDbArc
 50
90.0
 51
180.0
  0
LINE
  5
32B
330
36
100
AcDbEntity
  8
0
100
AcDbLine
 10
-216.941823
 20
192.965036
 30
0.0
 11
-217.97342
 21
193.510031
 31
0.0
  0
LINE
  5
32C
330
36
100
AcDbEntity
  8
0
100
AcDbLine
 10
-218.266823
 20
192.915036
 30
0.0
 11
-218.266823
 21
191.915036
 31
0.0
  0
LINE
  5
32D
330
36
100
AcDbEntity
  8
0
100
AcDbLine
 10
-216.941823
 20
191.865036
 30
0.0
 11
-217.97342
 21
191.320041
 31
0.0
  0
ARC
  5
32E
330
36
100
AcDbEntity
  8
0
100
AcDbCircle
 10
-217.516823
 20
191.915036
 30
0.0
 40
0.75
100
AcDbArc
 50
180.0
 51
270.0
  0
LINE
  5
32F
330
36
100
AcDbEntity
  8
0
100
AcDbLine
 10
-217.516823
 20
191.165036
 30
0.0
 11
-212.016823
 21
191.165036
 31
0.0
  0
LINE
  5
330
330
36
100
AcDbEntity
  8
0
100
AcDbLine
 10
-212.016823
 20
197.515036
 30
0.0
 11
-217.516823
 21
197.515036
 31
0.0
  0
LINE
  5
331
330
36
100
AcDbEntity
  8
0
100
AcDbLine
 10
-216.516823
 20
198.215036
 30
0.0
 11
-217.939944
 21
197.645787
 31
0.0
  0
ARC
  5
332
330
36
100
AcDbEntity
  8
0
100
AcDbCircle
 10
-217.516823
 20
198.265036
 30
0.0
 40
0.75
100
AcDbArc
 50
180.0
 51
270.0
  0
LINE
  5
333
330
36
100
AcDbEntity
  8
0
100
AcDbLine
 10
-218.266823
 20
199.265036
 30
0.0
 11
-218.266823
 21
198.265036
 31
0.0
  0
ARC
  5
334
330
36
100
AcDbEntity
  8
0
100
AcDbCircle
 10
-217.516823
 20
199.265036
 30
0.0
 40
0.75
100
AcDbArc
 50
90.0
 51
180.0
  0
LINE
  5
335
330
36
100
AcDbEntity
  8
0
100
AcDbLine
 10
-216.516823
 20
199.315036
 30
0.0
 11
-217.939944
 21
199.884284
 31
0.0
  0
LINE
  5
336
330
36
100
AcDbEntity
  8
0
100
AcDbLine
 10
-212.016823
 20
200.015036
 30
0.0
 11
-217.516823
 21
200.015036
 31
0.0
  0
ARC
  5
337
330
36
100
AcDbEntity
  8
0
100
AcDbCircle
 10
-212.016823
 20
199.265036
 30
0.0
 40
0.75
100
AcDbArc
 50
0.0
 51
90.0
  0
LINE
  5
338
330
36
100
AcDbEntity
  8
0
100
AcDbLine
 10
-211.266823
 20
199.265036
 30
0.0
 11
-211.266823
 21
198.265036
 31
0.0
  0
ARC
  5
339
330
36
100
AcDbEntity
  8
0
100
AcDbCircle
 10
-212.016823
 20
198.265036
 30
0.0
 40
0.75
100
AcDbArc
 50
270.0
 51
0.0
  0
LINE
  5
33A
330
36
100
AcDbEntity
  8
0
100
AcDbLine
 10
-211.593702
 20
197.645787
 30
0.0
 11
-213.016823
 21
198.215036
 31
0.0
  0
LINE
  5
33B
330
36
100
AcDbEntity
  8
0
100
AcDbLine
 10
-213.016823
 20
199.315036
 30
0.0
 11
-211.593702
 21
199.884284
 31
0.0
  0
LINE
  5
343
330
36
100
AcDbEntity
  8
0
100
AcDbLine
 10
-48.181881
 20
122.612448
 30
0.0
 11
-41.11045299999999
 21
122.612448
 31
0.0
  0
LINE
  5
344
330
36
100
AcDbEntity
  8
0
100
AcDbLine
 10
-46.396167
 20
129.308876
 30
0.0
 11
-42.824739
 21
129.308876
 31
0.0
  0
LINE
  5
345
330
36
100
AcDbEntity
  8
0
100
AcDbLine
 10
-25.57657
 20
115.098282
 30
0.0
 11
-25.07657
 21
115.098282
 31
0.0
  0
LINE
  5
346
330
36
100
AcDbEntity
  8
0
100
AcDbLine
 10
-25.70157
 20
115.848282
 30
0.0
 11
-24.95157
 21
115.848282
 31
0.0
  0
LINE
  5
347
330
36
100
AcDbEntity
  8
0
100
AcDbLine
 10
-32.25157
 20
115.848282
 30
0.0
 11
-31.50157
 21
115.848282
 31
0.0
  0
LINE
  5
348
330
36
100
AcDbEntity
  8
0
100
AcDbLine
 10
-29.76407
 20
123.648282
 30
0.0
 11
-29.76407
 21
114.110782
 31
0.0
  0
ARC
  5
349
330
36
100
AcDbEntity
  8
0
100
AcDbCircle
 10
-28.60157
 20
114.110782
 30
0.0
 40
1.1625
100
AcDbArc
 50
180.0
 51
0.0
  0
LINE
  5
34A
330
36
100
AcDbEntity
  8
0
100
AcDbLine
 10
-27.43907
 20
123.648282
 30
0.0
 11
-27.43907
 21
114.110782
 31
0.0
  0
LINE
  5
34B
330
36
100
AcDbEntity
  8
0
100
AcDbLine
 10
-24.95157
 20
123.648282
 30
0.0
 11
-24.95157
 21
115.848282
 31
0.0
  0
LINE
  5
34C
330
36
100
AcDbEntity
  8
0
100
AcDbLine
 10
-24.95157
 20
115.848282
 30
0.0
 11
-25.07657
 21
115.098282
 31
0.0
  0
LINE
  5
34D
330
36
100
AcDbEntity
  8
0
100
AcDbLine
 10
-25.70157
 20
115.848282
 30
0.0
 11
-25.57657
 21
115.098282
 31
0.0
  0
LINE
  5
34E
330
36
100
AcDbEntity
  8
0
100
AcDbLine
 10
-25.70157
 20
123.648282
 30
0.0
 11
-25.70157
 21
115.848282
 31
0.0
  0
LINE
  5
34F
330
36
100
AcDbEntity
  8
0
100
AcDbLine
 10
-31.50157
 20
123.648282
 30
0.0
 11
-31.50157
 21
115.848282
 31
0.0
  0
LINE
  5
350
330
36
100
AcDbEntity
  8
0
100
AcDbLine
 10
-31.50157
 20
115.848282
 30
0.0
 11
-31.62657
 21
115.098282
 31
0.0
  0
LINE
  5
351
330
36
100
AcDbEntity
  8
0
100
AcDbLine
 10
-32.12657
 20
115.098282
 30
0.0
 11
-31.62657
 21
115.098282
 31
0.0
  0
LINE
  5
352
330
36
100
AcDbEntity
  8
0
100
AcDbLine
 10
-32.25157
 20
115.848282
 30
0.0
 11
-32.12657
 21
115.098282
 31
0.0
  0
LINE
  5
353
330
36
100
AcDbEntity
  8
0
100
AcDbLine
 10
-32.25157
 20
123.648282
 30
0.0
 11
-32.25157
 21
115.848282
 31
0.0
  0
LINE
  5
354
330
36
100
AcDbEntity
  8
0
100
AcDbLine
 10
-37.10157000000001
 20
126.648282
 30
0.0
 11
-20.10157
 21
126.648282
 31
0.0
  0
LINE
  5
355
330
36
100
AcDbEntity
  8
0
100
AcDbLine
 10
-35.547062
 20
144.977657
 30
0.0
 11
-36.273143
 21
145.703738
 31
0.0
  0
ARC
  5
356
330
36
100
AcDbEntity
  8
0
100
AcDbCircle
 10
-39.985453
 20
141.991428
 30
0.0
 40
5.25
100
AcDbArc
 50
45.0
 51
180.0
  0
ARC
  5
357
330
36
100
AcDbEntity
  8
0
100
AcDbCircle
 10
-39.985453
 20
141.991428
 30
0.0
 40
4.0
100
AcDbArc
 50
45.0
 51
180.0
  0
LINE
  5
358
330
36
100
AcDbEntity
  8
0
100
AcDbLine
 10
-37.157026
 20
144.819855
 30
0.0
 11
-36.430945
 21
144.093773
 31
0.0
  0
LINE
  5
359
330
36
100
AcDbEntity
  8
0
100
AcDbLine
 10
-43.985453
 20
141.485359
 30
0.0
 11
-43.985453
 21
141.991428
 31
0.0
  0
LINE
  5
35A
330
36
100
AcDbEntity
  8
0
100
AcDbLine
 10
-45.235453
 20
141.101918
 30
0.0
 11
-45.235453
 21
141.991428
 31
0.0
  0
LINE
  5
35B
330
36
100
AcDbEntity
  8
0
100
AcDbLine
 10
-45.235453
 20
140.052573
 30
0.0
 11
-45.235453
 21
134.197751
 31
0.0
  0
LINE
  5
35C
330
36
100
AcDbEntity
  8
0
100
AcDbLine
 10
-43.985453
 20
140.404237
 30
0.0
 11
-43.985453
 21
134.197751
 31
0.0
  0
LINE
  5
35D
330
36
100
AcDbEntity
  8
0
100
AcDbLine
 10
-42.435453
 20
105.487451
 30
0.0
 11
-42.435453
 21
106.987451
 31
0.0
  0
ARC
  5
35E
330
36
100
AcDbEntity
  8
0
100
AcDbCircle
 10
-42.935453
 20
105.487451
 30
0.0
 40
0.5
100
AcDbArc
 50
270.0
 51
0.0
  0
LINE
  5
35F
330
36
100
AcDbEntity
  8
0
100
AcDbLine
 10
-46.285453
 20
104.987451
 30
0.0
 11
-42.935453
 21
104.987451
 31
0.0
  0
ARC
  5
360
330
36
100
AcDbEntity
  8
0
100
AcDbCircle
 10
-46.285453
 20
105.487451
 30
0.0
 40
0.5
100
AcDbArc
 50
180.0
 51
270.0
  0
LINE
  5
361
330
36
100
AcDbEntity
  8
0
100
AcDbLine
 10
-46.785453
 20
105.487451
 30
0.0
 11
-46.785453
 21
106.987451
 31
0.0
  0
CIRCLE
  5
362
330
36
100
AcDbEntity
  8
0
100
AcDbCircle
 10
-227.122535
 20
201.201328
 30
0.0
 40
1.0
  0
CIRCLE
  5
363
330
36
100
AcDbEntity
  8
0
100
AcDbCircle
 10
-227.122535
 20
189.987433
 30
0.0
 40
1.0
  0
ARC
  5
364
330
36
100
AcDbEntity
  8
0
100
AcDbCircle
 10
-222.770351
 20
203.060863
 30
0.0
 40
1.233119999999997
100
AcDbArc
 50
300.35784
 51
233.008079
  0
LINE
  5
365
330
36
100
AcDbEntity
  8
0
100
AcDbLine
 10
-221.843106
 20
187.263052
 30
0.0
 11
-221.532866
 21
187.263052
 31
0.0
  0
LINE
  5
366
330
36
100
AcDbEntity
  8
0
100
AcDbLine
 10
-221.843106
 20
187.375052
 30
0.0
 11
-221.843106
 21
187.263052
 31
0.0
  0
LINE
  5
367
330
36
100
AcDbEntity
  8
0
100
AcDbLine
 10
-223.542146
 20
187.521772
 30
0.0
 11
-221.989826
 21
187.521772
 31
0.0
  0
ARC
  5
368
330
36
100
AcDbEntity
  8
0
100
AcDbCircle
 10
-221.989826
 20
187.375052
 30
0.0
 40
0.14672
100
AcDbArc
 50
0.0
 51
90.0
  0
LINE
  5
369
330
36
100
AcDbEntity
  8
0
100
AcDbLine
 10
-223.542139
 20
191.224593
 30
0.0
 11
-221.989819
 21
191.224566
 31
0.0
  0
LINE
  5
36A
330
36
100
AcDbEntity
  8
0
100
AcDbLine
 10
-221.843096
 20
191.371283
 30
0.0
 11
-221.843094
 21
191.483283
 31
0.0
  0
ARC
  5
36B
330
36
100
AcDbEntity
  8
0
100
AcDbCircle
 10
-221.989816
 20
191.371286
 30
0.0
 40
0.14672
100
AcDbArc
 50
269.999
 51
359.999
  0
LINE
  5
36C
330
36
100
AcDbEntity
  8
0
100
AcDbLine
 10
-221.843094
 20
191.483283
 30
0.0
 11
-221.532854
 21
191.483278
 31
0.0
  0
LINE
  5
36D
330
36
100
AcDbEntity
  8
0
100
AcDbLine
 10
-221.532877
 20
190.138158
 30
0.0
 11
-221.532854
 21
191.483278
 31
0.0
  0
LINE
  5
36E
330
36
100
AcDbEntity
  8
0
100
AcDbLine
 10
-222.979145
 20
187.918252
 30
0.0
 11
-221.989826
 21
187.918252
 31
0.0
  0
ARC
  5
36F
330
36
100
AcDbEntity
  8
0
100
AcDbCircle
 10
-221.989826
 20
188.064972
 30
0.0
 40
0.14672
100
AcDbArc
 50
270.0
 51
0.0
  0
LINE
  5
370
330
36
100
AcDbEntity
  8
0
100
AcDbLine
 10
-221.532866
 20
187.263052
 30
0.0
 11
-221.532866
 21
188.176972
 31
0.0
  0
LINE
  5
371
330
36
100
AcDbEntity
  8
0
100
AcDbLine
 10
-221.989767
 20
194.488448
 30
0.0
 11
-223.542087
 21
194.488448
 31
0.0
  0
LINE
  5
372
330
36
100
AcDbEntity
  8
0
100
AcDbLine
 10
-223.645687
 20
194.384848
 30
0.0
 11
-223.645687
 21
194.272848
 31
0.0
  0
LINE
  5
373
330
36
100
AcDbEntity
  8
0
100
AcDbLine
 10
-223.645687
 20
194.272848
 30
0.0
 11
-223.999047
 21
194.272848
 31
0.0
  0
LINE
  5
374
330
36
100
AcDbEntity
  8
0
100
AcDbLine
 10
-223.999047
 20
194.272848
 30
0.0
 11
-223.999047
 21
195.531728
 31
0.0
  0
LINE
  5
375
330
36
100
AcDbEntity
  8
0
100
AcDbLine
 10
-221.532807
 20
194.272848
 30
0.0
 11
-221.886167
 21
194.272848
 31
0.0
  0
LINE
  5
376
330
36
100
AcDbEntity
  8
0
100
AcDbLine
 10
-221.886167
 20
194.384848
 30
0.0
 11
-221.886167
 21
194.272848
 31
0.0
  0
ARC
  5
377
330
36
100
AcDbEntity
  8
0
100
AcDbCircle
 10
-221.989767
 20
194.384848
 30
0.0
 40
0.1036
100
AcDbArc
 50
0.0
 51
90.0
  0
ARC
  5
378
330
36
100
AcDbEntity
  8
0
100
AcDbCircle
 10
-222.765986
 20
192.950855
 30
0.0
 40
1.233119999999997
100
AcDbArc
 50
136.75288
 51
42.82312
  0
ARC
  5
379
330
36
100
AcDbEntity
  8
0
100
AcDbCircle
 10
-222.795023
 20
185.103068
 30
0.0
 40
8.736
100
AcDbArc
 50
83.86600599999999
 51
87.69403399999999
  0
LINE
  5
37A
330
36
100
AcDbEntity
  8
0
100
AcDbLine
 10
-222.445687
 20
193.24712
 30
0.0
 11
-222.443523
 21
193.8319939999999
 31
0.0
  0
LINE
  5
3BD
330
36
100
AcDbEntity
  8
0
100
AcDbLine
 10
-223.084083
 20
193.249482
 30
0.0
 11
-223.081919
 21
193.834356
 31
0.0
  0
ARC
  5
3BE
330
36
100
AcDbEntity
  8
0
100
AcDbCircle
 10
-222.795023
 20
185.103068
 30
0.0
 40
8.736
100
AcDbArc
 50
91.88196600000001
 51
95.70999399999998
  0
ARC
  5
3BF
330
36
100
AcDbEntity
  8
0
100
AcDbCircle
 10
-223.542136
 20
191.371313
 30
0.0
 40
0.14672
100
AcDbArc
 50
179.999028
 51
269.999
  0
LINE
  5
3C0
330
36
100
AcDbEntity
  8
0
100
AcDbLine
 10
-223.999094
 20
191.483321
 30
0.0
 11
-223.688854
 21
191.483315
 31
0.0
  0
LINE
  5
3C1
330
36
100
AcDbEntity
  8
0
100
AcDbLine
 10
-223.999117
 20
190.138201
 30
0.0
 11
-223.999094
 21
191.483321
 31
0.0
  0
LINE
  5
3C2
330
36
100
AcDbEntity
  8
0
100
AcDbLine
 10
-223.688856
 20
191.3713149999999
 30
0.0
 11
-223.688854
 21
191.483315
 31
0.0
  0
ARC
  5
3C3
330
36
100
AcDbEntity
  8
0
100
AcDbCircle
 10
-223.542148
 20
190.250182
 30
0.0
 40
0.14672
100
AcDbArc
 50
89.999803
 51
179.999774
  0
LINE
  5
3C4
330
36
100
AcDbEntity
  8
0
100
AcDbLine
 10
-223.542147
 20
190.396902
 30
0.0
 11
-221.989827
 21
190.396896
 31
0.0
  0
ARC
  5
3C5
330
36
100
AcDbEntity
  8
0
100
AcDbCircle
 10
-221.989836
 20
190.250166
 30
0.0
 40
0.14672
100
AcDbArc
 50
359.999
 51
89.999
  0
LINE
  5
3C6
330
36
100
AcDbEntity
  8
0
100
AcDbLine
 10
-221.843117
 20
190.138163
 30
0.0
 11
-221.532877
 21
190.138158
 31
0.0
  0
LINE
  5
3C7
330
36
100
AcDbEntity
  8
0
100
AcDbLine
 10
-221.843116
 20
190.250163
 30
0.0
 11
-221.843117
 21
190.138163
 31
0.0
  0
LINE
  5
3C8
330
36
100
AcDbEntity
  8
0
100
AcDbLine
 10
-223.999117
 20
190.138201
 30
0.0
 11
-223.688877
 21
190.138195
 31
0.0
  0
LINE
  5
3C9
330
36
100
AcDbEntity
  8
0
100
AcDbLine
 10
-223.688876
 20
190.250195
 30
0.0
 11
-223.688877
 21
190.138195
 31
0.0
  0
LINE
  5
3CA
330
36
100
AcDbEntity
  8
0
100
AcDbLine
 10
-221.532807
 20
194.272848
 30
0.0
 11
-221.532807
 21
195.531728
 31
0.0
  0
ARC
  5
3CB
330
36
100
AcDbEntity
  8
0
100
AcDbCircle
 10
-223.542087
 20
194.384848
 30
0.0
 40
0.1036
100
AcDbArc
 50
90.0
 51
180.0
  0
LINE
  5
3CC
330
36
100
AcDbEntity
  8
0
100
AcDbLine
 10
-221.843106
 20
188.176972
 30
0.0
 11
-221.532866
 21
188.176972
 31
0.0
  0
LINE
  5
3CD
330
36
100
AcDbEntity
  8
0
100
AcDbLine
 10
-221.843106
 20
188.064972
 30
0.0
 11
-221.843106
 21
188.176972
 31
0.0
  0
LINE
  5
3CE
330
36
100
AcDbEntity
  8
0
100
AcDbLine
 10
-222.979145
 20
187.918252
 30
0.0
 11
-221.532866
 21
188.822177
 31
0.0
  0
LINE
  5
3CF
330
36
100
AcDbEntity
  8
0
100
AcDbLine
 10
-221.532866
 20
188.822177
 30
0.0
 11
-221.532866
 21
189.427452
 31
0.0
  0
LINE
  5
3D0
330
36
100
AcDbEntity
  8
0
100
AcDbLine
 10
-223.455906
 20
189.427452
 30
0.0
 11
-221.532866
 21
189.427452
 31
0.0
  0
ARC
  5
3D1
330
36
100
AcDbEntity
  8
0
100
AcDbCircle
 10
-223.455906
 20
189.660412
 30
0.0
 40
0.23296
100
AcDbArc
 50
173.651426
 51
270.0
  0
LINE
  5
3D2
330
36
100
AcDbEntity
  8
0
100
AcDbLine
 10
-223.999106
 20
189.686172
 30
0.0
 11
-223.687437
 21
189.686172
 31
0.0
  0
LINE
  5
3D3
330
36
100
AcDbEntity
  8
0
100
AcDbLine
 10
-223.999106
 20
188.772252
 30
0.0
 11
-223.999106
 21
189.686172
 31
0.0
  0
LINE
  5
3D4
330
36
100
AcDbEntity
  8
0
100
AcDbLine
 10
-223.999106
 20
188.772252
 30
0.0
 11
-223.688866
 21
188.772252
 31
0.0
  0
LINE
  5
3D5
330
36
100
AcDbEntity
  8
0
100
AcDbLine
 10
-223.688866
 20
188.772252
 30
0.0
 11
-223.688866
 21
188.884252
 31
0.0
  0
ARC
  5
3D6
330
36
100
AcDbEntity
  8
0
100
AcDbCircle
 10
-223.542146
 20
188.884252
 30
0.0
 40
0.14672
100
AcDbArc
 50
90.0
 51
180.0
  0
LINE
  5
3D7
330
36
100
AcDbEntity
  8
0
100
AcDbLine
 10
-222.882067
 20
189.030972
 30
0.0
 11
-223.542146
 21
189.030972
 31
0.0
  0
LINE
  5
3D8
330
36
100
AcDbEntity
  8
0
100
AcDbLine
 10
-222.882067
 20
189.030972
 30
0.0
 11
-223.999106
 21
188.297916
 31
0.0
  0
LINE
  5
3D9
330
36
100
AcDbEntity
  8
0
100
AcDbLine
 10
-223.999106
 20
187.263052
 30
0.0
 11
-223.999106
 21
188.297916
 31
0.0
  0
LINE
  5
3DA
330
36
100
AcDbEntity
  8
0
100
AcDbLine
 10
-223.999106
 20
187.263052
 30
0.0
 11
-223.688866
 21
187.263052
 31
0.0
  0
LINE
  5
3DB
330
36
100
AcDbEntity
  8
0
100
AcDbLine
 10
-223.688866
 20
187.375052
 30
0.0
 11
-223.688866
 21
187.263052
 31
0.0
  0
ARC
  5
3DC
330
36
100
AcDbEntity
  8
0
100
AcDbCircle
 10
-223.542146
 20
187.375052
 30
0.0
 40
0.14672
100
AcDbArc
 50
90.0
 51
180.0
  0
LINE
  5
3DD
330
36
100
AcDbEntity
  8
0
100
AcDbLine
 10
-223.688866
 20
197.545438
 30
0.0
 11
-223.688866
 21
197.433438
 31
0.0
  0
ARC
  5
3DE
330
36
100
AcDbEntity
  8
0
100
AcDbCircle
 10
-223.542146
 20
197.545438
 30
0.0
 40
0.14672
100
AcDbArc
 50
90.0
 51
180.0
  0
LINE
  5
3DF
330
36
100
AcDbEntity
  8
0
100
AcDbLine
 10
-223.542146
 20
197.692158
 30
0.0
 11
-221.989826
 21
197.692158
 31
0.0
  0
LINE
  5
3E0
330
36
100
AcDbEntity
  8
0
100
AcDbLine
 10
-221.532866
 20
198.778558
 30
0.0
 11
-221.532866
 21
197.433438
 31
0.0
  0
LINE
  5
3E1
330
36
100
AcDbEntity
  8
0
100
AcDbLine
 10
-221.843106
 20
198.778558
 30
0.0
 11
-221.532866
 21
198.778558
 31
0.0
  0
LINE
  5
3E2
330
36
100
AcDbEntity
  8
0
100
AcDbLine
 10
-221.843106
 20
198.666558
 30
0.0
 11
-221.843106
 21
198.778558
 31
0.0
  0
ARC
  5
3E3
330
36
100
AcDbEntity
  8
0
100
AcDbCircle
 10
-221.989826
 20
198.666558
 30
0.0
 40
0.14672
100
AcDbArc
 50
270.0
 51
0.0
  0
LINE
  5
3E4
330
36
100
AcDbEntity
  8
0
100
AcDbLine
 10
-223.999047
 20
196.911568
 30
0.0
 11
-223.999047
 21
195.652688
 31
0.0
  0
LINE
  5
3E5
330
36
100
AcDbEntity
  8
0
100
AcDbLine
 10
-223.999047
 20
196.911568
 30
0.0
 11
-223.686755
 21
196.911568
 31
0.0
  0
LINE
  5
3E6
330
36
100
AcDbEntity
  8
0
100
AcDbLine
 10
-223.686755
 20
196.818235
 30
0.0
 11
-223.686755
 21
196.911568
 31
0.0
  0
ARC
  5
3E7
330
36
100
AcDbEntity
  8
0
100
AcDbCircle
 10
-223.542087
 20
196.8426879999999
 30
0.0
 40
0.14672
100
AcDbArc
 50
189.5940679999999
 51
270.0
  0
LINE
  5
3E8
330
36
100
AcDbEntity
  8
0
100
AcDbLine
 10
-223.542087
 20
196.695968
 30
0.0
 11
-221.989767
 21
196.695968
 31
0.0
  0
ARC
  5
3E9
330
36
100
AcDbEntity
  8
0
100
AcDbCircle
 10
-221.989767
 20
196.8426879999999
 30
0.0
 40
0.14672
100
AcDbArc
 50
270.0
 51
350.405932
  0
LINE
  5
3EA
330
36
100
AcDbEntity
  8
0
100
AcDbLine
 10
-221.845099
 20
196.818235
 30
0.0
 11
-221.845099
 21
196.911568
 31
0.0
  0
LINE
  5
3EB
330
36
100
AcDbEntity
  8
0
100
AcDbLine
 10
-221.845099
 20
196.911568
 30
0.0
 11
-221.532807
 21
196.911568
 31
0.0
  0
LINE
  5
3EC
330
36
100
AcDbEntity
  8
0
100
AcDbLine
 10
-221.532807
 20
196.911568
 30
0.0
 11
-221.532807
 21
195.652688
 31
0.0
  0
ARC
  5
3ED
330
36
100
AcDbEntity
  8
0
100
AcDbCircle
 10
-223.542146
 20
198.666558
 30
0.0
 40
0.14672
100
AcDbArc
 50
180.0
 51
270.0
  0
LINE
  5
3EE
330
36
100
AcDbEntity
  8
0
100
AcDbLine
 10
-223.542146
 20
198.519838
 30
0.0
 11
-221.989826
 21
198.519838
 31
0.0
  0
LINE
  5
3EF
330
36
100
AcDbEntity
  8
0
100
AcDbLine
 10
-223.999106
 20
198.778558
 30
0.0
 11
-223.688866
 21
198.778558
 31
0.0
  0
LINE
  5
3F0
330
36
100
AcDbEntity
  8
0
100
AcDbLine
 10
-223.688866
 20
198.666558
 30
0.0
 11
-223.688866
 21
198.778558
 31
0.0
  0
LINE
  5
3F1
330
36
100
AcDbEntity
  8
0
100
AcDbLine
 10
-223.999106
 20
198.778558
 30
0.0
 11
-223.999106
 21
197.433438
 31
0.0
  0
LINE
  5
3F2
330
36
100
AcDbEntity
  8
0
100
AcDbLine
 10
-223.999106
 20
197.433438
 30
0.0
 11
-223.688866
 21
197.433438
 31
0.0
  0
LINE
  5
3F3
330
36
100
AcDbEntity
  8
0
100
AcDbLine
 10
-221.843106
 20
199.279886
 30
0.0
 11
-221.532866
 21
199.279886
 31
0.0
  0
ARC
  5
3F4
330
36
100
AcDbEntity
  8
0
100
AcDbCircle
 10
-221.989826
 20
199.391886
 30
0.0
 40
0.14672
100
AcDbArc
 50
0.0
 51
90.0
  0
LINE
  5
3F5
330
36
100
AcDbEntity
  8
0
100
AcDbLine
 10
-221.843106
 20
199.391886
 30
0.0
 11
-221.843106
 21
199.279886
 31
0.0
  0
LINE
  5
3F6
330
36
100
AcDbEntity
  8
0
100
AcDbLine
 10
-221.532866
 20
200.732347
 30
0.0
 11
-221.532866
 21
199.279886
 31
0.0
  0
LINE
  5
3F7
330
36
100
AcDbEntity
  8
0
100
AcDbLine
 10
-223.542146
 20
199.538606
 30
0.0
 11
-221.989826
 21
199.538606
 31
0.0
  0
LINE
  5
3F8
330
36
100
AcDbEntity
  8
0
100
AcDbLine
 10
-223.602626
 20
200.366286
 30
0.0
 11
-221.929346
 21
200.366286
 31
0.0
  0
LINE
  5
3F9
330
36
100
AcDbEntity
  8
0
100
AcDbLine
 10
-221.929346
 20
200.366286
 30
0.0
 11
-221.929346
 21
200.479125
 31
0.0
  0
ARC
  5
3FA
330
36
100
AcDbEntity
  8
0
100
AcDbCircle
 10
-222.765986
 20
199.902139
 30
0.0
 40
1.016307
100
AcDbArc
 50
34.591955
 51
145.408045
  0
ARC
  5
3FB
330
36
100
AcDbEntity
  8
0
100
AcDbCircle
 10
-222.507266
 20
200.732347
 30
0.0
 40
0.9743999999999999
100
AcDbArc
 50
0.0
 51
72.691251
  0
ARC
  5
3FC
330
36
100
AcDbEntity
  8
0
100
AcDbCircle
 10
-223.024706
 20
200.732347
 30
0.0
 40
0.9743999999999999
100
AcDbArc
 50
107.308749
 51
180.0
  0
ARC
  5
3FD
330
36
100
AcDbEntity
  8
0
100
AcDbCircle
 10
-222.765986
 20
199.902139
 30
0.0
 40
1.843986999999999
100
AcDbArc
 50
72.691251
 51
107.308566
  0
LINE
  5
3FE
330
36
100
AcDbEntity
  8
0
100
AcDbLine
 10
-223.999106
 20
200.732347
 30
0.0
 11
-223.999106
 21
199.279886
 31
0.0
  0
LINE
  5
3FF
330
36
100
AcDbEntity
  8
0
100
AcDbLine
 10
-223.999106
 20
199.279886
 30
0.0
 11
-223.688866
 21
199.279886
 31
0.0
  0
LINE
  5
400
330
36
100
AcDbEntity
  8
0
100
AcDbLine
 10
-223.688866
 20
199.391886
 30
0.0
 11
-223.688866
 21
199.279886
 31
0.0
  0
ARC
  5
401
330
36
100
AcDbEntity
  8
0
100
AcDbCircle
 10
-223.542146
 20
199.391886
 30
0.0
 40
0.14672
100
AcDbArc
 50
90.0
 51
180.0
  0
ARC
  5
402
330
36
100
AcDbEntity
  8
0
100
AcDbCircle
 10
-221.989826
 20
197.545438
 30
0.0
 40
0.14672
100
AcDbArc
 50
0.0
 51
90.0
  0
LINE
  5
403
330
36
100
AcDbEntity
  8
0
100
AcDbLine
 10
-221.843106
 20
197.545438
 30
0.0
 11
-221.843106
 21
197.433438
 31
0.0
  0
LINE
  5
404
330
36
100
AcDbEntity
  8
0
100
AcDbLine
 10
-221.843106
 20
197.433438
 30
0.0
 11
-221.532866
 21
197.433438
 31
0.0
  0
ARC
  5
405
330
36
100
AcDbEntity
  8
0
100
AcDbCircle
 10
-222.922895
 20
200.42889
 30
0.0
 40
1.749347
100
AcDbArc
 50
63.675284
 51
109.690635
  0
ARC
  5
406
330
36
100
AcDbEntity
  8
0
100
AcDbCircle
 10
-222.746951
 20
204.419885
 30
0.0
 40
1.636274999999999
100
AcDbArc
 50
239.334413
 51
299.361467
  0
ARC
  5
407
330
36
100
AcDbEntity
  8
0
100
AcDbCircle
 10
-222.74695
 20
201.701842
 30
0.0
 40
1.636274999999999
100
AcDbArc
 50
60.37227300000001
 51
120.840525
  0
ARC
  5
408
330
36
100
AcDbEntity
  8
0
100
AcDbCircle
 10
-223.538075
 20
203.061659
 30
0.0
 40
0.065643
100
AcDbArc
 50
136.621771
 51
228.589269
  0
ARC
  5
409
330
36
100
AcDbEntity
  8
0
100
AcDbCircle
 10
-221.993897
 20
203.061659
 30
0.0
 40
0.083843
100
AcDbArc
 50
305.965123
 51
48.221816
  0
LINE
  5
40A
330
36
100
AcDbEntity
  8
0
100
AcDbLine
 10
-223.602626
 20
200.366286
 30
0.0
 11
-223.602626
 21
200.479125
 31
0.0
  0
LINE
  5
40B
330
36
100
AcDbEntity
  8
0
100
AcDbLine
 10
-223.686755
 20
195.652688
 30
0.0
 11
-223.999047
 21
195.652688
 31
0.0
  0
ARC
  5
40C
330
36
100
AcDbEntity
  8
0
100
AcDbCircle
 10
-223.542087
 20
195.721568
 30
0.0
 40
0.14672
100
AcDbArc
 50
90.0
 51
170.405932
  0
LINE
  5
40D
330
36
100
AcDbEntity
  8
0
100
AcDbLine
 10
-223.686755
 20
195.7460209999999
 30
0.0
 11
-223.686755
 21
195.652688
 31
0.0
  0
LINE
  5
40E
330
36
100
AcDbEntity
  8
0
100
AcDbLine
 10
-222.964167
 20
195.8682879999999
 30
0.0
 11
-223.542087
 21
195.8682879999999
 31
0.0
  0
LINE
  5
40F
330
36
100
AcDbEntity
  8
0
100
AcDbLine
 10
-221.845099
 20
195.7460209999999
 30
0.0
 11
-221.845099
 21
195.652688
 31
0.0
  0
ARC
  5
410
330
36
100
AcDbEntity
  8
0
100
AcDbCircle
 10
-221.989767
 20
195.721568
 30
0.0
 40
0.14672
100
AcDbArc
 50
9.594068
 51
90.0
  0
LINE
  5
411
330
36
100
AcDbEntity
  8
0
100
AcDbLine
 10
-221.989767
 20
195.8682879999999
 30
0.0
 11
-222.567687
 21
195.8682879999999
 31
0.0
  0
LINE
  5
412
330
36
100
AcDbEntity
  8
0
100
AcDbLine
 10
-221.845099
 20
195.652688
 30
0.0
 11
-221.532807
 21
195.652688
 31
0.0
  0
LINE
  5
413
330
36
100
AcDbEntity
  8
0
100
AcDbLine
 10
-223.686755
 20
195.438395
 30
0.0
 11
-223.686755
 21
195.531728
 31
0.0
  0
ARC
  5
414
330
36
100
AcDbEntity
  8
0
100
AcDbCircle
 10
-223.542087
 20
195.462848
 30
0.0
 40
0.14672
100
AcDbArc
 50
189.5940679999999
 51
270.0
  0
LINE
  5
415
330
36
100
AcDbEntity
  8
0
100
AcDbLine
 10
-222.964167
 20
195.316128
 30
0.0
 11
-223.542087
 21
195.316128
 31
0.0
  0
LINE
  5
416
330
36
100
AcDbEntity
  8
0
100
AcDbLine
 10
-222.964167
 20
195.8682879999999
 30
0.0
 11
-222.964167
 21
195.316128
 31
0.0
  0
LINE
  5
417
330
36
100
AcDbEntity
  8
0
100
AcDbLine
 10
-222.567687
 20
195.8682879999999
 30
0.0
 11
-222.567687
 21
195.316128
 31
0.0
  0
LINE
  5
418
330
36
100
AcDbEntity
  8
0
100
AcDbLine
 10
-221.989767
 20
195.316128
 30
0.0
 11
-222.567687
 21
195.316128
 31
0.0
  0
ARC
  5
419
330
36
100
AcDbEntity
  8
0
100
AcDbCircle
 10
-221.989767
 20
195.462848
 30
0.0
 40
0.14672
100
AcDbArc
 50
270.0
 51
350.405932
  0
LINE
  5
41A
330
36
100
AcDbEntity
  8
0
100
AcDbLine
 10
-221.845099
 20
195.438395
 30
0.0
 11
-221.845099
 21
195.531728
 31
0.0
  0
LINE
  5
41B
330
36
100
AcDbEntity
  8
0
100
AcDbLine
 10
-221.845099
 20
195.531728
 30
0.0
 11
-221.532807
 21
195.531728
 31
0.0
  0
LINE
  5
41C
330
36
100
AcDbEntity
  8
0
100
AcDbLine
 10
-223.686755
 20
195.531728
 30
0.0
 11
-223.999047
 21
195.531728
 31
0.0
  0
CIRCLE
  5
41D
330
36
100
AcDbEntity
  8
0
100
AcDbCircle
 10
-180.87141
 20
206.09438
 30
0.0
 40
1.0
  0
CIRCLE
  5
41E
330
36
100
AcDbEntity
  8
0
100
AcDbCircle
 10
-180.87141
 20
185.09438
 30
0.0
 40
1.0
  0
CIRCLE
  5
41F
330
36
100
AcDbEntity
  8
0
100
AcDbCircle
 10
-134.620284
 20
189.987433
 30
0.0
 40
1.0
  0
CIRCLE
  5
420
330
36
100
AcDbEntity
  8
0
100
AcDbCircle
 10
-134.620284
 20
201.201328
 30
0.0
 40
1.0
  0
TEXT
  5
421
330
36
100
AcDbEntity
  8
0
100
AcDbText
 10
-151.005449
 20
190.406641
 30
0.0
 40
1.370249999999999
  1
N
 50
270.000001
100
AcDbText
  0
LINE
  5
422
330
36
100
AcDbEntity
  8
0
100
AcDbLine
 10
-148.700997
 20
192.965036
 30
0.0
 11
-148.700997
 21
191.865036
 31
0.0
  0
LINE
  5
423
330
36
100
AcDbEntity
  8
0
100
AcDbLine
 10
-148.700997
 20
191.865036
 30
0.0
 11
-153.050997
 21
191.865036
 31
0.0
  0
LINE
  5
424
330
36
100
AcDbEntity
  8
0
100
AcDbLine
 10
-153.050997
 20
192.965036
 30
0.0
 11
-153.050997
 21
191.865036
 31
0.0
  0
LINE
  5
425
330
36
100
AcDbEntity
  8
0
100
AcDbLine
 10
-153.050997
 20
192.965036
 30
0.0
 11
-148.700997
 21
192.965036
 31
0.0
  0
LINE
  5
426
330
36
100
AcDbEntity
  8
0
100
AcDbLine
 10
-152.625997
 20
198.215036
 30
0.0
 11
-149.1259969999999
 21
198.215036
 31
0.0
  0
LINE
  5
427
330
36
100
AcDbEntity
  8
0
100
AcDbLine
 10
-149.1259969999999
 20
199.315036
 30
0.0
 11
-149.1259969999999
 21
198.215036
 31
0.0
  0
LINE
  5
428
330
36
100
AcDbEntity
  8
0
100
AcDbLine
 10
-149.1259969999999
 20
199.315036
 30
0.0
 11
-152.625997
 21
199.315036
 31
0.0
  0
LINE
  5
429
330
36
100
AcDbEntity
  8
0
100
AcDbLine
 10
-152.625997
 20
199.315036
 30
0.0
 11
-152.625997
 21
198.215036
 31
0.0
  0
LINE
  5
42A
330
36
100
AcDbEntity
  8
0
100
AcDbLine
 10
-143.575997
 20
196.940036
 30
0.0
 11
-143.575997
 21
195.590036
 31
0.0
  0
LINE
  5
42B
330
36
100
AcDbEntity
  8
0
100
AcDbLine
 10
-143.575997
 20
194.240036
 30
0.0
 11
-143.575997
 21
195.590036
 31
0.0
  0
LINE
  5
42C
330
36
100
AcDbEntity
  8
0
100
AcDbLine
 10
-144.925997
 20
194.240036
 30
0.0
 11
-143.575997
 21
194.240036
 31
0.0
  0
ARC
  5
42D
330
36
100
AcDbEntity
  8
0
100
AcDbCircle
 10
-144.925997
 20
195.590036
 30
0.0
 40
1.35
100
AcDbArc
 50
90.0
 51
270.0
  0
LINE
  5
42E
330
36
100
AcDbEntity
  8
0
100
AcDbLine
 10
-144.925997
 20
196.940036
 30
0.0
 11
-143.575997
 21
196.940036
 31
0.0
  0
TEXT
  5
42F
330
36
100
AcDbEntity
  8
0
100
AcDbText
 10
-170.505449
 20
190.406641
 30
0.0
 40
1.370249999999999
  1
N
 50
270.000001
100
AcDbText
  0
LINE
  5
430
330
36
100
AcDbEntity
  8
0
100
AcDbLine
 10
-172.550997
 20
192.965036
 30
0.0
 11
-168.200997
 21
192.965036
 31
0.0
  0
LINE
  5
431
330
36
100
AcDbEntity
  8
0
100
AcDbLine
 10
-168.200997
 20
192.965036
 30
0.0
 11
-168.200997
 21
191.865036
 31
0.0
  0
LINE
  5
432
330
36
100
AcDbEntity
  8
0
100
AcDbLine
 10
-168.200997
 20
191.865036
 30
0.0
 11
-172.550997
 21
191.865036
 31
0.0
  0
LINE
  5
433
330
36
100
AcDbEntity
  8
0
100
AcDbLine
 10
-172.550997
 20
192.965036
 30
0.0
 11
-172.550997
 21
191.865036
 31
0.0
  0
LINE
  5
434
330
36
100
AcDbEntity
  8
0
100
AcDbLine
 10
-172.125997
 20
198.215036
 30
0.0
 11
-168.625997
 21
198.215036
 31
0.0
  0
LINE
  5
435
330
36
100
AcDbEntity
  8
0
100
AcDbLine
 10
-168.625997
 20
199.315036
 30
0.0
 11
-168.625997
 21
198.215036
 31
0.0
  0
LINE
  5
436
330
36
100
AcDbEntity
  8
0
100
AcDbLine
 10
-168.625997
 20
199.315036
 30
0.0
 11
-172.125997
 21
199.315036
 31
0.0
  0
LINE
  5
437
330
36
100
AcDbEntity
  8
0
100
AcDbLine
 10
-172.125997
 20
199.315036
 30
0.0
 11
-172.125997
 21
198.215036
 31
0.0
  0
LINE
  5
438
330
36
100
AcDbEntity
  8
0
100
AcDbLine
 10
-164.425997
 20
196.940036
 30
0.0
 11
-163.075997
 21
196.940036
 31
0.0
  0
LINE
  5
439
330
36
100
AcDbEntity
  8
0
100
AcDbLine
 10
-163.075997
 20
196.940036
 30
0.0
 11
-163.075997
 21
195.590036
 31
0.0
  0
LINE
  5
43A
330
36
100
AcDbEntity
  8
0
100
AcDbLine
 10
-163.075997
 20
194.240036
 30
0.0
 11
-163.075997
 21
195.590036
 31
0.0
  0
LINE
  5
43B
330
36
100
AcDbEntity
  8
0
100
AcDbLine
 10
-164.425997
 20
194.240036
 30
0.0
 11
-163.075997
 21
194.240036
 31
0.0
  0
ARC
  5
43C
330
36
100
AcDbEntity
  8
0
100
AcDbCircle
 10
-164.425997
 20
195.590036
 30
0.0
 40
1.35
100
AcDbArc
 50
90.0
 51
270.0
  0
TEXT
  5
43D
330
36
100
AcDbEntity
  8
0
100
AcDbText
 10
-195.396276
 20
190.406641
 30
0.0
 40
1.370249999999999
  1
N
 50
270.000001
100
AcDbText
  0
LINE
  5
43E
330
36
100
AcDbEntity
  8
0
100
AcDbLine
 10
-197.441823
 20
192.965036
 30
0.0
 11
-193.091823
 21
192.965036
 31
0.0
  0
LINE
  5
43F
330
36
100
AcDbEntity
  8
0
100
AcDbLine
 10
-193.091823
 20
192.965036
 30
0.0
 11
-193.091823
 21
191.865036
 31
0.0
  0
LINE
  5
440
330
36
100
AcDbEntity
  8
0
100
AcDbLine
 10
-193.091823
 20
191.865036
 30
0.0
 11
-197.441823
 21
191.865036
 31
0.0
  0
LINE
  5
441
330
36
100
AcDbEntity
  8
0
100
AcDbLine
 10
-197.016823
 20
198.215036
 30
0.0
 11
-193.516823
 21
198.215036
 31
0.0
  0
LINE
  5
442
330
36
100
AcDbEntity
  8
0
100
AcDbLine
 10
-193.516823
 20
199.315036
 30
0.0
 11
-193.516823
 21
198.215036
 31
0.0
  0
LINE
  5
443
330
36
100
AcDbEntity
  8
0
100
AcDbLine
 10
-193.516823
 20
199.315036
 30
0.0
 11
-197.016823
 21
199.315036
 31
0.0
  0
LINE
  5
444
330
36
100
AcDbEntity
  8
0
100
AcDbLine
 10
-197.016823
 20
199.315036
 30
0.0
 11
-197.016823
 21
198.215036
 31
0.0
  0
LINE
  5
445
330
36
100
AcDbEntity
  8
0
100
AcDbLine
 10
-189.316823
 20
196.940036
 30
0.0
 11
-187.966823
 21
196.940036
 31
0.0
  0
LINE
  5
446
330
36
100
AcDbEntity
  8
0
100
AcDbLine
 10
-189.316823
 20
194.240036
 30
0.0
 11
-187.966823
 21
194.240036
 31
0.0
  0
ARC
  5
447
330
36
100
AcDbEntity
  8
0
100
AcDbCircle
 10
-189.316823
 20
195.590036
 30
0.0
 40
1.35
100
AcDbArc
 50
90.0
 51
270.0
  0
LINE
  5
448
330
36
100
AcDbEntity
  8
0
100
AcDbLine
 10
-197.441823
 20
192.965036
 30
0.0
 11
-197.441823
 21
191.865036
 31
0.0
  0
LINE
  5
449
330
36
100
AcDbEntity
  8
0
100
AcDbLine
 10
-187.966823
 20
194.240036
 30
0.0
 11
-187.966823
 21
195.590036
 31
0.0
  0
LINE
  5
44A
330
36
100
AcDbEntity
  8
0
100
AcDbLine
 10
-187.966823
 20
196.940036
 30
0.0
 11
-187.966823
 21
195.590036
 31
0.0
  0
TEXT
  5
44B
330
36
100
AcDbEntity
  8
0
100
AcDbText
 10
-214.896276
 20
190.406641
 30
0.0
 40
1.370249999999999
  1
N
 50
270.000001
100
AcDbText
  0
LINE
  5
44C
330
36
100
AcDbEntity
  8
0
100
AcDbLine
 10
-212.591823
 20
192.965036
 30
0.0
 11
-212.591823
 21
191.865036
 31
0.0
  0
LINE
  5
44D
330
36
100
AcDbEntity
  8
0
100
AcDbLine
 10
-212.591823
 20
191.865036
 30
0.0
 11
-216.941823
 21
191.865036
 31
0.0
  0
LINE
  5
44E
330
36
100
AcDbEntity
  8
0
100
AcDbLine
 10
-216.941823
 20
192.965036
 30
0.0
 11
-216.941823
 21
191.865036
 31
0.0
  0
LINE
  5
44F
330
36
100
AcDbEntity
  8
0
100
AcDbLine
 10
-216.941823
 20
192.965036
 30
0.0
 11
-212.591823
 21
192.965036
 31
0.0
  0
LINE
  5
450
330
36
100
AcDbEntity
  8
0
100
AcDbLine
 10
-216.516823
 20
198.215036
 30
0.0
 11
-213.016823
 21
198.215036
 31
0.0
  0
LINE
  5
451
330
36
100
AcDbEntity
  8
0
100
AcDbLine
 10
-213.016823
 20
199.315036
 30
0.0
 11
-213.016823
 21
198.215036
 31
0.0
  0
LINE
  5
452
330
36
100
AcDbEntity
  8
0
100
AcDbLine
 10
-213.016823
 20
199.315036
 30
0.0
 11
-216.516823
 21
199.315036
 31
0.0
  0
LINE
  5
453
330
36
100
AcDbEntity
  8
0
100
AcDbLine
 10
-216.516823
 20
199.315036
 30
0.0
 11
-216.516823
 21
198.215036
 31
0.0
  0
LINE
  5
454
330
36
100
AcDbEntity
  8
0
100
AcDbLine
 10
-207.466823
 20
196.940036
 30
0.0
 11
-207.466823
 21
195.590036
 31
0.0
  0
LINE
  5
455
330
36
100
AcDbEntity
  8
0
100
AcDbLine
 10
-207.466823
 20
194.240036
 30
0.0
 11
-207.466823
 21
195.590036
 31
0.0
  0
LINE
  5
456
330
36
100
AcDbEntity
  8
0
100
AcDbLine
 10
-208.816823
 20
194.240036
 30
0.0
 11
-207.466823
 21
194.240036
 31
0.0
  0
ARC
  5
457
330
36
100
AcDbEntity
  8
0
100
AcDbCircle
 10
-208.816823
 20
195.590036
 30
0.0
 40
1.35
100
AcDbArc
 50
90.0
 51
270.0
  0
LINE
  5
458
330
36
100
AcDbEntity
  8
0
100
AcDbLine
 10
-208.816823
 20
196.940036
 30
0.0
 11
-207.466823
 21
196.940036
 31
0.0
  0
ARC
  5
459
330
36
100
AcDbEntity
  8
0
100
AcDbCircle
 10
-126.995525
 20
101.826013
 30
0.0
 40
1.0
100
AcDbArc
 50
270.0
 51
89.99999800000002
  0
ARC
  5
45A
330
36
100
AcDbEntity
  8
0
100
AcDbCircle
 10
-126.995525
 20
104.826013
 30
0.0
 40
1.0
100
AcDbArc
 50
270.0
 51
90.0
  0
LINE
  5
45B
330
36
100
AcDbEntity
  8
0
100
AcDbLine
 10
-139.753546
 20
105.826013
 30
0.0
 11
-126.995525
 21
105.826013
 31
0.0
  0
LINE
  5
45C
330
36
100
AcDbEntity
  8
0
100
AcDbLine
 10
-139.753546
 20
103.826013
 30
0.0
 11
-131.426492
 21
103.826013
 31
0.0
  0
LINE
  5
45D
330
36
100
AcDbEntity
  8
0
100
AcDbLine
 10
-139.864881
 20
102.826013
 30
0.0
 11
-131.426492
 21
102.826013
 31
0.0
  0
LINE
  5
45E
330
36
100
AcDbEntity
  8
0
100
AcDbLine
 10
-139.753545
 20
100.826013
 30
0.0
 11
-126.995525
 21
100.826013
 31
0.0
  0
ARC
  5
45F
330
36
100
AcDbEntity
  8
0
100
AcDbCircle
 10
-139.753545
 20
101.826013
 30
0.0
 40
1.0
100
AcDbArc
 50
90.0
 51
270.0
  0
ARC
  5
460
330
36
100
AcDbEntity
  8
0
100
AcDbCircle
 10
-139.753546
 20
104.826013
 30
0.0
 40
1.0
100
AcDbArc
 50
90.00000199999998
 51
270.0
  0
LINE
  5
461
330
36
100
AcDbEntity
  8
0
100
AcDbLine
 10
-221.989273
 20
103.826013
 30
0.0
 11
-234.747295
 21
103.826013
 31
0.0
  0
ARC
  5
462
330
36
100
AcDbEntity
  8
0
100
AcDbCircle
 10
-221.989273
 20
104.826013
 30
0.0
 40
1.0
100
AcDbArc
 50
270.0
 51
89.99999800000002
  0
LINE
  5
463
330
36
100
AcDbEntity
  8
0
100
AcDbLine
 10
-221.989273
 20
105.826013
 30
0.0
 11
-234.747295
 21
105.826013
 31
0.0
  0
ARC
  5
464
330
36
100
AcDbEntity
  8
0
100
AcDbCircle
 10
-234.747295
 20
104.826013
 30
0.0
 40
1.0
100
AcDbArc
 50
90.0
 51
270.0
  0
LINE
  5
465
330
36
100
AcDbEntity
  8
0
100
AcDbLine
 10
-221.877938
 20
102.826013
 30
0.0
 11
-234.747295
 21
102.826013
 31
0.0
  0
ARC
  5
466
330
36
100
AcDbEntity
  8
0
100
AcDbCircle
 10
-234.747295
 20
101.826013
 30
0.0
 40
1.0
100
AcDbArc
 50
90.00000199999998
 51
270.0
  0
LINE
  5
467
330
36
100
AcDbEntity
  8
0
100
AcDbLine
 10
-221.989274
 20
100.826013
 30
0.0
 11
-234.747295
 21
100.826013
 31
0.0
  0
ARC
  5
468
330
36
100
AcDbEntity
  8
0
100
AcDbCircle
 10
-221.989274
 20
101.826013
 30
0.0
 40
1.0
100
AcDbArc
 50
270.0
 51
90.0
  0
LINE
  5
469
330
36
100
AcDbEntity
  8
0
100
AcDbLine
 10
-180.87141
 20
151.837123
 30
0.0
 11
-234.747295
 21
151.837123
 31
0.0
  0
LINE
  5
46A
330
36
100
AcDbEntity
  8
0
100
AcDbLine
 10
-180.87141
 20
152.837123
 30
0.0
 11
-234.747295
 21
152.837123
 31
0.0
  0
LINE
  5
46B
330
36
100
AcDbEntity
  8
0
100
AcDbLine
 10
-180.87141
 20
154.837123
 30
0.0
 11
-234.747295
 21
154.837123
 31
0.0
  0
ARC
  5
46C
330
36
100
AcDbEntity
  8
0
100
AcDbCircle
 10
-234.747295
 20
153.837123
 30
0.0
 40
1.0
100
AcDbArc
 50
90.0
 51
269.999998
  0
ARC
  5
46D
330
36
100
AcDbEntity
  8
0
100
AcDbCircle
 10
-234.747295
 20
150.837123
 30
0.0
 40
1.0
100
AcDbArc
 50
90.0
 51
270.0
  0
LINE
  5
46E
330
36
100
AcDbEntity
  8
0
100
AcDbLine
 10
-234.747295
 20
149.837123
 30
0.0
 11
-126.995525
 21
149.837123
 31
0.0
  0
LINE
  5
46F
330
36
100
AcDbEntity
  8
0
100
AcDbLine
 10
-180.87141
 20
151.837123
 30
0.0
 11
-126.995525
 21
151.837123
 31
0.0
  0
LINE
  5
470
330
36
100
AcDbEntity
  8
0
100
AcDbLine
 10
-180.87141
 20
152.837123
 30
0.0
 11
-126.995525
 21
152.837123
 31
0.0
  0
LINE
  5
471
330
36
100
AcDbEntity
  8
0
100
AcDbLine
 10
-180.87141
 20
154.837123
 30
0.0
 11
-126.995525
 21
154.837123
 31
0.0
  0
ARC
  5
472
330
36
100
AcDbEntity
  8
0
100
AcDbCircle
 10
-126.995525
 20
153.837123
 30
0.0
 40
1.0
100
AcDbArc
 50
270.000002
 51
90.0
  0
ARC
  5
473
330
36
100
AcDbEntity
  8
0
100
AcDbCircle
 10
-126.995525
 20
150.837123
 30
0.0
 40
1.0
100
AcDbArc
 50
270.0
 51
90.0
  0
LINE
  5
479
330
36
100
AcDbEntity
  8
0
100
AcDbLine
 10
-137.068658
 20
68.18924399999999
 30
0.0
 11
-145.215248
 21
79.600561
 31
0.0
  0
LINE
  5
47A
330
36
100
AcDbEntity
  8
0
100
AcDbLine
 10
-145.215248
 20
79.600561
 30
0.0
 11
-161.715248
 21
79.600561
 31
0.0
  0
TEXT
  5
47B
330
36
100
AcDbEntity
  8
0
 62
     4
100
AcDbText
 10
-158.965248
 20
80.600561
 30
0.0
 40
3.2
  1
型式銘版
 41
0.716146
100
AcDbText
  0
LINE
  5
481
330
36
100
AcDbEntity
  8
0
100
AcDbLine
 10
-226.65545
 20
68.18924399999999
 30
0.0
 11
-220.166447
 21
79.600561
 31
0.0
  0
LINE
  5
482
330
36
100
AcDbEntity
  8
0
100
AcDbLine
 10
-220.166447
 20
79.600561
 30
0.0
 11
-195.416447
 21
79.600561
 31
0.0
  0
TEXT
  5
483
330
36
100
AcDbEntity
  8
0
 62
     4
100
AcDbText
 10
-217.416447
 20
80.600561
 30
0.0
 40
3.2
  1
取り扱いシール
 41
0.716146
100
AcDbText
  0
LINE
  5
484
330
36
100
AcDbEntity
  8
0
 62
     3
100
AcDbLine
 10
-376.684423
 20
112.4965
 30
0.0
 11
-379.2825000000001
 21
110.9965
 31
0.0
  0
LINE
  5
485
330
36
100
AcDbEntity
  8
0
 62
     3
100
AcDbLine
 10
-376.684423
 20
112.4965
 30
0.0
 11
-379.2825000000001
 21
113.9965
 31
0.0
  0
LINE
  5
486
330
36
100
AcDbEntity
  8
0
 62
     3
100
AcDbLine
 10
-379.2825000000001
 20
110.9965
 30
0.0
 11
-379.2825000000001
 21
113.9965
 31
0.0
  0
LINE
  5
492
330
36
100
AcDbEntity
  8
0
100
AcDbLine
 10
-29.661446
 20
159.494055
 30
0.0
 11
-44.003994
 21
174.131177
 31
0.0
  0
CIRCLE
  5
493
330
36
100
AcDbEntity
  8
0
100
AcDbCircle
 10
-47.503409
 20
177.702465
 30
0.0
 40
5.0
  0
TEXT
  5
494
330
36
100
AcDbEntity
  8
0
 62
     4
100
AcDbText
 10
-49.70126091557163
 20
174.3896857345784
 30
0.0
 40
6.299999999999998
  1
7
  7
高6.3
100
AcDbText
  0
LINE
  5
49A
330
36
100
AcDbEntity
  8
0
100
AcDbLine
 10
-133.22834
 20
66.674019
 30
0.0
 11
-127.680003
 21
81.66838
 31
0.0
  0
CIRCLE
  5
49B
330
36
100
AcDbEntity
  8
0
100
AcDbCircle
 10
-125.944842
 20
86.35764599999998
 30
0.0
 40
5.0
  0
TEXT
  5
49C
330
36
100
AcDbEntity
  8
0
 62
     4
100
AcDbText
 10
-128.1426939155716
 20
83.04486673457841
 30
0.0
 40
6.299999999999998
  1
8
  7
高6.3
100
AcDbText
  0
LINE
  5
4A2
330
36
100
AcDbEntity
  8
0
100
AcDbLine
 10
-146.863142
 20
114.326013
 30
0.0
 11
-171.119495
 21
92.37194100000001
 31
0.0
  0
CIRCLE
  5
4A3
330
36
100
AcDbEntity
  8
0
100
AcDbCircle
 10
-174.826577
 20
89.016715
 30
0.0
 40
5.0
  0
TEXT
  5
4A4
330
36
100
AcDbEntity
  8
0
 62
     4
100
AcDbText
 10
-177.0244289155716
 20
85.70393573457842
 30
0.0
 40
6.299999999999998
  1
5
  7
高6.3
100
AcDbText
  0
LINE
  5
4AA
330
36
100
AcDbEntity
  8
0
100
AcDbLine
 10
-214.634073
 20
118.591339
 30
0.0
 11
-191.647537
 21
92.64037
 31
0.0
  0
CIRCLE
  5
4AB
330
36
100
AcDbEntity
  8
0
100
AcDbCircle
 10
-188.332249
 20
88.89752900000003
 30
0.0
 40
5.0
  0
TEXT
  5
4AC
330
36
100
AcDbEntity
  8
0
 62
     4
100
AcDbText
 10
-190.5301009155716
 20
85.58474973457839
 30
0.0
 40
6.299999999999998
  1
6
  7
高6.3
100
AcDbText
  0
LINE
  5
4B2
330
36
100
AcDbEntity
  8
0
100
AcDbLine
 10
-230.265134
 20
66.674019
 30
0.0
 11
-235.813471
 21
81.66838
 31
0.0
  0
CIRCLE
  5
4B3
330
36
100
AcDbEntity
  8
0
100
AcDbCircle
 10
-237.548632
 20
86.35764599999998
 30
0.0
 40
5.0
  0
TEXT
  5
4B4
330
36
100
AcDbEntity
  8
0
 62
     4
100
AcDbText
 10
-239.7464839155716
 20
83.04486673457841
 30
0.0
 40
6.299999999999998
  1
8
  7
高6.3
100
AcDbText
  0
LINE
  5
4B5
330
36
100
AcDbEntity
  8
0
 62
     3
100
AcDbLine
 10
-184.6104051345516
 20
-28.0035
 30
0.0
 11
-184.6104051345516
 21
16.9965
 31
0.0
  0
LINE
  5
4B6
330
36
100
AcDbEntity
  8
0
100
AcDbLine
 10
-320.9754370708089
 20
-28.0035
 30
0.0
 11
-320.9754370708089
 21
16.9965
 31
0.0
  0
LINE
  5
4B7
330
36
100
AcDbEntity
  8
0
100
AcDbLine
 10
-311.6905190708089
 20
-28.0035
 30
0.0
 11
-311.6905190708089
 21
16.9965
 31
0.0
  0
LINE
  5
4B8
330
36
100
AcDbEntity
  8
0
100
AcDbLine
 10
-295.5715472565464
 20
-28.0035
 30
0.0
 11
-295.5715472565464
 21
16.9965
 31
0.0
  0
LINE
  5
4B9
330
36
100
AcDbEntity
  8
0
100
AcDbLine
 10
-357.389195086025
 20
-28.0035
 30
0.0
 11
-357.3891950860252
 21
16.9965
 31
0.0
  0
TEXT
  5
4BA
330
36
100
AcDbEntity
  8
0
 62
     3
100
AcDbText
 10
-319.475437070809
 20
7.496500000000001
 30
0.0
 40
3.2
  1
1
 41
0.8
  7
高3.2
100
AcDbText
  0
TEXT
  5
4BB
330
36
100
AcDbEntity
  8
0
 62
     3
100
AcDbText
 10
-319.475437070809
 20
-17.5035
 30
0.0
 40
3.2
  1
1
 41
0.8
  7
高3.2
100
AcDbText
  0
TEXT
  5
4BC
330
36
100
AcDbEntity
  8
0
 62
     3
100
AcDbText
 10
-319.475437070809
 20
2.496500000000001
 30
0.0
 40
3.2
  1
1
 41
0.8
  7
高3.2
100
AcDbText
  0
TEXT
  5
4BD
330
36
100
AcDbEntity
  8
0
 62
     3
100
AcDbText
 10
-310.1905190708089
 20
-17.5035
 30
0.0
 40
3.2
  1
　〃
 41
0.8
  7
高3.2
100
AcDbText
  0
TEXT
  5
4BE
330
36
100
AcDbEntity
  8
0
 62
     3
100
AcDbText
 10
-310.1905190708089
 20
-7.503499999999997
 30
0.0
 40
3.2
  1
　〃
 41
0.8
  7
高3.2
100
AcDbText
  0
TEXT
  5
4BF
330
36
100
AcDbEntity
  8
0
 62
     3
100
AcDbText
 10
-319.475437070809
 20
-2.503499999999998
 30
0.0
 40
3.2
  1
1
 41
0.8
  7
高3.2
100
AcDbText
  0
TEXT
  5
4C0
330
36
100
AcDbEntity
  8
0
 62
     3
100
AcDbText
 10
-355.2562610860249
 20
-22.5035
 30
0.0
 40
3.2
  1
本体
 41
0.8
  7
高3.2
100
AcDbText
  0
TEXT
  5
4C1
330
36
100
AcDbEntity
  8
0
 62
     3
100
AcDbText
 10
-355.889195086025
 20
-17.5035
 30
0.0
 40
3.2
  1
コンセントパネル
 41
0.8
  7
高3.2
100
AcDbText
  0
TEXT
  5
4C2
330
36
100
AcDbEntity
  8
0
 62
     3
100
AcDbText
 10
-355.889195086025
 20
-2.503499999999998
 30
0.0
 40
3.2
  1
線止め
 41
0.8
  7
高3.2
100
AcDbText
  0
TEXT
  5
4C3
330
36
100
AcDbEntity
  8
0
 62
     3
100
AcDbText
 10
-355.889195086025
 20
2.496500000000001
 30
0.0
 40
3.2
  1
ホールプラグ
 41
0.8
  7
高3.2
100
AcDbText
  0
TEXT
  5
4C4
330
36
100
AcDbEntity
  8
0
 62
     3
100
AcDbText
 10
-310.1905190708089
 20
7.496500000000001
 30
0.0
 40
3.2
  1
SVCT
 41
0.8
  7
高3.2
100
AcDbText
  0
TEXT
  5
4C5
330
36
100
AcDbEntity
  8
0
 62
     3
100
AcDbText
 10
-310.1905190708089
 20
-2.503499999999998
 30
0.0
 40
3.2
  1
PA6
 41
0.8
  7
高3.2
100
AcDbText
  0
TEXT
  5
4C6
330
36
100
AcDbEntity
  8
0
 62
     3
100
AcDbText
 10
-310.1905190708089
 20
-22.5035
 30
0.0
 40
3.2
  1
ABS樹脂
 41
0.8
  7
高3.2
100
AcDbText
  0
TEXT
  5
4C7
330
36
100
AcDbEntity
  8
0
 62
     3
100
AcDbText
 10
-310.1905190708089
 20
2.496500000000001
 30
0.0
 40
3.2
  1
PP樹脂
 41
0.8
  7
高3.2
100
AcDbText
  0
TEXT
  5
4C8
330
36
100
AcDbEntity
  8
0
 62
     3
100
AcDbText
 10
-319.475437070809
 20
-22.5035
 30
0.0
 40
3.2
  1
1式
 41
0.8
  7
高3.2
100
AcDbText
  0
TEXT
  5
4C9
330
36
100
AcDbEntity
  8
0
 62
     3
100
AcDbText
 10
-355.8891950860251
 20
12.4965
 30
0.0
 40
3.2
  1
型式　取説表示シール
 41
0.8
  7
高3.2
100
AcDbText
  0
TEXT
  5
4CA
330
36
100
AcDbEntity
  8
0
 62
     3
100
AcDbText
 10
-319.475437070809
 20
12.4965
 30
0.0
 40
3.2
  1
各1
 41
0.8
  7
高3.2
100
AcDbText
  0
TEXT
  5
4CB
330
36
100
AcDbEntity
  8
0
 62
     3
100
AcDbText
 10
-310.1905190708089
 20
-12.5047
 30
0.0
 40
3.2
  1
　〃
 41
0.8
  7
高3.2
100
AcDbText
  0
TEXT
  5
4CC
330
36
100
AcDbEntity
  8
0
 62
     3
100
AcDbText
 10
-319.475437070809
 20
-12.5035
 30
0.0
 40
3.2
  1
1
 41
0.8
  7
高3.2
100
AcDbText
  0
TEXT
  5
4CD
330
36
100
AcDbEntity
  8
0
 62
     3
100
AcDbText
 10
-355.889195086025
 20
-12.5047
 30
0.0
 40
3.2
  1
電源ランプ
 41
0.8
  7
高3.2
100
AcDbText
  0
TEXT
  5
4CE
330
36
100
AcDbEntity
  8
0
 62
     3
100
AcDbText
 10
-294.0715472565464
 20
-12.5035
 30
0.0
 40
3.2
  1
100V用
 41
0.8
  7
高3.2
100
AcDbText
  0
TEXT
  5
4CF
330
36
100
AcDbEntity
  8
0
 62
     3
100
AcDbText
 10
-362.7825
 20
12.4965
 30
0.0
 40
3.2
  1
8
 41
0.8
  7
高3.2
100
AcDbText
  0
TEXT
  5
4D0
330
36
100
AcDbEntity
  8
0
 62
     3
100
AcDbText
 10
-362.7825
 20
7.496500000000001
 30
0.0
 40
3.2
  1
7
 41
0.8
  7
高3.2
100
AcDbText
  0
TEXT
  5
4D1
330
36
100
AcDbEntity
  8
0
 62
     3
100
AcDbText
 10
-362.7825
 20
2.496500000000001
 30
0.0
 40
3.2
  1
6
 41
0.8
  7
高3.2
100
AcDbText
  0
TEXT
  5
4D2
330
36
100
AcDbEntity
  8
0
 62
     3
100
AcDbText
 10
-362.7825
 20
-2.503499999999998
 30
0.0
 40
3.2
  1
5
 41
0.8
  7
高3.2
100
AcDbText
  0
TEXT
  5
4D3
330
36
100
AcDbEntity
  8
0
 62
     3
100
AcDbText
 10
-362.7825
 20
-7.503499999999997
 30
0.0
 40
3.2
  1
4
 41
0.8
  7
高3.2
100
AcDbText
  0
TEXT
  5
4D4
330
36
100
AcDbEntity
  8
0
 62
     3
100
AcDbText
 10
-362.7825
 20
-12.5047
 30
0.0
 40
3.2
  1
3
 41
0.8
  7
高3.2
100
AcDbText
  0
TEXT
  5
4D5
330
36
100
AcDbEntity
  8
0
 62
     3
100
AcDbText
 10
-362.7825
 20
-17.5035
 30
0.0
 40
3.2
  1
2
 41
0.8
  7
高3.2
100
AcDbText
  0
TEXT
  5
4D6
330
36
100
AcDbEntity
  8
0
 62
     3
100
AcDbText
 10
-362.7825
 20
-22.5035
 30
0.0
 40
3.2
  1
1
 41
0.8
  7
高3.2
100
AcDbText
  0
TEXT
  5
4D7
330
36
100
AcDbEntity
  8
0
 62
     3
100
AcDbText
 10
-355.8891950860251
 20
7.496500000000001
 30
0.0
 40
3.2
  1
ポッキンプラグ付き電線
 41
0.8
  7
高3.2
100
AcDbText
  0
TEXT
  5
4D8
330
36
100
AcDbEntity
  8
0
 62
     3
100
AcDbText
 10
-355.889195086025
 20
-7.503499999999997
 30
0.0
 40
3.2
  1
ハーフコンセント
 41
0.8
  7
高3.2
100
AcDbText
  0
TEXT
  5
4D9
330
36
100
AcDbEntity
  8
0
 62
     3
100
AcDbText
 10
-319.475437070809
 20
-7.503499999999997
 30
0.0
 40
3.2
  1
2式
 41
0.8
  7
高3.2
100
AcDbText
  0
TEXT
  5
4DA
330
36
100
AcDbEntity
  8
0
 62
     3
100
AcDbText
 10
-294.0715472565464
 20
-7.503499999999997
 30
0.0
 40
3.2
  1
アース金具付き
 41
0.8
  7
高3.2
100
AcDbText
  0
ARC
  5
4DB
330
36
100
AcDbEntity
  8
0
100
AcDbCircle
 10
-127.495525
 20
69.18924399999998
 30
0.0
 40
1.0
100
AcDbArc
 50
0.0
 51
90.0
  0
LINE
  5
4DC
330
36
100
AcDbEntity
  8
0
100
AcDbLine
 10
-126.495525
 20
56.18365999999999
 30
0.0
 11
-126.495525
 21
69.18924399999998
 31
0.0
  0
LINE
  5
4DD
330
36
100
AcDbEntity
  8
0
100
AcDbLine
 10
-127.495525
 20
70.18924399999999
 30
0.0
 11
-142.37141
 21
70.18924399999999
 31
0.0
  0
ARC
  5
4DE
330
36
100
AcDbEntity
  8
0
100
AcDbCircle
 10
-142.37141
 20
69.18924399999998
 30
0.0
 40
1.0
100
AcDbArc
 50
90.0
 51
180.0
  0
LINE
  5
4DF
330
36
100
AcDbEntity
  8
0
100
AcDbLine
 10
-143.37141
 20
69.18924399999998
 30
0.0
 11
-143.37141
 21
55.68366
 31
0.0
  0
LINE
  5
4E0
330
36
100
AcDbEntity
  8
0
100
AcDbLine
 10
-126.495525
 20
56.18365999999999
 30
0.0
 11
-126.495525
 21
42.67807499999999
 31
0.0
  0
ARC
  5
4E1
330
36
100
AcDbEntity
  8
0
100
AcDbCircle
 10
-127.495525
 20
42.67807499999999
 30
0.0
 40
1.0
100
AcDbArc
 50
270.0
 51
0.0
  0
LINE
  5
4E2
330
36
100
AcDbEntity
  8
0
100
AcDbLine
 10
-127.495525
 20
41.678075
 30
0.0
 11
-142.37141
 21
41.678075
 31
0.0
  0
ARC
  5
4E3
330
36
100
AcDbEntity
  8
0
100
AcDbCircle
 10
-142.37141
 20
42.67807499999999
 30
0.0
 40
1.0
100
AcDbArc
 50
180.0
 51
270.0
  0
LINE
  5
4E4
330
36
100
AcDbEntity
  8
0
100
AcDbLine
 10
-143.37141
 20
42.67807499999999
 30
0.0
 11
-143.37141
 21
55.68366
 31
0.0
  0
LINE
  5
4E5
330
36
100
AcDbEntity
  8
0
100
AcDbLine
 10
-218.37141
 20
42.67807499999999
 30
0.0
 11
-218.37141
 21
69.18924399999998
 31
0.0
  0
LINE
  5
4E6
330
36
100
AcDbEntity
  8
0
100
AcDbLine
 10
-234.247295
 20
70.18924399999999
 30
0.0
 11
-219.37141
 21
70.18924399999999
 31
0.0
  0
ARC
  5
4E7
330
36
100
AcDbEntity
  8
0
100
AcDbCircle
 10
-219.37141
 20
69.18924399999998
 30
0.0
 40
1.0
100
AcDbArc
 50
0.0
 51
90.0
  0
ARC
  5
4E8
330
36
100
AcDbEntity
  8
0
100
AcDbCircle
 10
-234.247295
 20
69.18924399999998
 30
0.0
 40
1.0
100
AcDbArc
 50
90.0
 51
180.0
  0
LINE
  5
4E9
330
36
100
AcDbEntity
  8
0
100
AcDbLine
 10
-235.247295
 20
69.18924399999998
 30
0.0
 11
-235.247295
 21
42.67807499999999
 31
0.0
  0
LINE
  5
4EA
330
36
100
AcDbEntity
  8
0
100
AcDbLine
 10
-234.247295
 20
41.678075
 30
0.0
 11
-219.37141
 21
41.678075
 31
0.0
  0
ARC
  5
4EB
330
36
100
AcDbEntity
  8
0
100
AcDbCircle
 10
-219.37141
 20
42.67807499999999
 30
0.0
 40
1.0
100
AcDbArc
 50
270.0
 51
0.0
  0
ARC
  5
4EC
330
36
100
AcDbEntity
  8
0
100
AcDbCircle
 10
-234.247295
 20
42.67807499999999
 30
0.0
 40
1.0
100
AcDbArc
 50
180.0
 51
270.0
  0
LINE
  5
4ED
330
36
100
AcDbEntity
  8
0
 62
     3
100
AcDbLine
 10
25.617464
 20
17.662222
 30
0.0
 11
-25.981899
 21
17.662222
 31
0.0
  0
TEXT
  5
4EE
330
36
100
AcDbEntity
  8
0
 62
     3
100
AcDbText
 10
-20.92923708152307
 20
12.218307
 30
0.0
 40
4.5
  1
コード
  7
高4.5
100
AcDbText
  0
LINE
  5
4EF
330
36
100
AcDbEntity
  8
0
 62
     3
100
AcDbLine
 10
0.018101
 20
11.662222
 30
0.0
 11
0.018101
 21
17.662222
 31
0.0
  0
LINE
  5
4F0
330
36
100
AcDbEntity
  8
0
 62
     3
100
AcDbLine
 10
-25.981899
 20
11.662222
 30
0.0
 11
-25.981899
 21
17.662222
 31
0.0
  0
TEXT
  5
4F1
330
36
100
AcDbEntity
  8
0
 62
     3
100
AcDbText
 10
-66.78996399999999
 20
-3.597876
 30
0.0
 40
4.5
  1
HR-E104F
  7
高4.5
100
AcDbText
  0
TEXT
  5
4F2
330
36
100
AcDbEntity
  8
0
 62
     3
100
AcDbText
 10
-24.352742
 20
-26.871431
 30
0.0
 40
6.299999999999998
  1
HR-E104F
  7
高6.3
100
AcDbText
  0
LINE
  5
4F8
330
36
100
AcDbEntity
  8
0
100
AcDbLine
 10
-125.151967
 20
207.535794
 30
0.0
 11
-116.789507
 21
220.658746
 31
0.0
  0
CIRCLE
  5
4F9
330
36
100
AcDbEntity
  8
0
100
AcDbCircle
 10
-114.102502
 20
224.87538
 30
0.0
 40
5.0
  0
TEXT
  5
4FA
330
36
100
AcDbEntity
  8
0
 62
     4
100
AcDbText
 10
-115.3009466088683
 20
221.6947292263533
 30
0.0
 40
6.299999999999998
  1
1
  7
高6.3
100
AcDbText
  0
LINE
  5
500
330
36
100
AcDbEntity
  8
0
100
AcDbLine
 10
-148.087259
 20
206.240939
 30
0.0
 11
-136.284532
 21
220.973221
 31
0.0
  0
CIRCLE
  5
501
330
36
100
AcDbEntity
  8
0
100
AcDbCircle
 10
-133.158328
 20
224.87538
 30
0.0
 40
5.0
  0
TEXT
  5
502
330
36
100
AcDbEntity
  8
0
 62
     4
100
AcDbText
 10
-135.3561799155716
 20
221.5626007345784
 30
0.0
 40
6.299999999999998
  1
2
  7
高6.3
100
AcDbText
  0
LINE
  5
508
330
36
100
AcDbEntity
  8
0
100
AcDbLine
 10
-181.205905
 20
198.276294
 30
0.0
 11
-186.954506
 21
220.041158
 31
0.0
  0
CIRCLE
  5
509
330
36
100
AcDbEntity
  8
0
100
AcDbCircle
 10
-188.231335
 20
224.87538
 30
0.0
 40
5.0
  0
TEXT
  5
50A
330
36
100
AcDbEntity
  8
0
 62
     4
100
AcDbText
 10
-190.4291869155716
 20
221.5626007345784
 30
0.0
 40
6.299999999999998
  1
3
  7
高6.3
100
AcDbText
  0
LINE
  5
510
330
36
100
AcDbEntity
  8
0
100
AcDbLine
 10
-216.549152
 20
201.699818
 30
0.0
 11
-223.81106
 21
220.220422
 31
0.0
  0
CIRCLE
  5
511
330
36
100
AcDbEntity
  8
0
100
AcDbCircle
 10
-225.636264
 20
224.87538
 30
0.0
 40
5.0
  0
TEXT
  5
512
330
36
100
AcDbEntity
  8
0
 62
     4
100
AcDbText
 10
-227.8341159155716
 20
221.5626007345784
 30
0.0
 40
6.299999999999998
  1
4
  7
高6.3
100
AcDbText
  0
TEXT
  5
513
330
36
100
AcDbEntity
  8
0
 62
     3
100
AcDbText
 10
-294.0715472565464
 20
-17.5035
 30
0.0
 40
3.2
  1
黄
 41
0.8
  7
高3.2
100
AcDbText
  0
TEXT
  5
514
330
36
100
AcDbEntity
  8
0
 62
     3
100
AcDbText
 10
-319.475437070809
 20
-27.5035
 30
0.0
 40
3.2
  1
数
 41
0.8
  7
高3.2
100
AcDbText
  0
TEXT
  5
515
330
36
100
AcDbEntity
  8
0
 62
     3
100
AcDbText
 10
-362.7825
 20
-27.5035
 30
0.0
 40
3.2
  1
No
 41
0.8
  7
高3.2
100
AcDbText
  0
TEXT
  5
516
330
36
100
AcDbEntity
  8
0
 62
     3
100
AcDbText
 10
-355.889195086025
 20
-27.5035
 30
0.0
 40
3.2
  1
部　　品　　名
 41
0.8
  7
高3.2
100
AcDbText
  0
TEXT
  5
517
330
36
100
AcDbEntity
  8
0
 62
     3
100
AcDbText
 10
-310.1905190708089
 20
-27.5035
 30
0.0
 40
3.2
  1
材　　質
 41
0.8
  7
高3.2
100
AcDbText
  0
TEXT
  5
518
330
36
100
AcDbEntity
  8
0
 62
     3
100
AcDbText
 10
-294.0715472565464
 20
-27.5035
 30
0.0
 40
3.2
  1
備　　　　考
 41
0.8
  7
高3.2
100
AcDbText
  0
TEXT
  5
519
330
36
100
AcDbEntity
  8
0
 62
     3
100
AcDbText
 10
-58.1487572850558
 20
38.3616
 30
0.0
 40
4.5
  1
単相100V仕様
  7
高4.5
100
AcDbText
  0
TEXT
  5
51A
330
36
100
AcDbEntity
  8
0
 62
     3
100
AcDbText
 10
-63.60719929096537
 20
31.122279
 30
0.0
 40
4.5
  1
定格電圧
  7
高4.5
100
AcDbText
  0
TEXT
  5
51B
330
36
100
AcDbEntity
  8
0
 62
     3
100
AcDbText
 10
-63.60719929096537
 20
24.594279
 30
0.0
 40
4.5
  1
定格電流
  7
高4.5
100
AcDbText
  0
TEXT
  5
51C
330
36
100
AcDbEntity
  8
0
 62
     3
100
AcDbText
 10
-35.77596935587195
 20
31.699096
 30
0.0
 40
4.5
  1
125V
  7
高4.5
100
AcDbText
  0
TEXT
  5
51D
330
36
100
AcDbEntity
  8
0
 62
     3
100
AcDbText
 10
-31.46023835587195
 20
25.068442
 30
0.0
 40
4.5
  1
8A
  7
高4.5
100
AcDbText
  0
TEXT
  5
51E
330
36
100
AcDbEntity
  8
0
 62
     3
100
AcDbText
 10
4.269422172894337
 20
12.160578
 30
0.0
 40
4.5
  1
5355
  7
高4.5
100
AcDbText
  0
LINE
  5
51F
330
36
100
AcDbEntity
  8
0
 62
     3
100
AcDbLine
 10
-184.6104051345516
 20
16.9965
 30
0.0
 11
-364.2825
 21
16.9965
 31
0.0
  0
LINE
  5
520
330
36
100
AcDbEntity
  8
0
100
AcDbLine
 10
-184.6104051345516
 20
-13.0035
 30
0.0
 11
-364.2825
 21
-13.0035
 31
0.0
  0
LINE
  5
521
330
36
100
AcDbEntity
  8
0
100
AcDbLine
 10
-184.6104051345516
 20
-3.003499999999998
 30
0.0
 11
-364.2825
 21
-3.003499999999998
 31
0.0
  0
LINE
  5
522
330
36
100
AcDbEntity
  8
0
100
AcDbLine
 10
-184.6104051345516
 20
1.9965
 30
0.0
 11
-364.2825
 21
1.9965
 31
0.0
  0
LINE
  5
523
330
36
100
AcDbEntity
  8
0
100
AcDbLine
 10
-184.6104051345516
 20
6.996500000000001
 30
0.0
 11
-364.2825
 21
6.996500000000001
 31
0.0
  0
LINE
  5
524
330
36
100
AcDbEntity
  8
0
100
AcDbLine
 10
-184.6104051345516
 20
11.9965
 30
0.0
 11
-364.2825
 21
11.9965
 31
0.0
  0
LINE
  5
525
330
36
100
AcDbEntity
  8
0
100
AcDbLine
 10
-184.6104051345516
 20
-18.0035
 30
0.0
 11
-364.2825
 21
-18.0035
 31
0.0
  0
LINE
  5
526
330
36
100
AcDbEntity
  8
0
100
AcDbLine
 10
-184.6104051345516
 20
-8.003499999999997
 30
0.0
 11
-364.2825
 21
-8.003499999999997
 31
0.0
  0
LINE
  5
527
330
36
100
AcDbEntity
  8
0
100
AcDbLine
 10
-184.6104051345516
 20
-23.0035
 30
0.0
 11
-364.2825
 21
-23.0035
 31
0.0
  0
TEXT
  5
528
330
36
100
AcDbEntity
  8
0
 62
     3
100
AcDbText
 10
-294.0715472565464
 20
7.496500000000001
 30
0.0
 40
3.2
  1
3.5sqx3cx10m(黒)
 41
0.8
  7
高3.2
100
AcDbText
  0
TEXT
  5
63B
330
36
100
AcDbEntity
  8
0
 62
     3
100
AcDbText
 10
13.2175
 20
236.4965
 30
0.0
 40
3.2
  1
担　当
  7
高3.2
100
AcDbText
  0
TEXT
  5
63C
330
36
100
AcDbEntity
  8
0
 62
     3
100
AcDbText
 10
-30.7825
 20
236.4965
 30
0.0
 40
3.2
  1
変更・追記内容
  7
高3.2
100
AcDbText
  0
TEXT
  5
63D
330
36
100
AcDbEntity
  8
0
 62
     3
100
AcDbText
 10
-55.66898499966075
 20
231.8259614900917
 30
0.0
 40
2.0
  1
1
  7
高2
100
AcDbText
  0
TEXT
  5
63E
330
36
100
AcDbEntity
  8
0
 62
     3
100
AcDbText
 10
-55.97749647641805
 20
226.6561447778188
 30
0.0
 40
2.0
  1
2
  7
高2
100
AcDbText
  0
TEXT
  5
63F
330
36
100
AcDbEntity
  8
0
 62
     3
100
AcDbText
 10
-48.7825
 20
236.4965
 30
0.0
 40
3.2
  1
日　付
  7
高3.2
100
AcDbText
  0
TEXT
  5
640
330
36
100
AcDbEntity
  8
0
 62
     3
100
AcDbText
 10
-48.7825
 20
241.4965
 30
0.0
 40
3.2
  1
図　　　　面　　　　略　　　　歴
  7
高3.2
100
AcDbText
  0
TEXT
  5
641
330
36
100
AcDbEntity
  8
0
 62
     3
100
AcDbText
 10
-58.7825
 20
236.4965
 30
0.0
 40
3.2
  1
記号
  7
高3.2
100
AcDbText
  0
LINE
  5
642
330
36
100
AcDbEntity
  8
0
100
AcDbLine
 10
-55.28249999999999
 20
229.7873960000001
 30
0.0
 11
-57.18249999999997
 21
226.4965
 31
0.0
  0
LINE
  5
643
330
36
100
AcDbEntity
  8
0
100
AcDbLine
 10
-55.28249999999999
 20
229.7873960000001
 30
0.0
 11
-53.38250000000002
 21
226.4965
 31
0.0
  0
LINE
  5
644
330
36
100
AcDbEntity
  8
0
100
AcDbLine
 10
-57.18249999999997
 20
226.4965
 30
0.0
 11
-53.38250000000002
 21
226.4965
 31
0.0
  0
LINE
  5
645
330
36
100
AcDbEntity
  8
0
100
AcDbLine
 10
-55.28249999999999
 20
234.7873970000001
 30
0.0
 11
-57.18249999999997
 21
231.4965
 31
0.0
  0
LINE
  5
646
330
36
100
AcDbEntity
  8
0
100
AcDbLine
 10
-55.28249999999999
 20
234.7873970000001
 30
0.0
 11
-53.38250000000002
 21
231.4965
 31
0.0
  0
LINE
  5
647
330
36
100
AcDbEntity
  8
0
100
AcDbLine
 10
-57.18249999999997
 20
231.4965
 30
0.0
 11
-53.38250000000002
 21
231.4965
 31
0.0
  0
LINE
  5
648
330
36
100
AcDbEntity
  8
0
 62
     3
100
AcDbLine
 10
-60.28249999999999
 20
240.9965
 30
0.0
 11
25.7175
 21
240.9965
 31
0.0
  0
LINE
  5
649
330
36
100
AcDbEntity
  8
0
 62
     3
100
AcDbLine
 10
-60.28249999999999
 20
235.9965
 30
0.0
 11
25.7175
 21
235.9965
 31
0.0
  0
LINE
  5
64A
330
36
100
AcDbEntity
  8
0
 62
     7
100
AcDbLine
 10
-60.28249999999999
 20
230.9965
 30
0.0
 11
25.7175
 21
230.9965
 31
0.0
  0
LINE
  5
64B
330
36
100
AcDbEntity
  8
0
 62
     3
100
AcDbLine
 10
-60.28249999999999
 20
225.9965
 30
0.0
 11
25.7175
 21
225.9965
 31
0.0
  0
LINE
  5
64C
330
36
100
AcDbEntity
  8
0
 62
     7
100
AcDbLine
 10
11.71749999999994
 20
225.9965
 30
0.0
 11
11.7175
 21
240.9965
 31
0.0
  0
LINE
  5
64D
330
36
100
AcDbEntity
  8
0
 62
     7
100
AcDbLine
 10
-32.2825
 20
225.9965
 30
0.0
 11
-32.2825
 21
240.9965
 31
0.0
  0
LINE
  5
64E
330
36
100
AcDbEntity
  8
0
 62
     7
100
AcDbLine
 10
-50.28249999999999
 20
225.9965
 30
0.0
 11
-50.28249999999999
 21
240.9965
 31
0.0
  0
LINE
  5
64F
330
36
100
AcDbEntity
  8
0
 62
     3
100
AcDbLine
 10
-60.28249999999999
 20
225.9965
 30
0.0
 11
-60.28249999999999
 21
245.9965
 31
0.0
  0
LINE
  5
838
330
36
100
AcDbEntity
  8
0
100
AcDbLine
 10
-258.4124419719707
 20
-28.0035
 30
0.0
 11
-258.4124419719707
 21
16.9965
 31
0.0
  0
TEXT
  5
839
330
36
100
AcDbEntity
  8
0
 62
     3
100
AcDbText
 10
-256.9124419719708
 20
7.496500000000001
 30
0.0
 40
3.2
  1
51204
 41
0.8
  7
高3.2
100
AcDbText
  0
TEXT
  5
83A
330
36
100
AcDbEntity
  8
0
 62
     3
100
AcDbText
 10
-256.9124419719708
 20
-17.5035
 30
0.0
 40
3.2
  1
50453
 41
0.8
  7
高3.2
100
AcDbText
  0
TEXT
  5
83B
330
36
100
AcDbEntity
  8
0
 62
     3
100
AcDbText
 10
-256.9124419719708
 20
2.496500000000001
 30
0.0
 40
3.2
  1
50445
 41
0.8
  7
高3.2
100
AcDbText
  0
TEXT
  5
83C
330
36
100
AcDbEntity
  8
0
 62
     3
100
AcDbText
 10
-256.9124419719708
 20
-2.503499999999998
 30
0.0
 40
3.2
  1
50459
 41
0.8
  7
高3.2
100
AcDbText
  0
TEXT
  5
83D
330
36
100
AcDbEntity
  8
0
 62
     3
100
AcDbText
 10
-256.9124419719708
 20
-22.5035
 30
0.0
 40
3.2
  1
50451
 41
0.8
  7
高3.2
100
AcDbText
  0
TEXT
  5
83E
330
36
100
AcDbEntity
  8
0
 62
     3
100
AcDbText
 10
-256.9124419719708
 20
12.4965
 30
0.0
 40
3.2
  1
-
 41
0.8
  7
高3.2
100
AcDbText
  0
TEXT
  5
83F
330
36
100
AcDbEntity
  8
0
 62
     3
100
AcDbText
 10
-256.9124419719708
 20
-12.5035
 30
0.0
 40
3.2
  1
51795
 41
0.8
  7
高3.2
100
AcDbText
  0
TEXT
  5
840
330
36
100
AcDbEntity
  8
0
 62
     3
100
AcDbText
 10
-256.9124419719708
 20
-7.503499999999997
 30
0.0
 40
3.2
  1
51415
 41
0.8
  7
高3.2
100
AcDbText
  0
TEXT
  5
841
330
36
100
AcDbEntity
  8
0
 62
     3
100
AcDbText
 10
-256.9124419719708
 20
-27.5035
 30
0.0
 40
3.2
  1
コード
 41
0.8
  7
高3.2
100
AcDbText
  0
LINE
  5
843
330
36
100
AcDbEntity
  8
0
100
AcDbLine
 10
-242.5631502138987
 20
-28.0035
 30
0.0
 11
-242.5631502138987
 21
16.9965
 31
0.0
  0
TEXT
  5
844
330
36
100
AcDbEntity
  8
0
 62
     3
100
AcDbText
 10
-241.0631502138988
 20
7.496500000000001
 30
0.0
 40
3.2
  1
SVCT3.5x3x10M　ポッキン黒
 41
0.6
  7
高3.2
100
AcDbText
  0
TEXT
  5
845
330
36
100
AcDbEntity
  8
0
 62
     3
100
AcDbText
 10
-241.0631502138988
 20
-17.5035
 30
0.0
 40
3.2
  1
HR用パネルアース付イエロー
 41
0.6
  7
高3.2
100
AcDbText
  0
TEXT
  5
846
330
36
100
AcDbEntity
  8
0
 62
     3
100
AcDbText
 10
-241.0631502138988
 20
2.496500000000001
 30
0.0
 40
3.2
  1
ホールプラグ0625
 41
0.6
  7
高3.2
100
AcDbText
  0
TEXT
  5
847
330
36
100
AcDbEntity
  8
0
 62
     3
100
AcDbText
 10
-241.0631502138988
 20
-2.503499999999998
 30
0.0
 40
3.2
  1
HR用線止め
 41
0.6
  7
高3.2
100
AcDbText
  0
TEXT
  5
848
330
36
100
AcDbEntity
  8
0
 62
     3
100
AcDbText
 10
-241.0631502138988
 20
-22.5035
 30
0.0
 40
3.2
  1
HR用本体　ブラウン
 41
0.6
  7
高3.2
100
AcDbText
  0
TEXT
  5
849
330
36
100
AcDbEntity
  8
0
 62
     3
100
AcDbText
 10
-241.0631502138988
 20
12.4965
 30
0.0
 40
3.2
  1
-
 41
0.6
  7
高3.2
100
AcDbText
  0
TEXT
  5
84A
330
36
100
AcDbEntity
  8
0
 62
     3
100
AcDbText
 10
-241.0631502138988
 20
-12.5035
 30
0.0
 40
3.2
  1
100Vシングルランプ(S)
 41
0.6
  7
高3.2
100
AcDbText
  0
TEXT
  5
84B
330
36
100
AcDbEntity
  8
0
 62
     3
100
AcDbText
 10
-241.0631502138988
 20
-7.503499999999997
 30
0.0
 40
3.2
  1
Wコンセント白　下蓋のみ
 41
0.6
  7
高3.2
100
AcDbText
  0
TEXT
  5
84C
330
36
100
AcDbEntity
  8
0
 62
     3
100
AcDbText
 10
-241.0631502138988
 20
-27.5035
 30
0.0
 40
3.2
  1
コード番号名称
 41
0.6
  7
高3.2
100
AcDbText
  0
LINE
  5
897
330
36
100
AcDbEntity
  8
0
100
AcDbLine
 10
-217.77815
 20
203.366177
 30
0.0
 11
-216.549152
 21
201.699818
 31
0.0
  0
LINE
  5
898
330
36
100
AcDbEntity
  8
0
100
AcDbLine
 10
-216.549152
 20
201.699818
 30
0.0
 11
-216.780316
 21
203.757426
 31
0.0
  0
LINE
  5
899
330
36
100
AcDbEntity
  8
0
100
AcDbLine
 10
-182.234767
 20
200.073132
 30
0.0
 11
-181.205905
 21
198.276294
 31
0.0
  0
LINE
  5
89A
330
36
100
AcDbEntity
  8
0
100
AcDbLine
 10
-181.205905
 20
198.276294
 30
0.0
 11
-181.198506
 21
200.346833
 31
0.0
  0
LINE
  5
89B
330
36
100
AcDbEntity
  8
0
100
AcDbLine
 10
-147.255009
 20
208.136868
 30
0.0
 11
-148.087259
 21
206.240939
 31
0.0
  0
LINE
  5
89C
330
36
100
AcDbEntity
  8
0
100
AcDbLine
 10
-148.087259
 20
206.240939
 30
0.0
 11
-146.418545
 21
207.466737
 31
0.0
  0
LINE
  5
89D
330
36
100
AcDbEntity
  8
0
100
AcDbLine
 10
-124.529103
 20
209.51044
 30
0.0
 11
-125.151967
 21
207.535794
 31
0.0
  0
LINE
  5
89E
330
36
100
AcDbEntity
  8
0
100
AcDbLine
 10
-125.151967
 20
207.535794
 30
0.0
 11
-123.625228
 21
208.934455
 31
0.0
  0
LINE
  5
89F
330
36
100
AcDbEntity
  8
0
100
AcDbLine
 10
-231.461793
 20
68.36375100000001
 30
0.0
 11
-230.265134
 21
66.674019
 31
0.0
  0
LINE
  5
8A0
330
36
100
AcDbEntity
  8
0
100
AcDbLine
 10
-230.265134
 20
66.674019
 30
0.0
 11
-230.456605
 21
68.73569899999999
 31
0.0
  0
LINE
  5
8A1
330
36
100
AcDbEntity
  8
0
100
AcDbLine
 10
-212.906801
 20
117.449534
 30
0.0
 11
-214.634073
 21
118.591339
 31
0.0
  0
LINE
  5
8A2
330
36
100
AcDbEntity
  8
0
100
AcDbLine
 10
-214.634073
 20
118.591339
 30
0.0
 11
-213.709114
 21
116.738871
 31
0.0
  0
LINE
  5
8A3
330
36
100
AcDbEntity
  8
0
100
AcDbLine
 10
-147.986362
 20
112.586599
 30
0.0
 11
-146.863142
 21
114.326013
 31
0.0
  0
LINE
  5
8A4
330
36
100
AcDbEntity
  8
0
100
AcDbLine
 10
-146.863142
 20
114.326013
 30
0.0
 11
-148.705587
 21
113.381246
 31
0.0
  0
LINE
  5
8A5
330
36
100
AcDbEntity
  8
0
100
AcDbLine
 10
-133.03687
 20
68.73569899999999
 30
0.0
 11
-133.22834
 21
66.674019
 31
0.0
  0
LINE
  5
8A6
330
36
100
AcDbEntity
  8
0
100
AcDbLine
 10
-133.22834
 20
66.674019
 30
0.0
 11
-132.031682
 21
68.36375100000001
 31
0.0
  0
LINE
  5
8A7
330
36
100
AcDbEntity
  8
0
100
AcDbLine
 10
-31.443981
 20
160.547504
 30
0.0
 11
-29.661446
 21
159.494055
 31
0.0
  0
LINE
  5
8A8
330
36
100
AcDbEntity
  8
0
100
AcDbLine
 10
-29.661446
 20
159.494055
 30
0.0
 11
-30.678442
 21
161.297636
 31
0.0
  0
LINE
  5
8A9
330
36
100
AcDbEntity
  8
0
100
AcDbLine
 10
-226.132669
 20
70.19271299999998
 30
0.0
 11
-226.65545
 21
68.18924399999999
 31
0.0
  0
LINE
  5
8AA
330
36
100
AcDbEntity
  8
0
100
AcDbLine
 10
-226.65545
 20
68.18924399999999
 30
0.0
 11
-225.200974
 21
69.662908
 31
0.0
  0
LINE
  5
8AB
330
36
100
AcDbEntity
  8
0
100
AcDbLine
 10
-138.66688
 20
69.50563000000001
 30
0.0
 11
-137.068658
 21
68.18924399999999
 31
0.0
  0
LINE
  5
8AC
330
36
100
AcDbEntity
  8
0
100
AcDbLine
 10
-137.068658
 20
68.18924399999999
 30
0.0
 11
-137.794566
 21
70.128379
 31
0.0
  0
LINE
  5
8AD
330
36
100
AcDbEntity
  8
0
100
AcDbLine
 10
-223.084083
 20
193.249482
 30
0.0
 11
-223.154897
 21
193.238423
 31
0.0
  0
LINE
  5
8AE
330
36
100
AcDbEntity
  8
0
100
AcDbLine
 10
-223.154897
 20
193.238423
 30
0.0
 11
-223.222704
 21
193.22514
 31
0.0
  0
LINE
  5
8AF
330
36
100
AcDbEntity
  8
0
100
AcDbLine
 10
-223.222704
 20
193.22514
 30
0.0
 11
-223.286982
 21
193.209737
 31
0.0
  0
LINE
  5
8B0
330
36
100
AcDbEntity
  8
0
100
AcDbLine
 10
-223.286982
 20
193.209737
 30
0.0
 11
-223.347232
 21
193.192333
 31
0.0
  0
LINE
  5
8B1
330
36
100
AcDbEntity
  8
0
100
AcDbLine
 10
-223.347232
 20
193.192333
 30
0.0
 11
-223.40299
 21
193.173063
 31
0.0
  0
LINE
  5
8B2
330
36
100
AcDbEntity
  8
0
100
AcDbLine
 10
-223.40299
 20
193.173063
 30
0.0
 11
-223.453824
 21
193.152075
 31
0.0
  0
LINE
  5
8B3
330
36
100
AcDbEntity
  8
0
100
AcDbLine
 10
-223.453824
 20
193.152075
 30
0.0
 11
-223.499342
 21
193.129532
 31
0.0
  0
LINE
  5
8B4
330
36
100
AcDbEntity
  8
0
100
AcDbLine
 10
-223.499342
 20
193.129532
 30
0.0
 11
-223.53919
 21
193.105608
 31
0.0
  0
LINE
  5
8B5
330
36
100
AcDbEntity
  8
0
100
AcDbLine
 10
-223.53919
 20
193.105608
 30
0.0
 11
-223.573063
 21
193.080488
 31
0.0
  0
LINE
  5
8B6
330
36
100
AcDbEntity
  8
0
100
AcDbLine
 10
-223.573063
 20
193.080488
 30
0.0
 11
-223.600697
 21
193.054365
 31
0.0
  0
LINE
  5
8B7
330
36
100
AcDbEntity
  8
0
100
AcDbLine
 10
-223.600697
 20
193.054365
 30
0.0
 11
-223.621879
 21
193.027443
 31
0.0
  0
LINE
  5
8B8
330
36
100
AcDbEntity
  8
0
100
AcDbLine
 10
-223.621879
 20
193.027443
 30
0.0
 11
-223.636446
 21
192.999928
 31
0.0
  0
LINE
  5
8B9
330
36
100
AcDbEntity
  8
0
100
AcDbLine
 10
-223.636446
 20
192.999928
 30
0.0
 11
-223.644284
 21
192.972035
 31
0.0
  0
LINE
  5
8BA
330
36
100
AcDbEntity
  8
0
100
AcDbLine
 10
-223.644284
 20
192.972035
 30
0.0
 11
-223.645334
 21
192.943977
 31
0.0
  0
LINE
  5
8BB
330
36
100
AcDbEntity
  8
0
100
AcDbLine
 10
-223.645334
 20
192.943977
 30
0.0
 11
-223.639587
 21
192.915973
 31
0.0
  0
LINE
  5
8BC
330
36
100
AcDbEntity
  8
0
100
AcDbLine
 10
-223.639587
 20
192.915973
 30
0.0
 11
-223.627087
 21
192.888238
 31
0.0
  0
LINE
  5
8BD
330
36
100
AcDbEntity
  8
0
100
AcDbLine
 10
-223.627087
 20
192.888238
 30
0.0
 11
-223.607931
 21
192.860987
 31
0.0
  0
LINE
  5
8BE
330
36
100
AcDbEntity
  8
0
100
AcDbLine
 10
-223.607931
 20
192.860987
 30
0.0
 11
-223.582268
 21
192.834431
 31
0.0
  0
LINE
  5
8BF
330
36
100
AcDbEntity
  8
0
100
AcDbLine
 10
-223.582268
 20
192.834431
 30
0.0
 11
-223.550295
 21
192.808775
 31
0.0
  0
LINE
  5
8C0
330
36
100
AcDbEntity
  8
0
100
AcDbLine
 10
-223.550295
 20
192.808775
 30
0.0
 11
-223.51226
 21
192.784217
 31
0.0
  0
LINE
  5
8C1
330
36
100
AcDbEntity
  8
0
100
AcDbLine
 10
-223.51226
 20
192.784217
 30
0.0
 11
-223.468456
 21
192.760947
 31
0.0
  0
LINE
  5
8C2
330
36
100
AcDbEntity
  8
0
100
AcDbLine
 10
-223.468456
 20
192.760947
 30
0.0
 11
-223.419223
 21
192.739145
 31
0.0
  0
LINE
  5
8C3
330
36
100
AcDbEntity
  8
0
100
AcDbLine
 10
-223.419223
 20
192.739145
 30
0.0
 11
-223.364941
 21
192.71898
 31
0.0
  0
LINE
  5
8C4
330
36
100
AcDbEntity
  8
0
100
AcDbLine
 10
-223.364941
 20
192.71898
 30
0.0
 11
-223.306029
 21
192.700606
 31
0.0
  0
LINE
  5
8C5
330
36
100
AcDbEntity
  8
0
100
AcDbLine
 10
-223.306029
 20
192.700606
 30
0.0
 11
-223.242942
 21
192.684167
 31
0.0
  0
LINE
  5
8C6
330
36
100
AcDbEntity
  8
0
100
AcDbLine
 10
-223.242942
 20
192.684167
 30
0.0
 11
-223.176169
 21
192.6697889999999
 31
0.0
  0
LINE
  5
8C7
330
36
100
AcDbEntity
  8
0
100
AcDbLine
 10
-223.176169
 20
192.6697889999999
 30
0.0
 11
-223.106226
 21
192.657584
 31
0.0
  0
LINE
  5
8C8
330
36
100
AcDbEntity
  8
0
100
AcDbLine
 10
-223.106226
 20
192.657584
 30
0.0
 11
-223.033653
 21
192.647646
 31
0.0
  0
LINE
  5
8C9
330
36
100
AcDbEntity
  8
0
100
AcDbLine
 10
-223.033653
 20
192.647646
 30
0.0
 11
-222.95901
 21
192.640051
 31
0.0
  0
LINE
  5
8CA
330
36
100
AcDbEntity
  8
0
100
AcDbLine
 10
-222.95901
 20
192.640051
 30
0.0
 11
-222.882876
 21
192.634858
 31
0.0
  0
LINE
  5
8CB
330
36
100
AcDbEntity
  8
0
100
AcDbLine
 10
-222.882876
 20
192.634858
 30
0.0
 11
-222.805839
 21
192.632109
 31
0.0
  0
LINE
  5
8CC
330
36
100
AcDbEntity
  8
0
100
AcDbLine
 10
-222.805839
 20
192.632109
 30
0.0
 11
-222.728493
 21
192.631822
 31
0.0
  0
LINE
  5
8CD
330
36
100
AcDbEntity
  8
0
100
AcDbLine
 10
-222.728493
 20
192.631822
 30
0.0
 11
-222.651437
 21
192.634002
 31
0.0
  0
LINE
  5
8CE
330
36
100
AcDbEntity
  8
0
100
AcDbLine
 10
-222.651437
 20
192.634002
 30
0.0
 11
-222.575266
 21
192.638631
 31
0.0
  0
LINE
  5
8CF
330
36
100
AcDbEntity
  8
0
100
AcDbLine
 10
-222.575266
 20
192.638631
 30
0.0
 11
-222.50057
 21
192.645673
 31
0.0
  0
LINE
  5
8D0
330
36
100
AcDbEntity
  8
0
100
AcDbLine
 10
-222.50057
 20
192.645673
 30
0.0
 11
-222.427925
 21
192.655074
 31
0.0
  0
LINE
  5
8D1
330
36
100
AcDbEntity
  8
0
100
AcDbLine
 10
-222.427925
 20
192.655074
 30
0.0
 11
-222.357893
 21
192.666762
 31
0.0
  0
LINE
  5
8D2
330
36
100
AcDbEntity
  8
0
100
AcDbLine
 10
-222.357893
 20
192.666762
 30
0.0
 11
-222.291016
 21
192.680645
 31
0.0
  0
LINE
  5
8D3
330
36
100
AcDbEntity
  8
0
100
AcDbLine
 10
-222.291016
 20
192.680645
 30
0.0
 11
-222.227809
 21
192.696617
 31
0.0
  0
LINE
  5
8D4
330
36
100
AcDbEntity
  8
0
100
AcDbLine
 10
-222.227809
 20
192.696617
 30
0.0
 11
-222.168763
 21
192.714554
 31
0.0
  0
LINE
  5
8D5
330
36
100
AcDbEntity
  8
0
100
AcDbLine
 10
-222.168763
 20
192.714554
 30
0.0
 11
-222.114333
 21
192.734317
 31
0.0
  0
LINE
  5
8D6
330
36
100
AcDbEntity
  8
0
100
AcDbLine
 10
-222.114333
 20
192.734317
 30
0.0
 11
-222.06494
 21
192.755754
 31
0.0
  0
LINE
  5
8D7
330
36
100
AcDbEntity
  8
0
100
AcDbLine
 10
-222.06494
 20
192.755754
 30
0.0
 11
-222.020965
 21
192.778699
 31
0.0
  0
LINE
  5
8D8
330
36
100
AcDbEntity
  8
0
100
AcDbLine
 10
-222.020965
 20
192.778699
 30
0.0
 11
-221.982749
 21
192.802975
 31
0.0
  0
LINE
  5
8D9
330
36
100
AcDbEntity
  8
0
100
AcDbLine
 10
-221.982749
 20
192.802975
 30
0.0
 11
-221.950588
 21
192.828394
 31
0.0
  0
LINE
  5
8DA
330
36
100
AcDbEntity
  8
0
100
AcDbLine
 10
-221.950588
 20
192.828394
 30
0.0
 11
-221.924728
 21
192.854759
 31
0.0
  0
LINE
  5
8DB
330
36
100
AcDbEntity
  8
0
100
AcDbLine
 10
-221.924728
 20
192.854759
 30
0.0
 11
-221.905371
 21
192.881868
 31
0.0
  0
LINE
  5
8DC
330
36
100
AcDbEntity
  8
0
100
AcDbLine
 10
-221.905371
 20
192.881868
 30
0.0
 11
-221.892667
 21
192.909509
 31
0.0
  0
LINE
  5
8DD
330
36
100
AcDbEntity
  8
0
100
AcDbLine
 10
-221.892667
 20
192.909509
 30
0.0
 11
-221.886712
 21
192.93747
 31
0.0
  0
LINE
  5
8DE
330
36
100
AcDbEntity
  8
0
100
AcDbLine
 10
-221.886712
 20
192.93747
 30
0.0
 11
-221.887554
 21
192.965535
 31
0.0
  0
LINE
  5
8DF
330
36
100
AcDbEntity
  8
0
100
AcDbLine
 10
-221.887554
 20
192.965535
 30
0.0
 11
-221.895186
 21
192.993486
 31
0.0
  0
LINE
  5
8E0
330
36
100
AcDbEntity
  8
0
100
AcDbLine
 10
-221.895186
 20
192.993486
 30
0.0
 11
-221.909549
 21
193.021107
 31
0.0
  0
LINE
  5
8E1
330
36
100
AcDbEntity
  8
0
100
AcDbLine
 10
-221.909549
 20
193.021107
 30
0.0
 11
-221.930531
 21
193.048186
 31
0.0
  0
LINE
  5
8E2
330
36
100
AcDbEntity
  8
0
100
AcDbLine
 10
-221.930531
 20
193.048186
 30
0.0
 11
-221.957971
 21
193.074512
 31
0.0
  0
LINE
  5
8E3
330
36
100
AcDbEntity
  8
0
100
AcDbLine
 10
-221.957971
 20
193.074512
 30
0.0
 11
-221.991657
 21
193.099882
 31
0.0
  0
LINE
  5
8E4
330
36
100
AcDbEntity
  8
0
100
AcDbLine
 10
-221.991657
 20
193.099882
 30
0.0
 11
-222.031328
 21
193.124101
 31
0.0
  0
LINE
  5
8E5
330
36
100
AcDbEntity
  8
0
100
AcDbLine
 10
-222.031328
 20
193.124101
 30
0.0
 11
-222.076677
 21
193.14698
 31
0.0
  0
LINE
  5
8E6
330
36
100
AcDbEntity
  8
0
100
AcDbLine
 10
-222.076677
 20
193.14698
 30
0.0
 11
-222.127354
 21
193.168343
 31
0.0
  0
LINE
  5
8E7
330
36
100
AcDbEntity
  8
0
100
AcDbLine
 10
-222.127354
 20
193.168343
 30
0.0
 11
-222.182968
 21
193.188026
 31
0.0
  0
LINE
  5
8E8
330
36
100
AcDbEntity
  8
0
100
AcDbLine
 10
-222.182968
 20
193.188026
 30
0.0
 11
-222.243088
 21
193.205875
 31
0.0
  0
LINE
  5
8E9
330
36
100
AcDbEntity
  8
0
100
AcDbLine
 10
-222.243088
 20
193.205875
 30
0.0
 11
-222.30725
 21
193.221753
 31
0.0
  0
LINE
  5
8EA
330
36
100
AcDbEntity
  8
0
100
AcDbLine
 10
-222.30725
 20
193.221753
 30
0.0
 11
-222.374957
 21
193.235537
 31
0.0
  0
LINE
  5
8EB
330
36
100
AcDbEntity
  8
0
100
AcDbLine
 10
-222.374957
 20
193.235537
 30
0.0
 11
-222.445687
 21
193.24712
 31
0.0
  0
LINE
  5
8EC
330
36
100
AcDbEntity
  8
0
100
AcDbLine
 10
-45.51692199999999
 20
140.986386
 30
0.0
 11
-44.216299
 21
141.442647
 31
0.0
  0
LINE
  5
8ED
330
36
100
AcDbEntity
  8
0
100
AcDbLine
 10
-44.216299
 20
141.442647
 30
0.0
 11
-43.07909699999998
 21
141.379322
 31
0.0
  0
LINE
  5
8EE
330
36
100
AcDbEntity
  8
0
100
AcDbLine
 10
-43.07909699999998
 20
141.379322
 30
0.0
 11
-42.471105
 21
140.862422
 31
0.0
  0
LINE
  5
8EF
330
36
100
AcDbEntity
  8
0
100
AcDbLine
 10
-42.471105
 20
140.862422
 30
0.0
 11
-41.93688499999999
 21
140.117816
 31
0.0
  0
LINE
  5
8F0
330
36
100
AcDbEntity
  8
0
100
AcDbLine
 10
-45.513455
 20
139.933167
 30
0.0
 11
-44.396149
 21
140.346907
 31
0.0
  0
LINE
  5
8F1
330
36
100
AcDbEntity
  8
0
100
AcDbLine
 10
-44.396149
 20
140.346907
 30
0.0
 11
-43.43087899999999
 21
140.277948
 31
0.0
  0
LINE
  5
8F2
330
36
100
AcDbEntity
  8
0
100
AcDbLine
 10
-43.43087899999999
 20
140.277948
 30
0.0
 11
-43.033649
 21
139.926799
 31
0.0
  0
LINE
  5
8F3
330
36
100
AcDbEntity
  8
0
100
AcDbLine
 10
-43.033649
 20
139.926799
 30
0.0
 11
-42.67817199999997
 21
139.446628
 31
0.0
  0
LINE
  5
8F4
330
36
100
AcDbEntity
  8
0
100
AcDbLine
 10
-48.52267
 20
140.117816
 30
0.0
 11
-47.439042
 21
140.3367669999999
 31
0.0
  0
LINE
  5
8F5
330
36
100
AcDbEntity
  8
0
100
AcDbLine
 10
-47.439042
 20
140.3367669999999
 30
0.0
 11
-46.314158
 21
140.667224
 31
0.0
  0
LINE
  5
8F6
330
36
100
AcDbEntity
  8
0
100
AcDbLine
 10
-46.314158
 20
140.667224
 30
0.0
 11
-45.917959
 21
140.820942
 31
0.0
  0
LINE
  5
8F7
330
36
100
AcDbEntity
  8
0
100
AcDbLine
 10
-45.917959
 20
140.820942
 30
0.0
 11
-45.51692199999999
 21
140.986386
 31
0.0
  0
LINE
  5
8F8
330
36
100
AcDbEntity
  8
0
100
AcDbLine
 10
-48.281259
 20
139.147393
 30
0.0
 11
-47.20797
 21
139.353911
 31
0.0
  0
LINE
  5
8F9
330
36
100
AcDbEntity
  8
0
100
AcDbLine
 10
-47.20797
 20
139.353911
 30
0.0
 11
-46.085925
 21
139.693523
 31
0.0
  0
LINE
  5
8FA
330
36
100
AcDbEntity
  8
0
100
AcDbLine
 10
-46.085925
 20
139.693523
 30
0.0
 11
-45.801262
 21
139.809419
 31
0.0
  0
LINE
  5
8FB
330
36
100
AcDbEntity
  8
0
100
AcDbLine
 10
-45.801262
 20
139.809419
 30
0.0
 11
-45.513455
 21
139.933167
 31
0.0
  0
LINE
  5
8FC
330
36
100
AcDbEntity
  8
0
100
AcDbLine
 10
-81.553073
 20
147.295984
 30
0.0
 11
-82.499408
 21
145.430083
 31
0.0
  0
LINE
  5
8FD
330
36
100
AcDbEntity
  8
0
100
AcDbLine
 10
-82.499408
 20
145.430083
 30
0.0
 11
-82.63805899999999
 21
143.621896
 31
0.0
  0
LINE
  5
8FE
330
36
100
AcDbEntity
  8
0
100
AcDbLine
 10
-82.63805899999999
 20
143.621896
 30
0.0
 11
-82.12838299999999
 21
142.580782
 31
0.0
  0
LINE
  5
8FF
330
36
100
AcDbEntity
  8
0
100
AcDbLine
 10
-82.12838299999999
 20
142.580782
 30
0.0
 11
-81.648195
 21
141.547046
 31
0.0
  0
LINE
  5
900
330
36
100
AcDbEntity
  8
0
100
AcDbLine
 10
-81.648195
 20
141.547046
 30
0.0
 11
-81.91049599999997
 21
139.856381
 31
0.0
  0
LINE
  5
901
330
36
100
AcDbEntity
  8
0
100
AcDbLine
 10
-81.91049599999997
 20
139.856381
 30
0.0
 11
-82.98882199999999
 21
138.131571
 31
0.0
  0
LINE
  5
902
330
36
100
AcDbEntity
  8
0
100
AcDbLine
 10
-33.06005300000001
 20
163.503838
 30
0.0
 11
-31.606525
 21
164.692717
 31
0.0
  0
LINE
  5
903
330
36
100
AcDbEntity
  8
0
100
AcDbLine
 10
-31.606525
 20
164.692717
 30
0.0
 11
-30.057764
 21
165.260623
 31
0.0
  0
LINE
  5
904
330
36
100
AcDbEntity
  8
0
100
AcDbLine
 10
-30.057764
 20
165.260623
 30
0.0
 11
-28.58646
 21
164.982061
 31
0.0
  0
LINE
  5
905
330
36
100
AcDbEntity
  8
0
100
AcDbLine
 10
-28.58646
 20
164.982061
 30
0.0
 11
-27.088173
 21
164.65422
 31
0.0
  0
LINE
  5
906
330
36
100
AcDbEntity
  8
0
100
AcDbLine
 10
-27.088173
 20
164.65422
 30
0.0
 11
-25.511977
 21
165.02088
 31
0.0
  0
LINE
  5
907
330
36
100
AcDbEntity
  8
0
100
AcDbLine
 10
-25.511977
 20
165.02088
 30
0.0
 11
-23.990762
 21
165.899724
 31
0.0
  0
LINE
  5
908
330
36
100
AcDbEntity
  8
0
100
AcDbLine
 10
-181.12141
 20
178.59438
 30
0.0
 11
-287.490447
 21
178.59438
 31
0.0
  0
LINE
  5
909
330
36
100
AcDbEntity
  8
0
100
AcDbLine
 10
-181.12141
 20
212.59438
 30
0.0
 11
-287.490447
 21
212.59438
 31
0.0
  0
LINE
  5
90A
330
36
100
AcDbEntity
  8
0
100
AcDbLine
 10
-286.240447
 20
181.09438
 30
0.0
 11
-286.240447
 21
210.09438
 31
0.0
  0
LINE
  5
90E
330
36
100
AcDbEntity
  8
0
100
AcDbLine
 10
-268.37141
 20
192.456454
 30
0.0
 11
-268.37141
 21
168.949168
 31
0.0
  0
LINE
  5
90F
330
36
100
AcDbEntity
  8
0
100
AcDbLine
 10
-93.37141
 20
192.456454
 30
0.0
 11
-93.37141
 21
168.949168
 31
0.0
  0
LINE
  5
910
330
36
100
AcDbEntity
  8
0
100
AcDbLine
 10
-265.87141
 20
170.199168
 30
0.0
 11
-95.87141
 21
170.199168
 31
0.0
  0
LINE
  5
914
330
36
100
AcDbEntity
  8
0
100
AcDbLine
 10
-257.292272
 20
180.725221
 30
0.0
 11
-279.056275
 21
180.725221
 31
0.0
  0
LINE
  5
915
330
36
100
AcDbEntity
  8
0
100
AcDbLine
 10
-257.292272
 20
210.46354
 30
0.0
 11
-279.056275
 21
210.46354
 31
0.0
  0
LINE
  5
916
330
36
100
AcDbEntity
  8
0
100
AcDbLine
 10
-277.806275
 20
183.225221
 30
0.0
 11
-277.806275
 21
207.96354
 31
0.0
  0
LINE
  5
91A
330
36
100
AcDbEntity
  8
0
100
AcDbLine
 10
-266.12141
 20
98.326013
 30
0.0
 11
-280.8552060000001
 21
98.326013
 31
0.0
  0
LINE
  5
91B
330
36
100
AcDbEntity
  8
0
100
AcDbLine
 10
-266.12141
 20
157.337123
 30
0.0
 11
-280.855206
 21
157.337123
 31
0.0
  0
LINE
  5
91C
330
36
100
AcDbEntity
  8
0
100
AcDbLine
 10
-279.605206
 20
100.826013
 30
0.0
 11
-279.605206
 21
154.837123
 31
0.0
  0
TEXT
  5
920
330
36
100
AcDbEntity
  8
0
  6
Continuous
 62
     4
100
AcDbText
 10
-286.8654470000001
 20
193.09438
 30
0.0
 40
3.0
  1
68
 50
90.0
100
AcDbText
  0
LINE
  5
921
330
36
100
AcDbEntity
  8
0
  6
ByBlock
 62
     0
370
    -2
100
AcDbLine
 10
-286.9103195
 20
210.09438
 30
0.0
 11
-286.240447
 21
212.59438
 31
0.0
  0
LINE
  5
922
330
36
100
AcDbEntity
  8
0
  6
ByBlock
 62
     0
370
    -2
100
AcDbLine
 10
-286.240447
 20
212.59438
 30
0.0
 11
-285.5705745
 21
210.09438
 31
0.0
  0
LINE
  5
923
330
36
100
AcDbEntity
  8
0
  6
ByBlock
 62
     0
370
    -2
100
AcDbLine
 10
-286.240447
 20
212.59438
 30
0.0
 11
-286.240447
 21
210.09438
 31
0.0
  0
LINE
  5
924
330
36
100
AcDbEntity
  8
0
  6
ByBlock
 62
     0
370
    -2
100
AcDbLine
 10
-285.5705745
 20
181.09438
 30
0.0
 11
-286.240447
 21
178.59438
 31
0.0
  0
LINE
  5
925
330
36
100
AcDbEntity
  8
0
  6
ByBlock
 62
     0
370
    -2
100
AcDbLine
 10
-286.240447
 20
178.59438
 30
0.0
 11
-286.9103195
 21
181.09438
 31
0.0
  0
LINE
  5
926
330
36
100
AcDbEntity
  8
0
  6
ByBlock
 62
     0
370
    -2
100
AcDbLine
 10
-286.240447
 20
178.59438
 30
0.0
 11
-286.240447
 21
181.09438
 31
0.0
  0
TEXT
  5
927
330
36
100
AcDbEntity
  8
0
  6
Continuous
 62
     4
100
AcDbText
 10
-184.62141
 20
170.824168
 30
0.0
 40
3.0
  1
350
100
AcDbText
  0
LINE
  5
928
330
36
100
AcDbEntity
  8
0
  6
ByBlock
 62
     0
370
    -2
100
AcDbLine
 10
-95.87141
 20
170.8690405
 30
0.0
 11
-93.37141
 21
170.199168
 31
0.0
  0
LINE
  5
929
330
36
100
AcDbEntity
  8
0
  6
ByBlock
 62
     0
370
    -2
100
AcDbLine
 10
-93.37141
 20
170.199168
 30
0.0
 11
-95.87141
 21
169.5292955
 31
0.0
  0
LINE
  5
92A
330
36
100
AcDbEntity
  8
0
  6
ByBlock
 62
     0
370
    -2
100
AcDbLine
 10
-93.37141
 20
170.199168
 30
0.0
 11
-95.87141
 21
170.199168
 31
0.0
  0
LINE
  5
92B
330
36
100
AcDbEntity
  8
0
  6
ByBlock
 62
     0
370
    -2
100
AcDbLine
 10
-265.87141
 20
169.5292955
 30
0.0
 11
-268.37141
 21
170.199168
 31
0.0
  0
LINE
  5
92C
330
36
100
AcDbEntity
  8
0
  6
ByBlock
 62
     0
370
    -2
100
AcDbLine
 10
-268.37141
 20
170.199168
 30
0.0
 11
-265.87141
 21
170.8690405
 31
0.0
  0
LINE
  5
92D
330
36
100
AcDbEntity
  8
0
  6
ByBlock
 62
     0
370
    -2
100
AcDbLine
 10
-268.37141
 20
170.199168
 30
0.0
 11
-265.87141
 21
170.199168
 31
0.0
  0
TEXT
  5
92E
330
36
100
AcDbEntity
  8
0
  6
Continuous
 62
     4
100
AcDbText
 10
-278.4312750000001
 20
193.3443804999999
 30
0.0
 40
3.0
  1
60
 50
90.0
100
AcDbText
  0
LINE
  5
92F
330
36
100
AcDbEntity
  8
0
  6
ByBlock
 62
     0
370
    -2
100
AcDbLine
 10
-278.4761475
 20
207.96354
 30
0.0
 11
-277.806275
 21
210.46354
 31
0.0
  0
LINE
  5
930
330
36
100
AcDbEntity
  8
0
  6
ByBlock
 62
     0
370
    -2
100
AcDbLine
 10
-277.806275
 20
210.46354
 30
0.0
 11
-277.1364025
 21
207.96354
 31
0.0
  0
LINE
  5
931
330
36
100
AcDbEntity
  8
0
  6
ByBlock
 62
     0
370
    -2
100
AcDbLine
 10
-277.806275
 20
210.46354
 30
0.0
 11
-277.806275
 21
207.96354
 31
0.0
  0
LINE
  5
932
330
36
100
AcDbEntity
  8
0
  6
ByBlock
 62
     0
370
    -2
100
AcDbLine
 10
-277.1364025
 20
183.225221
 30
0.0
 11
-277.806275
 21
180.725221
 31
0.0
  0
LINE
  5
933
330
36
100
AcDbEntity
  8
0
  6
ByBlock
 62
     0
370
    -2
100
AcDbLine
 10
-277.806275
 20
180.725221
 30
0.0
 11
-278.4761475
 21
183.225221
 31
0.0
  0
LINE
  5
934
330
36
100
AcDbEntity
  8
0
  6
ByBlock
 62
     0
370
    -2
100
AcDbLine
 10
-277.806275
 20
180.725221
 30
0.0
 11
-277.806275
 21
183.225221
 31
0.0
  0
TEXT
  5
935
330
36
100
AcDbEntity
  8
0
  6
Continuous
 62
     4
100
AcDbText
 10
-280.230206
 20
124.8315679999999
 30
0.0
 40
3.0
  1
118
 50
90.0
100
AcDbText
  0
LINE
  5
936
330
36
100
AcDbEntity
  8
0
  6
ByBlock
 62
     0
370
    -2
100
AcDbLine
 10
-280.2750785
 20
154.837123
 30
0.0
 11
-279.605206
 21
157.337123
 31
0.0
  0
LINE
  5
937
330
36
100
AcDbEntity
  8
0
  6
ByBlock
 62
     0
370
    -2
100
AcDbLine
 10
-279.605206
 20
157.337123
 30
0.0
 11
-278.9353335
 21
154.837123
 31
0.0
  0
LINE
  5
938
330
36
100
AcDbEntity
  8
0
  6
ByBlock
 62
     0
370
    -2
100
AcDbLine
 10
-279.605206
 20
157.337123
 30
0.0
 11
-279.605206
 21
154.837123
 31
0.0
  0
LINE
  5
939
330
36
100
AcDbEntity
  8
0
  6
ByBlock
 62
     0
370
    -2
100
AcDbLine
 10
-278.9353335000001
 20
100.826013
 30
0.0
 11
-279.605206
 21
98.326013
 31
0.0
  0
LINE
  5
93A
330
36
100
AcDbEntity
  8
0
  6
ByBlock
 62
     0
370
    -2
100
AcDbLine
 10
-279.605206
 20
98.326013
 30
0.0
 11
-280.2750785
 21
100.826013
 31
0.0
  0
LINE
  5
93B
330
36
100
AcDbEntity
  8
0
  6
ByBlock
 62
     0
370
    -2
100
AcDbLine
 10
-279.605206
 20
98.326013
 30
0.0
 11
-279.605206
 21
100.826013
 31
0.0
  0
ENDSEC
  0
SECTION
  2
OBJECTS
  0
DICTIONARY
  5
C
330
0
100
AcDbDictionary
281
     1
  3
ACAD_2007HEADERVARS_RT
350
93F
  3
ACAD_COLOR
350
2F
  3
ACAD_GROUP
350
D
  3
ACAD_LAYOUT
350
2E
  3
ACAD_MATERIAL
350
10
  3
ACAD_MLEADERSTYLE
350
55D
  3
ACAD_MLINESTYLE
350
2B
  3
ACAD_PLOTSETTINGS
350
2D
  3
ACAD_PLOTSTYLENAME
350
E
  3
ACAD_SCALELIST
350
54B
  3
ACAD_TABLESTYLE
350
30
  3
ACAD_VISUALSTYLE
350
14
  3
ACDB_RECOMPOSE_DATA
350
93D
  3
AcDbVariableDictionary
350
52B
  3
DWGPROPS
350
93E
  0
DICTIONARY
  5
606
330
2
100
AcDbDictionary
280
     1
281
     1
  3
ACAD_LAYERSTATES
360
607
  0
DICTIONARY
  5
7C6
330
25
100
AcDbDictionary
280
     1
281
     1
  3
ADSK_XREC_LAYER_RECONCILED
360
7C7
  0
DICTIONARY
  5
792
330
36
100
AcDbDictionary
280
     1
281
     1
  3
ACAD_SORTENTS
360
793
  0
DICTIONARY
  5
93F
102
{ACAD_REACTORS
330
C
102
}
330
C
100
AcDbDictionary
281
     1
  3
DIMARCSYM
350
941
  3
DIMFXL
350
940
  3
DIMJOGANG
350
942
  0
DICTIONARY
  5
2F
102
{ACAD_REACTORS
330
C
102
}
330
C
100
AcDbDictionary
281
     1
  0
DICTIONARY
  5
D
102
{ACAD_REACTORS
330
C
102
}
330
C
100
AcDbDictionary
281
     1
  0
DICTIONARY
  5
2E
102
{ACAD_REACTORS
330
C
102
}
330
C
100
AcDbDictionary
281
     1
  3
Model
350
39
  3
レイアウト1
350
35
  0
DICTIONARY
  5
10
102
{ACAD_REACTORS
330
C
102
}
330
C
100
AcDbDictionary
281
     1
  3
ByBlock
350
12
  3
ByLayer
350
11
  3
Global
350
13
  0
DICTIONARY
  5
55D
102
{ACAD_REACTORS
330
C
102
}
330
C
100
AcDbDictionary
281
     1
  3
Standard
350
55E
  0
DICTIONARY
  5
2B
102
{ACAD_REACTORS
330
C
102
}
330
C
100
AcDbDictionary
281
     1
  3
Standard
350
2C
  0
DICTIONARY
  5
2D
102
{ACAD_REACTORS
330
C
102
}
330
C
100
AcDbDictionary
281
     1
  0
ACDBDICTIONARYWDFLT
  5
E
102
{ACAD_REACTORS
330
C
102
}
330
C
100
AcDbDictionary
281
     1
  3
Normal
350
F
100
AcDbDictionaryWithDefault
340
F
  0
DICTIONARY
  5
54B
102
{ACAD_REACTORS
330
C
102
}
330
C
100
AcDbDictionary
281
     1
  3
A0
350
54C
  3
A1
350
54D
  3
A2
350
54E
  3
A3
350
54F
  3
A4
350
550
  3
A5
350
551
  3
A6
350
552
  3
A7
350
553
  3
A8
350
554
  3
A9
350
555
  3
B0
350
556
  3
B1
350
557
  3
B2
350
558
  3
B3
350
559
  3
B4
350
55A
  3
B5
350
55B
  3
B6
350
55C
  0
DICTIONARY
  5
30
102
{ACAD_REACTORS
330
C
102
}
330
C
100
AcDbDictionary
281
     1
  3
Standard
350
31
  0
DICTIONARY
  5
14
102
{ACAD_REACTORS
330
C
102
}
330
C
100
AcDbDictionary
281
     1
  3
2dWireframe
350
1A
  3
3D Hidden
350
1C
  3
3dWireframe
350
1B
  3
Basic
350
19
  3
Brighten
350
20
  3
ColorChange
350
24
  3
Conceptual
350
1D
  3
Dim
350
1F
  3
EdgeColorOff
350
54A
  3
Facepattern
350
23
  3
Flat
350
15
  3
FlatWithEdges
350
16
  3
Gouraud
350
17
  3
GouraudWithEdges
350
18
  3
Hidden
350
542
  3
JitterOff
350
548
  3
Linepattern
350
22
  3
OverhangOff
350
549
  3
Realistic
350
1E
  3
Shaded
350
547
  3
Shaded with edges
350
546
  3
Shades of Gray
350
543
  3
Sketchy
350
544
  3
Thicken
350
21
  3
Wireframe
350
541
  3
X-Ray
350
545
  0
XRECORD
  5
93D
102
{ACAD_REACTORS
330
C
102
}
330
C
100
AcDbXrecord
280
     1
 90
        1
330
31
  0
DICTIONARY
  5
52B
102
{ACAD_REACTORS
330
C
102
}
330
C
100
AcDbDictionary
281
     1
  3
CANNOSCALE
350
7C9
  3
CMLEADERSTYLE
350
7C8
  3
CTABLESTYLE
350
52C
  3
DIMASSOC
350
52F
  3
INDEXCTL
350
52E
  3
SORTENTS
350
52D
  3
XCLIPFRAME
350
84D
  0
XRECORD
  5
93E
102
{ACAD_REACTORS
330
C
102
}
330
C
100
AcDbXrecord
280
     1
  1
DWGPROPS COOKIE
  2

  3

  4

  6

  7

  8
imamura
  9

300
=
301
=
302
=
303
=
304
=
305
=
306
=
307
=
308
=
309
=
 40
0.0562304398148148
 41
2455646.753243113
 42
2456667.847624283
  1

 90
        0
  0
DICTIONARY
  5
607
102
{ACAD_REACTORS
330
606
102
}
330
606
100
AcDbDictionary
281
     1
  0
XRECORD
  5
7C7
102
{ACAD_REACTORS
330
7C6
102
}
330
7C6
100
AcDbXrecord
280
     1
290
     1
  0
SORTENTSTABLE
  5
793
102
{ACAD_REACTORS
330
792
102
}
330
792
100
AcDbSortentsTable
330
36
331
9E
  5
E5
331
9A
  5
E1
331
24E
  5
2B0
331
1D4
  5
21C
331
20F
  5
24D
331
2C4
  5
314
331
24A
  5
2AC
331
1D0
  5
20D
331
20B
  5
24B
331
2FF
  5
356
331
246
  5
2A8
331
1CC
  5
208
331
33A
  5
3D3
331
2C0
  5
310
331
2FB
  5
352
331
242
  5
2A4
331
1C8
  5
204
331
375
  5
407
331
2BC
  5
30C
331
4DF
  5
8D5
331
336
  5
3CF
331
371
  5
403
331
2B8
  5
308
331
4DB
  5
8D1
331
332
  5
3CB
331
516
  5
900
331
4D7
  5
8CD
331
512
  5
8FC
331
4D3
  5
8C9
331
15E
  5
192
331
E4
  5
118
331
8CD
  5
42D
331
11F
  5
153
331
E0
  5
114
331
15A
  5
18E
331
909
  5
D1
331
8C9
  5
429
331
11B
  5
14F
331
905
  5
2BA
331
DC
  5
110
331
195
  5
1C9
331
156
  5
18A
331
901
  5
2C2
331
D8
  5
10C
331
191
  5
1C5
331
466
  5
644
331
3EC
  5
485
331
152
  5
186
331
427
  5
4DF
331
462
  5
640
331
3E8
  5
481
331
423
  5
4DB
331
45E
  5
63C
331
3E4
  5
473
331
45A
  5
526
331
3E0
  5
46F
331
94
  5
DB
331
207
  5
247
331
203
  5
243
331
2F7
  5
34E
331
23E
  5
2A0
331
1C4
  5
200
331
1FF
  5
23F
331
2F3
  5
34A
331
23A
  5
29C
331
1C0
  5
1F8
331
36D
  5
3FF
331
2B4
  5
304
331
32E
  5
3C7
331
2EF
  5
346
331
236
  5
298
331
1BC
  5
1F4
331
369
  5
3FB
331
2B0
  5
300
331
32A
  5
3C3
331
2EB
  5
33B
331
232
  5
294
331
1B8
  5
1F0
331
365
  5
3F7
331
2AC
  5
2FC
331
4CF
  5
8C5
331
326
  5
3BF
331
361
  5
3F3
331
2A8
  5
2F8
331
50A
  5
8F7
331
322
  5
379
331
4CB
  5
8C1
331
4C7
  5
8BD
331
502
  5
8F2
331
64D
  5
925
331
4C3
  5
8B9
331
8C5
  5
425
331
117
  5
14B
331
649
  5
921
331
8C1
  5
421
331
113
  5
147
331
8FD
  5
2BE
331
D4
  5
108
331
18D
  5
1C1
331
14E
  5
182
331
8BD
  5
41D
331
10F
  5
143
331
D0
  5
104
331
8F9
  5
2CC
331
938
  5
A1
331
14A
  5
17E
331
189
  5
1BD
331
8B9
  5
419
331
10B
  5
13F
331
CC
  5
100
331
8F5
  5
2D0
331
934
  5
C1
331
185
  5
1B9
331
41F
  5
4D7
331
146
  5
17A
331
C8
  5
FC
331
8F1
  5
2D4
331
930
  5
C3
331
181
  5
1B5
331
41B
  5
4D3
331
142
  5
176
331
456
  5
522
331
3DC
  5
46B
331
417
  5
4CF
331
452
  5
51E
331
3D8
  5
467
331
413
  5
4CB
331
44E
  5
51A
331
3D4
  5
463
331
44A
  5
516
331
3D0
  5
45F
331
528
  5
912
331
1F7
  5
23B
331
1F3
  5
237
331
26D
  5
2C9
331
1B4
  5
1E8
331
2E7
  5
337
331
22E
  5
290
331
1EF
  5
233
331
269
  5
2C5
331
1B0
  5
1E4
331
2E3
  5
333
331
22A
  5
28C
331
35D
  5
3EF
331
2A4
  5
2F4
331
31E
  5
375
331
1EB
  5
231
331
2DF
  5
32F
331
226
  5
26C
331
1AC
  5
1E0
331
359
  5
3EB
331
2A0
  5
2F0
331
31A
  5
371
331
2DB
  5
32B
331
222
  5
268
331
1A8
  5
1DC
331
355
  5
3E7
331
29C
  5
2EC
331
4BF
  5
8B5
331
316
  5
36D
331
351
  5
3E3
331
298
  5
2E8
331
4FA
  5
8ED
331
312
  5
369
331
84C
  5
93B
331
4BB
  5
8B1
331
645
  5
91D
331
848
  5
937
331
4B7
  5
8AD
331
641
  5
919
331
4F2
  5
8E8
331
844
  5
933
331
4B3
  5
8A9
331
63D
  5
915
331
8B5
  5
415
331
107
  5
13B
331
840
  5
930
331
8B1
  5
411
331
103
  5
137
331
C4
  5
F8
331
8ED
  5
2D8
331
92C
  5
CA
331
17D
  5
1B1
331
13E
  5
172
331
8AD
  5
40D
331
FF
  5
133
331
C0
  5
F4
331
8E9
  5
449
331
928
  5
CC
331
179
  5
1AD
331
13A
  5
16E
331
8A9
  5
83F
331
FB
  5
12F
331
BC
  5
F0
331
8E5
  5
445
331
924
  5
D3
331
175
  5
1A9
331
40F
  5
4C7
331
136
  5
16A
331
B8
  5
EC
331
8E1
  5
441
331
920
  5
D9
331
171
  5
1A5
331
40B
  5
4C3
331
132
  5
166
331
485
  5
846
331
3CC
  5
45B
331
446
  5
512
331
407
  5
4BF
331
481
  5
841
331
3C8
  5
457
331
442
  5
509
331
403
  5
4BB
331
43E
  5
500
331
3C4
  5
453
331
479
  5
83C
331
3C0
  5
44F
331
43A
  5
4F2
331
1E7
  5
22F
331
1E3
  5
22B
331
2D7
  5
327
331
21E
  5
252
331
1A4
  5
1D8
331
1DF
  5
227
331
2D3
  5
323
331
1A0
  5
1D4
331
34D
  5
3DF
331
294
  5
2E4
331
30E
  5
365
331
1DB
  5
223
331
2CF
  5
31F
331
19C
  5
1D0
331
349
  5
3DB
331
290
  5
2E0
331
30A
  5
361
331
2CB
  5
31B
331
251
  5
2B3
331
198
  5
1CC
331
345
  5
3D7
331
28C
  5
2DC
331
4EE
  5
8E4
331
306
  5
35D
331
4EA
  5
8E0
331
302
  5
359
331
83C
  5
92C
331
4AB
  5
8A4
331
525
  5
90F
331
838
  5
928
331
4E6
  5
8DC
331
521
  5
90B
331
4E2
  5
8D8
331
51D
  5
907
331
4A3
  5
89F
331
8A5
  5
897
331
F7
  5
12B
331
519
  5
903
331
F3
  5
127
331
8DD
  5
43D
331
16D
  5
1A1
331
12E
  5
162
331
91C
  5
95
331
89D
  5
8E9
331
8D9
  5
439
331
EF
  5
123
331
169
  5
19D
331
12A
  5
15E
331
899
  5
8F3
331
EB
  5
11F
331
8D5
  5
435
331
914
  5
B9
331
165
  5
199
331
3FF
  5
4B7
331
126
  5
15A
331
A0
  5
E7
331
8D1
  5
431
331
910
  5
C8
331
161
  5
195
331
436
  5
4EE
331
3FB
  5
4B3
331
122
  5
156
331
471
  5
64F
331
3F7
  5
4AA
331
432
  5
4EA
331
46D
  5
64B
331
3F3
  5
49C
331
42E
  5
4E6
331
469
  5
647
331
378
  5
40A
331
42A
  5
4E2
331
9D
  5
E4
331
99
  5
E0
331
1D7
  5
21F
331
2C7
  5
317
331
24D
  5
2AF
331
1D3
  5
21B
331
2C3
  5
313
331
249
  5
2AB
331
1CF
  5
20B
331
20A
  5
24A
331
2FE
  5
355
331
245
  5
2A7
331
1CB
  5
207
331
339
  5
3D2
331
2BF
  5
30F
331
2FA
  5
351
331
241
  5
2A3
331
374
  5
406
331
2BB
  5
30B
331
4DE
  5
8D4
331
335
  5
3CE
331
370
  5
402
331
4DA
  5
8D0
331
331
  5
3CA
331
515
  5
8FF
331
4D6
  5
8CC
331
511
  5
8FB
331
4D2
  5
8C8
331
E7
  5
11B
331
15D
  5
191
331
E3
  5
117
331
8CC
  5
42C
331
11E
  5
152
331
DF
  5
113
331
159
  5
18D
331
908
  5
D0
331
8C8
  5
428
331
11A
  5
14E
331
904
  5
2B9
331
DB
  5
10F
331
194
  5
1C8
331
3EF
  5
493
331
155
  5
189
331
900
  5
2C1
331
190
  5
1C4
331
465
  5
643
331
3EB
  5
484
331
151
  5
185
331
426
  5
4DE
331
461
  5
63F
331
3E7
  5
47B
331
422
  5
4DA
331
49C
  5
89B
331
3E3
  5
472
331
45D
  5
63B
331
459
  5
525
331
97
  5
DE
331
93
  5
DA
331
206
  5
246
331
1C7
  5
203
331
202
  5
242
331
2F6
  5
34D
331
23D
  5
29F
331
1C3
  5
1FF
331
2B7
  5
307
331
2F2
  5
349
331
239
  5
29B
331
1BF
  5
1F7
331
36C
  5
3FE
331
2B3
  5
303
331
32D
  5
3C6
331
1FA
  5
23E
331
2EE
  5
345
331
235
  5
297
331
1BB
  5
1F3
331
368
  5
3FA
331
2AF
  5
2FF
331
329
  5
3C2
331
2EA
  5
33A
331
231
  5
293
331
364
  5
3F6
331
2AB
  5
2FB
331
4CE
  5
8C4
331
325
  5
3BE
331
360
  5
3F2
331
509
  5
8F6
331
321
  5
378
331
4CA
  5
8C0
331
4C6
  5
8BC
331
501
  5
8F1
331
64C
  5
924
331
4C2
  5
8B8
331
8C4
  5
424
331
116
  5
14A
331
D7
  5
10B
331
648
  5
920
331
8C0
  5
420
331
112
  5
146
331
D3
  5
107
331
8FC
  5
2BD
331
18C
  5
1C0
331
93B
  5
9B
331
14D
  5
181
331
8BC
  5
41C
331
10E
  5
142
331
CF
  5
103
331
8F8
  5
2CB
331
937
  5
A0
331
149
  5
17D
331
188
  5
1BC
331
8B8
  5
418
331
10A
  5
13E
331
CB
  5
FF
331
8F4
  5
2CF
331
933
  5
C0
331
184
  5
1B8
331
41E
  5
4D6
331
145
  5
179
331
3DF
  5
46E
331
8F0
  5
2D3
331
180
  5
1B4
331
41A
  5
4D2
331
141
  5
175
331
494
  5
84C
331
3DB
  5
46A
331
455
  5
521
331
416
  5
4CE
331
451
  5
51D
331
3D7
  5
466
331
412
  5
4CA
331
44D
  5
519
331
3D3
  5
462
331
449
  5
515
331
1F6
  5
23A
331
1B7
  5
1EF
331
1F2
  5
236
331
26C
  5
2C8
331
1B3
  5
1E7
331
2E6
  5
336
331
22D
  5
28F
331
2A7
  5
2F7
331
268
  5
2C4
331
1AF
  5
1E3
331
2E2
  5
332
331
229
  5
28B
331
35C
  5
3EE
331
2A3
  5
2F3
331
31D
  5
374
331
2DE
  5
32E
331
225
  5
26B
331
1AB
  5
1DF
331
358
  5
3EA
331
29F
  5
2EF
331
319
  5
370
331
2DA
  5
32A
331
221
  5
267
331
354
  5
3E6
331
29B
  5
2EB
331
4BE
  5
8B4
331
315
  5
36C
331
350
  5
3E2
331
4F9
  5
8EC
331
311
  5
368
331
84B
  5
93A
331
4BA
  5
8B0
331
644
  5
91C
331
847
  5
936
331
4B6
  5
8AC
331
640
  5
918
331
4F1
  5
8E7
331
843
  5
932
331
4B2
  5
8A8
331
63C
  5
914
331
8B4
  5
414
331
106
  5
13A
331
C7
  5
FB
331
92F
  5
C2
331
8B0
  5
410
331
102
  5
136
331
C3
  5
F7
331
8EC
  5
2D7
331
92B
  5
C9
331
17C
  5
1B0
331
13D
  5
171
331
8AC
  5
83B
331
FE
  5
132
331
BF
  5
F3
331
8E8
  5
448
331
927
  5
CF
331
178
  5
1AC
331
139
  5
16D
331
8A8
  5
849
331
FA
  5
12E
331
BB
  5
EF
331
8E4
  5
444
331
923
  5
D8
331
174
  5
1A8
331
40E
  5
4C6
331
135
  5
169
331
3CF
  5
45E
331
8E0
  5
440
331
170
  5
1A4
331
40A
  5
4C2
331
131
  5
165
331
484
  5
845
331
3CB
  5
45A
331
445
  5
511
331
406
  5
4BE
331
441
  5
508
331
3C7
  5
456
331
402
  5
4BA
331
43D
  5
4FA
331
3C3
  5
452
331
439
  5
4F1
331
1E6
  5
22E
331
1A7
  5
1DB
331
1E2
  5
22A
331
2D6
  5
326
331
21D
  5
251
331
1A3
  5
1D7
331
297
  5
2E7
331
1DE
  5
226
331
2D2
  5
322
331
19F
  5
1D3
331
34C
  5
3DE
331
293
  5
2E3
331
30D
  5
364
331
1DA
  5
222
331
254
  5
2B6
331
19B
  5
1CF
331
2CE
  5
31E
331
215
  5
24E
331
348
  5
3DA
331
28F
  5
2DF
331
309
  5
360
331
2CA
  5
31A
331
250
  5
2B2
331
344
  5
3D6
331
28B
  5
2DB
331
83F
  5
92F
331
4ED
  5
8E3
331
305
  5
35C
331
4E9
  5
8DF
331
301
  5
358
331
83B
  5
92B
331
4AA
  5
8A3
331
524
  5
90E
331
520
  5
90A
331
4E5
  5
8DB
331
4E1
  5
8D7
331
51C
  5
906
331
4A2
  5
89E
331
8A4
  5
89D
331
F6
  5
12A
331
B7
  5
EB
331
518
  5
902
331
8A0
  5
8A7
331
F2
  5
126
331
8DC
  5
43C
331
16C
  5
1A0
331
12D
  5
161
331
91B
  5
94
331
89C
  5
8EF
331
8D8
  5
438
331
EE
  5
122
331
168
  5
19C
331
129
  5
15D
331
898
  5
8F9
331
EA
  5
11E
331
8D4
  5
434
331
A3
  5
EA
331
164
  5
198
331
3FE
  5
4B6
331
125
  5
159
331
3BF
  5
44E
331
8D0
  5
430
331
160
  5
194
331
435
  5
4ED
331
3FA
  5
4B2
331
121
  5
155
331
470
  5
64E
331
3F6
  5
4A4
331
431
  5
4E9
331
46C
  5
64A
331
3F2
  5
49B
331
42D
  5
4E5
331
468
  5
646
331
429
  5
4E1
331
9C
  5
E3
331
98
  5
DF
331
1D6
  5
21E
331
2C6
  5
316
331
24C
  5
2AE
331
1D2
  5
215
331
20D
  5
24C
331
2C2
  5
312
331
248
  5
2AA
331
1CE
  5
20A
331
209
  5
249
331
2FD
  5
354
331
244
  5
2A6
331
1CA
  5
206
331
377
  5
409
331
2BE
  5
30E
331
338
  5
3D1
331
2F9
  5
350
331
240
  5
2A2
331
373
  5
405
331
2BA
  5
30A
331
4DD
  5
8D3
331
334
  5
3CD
331
4D9
  5
8CF
331
330
  5
3C9
331
514
  5
8FE
331
4D5
  5
8CB
331
510
  5
8FA
331
4D1
  5
8C7
331
E6
  5
11A
331
90F
  5
C7
331
8CF
  5
42F
331
15C
  5
190
331
E2
  5
116
331
8CB
  5
42B
331
11D
  5
151
331
907
  5
2BC
331
DE
  5
112
331
197
  5
1CB
331
158
  5
18C
331
119
  5
14D
331
903
  5
2B8
331
DA
  5
10E
331
193
  5
1C7
331
3EE
  5
492
331
154
  5
188
331
464
  5
642
331
3EA
  5
483
331
150
  5
184
331
425
  5
4DD
331
460
  5
63E
331
3E6
  5
47A
331
421
  5
4D9
331
49B
  5
89A
331
3E2
  5
471
331
45C
  5
528
331
458
  5
524
331
96
  5
DD
331
205
  5
245
331
1C6
  5
202
331
201
  5
241
331
2F5
  5
34C
331
23C
  5
29E
331
1C2
  5
1FA
331
36F
  5
401
331
2B6
  5
306
331
2F1
  5
348
331
238
  5
29A
331
1BE
  5
1F6
331
36B
  5
3FD
331
2B2
  5
302
331
32C
  5
3C5
331
1F9
  5
23D
331
2ED
  5
344
331
234
  5
296
331
1BA
  5
1F2
331
367
  5
3F9
331
2AE
  5
2FE
331
328
  5
3C1
331
2E9
  5
339
331
230
  5
292
331
363
  5
3F5
331
2AA
  5
2FA
331
4CD
  5
8C3
331
324
  5
3BD
331
508
  5
8F5
331
320
  5
377
331
4C9
  5
8BF
331
64F
  5
927
331
4C5
  5
8BB
331
8C7
  5
427
331
500
  5
8F0
331
64B
  5
923
331
4C1
  5
8B7
331
8C3
  5
423
331
115
  5
149
331
8FF
  5
2C0
331
D6
  5
10A
331
18F
  5
1C3
331
8BF
  5
41F
331
111
  5
145
331
D2
  5
106
331
8FB
  5
2CE
331
18B
  5
1BF
331
93A
  5
9A
331
14C
  5
180
331
8BB
  5
41B
331
10D
  5
141
331
CE
  5
102
331
8F7
  5
2D2
331
936
  5
9F
331
148
  5
17C
331
187
  5
1BB
331
109
  5
13D
331
CA
  5
FE
331
8F3
  5
2D6
331
932
  5
BF
331
183
  5
1B7
331
41D
  5
4D5
331
144
  5
178
331
3DE
  5
46D
331
419
  5
4D1
331
140
  5
174
331
493
  5
84B
331
3DA
  5
469
331
454
  5
520
331
415
  5
4CD
331
450
  5
51C
331
3D6
  5
465
331
411
  5
4C9
331
44C
  5
518
331
3D2
  5
461
331
448
  5
514
331
1F5
  5
239
331
1B6
  5
1ED
331
1F1
  5
235
331
26B
  5
2C7
331
1B2
  5
1E6
331
2E5
  5
335
331
22C
  5
28E
331
35F
  5
3F1
331
2A6
  5
2F6
331
1ED
  5
232
331
267
  5
2C3
331
1AE
  5
1E2
331
2E1
  5
331
331
228
  5
26E
331
35B
  5
3ED
331
2A2
  5
2F2
331
31C
  5
373
331
2DD
  5
32D
331
224
  5
26A
331
1AA
  5
1DE
331
357
  5
3E9
331
29E
  5
2EE
331
318
  5
36F
331
2D9
  5
329
331
220
  5
254
331
353
  5
3E5
331
29A
  5
2EA
331
647
  5
91F
331
4BD
  5
8B3
331
314
  5
36B
331
4F8
  5
8EB
331
310
  5
367
331
84A
  5
939
331
4B9
  5
8AF
331
643
  5
91B
331
846
  5
935
331
4B5
  5
8AB
331
63F
  5
917
331
8B7
  5
417
331
63B
  5
913
331
4F0
  5
8E6
331
8B3
  5
413
331
105
  5
139
331
C6
  5
FA
331
8EF
  5
2DA
331
92E
  5
C5
331
17F
  5
1B3
331
8AF
  5
40F
331
101
  5
135
331
C2
  5
F6
331
8EB
  5
44B
331
92A
  5
CE
331
17B
  5
1AF
331
13C
  5
170
331
8AB
  5
83A
331
FD
  5
131
331
BE
  5
F2
331
8E7
  5
447
331
926
  5
D5
331
177
  5
1AB
331
138
  5
16C
331
F9
  5
12D
331
BA
  5
EE
331
8E3
  5
443
331
922
  5
D7
331
173
  5
1A7
331
40D
  5
4C5
331
134
  5
168
331
3CE
  5
45D
331
409
  5
4C1
331
130
  5
164
331
483
  5
844
331
3CA
  5
459
331
444
  5
510
331
405
  5
4BD
331
440
  5
502
331
3C6
  5
455
331
401
  5
4B9
331
47B
  5
83E
331
3C2
  5
451
331
43C
  5
4F9
331
438
  5
4F0
331
1E5
  5
22D
331
1A6
  5
1DA
331
1E1
  5
229
331
2D5
  5
325
331
21C
  5
250
331
1A2
  5
1D6
331
34F
  5
3E1
331
296
  5
2E6
331
1DD
  5
225
331
2D1
  5
321
331
19E
  5
1D2
331
34B
  5
3DD
331
292
  5
2E2
331
30C
  5
363
331
1D9
  5
221
331
2CD
  5
31D
331
253
  5
2B5
331
19A
  5
1CE
331
347
  5
3D9
331
28E
  5
2DE
331
308
  5
35F
331
343
  5
3D5
331
2C9
  5
319
331
83E
  5
92E
331
4EC
  5
8E2
331
304
  5
35B
331
527
  5
911
331
83A
  5
92A
331
4E8
  5
8DE
331
300
  5
357
331
523
  5
90D
331
51F
  5
909
331
4E4
  5
8DA
331
8A7
  5
848
331
51B
  5
905
331
4E0
  5
8D6
331
8A3
  5
89C
331
8DF
  5
43F
331
F5
  5
129
331
16F
  5
1A3
331
89F
  5
8A6
331
F1
  5
125
331
8DB
  5
43B
331
16B
  5
19F
331
12C
  5
160
331
91A
  5
93
331
89B
  5
8EE
331
ED
  5
121
331
8D7
  5
437
331
916
  5
BE
331
167
  5
19B
331
128
  5
15C
331
E9
  5
11D
331
8D3
  5
433
331
A2
  5
E9
331
163
  5
197
331
3FD
  5
4B5
331
124
  5
158
331
3BE
  5
44D
331
473
  5
839
331
3F9
  5
4AC
331
120
  5
154
331
434
  5
4EC
331
46F
  5
64D
331
3F5
  5
4A3
331
430
  5
4E8
331
3F1
  5
49A
331
46B
  5
649
331
37A
  5
40C
331
42C
  5
4E4
331
428
  5
4E0
331
9F
  5
E6
331
9B
  5
E2
331
24F
  5
2B1
331
1D5
  5
21D
331
2C5
  5
315
331
24B
  5
2AD
331
1D1
  5
20F
331
33B
  5
3D4
331
2C1
  5
311
331
247
  5
2A9
331
1CD
  5
209
331
208
  5
248
331
2FC
  5
353
331
243
  5
2A5
331
1C9
  5
205
331
376
  5
408
331
2BD
  5
30D
331
337
  5
3D0
331
2F8
  5
34F
331
372
  5
404
331
2B9
  5
309
331
4DC
  5
8D2
331
333
  5
3CC
331
517
  5
901
331
4D8
  5
8CE
331
513
  5
8FD
331
897
  5
8F8
331
4D4
  5
8CA
331
4D0
  5
8C6
331
E5
  5
119
331
15F
  5
193
331
90E
  5
C6
331
8CE
  5
42E
331
E1
  5
115
331
15B
  5
18F
331
90A
  5
D2
331
8CA
  5
42A
331
11C
  5
150
331
906
  5
2BB
331
DD
  5
111
331
196
  5
1CA
331
157
  5
18B
331
118
  5
14C
331
902
  5
2B7
331
D9
  5
10D
331
192
  5
1C6
331
467
  5
645
331
3ED
  5
486
331
153
  5
187
331
463
  5
641
331
3E9
  5
482
331
424
  5
4DC
331
45F
  5
63D
331
3E5
  5
479
331
420
  5
4D8
331
49A
  5
899
331
3E1
  5
470
331
45B
  5
527
331
95
  5
DC
331
204
  5
244
331
23F
  5
2A1
331
1C5
  5
201
331
200
  5
240
331
2F4
  5
34B
331
23B
  5
29D
331
1C1
  5
1F9
331
36E
  5
400
331
2B5
  5
305
331
32F
  5
3C8
331
2F0
  5
347
331
237
  5
299
331
1BD
  5
1F5
331
36A
  5
3FC
331
2B1
  5
301
331
32B
  5
3C4
331
1F8
  5
23C
331
2EC
  5
343
331
233
  5
295
331
1B9
  5
1F1
331
366
  5
3F8
331
2AD
  5
2FD
331
327
  5
3C0
331
2E8
  5
338
331
362
  5
3F4
331
2A9
  5
2F9
331
4CC
  5
8C2
331
323
  5
37A
331
4C8
  5
8BE
331
64E
  5
926
331
4C4
  5
8BA
331
8C6
  5
426
331
64A
  5
922
331
4C0
  5
8B6
331
8C2
  5
422
331
114
  5
148
331
8FE
  5
2BF
331
D5
  5
109
331
18E
  5
1C2
331
14F
  5
183
331
8BE
  5
41E
331
110
  5
144
331
D1
  5
105
331
8FA
  5
2CD
331
18A
  5
1BE
331
939
  5
99
331
14B
  5
17F
331
8BA
  5
41A
331
10C
  5
140
331
CD
  5
101
331
8F6
  5
2D1
331
935
  5
B8
331
186
  5
1BA
331
147
  5
17B
331
108
  5
13C
331
C9
  5
FD
331
8F2
  5
2D5
331
931
  5
C4
331
182
  5
1B6
331
41C
  5
4D4
331
143
  5
177
331
457
  5
523
331
3DD
  5
46C
331
418
  5
4D0
331
492
  5
84A
331
3D9
  5
468
331
453
  5
51F
331
414
  5
4CC
331
44F
  5
51B
331
3D5
  5
464
331
410
  5
4C8
331
44B
  5
517
331
3D1
  5
460
331
1F4
  5
238
331
26E
  5
2CA
331
1B5
  5
1EB
331
22F
  5
291
331
1F0
  5
234
331
26A
  5
2C6
331
1B1
  5
1E5
331
2E4
  5
334
331
22B
  5
28D
331
35E
  5
3F0
331
2A5
  5
2F5
331
31F
  5
376
331
2E0
  5
330
331
227
  5
26D
331
1AD
  5
1E1
331
35A
  5
3EC
331
2A1
  5
2F1
331
31B
  5
372
331
1E8
  5
230
331
2DC
  5
32C
331
223
  5
269
331
1A9
  5
1DD
331
356
  5
3E8
331
29D
  5
2ED
331
317
  5
36E
331
2D8
  5
328
331
352
  5
3E4
331
299
  5
2E9
331
646
  5
91E
331
4BC
  5
8B2
331
313
  5
36A
331
849
  5
938
331
4B8
  5
8AE
331
642
  5
91A
331
845
  5
934
331
4B4
  5
8AA
331
63E
  5
916
331
8B6
  5
416
331
841
  5
931
331
8B2
  5
412
331
104
  5
138
331
C5
  5
F9
331
8EE
  5
2D9
331
92D
  5
CB
331
17E
  5
1B2
331
13F
  5
173
331
8AE
  5
40E
331
100
  5
134
331
C1
  5
F5
331
8EA
  5
44A
331
929
  5
CD
331
17A
  5
1AE
331
13B
  5
16F
331
8AA
  5
840
331
FC
  5
130
331
BD
  5
F1
331
8E6
  5
446
331
925
  5
D4
331
176
  5
1AA
331
137
  5
16B
331
F8
  5
12C
331
B9
  5
ED
331
8E2
  5
442
331
921
  5
D6
331
172
  5
1A6
331
40C
  5
4C4
331
133
  5
167
331
486
  5
847
331
3CD
  5
45C
331
447
  5
513
331
408
  5
4C0
331
482
  5
843
331
3C9
  5
458
331
443
  5
50A
331
404
  5
4BC
331
43F
  5
501
331
3C5
  5
454
331
400
  5
4B8
331
47A
  5
83D
331
3C1
  5
450
331
43B
  5
4F8
331
1E4
  5
22C
331
21F
  5
253
331
1A5
  5
1D9
331
1E0
  5
228
331
2D4
  5
324
331
21B
  5
24F
331
1A1
  5
1D5
331
34E
  5
3E0
331
295
  5
2E5
331
30F
  5
366
331
1DC
  5
224
331
2D0
  5
320
331
19D
  5
1D1
331
34A
  5
3DC
331
291
  5
2E1
331
30B
  5
362
331
1D8
  5
220
331
2CC
  5
31C
331
252
  5
2B4
331
199
  5
1CD
331
346
  5
3D8
331
28D
  5
2DD
331
4EF
  5
8E5
331
307
  5
35E
331
4EB
  5
8E1
331
303
  5
35A
331
2C8
  5
318
331
83D
  5
92D
331
4AC
  5
8A5
331
526
  5
910
331
839
  5
929
331
4E7
  5
8DD
331
522
  5
90C
331
4E3
  5
8D9
331
51E
  5
908
331
4A4
  5
8A0
331
8A6
  5
898
331
51A
  5
904
331
F4
  5
128
331
8DE
  5
43E
331
16E
  5
1A2
331
12F
  5
163
331
89E
  5
8EA
331
8DA
  5
43A
331
F0
  5
124
331
16A
  5
19E
331
12B
  5
15F
331
89A
  5
8F4
331
EC
  5
120
331
8D6
  5
436
331
915
  5
BA
331
166
  5
19A
331
127
  5
15B
331
E8
  5
11C
331
8D2
  5
432
331
A1
  5
E8
331
162
  5
196
331
3FC
  5
4B4
331
123
  5
157
331
437
  5
4EF
331
3BD
  5
44C
331
472
  5
838
331
3F8
  5
4AB
331
433
  5
4EB
331
46E
  5
64C
331
3F4
  5
4A2
331
42F
  5
4E7
331
3F0
  5
494
331
46A
  5
648
331
379
  5
40B
331
42B
  5
4E3
  0
XRECORD
  5
941
102
{ACAD_REACTORS
330
93F
102
}
330
93F
100
AcDbXrecord
280
     1
 70
     2
  0
XRECORD
  5
940
102
{ACAD_REACTORS
330
93F
102
}
330
93F
100
AcDbXrecord
280
     1
 40
1.25
  0
XRECORD
  5
942
102
{ACAD_REACTORS
330
93F
102
}
330
93F
100
AcDbXrecord
280
     1
 40
1.570796326794896
  0
LAYOUT
  5
39
102
{ACAD_XDICTIONARY
360
966
102
}
102
{ACAD_REACTORS
330
2E
102
}
330
2E
100
AcDbPlotSettings
  1

  2
none_device
  4
Letter_(8.50_x_11.00_Inches)
  6

 40
6.349999904632568
 41
6.349999904632568
 42
6.350006103515625
 43
6.350006103515625
 44
215.8999938964844
 45
279.3999938964844
 46
0.0
 47
0.0
 48
0.0
 49
0.0
140
0.0
141
0.0
142
1.0
143
91.02879034961169
 70
 11952
 72
     0
 73
     1
 74
     0
  7

 75
     0
147
0.0109855354131295
148
14834.26603106877
149
4447.420357051038
100
AcDbLayout
  1
Model
 70
     1
 71
     0
 10
0.0
 20
0.0
 11
12.0
 21
9.0
 12
0.0
 22
0.0
 32
0.0
 14
0.0
 24
0.0
 34
0.0
 15
0.0
 25
0.0
 35
0.0
146
0.0
 13
0.0
 23
0.0
 33
0.0
 16
1.0
 26
0.0
 36
0.0
 17
0.0
 27
1.0
 37
0.0
 76
     0
330
36
331
56
1001
ACAD_PSEXT
1000
なし
1000
なし
1000
適切ではありません
1000
新しいプロッタ環境設定名を選択しない限り、レイアウトは印刷されません。
1070
     0
  0
LAYOUT
  5
35
102
{ACAD_XDICTIONARY
360
964
102
}
102
{ACAD_REACTORS
330
2E
102
}
330
2E
100
AcDbPlotSettings
  1

  2
PDF Complete
  4

  6

 40
0.0
 41
0.0
 42
0.0
 43
0.0
 44
0.0
 45
0.0
 46
0.0
 47
0.0
 48
0.0
 49
0.0
140
0.0
141
0.0
142
1.0
143
1.0
 70
   688
 72
     0
 73
     0
 74
     5
  7

 75
    16
147
1.0
148
0.0
149
0.0
100
AcDbLayout
  1
レイアウト1
 70
     1
 71
     1
 10
0.0
 20
0.0
 11
12.0
 21
9.0
 12
0.0
 22
0.0
 32
0.0
 14
1.000000000000000E+20
 24
1.000000000000000E+20
 34
1.000000000000000E+20
 15
-1.000000000000000E+20
 25
-1.000000000000000E+20
 35
-1.000000000000000E+20
146
0.0
 13
0.0
 23
0.0
 33
0.0
 16
1.0
 26
0.0
 36
0.0
 17
0.0
 27
1.0
 37
0.0
 76
     0
330
32
  0
MATERIAL
  5
12
102
{ACAD_XDICTIONARY
360
533
102
}
102
{ACAD_REACTORS
330
10
102
}
330
10
100
AcDbMaterial
  1
ByBlock
  0
MATERIAL
  5
11
102
{ACAD_XDICTIONARY
360
531
102
}
102
{ACAD_REACTORS
330
10
102
}
330
10
100
AcDbMaterial
  1
ByLayer
  0
MATERIAL
  5
13
102
{ACAD_XDICTIONARY
360
535
102
}
102
{ACAD_REACTORS
330
10
102
}
330
10
100
AcDbMaterial
  1
Global
  0
MLEADERSTYLE
  5
55E
102
{ACAD_REACTORS
330
55D
102
}
330
55D
100
AcDbMLeaderStyle
170
     2
171
     1
172
     0
 90
        2
 40
0.0
 41
0.0
173
     1
 91
-1056964608
340
28
 92
       -2
290
     1
 42
0.09
291
     1
 43
0.36
  3
Standard
 44
0.18
300

342
26
174
     1
178
     6
175
     1
176
     0
 93
-1056964608
 45
0.18
292
     0
297
     0
 46
0.18
 94
-1056964608
 47
1.0
 49
1.0
140
1.0
293
     1
141
0.0
294
     1
177
     0
142
1.0
295
     0
296
     0
143
0.125
1001
ACAD_MLEADERVER
1070
     2
  0
MLINESTYLE
  5
2C
102
{ACAD_REACTORS
330
2B
102
}
330
2B
100
AcDbMlineStyle
  2
STANDARD
 70
     0
  3

 62
   256
 51
90.0
 52
90.0
 71
     2
 49
0.5
 62
   256
  6
BYLAYER
 49
-0.5
 62
   256
  6
BYLAYER
  0
ACDBPLACEHOLDER
  5
F
102
{ACAD_REACTORS
330
E
102
}
330
E
  0
SCALE
  5
54C
102
{ACAD_REACTORS
330
54B
102
}
330
54B
100
AcDbScale
 70
     0
300
1:1
140
1.0
141
1.0
290
     1
  0
SCALE
  5
54D
102
{ACAD_REACTORS
330
54B
102
}
330
54B
100
AcDbScale
 70
     0
300
1/128" = 1'-0"
140
0.0078125
141
12.0
290
     0
  0
SCALE
  5
54E
102
{ACAD_REACTORS
330
54B
102
}
330
54B
100
AcDbScale
 70
     0
300
1/64" = 1'-0"
140
0.015625
141
12.0
290
     0
  0
SCALE
  5
54F
102
{ACAD_REACTORS
330
54B
102
}
330
54B
100
AcDbScale
 70
     0
300
1/32" = 1'-0"
140
0.03125
141
12.0
290
     0
  0
SCALE
  5
550
102
{ACAD_REACTORS
330
54B
102
}
330
54B
100
AcDbScale
 70
     0
300
1/16" = 1'-0"
140
0.0625
141
12.0
290
     0
  0
SCALE
  5
551
102
{ACAD_REACTORS
330
54B
102
}
330
54B
100
AcDbScale
 70
     0
300
3/32" = 1'-0"
140
0.09375
141
12.0
290
     0
  0
SCALE
  5
552
102
{ACAD_REACTORS
330
54B
102
}
330
54B
100
AcDbScale
 70
     0
300
1/8" = 1'-0"
140
0.125
141
12.0
290
     0
  0
SCALE
  5
553
102
{ACAD_REACTORS
330
54B
102
}
330
54B
100
AcDbScale
 70
     0
300
3/16" = 1'-0"
140
0.1875
141
12.0
290
     0
  0
SCALE
  5
554
102
{ACAD_REACTORS
330
54B
102
}
330
54B
100
AcDbScale
 70
     0
300
1/4" = 1'-0"
140
0.25
141
12.0
290
     0
  0
SCALE
  5
555
102
{ACAD_REACTORS
330
54B
102
}
330
54B
100
AcDbScale
 70
     0
300
3/8" = 1'-0"
140
0.375
141
12.0
290
     0
  0
SCALE
  5
556
102
{ACAD_REACTORS
330
54B
102
}
330
54B
100
AcDbScale
 70
     0
300
1/2" = 1'-0"
140
0.5
141
12.0
290
     0
  0
SCALE
  5
557
102
{ACAD_REACTORS
330
54B
102
}
330
54B
100
AcDbScale
 70
     0
300
3/4" = 1'-0"
140
0.75
141
12.0
290
     0
  0
SCALE
  5
558
102
{ACAD_REACTORS
330
54B
102
}
330
54B
100
AcDbScale
 70
     0
300
1" = 1'-0"
140
1.0
141
12.0
290
     0
  0
SCALE
  5
559
102
{ACAD_REACTORS
330
54B
102
}
330
54B
100
AcDbScale
 70
     0
300
1-1/2" = 1'-0"
140
1.5
141
12.0
290
     0
  0
SCALE
  5
55A
102
{ACAD_REACTORS
330
54B
102
}
330
54B
100
AcDbScale
 70
     0
300
3" = 1'-0"
140
3.0
141
12.0
290
     0
  0
SCALE
  5
55B
102
{ACAD_REACTORS
330
54B
102
}
330
54B
100
AcDbScale
 70
     0
300
6" = 1'-0"
140
6.0
141
12.0
290
     0
  0
SCALE
  5
55C
102
{ACAD_REACTORS
330
54B
102
}
330
54B
100
AcDbScale
 70
     0
300
1'-0" = 1'-0"
140
12.0
141
12.0
290
     0
  0
TABLESTYLE
  5
31
102
{ACAD_XDICTIONARY
360
7CB
102
}
102
{ACAD_REACTORS
330
30
102
}
330
30
100
AcDbTableStyle
  3
Standard
 70
     0
 71
     0
 40
0.06
 41
0.06
280
     0
281
     0
  7
STANDARD
140
0.18
170
     2
 62
     0
 63
     7
283
     0
274
    -2
284
     1
 64
     0
275
    -2
285
     1
 65
     0
276
    -2
286
     1
 66
     0
277
    -2
287
     1
 67
     0
278
    -2
288
     1
 68
     0
279
    -2
289
     1
 69
     0
  7
STANDARD
140
0.25
170
     5
 62
     0
 63
     7
283
     0
274
    -2
284
     1
 64
     0
275
    -2
285
     1
 65
     0
276
    -2
286
     1
 66
     0
277
    -2
287
     1
 67
     0
278
    -2
288
     1
 68
     0
279
    -2
289
     1
 69
     0
  7
STANDARD
140
0.18
170
     5
 62
     0
 63
     7
283
     0
274
    -2
284
     1
 64
     0
275
    -2
285
     1
 65
     0
276
    -2
286
     1
 66
     0
277
    -2
287
     1
 67
     0
278
    -2
288
     1
 68
     0
279
    -2
289
     1
 69
     0
  0
VISUALSTYLE
  5
1A
102
{ACAD_XDICTIONARY
360
94D
102
}
102
{ACAD_REACTORS
330
14
102
}
330
14
100
AcDbVisualStyle
  2

 70
     4
 71
     0
 72
     2
 73
     0
 90
        0
 40
-0.6
 41
-30.0
 62
     5
 63
     7
 74
     1
 91
        4
 64
     7
 65
   257
 75
     1
175
     1
 42
1.0
 92
        0
 66
   257
 43
1.0
 76
     1
 77
     6
 78
     2
 67
     7
 79
     5
170
     0
171
     0
290
     0
174
     0
 93
        1
 44
0.0
173
     0
291
     0
 45
0.0
1001
ACAD
1000
AcDbSavedByObjectVersion
1070
     0
  0
VISUALSTYLE
  5
1C
102
{ACAD_XDICTIONARY
360
951
102
}
102
{ACAD_REACTORS
330
14
102
}
330
14
100
AcDbVisualStyle
  2

 70
     6
 71
     1
 72
     2
 73
     2
 90
        0
 40
-0.6
 41
-30.0
 62
     5
 63
     7
 74
     2
 91
        2
 64
     7
 65
   257
 75
     2
175
     1
 42
40.0
 92
        0
 66
   257
 43
1.0
 76
     1
 77
     6
 78
     2
 67
     7
 79
     3
170
     0
171
     0
290
     0
174
     0
 93
        1
 44
0.0
173
     0
291
     0
 45
0.0
1001
ACAD
1000
AcDbSavedByObjectVersion
1070
     0
  0
VISUALSTYLE
  5
1B
102
{ACAD_XDICTIONARY
360
94F
102
}
102
{ACAD_REACTORS
330
14
102
}
330
14
100
AcDbVisualStyle
  2

 70
     5
 71
     0
 72
     2
 73
     0
 90
        0
 40
-0.6
 41
-30.0
 62
     5
 63
     7
 74
     1
 91
        4
 64
     7
 65
   257
 75
     1
175
     1
 42
1.0
 92
        0
 66
   257
 43
1.0
 76
     1
 77
     6
 78
     2
 67
     7
 79
     5
170
     0
171
     0
290
     0
174
     0
 93
        1
 44
0.0
173
     0
291
     0
 45
0.0
1001
ACAD
1000
AcDbSavedByObjectVersion
1070
     0
  0
VISUALSTYLE
  5
19
102
{ACAD_XDICTIONARY
360
94B
102
}
102
{ACAD_REACTORS
330
14
102
}
330
14
100
AcDbVisualStyle
  2

 70
     7
 71
     1
 72
     0
 73
     1
 90
        0
 40
-0.6
 41
-30.0
 62
     5
 63
     7
 74
     0
 91
        4
 64
     7
 65
   257
 75
     1
175
     1
 42
1.0
 92
        8
 66
     7
 43
1.0
 76
     1
 77
     6
 78
     2
 67
     7
 79
     5
170
     0
171
     0
290
     0
174
     0
 93
        1
 44
0.0
173
     0
291
     1
 45
0.0
1001
ACAD
1000
AcDbSavedByObjectVersion
1070
     0
  0
VISUALSTYLE
  5
20
102
{ACAD_XDICTIONARY
360
959
102
}
102
{ACAD_REACTORS
330
14
102
}
330
14
100
AcDbVisualStyle
  2

 70
    12
 71
     2
 72
     2
 73
     0
 90
        0
 40
-0.6
 41
-30.0
 62
     5
 63
     7
 74
     1
 91
        4
 64
     7
 65
   257
 75
     1
175
     1
 42
1.0
 92
        8
 66
     7
 43
1.0
 76
     1
 77
     6
 78
     2
 67
     7
 79
     5
170
     0
171
     0
290
     0
174
     0
 93
        1
 44
50.0
173
     0
291
     1
 45
0.0
1001
ACAD
1000
AcDbSavedByObjectVersion
1070
     0
  0
VISUALSTYLE
  5
24
102
{ACAD_XDICTIONARY
360
961
102
}
102
{ACAD_REACTORS
330
14
102
}
330
14
100
AcDbVisualStyle
  2

 70
    16
 71
     2
 72
     2
 73
     3
 90
        0
 40
-0.6
 41
-30.0
 62
     5
 63
     8
 74
     1
 91
        4
 64
     7
 65
   257
 75
     1
175
     1
 42
1.0
 92
        8
 66
     8
 43
1.0
 76
     1
 77
     6
 78
     2
 67
     7
 79
     5
170
     0
171
     0
290
     0
174
     0
 93
        1
 44
0.0
173
     0
291
     1
 45
0.0
1001
ACAD
1000
AcDbSavedByObjectVersion
1070
     0
  0
VISUALSTYLE
  5
1D
102
{ACAD_XDICTIONARY
360
953
102
}
102
{ACAD_REACTORS
330
14
102
}
330
14
100
AcDbVisualStyle
  2

 70
     9
 71
     3
 72
     2
 73
     0
 90
        0
 40
-0.6
 41
-30.0
 62
     5
 63
     7
 74
     2
 91
        2
 64
     7
 65
   257
 75
     1
175
     1
 42
40.0
 92
        8
 66
     7
 43
1.0
 76
     1
 77
     6
 78
     2
 67
     7
 79
     3
170
     0
171
     0
290
     0
174
     0
 93
        1
 44
0.0
173
     0
291
     0
 45
0.0
1001
ACAD
1000
AcDbSavedByObjectVersion
1070
     0
  0
VISUALSTYLE
  5
1F
102
{ACAD_XDICTIONARY
360
957
102
}
102
{ACAD_REACTORS
330
14
102
}
330
14
100
AcDbVisualStyle
  2

 70
    11
 71
     2
 72
     2
 73
     0
 90
        0
 40
-0.6
 41
-30.0
 62
     5
 63
     7
 74
     1
 91
        4
 64
     7
 65
   257
 75
     1
175
     1
 42
1.0
 92
        8
 66
     7
 43
1.0
 76
     1
 77
     6
 78
     2
 67
     7
 79
     5
170
     0
171
     0
290
     0
174
     0
 93
        1
 44
-50.0
173
     0
291
     1
 45
0.0
1001
ACAD
1000
AcDbSavedByObjectVersion
1070
     0
  0
VISUALSTYLE
  5
54A
102
{ACAD_XDICTIONARY
360
97A
102
}
102
{ACAD_REACTORS
330
14
102
}
330
14
100
AcDbVisualStyle
  2

 70
    22
 71
     2
 72
     2
 73
     0
 90
        0
 40
-0.6
 41
-30.0
 62
     5
 63
     7
 74
     1
 91
        4
 64
     7
 65
   257
 75
     1
175
     1
 42
1.0
 92
        8
 66
     7
 43
1.0
 76
     1
 77
     6
 78
     2
 67
     7
 79
     5
170
     0
171
     0
290
     0
174
     0
 93
        1
 44
0.0
173
     0
291
     1
 45
0.0
1001
ACAD
1000
AcDbSavedByObjectVersion
1070
     0
  0
VISUALSTYLE
  5
23
102
{ACAD_XDICTIONARY
360
95F
102
}
102
{ACAD_REACTORS
330
14
102
}
330
14
100
AcDbVisualStyle
  2

 70
    15
 71
     2
 72
     2
 73
     0
 90
        0
 40
-0.6
 41
-30.0
 62
     5
 63
     7
 74
     1
 91
        4
 64
     7
 65
   257
 75
     1
175
     1
 42
1.0
 92
        8
 66
     7
 43
1.0
 76
     1
 77
     6
 78
     2
 67
     7
 79
     5
170
     0
171
     0
290
     0
174
     0
 93
        1
 44
0.0
173
     0
291
     1
 45
0.0
1001
ACAD
1000
AcDbSavedByObjectVersion
1070
     0
  0
VISUALSTYLE
  5
15
102
{ACAD_XDICTIONARY
360
943
102
}
102
{ACAD_REACTORS
330
14
102
}
330
14
100
AcDbVisualStyle
  2

 70
     0
 71
     2
 72
     1
 73
     1
 90
        2
 40
-0.6
 41
30.0
 62
     5
 63
     7
 74
     0
 91
        4
 64
     7
 65
   257
 75
     1
175
     1
 42
1.0
 92
        8
 66
     7
 43
1.0
 76
     1
 77
     6
 78
     2
 67
     7
 79
     5
170
     0
171
     0
290
     0
174
     0
 93
       13
 44
0.0
173
     0
291
     1
 45
0.0
1001
ACAD
1000
AcDbSavedByObjectVersion
1070
     0
  0
VISUALSTYLE
  5
16
102
{ACAD_XDICTIONARY
360
945
102
}
102
{ACAD_REACTORS
330
14
102
}
330
14
100
AcDbVisualStyle
  2

 70
     1
 71
     2
 72
     1
 73
     1
 90
        2
 40
-0.6
 41
30.0
 62
     5
 63
     7
 74
     1
 91
        4
 64
     7
 65
   257
 75
     1
175
     1
 42
1.0
 92
        0
 66
   257
 43
1.0
 76
     1
 77
     6
 78
     2
 67
     7
 79
     5
170
     0
171
     0
290
     0
174
     0
 93
       13
 44
0.0
173
     0
291
     1
 45
0.0
1001
ACAD
1000
AcDbSavedByObjectVersion
1070
     0
  0
VISUALSTYLE
  5
17
102
{ACAD_XDICTIONARY
360
947
102
}
102
{ACAD_REACTORS
330
14
102
}
330
14
100
AcDbVisualStyle
  2

 70
     2
 71
     2
 72
     2
 73
     1
 90
        2
 40
-0.6
 41
30.0
 62
     5
 63
     7
 74
     0
 91
        4
 64
     7
 65
   257
 75
     1
175
     1
 42
1.0
 92
        0
 66
     7
 43
1.0
 76
     1
 77
     6
 78
     2
 67
     7
 79
     5
170
     0
171
     0
290
     0
174
     0
 93
       13
 44
0.0
173
     0
291
     1
 45
0.0
1001
ACAD
1000
AcDbSavedByObjectVersion
1070
     0
  0
VISUALSTYLE
  5
18
102
{ACAD_XDICTIONARY
360
949
102
}
102
{ACAD_REACTORS
330
14
102
}
330
14
100
AcDbVisualStyle
  2

 70
     3
 71
     2
 72
     2
 73
     1
 90
        2
 40
-0.6
 41
30.0
 62
     5
 63
     7
 74
     1
 91
        4
 64
     7
 65
   257
 75
     1
175
     1
 42
1.0
 92
        0
 66
   257
 43
1.0
 76
     1
 77
     6
 78
     2
 67
     7
 79
     5
170
     0
171
     0
290
     0
174
     0
 93
       13
 44
0.0
173
     0
291
     1
 45
0.0
1001
ACAD
1000
AcDbSavedByObjectVersion
1070
     0
  0
VISUALSTYLE
  5
542
102
{ACAD_XDICTIONARY
360
96A
102
}
102
{ACAD_REACTORS
330
14
102
}
330
14
100
AcDbVisualStyle
  2

 70
     6
 71
     1
 72
     2
 73
     2
 90
        0
 40
-0.6
 41
-30.0
 62
     5
 63
     7
 74
     2
 91
        2
 64
     7
 65
   257
 75
     2
175
     1
 42
40.0
 92
        0
 66
   257
 43
1.0
 76
     1
 77
     6
 78
     2
 67
     7
 79
     3
170
     0
171
     0
290
     0
174
     0
 93
        1
 44
0.0
173
     0
291
     0
 45
0.0
1001
ACAD
1000
AcDbSavedByObjectVersion
1070
     0
  0
VISUALSTYLE
  5
548
102
{ACAD_XDICTIONARY
360
976
102
}
102
{ACAD_REACTORS
330
14
102
}
330
14
100
AcDbVisualStyle
  2

 70
    20
 71
     2
 72
     2
 73
     0
 90
        0
 40
-0.6
 41
-30.0
 62
     5
 63
     7
 74
     1
 91
        4
 64
     7
 65
   257
 75
     1
175
     1
 42
1.0
 92
       10
 66
     7
 43
1.0
 76
     1
 77
     6
 78
     2
 67
     7
 79
     5
170
     0
171
     0
290
     0
174
     0
 93
        1
 44
0.0
173
     0
291
     1
 45
0.0
1001
ACAD
1000
AcDbSavedByObjectVersion
1070
     0
  0
VISUALSTYLE
  5
22
102
{ACAD_XDICTIONARY
360
95D
102
}
102
{ACAD_REACTORS
330
14
102
}
330
14
100
AcDbVisualStyle
  2

 70
    14
 71
     2
 72
     2
 73
     0
 90
        0
 40
-0.6
 41
-30.0
 62
     5
 63
     7
 74
     1
 91
        4
 64
     7
 65
   257
 75
     7
175
     7
 42
1.0
 92
        8
 66
     7
 43
1.0
 76
     1
 77
     6
 78
     2
 67
     7
 79
     5
170
     0
171
     0
290
     0
174
     0
 93
        1
 44
0.0
173
     0
291
     1
 45
0.0
1001
ACAD
1000
AcDbSavedByObjectVersion
1070
     0
  0
VISUALSTYLE
  5
549
102
{ACAD_XDICTIONARY
360
978
102
}
102
{ACAD_REACTORS
330
14
102
}
330
14
100
AcDbVisualStyle
  2

 70
    21
 71
     2
 72
     2
 73
     0
 90
        0
 40
-0.6
 41
-30.0
 62
     5
 63
     7
 74
     1
 91
        4
 64
     7
 65
   257
 75
     1
175
     1
 42
1.0
 92
        9
 66
     7
 43
1.0
 76
     1
 77
     6
 78
     2
 67
     7
 79
     5
170
     0
171
     0
290
     0
174
     0
 93
        1
 44
0.0
173
     0
291
     1
 45
0.0
1001
ACAD
1000
AcDbSavedByObjectVersion
1070
     0
  0
VISUALSTYLE
  5
1E
102
{ACAD_XDICTIONARY
360
955
102
}
102
{ACAD_REACTORS
330
14
102
}
330
14
100
AcDbVisualStyle
  2

 70
     8
 71
     2
 72
     2
 73
     0
 90
        0
 40
-0.6
 41
-30.0
 62
     5
 63
     7
 74
     1
 91
        0
 64
     7
 65
   257
 75
     1
175
     1
 42
1.0
 92
        8
 66
     8
 43
1.0
 76
     1
 77
     6
 78
     2
 67
     7
 79
     5
170
     0
171
     0
290
     0
174
     0
 93
       13
 44
0.0
173
     0
291
     0
 45
0.0
1001
ACAD
1000
AcDbSavedByObjectVersion
1070
     0
  0
VISUALSTYLE
  5
547
102
{ACAD_XDICTIONARY
360
974
102
}
102
{ACAD_REACTORS
330
14
102
}
330
14
100
AcDbVisualStyle
  2

 70
    27
 71
     2
 72
     2
 73
     1
 90
        2
 40
-0.6
 41
30.0
 62
     5
 63
     7
 74
     0
 91
        4
 64
     7
 65
   257
 75
     1
175
     1
 42
1.0
 92
        8
 66
   257
 43
1.0
 76
     1
 77
     6
 78
     2
 67
     8
 79
     3
170
     0
171
     0
290
     0
174
     0
 93
        5
 44
0.0
173
     0
291
     0
 45
0.0
1001
ACAD
1000
AcDbSavedByObjectVersion
1070
     0
  0
VISUALSTYLE
  5
546
102
{ACAD_XDICTIONARY
360
972
102
}
102
{ACAD_REACTORS
330
14
102
}
330
14
100
AcDbVisualStyle
  2

 70
    26
 71
     2
 72
     2
 73
     1
 90
        2
 40
-0.6
 41
30.0
 62
     5
 63
     7
 74
     1
 91
       10
 64
     7
 65
   257
 75
     2
175
     1
 42
1.0
 92
        8
 66
   257
 43
1.0
 76
     1
 77
     6
 78
     2
 67
     7
 79
     3
170
     0
171
     0
290
     0
174
     0
 93
        5
 44
0.0
173
     0
291
     0
 45
0.0
1001
ACAD
1000
AcDbSavedByObjectVersion
1070
     0
  0
VISUALSTYLE
  5
543
102
{ACAD_XDICTIONARY
360
96C
102
}
102
{ACAD_REACTORS
330
14
102
}
330
14
100
AcDbVisualStyle
  2

 70
    23
 71
     2
 72
     2
 73
     3
 90
        0
 40
-0.6
 41
-30.0
 62
     5
 63
     7
 74
     2
 91
        2
 64
     7
 65
     7
 75
     1
175
     1
 42
40.0
 92
        8
 66
     7
 43
1.0
 76
     1
 77
     6
 78
     2
 67
     7
 79
     3
170
     0
171
     0
290
     0
174
     0
 93
        1
 44
0.0
173
     0
291
     0
 45
0.0
1001
ACAD
1000
AcDbSavedByObjectVersion
1070
     0
  0
VISUALSTYLE
  5
544
102
{ACAD_XDICTIONARY
360
96E
102
}
102
{ACAD_REACTORS
330
14
102
}
330
14
100
AcDbVisualStyle
  2

 70
    24
 71
     1
 72
     2
 73
     2
 90
        0
 40
-0.6
 41
-30.0
 62
     5
 63
     7
 74
     2
 91
        2
 64
     7
 65
     7
 75
     1
175
     1
 42
40.0
 92
       11
 66
     7
 43
1.0
 76
     1
 77
     6
 78
     2
 67
     7
 79
     6
170
     0
171
     0
290
     0
174
     0
 93
        1
 44
0.0
173
     0
291
     0
 45
0.0
1001
ACAD
1000
AcDbSavedByObjectVersion
1070
     0
  0
VISUALSTYLE
  5
21
102
{ACAD_XDICTIONARY
360
95B
102
}
102
{ACAD_REACTORS
330
14
102
}
330
14
100
AcDbVisualStyle
  2

 70
    13
 71
     2
 72
     2
 73
     0
 90
        0
 40
-0.6
 41
-30.0
 62
     5
 63
     7
 74
     1
 91
        4
 64
     7
 65
   257
 75
     1
175
     1
 42
1.0
 92
       12
 66
     7
 43
1.0
 76
     1
 77
     6
 78
     2
 67
     7
 79
     5
170
     0
171
     0
290
     0
174
     0
 93
        1
 44
0.0
173
     0
291
     1
 45
0.0
1001
ACAD
1000
AcDbSavedByObjectVersion
1070
     0
  0
VISUALSTYLE
  5
541
102
{ACAD_XDICTIONARY
360
968
102
}
102
{ACAD_REACTORS
330
14
102
}
330
14
100
AcDbVisualStyle
  2

 70
     5
 71
     0
 72
     2
 73
     0
 90
        0
 40
-0.6
 41
-30.0
 62
     5
 63
     7
 74
     1
 91
        4
 64
     7
 65
   257
 75
     1
175
     1
 42
1.0
 92
        0
 66
   257
 43
1.0
 76
     1
 77
     6
 78
     2
 67
     7
 79
     3
170
     0
171
     0
290
     0
174
     0
 93
        1
 44
0.0
173
     0
291
     0
 45
0.0
1001
ACAD
1000
AcDbSavedByObjectVersion
1070
     0
  0
VISUALSTYLE
  5
545
102
{ACAD_XDICTIONARY
360
970
102
}
102
{ACAD_REACTORS
330
14
102
}
330
14
100
AcDbVisualStyle
  2

 70
    25
 71
     2
 72
     2
 73
     1
 90
        1
 40
0.5
 41
-30.0
 62
     5
 63
     7
 74
     1
 91
        0
 64
     7
 65
   257
 75
     1
175
     1
 42
1.0
 92
        8
 66
     7
 43
1.0
 76
     1
 77
     6
 78
     2
 67
     7
 79
     3
170
     0
171
     0
290
     0
174
     0
 93
       13
 44
0.0
173
     0
291
     0
 45
0.0
1001
ACAD
1000
AcDbSavedByObjectVersion
1070
     0
  0
DICTIONARYVAR
  5
7C9
102
{ACAD_REACTORS
330
52B
102
}
330
52B
100
DictionaryVariables
280
     0
  1
1:1
  0
DICTIONARYVAR
  5
7C8
102
{ACAD_REACTORS
330
52B
102
}
330
52B
100
DictionaryVariables
280
     0
  1
STANDARD
  0
DICTIONARYVAR
  5
52C
102
{ACAD_REACTORS
330
52B
102
}
330
52B
100
DictionaryVariables
280
     0
  1
STANDARD
  0
DICTIONARYVAR
  5
52F
102
{ACAD_REACTORS
330
52B
102
}
330
52B
100
DictionaryVariables
280
     0
  1
1
  0
DICTIONARYVAR
  5
52E
102
{ACAD_REACTORS
330
52B
102
}
330
52B
100
DictionaryVariables
280
     0
  1
0
  0
DICTIONARYVAR
  5
52D
102
{ACAD_REACTORS
330
52B
102
}
330
52B
100
DictionaryVariables
280
     0
  1
127
  0
DICTIONARYVAR
  5
84D
102
{ACAD_REACTORS
330
52B
102
}
330
52B
100
DictionaryVariables
280
     0
  1
2
  0
DICTIONARY
  5
966
330
39
100
AcDbDictionary
280
     1
281
     1
  3
ACAD_XREC_ROUNDTRIP
360
967
  0
DICTIONARY
  5
964
330
35
100
AcDbDictionary
280
     1
281
     1
  3
ACAD_XREC_ROUNDTRIP
360
965
  0
DICTIONARY
  5
533
330
12
100
AcDbDictionary
280
     1
281
     1
  3
ACAD_XREC_ROUNDTRIP
360
534
  0
DICTIONARY
  5
531
330
11
100
AcDbDictionary
280
     1
281
     1
  3
ACAD_XREC_ROUNDTRIP
360
532
  0
DICTIONARY
  5
535
330
13
100
AcDbDictionary
280
     1
281
     1
  3
ACAD_XREC_ROUNDTRIP
360
536
  0
DICTIONARY
  5
7CB
330
31
100
AcDbDictionary
280
     1
281
     1
  3
ACAD_ROUNDTRIP_2008_TABLESTYLE_CELLSTYLEMAP
360
93C
  3
ACAD_XREC_ROUNDTRIP
360
963
  0
DICTIONARY
  5
94D
330
1A
100
AcDbDictionary
280
     1
281
     1
  3
ACAD_XREC_ROUNDTRIP
360
94E
  0
DICTIONARY
  5
951
330
1C
100
AcDbDictionary
280
     1
281
     1
  3
ACAD_XREC_ROUNDTRIP
360
952
  0
DICTIONARY
  5
94F
330
1B
100
AcDbDictionary
280
     1
281
     1
  3
ACAD_XREC_ROUNDTRIP
360
950
  0
DICTIONARY
  5
94B
330
19
100
AcDbDictionary
280
     1
281
     1
  3
ACAD_XREC_ROUNDTRIP
360
94C
  0
DICTIONARY
  5
959
330
20
100
AcDbDictionary
280
     1
281
     1
  3
ACAD_XREC_ROUNDTRIP
360
95A
  0
DICTIONARY
  5
961
330
24
100
AcDbDictionary
280
     1
281
     1
  3
ACAD_XREC_ROUNDTRIP
360
962
  0
DICTIONARY
  5
953
330
1D
100
AcDbDictionary
280
     1
281
     1
  3
ACAD_XREC_ROUNDTRIP
360
954
  0
DICTIONARY
  5
957
330
1F
100
AcDbDictionary
280
     1
281
     1
  3
ACAD_XREC_ROUNDTRIP
360
958
  0
DICTIONARY
  5
97A
330
54A
100
AcDbDictionary
280
     1
281
     1
  3
ACAD_XREC_ROUNDTRIP
360
97B
  0
DICTIONARY
  5
95F
330
23
100
AcDbDictionary
280
     1
281
     1
  3
ACAD_XREC_ROUNDTRIP
360
960
  0
DICTIONARY
  5
943
330
15
100
AcDbDictionary
280
     1
281
     1
  3
ACAD_XREC_ROUNDTRIP
360
944
  0
DICTIONARY
  5
945
330
16
100
AcDbDictionary
280
     1
281
     1
  3
ACAD_XREC_ROUNDTRIP
360
946
  0
DICTIONARY
  5
947
330
17
100
AcDbDictionary
280
     1
281
     1
  3
ACAD_XREC_ROUNDTRIP
360
948
  0
DICTIONARY
  5
949
330
18
100
AcDbDictionary
280
     1
281
     1
  3
ACAD_XREC_ROUNDTRIP
360
94A
  0
DICTIONARY
  5
96A
330
542
100
AcDbDictionary
280
     1
281
     1
  3
ACAD_XREC_ROUNDTRIP
360
96B
  0
DICTIONARY
  5
976
330
548
100
AcDbDictionary
280
     1
281
     1
  3
ACAD_XREC_ROUNDTRIP
360
977
  0
DICTIONARY
  5
95D
330
22
100
AcDbDictionary
280
     1
281
     1
  3
ACAD_XREC_ROUNDTRIP
360
95E
  0
DICTIONARY
  5
978
330
549
100
AcDbDictionary
280
     1
281
     1
  3
ACAD_XREC_ROUNDTRIP
360
979
  0
DICTIONARY
  5
955
330
1E
100
AcDbDictionary
280
     1
281
     1
  3
ACAD_XREC_ROUNDTRIP
360
956
  0
DICTIONARY
  5
974
330
547
100
AcDbDictionary
280
     1
281
     1
  3
ACAD_XREC_ROUNDTRIP
360
975
  0
DICTIONARY
  5
972
330
546
100
AcDbDictionary
280
     1
281
     1
  3
ACAD_XREC_ROUNDTRIP
360
973
  0
DICTIONARY
  5
96C
330
543
100
AcDbDictionary
280
     1
281
     1
  3
ACAD_XREC_ROUNDTRIP
360
96D
  0
DICTIONARY
  5
96E
330
544
100
AcDbDictionary
280
     1
281
     1
  3
ACAD_XREC_ROUNDTRIP
360
96F
  0
DICTIONARY
  5
95B
330
21
100
AcDbDictionary
280
     1
281
     1
  3
ACAD_XREC_ROUNDTRIP
360
95C
  0
DICTIONARY
  5
968
330
541
100
AcDbDictionary
280
     1
281
     1
  3
ACAD_XREC_ROUNDTRIP
360
969
  0
DICTIONARY
  5
970
330
545
100
AcDbDictionary
280
     1
281
     1
  3
ACAD_XREC_ROUNDTRIP
360
971
  0
XRECORD
  5
967
102
{ACAD_REACTORS
330
966
102
}
330
966
100
AcDbXrecord
280
     1
102
SHADEPLOT
 70
     0
102
SHADEPLOTRESLEVEL
 70
     2
102
SHADEPLOTCUSTOMDPI
 70
   300
  0
XRECORD
  5
965
102
{ACAD_REACTORS
330
964
102
}
330
964
100
AcDbXrecord
280
     1
102
SHADEPLOT
 70
     0
102
SHADEPLOTRESLEVEL
 70
     2
102
SHADEPLOTCUSTOMDPI
 70
   300
  0
XRECORD
  5
534
102
{ACAD_REACTORS
330
533
102
}
330
533
100
AcDbXrecord
280
     1
102
MATERIAL
148
0.0
149
0.0
149
0.0
 93
        0
 94
      127
282
     0
 72
     1
 77
     1
171
     1
175
     1
179
     1
273
     0
  0
XRECORD
  5
532
102
{ACAD_REACTORS
330
531
102
}
330
531
100
AcDbXrecord
280
     1
102
MATERIAL
148
0.0
149
0.0
149
0.0
 93
        0
 94
      127
282
     0
 72
     1
 77
     1
171
     1
175
     1
179
     1
273
     0
  0
XRECORD
  5
536
102
{ACAD_REACTORS
330
535
102
}
330
535
100
AcDbXrecord
280
     1
102
MATERIAL
148
0.0
149
0.0
149
0.0
 93
        0
 94
      127
282
     0
 72
     1
 77
     1
171
     1
175
     1
179
     1
273
     0
  0
CELLSTYLEMAP
  5
93C
102
{ACAD_REACTORS
330
7CB
102
}
330
7CB
100
AcDbCellStyleMap
 90
        3
300
CELLSTYLE
  1
TABLEFORMAT_BEGIN
 90
        5
170
     1
 91
        0
 92
    32768
 62
   257
 93
        1
300
CONTENTFORMAT
  1
CONTENTFORMAT_BEGIN
 90
        0
 91
        0
 92
      512
 93
        0
300

 40
0.0
140
1.0
 94
        5
 62
     0
340
26
144
0.25
309
CONTENTFORMAT_END
171
     1
301
MARGIN
  1
CELLMARGIN_BEGIN
 40
0.06
 40
0.06
 40
0.06
 40
0.06
 40
0.18
 40
0.18
309
CELLMARGIN_END
 94
        6
 95
        1
302
GRIDFORMAT
  1
GRIDFORMAT_BEGIN
 90
        0
 91
        1
 62
     0
 92
       -2
340
0
 93
        0
 40
0.045
309
GRIDFORMAT_END
 95
        2
302
GRIDFORMAT
  1
GRIDFORMAT_BEGIN
 90
        0
 91
        1
 62
     0
 92
       -2
340
0
 93
        0
 40
0.045
309
GRIDFORMAT_END
 95
        4
302
GRIDFORMAT
  1
GRIDFORMAT_BEGIN
 90
        0
 91
        1
 62
     0
 92
       -2
340
0
 93
        0
 40
0.045
309
GRIDFORMAT_END
 95
        8
302
GRIDFORMAT
  1
GRIDFORMAT_BEGIN
 90
        0
 91
        1
 62
     0
 92
       -2
340
0
 93
        0
 40
0.045
309
GRIDFORMAT_END
 95
       16
302
GRIDFORMAT
  1
GRIDFORMAT_BEGIN
 90
        0
 91
        1
 62
     0
 92
       -2
340
0
 93
        0
 40
0.045
309
GRIDFORMAT_END
 95
       32
302
GRIDFORMAT
  1
GRIDFORMAT_BEGIN
 90
        0
 91
        1
 62
     0
 92
       -2
340
0
 93
        0
 40
0.045
309
GRIDFORMAT_END
309
TABLEFORMAT_END
  1
CELLSTYLE_BEGIN
 90
        1
 91
        1
300
_TITLE
309
CELLSTYLE_END
300
CELLSTYLE
  1
TABLEFORMAT_BEGIN
 90
        5
170
     1
 91
        0
 92
        0
 62
   257
 93
        1
300
CONTENTFORMAT
  1
CONTENTFORMAT_BEGIN
 90
        0
 91
        0
 92
      512
 93
        0
300

 40
0.0
140
1.0
 94
        5
 62
     0
340
26
144
0.18
309
CONTENTFORMAT_END
171
     1
301
MARGIN
  1
CELLMARGIN_BEGIN
 40
0.06
 40
0.06
 40
0.06
 40
0.06
 40
0.18
 40
0.18
309
CELLMARGIN_END
 94
        6
 95
        1
302
GRIDFORMAT
  1
GRIDFORMAT_BEGIN
 90
        0
 91
        1
 62
     0
 92
       -2
340
0
 93
        0
 40
0.045
309
GRIDFORMAT_END
 95
        2
302
GRIDFORMAT
  1
GRIDFORMAT_BEGIN
 90
        0
 91
        1
 62
     0
 92
       -2
340
0
 93
        0
 40
0.045
309
GRIDFORMAT_END
 95
        4
302
GRIDFORMAT
  1
GRIDFORMAT_BEGIN
 90
        0
 91
        1
 62
     0
 92
       -2
340
0
 93
        0
 40
0.045
309
GRIDFORMAT_END
 95
        8
302
GRIDFORMAT
  1
GRIDFORMAT_BEGIN
 90
        0
 91
        1
 62
     0
 92
       -2
340
0
 93
        0
 40
0.045
309
GRIDFORMAT_END
 95
       16
302
GRIDFORMAT
  1
GRIDFORMAT_BEGIN
 90
        0
 91
        1
 62
     0
 92
       -2
340
0
 93
        0
 40
0.045
309
GRIDFORMAT_END
 95
       32
302
GRIDFORMAT
  1
GRIDFORMAT_BEGIN
 90
        0
 91
        1
 62
     0
 92
       -2
340
0
 93
        0
 40
0.045
309
GRIDFORMAT_END
309
TABLEFORMAT_END
  1
CELLSTYLE_BEGIN
 90
        2
 91
        1
300
_HEADER
309
CELLSTYLE_END
300
CELLSTYLE
  1
TABLEFORMAT_BEGIN
 90
        5
170
     1
 91
        0
 92
        0
 62
   257
 93
        1
300
CONTENTFORMAT
  1
CONTENTFORMAT_BEGIN
 90
        0
 91
        0
 92
      512
 93
        0
300

 40
0.0
140
1.0
 94
        2
 62
     0
340
26
144
0.18
309
CONTENTFORMAT_END
171
     1
301
MARGIN
  1
CELLMARGIN_BEGIN
 40
0.06
 40
0.06
 40
0.06
 40
0.06
 40
0.18
 40
0.18
309
CELLMARGIN_END
 94
        6
 95
        1
302
GRIDFORMAT
  1
GRIDFORMAT_BEGIN
 90
        0
 91
        1
 62
     0
 92
       -2
340
0
 93
        0
 40
0.045
309
GRIDFORMAT_END
 95
        2
302
GRIDFORMAT
  1
GRIDFORMAT_BEGIN
 90
        0
 91
        1
 62
     0
 92
       -2
340
0
 93
        0
 40
0.045
309
GRIDFORMAT_END
 95
        4
302
GRIDFORMAT
  1
GRIDFORMAT_BEGIN
 90
        0
 91
        1
 62
     0
 92
       -2
340
0
 93
        0
 40
0.045
309
GRIDFORMAT_END
 95
        8
302
GRIDFORMAT
  1
GRIDFORMAT_BEGIN
 90
        0
 91
        1
 62
     0
 92
       -2
340
0
 93
        0
 40
0.045
309
GRIDFORMAT_END
 95
       16
302
GRIDFORMAT
  1
GRIDFORMAT_BEGIN
 90
        0
 91
        1
 62
     0
 92
       -2
340
0
 93
        0
 40
0.045
309
GRIDFORMAT_END
 95
       32
302
GRIDFORMAT
  1
GRIDFORMAT_BEGIN
 90
        0
 91
        1
 62
     0
 92
       -2
340
0
 93
        0
 40
0.045
309
GRIDFORMAT_END
309
TABLEFORMAT_END
  1
CELLSTYLE_BEGIN
 90
        3
 91
        2
300
_DATA
309
CELLSTYLE_END
  0
XRECORD
  5
963
102
{ACAD_REACTORS
330
7CB
102
}
330
7CB
100
AcDbXrecord
280
     1
102
ACAD_ROUNDTRIP_PRE2007_TABLESTYLE
 90
      512
 91
        0
  1

 92
      512
 93
        0
  2

 94
      512
 95
        0
  3

  0
XRECORD
  5
94E
102
{ACAD_REACTORS
330
94D
102
}
330
94D
100
AcDbXrecord
280
     1
102
RTVSPropertyOp0
 70
     1
102
RTVSPropertyOp1
 70
     1
102
RTVSPropertyOp2
 70
     1
102
RTVSPropertyOp3
 70
     1
102
RTVSPropertyOp4
 70
     1
102
RTVSPropertyOp5
 70
     1
102
RTVSPropertyOp6
 70
     1
102
RTVSPropertyOp7
 70
     1
102
RTVSPropertyOp8
 70
     1
102
RTVSPropertyOp9
 70
     1
102
RTVSPropertyOp10
 70
     1
102
RTVSPropertyOp11
 70
     1
102
RTVSPropertyOp12
 70
     1
102
RTVSPropertyOp13
 70
     1
102
RTVSPropertyOp14
 70
     1
102
RTVSPropertyOp15
 70
     1
102
RTVSPropertyOp16
 70
     1
102
RTVSPropertyOp17
 70
     1
102
RTVSPropertyOp18
 70
     1
102
RTVSPropertyOp19
 70
     1
102
RTVSPropertyOp20
 70
     1
102
RTVSPropertyOp21
 70
     1
102
RTVSPropertyOp22
 70
     1
102
RTVSPropertyOp23
 70
     1
102
RTVSPropertyOp24
 70
     1
102
RTVSPropertyOp25
 70
     1
102
RTVSPropertyOp26
 70
     1
102
RTVSPropertyOp27
 70
     1
102
RTVSPropertyOp28
 70
     1
102
RTVSPropertyOp29
 70
     1
102
RTVSPropertyOp30
 70
     1
102
RTVSPropertyOp31
 70
     1
102
RTVSPropertyOp32
 70
     1
  0
XRECORD
  5
952
102
{ACAD_REACTORS
330
951
102
}
330
951
100
AcDbXrecord
280
     1
102
RTVSPropertyOp0
 70
     1
102
RTVSPropertyOp1
 70
     1
102
RTVSPropertyOp2
 70
     1
102
RTVSPropertyOp3
 70
     1
102
RTVSPropertyOp4
 70
     1
102
RTVSPropertyOp5
 70
     1
102
RTVSPropertyOp6
 70
     1
102
RTVSPropertyOp7
 70
     1
102
RTVSPropertyOp8
 70
     1
102
RTVSPropertyOp9
 70
     1
102
RTVSPropertyOp10
 70
     1
102
RTVSPropertyOp11
 70
     1
102
RTVSPropertyOp12
 70
     1
102
RTVSPropertyOp13
 70
     1
102
RTVSPropertyOp14
 70
     1
102
RTVSPropertyOp15
 70
     1
102
RTVSPropertyOp16
 70
     1
102
RTVSPropertyOp17
 70
     1
102
RTVSPropertyOp18
 70
     1
102
RTVSPropertyOp19
 70
     1
102
RTVSPropertyOp20
 70
     1
102
RTVSPropertyOp21
 70
     1
102
RTVSPropertyOp22
 70
     1
102
RTVSPropertyOp23
 70
     1
102
RTVSPropertyOp24
 70
     1
102
RTVSPropertyOp25
 70
     1
102
RTVSPropertyOp26
 70
     1
102
RTVSPropertyOp27
 70
     1
102
RTVSPropertyOp28
 70
     1
102
RTVSPropertyOp29
 70
     1
102
RTVSPropertyOp30
 70
     1
102
RTVSPropertyOp31
 70
     1
102
RTVSPropertyOp32
 70
     1
  0
XRECORD
  5
950
102
{ACAD_REACTORS
330
94F
102
}
330
94F
100
AcDbXrecord
280
     1
102
RTVSPropertyOp0
 70
     1
102
RTVSPropertyOp1
 70
     1
102
RTVSPropertyOp2
 70
     1
102
RTVSPropertyOp3
 70
     1
102
RTVSPropertyOp4
 70
     1
102
RTVSPropertyOp5
 70
     1
102
RTVSPropertyOp6
 70
     1
102
RTVSPropertyOp7
 70
     1
102
RTVSPropertyOp8
 70
     1
102
RTVSPropertyOp9
 70
     1
102
RTVSPropertyOp10
 70
     1
102
RTVSPropertyOp11
 70
     1
102
RTVSPropertyOp12
 70
     1
102
RTVSPropertyOp13
 70
     1
102
RTVSPropertyOp14
 70
     1
102
RTVSPropertyOp15
 70
     1
102
RTVSPropertyOp16
 70
     1
102
RTVSPropertyOp17
 70
     1
102
RTVSPropertyOp18
 70
     1
102
RTVSPropertyOp19
 70
     1
102
RTVSPropertyOp20
 70
     1
102
RTVSPropertyOp21
 70
     1
102
RTVSPropertyOp22
 70
     1
102
RTVSPropertyOp23
 70
     1
102
RTVSPropertyOp24
 70
     1
102
RTVSPropertyOp25
 70
     1
102
RTVSPropertyOp26
 70
     1
102
RTVSPropertyOp27
 70
     1
102
RTVSPropertyOp28
 70
     1
102
RTVSPropertyOp29
 70
     1
102
RTVSPropertyOp30
 70
     1
102
RTVSPropertyOp31
 70
     1
102
RTVSPropertyOp32
 70
     1
  0
XRECORD
  5
94C
102
{ACAD_REACTORS
330
94B
102
}
330
94B
100
AcDbXrecord
280
     1
102
RTVSPropertyOp0
 70
     1
102
RTVSPropertyOp1
 70
     1
102
RTVSPropertyOp2
 70
     1
102
RTVSPropertyOp3
 70
     1
102
RTVSPropertyOp4
 70
     1
102
RTVSPropertyOp5
 70
     1
102
RTVSPropertyOp6
 70
     1
102
RTVSPropertyOp7
 70
     1
102
RTVSPropertyOp8
 70
     1
102
RTVSPropertyOp9
 70
     1
102
RTVSPropertyOp10
 70
     1
102
RTVSPropertyOp11
 70
     1
102
RTVSPropertyOp12
 70
     1
102
RTVSPropertyOp13
 70
     1
102
RTVSPropertyOp14
 70
     1
102
RTVSPropertyOp15
 70
     1
102
RTVSPropertyOp16
 70
     1
102
RTVSPropertyOp17
 70
     1
102
RTVSPropertyOp18
 70
     1
102
RTVSPropertyOp19
 70
     1
102
RTVSPropertyOp20
 70
     1
102
RTVSPropertyOp21
 70
     1
102
RTVSPropertyOp22
 70
     1
102
RTVSPropertyOp23
 70
     1
102
RTVSPropertyOp24
 70
     1
102
RTVSPropertyOp25
 70
     1
102
RTVSPropertyOp26
 70
     1
102
RTVSPropertyOp27
 70
     1
102
RTVSPropertyOp28
 70
     1
102
RTVSPropertyOp29
 70
     1
102
RTVSPropertyOp30
 70
     1
102
RTVSPropertyOp31
 70
     1
102
RTVSPropertyOp32
 70
     1
  0
XRECORD
  5
95A
102
{ACAD_REACTORS
330
959
102
}
330
959
100
AcDbXrecord
280
     1
102
RTVSPropertyOp0
 70
     1
102
RTVSPropertyOp1
 70
     1
102
RTVSPropertyOp2
 70
     1
102
RTVSPropertyOp3
 70
     1
102
RTVSPropertyOp4
 70
     1
102
RTVSPropertyOp5
 70
     1
102
RTVSPropertyOp6
 70
     1
102
RTVSPropertyOp7
 70
     1
102
RTVSPropertyOp8
 70
     1
102
RTVSPropertyOp9
 70
     1
102
RTVSPropertyOp10
 70
     1
102
RTVSPropertyOp11
 70
     1
102
RTVSPropertyOp12
 70
     1
102
RTVSPropertyOp13
 70
     1
102
RTVSPropertyOp14
 70
     1
102
RTVSPropertyOp15
 70
     1
102
RTVSPropertyOp16
 70
     1
102
RTVSPropertyOp17
 70
     1
102
RTVSPropertyOp18
 70
     1
102
RTVSPropertyOp19
 70
     1
102
RTVSPropertyOp20
 70
     1
102
RTVSPropertyOp21
 70
     1
102
RTVSPropertyOp22
 70
     1
102
RTVSPropertyOp23
 70
     1
102
RTVSPropertyOp24
 70
     1
102
RTVSPropertyOp25
 70
     1
102
RTVSPropertyOp26
 70
     1
102
RTVSPropertyOp27
 70
     1
102
RTVSPropertyOp28
 70
     1
102
RTVSPropertyOp29
 70
     1
102
RTVSPropertyOp30
 70
     1
102
RTVSPropertyOp31
 70
     1
102
RTVSPropertyOp32
 70
     1
  0
XRECORD
  5
962
102
{ACAD_REACTORS
330
961
102
}
330
961
100
AcDbXrecord
280
     1
102
RTVSPropertyOp0
 70
     1
102
RTVSPropertyOp1
 70
     1
102
RTVSPropertyOp2
 70
     1
102
RTVSPropertyOp3
 70
     1
102
RTVSPropertyOp4
 70
     1
102
RTVSPropertyOp5
 70
     1
102
RTVSPropertyOp6
 70
     1
102
RTVSPropertyOp7
 70
     1
102
RTVSPropertyOp8
 70
     1
102
RTVSPropertyOp9
 70
     1
102
RTVSPropertyOp10
 70
     1
102
RTVSPropertyOp11
 70
     1
102
RTVSPropertyOp12
 70
     1
102
RTVSPropertyOp13
 70
     1
102
RTVSPropertyOp14
 70
     1
102
RTVSPropertyOp15
 70
     1
102
RTVSPropertyOp16
 70
     1
102
RTVSPropertyOp17
 70
     1
102
RTVSPropertyOp18
 70
     1
102
RTVSPropertyOp19
 70
     1
102
RTVSPropertyOp20
 70
     1
102
RTVSPropertyOp21
 70
     1
102
RTVSPropertyOp22
 70
     1
102
RTVSPropertyOp23
 70
     1
102
RTVSPropertyOp24
 70
     1
102
RTVSPropertyOp25
 70
     1
102
RTVSPropertyOp26
 70
     1
102
RTVSPropertyOp27
 70
     1
102
RTVSPropertyOp28
 70
     1
102
RTVSPropertyOp29
 70
     1
102
RTVSPropertyOp30
 70
     1
102
RTVSPropertyOp31
 70
     1
102
RTVSPropertyOp32
 70
     1
  0
XRECORD
  5
954
102
{ACAD_REACTORS
330
953
102
}
330
953
100
AcDbXrecord
280
     1
102
RTVSPropertyOp0
 70
     1
102
RTVSPropertyOp1
 70
     1
102
RTVSPropertyOp2
 70
     1
102
RTVSPropertyOp3
 70
     1
102
RTVSPropertyOp4
 70
     1
102
RTVSPropertyOp5
 70
     1
102
RTVSPropertyOp6
 70
     1
102
RTVSPropertyOp7
 70
     1
102
RTVSPropertyOp8
 70
     1
102
RTVSPropertyOp9
 70
     1
102
RTVSPropertyOp10
 70
     1
102
RTVSPropertyOp11
 70
     1
102
RTVSPropertyOp12
 70
     1
102
RTVSPropertyOp13
 70
     1
102
RTVSPropertyOp14
 70
     1
102
RTVSPropertyOp15
 70
     1
102
RTVSPropertyOp16
 70
     1
102
RTVSPropertyOp17
 70
     1
102
RTVSPropertyOp18
 70
     1
102
RTVSPropertyOp19
 70
     1
102
RTVSPropertyOp20
 70
     1
102
RTVSPropertyOp21
 70
     1
102
RTVSPropertyOp22
 70
     1
102
RTVSPropertyOp23
 70
     1
102
RTVSPropertyOp24
 70
     1
102
RTVSPropertyOp25
 70
     1
102
RTVSPropertyOp26
 70
     1
102
RTVSPropertyOp27
 70
     1
102
RTVSPropertyOp28
 70
     1
102
RTVSPropertyOp29
 70
     1
102
RTVSPropertyOp30
 70
     1
102
RTVSPropertyOp31
 70
     1
102
RTVSPropertyOp32
 70
     1
  0
XRECORD
  5
958
102
{ACAD_REACTORS
330
957
102
}
330
957
100
AcDbXrecord
280
     1
102
RTVSPropertyOp0
 70
     1
102
RTVSPropertyOp1
 70
     1
102
RTVSPropertyOp2
 70
     1
102
RTVSPropertyOp3
 70
     1
102
RTVSPropertyOp4
 70
     1
102
RTVSPropertyOp5
 70
     1
102
RTVSPropertyOp6
 70
     1
102
RTVSPropertyOp7
 70
     1
102
RTVSPropertyOp8
 70
     1
102
RTVSPropertyOp9
 70
     1
102
RTVSPropertyOp10
 70
     1
102
RTVSPropertyOp11
 70
     1
102
RTVSPropertyOp12
 70
     1
102
RTVSPropertyOp13
 70
     1
102
RTVSPropertyOp14
 70
     1
102
RTVSPropertyOp15
 70
     1
102
RTVSPropertyOp16
 70
     1
102
RTVSPropertyOp17
 70
     1
102
RTVSPropertyOp18
 70
     1
102
RTVSPropertyOp19
 70
     1
102
RTVSPropertyOp20
 70
     1
102
RTVSPropertyOp21
 70
     1
102
RTVSPropertyOp22
 70
     1
102
RTVSPropertyOp23
 70
     1
102
RTVSPropertyOp24
 70
     1
102
RTVSPropertyOp25
 70
     1
102
RTVSPropertyOp26
 70
     1
102
RTVSPropertyOp27
 70
     1
102
RTVSPropertyOp28
 70
     1
102
RTVSPropertyOp29
 70
     1
102
RTVSPropertyOp30
 70
     1
102
RTVSPropertyOp31
 70
     1
102
RTVSPropertyOp32
 70
     1
  0
XRECORD
  5
97B
102
{ACAD_REACTORS
330
97A
102
}
330
97A
100
AcDbXrecord
280
     1
102
RTVSPropertyOp0
 70
     0
102
RTVSPropertyOp1
 70
     0
102
RTVSPropertyOp2
 70
     0
102
RTVSPropertyOp3
 70
     0
102
RTVSPropertyOp4
 70
     0
102
RTVSPropertyOp5
 70
     0
102
RTVSPropertyOp6
 70
     0
102
RTVSPropertyOp7
 70
     0
102
RTVSPropertyOp8
 70
     0
102
RTVSPropertyOp9
 70
     0
102
RTVSPropertyOp10
 70
     0
102
RTVSPropertyOp11
 70
     0
102
RTVSPropertyOp12
 70
     0
102
RTVSPropertyOp13
 70
     0
102
RTVSPropertyOp14
 70
     2
102
RTVSPropertyOp15
 70
     0
102
RTVSPropertyOp16
 70
     0
102
RTVSPropertyOp17
 70
     0
102
RTVSPropertyOp18
 70
     0
102
RTVSPropertyOp19
 70
     0
102
RTVSPropertyOp20
 70
     0
102
RTVSPropertyOp21
 70
     0
102
RTVSPropertyOp22
 70
     0
102
RTVSPropertyOp23
 70
     0
102
RTVSPropertyOp24
 70
     0
102
RTVSPropertyOp25
 70
     0
102
RTVSPropertyOp26
 70
     0
102
RTVSPropertyOp27
 70
     0
102
RTVSPropertyOp28
 70
     0
102
RTVSPropertyOp29
 70
     0
102
RTVSPropertyOp30
 70
     0
102
RTVSPropertyOp31
 70
     0
102
RTVSPropertyOp32
 70
     0
  0
XRECORD
  5
960
102
{ACAD_REACTORS
330
95F
102
}
330
95F
100
AcDbXrecord
280
     1
102
RTVSPropertyOp0
 70
     1
102
RTVSPropertyOp1
 70
     1
102
RTVSPropertyOp2
 70
     1
102
RTVSPropertyOp3
 70
     1
102
RTVSPropertyOp4
 70
     1
102
RTVSPropertyOp5
 70
     1
102
RTVSPropertyOp6
 70
     1
102
RTVSPropertyOp7
 70
     1
102
RTVSPropertyOp8
 70
     1
102
RTVSPropertyOp9
 70
     1
102
RTVSPropertyOp10
 70
     1
102
RTVSPropertyOp11
 70
     1
102
RTVSPropertyOp12
 70
     1
102
RTVSPropertyOp13
 70
     1
102
RTVSPropertyOp14
 70
     1
102
RTVSPropertyOp15
 70
     1
102
RTVSPropertyOp16
 70
     1
102
RTVSPropertyOp17
 70
     1
102
RTVSPropertyOp18
 70
     1
102
RTVSPropertyOp19
 70
     1
102
RTVSPropertyOp20
 70
     1
102
RTVSPropertyOp21
 70
     1
102
RTVSPropertyOp22
 70
     1
102
RTVSPropertyOp23
 70
     1
102
RTVSPropertyOp24
 70
     1
102
RTVSPropertyOp25
 70
     1
102
RTVSPropertyOp26
 70
     1
102
RTVSPropertyOp27
 70
     1
102
RTVSPropertyOp28
 70
     1
102
RTVSPropertyOp29
 70
     1
102
RTVSPropertyOp30
 70
     1
102
RTVSPropertyOp31
 70
     1
102
RTVSPropertyOp32
 70
     1
  0
XRECORD
  5
944
102
{ACAD_REACTORS
330
943
102
}
330
943
100
AcDbXrecord
280
     1
102
RTVSPropertyOp0
 70
     1
102
RTVSPropertyOp1
 70
     1
102
RTVSPropertyOp2
 70
     1
102
RTVSPropertyOp3
 70
     1
102
RTVSPropertyOp4
 70
     1
102
RTVSPropertyOp5
 70
     1
102
RTVSPropertyOp6
 70
     1
102
RTVSPropertyOp7
 70
     1
102
RTVSPropertyOp8
 70
     1
102
RTVSPropertyOp9
 70
     1
102
RTVSPropertyOp10
 70
     1
102
RTVSPropertyOp11
 70
     1
102
RTVSPropertyOp12
 70
     1
102
RTVSPropertyOp13
 70
     1
102
RTVSPropertyOp14
 70
     1
102
RTVSPropertyOp15
 70
     1
102
RTVSPropertyOp16
 70
     1
102
RTVSPropertyOp17
 70
     1
102
RTVSPropertyOp18
 70
     1
102
RTVSPropertyOp19
 70
     1
102
RTVSPropertyOp20
 70
     1
102
RTVSPropertyOp21
 70
     1
102
RTVSPropertyOp22
 70
     1
102
RTVSPropertyOp23
 70
     1
102
RTVSPropertyOp24
 70
     1
102
RTVSPropertyOp25
 70
     1
102
RTVSPropertyOp26
 70
     1
102
RTVSPropertyOp27
 70
     1
102
RTVSPropertyOp28
 70
     1
102
RTVSPropertyOp29
 70
     1
102
RTVSPropertyOp30
 70
     1
102
RTVSPropertyOp31
 70
     1
102
RTVSPropertyOp32
 70
     1
  0
XRECORD
  5
946
102
{ACAD_REACTORS
330
945
102
}
330
945
100
AcDbXrecord
280
     1
102
RTVSPropertyOp0
 70
     1
102
RTVSPropertyOp1
 70
     1
102
RTVSPropertyOp2
 70
     1
102
RTVSPropertyOp3
 70
     1
102
RTVSPropertyOp4
 70
     1
102
RTVSPropertyOp5
 70
     1
102
RTVSPropertyOp6
 70
     1
102
RTVSPropertyOp7
 70
     1
102
RTVSPropertyOp8
 70
     1
102
RTVSPropertyOp9
 70
     1
102
RTVSPropertyOp10
 70
     1
102
RTVSPropertyOp11
 70
     1
102
RTVSPropertyOp12
 70
     1
102
RTVSPropertyOp13
 70
     1
102
RTVSPropertyOp14
 70
     1
102
RTVSPropertyOp15
 70
     1
102
RTVSPropertyOp16
 70
     1
102
RTVSPropertyOp17
 70
     1
102
RTVSPropertyOp18
 70
     1
102
RTVSPropertyOp19
 70
     1
102
RTVSPropertyOp20
 70
     1
102
RTVSPropertyOp21
 70
     1
102
RTVSPropertyOp22
 70
     1
102
RTVSPropertyOp23
 70
     1
102
RTVSPropertyOp24
 70
     1
102
RTVSPropertyOp25
 70
     1
102
RTVSPropertyOp26
 70
     1
102
RTVSPropertyOp27
 70
     1
102
RTVSPropertyOp28
 70
     1
102
RTVSPropertyOp29
 70
     1
102
RTVSPropertyOp30
 70
     1
102
RTVSPropertyOp31
 70
     1
102
RTVSPropertyOp32
 70
     1
  0
XRECORD
  5
948
102
{ACAD_REACTORS
330
947
102
}
330
947
100
AcDbXrecord
280
     1
102
RTVSPropertyOp0
 70
     1
102
RTVSPropertyOp1
 70
     1
102
RTVSPropertyOp2
 70
     1
102
RTVSPropertyOp3
 70
     1
102
RTVSPropertyOp4
 70
     1
102
RTVSPropertyOp5
 70
     1
102
RTVSPropertyOp6
 70
     1
102
RTVSPropertyOp7
 70
     1
102
RTVSPropertyOp8
 70
     1
102
RTVSPropertyOp9
 70
     1
102
RTVSPropertyOp10
 70
     1
102
RTVSPropertyOp11
 70
     1
102
RTVSPropertyOp12
 70
     1
102
RTVSPropertyOp13
 70
     1
102
RTVSPropertyOp14
 70
     1
102
RTVSPropertyOp15
 70
     1
102
RTVSPropertyOp16
 70
     1
102
RTVSPropertyOp17
 70
     1
102
RTVSPropertyOp18
 70
     1
102
RTVSPropertyOp19
 70
     1
102
RTVSPropertyOp20
 70
     1
102
RTVSPropertyOp21
 70
     1
102
RTVSPropertyOp22
 70
     1
102
RTVSPropertyOp23
 70
     1
102
RTVSPropertyOp24
 70
     1
102
RTVSPropertyOp25
 70
     1
102
RTVSPropertyOp26
 70
     1
102
RTVSPropertyOp27
 70
     1
102
RTVSPropertyOp28
 70
     1
102
RTVSPropertyOp29
 70
     1
102
RTVSPropertyOp30
 70
     1
102
RTVSPropertyOp31
 70
     1
102
RTVSPropertyOp32
 70
     1
  0
XRECORD
  5
94A
102
{ACAD_REACTORS
330
949
102
}
330
949
100
AcDbXrecord
280
     1
102
RTVSPropertyOp0
 70
     1
102
RTVSPropertyOp1
 70
     1
102
RTVSPropertyOp2
 70
     1
102
RTVSPropertyOp3
 70
     1
102
RTVSPropertyOp4
 70
     1
102
RTVSPropertyOp5
 70
     1
102
RTVSPropertyOp6
 70
     1
102
RTVSPropertyOp7
 70
     1
102
RTVSPropertyOp8
 70
     1
102
RTVSPropertyOp9
 70
     1
102
RTVSPropertyOp10
 70
     1
102
RTVSPropertyOp11
 70
     1
102
RTVSPropertyOp12
 70
     1
102
RTVSPropertyOp13
 70
     1
102
RTVSPropertyOp14
 70
     1
102
RTVSPropertyOp15
 70
     1
102
RTVSPropertyOp16
 70
     1
102
RTVSPropertyOp17
 70
     1
102
RTVSPropertyOp18
 70
     1
102
RTVSPropertyOp19
 70
     1
102
RTVSPropertyOp20
 70
     1
102
RTVSPropertyOp21
 70
     1
102
RTVSPropertyOp22
 70
     1
102
RTVSPropertyOp23
 70
     1
102
RTVSPropertyOp24
 70
     1
102
RTVSPropertyOp25
 70
     1
102
RTVSPropertyOp26
 70
     1
102
RTVSPropertyOp27
 70
     1
102
RTVSPropertyOp28
 70
     1
102
RTVSPropertyOp29
 70
     1
102
RTVSPropertyOp30
 70
     1
102
RTVSPropertyOp31
 70
     1
102
RTVSPropertyOp32
 70
     1
  0
XRECORD
  5
96B
102
{ACAD_REACTORS
330
96A
102
}
330
96A
100
AcDbXrecord
280
     1
102
RTVSPropertyOp0
 70
     1
102
RTVSPropertyOp1
 70
     1
102
RTVSPropertyOp2
 70
     1
102
RTVSPropertyOp3
 70
     1
102
RTVSPropertyOp4
 70
     1
102
RTVSPropertyOp5
 70
     1
102
RTVSPropertyOp6
 70
     1
102
RTVSPropertyOp7
 70
     1
102
RTVSPropertyOp8
 70
     1
102
RTVSPropertyOp9
 70
     1
102
RTVSPropertyOp10
 70
     1
102
RTVSPropertyOp11
 70
     1
102
RTVSPropertyOp12
 70
     1
102
RTVSPropertyOp13
 70
     1
102
RTVSPropertyOp14
 70
     1
102
RTVSPropertyOp15
 70
     1
102
RTVSPropertyOp16
 70
     1
102
RTVSPropertyOp17
 70
     1
102
RTVSPropertyOp18
 70
     1
102
RTVSPropertyOp19
 70
     1
102
RTVSPropertyOp20
 70
     1
102
RTVSPropertyOp21
 70
     1
102
RTVSPropertyOp22
 70
     1
102
RTVSPropertyOp23
 70
     1
102
RTVSPropertyOp24
 70
     1
102
RTVSPropertyOp25
 70
     1
102
RTVSPropertyOp26
 70
     1
102
RTVSPropertyOp27
 70
     1
102
RTVSPropertyOp28
 70
     1
102
RTVSPropertyOp29
 70
     1
102
RTVSPropertyOp30
 70
     1
102
RTVSPropertyOp31
 70
     1
102
RTVSPropertyOp32
 70
     1
  0
XRECORD
  5
977
102
{ACAD_REACTORS
330
976
102
}
330
976
100
AcDbXrecord
280
     1
102
RTVSPropertyOp0
 70
     0
102
RTVSPropertyOp1
 70
     0
102
RTVSPropertyOp2
 70
     0
102
RTVSPropertyOp3
 70
     0
102
RTVSPropertyOp4
 70
     0
102
RTVSPropertyOp5
 70
     0
102
RTVSPropertyOp6
 70
     0
102
RTVSPropertyOp7
 70
     0
102
RTVSPropertyOp8
 70
     0
102
RTVSPropertyOp9
 70
     0
102
RTVSPropertyOp10
 70
     0
102
RTVSPropertyOp11
 70
     0
102
RTVSPropertyOp12
 70
     0
102
RTVSPropertyOp13
 70
     0
102
RTVSPropertyOp14
 70
     2
102
RTVSPropertyOp15
 70
     0
102
RTVSPropertyOp16
 70
     0
102
RTVSPropertyOp17
 70
     0
102
RTVSPropertyOp18
 70
     0
102
RTVSPropertyOp19
 70
     0
102
RTVSPropertyOp20
 70
     0
102
RTVSPropertyOp21
 70
     0
102
RTVSPropertyOp22
 70
     0
102
RTVSPropertyOp23
 70
     0
102
RTVSPropertyOp24
 70
     0
102
RTVSPropertyOp25
 70
     0
102
RTVSPropertyOp26
 70
     0
102
RTVSPropertyOp27
 70
     0
102
RTVSPropertyOp28
 70
     0
102
RTVSPropertyOp29
 70
     0
102
RTVSPropertyOp30
 70
     0
102
RTVSPropertyOp31
 70
     0
102
RTVSPropertyOp32
 70
     0
  0
XRECORD
  5
95E
102
{ACAD_REACTORS
330
95D
102
}
330
95D
100
AcDbXrecord
280
     1
102
RTVSPropertyOp0
 70
     1
102
RTVSPropertyOp1
 70
     1
102
RTVSPropertyOp2
 70
     1
102
RTVSPropertyOp3
 70
     1
102
RTVSPropertyOp4
 70
     1
102
RTVSPropertyOp5
 70
     1
102
RTVSPropertyOp6
 70
     1
102
RTVSPropertyOp7
 70
     1
102
RTVSPropertyOp8
 70
     1
102
RTVSPropertyOp9
 70
     1
102
RTVSPropertyOp10
 70
     1
102
RTVSPropertyOp11
 70
     1
102
RTVSPropertyOp12
 70
     1
102
RTVSPropertyOp13
 70
     1
102
RTVSPropertyOp14
 70
     1
102
RTVSPropertyOp15
 70
     1
102
RTVSPropertyOp16
 70
     1
102
RTVSPropertyOp17
 70
     1
102
RTVSPropertyOp18
 70
     1
102
RTVSPropertyOp19
 70
     1
102
RTVSPropertyOp20
 70
     1
102
RTVSPropertyOp21
 70
     1
102
RTVSPropertyOp22
 70
     1
102
RTVSPropertyOp23
 70
     1
102
RTVSPropertyOp24
 70
     1
102
RTVSPropertyOp25
 70
     1
102
RTVSPropertyOp26
 70
     1
102
RTVSPropertyOp27
 70
     1
102
RTVSPropertyOp28
 70
     1
102
RTVSPropertyOp29
 70
     1
102
RTVSPropertyOp30
 70
     1
102
RTVSPropertyOp31
 70
     1
102
RTVSPropertyOp32
 70
     1
  0
XRECORD
  5
979
102
{ACAD_REACTORS
330
978
102
}
330
978
100
AcDbXrecord
280
     1
102
RTVSPropertyOp0
 70
     0
102
RTVSPropertyOp1
 70
     0
102
RTVSPropertyOp2
 70
     0
102
RTVSPropertyOp3
 70
     0
102
RTVSPropertyOp4
 70
     0
102
RTVSPropertyOp5
 70
     0
102
RTVSPropertyOp6
 70
     0
102
RTVSPropertyOp7
 70
     0
102
RTVSPropertyOp8
 70
     0
102
RTVSPropertyOp9
 70
     0
102
RTVSPropertyOp10
 70
     0
102
RTVSPropertyOp11
 70
     0
102
RTVSPropertyOp12
 70
     0
102
RTVSPropertyOp13
 70
     0
102
RTVSPropertyOp14
 70
     2
102
RTVSPropertyOp15
 70
     0
102
RTVSPropertyOp16
 70
     0
102
RTVSPropertyOp17
 70
     0
102
RTVSPropertyOp18
 70
     0
102
RTVSPropertyOp19
 70
     0
102
RTVSPropertyOp20
 70
     0
102
RTVSPropertyOp21
 70
     0
102
RTVSPropertyOp22
 70
     0
102
RTVSPropertyOp23
 70
     0
102
RTVSPropertyOp24
 70
     0
102
RTVSPropertyOp25
 70
     0
102
RTVSPropertyOp26
 70
     0
102
RTVSPropertyOp27
 70
     0
102
RTVSPropertyOp28
 70
     0
102
RTVSPropertyOp29
 70
     0
102
RTVSPropertyOp30
 70
     0
102
RTVSPropertyOp31
 70
     0
102
RTVSPropertyOp32
 70
     0
  0
XRECORD
  5
956
102
{ACAD_REACTORS
330
955
102
}
330
955
100
AcDbXrecord
280
     1
102
RTVSPropertyOp0
 70
     1
102
RTVSPropertyOp1
 70
     1
102
RTVSPropertyOp2
 70
     1
102
RTVSPropertyOp3
 70
     1
102
RTVSPropertyOp4
 70
     1
102
RTVSPropertyOp5
 70
     1
102
RTVSPropertyOp6
 70
     1
102
RTVSPropertyOp7
 70
     1
102
RTVSPropertyOp8
 70
     1
102
RTVSPropertyOp9
 70
     1
102
RTVSPropertyOp10
 70
     1
102
RTVSPropertyOp11
 70
     1
102
RTVSPropertyOp12
 70
     1
102
RTVSPropertyOp13
 70
     1
102
RTVSPropertyOp14
 70
     1
102
RTVSPropertyOp15
 70
     1
102
RTVSPropertyOp16
 70
     1
102
RTVSPropertyOp17
 70
     1
102
RTVSPropertyOp18
 70
     1
102
RTVSPropertyOp19
 70
     1
102
RTVSPropertyOp20
 70
     1
102
RTVSPropertyOp21
 70
     1
102
RTVSPropertyOp22
 70
     1
102
RTVSPropertyOp23
 70
     1
102
RTVSPropertyOp24
 70
     1
102
RTVSPropertyOp25
 70
     1
102
RTVSPropertyOp26
 70
     1
102
RTVSPropertyOp27
 70
     1
102
RTVSPropertyOp28
 70
     1
102
RTVSPropertyOp29
 70
     1
102
RTVSPropertyOp30
 70
     1
102
RTVSPropertyOp31
 70
     1
102
RTVSPropertyOp32
 70
     1
  0
XRECORD
  5
975
102
{ACAD_REACTORS
330
974
102
}
330
974
100
AcDbXrecord
280
     1
102
RTVSPropertyOp0
 70
     1
102
RTVSPropertyOp1
 70
     1
102
RTVSPropertyOp2
 70
     1
102
RTVSPropertyOp3
 70
     1
102
RTVSPropertyOp4
 70
     1
102
RTVSPropertyOp5
 70
     1
102
RTVSPropertyOp6
 70
     1
102
RTVSPropertyOp7
 70
     1
102
RTVSPropertyOp8
 70
     1
102
RTVSPropertyOp9
 70
     1
102
RTVSPropertyOp10
 70
     1
102
RTVSPropertyOp11
 70
     1
102
RTVSPropertyOp12
 70
     1
102
RTVSPropertyOp13
 70
     1
102
RTVSPropertyOp14
 70
     1
102
RTVSPropertyOp15
 70
     1
102
RTVSPropertyOp16
 70
     1
102
RTVSPropertyOp17
 70
     1
102
RTVSPropertyOp18
 70
     1
102
RTVSPropertyOp19
 70
     1
102
RTVSPropertyOp20
 70
     1
102
RTVSPropertyOp21
 70
     1
102
RTVSPropertyOp22
 70
     1
102
RTVSPropertyOp23
 70
     1
102
RTVSPropertyOp24
 70
     1
102
RTVSPropertyOp25
 70
     1
102
RTVSPropertyOp26
 70
     1
102
RTVSPropertyOp27
 70
     1
102
RTVSPropertyOp28
 70
     1
102
RTVSPropertyOp29
 70
     1
102
RTVSPropertyOp30
 70
     1
102
RTVSPropertyOp31
 70
     1
102
RTVSPropertyOp32
 70
     1
  0
XRECORD
  5
973
102
{ACAD_REACTORS
330
972
102
}
330
972
100
AcDbXrecord
280
     1
102
RTVSPropertyOp0
 70
     1
102
RTVSPropertyOp1
 70
     1
102
RTVSPropertyOp2
 70
     1
102
RTVSPropertyOp3
 70
     1
102
RTVSPropertyOp4
 70
     1
102
RTVSPropertyOp5
 70
     1
102
RTVSPropertyOp6
 70
     1
102
RTVSPropertyOp7
 70
     1
102
RTVSPropertyOp8
 70
     1
102
RTVSPropertyOp9
 70
     1
102
RTVSPropertyOp10
 70
     1
102
RTVSPropertyOp11
 70
     1
102
RTVSPropertyOp12
 70
     1
102
RTVSPropertyOp13
 70
     1
102
RTVSPropertyOp14
 70
     1
102
RTVSPropertyOp15
 70
     1
102
RTVSPropertyOp16
 70
     1
102
RTVSPropertyOp17
 70
     1
102
RTVSPropertyOp18
 70
     1
102
RTVSPropertyOp19
 70
     1
102
RTVSPropertyOp20
 70
     1
102
RTVSPropertyOp21
 70
     1
102
RTVSPropertyOp22
 70
     1
102
RTVSPropertyOp23
 70
     1
102
RTVSPropertyOp24
 70
     1
102
RTVSPropertyOp25
 70
     1
102
RTVSPropertyOp26
 70
     1
102
RTVSPropertyOp27
 70
     1
102
RTVSPropertyOp28
 70
     1
102
RTVSPropertyOp29
 70
     1
102
RTVSPropertyOp30
 70
     1
102
RTVSPropertyOp31
 70
     1
102
RTVSPropertyOp32
 70
     1
  0
XRECORD
  5
96D
102
{ACAD_REACTORS
330
96C
102
}
330
96C
100
AcDbXrecord
280
     1
102
RTVSPropertyOp0
 70
     1
102
RTVSPropertyOp1
 70
     1
102
RTVSPropertyOp2
 70
     1
102
RTVSPropertyOp3
 70
     1
102
RTVSPropertyOp4
 70
     1
102
RTVSPropertyOp5
 70
     1
102
RTVSPropertyOp6
 70
     1
102
RTVSPropertyOp7
 70
     1
102
RTVSPropertyOp8
 70
     1
102
RTVSPropertyOp9
 70
     1
102
RTVSPropertyOp10
 70
     1
102
RTVSPropertyOp11
 70
     1
102
RTVSPropertyOp12
 70
     1
102
RTVSPropertyOp13
 70
     1
102
RTVSPropertyOp14
 70
     1
102
RTVSPropertyOp15
 70
     1
102
RTVSPropertyOp16
 70
     1
102
RTVSPropertyOp17
 70
     1
102
RTVSPropertyOp18
 70
     1
102
RTVSPropertyOp19
 70
     1
102
RTVSPropertyOp20
 70
     1
102
RTVSPropertyOp21
 70
     1
102
RTVSPropertyOp22
 70
     1
102
RTVSPropertyOp23
 70
     1
102
RTVSPropertyOp24
 70
     1
102
RTVSPropertyOp25
 70
     1
102
RTVSPropertyOp26
 70
     1
102
RTVSPropertyOp27
 70
     1
102
RTVSPropertyOp28
 70
     1
102
RTVSPropertyOp29
 70
     1
102
RTVSPropertyOp30
 70
     1
102
RTVSPropertyOp31
 70
     1
102
RTVSPropertyOp32
 70
     1
  0
XRECORD
  5
96F
102
{ACAD_REACTORS
330
96E
102
}
330
96E
100
AcDbXrecord
280
     1
102
RTVSPropertyOp0
 70
     1
102
RTVSPropertyOp1
 70
     1
102
RTVSPropertyOp2
 70
     1
102
RTVSPropertyOp3
 70
     1
102
RTVSPropertyOp4
 70
     1
102
RTVSPropertyOp5
 70
     1
102
RTVSPropertyOp6
 70
     1
102
RTVSPropertyOp7
 70
     1
102
RTVSPropertyOp8
 70
     1
102
RTVSPropertyOp9
 70
     1
102
RTVSPropertyOp10
 70
     1
102
RTVSPropertyOp11
 70
     1
102
RTVSPropertyOp12
 70
     1
102
RTVSPropertyOp13
 70
     1
102
RTVSPropertyOp14
 70
     1
102
RTVSPropertyOp15
 70
     1
102
RTVSPropertyOp16
 70
     1
102
RTVSPropertyOp17
 70
     1
102
RTVSPropertyOp18
 70
     1
102
RTVSPropertyOp19
 70
     1
102
RTVSPropertyOp20
 70
     1
102
RTVSPropertyOp21
 70
     1
102
RTVSPropertyOp22
 70
     1
102
RTVSPropertyOp23
 70
     1
102
RTVSPropertyOp24
 70
     1
102
RTVSPropertyOp25
 70
     1
102
RTVSPropertyOp26
 70
     1
102
RTVSPropertyOp27
 70
     1
102
RTVSPropertyOp28
 70
     1
102
RTVSPropertyOp29
 70
     1
102
RTVSPropertyOp30
 70
     1
102
RTVSPropertyOp31
 70
     1
102
RTVSPropertyOp32
 70
     1
  0
XRECORD
  5
95C
102
{ACAD_REACTORS
330
95B
102
}
330
95B
100
AcDbXrecord
280
     1
102
RTVSPropertyOp0
 70
     1
102
RTVSPropertyOp1
 70
     1
102
RTVSPropertyOp2
 70
     1
102
RTVSPropertyOp3
 70
     1
102
RTVSPropertyOp4
 70
     1
102
RTVSPropertyOp5
 70
     1
102
RTVSPropertyOp6
 70
     1
102
RTVSPropertyOp7
 70
     1
102
RTVSPropertyOp8
 70
     1
102
RTVSPropertyOp9
 70
     1
102
RTVSPropertyOp10
 70
     1
102
RTVSPropertyOp11
 70
     1
102
RTVSPropertyOp12
 70
     1
102
RTVSPropertyOp13
 70
     1
102
RTVSPropertyOp14
 70
     1
102
RTVSPropertyOp15
 70
     1
102
RTVSPropertyOp16
 70
     1
102
RTVSPropertyOp17
 70
     1
102
RTVSPropertyOp18
 70
     1
102
RTVSPropertyOp19
 70
     1
102
RTVSPropertyOp20
 70
     1
102
RTVSPropertyOp21
 70
     1
102
RTVSPropertyOp22
 70
     1
102
RTVSPropertyOp23
 70
     1
102
RTVSPropertyOp24
 70
     1
102
RTVSPropertyOp25
 70
     1
102
RTVSPropertyOp26
 70
     1
102
RTVSPropertyOp27
 70
     1
102
RTVSPropertyOp28
 70
     1
102
RTVSPropertyOp29
 70
     1
102
RTVSPropertyOp30
 70
     1
102
RTVSPropertyOp31
 70
     1
102
RTVSPropertyOp32
 70
     1
  0
XRECORD
  5
969
102
{ACAD_REACTORS
330
968
102
}
330
968
100
AcDbXrecord
280
     1
102
RTVSPropertyOp0
 70
     1
102
RTVSPropertyOp1
 70
     1
102
RTVSPropertyOp2
 70
     1
102
RTVSPropertyOp3
 70
     1
102
RTVSPropertyOp4
 70
     1
102
RTVSPropertyOp5
 70
     1
102
RTVSPropertyOp6
 70
     1
102
RTVSPropertyOp7
 70
     1
102
RTVSPropertyOp8
 70
     1
102
RTVSPropertyOp9
 70
     1
102
RTVSPropertyOp10
 70
     1
102
RTVSPropertyOp11
 70
     1
102
RTVSPropertyOp12
 70
     1
102
RTVSPropertyOp13
 70
     1
102
RTVSPropertyOp14
 70
     1
102
RTVSPropertyOp15
 70
     1
102
RTVSPropertyOp16
 70
     1
102
RTVSPropertyOp17
 70
     1
102
RTVSPropertyOp18
 70
     1
102
RTVSPropertyOp19
 70
     1
102
RTVSPropertyOp20
 70
     1
102
RTVSPropertyOp21
 70
     1
102
RTVSPropertyOp22
 70
     1
102
RTVSPropertyOp23
 70
     1
102
RTVSPropertyOp24
 70
     1
102
RTVSPropertyOp25
 70
     1
102
RTVSPropertyOp26
 70
     1
102
RTVSPropertyOp27
 70
     1
102
RTVSPropertyOp28
 70
     1
102
RTVSPropertyOp29
 70
     1
102
RTVSPropertyOp30
 70
     1
102
RTVSPropertyOp31
 70
     1
102
RTVSPropertyOp32
 70
     1
  0
XRECORD
  5
971
102
{ACAD_REACTORS
330
970
102
}
330
970
100
AcDbXrecord
280
     1
102
RTVSPropertyOp0
 70
     1
102
RTVSPropertyOp1
 70
     1
102
RTVSPropertyOp2
 70
     1
102
RTVSPropertyOp3
 70
     1
102
RTVSPropertyOp4
 70
     1
102
RTVSPropertyOp5
 70
     1
102
RTVSPropertyOp6
 70
     1
102
RTVSPropertyOp7
 70
     1
102
RTVSPropertyOp8
 70
     1
102
RTVSPropertyOp9
 70
     1
102
RTVSPropertyOp10
 70
     1
102
RTVSPropertyOp11
 70
     1
102
RTVSPropertyOp12
 70
     1
102
RTVSPropertyOp13
 70
     1
102
RTVSPropertyOp14
 70
     1
102
RTVSPropertyOp15
 70
     1
102
RTVSPropertyOp16
 70
     1
102
RTVSPropertyOp17
 70
     1
102
RTVSPropertyOp18
 70
     1
102
RTVSPropertyOp19
 70
     1
102
RTVSPropertyOp20
 70
     1
102
RTVSPropertyOp21
 70
     1
102
RTVSPropertyOp22
 70
     1
102
RTVSPropertyOp23
 70
     1
102
RTVSPropertyOp24
 70
     1
102
RTVSPropertyOp25
 70
     1
102
RTVSPropertyOp26
 70
     1
102
RTVSPropertyOp27
 70
     1
102
RTVSPropertyOp28
 70
     1
102
RTVSPropertyOp29
 70
     1
102
RTVSPropertyOp30
 70
     1
102
RTVSPropertyOp31
 70
     1
102
RTVSPropertyOp32
 70
     1
  0
ENDSEC
  0
EOF
