  0
SECTION
  2
HEADER
  9
$ACADVER
  1
AC1015
  9
$ACADMAINTVER
 70
    20
  9
$DWGCODEPAGE
  3
ANSI_932
  9
$INSBASE
 10
0.0
 20
0.0
 30
0.0
  9
$EXTMIN
 10
-205.0
 20
-135.5
 30
0.0
  9
$EXTMAX
 10
200.0
 20
144.330627
 30
0.0
  9
$LIMMIN
 10
-205.001
 20
-135.501
  9
$LIMMAX
 10
200.026864
 20
144.331627
  9
$ORTHOMODE
 70
     1
  9
$REGENMODE
 70
     1
  9
$FILLMODE
 70
     1
  9
$QTEXTMODE
 70
     0
  9
$MIRRTEXT
 70
     0
  9
$LTSCALE
 40
3.0
  9
$ATTMODE
 70
     1
  9
$TEXTSIZE
 40
3.2
  9
$TRACEWID
 40
0.05
  9
$TEXTSTYLE
  7
高3.2
  9
$CLAYER
  8
0
  9
$CELTYPE
  6
CONTINUOUS
  9
$CECOLOR
 62
   256
  9
$CELTSCALE
 40
1.0
  9
$DISPSILH
 70
     0
  9
$DIMSCALE
 40
1.0
  9
$DIMASZ
 40
2.5
  9
$DIMEXO
 40
0.25
  9
$DIMDLI
 40
0.2
  9
$DIMRND
 40
0.0
  9
$DIMDLE
 40
0.0
  9
$DIMEXE
 40
1.25
  9
$DIMTP
 40
0.0
  9
$DIMTM
 40
0.0
  9
$DIMTXT
 40
3.0
  9
$DIMCEN
 40
0.0
  9
$DIMTSZ
 40
0.0
  9
$DIMTOL
 70
     0
  9
$DIMLIM
 70
     0
  9
$DIMTIH
 70
     0
  9
$DIMTOH
 70
     0
  9
$DIMSE1
 70
     0
  9
$DIMSE2
 70
     0
  9
$DIMTAD
 70
     3
  9
$DIMZIN
 70
     8
  9
$DIMBLK
  1
Open30
  9
$DIMASO
 70
     1
  9
$DIMSHO
 70
     1
  9
$DIMPOST
  1

  9
$DIMAPOST
  1

  9
$DIMALT
 70
     0
  9
$DIMALTD
 70
     3
  9
$DIMALTF
 40
0.03937007874016
  9
$DIMLFAC
 40
2.0
  9
$DIMTOFL
 70
     1
  9
$DIMTVP
 40
0.0
  9
$DIMTIX
 70
     0
  9
$DIMSOXD
 70
     0
  9
$DIMSAH
 70
     0
  9
$DIMBLK1
  1

  9
$DIMBLK2
  1

  9
$DIMSTYLE
  2
1／2
  9
$DIMCLRD
 70
     0
  9
$DIMCLRE
 70
     0
  9
$DIMCLRT
 70
     4
  9
$DIMTFAC
 40
1.0
  9
$DIMGAP
 40
0.625
  9
$DIMJUST
 70
     0
  9
$DIMSD1
 70
     0
  9
$DIMSD2
 70
     0
  9
$DIMTOLJ
 70
     0
  9
$DIMTZIN
 70
     8
  9
$DIMALTZ
 70
     0
  9
$DIMALTTZ
 70
     0
  9
$DIMUPT
 70
     1
  9
$DIMDEC
 70
     2
  9
$DIMTDEC
 70
     2
  9
$DIMALTU
 70
     2
  9
$DIMALTTD
 70
     3
  9
$DIMTXSTY
  7
STANDARD
  9
$DIMAUNIT
 70
     0
  9
$DIMADEC
 70
     1
  9
$DIMALTRND
 40
0.0
  9
$DIMAZIN
 70
     2
  9
$DIMDSEP
 70
    46
  9
$DIMATFIT
 70
     0
  9
$DIMFRAC
 70
     0
  9
$DIMLDRBLK
  1
Open30
  9
$DIMLUNIT
 70
     2
  9
$DIMLWD
 70
    -2
  9
$DIMLWE
 70
    -2
  9
$DIMTMOVE
 70
     0
  9
$LUNITS
 70
     2
  9
$LUPREC
 70
     4
  9
$SKETCHINC
 40
0.1
  9
$FILLETRAD
 40
0.0
  9
$AUNITS
 70
     0
  9
$AUPREC
 70
     0
  9
$MENU
  1
.
  9
$ELEVATION
 40
0.0
  9
$PELEVATION
 40
0.0
  9
$THICKNESS
 40
0.0
  9
$LIMCHECK
 70
     0
  9
$CHAMFERA
 40
0.0
  9
$CHAMFERB
 40
0.0
  9
$CHAMFERC
 40
0.0
  9
$CHAMFERD
 40
0.0
  9
$SKPOLY
 70
     0
  9
$TDCREATE
 40
2455678.405899364
  9
$TDUCREATE
 40
2455678.030899364
  9
$TDUPDATE
 40
2457326.718838021
  9
$TDUUPDATE
 40
2457326.343838021
  9
$TDINDWG
 40
0.1517599190
  9
$TDUSRTIMER
 40
0.1517596065
  9
$USRTIMER
 70
     1
  9
$ANGBASE
 50
0.0
  9
$ANGDIR
 70
     0
  9
$PDMODE
 70
     0
  9
$PDSIZE
 40
0.0
  9
$PLINEWID
 40
0.0
  9
$SPLFRAME
 70
     0
  9
$SPLINETYPE
 70
     6
  9
$SPLINESEGS
 70
     8
  9
$HANDSEED
  5
F63
  9
$SURFTAB1
 70
     6
  9
$SURFTAB2
 70
     6
  9
$SURFTYPE
 70
     6
  9
$SURFU
 70
     6
  9
$SURFV
 70
     6
  9
$UCSBASE
  2

  9
$UCSNAME
  2

  9
$UCSORG
 10
0.0
 20
0.0
 30
0.0
  9
$UCSXDIR
 10
1.0
 20
0.0
 30
0.0
  9
$UCSYDIR
 10
0.0
 20
1.0
 30
0.0
  9
$UCSORTHOREF
  2

  9
$UCSORTHOVIEW
 70
     0
  9
$UCSORGTOP
 10
0.0
 20
0.0
 30
0.0
  9
$UCSORGBOTTOM
 10
0.0
 20
0.0
 30
0.0
  9
$UCSORGLEFT
 10
0.0
 20
0.0
 30
0.0
  9
$UCSORGRIGHT
 10
0.0
 20
0.0
 30
0.0
  9
$UCSORGFRONT
 10
0.0
 20
0.0
 30
0.0
  9
$UCSORGBACK
 10
0.0
 20
0.0
 30
0.0
  9
$PUCSBASE
  2

  9
$PUCSNAME
  2

  9
$PUCSORG
 10
0.0
 20
0.0
 30
0.0
  9
$PUCSXDIR
 10
1.0
 20
0.0
 30
0.0
  9
$PUCSYDIR
 10
0.0
 20
1.0
 30
0.0
  9
$PUCSORTHOREF
  2

  9
$PUCSORTHOVIEW
 70
     0
  9
$PUCSORGTOP
 10
0.0
 20
0.0
 30
0.0
  9
$PUCSORGBOTTOM
 10
0.0
 20
0.0
 30
0.0
  9
$PUCSORGLEFT
 10
0.0
 20
0.0
 30
0.0
  9
$PUCSORGRIGHT
 10
0.0
 20
0.0
 30
0.0
  9
$PUCSORGFRONT
 10
0.0
 20
0.0
 30
0.0
  9
$PUCSORGBACK
 10
0.0
 20
0.0
 30
0.0
  9
$USERI1
 70
     0
  9
$USERI2
 70
     0
  9
$USERI3
 70
     0
  9
$USERI4
 70
     0
  9
$USERI5
 70
     0
  9
$USERR1
 40
0.0
  9
$USERR2
 40
0.0
  9
$USERR3
 40
0.0
  9
$USERR4
 40
0.0
  9
$USERR5
 40
0.0
  9
$WORLDVIEW
 70
     1
  9
$SHADEDGE
 70
     3
  9
$SHADEDIF
 70
    70
  9
$TILEMODE
 70
     1
  9
$MAXACTVP
 70
    64
  9
$PINSBASE
 10
0.0
 20
0.0
 30
0.0
  9
$PLIMCHECK
 70
     0
  9
$PEXTMIN
 10
1.000000000000000E+20
 20
1.000000000000000E+20
 30
1.000000000000000E+20
  9
$PEXTMAX
 10
-1.000000000000000E+20
 20
-1.000000000000000E+20
 30
-1.000000000000000E+20
  9
$PLIMMIN
 10
0.0
 20
0.0
  9
$PLIMMAX
 10
12.0
 20
9.0
  9
$UNITMODE
 70
     0
  9
$VISRETAIN
 70
     1
  9
$PLINEGEN
 70
     0
  9
$PSLTSCALE
 70
     1
  9
$TREEDEPTH
 70
  3020
  9
$CMLSTYLE
  2
Standard
  9
$CMLJUST
 70
     0
  9
$CMLSCALE
 40
1.0
  9
$PROXYGRAPHICS
 70
     1
  9
$MEASUREMENT
 70
     0
  9
$CELWEIGHT
370
    -1
  9
$ENDCAPS
280
     0
  9
$JOINSTYLE
280
     0
  9
$LWDISPLAY
290
     0
  9
$INSUNITS
 70
     0
  9
$HYPERLINKBASE
  1

  9
$STYLESHEET
  1
N-PLOT.CTB
  9
$XEDIT
290
     1
  9
$CEPSNTYPE
380
     0
  9
$PSTYLEMODE
290
     1
  9
$FINGERPRINTGUID
  2
{94AEED3C-B797-4287-8500-E8ED4949CF0C}
  9
$VERSIONGUID
  2
{F85FE5DF-EAA6-403D-8DC8-C03A28EE8D9D}
  9
$EXTNAMES
290
     1
  9
$PSVPSCALE
 40
0.0
  9
$OLESTARTUP
290
     0
  0
ENDSEC
  0
SECTION
  2
CLASSES
  0
CLASS
  1
ACDBDICTIONARYWDFLT
  2
AcDbDictionaryWithDefault
  3
ObjectDBX Classes
 90
        0
280
     0
281
     0
  0
CLASS
  1
MATERIAL
  2
AcDbMaterial
  3
ObjectDBX Classes
 90
     1153
280
     0
281
     0
  0
CLASS
  1
VISUALSTYLE
  2
AcDbVisualStyle
  3
ObjectDBX Classes
 90
     4095
280
     0
281
     0
  0
CLASS
  1
SCALE
  2
AcDbScale
  3
ObjectDBX Classes
 90
     1153
280
     0
281
     0
  0
CLASS
  1
TABLESTYLE
  2
AcDbTableStyle
  3
ObjectDBX Classes
 90
     4095
280
     0
281
     0
  0
CLASS
  1
MLEADERSTYLE
  2
AcDbMLeaderStyle
  3
ACDB_MLEADERSTYLE_CLASS
 90
     4095
280
     0
281
     0
  0
CLASS
  1
DICTIONARYVAR
  2
AcDbDictionaryVar
  3
ObjectDBX Classes
 90
        0
280
     0
281
     0
  0
CLASS
  1
CELLSTYLEMAP
  2
AcDbCellStyleMap
  3
ObjectDBX Classes
 90
     1152
280
     0
281
     0
  0
CLASS
  1
ACDBPLACEHOLDER
  2
AcDbPlaceHolder
  3
ObjectDBX Classes
 90
        0
280
     0
281
     0
  0
CLASS
  1
LAYOUT
  2
AcDbLayout
  3
ObjectDBX Classes
 90
        0
280
     0
281
     0
  0
CLASS
  1
SORTENTSTABLE
  2
AcDbSortentsTable
  3
ObjectDBX Classes
 90
        0
280
     0
281
     0
  0
CLASS
  1
AEC_REFEDIT_STATUS_TRACKER
  2
AecDbRefEditStatusTracker
  3
AecArchBase60|Product Desc: Autodesk Architectural Desktop 2007 |Company: Autodesk,Inc. |WEB Address: www.autodesk.com
 90
      129
280
     0
281
     0
  0
CLASS
  1
NPOCOLLECTION
  2
AcDbImpNonPersistentObjectsCollection
  3
ObjectDBX Classes
 90
     1153
280
     0
281
     0
  0
ENDSEC
  0
SECTION
  2
TABLES
  0
TABLE
  2
VPORT
  5
8
330
0
100
AcDbSymbolTable
 70
     1
  0
VPORT
  5
8B
330
8
100
AcDbSymbolTableRecord
100
AcDbViewportTableRecord
  2
*Active
 70
     0
 10
0.0
 20
0.0
 11
1.0
 21
1.0
 12
43.59323306547856
 22
-12.83774207415411
 13
0.0
 23
0.0
 14
1.0
 24
1.0
 15
0.0
 25
0.0
 16
0.0
 26
0.0
 36
1.0
 17
0.0
 27
0.0
 37
0.0
 40
433.8578167411314
 41
1.533546325878594
 42
50.0
 43
0.0
 44
0.0
 50
0.0
 51
0.0
 71
     0
 72
   100
 73
     1
 74
     1
 75
     0
 76
     0
 77
     0
 78
     0
281
     0
 65
     1
110
0.0
120
0.0
130
0.0
111
1.0
121
0.0
131
0.0
112
0.0
122
1.0
132
0.0
 79
     0
146
0.0
  0
ENDTAB
  0
TABLE
  2
LTYPE
  5
5
330
0
100
AcDbSymbolTable
 70
     4
  0
LTYPE
  5
5A
330
5
100
AcDbSymbolTableRecord
100
AcDbLinetypeTableRecord
  2
ByBlock
 70
     0
  3

 72
    65
 73
     0
 40
0.0
  0
LTYPE
  5
5B
330
5
100
AcDbSymbolTableRecord
100
AcDbLinetypeTableRecord
  2
ByLayer
 70
     0
  3

 72
    65
 73
     0
 40
0.0
  0
LTYPE
  5
5C
330
5
100
AcDbSymbolTableRecord
100
AcDbLinetypeTableRecord
  2
CONTINUOUS
 70
     0
  3
Solid-line
 72
    65
 73
     0
 40
0.0
  0
LTYPE
  5
72
330
5
100
AcDbSymbolTableRecord
100
AcDbLinetypeTableRecord
  2
CENTER
 70
     0
  3
CENTER
 72
    65
 73
     4
 40
2.0
 49
1.25
 74
     0
 49
-0.25
 74
     0
 49
0.25
 74
     0
 49
-0.25
 74
     0
  0
LTYPE
  5
78
330
5
100
AcDbSymbolTableRecord
100
AcDbLinetypeTableRecord
  2
DASHED
 70
     0
  3
DASHED
 72
    65
 73
     2
 40
0.75
 49
0.5
 74
     0
 49
-0.25
 74
     0
  0
ENDTAB
  0
TABLE
  2
LAYER
  5
2
102
{ACAD_XDICTIONARY
360
5D8
102
}
330
0
100
AcDbSymbolTable
 70
     2
  0
LAYER
  5
54
102
{ACAD_XDICTIONARY
360
7A4
102
}
330
2
100
AcDbSymbolTableRecord
100
AcDbLayerTableRecord
  2
0
 70
     0
 62
     7
  6
CONTINUOUS
370
    -3
390
F
  0
LAYER
  5
5C3
330
2
100
AcDbSymbolTableRecord
100
AcDbLayerTableRecord
  2
Defpoints
 70
     0
 62
     7
  6
CONTINUOUS
290
     0
370
    -3
390
F
  0
ENDTAB
  0
TABLE
  2
STYLE
  5
3
330
0
100
AcDbSymbolTable
 70
     6
  0
STYLE
  5
55
330
3
100
AcDbSymbolTableRecord
100
AcDbTextStyleTableRecord
  2
STANDARD
 70
     0
 40
0.0
 41
1.0
 50
0.0
 71
     0
 42
0.2
  3
TXT
  4
BIGFONT
  0
STYLE
  5
5C4
330
3
100
AcDbSymbolTableRecord
100
AcDbTextStyleTableRecord
  2
高3.2
 70
     0
 40
3.2
 41
1.0
 50
0.0
 71
     0
 42
3.2
  3
txt.shx
  4
bigfont.shx
  0
STYLE
  5
5C5
330
3
100
AcDbSymbolTableRecord
100
AcDbTextStyleTableRecord
  2
高6.3
 70
     0
 40
6.299999999999998
 41
1.0
 50
0.0
 71
     0
 42
6.299999999999998
  3
txt.shx
  4
bigfont.shx
  0
STYLE
  5
5C6
330
3
100
AcDbSymbolTableRecord
100
AcDbTextStyleTableRecord
  2
高2.5
 70
     0
 40
2.5
 41
1.0
 50
0.0
 71
     0
 42
0.2
  3
txt.shx
  4
bigfont.shx
  0
STYLE
  5
5C7
330
3
100
AcDbSymbolTableRecord
100
AcDbTextStyleTableRecord
  2
高4.5
 70
     0
 40
4.5
 41
1.0
 50
0.0
 71
     0
 42
6.299999999999998
  3
txt.shx
  4
bigfont.shx
  0
STYLE
  5
5C8
330
3
100
AcDbSymbolTableRecord
100
AcDbTextStyleTableRecord
  2
高2
 70
     0
 40
2.0
 41
1.0
 50
0.0
 71
     0
 42
6.299999999999998
  3
txt.shx
  4
bigfont.shx
  0
ENDTAB
  0
TABLE
  2
VIEW
  5
6
330
0
100
AcDbSymbolTable
 70
     0
  0
ENDTAB
  0
TABLE
  2
UCS
  5
7
330
0
100
AcDbSymbolTable
 70
     0
  0
ENDTAB
  0
TABLE
  2
APPID
  5
9
330
0
100
AcDbSymbolTable
 70
    11
  0
APPID
  5
56
330
9
100
AcDbSymbolTableRecord
100
AcDbRegAppTableRecord
  2
ACAD
 70
     0
  0
APPID
  5
5D
330
9
100
AcDbSymbolTableRecord
100
AcDbRegAppTableRecord
  2
AcadAnnotative
 70
     0
  0
APPID
  5
5D3
330
9
100
AcDbSymbolTableRecord
100
AcDbRegAppTableRecord
  2
ACAD_DSTYLE_DIMJOGGED_JOGANGLE_SYMBOL
 70
     0
  0
APPID
  5
5D4
330
9
100
AcDbSymbolTableRecord
100
AcDbRegAppTableRecord
  2
ACAD_DSTYLE_DIMJAG
 70
     0
  0
APPID
  5
5D5
330
9
100
AcDbSymbolTableRecord
100
AcDbRegAppTableRecord
  2
ACAD_DSTYLE_DIMBREAK
 70
     0
  0
APPID
  5
5D6
330
9
100
AcDbSymbolTableRecord
100
AcDbRegAppTableRecord
  2
ACAD_DSTYLE_DIMTALN
 70
     0
  0
APPID
  5
70C
330
9
100
AcDbSymbolTableRecord
100
AcDbRegAppTableRecord
  2
ACAD_EXEMPT_FROM_CAD_STANDARDS
 70
     0
  0
APPID
  5
7F5
330
9
100
AcDbSymbolTableRecord
100
AcDbRegAppTableRecord
  2
ACAD_PSEXT
 70
     0
  0
APPID
  5
883
330
9
100
AcDbSymbolTableRecord
100
AcDbRegAppTableRecord
  2
ACAD_MLEADERVER
 70
     0
  0
APPID
  5
888
330
9
100
AcDbSymbolTableRecord
100
AcDbRegAppTableRecord
  2
ACAD_DSTYLE_DIMARC_LENGTH_SYMBOL
 70
     0
  0
APPID
  5
889
330
9
100
AcDbSymbolTableRecord
100
AcDbRegAppTableRecord
  2
ACAD_DSTYLE_DIMEXT_LENGTH
 70
     0
  0
ENDTAB
  0
TABLE
  2
DIMSTYLE
  5
A
330
0
100
AcDbSymbolTable
 70
     2
100
AcDbDimStyleTable
 71
     1
340
5CD
  0
DIMSTYLE
105
57
330
A
100
AcDbSymbolTableRecord
100
AcDbDimStyleTableRecord
  2
Standard
 70
     0
340
55
  0
DIMSTYLE
105
5CD
102
{ACAD_REACTORS
330
B0E
102
}
330
A
100
AcDbSymbolTableRecord
100
AcDbDimStyleTableRecord
  2
1／2
 70
     0
 41
2.5
 42
0.25
 43
0.2
 44
1.25
 73
     0
 74
     0
 77
     3
 78
     8
 79
     2
140
3.0
141
0.0
143
0.03937007874016
144
2.0
147
0.625
171
     3
172
     1
178
     4
179
     1
271
     2
272
     2
274
     3
283
     0
284
     8
288
     1
289
     0
340
55
341
533
342
533
1001
ACAD_DSTYLE_DIMARC_LENGTH_SYMBOL
1070
   379
1070
     2
1001
ACAD_DSTYLE_DIMEXT_LENGTH
1070
   378
1040
1.25
1001
ACAD_DSTYLE_DIMJOGGED_JOGANGLE_SYMBOL
1070
   384
1040
1.570796326794896
  0
ENDTAB
  0
TABLE
  2
BLOCK_RECORD
  5
1
330
0
100
AcDbSymbolTable
 70
     9
  0
BLOCK_RECORD
  5
6B
102
{ACAD_XDICTIONARY
360
BAD
102
}
330
1
100
AcDbSymbolTableRecord
100
AcDbBlockTableRecord
  2
*Model_Space
340
6E
  0
BLOCK_RECORD
  5
67
330
1
100
AcDbSymbolTableRecord
100
AcDbBlockTableRecord
  2
*Paper_Space
340
6A
  0
BLOCK_RECORD
  5
533
330
1
100
AcDbSymbolTableRecord
100
AcDbBlockTableRecord
  2
_Open30
340
0
102
{BLKREFS
331
D88
331
D89
331
D91
331
D92
331
D9A
331
D9B
331
DA3
331
DA4
331
DAC
331
DAD
331
DB5
331
DB6
331
DBE
331
DBF
331
DD0
331
DD1
102
}
  0
BLOCK_RECORD
  5
6E8
330
1
100
AcDbSymbolTableRecord
100
AcDbBlockTableRecord
  2
*D1
340
0
  0
BLOCK_RECORD
  5
6F4
330
1
100
AcDbSymbolTableRecord
100
AcDbBlockTableRecord
  2
*D2
340
0
  0
BLOCK_RECORD
  5
700
330
1
100
AcDbSymbolTableRecord
100
AcDbBlockTableRecord
  2
*D3
340
0
  0
BLOCK_RECORD
  5
72D
330
1
100
AcDbSymbolTableRecord
100
AcDbBlockTableRecord
  2
*D4
340
0
  0
BLOCK_RECORD
  5
742
330
1
100
AcDbSymbolTableRecord
100
AcDbBlockTableRecord
  2
*D5
340
0
  0
BLOCK_RECORD
  5
74E
330
1
100
AcDbSymbolTableRecord
100
AcDbBlockTableRecord
  2
*D6
340
0
  0
BLOCK_RECORD
  5
763
330
1
100
AcDbSymbolTableRecord
100
AcDbBlockTableRecord
  2
*D7
340
0
  0
BLOCK_RECORD
  5
BC6
330
1
100
AcDbSymbolTableRecord
100
AcDbBlockTableRecord
  2
*D8
340
0
  0
ENDTAB
  0
ENDSEC
  0
SECTION
  2
BLOCKS
  0
BLOCK
  5
6C
330
6B
100
AcDbEntity
  8
0
100
AcDbBlockBegin
  2
*Model_Space
 70
     0
 10
0.0
 20
0.0
 30
0.0
  3
*Model_Space
  1

  0
ENDBLK
  5
6D
330
6B
100
AcDbEntity
  8
0
100
AcDbBlockEnd
  0
BLOCK
  5
68
330
67
100
AcDbEntity
 67
     1
  8
0
100
AcDbBlockBegin
  2
*Paper_Space
 70
     0
 10
0.0
 20
0.0
 30
0.0
  3
*Paper_Space
  1

  0
ENDBLK
  5
69
330
67
100
AcDbEntity
 67
     1
  8
0
100
AcDbBlockEnd
  0
BLOCK
  5
534
330
533
100
AcDbEntity
  8
0
100
AcDbBlockBegin
  2
_Open30
 70
     0
 10
0.0
 20
0.0
 30
0.0
  3
_Open30
  1

  0
LINE
  5
535
330
533
100
AcDbEntity
  8
0
  6
ByBlock
 62
     0
370
    -2
100
AcDbLine
 10
-1.0
 20
0.267949
 30
0.0
 11
0.0
 21
0.0
 31
0.0
  0
LINE
  5
536
330
533
100
AcDbEntity
  8
0
  6
ByBlock
 62
     0
370
    -2
100
AcDbLine
 10
0.0
 20
0.0
 30
0.0
 11
-1.0
 21
-0.267949
 31
0.0
  0
LINE
  5
537
330
533
100
AcDbEntity
  8
0
  6
ByBlock
 62
     0
370
    -2
100
AcDbLine
 10
0.0
 20
0.0
 30
0.0
 11
-1.0
 21
0.0
 31
0.0
  0
ENDBLK
  5
538
330
533
100
AcDbEntity
  8
0
100
AcDbBlockEnd
  0
BLOCK
  5
6E9
330
6E8
100
AcDbEntity
  8
0
100
AcDbBlockBegin
  2
*D1
 70
     1
 10
0.0
 20
0.0
 30
0.0
  3
*D1
  1

  0
LINE
  5
D85
330
6E8
100
AcDbEntity
  8
0
 62
     0
370
    -2
100
AcDbLine
 10
-25.601333
 20
52.072072
 30
0.0
 11
-25.601333
 21
119.2250739999999
 31
0.0
  0
LINE
  5
D86
330
6E8
100
AcDbEntity
  8
0
 62
     0
370
    -2
100
AcDbLine
 10
66.398667
 20
52.072072
 30
0.0
 11
66.398667
 21
119.2250739999999
 31
0.0
  0
LINE
  5
D87
330
6E8
100
AcDbEntity
  8
0
 62
     0
370
    -2
100
AcDbLine
 10
-23.101333
 20
117.975074
 30
0.0
 11
63.898667
 21
117.975074
 31
0.0
  0
INSERT
  5
D88
330
6E8
100
AcDbEntity
  8
0
 62
     0
370
    -2
100
AcDbBlockReference
  2
_Open30
 10
-25.601333
 20
117.975074
 30
0.0
 41
2.5
 42
2.5
 43
2.5
 50
180.0
  0
INSERT
  5
D89
330
6E8
100
AcDbEntity
  8
0
 62
     0
370
    -2
100
AcDbBlockReference
  2
_Open30
 10
66.398667
 20
117.975074
 30
0.0
 41
2.5
 42
2.5
 43
2.5
  0
MTEXT
  5
D8A
330
6E8
100
AcDbEntity
  8
0
 62
     4
100
AcDbMText
 10
20.39866700000001
 20
120.100074
 30
0.0
 40
3.0
 41
0.0
 71
     5
 72
     1
  1
184
 73
     1
 44
1.0
1001
ACAD
1000
MTEXTBEGIN
1070
    73
1070
     1
1070
    44
1040
1.0
1070
    74
1070
     0
1000
MTEXTEND
  0
POINT
  5
D8B
330
6E8
100
AcDbEntity
  8
Defpoints
 62
     0
100
AcDbPoint
 10
-25.601333
 20
51.822072
 30
0.0
  0
POINT
  5
D8C
330
6E8
100
AcDbEntity
  8
Defpoints
 62
     0
100
AcDbPoint
 10
66.398667
 20
51.822072
 30
0.0
  0
POINT
  5
D8D
330
6E8
100
AcDbEntity
  8
Defpoints
 62
     0
100
AcDbPoint
 10
66.398667
 20
117.975074
 30
0.0
  0
ENDBLK
  5
6EA
330
6E8
100
AcDbEntity
  8
0
100
AcDbBlockEnd
  0
BLOCK
  5
6F5
330
6F4
100
AcDbEntity
  8
0
100
AcDbBlockBegin
  2
*D2
 70
     1
 10
0.0
 20
0.0
 30
0.0
  3
*D2
  1

  0
LINE
  5
D8E
330
6F4
100
AcDbEntity
  8
0
 62
     0
370
    -2
100
AcDbLine
 10
-17.351333
 20
-25.177928
 30
0.0
 11
-35.97284500000003
 21
-25.177928
 31
0.0
  0
LINE
  5
D8F
330
6F4
100
AcDbEntity
  8
0
 62
     0
370
    -2
100
AcDbLine
 10
20.148667
 20
109.822072
 30
0.0
 11
-35.972845
 21
109.822072
 31
0.0
  0
LINE
  5
D90
330
6F4
100
AcDbEntity
  8
0
 62
     0
370
    -2
100
AcDbLine
 10
-34.72284500000003
 20
-22.677928
 30
0.0
 11
-34.722845
 21
107.322072
 31
0.0
  0
INSERT
  5
D91
330
6F4
100
AcDbEntity
  8
0
 62
     0
370
    -2
100
AcDbBlockReference
  2
_Open30
 10
-34.72284500000003
 20
-25.177928
 30
0.0
 41
2.5
 42
2.5
 43
2.5
 50
270.0
  0
INSERT
  5
D92
330
6F4
100
AcDbEntity
  8
0
 62
     0
370
    -2
100
AcDbBlockReference
  2
_Open30
 10
-34.722845
 20
109.822072
 30
0.0
 41
2.5
 42
2.5
 43
2.5
 50
90.0
  0
MTEXT
  5
D93
330
6F4
100
AcDbEntity
  8
0
 62
     4
100
AcDbMText
 10
-36.84784500000002
 20
42.32207199999999
 30
0.0
 40
3.0
 41
0.0
 71
     5
 72
     1
  1
270
 11
0.0000000000000001
 21
1.0
 31
0.0
 73
     1
 44
1.0
1001
ACAD
1000
MTEXTBEGIN
1070
    73
1070
     1
1070
    44
1040
1.0
1070
    74
1070
     0
1000
MTEXTEND
  0
POINT
  5
D94
330
6F4
100
AcDbEntity
  8
Defpoints
 62
     0
100
AcDbPoint
 10
-17.101333
 20
-25.177928
 30
0.0
  0
POINT
  5
D95
330
6F4
100
AcDbEntity
  8
Defpoints
 62
     0
100
AcDbPoint
 10
20.398667
 20
109.822072
 30
0.0
  0
POINT
  5
D96
330
6F4
100
AcDbEntity
  8
Defpoints
 62
     0
100
AcDbPoint
 10
-34.722845
 20
109.822072
 30
0.0
  0
ENDBLK
  5
6F6
330
6F4
100
AcDbEntity
  8
0
100
AcDbBlockEnd
  0
BLOCK
  5
701
330
700
100
AcDbEntity
  8
0
100
AcDbBlockBegin
  2
*D3
 70
     1
 10
0.0
 20
0.0
 30
0.0
  3
*D3
  1

  0
LINE
  5
D97
330
700
100
AcDbEntity
  8
0
 62
     0
370
    -2
100
AcDbLine
 10
-17.101333
 20
-25.427928
 30
0.0
 11
-17.101333
 21
-51.133888
 31
0.0
  0
LINE
  5
D98
330
700
100
AcDbEntity
  8
0
 62
     0
370
    -2
100
AcDbLine
 10
57.89866700000001
 20
-25.427928
 30
0.0
 11
57.89866700000001
 21
-51.133888
 31
0.0
  0
LINE
  5
D99
330
700
100
AcDbEntity
  8
0
 62
     0
370
    -2
100
AcDbLine
 10
-14.601333
 20
-49.883888
 30
0.0
 11
55.39866700000001
 21
-49.883888
 31
0.0
  0
INSERT
  5
D9A
330
700
100
AcDbEntity
  8
0
 62
     0
370
    -2
100
AcDbBlockReference
  2
_Open30
 10
-17.101333
 20
-49.883888
 30
0.0
 41
2.5
 42
2.5
 43
2.5
 50
180.0
  0
INSERT
  5
D9B
330
700
100
AcDbEntity
  8
0
 62
     0
370
    -2
100
AcDbBlockReference
  2
_Open30
 10
57.89866700000001
 20
-49.883888
 30
0.0
 41
2.5
 42
2.5
 43
2.5
  0
MTEXT
  5
D9C
330
700
100
AcDbEntity
  8
0
 62
     4
100
AcDbMText
 10
20.39866700000001
 20
-47.75888799999999
 30
0.0
 40
3.0
 41
0.0
 71
     5
 72
     1
  1
150
 73
     1
 44
1.0
1001
ACAD
1000
MTEXTBEGIN
1070
    73
1070
     1
1070
    44
1040
1.0
1070
    74
1070
     0
1000
MTEXTEND
  0
POINT
  5
D9D
330
700
100
AcDbEntity
  8
Defpoints
 62
     0
100
AcDbPoint
 10
-17.101333
 20
-25.177928
 30
0.0
  0
POINT
  5
D9E
330
700
100
AcDbEntity
  8
Defpoints
 62
     0
100
AcDbPoint
 10
57.89866700000001
 20
-25.177928
 30
0.0
  0
POINT
  5
D9F
330
700
100
AcDbEntity
  8
Defpoints
 62
     0
100
AcDbPoint
 10
57.89866700000001
 20
-49.883888
 30
0.0
  0
ENDBLK
  5
702
330
700
100
AcDbEntity
  8
0
100
AcDbBlockEnd
  0
BLOCK
  5
72E
330
72D
100
AcDbEntity
  8
0
100
AcDbBlockBegin
  2
*D4
 70
     1
 10
0.0
 20
0.0
 30
0.0
  3
*D4
  1

  0
LINE
  5
DA0
330
72D
100
AcDbEntity
  8
0
 62
     0
370
    -2
100
AcDbLine
 10
-169.271482
 20
70.76224399999998
 30
0.0
 11
-169.271482
 21
119.225074
 31
0.0
  0
LINE
  5
DA1
330
72D
100
AcDbEntity
  8
0
 62
     0
370
    -2
100
AcDbLine
 10
-53.77148199999999
 20
60.07207199999999
 30
0.0
 11
-53.77148199999998
 21
119.225074
 31
0.0
  0
LINE
  5
DA2
330
72D
100
AcDbEntity
  8
0
 62
     0
370
    -2
100
AcDbLine
 10
-166.771482
 20
117.975074
 30
0.0
 11
-56.27148199999998
 21
117.975074
 31
0.0
  0
INSERT
  5
DA3
330
72D
100
AcDbEntity
  8
0
 62
     0
370
    -2
100
AcDbBlockReference
  2
_Open30
 10
-169.271482
 20
117.975074
 30
0.0
 41
2.5
 42
2.5
 43
2.5
 50
180.0
  0
INSERT
  5
DA4
330
72D
100
AcDbEntity
  8
0
 62
     0
370
    -2
100
AcDbBlockReference
  2
_Open30
 10
-53.77148199999998
 20
117.975074
 30
0.0
 41
2.5
 42
2.5
 43
2.5
  0
MTEXT
  5
DA5
330
72D
100
AcDbEntity
  8
0
 62
     4
100
AcDbMText
 10
-111.521482
 20
120.100074
 30
0.0
 40
3.0
 41
0.0
 71
     5
 72
     1
  1
230
 73
     1
 44
1.0
1001
ACAD
1000
MTEXTBEGIN
1070
    73
1070
     1
1070
    44
1040
1.0
1070
    74
1070
     0
1000
MTEXTEND
  0
POINT
  5
DA6
330
72D
100
AcDbEntity
  8
Defpoints
 62
     0
100
AcDbPoint
 10
-169.271482
 20
70.51224399999998
 30
0.0
  0
POINT
  5
DA7
330
72D
100
AcDbEntity
  8
Defpoints
 62
     0
100
AcDbPoint
 10
-53.77148199999999
 20
59.822072
 30
0.0
  0
POINT
  5
DA8
330
72D
100
AcDbEntity
  8
Defpoints
 62
     0
100
AcDbPoint
 10
-53.77148199999998
 20
117.975074
 30
0.0
  0
ENDBLK
  5
72F
330
72D
100
AcDbEntity
  8
0
100
AcDbBlockEnd
  0
BLOCK
  5
743
330
742
100
AcDbEntity
  8
0
100
AcDbBlockBegin
  2
*D5
 70
     1
 10
0.0
 20
0.0
 30
0.0
  3
*D5
  1

  0
LINE
  5
DA9
330
742
100
AcDbEntity
  8
0
 62
     0
370
    -2
100
AcDbLine
 10
-162.271482
 20
-25.427928
 30
0.0
 11
-162.271482
 21
-44.37218499999999
 31
0.0
  0
LINE
  5
DAA
330
742
100
AcDbEntity
  8
0
 62
     0
370
    -2
100
AcDbLine
 10
-87.271482
 20
-25.427928
 30
0.0
 11
-87.271482
 21
-44.37218499999999
 31
0.0
  0
LINE
  5
DAB
330
742
100
AcDbEntity
  8
0
 62
     0
370
    -2
100
AcDbLine
 10
-159.771482
 20
-43.12218499999999
 30
0.0
 11
-89.771482
 21
-43.12218499999999
 31
0.0
  0
INSERT
  5
DAC
330
742
100
AcDbEntity
  8
0
 62
     0
370
    -2
100
AcDbBlockReference
  2
_Open30
 10
-162.271482
 20
-43.12218499999999
 30
0.0
 41
2.5
 42
2.5
 43
2.5
 50
180.0
  0
INSERT
  5
DAD
330
742
100
AcDbEntity
  8
0
 62
     0
370
    -2
100
AcDbBlockReference
  2
_Open30
 10
-87.271482
 20
-43.12218499999999
 30
0.0
 41
2.5
 42
2.5
 43
2.5
  0
MTEXT
  5
DAE
330
742
100
AcDbEntity
  8
0
 62
     4
100
AcDbMText
 10
-124.771482
 20
-40.99718499999998
 30
0.0
 40
3.0
 41
0.0
 71
     5
 72
     1
  1
150
 73
     1
 44
1.0
1001
ACAD
1000
MTEXTBEGIN
1070
    73
1070
     1
1070
    44
1040
1.0
1070
    74
1070
     0
1000
MTEXTEND
  0
POINT
  5
DAF
330
742
100
AcDbEntity
  8
Defpoints
 62
     0
100
AcDbPoint
 10
-162.271482
 20
-25.177928
 30
0.0
  0
POINT
  5
DB0
330
742
100
AcDbEntity
  8
Defpoints
 62
     0
100
AcDbPoint
 10
-87.271482
 20
-25.177928
 30
0.0
  0
POINT
  5
DB1
330
742
100
AcDbEntity
  8
Defpoints
 62
     0
100
AcDbPoint
 10
-87.271482
 20
-43.12218499999999
 30
0.0
  0
ENDBLK
  5
744
330
742
100
AcDbEntity
  8
0
100
AcDbBlockEnd
  0
BLOCK
  5
74F
330
74E
100
AcDbEntity
  8
0
100
AcDbBlockBegin
  2
*D6
 70
     1
 10
0.0
 20
0.0
 30
0.0
  3
*D6
  1

  0
LINE
  5
DB2
330
74E
100
AcDbEntity
  8
0
 62
     0
370
    -2
100
AcDbLine
 10
-158.021482
 20
-28.826334
 30
0.0
 11
-158.021482
 21
-37.346058
 31
0.0
  0
LINE
  5
DB3
330
74E
100
AcDbEntity
  8
0
 62
     0
370
    -2
100
AcDbLine
 10
-91.521482
 20
-28.826334
 30
0.0
 11
-91.521482
 21
-37.346058
 31
0.0
  0
LINE
  5
DB4
330
74E
100
AcDbEntity
  8
0
 62
     0
370
    -2
100
AcDbLine
 10
-155.521482
 20
-36.096058
 30
0.0
 11
-94.021482
 21
-36.096058
 31
0.0
  0
INSERT
  5
DB5
330
74E
100
AcDbEntity
  8
0
 62
     0
370
    -2
100
AcDbBlockReference
  2
_Open30
 10
-158.021482
 20
-36.096058
 30
0.0
 41
2.5
 42
2.5
 43
2.5
 50
180.0
  0
INSERT
  5
DB6
330
74E
100
AcDbEntity
  8
0
 62
     0
370
    -2
100
AcDbBlockReference
  2
_Open30
 10
-91.521482
 20
-36.096058
 30
0.0
 41
2.5
 42
2.5
 43
2.5
  0
MTEXT
  5
DB7
330
74E
100
AcDbEntity
  8
0
 62
     4
100
AcDbMText
 10
-124.771482
 20
-33.971058
 30
0.0
 40
3.0
 41
0.0
 71
     5
 72
     1
  1
取付ピッチ133
 73
     1
 44
1.0
1001
ACAD
1000
MTEXTBEGIN
1070
    73
1070
     1
1070
    44
1040
1.0
1070
    74
1070
     0
1000
MTEXTEND
  0
POINT
  5
DB8
330
74E
100
AcDbEntity
  8
Defpoints
 62
     0
100
AcDbPoint
 10
-158.021482
 20
-28.576334
 30
0.0
  0
POINT
  5
DB9
330
74E
100
AcDbEntity
  8
Defpoints
 62
     0
100
AcDbPoint
 10
-91.521482
 20
-28.576334
 30
0.0
  0
POINT
  5
DBA
330
74E
100
AcDbEntity
  8
Defpoints
 62
     0
100
AcDbPoint
 10
-91.521482
 20
-36.096058
 30
0.0
  0
ENDBLK
  5
750
330
74E
100
AcDbEntity
  8
0
100
AcDbBlockEnd
  0
BLOCK
  5
764
330
763
100
AcDbEntity
  8
0
100
AcDbBlockBegin
  2
*D7
 70
     1
 10
0.0
 20
0.0
 30
0.0
  3
*D7
  1

  0
LINE
  5
DBB
330
763
100
AcDbEntity
  8
0
 62
     0
370
    -2
100
AcDbLine
 10
-124.771482
 20
-6.506939999999997
 30
0.0
 11
-124.771482
 21
-0.2584537756198388
 31
0.0
  0
LINE
  5
DBC
330
763
100
AcDbEntity
  8
0
 62
     0
370
    -2
100
AcDbLine
 10
-53.77148199999999
 20
59.572072
 30
0.0
 11
-53.771482
 21
-2.758453775619841
 31
0.0
  0
LINE
  5
DBD
330
763
100
AcDbEntity
  8
0
 62
     0
370
    -2
100
AcDbLine
 10
-122.271482
 20
-1.508453775619839
 30
0.0
 11
-56.271482
 21
-1.508453775619839
 31
0.0
  0
INSERT
  5
DBE
330
763
100
AcDbEntity
  8
0
 62
     0
370
    -2
100
AcDbBlockReference
  2
_Open30
 10
-124.771482
 20
-1.508453775619839
 30
0.0
 41
2.5
 42
2.5
 43
2.5
 50
180.0
  0
INSERT
  5
DBF
330
763
100
AcDbEntity
  8
0
 62
     0
370
    -2
100
AcDbBlockReference
  2
_Open30
 10
-53.771482
 20
-1.508453775619839
 30
0.0
 41
2.5
 42
2.5
 43
2.5
  0
MTEXT
  5
DC0
330
763
100
AcDbEntity
  8
0
 62
     4
100
AcDbMText
 10
-79.06436742406822
 20
0.6165462243801614
 30
0.0
 40
3.0
 41
0.0
 71
     5
 72
     1
  1
左右回転R142
 73
     1
 44
1.0
1001
ACAD
1000
MTEXTBEGIN
1070
    73
1070
     1
1070
    44
1040
1.0
1070
    74
1070
     0
1000
MTEXTEND
  0
POINT
  5
DC1
330
763
100
AcDbEntity
  8
Defpoints
 62
     0
100
AcDbPoint
 10
-124.771482
 20
-6.756939999999997
 30
0.0
  0
POINT
  5
DC2
330
763
100
AcDbEntity
  8
Defpoints
 62
     0
100
AcDbPoint
 10
-53.77148199999999
 20
59.822072
 30
0.0
  0
POINT
  5
DC3
330
763
100
AcDbEntity
  8
Defpoints
 62
     0
100
AcDbPoint
 10
-53.771482
 20
-1.508453775619839
 30
0.0
  0
ENDBLK
  5
765
330
763
100
AcDbEntity
  8
0
100
AcDbBlockEnd
  0
BLOCK
  5
BC7
330
BC6
100
AcDbEntity
  8
0
100
AcDbBlockBegin
  2
*D8
 70
     1
 10
0.0
 20
0.0
 30
0.0
  3
*D8
  1

  0
LINE
  5
DCD
330
BC6
100
AcDbEntity
  8
0
 62
     0
370
    -2
100
AcDbLine
 10
-12.85133299999998
 20
-28.826334
 30
0.0
 11
-12.85133299999998
 21
-44.94504314603285
 31
0.0
  0
LINE
  5
DCE
330
BC6
100
AcDbEntity
  8
0
 62
     0
370
    -2
100
AcDbLine
 10
53.648667
 20
-28.826334
 30
0.0
 11
53.648667
 21
-44.94504314603285
 31
0.0
  0
LINE
  5
DCF
330
BC6
100
AcDbEntity
  8
0
 62
     0
370
    -2
100
AcDbLine
 10
-10.35133299999998
 20
-43.69504314603285
 30
0.0
 11
51.148667
 21
-43.69504314603285
 31
0.0
  0
INSERT
  5
DD0
330
BC6
100
AcDbEntity
  8
0
 62
     0
370
    -2
100
AcDbBlockReference
  2
_Open30
 10
-12.85133299999998
 20
-43.69504314603285
 30
0.0
 41
2.5
 42
2.5
 43
2.5
 50
180.0
  0
INSERT
  5
DD1
330
BC6
100
AcDbEntity
  8
0
 62
     0
370
    -2
100
AcDbBlockReference
  2
_Open30
 10
53.648667
 20
-43.69504314603285
 30
0.0
 41
2.5
 42
2.5
 43
2.5
  0
MTEXT
  5
DD2
330
BC6
100
AcDbEntity
  8
0
 62
     4
100
AcDbMText
 10
20.2326583647407
 20
-41.57004314603285
 30
0.0
 40
3.0
 41
0.0
 71
     5
 72
     1
  1
取付ピッチ133
 73
     1
 44
1.0
1001
ACAD
1000
MTEXTBEGIN
1070
    73
1070
     1
1070
    44
1040
1.0
1070
    74
1070
     0
1000
MTEXTEND
  0
POINT
  5
DD3
330
BC6
100
AcDbEntity
  8
Defpoints
 62
     0
100
AcDbPoint
 10
-12.85133299999998
 20
-28.576334
 30
0.0
  0
POINT
  5
DD4
330
BC6
100
AcDbEntity
  8
Defpoints
 62
     0
100
AcDbPoint
 10
53.648667
 20
-28.576334
 30
0.0
  0
POINT
  5
DD5
330
BC6
100
AcDbEntity
  8
Defpoints
 62
     0
100
AcDbPoint
 10
53.648667
 20
-43.69504314603285
 30
0.0
  0
ENDBLK
  5
BC8
330
BC6
100
AcDbEntity
  8
0
100
AcDbBlockEnd
  0
ENDSEC
  0
SECTION
  2
ENTITIES
  0
LINE
  5
FE
330
6B
100
AcDbEntity
  8
0
 62
     3
100
AcDbLine
 10
174.300637
 20
-118.834277
 30
0.0
 11
174.300637
 21
-95.83427699999999
 31
0.0
  0
LINE
  5
100
330
6B
100
AcDbEntity
  8
0
 62
     3
100
AcDbLine
 10
121.247027
 20
-125.834277
 30
0.0
 11
121.247027
 21
-111.834277
 31
0.0
  0
TEXT
  5
102
330
6B
100
AcDbEntity
  8
0
 62
     3
100
AcDbText
 10
150.310955
 20
-99.62916100000001
 30
0.0
 40
2.0
  1
A
 41
0.7
100
AcDbText
  0
TEXT
  5
103
330
6B
100
AcDbEntity
  8
0
 62
     3
100
AcDbText
 10
152.846241
 20
-99.62916100000001
 30
0.0
 40
2.0
  1
P
 41
0.7
100
AcDbText
  0
TEXT
  5
104
330
6B
100
AcDbEntity
  8
0
 62
     3
100
AcDbText
 10
155.381527
 20
-99.62916100000001
 30
0.0
 40
2.0
  1
P
 41
0.7
100
AcDbText
  0
TEXT
  5
105
330
6B
100
AcDbEntity
  8
0
 62
     3
100
AcDbText
 10
157.916813
 20
-99.62916100000001
 30
0.0
 40
2.0
  1
D
 41
0.7
100
AcDbText
  0
TEXT
  5
106
330
6B
100
AcDbEntity
  8
0
 62
     3
100
AcDbText
 10
163.285496
 20
-99.62916100000001
 30
0.0
 40
2.0
  1
C
 41
0.7
100
AcDbText
  0
TEXT
  5
107
330
6B
100
AcDbEntity
  8
0
 62
     3
100
AcDbText
 10
165.820783
 20
-99.62916100000001
 30
0.0
 40
2.0
  1
H
 41
0.7
100
AcDbText
  0
TEXT
  5
108
330
6B
100
AcDbEntity
  8
0
 62
     3
100
AcDbText
 10
168.356069
 20
-99.62916100000001
 30
0.0
 40
2.0
  1
C
 41
0.7
100
AcDbText
  0
TEXT
  5
109
330
6B
100
AcDbEntity
  8
0
 62
     3
100
AcDbText
 10
170.891355
 20
-99.62916100000001
 30
0.0
 40
2.0
  1
K
 41
0.7
100
AcDbText
  0
TEXT
  5
10A
330
6B
100
AcDbEntity
  8
0
 62
     3
100
AcDbText
 10
176.565322
 20
-99.62916100000001
 30
0.0
 40
2.0
  1
DESN
 41
1.216762999999998
100
AcDbText
  0
TEXT
  5
10B
330
6B
100
AcDbEntity
  8
0
 62
     3
100
AcDbText
 10
91.558963
 20
-128.975659
 30
0.0
 40
2.0
  1
NICHIDO IND.CO.LTD
 41
1.274876
100
AcDbText
  0
LINE
  5
10C
330
6B
100
AcDbEntity
  8
0
 62
     3
100
AcDbLine
 10
101.941992
 20
-95.83427699999999
 30
0.0
 11
101.941992
 21
-118.834277
 31
0.0
  0
LINE
  5
10D
330
6B
100
AcDbEntity
  8
0
 62
     3
100
AcDbLine
 10
148.300637
 20
-95.83427699999999
 30
0.0
 11
148.300637
 21
-135.5
 31
0.0
  0
LINE
  5
112
330
6B
100
AcDbEntity
  8
0
 62
     3
100
AcDbLine
 10
161.300637
 20
-95.83427699999999
 30
0.0
 11
161.300637
 21
-125.834277
 31
0.0
  0
TEXT
  5
113
330
6B
100
AcDbEntity
  8
0
 62
     3
100
AcDbText
 10
149.413081
 20
-124.969591
 30
0.0
 40
3.2
  1
作成日
 41
1.017225999999997
100
AcDbText
  0
LINE
  5
114
330
6B
100
AcDbEntity
  8
0
 62
     3
100
AcDbLine
 10
200.0
 20
-95.83427699999999
 30
0.0
 11
88.696558
 21
-95.83427699999999
 31
0.0
  0
LINE
  5
115
330
6B
100
AcDbEntity
  8
0
 62
     3
100
AcDbLine
 10
187.300637
 20
-118.834277
 30
0.0
 11
187.300637
 21
-95.83427699999999
 31
0.0
  0
TEXT
  5
116
330
6B
100
AcDbEntity
  8
0
 62
     3
100
AcDbText
 10
190.62444
 20
-99.54334299999999
 30
0.0
 40
1.8
  1
D
 41
0.666667
100
AcDbText
  0
TEXT
  5
117
330
6B
100
AcDbEntity
  8
0
 62
     3
100
AcDbText
 10
193.441068
 20
-99.54334299999999
 30
0.0
 40
1.8
  1
E
 41
0.666667
100
AcDbText
  0
TEXT
  5
118
330
6B
100
AcDbEntity
  8
0
 62
     3
100
AcDbText
 10
196.257696
 20
-99.54334299999999
 30
0.0
 40
1.8
  1
F
 41
0.666667
100
AcDbText
  0
TEXT
  5
119
330
6B
100
AcDbEntity
  8
0
 62
     3
100
AcDbText
 10
190.62444
 20
-103.535896
 30
0.0
 40
3.2
  1
製図
 41
1.076369
100
AcDbText
  0
LINE
  5
11A
330
6B
100
AcDbEntity
  8
0
 62
     3
100
AcDbLine
 10
88.696558
 20
-95.83427699999999
 30
0.0
 11
88.696558
 21
-135.5
 31
0.0
  0
TEXT
  5
11B
330
6B
100
AcDbEntity
  8
0
 62
     3
100
AcDbText
 10
90.07321000000001
 20
-135.167535
 30
0.0
 40
5.0
  1
日動工業株式会社
 41
0.833333
100
AcDbText
  0
LINE
  5
11C
330
6B
100
AcDbEntity
  8
0
 62
     3
100
AcDbLine
 10
131.578961
 20
-111.834277
 30
0.0
 11
131.578961
 21
-135.5
 31
0.0
  0
LINE
  5
11D
330
6B
100
AcDbEntity
  8
0
 62
     3
100
AcDbLine
 10
131.578961
 20
-130.667139
 30
0.0
 11
148.300637
 21
-130.667139
 31
0.0
  0
TEXT
  5
11E
330
6B
100
AcDbEntity
  8
0
 62
     3
100
AcDbText
 10
132.165563
 20
-129.850708
 30
0.0
 40
3.2
  1
出図コード
 41
0.8356860000000001
100
AcDbText
  0
LINE
  5
136
330
6B
100
AcDbEntity
  8
0
 62
     3
100
AcDbLine
 10
88.696558
 20
-125.834277
 30
0.0
 11
200.0
 21
-125.834277
 31
0.0
  0
LINE
  5
138
330
6B
100
AcDbEntity
  8
0
 62
     3
100
AcDbLine
 10
88.696558
 20
-104.834277
 30
0.0
 11
200.0
 21
-104.834277
 31
0.0
  0
LINE
  5
13E
330
6B
100
AcDbEntity
  8
0
 62
     3
100
AcDbLine
 10
88.696558
 20
-111.834277
 30
0.0
 11
148.300637
 21
-111.834277
 31
0.0
  0
LINE
  5
144
330
6B
100
AcDbEntity
  8
0
 62
     3
100
AcDbLine
 10
88.696558
 20
-118.834277
 30
0.0
 11
200.0
 21
-118.834277
 31
0.0
  0
LINE
  5
148
330
6B
100
AcDbEntity
  8
0
 62
     3
100
AcDbLine
 10
200.0
 20
138.555361
 30
0.0
 11
200.0
 21
-135.5
 31
0.0
  0
LINE
  5
149
330
6B
100
AcDbEntity
  8
0
 62
     3
100
AcDbLine
 10
-190.0
 20
138.555361
 30
0.0
 11
-190.0
 21
-135.5
 31
0.0
  0
LINE
  5
14A
330
6B
100
AcDbEntity
  8
0
 62
     3
100
AcDbLine
 10
200.0
 20
-135.5
 30
0.0
 11
-190.0
 21
-135.5
 31
0.0
  0
TEXT
  5
14D
330
6B
100
AcDbEntity
  8
0
 62
     3
100
AcDbText
 10
132.0330149999999
 20
-134.9877222040528
 30
0.0
 40
3.2
  1
ZK-A3X
 41
0.8112849999999999
100
AcDbText
  0
LINE
  5
14E
330
6B
100
AcDbEntity
  8
0
 62
     2
100
AcDbLine
 10
-12.225111
 20
140.995363
 30
0.0
 11
-11.602614
 21
140.670409
 31
0.0
  0
LINE
  5
14F
330
6B
100
AcDbEntity
  8
0
 62
     2
100
AcDbLine
 10
-12.225111
 20
135.665891
 30
0.0
 11
-11.602614
 21
135.990846
 31
0.0
  0
LINE
  5
150
330
6B
100
AcDbEntity
  8
0
 62
     2
100
AcDbLine
 10
-11.602614
 20
140.670409
 30
0.0
 11
-11.602614
 21
135.990846
 31
0.0
  0
LINE
  5
151
330
6B
100
AcDbEntity
  8
0
 62
     2
100
AcDbLine
 10
-10.02616
 20
135.665891
 30
0.0
 11
-10.648657
 21
135.990846
 31
0.0
  0
LINE
  5
152
330
6B
100
AcDbEntity
  8
0
 62
     2
100
AcDbLine
 10
-10.648657
 20
138.843501
 30
0.0
 11
-10.648657
 21
135.990846
 31
0.0
  0
LINE
  5
153
330
6B
100
AcDbEntity
  8
0
 62
     2
100
AcDbLine
 10
-6.394928
 20
140.995363
 30
0.0
 11
-7.017425
 21
140.670409
 31
0.0
  0
LINE
  5
154
330
6B
100
AcDbEntity
  8
0
 62
     2
100
AcDbLine
 10
-8.593878
 20
140.995363
 30
0.0
 11
-7.971381
 21
140.670409
 31
0.0
  0
LINE
  5
155
330
6B
100
AcDbEntity
  8
0
 62
     2
100
AcDbLine
 10
-7.971381
 20
140.670409
 30
0.0
 11
-7.971381
 21
138.609927
 31
0.0
  0
LINE
  5
156
330
6B
100
AcDbEntity
  8
0
 62
     2
100
AcDbLine
 10
-7.017425
 20
140.670409
 30
0.0
 11
-7.017425
 21
135.363661
 31
0.0
  0
LINE
  5
157
330
6B
100
AcDbEntity
  8
0
 62
     2
100
AcDbLine
 10
-6.087359999999997
 20
140.995359
 30
0.0
 11
-5.464865
 21
140.670401
 31
0.0
  0
LINE
  5
158
330
6B
100
AcDbEntity
  8
0
 62
     2
100
AcDbLine
 10
-6.087470999999997
 20
135.665962
 30
0.0
 11
-5.464963
 21
135.990895
 31
0.0
  0
LINE
  5
159
330
6B
100
AcDbEntity
  8
0
 62
     2
100
AcDbLine
 10
-5.464865
 20
140.670401
 30
0.0
 11
-5.464865
 21
135.990895
 31
0.0
  0
LINE
  5
15A
330
6B
100
AcDbEntity
  8
0
 62
     2
100
AcDbLine
 10
-3.33088
 20
140.995326
 30
0.0
 11
-3.953380999999998
 21
140.67038
 31
0.0
  0
LINE
  5
15B
330
6B
100
AcDbEntity
  8
0
 62
     2
100
AcDbLine
 10
-3.953380999999998
 20
140.67038
 30
0.0
 11
-3.953380999999998
 21
135.990874
 31
0.0
  0
LINE
  5
15C
330
6B
100
AcDbEntity
  8
0
 62
     2
100
AcDbLine
 10
-3.33088
 20
135.665929
 30
0.0
 11
-3.953380999999998
 21
135.990874
 31
0.0
  0
LINE
  5
15D
330
6B
100
AcDbEntity
  8
0
 62
     2
100
AcDbLine
 10
1.940911
 20
140.995267
 30
0.0
 11
2.563406999999999
 21
140.67031
 31
0.0
  0
LINE
  5
15E
330
6B
100
AcDbEntity
  8
0
 62
     2
100
AcDbLine
 10
2.563406999999999
 20
140.67031
 30
0.0
 11
2.563324999999998
 21
135.990805
 31
0.0
  0
LINE
  5
15F
330
6B
100
AcDbEntity
  8
0
 62
     2
100
AcDbLine
 10
1.940817999999999
 20
135.66587
 30
0.0
 11
2.563324999999998
 21
135.990805
 31
0.0
  0
LINE
  5
160
330
6B
100
AcDbEntity
  8
0
 62
     2
100
AcDbLine
 10
4.729855
 20
140.995267
 30
0.0
 11
4.107358999999997
 21
140.67031
 31
0.0
  0
LINE
  5
161
330
6B
100
AcDbEntity
  8
0
 62
     2
100
AcDbLine
 10
4.729948
 20
135.66587
 30
0.0
 11
4.107441
 21
135.990805
 31
0.0
  0
LINE
  5
162
330
6B
100
AcDbEntity
  8
0
 62
     2
100
AcDbLine
 10
5.020894999999998
 20
140.995267
 30
0.0
 11
5.643391
 21
140.67031
 31
0.0
  0
LINE
  5
163
330
6B
100
AcDbEntity
  8
0
 62
     2
100
AcDbLine
 10
5.020801999999997
 20
135.66587
 30
0.0
 11
5.643308999999997
 21
135.990805
 31
0.0
  0
LINE
  5
164
330
6B
100
AcDbEntity
  8
0
 62
     2
100
AcDbLine
 10
7.809839
 20
140.995267
 30
0.0
 11
7.187342999999997
 21
140.67031
 31
0.0
  0
LINE
  5
165
330
6B
100
AcDbEntity
  8
0
 62
     2
100
AcDbLine
 10
7.187342999999997
 20
140.67031
 30
0.0
 11
7.187425
 21
135.990805
 31
0.0
  0
LINE
  5
166
330
6B
100
AcDbEntity
  8
0
 62
     2
100
AcDbLine
 10
7.809932
 20
135.66587
 30
0.0
 11
7.187425
 21
135.990805
 31
0.0
  0
LINE
  5
167
330
6B
100
AcDbEntity
  8
0
 62
     2
100
AcDbLine
 10
5.643355
 20
138.631549
 30
0.0
 11
4.107394999999998
 21
138.631549
 31
0.0
  0
LINE
  5
168
330
6B
100
AcDbEntity
  8
0
 62
     2
100
AcDbLine
 10
5.643345
 20
138.029705
 30
0.0
 11
4.107406
 21
138.029705
 31
0.0
  0
LINE
  5
169
330
6B
100
AcDbEntity
  8
0
 62
     2
100
AcDbLine
 10
5.643391
 20
140.67031
 30
0.0
 11
5.643355
 21
138.631549
 31
0.0
  0
LINE
  5
16A
330
6B
100
AcDbEntity
  8
0
 62
     2
100
AcDbLine
 10
5.643345
 20
138.029705
 30
0.0
 11
5.643308999999997
 21
135.990805
 31
0.0
  0
LINE
  5
16B
330
6B
100
AcDbEntity
  8
0
 62
     2
100
AcDbLine
 10
4.107358999999997
 20
140.67031
 30
0.0
 11
4.107394999999998
 21
138.631549
 31
0.0
  0
LINE
  5
16C
330
6B
100
AcDbEntity
  8
0
 62
     2
100
AcDbLine
 10
4.107406
 20
138.029705
 30
0.0
 11
4.107441
 21
135.990805
 31
0.0
  0
LINE
  5
16D
330
6B
100
AcDbEntity
  8
0
 62
     2
100
AcDbLine
 10
8.105494999999999
 20
140.995267
 30
0.0
 11
8.727991000000001
 21
140.67031
 31
0.0
  0
LINE
  5
16E
330
6B
100
AcDbEntity
  8
0
 62
     2
100
AcDbLine
 10
8.727991000000001
 20
140.67031
 30
0.0
 11
8.727909
 21
135.990805
 31
0.0
  0
LINE
  5
16F
330
6B
100
AcDbEntity
  8
0
 62
     2
100
AcDbLine
 10
8.105401999999997
 20
135.66587
 30
0.0
 11
8.727909
 21
135.990805
 31
0.0
  0
LINE
  5
170
330
6B
100
AcDbEntity
  8
0
 62
     2
100
AcDbLine
 10
10.861939
 20
140.995267
 30
0.0
 11
10.239443
 21
140.67031
 31
0.0
  0
LINE
  5
171
330
6B
100
AcDbEntity
  8
0
 62
     2
100
AcDbLine
 10
10.239443
 20
140.67031
 30
0.0
 11
10.239524
 21
135.990805
 31
0.0
  0
LINE
  5
172
330
6B
100
AcDbEntity
  8
0
 62
     2
100
AcDbLine
 10
10.862032
 20
135.66587
 30
0.0
 11
10.239524
 21
135.990805
 31
0.0
  0
LINE
  5
173
330
6B
100
AcDbEntity
  8
0
 62
     2
100
AcDbLine
 10
11.168166
 20
140.995267
 30
0.0
 11
11.790662
 21
140.67031
 31
0.0
  0
LINE
  5
174
330
6B
100
AcDbEntity
  8
0
 62
     2
100
AcDbLine
 10
11.790662
 20
140.67031
 30
0.0
 11
11.790581
 21
135.990805
 31
0.0
  0
LINE
  5
175
330
6B
100
AcDbEntity
  8
0
 62
     2
100
AcDbLine
 10
11.168073
 20
135.66587
 30
0.0
 11
11.790581
 21
135.990805
 31
0.0
  0
ARC
  5
176
330
6B
100
AcDbEntity
  8
0
 62
     2
100
AcDbCircle
 10
-0.047534
 20
138.344041
 30
0.0
 40
2.980408
100
AcDbArc
 50
97.701524
 51
270.0
  0
ARC
  5
177
330
6B
100
AcDbEntity
  8
0
 62
     2
100
AcDbCircle
 10
18.353325
 20
138.314103
 30
0.0
 40
3.012775999999998
100
AcDbArc
 50
0.31425
 51
69.00558199999998
  0
ARC
  5
178
330
6B
100
AcDbEntity
  8
0
 62
     2
100
AcDbCircle
 10
19.011432
 20
138.314103
 30
0.0
 40
3.012775999999998
100
AcDbArc
 50
110.994418
 51
148.116611
  0
ARC
  5
179
330
6B
100
AcDbEntity
  8
0
 62
     2
100
AcDbCircle
 10
18.353325
 20
138.347151
 30
0.0
 40
3.012775999999998
100
AcDbArc
 50
290.994418
 51
359.68575
  0
ARC
  5
17A
330
6B
100
AcDbEntity
  8
0
 62
     2
100
AcDbCircle
 10
19.011432
 20
138.347151
 30
0.0
 40
3.012775999999998
100
AcDbArc
 50
211.883389
 51
249.005582
  0
ARC
  5
17B
330
6B
100
AcDbEntity
  8
0
 62
     2
100
AcDbCircle
 10
18.682379
 20
139.563206
 30
0.0
 40
1.734386999999999
100
AcDbArc
 50
64.365172
 51
115.634828
  0
ARC
  5
17C
330
6B
100
AcDbEntity
  8
0
 62
     2
100
AcDbCircle
 10
18.682379
 20
137.098048
 30
0.0
 40
1.734386999999999
100
AcDbArc
 50
244.365172
 51
295.634828
  0
ARC
  5
17D
330
6B
100
AcDbEntity
  8
0
 62
     2
100
AcDbCircle
 10
18.682379
 20
139.596152
 30
0.0
 40
0.8512219999999999
100
AcDbArc
 50
19.486606
 51
160.513394
  0
ARC
  5
17E
330
6B
100
AcDbEntity
  8
0
 62
     2
100
AcDbCircle
 10
18.682379
 20
137.065103
 30
0.0
 40
0.8512219999999999
100
AcDbArc
 50
199.4866059999999
 51
340.513394
  0
ARC
  5
17F
330
6B
100
AcDbEntity
  8
0
 62
     3
100
AcDbCircle
 10
11.907418
 20
106.576256
 30
0.0
 40
37.20000000000001
100
AcDbArc
 50
69.50571500000001
 51
81.689988
  0
ARC
  5
180
330
6B
100
AcDbEntity
  8
0
 62
     3
100
AcDbCircle
 10
11.907418
 20
170.084998
 30
0.0
 40
37.20000000000001
100
AcDbArc
 50
278.310012
 51
290.494285
  0
ARC
  5
181
330
6B
100
AcDbEntity
  8
0
 62
     3
100
AcDbCircle
 10
23.776281
 20
138.330627
 30
0.0
 40
3.299999999999998
100
AcDbArc
 50
290.494285
 51
69.50571500000001
  0
ARC
  5
182
330
6B
100
AcDbEntity
  8
0
 62
     3
100
AcDbCircle
 10
-15.223719
 20
138.330627
 30
0.0
 40
3.299999999999998
100
AcDbArc
 50
110.494285
 51
249.505715
  0
ARC
  5
183
330
6B
100
AcDbEntity
  8
0
 62
     3
100
AcDbCircle
 10
-3.354855999999998
 20
106.576256
 30
0.0
 40
37.20000000000001
100
AcDbArc
 50
98.31001200000001
 51
110.494285
  0
ARC
  5
184
330
6B
100
AcDbEntity
  8
0
 62
     3
100
AcDbCircle
 10
-3.354855999999998
 20
170.084998
 30
0.0
 40
37.20000000000001
100
AcDbArc
 50
249.505715
 51
261.689988
  0
ARC
  5
185
330
6B
100
AcDbEntity
  8
0
 62
     3
100
AcDbCircle
 10
4.276280999999999
 20
54.330627
 30
0.0
 40
90.0
100
AcDbArc
 50
81.689988
 51
98.31001200000001
  0
ARC
  5
186
330
6B
100
AcDbEntity
  8
0
 62
     3
100
AcDbCircle
 10
4.276280999999999
 20
222.330627
 30
0.0
 40
90.0
100
AcDbArc
 50
261.689988
 51
278.310012
  0
ARC
  5
187
330
6B
100
AcDbEntity
  8
0
 62
     3
100
AcDbCircle
 10
4.276280999999999
 20
54.330627
 30
0.0
 40
89.1
100
AcDbArc
 50
81.689988
 51
98.31001200000001
  0
ARC
  5
188
330
6B
100
AcDbEntity
  8
0
 62
     3
100
AcDbCircle
 10
4.276280999999999
 20
222.330627
 30
0.0
 40
89.1
100
AcDbArc
 50
261.689988
 51
278.310012
  0
ARC
  5
189
330
6B
100
AcDbEntity
  8
0
 62
     3
100
AcDbCircle
 10
11.907418
 20
170.084998
 30
0.0
 40
36.3
100
AcDbArc
 50
278.310012
 51
290.494285
  0
ARC
  5
18A
330
6B
100
AcDbEntity
  8
0
 62
     3
100
AcDbCircle
 10
11.907418
 20
106.576256
 30
0.0
 40
36.3
100
AcDbArc
 50
69.50571500000001
 51
81.689988
  0
ARC
  5
18B
330
6B
100
AcDbEntity
  8
0
 62
     3
100
AcDbCircle
 10
23.776281
 20
138.330627
 30
0.0
 40
2.399999999999999
100
AcDbArc
 50
290.494285
 51
69.50571500000001
  0
ARC
  5
18C
330
6B
100
AcDbEntity
  8
0
 62
     3
100
AcDbCircle
 10
-15.223719
 20
138.330627
 30
0.0
 40
2.399999999999999
100
AcDbArc
 50
110.494285
 51
249.505715
  0
ARC
  5
18D
330
6B
100
AcDbEntity
  8
0
 62
     3
100
AcDbCircle
 10
-3.354855999999998
 20
106.576256
 30
0.0
 40
36.3
100
AcDbArc
 50
98.31001200000001
 51
110.494285
  0
ARC
  5
18E
330
6B
100
AcDbEntity
  8
0
 62
     3
100
AcDbCircle
 10
-3.354855999999998
 20
170.084998
 30
0.0
 40
36.3
100
AcDbArc
 50
249.505715
 51
261.689988
  0
LINE
  5
18F
330
6B
100
AcDbEntity
  8
0
 62
     2
100
AcDbLine
 10
10.86194
 20
135.363661
 30
0.0
 11
8.105494
 21
135.363661
 31
0.0
  0
LINE
  5
190
330
6B
100
AcDbEntity
  8
0
 62
     2
100
AcDbLine
 10
10.86194
 20
135.665891
 30
0.0
 11
10.86194
 21
135.363661
 31
0.0
  0
LINE
  5
191
330
6B
100
AcDbEntity
  8
0
 62
     2
100
AcDbLine
 10
7.809841
 20
141.297452
 30
0.0
 11
5.020894
 21
141.297452
 31
0.0
  0
LINE
  5
192
330
6B
100
AcDbEntity
  8
0
 62
     2
100
AcDbLine
 10
7.809841
 20
141.297452
 30
0.0
 11
7.809841
 21
140.995363
 31
0.0
  0
LINE
  5
193
330
6B
100
AcDbEntity
  8
0
 62
     2
100
AcDbLine
 10
7.809841
 20
135.665891
 30
0.0
 11
7.809841
 21
135.36352
 31
0.0
  0
LINE
  5
194
330
6B
100
AcDbEntity
  8
0
 62
     2
100
AcDbLine
 10
7.809841
 20
135.36352
 30
0.0
 11
5.020894
 21
135.36352
 31
0.0
  0
LINE
  5
195
330
6B
100
AcDbEntity
  8
0
 62
     2
100
AcDbLine
 10
10.86194
 20
141.297593
 30
0.0
 11
10.86194
 21
140.995363
 31
0.0
  0
LINE
  5
196
330
6B
100
AcDbEntity
  8
0
 62
     2
100
AcDbLine
 10
10.86194
 20
141.297593
 30
0.0
 11
8.105494
 21
141.297593
 31
0.0
  0
LINE
  5
197
330
6B
100
AcDbEntity
  8
0
 62
     2
100
AcDbLine
 10
8.105494
 20
141.297593
 30
0.0
 11
8.105494
 21
140.995363
 31
0.0
  0
LINE
  5
198
330
6B
100
AcDbEntity
  8
0
 62
     2
100
AcDbLine
 10
11.168165
 20
135.665891
 30
0.0
 11
11.168165
 21
135.363661
 31
0.0
  0
LINE
  5
199
330
6B
100
AcDbEntity
  8
0
 62
     2
100
AcDbLine
 10
14.00288
 20
135.363661
 30
0.0
 11
11.168165
 21
135.363661
 31
0.0
  0
LINE
  5
19A
330
6B
100
AcDbEntity
  8
0
 62
     2
100
AcDbLine
 10
13.302114
 20
140.343637
 30
0.0
 11
13.302114
 21
136.317617
 31
0.0
  0
LINE
  5
19B
330
6B
100
AcDbEntity
  8
0
 62
     2
100
AcDbLine
 10
13.302114
 20
136.317617
 30
0.0
 11
13.573612
 21
136.317617
 31
0.0
  0
ARC
  5
19C
330
6B
100
AcDbEntity
  8
0
 62
     2
100
AcDbCircle
 10
12.185347
 20
138.330627
 30
0.0
 40
2.445299
100
AcDbArc
 50
304.591955
 51
55.408045
  0
LINE
  5
19D
330
6B
100
AcDbEntity
  8
0
 62
     2
100
AcDbLine
 10
14.00288
 20
141.297593
 30
0.0
 11
11.168165
 21
141.297593
 31
0.0
  0
LINE
  5
19E
330
6B
100
AcDbEntity
  8
0
 62
     2
100
AcDbLine
 10
11.168165
 20
141.297593
 30
0.0
 11
11.168165
 21
140.995363
 31
0.0
  0
LINE
  5
19F
330
6B
100
AcDbEntity
  8
0
 62
     2
100
AcDbLine
 10
8.105494
 20
135.665891
 30
0.0
 11
8.105494
 21
135.363661
 31
0.0
  0
LINE
  5
1A0
330
6B
100
AcDbEntity
  8
0
 62
     2
100
AcDbLine
 10
13.302114
 20
140.343637
 30
0.0
 11
13.573612
 21
140.343637
 31
0.0
  0
LINE
  5
1A1
330
6B
100
AcDbEntity
  8
0
 62
     2
100
AcDbLine
 10
-3.330970999999999
 20
135.665891
 30
0.0
 11
-3.330976999999998
 21
135.363633
 31
0.0
  0
LINE
  5
1A2
330
6B
100
AcDbEntity
  8
0
 62
     2
100
AcDbLine
 10
-6.087422
 20
135.363689
 30
0.0
 11
-3.330976999999998
 21
135.363641
 31
0.0
  0
LINE
  5
1A3
330
6B
100
AcDbEntity
  8
0
 62
     2
100
AcDbLine
 10
-12.225111
 20
135.363661
 30
0.0
 11
-10.02616
 21
135.363661
 31
0.0
  0
ARC
  5
1A4
330
6B
100
AcDbEntity
  8
0
 62
     2
100
AcDbCircle
 10
-19.342172
 20
138.400494
 30
0.0
 40
21.019379
100
AcDbArc
 50
353.866006
 51
357.694034
  0
LINE
  5
1A5
330
6B
100
AcDbEntity
  8
0
 62
     2
100
AcDbLine
 10
0.252943
 20
137.559969
 30
0.0
 11
1.660186999999999
 21
137.554762
 31
0.0
  0
LINE
  5
1E8
330
6B
100
AcDbEntity
  8
0
 62
     2
100
AcDbLine
 10
0.258626
 20
139.09599
 30
0.0
 11
1.665869999999999
 21
139.090783
 31
0.0
  0
ARC
  5
1E9
330
6B
100
AcDbEntity
  8
0
 62
     2
100
AcDbCircle
 10
-19.342172
 20
138.400494
 30
0.0
 40
21.019379
100
AcDbArc
 50
1.881965999999999
 51
5.709994
  0
LINE
  5
1EA
330
6B
100
AcDbEntity
  8
0
 62
     2
100
AcDbLine
 10
-3.330873
 20
141.297565
 30
0.0
 11
-3.330877999999998
 21
140.995363
 31
0.0
  0
LINE
  5
1EB
330
6B
100
AcDbEntity
  8
0
 62
     2
100
AcDbLine
 10
-6.087318999999999
 20
141.297622
 30
0.0
 11
-3.330873
 21
141.297574
 31
0.0
  0
LINE
  5
1EC
330
6B
100
AcDbEntity
  8
0
 62
     2
100
AcDbLine
 10
-6.087416999999997
 20
135.665891
 30
0.0
 11
-6.087422
 21
135.363689
 31
0.0
  0
LINE
  5
1ED
330
6B
100
AcDbEntity
  8
0
 62
     2
100
AcDbLine
 10
-6.087318999999999
 20
141.297622
 30
0.0
 11
-6.087323999999997
 21
140.995363
 31
0.0
  0
LINE
  5
1EE
330
6B
100
AcDbEntity
  8
0
 62
     2
100
AcDbLine
 10
-10.02616
 20
135.665891
 30
0.0
 11
-10.02616
 21
135.363661
 31
0.0
  0
LINE
  5
1EF
330
6B
100
AcDbEntity
  8
0
 62
     2
100
AcDbLine
 10
-10.648657
 20
138.843501
 30
0.0
 11
-8.473757
 21
135.363661
 31
0.0
  0
LINE
  5
1F0
330
6B
100
AcDbEntity
  8
0
 62
     2
100
AcDbLine
 10
-8.473757
 20
135.363661
 30
0.0
 11
-7.017425
 21
135.363661
 31
0.0
  0
LINE
  5
1F1
330
6B
100
AcDbEntity
  8
0
 62
     2
100
AcDbLine
 10
-6.394928
 20
141.297593
 30
0.0
 11
-6.394928
 21
140.995363
 31
0.0
  0
LINE
  5
1F2
330
6B
100
AcDbEntity
  8
0
 62
     2
100
AcDbLine
 10
-8.593878
 20
141.297593
 30
0.0
 11
-6.394928
 21
141.297593
 31
0.0
  0
LINE
  5
1F3
330
6B
100
AcDbEntity
  8
0
 62
     2
100
AcDbLine
 10
-8.593878
 20
141.297593
 30
0.0
 11
-8.593878
 21
140.995363
 31
0.0
  0
LINE
  5
1F4
330
6B
100
AcDbEntity
  8
0
 62
     2
100
AcDbLine
 10
-7.971381
 20
138.609927
 30
0.0
 11
-9.735161999999997
 21
141.297593
 31
0.0
  0
LINE
  5
1F5
330
6B
100
AcDbEntity
  8
0
 62
     2
100
AcDbLine
 10
-12.225111
 20
141.297593
 30
0.0
 11
-9.735161999999997
 21
141.297593
 31
0.0
  0
LINE
  5
1F6
330
6B
100
AcDbEntity
  8
0
 62
     2
100
AcDbLine
 10
1.940909999999995
 20
141.297452
 30
0.0
 11
4.729855999999998
 21
141.297452
 31
0.0
  0
LINE
  5
1F7
330
6B
100
AcDbEntity
  8
0
 62
     2
100
AcDbLine
 10
1.940909999999995
 20
140.995363
 30
0.0
 11
1.940909999999995
 21
141.297452
 31
0.0
  0
LINE
  5
1F8
330
6B
100
AcDbEntity
  8
0
 62
     2
100
AcDbLine
 10
1.940909999999995
 20
135.36352
 30
0.0
 11
1.940909999999995
 21
135.665891
 31
0.0
  0
LINE
  5
1F9
330
6B
100
AcDbEntity
  8
0
 62
     2
100
AcDbLine
 10
1.940909999999995
 20
135.36352
 30
0.0
 11
4.729855999999998
 21
135.36352
 31
0.0
  0
LINE
  5
1FA
330
6B
100
AcDbEntity
  8
0
 62
     2
100
AcDbLine
 10
5.020894
 20
135.665891
 30
0.0
 11
5.020894
 21
135.36352
 31
0.0
  0
LINE
  5
1FB
330
6B
100
AcDbEntity
  8
0
 62
     2
100
AcDbLine
 10
4.729855999999998
 20
135.665891
 30
0.0
 11
4.729855999999998
 21
135.36352
 31
0.0
  0
LINE
  5
1FC
330
6B
100
AcDbEntity
  8
0
 62
     2
100
AcDbLine
 10
4.729855999999998
 20
140.995363
 30
0.0
 11
4.729855999999998
 21
141.297452
 31
0.0
  0
LINE
  5
1FD
330
6B
100
AcDbEntity
  8
0
 62
     2
100
AcDbLine
 10
5.020894
 20
140.995363
 30
0.0
 11
5.020894
 21
141.297452
 31
0.0
  0
LINE
  5
1FE
330
6B
100
AcDbEntity
  8
0
 62
     2
100
AcDbLine
 10
-12.225111
 20
135.665891
 30
0.0
 11
-12.225111
 21
135.363661
 31
0.0
  0
LINE
  5
1FF
330
6B
100
AcDbEntity
  8
0
 62
     2
100
AcDbLine
 10
-12.225111
 20
141.297593
 30
0.0
 11
-12.225111
 21
140.995363
 31
0.0
  0
ARC
  5
200
330
6B
100
AcDbEntity
  8
0
 62
     2
100
AcDbCircle
 10
14.30288
 20
138.953124
 30
0.0
 40
2.344468999999999
100
AcDbArc
 50
17.308749
 51
23.765071
  0
ARC
  5
201
330
6B
100
AcDbEntity
  8
0
 62
     2
100
AcDbCircle
 10
12.305347
 20
138.330627
 30
0.0
 40
4.436751
100
AcDbArc
 50
342.691251
 51
17.308566
  0
ARC
  5
202
330
6B
100
AcDbEntity
  8
0
 62
     2
100
AcDbCircle
 10
14.30288
 20
137.70813
 30
0.0
 40
2.344468999999999
100
AcDbArc
 50
336.234929
 51
342.691251
  0
ARC
  5
203
330
6B
100
AcDbEntity
  8
0
 62
     2
100
AcDbCircle
 10
14.00288
 20
138.953124
 30
0.0
 40
2.344468999999999
100
AcDbArc
 50
17.308749
 51
90.0
  0
ARC
  5
204
330
6B
100
AcDbEntity
  8
0
 62
     2
100
AcDbCircle
 10
12.005347
 20
138.330627
 30
0.0
 40
4.436751
100
AcDbArc
 50
342.691251
 51
17.308566
  0
ARC
  5
205
330
6B
100
AcDbEntity
  8
0
 62
     2
100
AcDbCircle
 10
14.00288
 20
137.70813
 30
0.0
 40
2.344468999999999
100
AcDbArc
 50
270.0
 51
342.691251
  0
ARC
  5
206
330
6B
100
AcDbEntity
  8
0
 62
     2
100
AcDbCircle
 10
-0.4598920000000001
 20
138.330627
 30
0.0
 40
2.966965999999997
100
AcDbArc
 50
46.75287999999999
 51
89.749998
  0
ARC
  5
207
330
6B
100
AcDbEntity
  8
0
 62
     2
100
AcDbCircle
 10
-0.4598920000000001
 20
138.330627
 30
0.0
 40
2.966965999999997
100
AcDbArc
 50
273.976333
 51
312.82312
  0
ARC
  5
208
330
6B
100
AcDbEntity
  8
0
 62
     2
100
AcDbCircle
 10
15.885548
 20
138.284825
 30
0.0
 40
3.936983999999998
100
AcDbArc
 50
0.6665840000000001
 51
23.903928
  0
ARC
  5
209
330
6B
100
AcDbEntity
  8
0
 62
     2
100
AcDbCircle
 10
21.479209
 20
138.284825
 30
0.0
 40
3.936983999999998
100
AcDbArc
 50
156.096072
 51
179.333416
  0
ARC
  5
20A
330
6B
100
AcDbEntity
  8
0
 62
     2
100
AcDbCircle
 10
15.885548
 20
138.376429
 30
0.0
 40
3.936983999999998
100
AcDbArc
 50
336.096072
 51
359.333416
  0
ARC
  5
20B
330
6B
100
AcDbEntity
  8
0
 62
     2
100
AcDbCircle
 10
21.479209
 20
138.376429
 30
0.0
 40
3.936983999999998
100
AcDbArc
 50
180.666584
 51
203.903928
  0
LINE
  5
20C
330
6B
100
AcDbEntity
  8
0
 62
     3
100
AcDbLine
 10
28.656725
 20
138.555361
 30
0.0
 11
200.0
 21
138.555361
 31
0.0
  0
LINE
  5
20D
330
6B
100
AcDbEntity
  8
0
 62
     3
100
AcDbLine
 10
-19.897309
 20
138.555361
 30
0.0
 11
-190.0
 21
138.555361
 31
0.0
  0
LINE
  5
20E
330
6B
100
AcDbEntity
  8
0
 62
     3
100
AcDbLine
 10
-202.401924
 20
5.0
 30
0.0
 11
-205.0
 21
3.5
 31
0.0
  0
LINE
  5
20F
330
6B
100
AcDbEntity
  8
0
 62
     3
100
AcDbLine
 10
-202.401924
 20
5.0
 30
0.0
 11
-205.0
 21
6.5
 31
0.0
  0
LINE
  5
210
330
6B
100
AcDbEntity
  8
0
 62
     3
100
AcDbLine
 10
-205.0
 20
3.5
 30
0.0
 11
-205.0
 21
6.5
 31
0.0
  0
TEXT
  5
211
330
6B
100
AcDbEntity
  8
0
 62
     3
100
AcDbText
 10
90.513954
 20
-99.66475199999999
 30
0.0
 40
2.0
  1
CONPONENTS
 41
0.5331600000000001
100
AcDbText
  0
TEXT
  5
212
330
6B
100
AcDbEntity
  8
0
 62
     3
100
AcDbText
 10
90.164228
 20
-118.596928
 30
0.0
 40
3.0
  1
材
 41
0.833333
100
AcDbText
  0
TEXT
  5
213
330
6B
100
AcDbEntity
  8
0
 62
     3
100
AcDbText
 10
97.69987
 20
-118.596928
 30
0.0
 40
3.0
  1
質
 41
0.833333
100
AcDbText
  0
TEXT
  5
214
330
6B
100
AcDbEntity
  8
0
 62
     3
100
AcDbText
 10
90.25229799999999
 20
-107.972404
 30
0.0
 40
2.0
  1
MODEL
 41
1.031072999999999
100
AcDbText
  0
TEXT
  5
215
330
6B
100
AcDbEntity
  8
0
 62
     3
100
AcDbText
 10
90.164228
 20
-114.91462
 30
0.0
 40
2.0
  1
MATERIAL
 41
0.659278
100
AcDbText
  0
TEXT
  5
216
330
6B
100
AcDbEntity
  8
0
 62
     3
100
AcDbText
 10
121.471508
 20
-118.596928
 30
0.0
 40
3.0
  1
備
 41
0.833333
100
AcDbText
  0
TEXT
  5
217
330
6B
100
AcDbEntity
  8
0
 62
     3
100
AcDbText
 10
128.20451
 20
-118.596928
 30
0.0
 40
3.0
  1
考
 41
0.833333
100
AcDbText
  0
TEXT
  5
218
330
6B
100
AcDbEntity
  8
0
 62
     3
100
AcDbText
 10
121.8062427289174
 20
-114.91462
 30
0.0
 40
2.0
  1
REMARKS
 41
0.675794
100
AcDbText
  0
TEXT
  5
219
330
6B
100
AcDbEntity
  8
0
 62
     3
100
AcDbText
 10
91.75395700000001
 20
-121.834741
 30
0.0
 40
2.0
  1
3AD
 41
1.42614
100
AcDbText
  0
TEXT
  5
21A
330
6B
100
AcDbEntity
  8
0
 62
     3
100
AcDbText
 10
101.064937
 20
-121.669007
 30
0.0
 40
2.0
  1
ANGLE
 41
1.669883999999995
100
AcDbText
  0
TEXT
  5
21B
330
6B
100
AcDbEntity
  8
0
 62
     3
100
AcDbText
 10
121.998824
 20
-122.045848
 30
0.0
 40
2.0
  1
SCALE
 41
0.7719630000000001
100
AcDbText
  0
TEXT
  5
21C
330
6B
100
AcDbEntity
  8
0
 62
     3
100
AcDbText
 10
91.440087
 20
-125.834277
 30
0.0
 40
3.0
  1
第
 41
0.833333
100
AcDbText
  0
TEXT
  5
21D
330
6B
100
AcDbEntity
  8
0
 62
     3
100
AcDbText
 10
99.22693700000001
 20
-125.834277
 30
0.0
 40
3.0
  1
三
 41
0.833333
100
AcDbText
  0
TEXT
  5
21E
330
6B
100
AcDbEntity
  8
0
 62
     3
100
AcDbText
 10
107.013787
 20
-125.834277
 30
0.0
 40
3.0
  1
角
 41
0.833333
100
AcDbText
  0
TEXT
  5
21F
330
6B
100
AcDbEntity
  8
0
 62
     3
100
AcDbText
 10
114.800637
 20
-125.834277
 30
0.0
 40
3.0
  1
法
 41
0.833333
100
AcDbText
  0
TEXT
  5
220
330
6B
100
AcDbEntity
  8
0
 62
     3
100
AcDbText
 10
121.862029
 20
-125.545848
 30
0.0
 40
3.0
  1
尺
 41
0.833333
100
AcDbText
  0
TEXT
  5
221
330
6B
100
AcDbEntity
  8
0
 62
     3
100
AcDbText
 10
128.59503
 20
-125.545848
 30
0.0
 40
3.0
  1
度
 41
0.833333
100
AcDbText
  0
TEXT
  5
222
330
6B
100
AcDbEntity
  8
0
 62
     3
100
AcDbText
 10
151.178301
 20
-103.376549
 30
0.0
 40
3.0
  1
承認
 41
1.089472999999999
100
AcDbText
  0
TEXT
  5
223
330
6B
100
AcDbEntity
  8
0
 62
     3
100
AcDbText
 10
164.421181
 20
-103.434277
 30
0.0
 40
3.0
  1
検図
 41
0.931761
100
AcDbText
  0
TEXT
  5
224
330
6B
100
AcDbEntity
  8
0
 62
     3
100
AcDbText
 10
177.421578
 20
-103.434277
 30
0.0
 40
3.0
  1
設
 41
0.833333
100
AcDbText
  0
TEXT
  5
225
330
6B
100
AcDbEntity
  8
0
 62
     3
100
AcDbText
 10
181.9114459999999
 20
-103.434277
 30
0.0
 40
3.0
  1
計
 41
0.833333
100
AcDbText
  0
TEXT
  5
226
330
6B
100
AcDbEntity
  8
0
 62
     3
100
AcDbText
 10
90.584061
 20
-103.261725
 30
0.0
 40
3.0
  1
品
 41
0.833333
100
AcDbText
  0
TEXT
  5
227
330
6B
100
AcDbEntity
  8
0
 62
     3
100
AcDbText
 10
98.119703
 20
-103.261725
 30
0.0
 40
3.0
  1
名
 41
0.833333
100
AcDbText
  0
TEXT
  5
228
330
6B
100
AcDbEntity
  8
0
 62
     3
100
AcDbText
 10
90.25229799999999
 20
-111.3691824785072
 30
0.0
 40
3.0
  1
型
 41
0.833333
100
AcDbText
  0
TEXT
  5
229
330
6B
100
AcDbEntity
  8
0
 62
     3
100
AcDbText
 10
97.800389
 20
-111.3691824785072
 30
0.0
 40
3.0
  1
式
 41
0.833333
100
AcDbText
  0
TEXT
  5
231
330
6B
100
AcDbEntity
  8
0
 62
     3
100
AcDbText
 10
164.884185
 20
-124.7035389552467
 30
0.0
 40
3.2
  1
2009.6.1
  7
高3.2
100
AcDbText
  0
TEXT
  5
232
330
6B
100
AcDbEntity
  8
0
 62
     3
100
AcDbText
 10
104.5363188907736
 20
-103.6933284382731
 30
0.0
 40
4.5
  1
リモコンHIDサーチライト
 41
0.6
  7
高4.5
100
AcDbText
  0
LINE
  5
233
330
6B
100
AcDbEntity
  8
0
 62
     3
100
AcDbLine
 10
-87.271482
 20
-25.177928
 30
0.0
 11
-162.271482
 21
-25.177928
 31
0.0
  0
LINE
  5
234
330
6B
100
AcDbEntity
  8
0
 62
     3
100
AcDbLine
 10
-87.271482
 20
-18.677928
 30
0.0
 11
-87.271482
 21
-25.177928
 31
0.0
  0
LINE
  5
235
330
6B
100
AcDbEntity
  8
0
 62
     3
100
AcDbLine
 10
-162.271482
 20
-18.677928
 30
0.0
 11
-162.271482
 21
-25.177928
 31
0.0
  0
LINE
  5
236
330
6B
100
AcDbEntity
  8
0
 62
     3
100
AcDbLine
 10
-161.771482
 20
-18.177928
 30
0.0
 11
-87.77148199999997
 21
-18.177928
 31
0.0
  0
LINE
  5
237
330
6B
100
AcDbEntity
  8
0
 62
     3
100
AcDbLine
 10
-156.218236
 20
-14.177928
 30
0.0
 11
-93.324727
 21
-14.177928
 31
0.0
  0
ARC
  5
238
330
6B
100
AcDbEntity
  8
0
 62
     3
100
AcDbCircle
 10
-87.77148199999997
 20
-18.677928
 30
0.0
 40
0.5
100
AcDbArc
 50
0.0
 51
90.0
  0
ARC
  5
239
330
6B
100
AcDbEntity
  8
0
 62
     3
100
AcDbCircle
 10
-161.771482
 20
-18.677928
 30
0.0
 40
0.5
100
AcDbArc
 50
90.0
 51
180.0
  0
ARC
  5
23A
330
6B
100
AcDbEntity
  8
0
 62
     3
100
AcDbCircle
 10
-93.77148199999998
 20
-18.177928
 30
0.0
 40
4.0
100
AcDbArc
 50
0.0
 51
42.536898
  0
ARC
  5
23B
330
6B
100
AcDbEntity
  8
0
 62
     3
100
AcDbCircle
 10
-155.771482
 20
-18.177928
 30
0.0
 40
4.0
100
AcDbArc
 50
137.463102
 51
180.0
  0
LINE
  5
23C
330
6B
100
AcDbEntity
  8
0
 62
     3
100
AcDbLine
 10
-94.771482
 20
12.822072
 30
0.0
 11
-94.771482
 21
-5.332694999999998
 31
0.0
  0
LINE
  5
23D
330
6B
100
AcDbEntity
  8
0
 62
     3
100
AcDbLine
 10
-154.771482
 20
12.822072
 30
0.0
 11
-154.771482
 21
-5.332694999999998
 31
0.0
  0
ARC
  5
23E
330
6B
100
AcDbEntity
  8
0
 62
     3
100
AcDbCircle
 10
-79.77148199999998
 20
-5.332694999999998
 30
0.0
 40
15.0
100
AcDbArc
 50
221.15273
 51
222.536898
  0
ARC
  5
23F
330
6B
100
AcDbEntity
  8
0
 62
     3
100
AcDbCircle
 10
-169.771482
 20
-5.332694999999998
 30
0.0
 40
15.0
100
AcDbArc
 50
317.463102
 51
318.8472700000001
  0
ARC
  5
240
330
6B
100
AcDbEntity
  8
0
 62
     3
100
AcDbCircle
 10
-93.324727
 20
-17.177928
 30
0.0
 40
3.0
100
AcDbArc
 50
41.15273
 51
90.0
  0
ARC
  5
241
330
6B
100
AcDbEntity
  8
0
 62
     3
100
AcDbCircle
 10
-156.218236
 20
-17.177928
 30
0.0
 40
3.0
100
AcDbArc
 50
90.0
 51
138.84727
  0
ARC
  5
242
330
6B
100
AcDbEntity
  8
0
 62
     3
100
AcDbCircle
 10
-79.77148199999998
 20
-5.332694999999998
 30
0.0
 40
15.0
100
AcDbArc
 50
180.0
 51
222.536898
  0
ARC
  5
243
330
6B
100
AcDbEntity
  8
0
 62
     3
100
AcDbCircle
 10
-169.771482
 20
-5.332694999999998
 30
0.0
 40
15.0
100
AcDbArc
 50
317.463102
 51
0.0
  0
ARC
  5
244
330
6B
100
AcDbEntity
  8
0
 62
     3
100
AcDbCircle
 10
-160.771482
 20
12.822072
 30
0.0
 40
6.0
100
AcDbArc
 50
0.0
 51
90.0
  0
LINE
  5
245
330
6B
100
AcDbEntity
  8
0
 62
     7
100
AcDbLine
 10
-94.771482
 20
7.822072
 30
0.0
 11
-154.771482
 21
7.822072
 31
0.0
  0
LINE
  5
246
330
6B
100
AcDbEntity
  8
0
 62
     3
100
AcDbLine
 10
-101.771482
 20
18.822072
 30
0.0
 11
-101.771482
 21
13.322072
 31
0.0
  0
LINE
  5
247
330
6B
100
AcDbEntity
  8
0
 62
     3
100
AcDbLine
 10
-94.771482
 20
101.415923
 30
0.0
 11
-94.771482
 21
-0.4284860000000001
 31
0.0
  0
LINE
  5
248
330
6B
100
AcDbEntity
  8
0
 62
     3
100
AcDbLine
 10
-91.77148200000001
 20
103.642197
 30
0.0
 11
-91.77148200000001
 21
13.322072
 31
0.0
  0
LINE
  5
249
330
6B
100
AcDbEntity
  8
0
 62
     3
100
AcDbLine
 10
-91.77148200000001
 20
13.322072
 30
0.0
 11
-101.771482
 21
13.322072
 31
0.0
  0
LINE
  5
24A
330
6B
100
AcDbEntity
  8
0
  6
CENTER
 62
     7
100
AcDbLine
 10
-88.829539
 20
16.822072
 30
0.0
 11
-104.219032
 21
16.822072
 31
0.0
  0
LINE
  5
24B
330
6B
100
AcDbEntity
  8
0
 62
     3
100
AcDbLine
 10
-116.271482
 20
106.822072
 30
0.0
 11
-114.271482
 21
106.822072
 31
0.0
  0
LINE
  5
24C
330
6B
100
AcDbEntity
  8
0
 62
     3
100
AcDbLine
 10
-118.271482
 20
104.822072
 30
0.0
 11
-118.271482
 21
104.282829
 31
0.0
  0
ARC
  5
24D
330
6B
100
AcDbEntity
  8
0
 62
     3
100
AcDbCircle
 10
-114.271482
 20
-314.344594
 30
0.0
 40
418.166667
100
AcDbArc
 50
84.93824899999998
 51
86.91563700000001
  0
ARC
  5
24E
330
6B
100
AcDbEntity
  8
0
 62
     3
100
AcDbCircle
 10
-139.069101
 20
59.822072
 30
0.0
 40
85.297619
100
AcDbArc
 50
337.501829
 51
26.52023
  0
LINE
  5
24F
330
6B
100
AcDbEntity
  8
0
 62
     3
100
AcDbLine
 10
-79.80902799999999
 20
22.212551
 30
0.0
 11
-91.77148200000001
 21
21.151144
 31
0.0
  0
ARC
  5
250
330
6B
100
AcDbEntity
  8
0
 62
     3
100
AcDbCircle
 10
-68.11543399999999
 20
95.229551
 30
0.0
 40
6.0
100
AcDbArc
 50
26.52023
 51
83.57030599999999
  0
ARC
  5
251
330
6B
100
AcDbEntity
  8
0
 62
     3
100
AcDbCircle
 10
-65.806685
 20
29.478526
 30
0.0
 40
6.0
100
AcDbArc
 50
275.070476
 51
337.501829
  0
LINE
  5
252
330
6B
100
AcDbEntity
  8
0
 62
     3
100
AcDbLine
 10
-108.883135
 20
18.822072
 30
0.0
 11
-91.77148200000001
 21
18.822072
 31
0.0
  0
LINE
  5
253
330
6B
100
AcDbEntity
  8
0
 62
     3
100
AcDbLine
 10
-169.271482
 20
26.322072
 30
0.0
 11
-169.271482
 21
70.51224399999998
 31
0.0
  0
LINE
  5
254
330
6B
100
AcDbEntity
  8
0
 62
     3
100
AcDbLine
 10
-136.771482
 20
109.822072
 30
0.0
 11
-124.468846
 21
105.047897
 31
0.0
  0
LINE
  5
255
330
6B
100
AcDbEntity
  8
0
 62
     3
100
AcDbLine
 10
-124.468846
 20
105.047897
 30
0.0
 11
-118.271482
 21
105.047897
 31
0.0
  0
LINE
  5
256
330
6B
100
AcDbEntity
  8
0
 62
     3
100
AcDbLine
 10
-136.771482
 20
109.822072
 30
0.0
 11
-136.771482
 21
92.32207200000001
 31
0.0
  0
LINE
  5
257
330
6B
100
AcDbEntity
  8
0
 62
     3
100
AcDbLine
 10
-163.576207
 20
79.53828
 30
0.0
 11
-136.771482
 21
92.32207200000001
 31
0.0
  0
ARC
  5
258
330
6B
100
AcDbEntity
  8
0
 62
     3
100
AcDbCircle
 10
-159.271482
 20
70.51224399999998
 30
0.0
 40
10.0
100
AcDbArc
 50
115.497551
 51
180.0
  0
ARC
  5
259
330
6B
100
AcDbEntity
  8
0
 62
     3
100
AcDbCircle
 10
-161.771482
 20
26.322072
 30
0.0
 40
7.5
100
AcDbArc
 50
180.0
 51
270.0
  0
ARC
  5
25A
330
6B
100
AcDbEntity
  8
0
 62
     7
100
AcDbCircle
 10
-138.525459
 20
122.207839
 30
0.0
 40
22.182245
100
AcDbArc
 50
274.535181
 51
309.322711
  0
ARC
  5
25B
330
6B
100
AcDbEntity
  8
0
 62
     3
100
AcDbCircle
 10
-116.271482
 20
104.822072
 30
0.0
 40
2.0
100
AcDbArc
 50
90.0
 51
180.0
  0
ARC
  5
25C
330
6B
100
AcDbEntity
  8
0
 62
     3
100
AcDbCircle
 10
-89.44076700000001
 20
361.149171
 30
0.0
 40
255.543388
100
AcDbArc
 50
264.475913
 51
269.036499
  0
ARC
  5
25D
330
6B
100
AcDbEntity
  8
0
 62
     3
100
AcDbCircle
 10
-93.77148199999998
 20
103.642197
 30
0.0
 40
2.0
100
AcDbArc
 50
0.0
 51
89.03649899999996
  0
LINE
  5
25E
330
6B
100
AcDbEntity
  8
0
 62
     3
100
AcDbLine
 10
-96.691055
 20
103.414305
 30
0.0
 11
-118.271482
 21
104.282829
 31
0.0
  0
ARC
  5
25F
330
6B
100
AcDbEntity
  8
0
 62
     3
100
AcDbCircle
 10
-96.77148200000001
 20
101.415923
 30
0.0
 40
2.0
100
AcDbArc
 50
0.0
 51
87.695325
  0
LINE
  5
260
330
6B
100
AcDbEntity
  8
0
 62
     7
100
AcDbLine
 10
-94.771482
 20
51.822072
 30
0.0
 11
-169.271482
 21
51.822072
 31
0.0
  0
LINE
  5
261
330
6B
100
AcDbEntity
  8
0
 62
     3
100
AcDbLine
 10
-154.771482
 20
50.426214
 30
0.0
 11
-154.771482
 21
52.83727299999998
 31
0.0
  0
LINE
  5
262
330
6B
100
AcDbEntity
  8
0
 62
     3
100
AcDbLine
 10
-114.274279
 20
20.399747
 30
0.0
 11
-151.31484
 21
44.10947
 31
0.0
  0
LINE
  5
263
330
6B
100
AcDbEntity
  8
0
 62
     3
100
AcDbLine
 10
-91.77148200000001
 20
88.82207199999998
 30
0.0
 11
-101.771482
 21
88.82207199999998
 31
0.0
  0
LINE
  5
264
330
6B
100
AcDbEntity
  8
0
 62
     3
100
AcDbLine
 10
-91.77148200000001
 20
82.83711
 30
0.0
 11
-101.428408
 21
82.83711
 31
0.0
  0
LINE
  5
265
330
6B
100
AcDbEntity
  8
0
 62
     3
100
AcDbLine
 10
-150.820619
 20
59.444362
 30
0.0
 11
-109.488911
 21
81.64656200000001
 31
0.0
  0
LINE
  5
266
330
6B
100
AcDbEntity
  8
0
 62
     3
100
AcDbLine
 10
-101.771482
 20
88.82207199999998
 30
0.0
 11
-101.771482
 21
82.58323500000001
 31
0.0
  0
LINE
  5
267
330
6B
100
AcDbEntity
  8
0
 62
     3
100
AcDbLine
 10
-104.756728
 20
82.83711
 30
0.0
 11
-100.140086
 21
82.83711
 31
0.0
  0
ARC
  5
268
330
6B
100
AcDbEntity
  8
0
 62
     3
100
AcDbCircle
 10
-104.756728
 20
72.83711
 30
0.0
 40
10.0
100
AcDbArc
 50
90.0
 51
118.243408
  0
ARC
  5
269
330
6B
100
AcDbEntity
  8
0
 62
     3
100
AcDbCircle
 10
-100.140086
 20
77.46850600000001
 30
0.0
 40
5.368604
100
AcDbArc
 50
0.0
 51
90.0
  0
ARC
  5
26A
330
6B
100
AcDbEntity
  8
0
 62
     3
100
AcDbCircle
 10
-147.271482
 20
52.83727299999998
 30
0.0
 40
7.5
100
AcDbArc
 50
118.243408
 51
180.0
  0
ARC
  5
26B
330
6B
100
AcDbEntity
  8
0
 62
     3
100
AcDbCircle
 10
-147.271482
 20
50.426214
 30
0.0
 40
7.5
100
AcDbArc
 50
180.0
 51
237.376626
  0
LINE
  5
26C
330
6B
100
AcDbEntity
  8
0
  6
CENTER
 62
     7
100
AcDbLine
 10
-88.93382800000003
 20
85.82207199999997
 30
0.0
 11
-101.715764
 21
85.82207199999997
 31
0.0
  0
LINE
  5
26D
330
6B
100
AcDbEntity
  8
0
 62
     3
100
AcDbLine
 10
-67.44353000000001
 20
101.191811
 30
0.0
 11
-77.376906
 21
102.1913
 31
0.0
  0
ARC
  5
26E
330
6B
100
AcDbEntity
  8
0
 62
     7
100
AcDbCircle
 10
-106.478332
 20
88.82207199999998
 30
0.0
 40
35.51292800000001
100
AcDbArc
 50
0.0
 51
14.506376
  0
ARC
  5
26F
330
6B
100
AcDbEntity
  8
0
 62
     7
100
AcDbCircle
 10
-77.90628199999997
 20
96.21469900000001
 30
0.0
 40
6.0
100
AcDbArc
 50
14.506376
 51
84.93824899999998
  0
ARC
  5
270
330
6B
100
AcDbEntity
  8
0
 62
     7
100
AcDbCircle
 10
-99.88564100000001
 20
76.820421
 30
0.0
 40
31.311655
100
AcDbArc
 50
353.461846
 51
22.53803200000001
  0
LINE
  5
271
330
6B
100
AcDbEntity
  8
0
 62
     3
100
AcDbLine
 10
-65.276398
 20
23.502006
 30
0.0
 11
-79.80902799999999
 21
22.212551
 31
0.0
  0
ARC
  5
272
330
6B
100
AcDbEntity
  8
0
 62
     7
100
AcDbCircle
 10
-131.197136
 20
57.066812
 30
0.0
 40
64.484544
100
AcDbArc
 50
330.41152
 51
14.539167
  0
ARC
  5
273
330
6B
100
AcDbEntity
  8
0
 62
     7
100
AcDbCircle
 10
-80.33931499999999
 20
28.189072
 30
0.0
 40
6.0
100
AcDbArc
 50
275.070476
 51
330.41152
  0
ARC
  5
274
330
6B
100
AcDbEntity
  8
0
 62
     3
100
AcDbCircle
 10
-108.883135
 20
28.822072
 30
0.0
 40
10.0
100
AcDbArc
 50
237.376626
 51
270.0
  0
LINE
  5
275
330
6B
100
AcDbEntity
  8
0
 62
     3
100
AcDbLine
 10
-108.883135
 20
18.822072
 30
0.0
 11
-161.771482
 21
18.822072
 31
0.0
  0
LINE
  5
276
330
6B
100
AcDbEntity
  8
0
 62
     3
100
AcDbLine
 10
-156.271482
 20
-0.677928
 30
0.0
 11
-156.271482
 21
-10.677928
 31
0.0
  0
LINE
  5
277
330
6B
100
AcDbEntity
  8
0
 62
     3
100
AcDbLine
 10
-156.271482
 20
-0.677928
 30
0.0
 11
-156.271482
 21
-11.871043
 31
0.0
  0
LINE
  5
278
330
6B
100
AcDbEntity
  8
0
 62
     3
100
AcDbLine
 10
-156.271482
 20
-0.677928
 30
0.0
 11
-154.771482
 21
0.062184
 31
0.0
  0
LINE
  5
279
330
6B
100
AcDbEntity
  8
0
  6
CENTER
 62
     7
100
AcDbLine
 10
-153.411545
 20
-5.677927999999997
 30
0.0
 11
-157.877978
 21
-5.677927999999997
 31
0.0
  0
LINE
  5
27A
330
6B
100
AcDbEntity
  8
0
 62
     3
100
AcDbLine
 10
-17.101333
 20
-25.177928
 30
0.0
 11
57.89866700000001
 21
-25.177928
 31
0.0
  0
LINE
  5
27B
330
6B
100
AcDbEntity
  8
0
 62
     3
100
AcDbLine
 10
-17.101333
 20
-18.677928
 30
0.0
 11
-17.101333
 21
-25.177928
 31
0.0
  0
LINE
  5
27C
330
6B
100
AcDbEntity
  8
0
 62
     3
100
AcDbLine
 10
57.89866700000001
 20
-18.677928
 30
0.0
 11
57.89866700000001
 21
-25.177928
 31
0.0
  0
LINE
  5
27D
330
6B
100
AcDbEntity
  8
0
 62
     3
100
AcDbLine
 10
57.398667
 20
-18.177928
 30
0.0
 11
-16.601333
 21
-18.177928
 31
0.0
  0
LINE
  5
27E
330
6B
100
AcDbEntity
  8
0
 62
     3
100
AcDbLine
 10
51.845422
 20
-14.177928
 30
0.0
 11
-11.048087
 21
-14.177928
 31
0.0
  0
ARC
  5
27F
330
6B
100
AcDbEntity
  8
0
 62
     3
100
AcDbCircle
 10
-16.601333
 20
-18.677928
 30
0.0
 40
0.5
100
AcDbArc
 50
90.0
 51
180.0
  0
ARC
  5
280
330
6B
100
AcDbEntity
  8
0
 62
     3
100
AcDbCircle
 10
57.398667
 20
-18.677928
 30
0.0
 40
0.5
100
AcDbArc
 50
0.0
 51
90.0
  0
ARC
  5
281
330
6B
100
AcDbEntity
  8
0
 62
     3
100
AcDbCircle
 10
-10.601333
 20
-18.177928
 30
0.0
 40
4.0
100
AcDbArc
 50
137.463102
 51
180.0
  0
ARC
  5
282
330
6B
100
AcDbEntity
  8
0
 62
     3
100
AcDbCircle
 10
51.39866699999998
 20
-18.177928
 30
0.0
 40
4.0
100
AcDbArc
 50
0.0
 51
42.536898
  0
LINE
  5
283
330
6B
100
AcDbEntity
  8
0
 62
     3
100
AcDbLine
 10
-9.601333
 20
12.822072
 30
0.0
 11
-9.601333
 21
-5.332694999999998
 31
0.0
  0
LINE
  5
284
330
6B
100
AcDbEntity
  8
0
 62
     3
100
AcDbLine
 10
50.398667
 20
12.822072
 30
0.0
 11
50.398667
 21
-5.332694999999998
 31
0.0
  0
ARC
  5
285
330
6B
100
AcDbEntity
  8
0
 62
     3
100
AcDbCircle
 10
-24.601333
 20
-5.332694999999998
 30
0.0
 40
15.0
100
AcDbArc
 50
317.463102
 51
318.8472700000001
  0
ARC
  5
286
330
6B
100
AcDbEntity
  8
0
 62
     3
100
AcDbCircle
 10
65.39866700000001
 20
-5.332694999999998
 30
0.0
 40
15.0
100
AcDbArc
 50
221.15273
 51
222.536898
  0
ARC
  5
287
330
6B
100
AcDbEntity
  8
0
 62
     3
100
AcDbCircle
 10
-11.048087
 20
-17.177928
 30
0.0
 40
3.0
100
AcDbArc
 50
90.0
 51
138.84727
  0
ARC
  5
288
330
6B
100
AcDbEntity
  8
0
 62
     3
100
AcDbCircle
 10
51.845422
 20
-17.177928
 30
0.0
 40
3.0
100
AcDbArc
 50
41.15273
 51
90.0
  0
ARC
  5
289
330
6B
100
AcDbEntity
  8
0
 62
     3
100
AcDbCircle
 10
-24.601333
 20
-5.332694999999998
 30
0.0
 40
15.0
100
AcDbArc
 50
317.463102
 51
0.0
  0
ARC
  5
28A
330
6B
100
AcDbEntity
  8
0
 62
     3
100
AcDbCircle
 10
65.39866700000001
 20
-5.332694999999998
 30
0.0
 40
15.0
100
AcDbArc
 50
180.0
 51
222.536898
  0
LINE
  5
28B
330
6B
100
AcDbEntity
  8
0
 62
     3
100
AcDbLine
 10
-24.777644
 20
24.640338
 30
0.0
 11
-25.601333
 21
51.822072
 31
0.0
  0
LINE
  5
28C
330
6B
100
AcDbEntity
  8
0
 62
     3
100
AcDbLine
 10
-24.777644
 20
79.00380699999998
 30
0.0
 11
-25.601333
 21
51.822072
 31
0.0
  0
LINE
  5
28D
330
6B
100
AcDbEntity
  8
0
 62
     3
100
AcDbLine
 10
65.574978
 20
79.00380699999998
 30
0.0
 11
66.398667
 21
51.822072
 31
0.0
  0
LINE
  5
28E
330
6B
100
AcDbEntity
  8
0
 62
     3
100
AcDbLine
 10
65.574978
 20
24.640338
 30
0.0
 11
66.398667
 21
51.822072
 31
0.0
  0
LINE
  5
28F
330
6B
100
AcDbEntity
  8
0
 62
     3
100
AcDbLine
 10
54.398667
 20
21.822072
 30
0.0
 11
-13.601333
 21
21.822072
 31
0.0
  0
LINE
  5
290
330
6B
100
AcDbEntity
  8
0
 62
     3
100
AcDbLine
 10
-16.601333
 20
24.822072
 30
0.0
 11
-16.601333
 21
80.84713499999997
 31
0.0
  0
LINE
  5
291
330
6B
100
AcDbEntity
  8
0
 62
     3
100
AcDbLine
 10
57.398667
 20
24.822072
 30
0.0
 11
57.398667
 21
80.84713499999997
 31
0.0
  0
ARC
  5
292
330
6B
100
AcDbEntity
  8
0
 62
     3
100
AcDbCircle
 10
-18.780397
 20
24.822072
 30
0.0
 40
6.0
100
AcDbArc
 50
181.735705
 51
270.0
  0
ARC
  5
293
330
6B
100
AcDbEntity
  8
0
 62
     3
100
AcDbCircle
 10
59.577731
 20
24.822072
 30
0.0
 40
6.0
100
AcDbArc
 50
270.0
 51
358.264295
  0
ARC
  5
294
330
6B
100
AcDbEntity
  8
0
 62
     3
100
AcDbCircle
 10
-18.780397
 20
78.82207199999998
 30
0.0
 40
6.0
100
AcDbArc
 50
100.666413
 51
178.264295
  0
ARC
  5
295
330
6B
100
AcDbEntity
  8
0
 62
     3
100
AcDbCircle
 10
59.577731
 20
78.82207199999998
 30
0.0
 40
6.0
100
AcDbArc
 50
1.735704999999999
 51
77.28180400000002
  0
LINE
  5
296
330
6B
100
AcDbEntity
  8
0
 62
     3
100
AcDbLine
 10
-20.101333
 20
51.822072
 30
0.0
 11
-25.601333
 21
51.822072
 31
0.0
  0
ARC
  5
297
330
6B
100
AcDbEntity
  8
0
 62
     3
100
AcDbCircle
 10
-15.601333
 20
12.822072
 30
0.0
 40
6.0
100
AcDbArc
 50
0.0
 51
90.0
  0
ARC
  5
298
330
6B
100
AcDbEntity
  8
0
 62
     3
100
AcDbCircle
 10
56.398667
 20
12.822072
 30
0.0
 40
6.0
100
AcDbArc
 50
90.0
 51
180.0
  0
LINE
  5
299
330
6B
100
AcDbEntity
  8
0
 62
     3
100
AcDbLine
 10
39.39866699999999
 20
18.822072
 30
0.0
 11
39.39866699999999
 21
16.822072
 31
0.0
  0
LINE
  5
29A
330
6B
100
AcDbEntity
  8
0
 62
     3
100
AcDbLine
 10
46.39866699999998
 20
18.822072
 30
0.0
 11
46.39866699999998
 21
16.822072
 31
0.0
  0
LINE
  5
29B
330
6B
100
AcDbEntity
  8
0
 62
     3
100
AcDbLine
 10
20.398667
 20
109.822072
 30
0.0
 11
14.985881
 21
109.822072
 31
0.0
  0
ARC
  5
29C
330
6B
100
AcDbEntity
  8
0
 62
     3
100
AcDbCircle
 10
-0.101333
 20
88.82207199999998
 30
0.0
 40
15.0
100
AcDbArc
 50
98.433869
 51
180.0
  0
ARC
  5
29D
330
6B
100
AcDbEntity
  8
0
 62
     3
100
AcDbCircle
 10
-0.101333
 20
88.82207199999998
 30
0.0
 40
12.0
100
AcDbArc
 50
98.433869
 51
180.0
  0
LINE
  5
29E
330
6B
100
AcDbEntity
  8
0
 62
     3
100
AcDbLine
 10
-12.101333
 20
88.82207199999998
 30
0.0
 11
-12.101333
 21
85.82207199999997
 31
0.0
  0
ARC
  5
29F
330
6B
100
AcDbEntity
  8
0
 62
     3
100
AcDbCircle
 10
-17.101333
 20
85.82207199999997
 30
0.0
 40
5.0
100
AcDbArc
 50
275.73917
 51
0.0
  0
LINE
  5
2A0
330
6B
100
AcDbEntity
  8
0
 62
     3
100
AcDbLine
 10
-20.101333
 20
24.822072
 30
0.0
 11
-20.101333
 21
85.82207199999997
 31
0.0
  0
ARC
  5
2A1
330
6B
100
AcDbEntity
  8
0
 62
     3
100
AcDbCircle
 10
-14.101333
 20
24.822072
 30
0.0
 40
6.0
100
AcDbArc
 50
180.0
 51
270.0
  0
LINE
  5
2A2
330
6B
100
AcDbEntity
  8
0
 62
     3
100
AcDbLine
 10
60.898667
 20
24.822072
 30
0.0
 11
60.898667
 21
85.82207199999997
 31
0.0
  0
LINE
  5
2A3
330
6B
100
AcDbEntity
  8
0
 62
     3
100
AcDbLine
 10
60.898667
 20
51.822072
 30
0.0
 11
66.398667
 21
51.822072
 31
0.0
  0
ARC
  5
2A4
330
6B
100
AcDbEntity
  8
0
 62
     3
100
AcDbCircle
 10
54.898667
 20
24.822072
 30
0.0
 40
6.0
100
AcDbArc
 50
270.0
 51
0.0
  0
LINE
  5
2A5
330
6B
100
AcDbEntity
  8
0
 62
     3
100
AcDbLine
 10
20.398667
 20
106.822072
 30
0.0
 11
15.148411
 21
106.822072
 31
0.0
  0
ARC
  5
2A6
330
6B
100
AcDbEntity
  8
0
 62
     3
100
AcDbCircle
 10
17.773539
 20
83.395384
 30
0.0
 40
23.573312
100
AcDbArc
 50
96.39373
 51
122.398059
  0
ARC
  5
2A7
330
6B
100
AcDbEntity
  8
0
 62
     3
100
AcDbCircle
 10
17.773539
 20
83.395384
 30
0.0
 40
26.573312
100
AcDbArc
 50
96.39373
 51
122.398059
  0
LINE
  5
2A8
330
6B
100
AcDbEntity
  8
0
 62
     3
100
AcDbLine
 10
20.398667
 20
109.822072
 30
0.0
 11
25.811454
 21
109.822072
 31
0.0
  0
LINE
  5
2A9
330
6B
100
AcDbEntity
  8
0
 62
     3
100
AcDbLine
 10
20.398667
 20
106.822072
 30
0.0
 11
25.648924
 21
106.822072
 31
0.0
  0
LINE
  5
2AA
330
6B
100
AcDbEntity
  8
0
 62
     3
100
AcDbLine
 10
52.89866700000001
 20
88.82207199999998
 30
0.0
 11
52.89866700000001
 21
85.82207199999997
 31
0.0
  0
ARC
  5
2AB
330
6B
100
AcDbEntity
  8
0
 62
     3
100
AcDbCircle
 10
57.89866700000001
 20
85.82207199999997
 30
0.0
 40
5.0
100
AcDbArc
 50
180.0
 51
264.26083
  0
ARC
  5
2AC
330
6B
100
AcDbEntity
  8
0
 62
     3
100
AcDbCircle
 10
57.89866700000001
 20
85.82207199999997
 30
0.0
 40
3.0
100
AcDbArc
 50
0.0
 51
90.0
  0
LINE
  5
2AD
330
6B
100
AcDbEntity
  8
0
 62
     3
100
AcDbLine
 10
-17.101333
 20
88.82207199999998
 30
0.0
 11
-15.101333
 21
88.82207199999998
 31
0.0
  0
LINE
  5
2AE
330
6B
100
AcDbEntity
  8
0
 62
     3
100
AcDbLine
 10
57.89866700000001
 20
88.82207199999998
 30
0.0
 11
55.898667
 21
88.82207199999998
 31
0.0
  0
ARC
  5
2AF
330
6B
100
AcDbEntity
  8
0
 62
     3
100
AcDbCircle
 10
-17.101333
 20
85.82207199999997
 30
0.0
 40
3.0
100
AcDbArc
 50
90.0
 51
180.0
  0
CIRCLE
  5
2B0
330
6B
100
AcDbEntity
  8
0
 62
     3
100
AcDbCircle
 10
-17.101333
 20
85.82207199999997
 30
0.0
 40
1.75
  0
LINE
  5
2B1
330
6B
100
AcDbEntity
  8
0
 62
     3
100
AcDbLine
 10
-18.780397
 20
18.822072
 30
0.0
 11
-5.601333
 21
18.822072
 31
0.0
  0
LINE
  5
2B2
330
6B
100
AcDbEntity
  8
0
 62
     3
100
AcDbLine
 10
1.398667
 20
18.822072
 30
0.0
 11
39.39866699999999
 21
18.822072
 31
0.0
  0
LINE
  5
2B3
330
6B
100
AcDbEntity
  8
0
 62
     3
100
AcDbLine
 10
46.39866699999998
 20
18.822072
 30
0.0
 11
59.577731
 21
18.822072
 31
0.0
  0
LINE
  5
2B4
330
6B
100
AcDbEntity
  8
0
 62
     7
100
AcDbLine
 10
24.262147
 20
63.685552
 30
0.0
 11
16.535188
 21
63.685552
 31
0.0
  0
LINE
  5
2B5
330
6B
100
AcDbEntity
  8
0
 62
     7
100
AcDbLine
 10
16.535188
 20
63.685552
 30
0.0
 11
16.535188
 21
55.958593
 31
0.0
  0
CIRCLE
  5
2B6
330
6B
100
AcDbEntity
  8
0
 62
     7
100
AcDbCircle
 10
20.398667
 20
59.822072
 30
0.0
 40
8.739791999999999
  0
LINE
  5
2B7
330
6B
100
AcDbEntity
  8
0
 62
     7
100
AcDbLine
 10
16.535188
 20
55.958593
 30
0.0
 11
24.262147
 21
55.958593
 31
0.0
  0
LINE
  5
2B8
330
6B
100
AcDbEntity
  8
0
 62
     7
100
AcDbLine
 10
24.262147
 20
55.958593
 30
0.0
 11
24.262147
 21
63.685552
 31
0.0
  0
CIRCLE
  5
2B9
330
6B
100
AcDbEntity
  8
0
 62
     7
100
AcDbCircle
 10
20.398667
 20
59.822072
 30
0.0
 40
2.814836999999998
  0
ARC
  5
2BA
330
6B
100
AcDbEntity
  8
0
 62
     3
100
AcDbCircle
 10
-4.501365999999999
 20
118.497647
 30
0.0
 40
15.0
100
AcDbArc
 50
278.433869
 51
302.398059
  0
ARC
  5
2BB
330
6B
100
AcDbEntity
  8
0
 62
     3
100
AcDbCircle
 10
-4.501365999999999
 20
118.497647
 30
0.0
 40
18.0
100
AcDbArc
 50
278.433869
 51
302.398059
  0
ARC
  5
2BC
330
6B
100
AcDbEntity
  8
0
 62
     3
100
AcDbCircle
 10
40.89866699999999
 20
88.82207199999998
 30
0.0
 40
15.0
100
AcDbArc
 50
0.0
 51
81.56613099999999
  0
ARC
  5
2BD
330
6B
100
AcDbEntity
  8
0
 62
     3
100
AcDbCircle
 10
40.89866699999999
 20
88.82207199999998
 30
0.0
 40
12.0
100
AcDbArc
 50
0.0
 51
81.56613099999999
  0
ARC
  5
2BE
330
6B
100
AcDbEntity
  8
0
 62
     3
100
AcDbCircle
 10
45.298701
 20
118.497647
 30
0.0
 40
15.0
100
AcDbArc
 50
237.601941
 51
261.566131
  0
ARC
  5
2BF
330
6B
100
AcDbEntity
  8
0
 62
     3
100
AcDbCircle
 10
45.298701
 20
118.497647
 30
0.0
 40
18.0
100
AcDbArc
 50
237.601941
 51
261.566131
  0
ARC
  5
2C0
330
6B
100
AcDbEntity
  8
0
 62
     3
100
AcDbCircle
 10
23.023795
 20
83.395384
 30
0.0
 40
23.573312
100
AcDbArc
 50
57.60194100000001
 51
83.60626999999999
  0
ARC
  5
2C1
330
6B
100
AcDbEntity
  8
0
 62
     3
100
AcDbCircle
 10
23.023795
 20
83.395384
 30
0.0
 40
26.573312
100
AcDbArc
 50
57.60194100000001
 51
83.60626999999999
  0
LINE
  5
2C2
330
6B
100
AcDbEntity
  8
0
 62
     3
100
AcDbLine
 10
54.898667
 20
88.82207199999998
 30
0.0
 11
54.898667
 21
85.82207199999997
 31
0.0
  0
ARC
  5
2C3
330
6B
100
AcDbEntity
  8
0
 62
     3
100
AcDbCircle
 10
57.89866700000001
 20
85.82207199999997
 30
0.0
 40
3.0
100
AcDbArc
 50
180.0
 51
264.26083
  0
LINE
  5
2C4
330
6B
100
AcDbEntity
  8
0
 62
     3
100
AcDbLine
 10
57.598667
 20
82.83711
 30
0.0
 11
59.898667
 21
82.83711
 31
0.0
  0
LINE
  5
2C5
330
6B
100
AcDbEntity
  8
0
 62
     7
100
AcDbLine
 10
-8.601333
 20
88.82207199999998
 30
0.0
 11
-8.601333
 21
85.82207199999997
 31
0.0
  0
ARC
  5
2C6
330
6B
100
AcDbEntity
  8
0
 62
     7
100
AcDbCircle
 10
-0.101333
 20
88.82207199999998
 30
0.0
 40
8.5
100
AcDbArc
 50
118.510511
 51
180.0
  0
ARC
  5
2C7
330
6B
100
AcDbEntity
  8
0
 62
     7
100
AcDbCircle
 10
20.398667
 20
51.082281
 30
0.0
 40
51.44813
100
AcDbArc
 50
61.48948899999999
 51
118.510511
  0
ARC
  5
2C8
330
6B
100
AcDbEntity
  8
0
 62
     7
100
AcDbCircle
 10
40.89866699999999
 20
88.82207199999998
 30
0.0
 40
8.5
100
AcDbArc
 50
0.0
 51
61.48948899999999
  0
LINE
  5
2C9
330
6B
100
AcDbEntity
  8
0
 62
     7
100
AcDbLine
 10
49.39866699999999
 20
88.82207199999998
 30
0.0
 11
49.39866699999999
 21
85.82207199999997
 31
0.0
  0
ARC
  5
2CA
330
6B
100
AcDbEntity
  8
0
 62
     3
100
AcDbCircle
 10
-13.601333
 20
24.822072
 30
0.0
 40
3.0
100
AcDbArc
 50
180.0
 51
270.0
  0
ARC
  5
2CB
330
6B
100
AcDbEntity
  8
0
 62
     3
100
AcDbCircle
 10
54.398667
 20
24.822072
 30
0.0
 40
3.0
100
AcDbArc
 50
270.0
 51
0.0
  0
ARC
  5
2CC
330
6B
100
AcDbEntity
  8
0
 62
     7
100
AcDbCircle
 10
-10.862839
 20
28.81545
 30
0.0
 40
5.0
100
AcDbArc
 50
171.399063
 51
270.0
  0
LINE
  5
2CD
330
6B
100
AcDbEntity
  8
0
 62
     7
100
AcDbLine
 10
51.660174
 20
23.81545
 30
0.0
 11
-10.862839
 21
23.81545
 31
0.0
  0
ARC
  5
2CE
330
6B
100
AcDbEntity
  8
0
 62
     7
100
AcDbCircle
 10
51.660174
 20
28.81545
 30
0.0
 40
5.0
100
AcDbArc
 50
270.0
 51
8.600937
  0
ARC
  5
2CF
330
6B
100
AcDbEntity
  8
0
 62
     7
100
AcDbCircle
 10
-17.101333
 20
85.82207199999997
 30
0.0
 40
8.5
100
AcDbArc
 50
298.502008
 51
0.0
  0
ARC
  5
2D0
330
6B
100
AcDbEntity
  8
0
 62
     7
100
AcDbCircle
 10
-10.659274
 20
73.958267
 30
0.0
 40
5.0
100
AcDbArc
 50
118.502008
 51
188.084205
  0
ARC
  5
2D1
330
6B
100
AcDbEntity
  8
0
 62
     7
100
AcDbCircle
 10
-164.681728
 20
52.080944
 30
0.0
 40
150.568422
100
AcDbArc
 50
351.399063
 51
8.084205
  0
ARC
  5
2D2
330
6B
100
AcDbEntity
  8
0
 62
     7
100
AcDbCircle
 10
57.89866700000001
 20
85.82207199999997
 30
0.0
 40
8.5
100
AcDbArc
 50
180.0
 51
241.497992
  0
ARC
  5
2D3
330
6B
100
AcDbEntity
  8
0
 62
     7
100
AcDbCircle
 10
205.479063
 20
52.080944
 30
0.0
 40
150.568422
100
AcDbArc
 50
171.915795
 51
188.600937
  0
ARC
  5
2D4
330
6B
100
AcDbEntity
  8
0
 62
     7
100
AcDbCircle
 10
51.456608
 20
73.958267
 30
0.0
 40
5.0
100
AcDbArc
 50
351.915795
 51
61.497992
  0
LINE
  5
2D5
330
6B
100
AcDbEntity
  8
0
 62
     7
100
AcDbLine
 10
-9.601333
 20
7.822072
 30
0.0
 11
50.398667
 21
7.822072
 31
0.0
  0
LINE
  5
2D6
330
6B
100
AcDbEntity
  8
0
 62
     7
100
AcDbLine
 10
11.831325
 20
14.536787
 30
0.0
 11
12.142573
 21
14.37431
 31
0.0
  0
LINE
  5
2D7
330
6B
100
AcDbEntity
  8
0
 62
     7
100
AcDbLine
 10
11.831325
 20
11.872051
 30
0.0
 11
12.142573
 21
12.034529
 31
0.0
  0
LINE
  5
2D8
330
6B
100
AcDbEntity
  8
0
 62
     7
100
AcDbLine
 10
12.142573
 20
14.37431
 30
0.0
 11
12.142573
 21
12.034529
 31
0.0
  0
LINE
  5
2D9
330
6B
100
AcDbEntity
  8
0
 62
     7
100
AcDbLine
 10
12.9308
 20
11.872051
 30
0.0
 11
12.619552
 21
12.034529
 31
0.0
  0
LINE
  5
2DA
330
6B
100
AcDbEntity
  8
0
 62
     7
100
AcDbLine
 10
12.619552
 20
13.460856
 30
0.0
 11
12.619552
 21
12.034529
 31
0.0
  0
LINE
  5
2DB
330
6B
100
AcDbEntity
  8
0
 62
     7
100
AcDbLine
 10
14.746416
 20
14.536787
 30
0.0
 11
14.435168
 21
14.37431
 31
0.0
  0
LINE
  5
2DC
330
6B
100
AcDbEntity
  8
0
 62
     7
100
AcDbLine
 10
13.646941
 20
14.536787
 30
0.0
 11
13.95819
 21
14.37431
 31
0.0
  0
LINE
  5
2DD
330
6B
100
AcDbEntity
  8
0
 62
     7
100
AcDbLine
 10
13.95819
 20
14.37431
 30
0.0
 11
13.95819
 21
13.344069
 31
0.0
  0
LINE
  5
2DE
330
6B
100
AcDbEntity
  8
0
 62
     7
100
AcDbLine
 10
14.435168
 20
14.37431
 30
0.0
 11
14.435168
 21
11.720936
 31
0.0
  0
LINE
  5
2DF
330
6B
100
AcDbEntity
  8
0
 62
     7
100
AcDbLine
 10
14.9002
 20
14.536786
 30
0.0
 11
15.211448
 21
14.374306
 31
0.0
  0
LINE
  5
2E0
330
6B
100
AcDbEntity
  8
0
 62
     7
100
AcDbLine
 10
14.900145
 20
11.872087
 30
0.0
 11
15.211399
 21
12.034553
 31
0.0
  0
LINE
  5
2E1
330
6B
100
AcDbEntity
  8
0
 62
     7
100
AcDbLine
 10
15.211448
 20
14.374306
 30
0.0
 11
15.211448
 21
12.034553
 31
0.0
  0
LINE
  5
2E2
330
6B
100
AcDbEntity
  8
0
 62
     7
100
AcDbLine
 10
16.27844
 20
14.536769
 30
0.0
 11
15.96719
 21
14.374296
 31
0.0
  0
LINE
  5
2E3
330
6B
100
AcDbEntity
  8
0
 62
     7
100
AcDbLine
 10
15.96719
 20
14.374296
 30
0.0
 11
15.96719
 21
12.034543
 31
0.0
  0
LINE
  5
2E4
330
6B
100
AcDbEntity
  8
0
 62
     7
100
AcDbLine
 10
16.27844
 20
11.87207
 30
0.0
 11
15.96719
 21
12.034543
 31
0.0
  0
LINE
  5
2E5
330
6B
100
AcDbEntity
  8
0
 62
     7
100
AcDbLine
 10
18.914336
 20
14.536739
 30
0.0
 11
19.225584
 21
14.374261
 31
0.0
  0
LINE
  5
2E6
330
6B
100
AcDbEntity
  8
0
 62
     7
100
AcDbLine
 10
19.225584
 20
14.374261
 30
0.0
 11
19.225543
 21
12.034508
 31
0.0
  0
LINE
  5
2E7
330
6B
100
AcDbEntity
  8
0
 62
     7
100
AcDbLine
 10
18.914289
 20
11.872041
 30
0.0
 11
19.225543
 21
12.034508
 31
0.0
  0
LINE
  5
2E8
330
6B
100
AcDbEntity
  8
0
 62
     7
100
AcDbLine
 10
20.308808
 20
14.536739
 30
0.0
 11
19.99756
 21
14.374261
 31
0.0
  0
LINE
  5
2E9
330
6B
100
AcDbEntity
  8
0
 62
     7
100
AcDbLine
 10
20.308854
 20
11.872041
 30
0.0
 11
19.997601
 21
12.034508
 31
0.0
  0
LINE
  5
2EA
330
6B
100
AcDbEntity
  8
0
 62
     7
100
AcDbLine
 10
20.454328
 20
14.536739
 30
0.0
 11
20.765576
 21
14.374261
 31
0.0
  0
LINE
  5
2EB
330
6B
100
AcDbEntity
  8
0
 62
     7
100
AcDbLine
 10
20.454281
 20
11.872041
 30
0.0
 11
20.765535
 21
12.034508
 31
0.0
  0
LINE
  5
2EC
330
6B
100
AcDbEntity
  8
0
 62
     7
100
AcDbLine
 10
21.8488
 20
14.536739
 30
0.0
 11
21.537552
 21
14.374261
 31
0.0
  0
LINE
  5
2ED
330
6B
100
AcDbEntity
  8
0
 62
     7
100
AcDbLine
 10
21.537552
 20
14.374261
 30
0.0
 11
21.537593
 21
12.034508
 31
0.0
  0
LINE
  5
2EE
330
6B
100
AcDbEntity
  8
0
 62
     7
100
AcDbLine
 10
21.848846
 20
11.872041
 30
0.0
 11
21.537593
 21
12.034508
 31
0.0
  0
LINE
  5
2EF
330
6B
100
AcDbEntity
  8
0
 62
     7
100
AcDbLine
 10
20.765558
 20
13.35488
 30
0.0
 11
19.997578
 21
13.35488
 31
0.0
  0
LINE
  5
2F0
330
6B
100
AcDbEntity
  8
0
 62
     7
100
AcDbLine
 10
20.765553
 20
13.053959
 30
0.0
 11
19.997583
 21
13.053959
 31
0.0
  0
LINE
  5
2F1
330
6B
100
AcDbEntity
  8
0
 62
     7
100
AcDbLine
 10
20.765576
 20
14.374261
 30
0.0
 11
20.765558
 21
13.35488
 31
0.0
  0
LINE
  5
2F2
330
6B
100
AcDbEntity
  8
0
 62
     7
100
AcDbLine
 10
20.765553
 20
13.053959
 30
0.0
 11
20.765535
 21
12.034508
 31
0.0
  0
LINE
  5
2F3
330
6B
100
AcDbEntity
  8
0
 62
     7
100
AcDbLine
 10
19.99756
 20
14.374261
 30
0.0
 11
19.997578
 21
13.35488
 31
0.0
  0
LINE
  5
2F4
330
6B
100
AcDbEntity
  8
0
 62
     7
100
AcDbLine
 10
19.997583
 20
13.053959
 30
0.0
 11
19.997601
 21
12.034508
 31
0.0
  0
LINE
  5
2F5
330
6B
100
AcDbEntity
  8
0
 62
     7
100
AcDbLine
 10
21.996628
 20
14.536739
 30
0.0
 11
22.307876
 21
14.374261
 31
0.0
  0
LINE
  5
2F6
330
6B
100
AcDbEntity
  8
0
 62
     7
100
AcDbLine
 10
22.307876
 20
14.374261
 30
0.0
 11
22.307835
 21
12.034508
 31
0.0
  0
LINE
  5
2F7
330
6B
100
AcDbEntity
  8
0
 62
     7
100
AcDbLine
 10
21.996581
 20
11.872041
 30
0.0
 11
22.307835
 21
12.034508
 31
0.0
  0
LINE
  5
2F8
330
6B
100
AcDbEntity
  8
0
 62
     7
100
AcDbLine
 10
23.374849
 20
14.536739
 30
0.0
 11
23.063602
 21
14.374261
 31
0.0
  0
LINE
  5
2F9
330
6B
100
AcDbEntity
  8
0
 62
     7
100
AcDbLine
 10
23.063602
 20
14.374261
 30
0.0
 11
23.063642
 21
12.034508
 31
0.0
  0
LINE
  5
2FA
330
6B
100
AcDbEntity
  8
0
 62
     7
100
AcDbLine
 10
23.374896
 20
11.872041
 30
0.0
 11
23.063642
 21
12.034508
 31
0.0
  0
LINE
  5
2FB
330
6B
100
AcDbEntity
  8
0
 62
     7
100
AcDbLine
 10
23.527963
 20
14.536739
 30
0.0
 11
23.839211
 21
14.374261
 31
0.0
  0
LINE
  5
2FC
330
6B
100
AcDbEntity
  8
0
 62
     7
100
AcDbLine
 10
23.839211
 20
14.374261
 30
0.0
 11
23.839171
 21
12.034508
 31
0.0
  0
LINE
  5
2FD
330
6B
100
AcDbEntity
  8
0
 62
     7
100
AcDbLine
 10
23.527917
 20
11.872041
 30
0.0
 11
23.839171
 21
12.034508
 31
0.0
  0
ARC
  5
2FE
330
6B
100
AcDbEntity
  8
0
 62
     7
100
AcDbCircle
 10
17.920113
 20
13.211126
 30
0.0
 40
1.490204
100
AcDbArc
 50
97.701524
 51
270.0
  0
ARC
  5
2FF
330
6B
100
AcDbEntity
  8
0
 62
     7
100
AcDbCircle
 10
27.120543
 20
13.196157
 30
0.0
 40
1.506387999999999
100
AcDbArc
 50
0.31425
 51
69.00558199999998
  0
ARC
  5
300
330
6B
100
AcDbEntity
  8
0
 62
     7
100
AcDbCircle
 10
27.449596
 20
13.196157
 30
0.0
 40
1.506387999999999
100
AcDbArc
 50
110.994418
 51
148.116611
  0
ARC
  5
301
330
6B
100
AcDbEntity
  8
0
 62
     7
100
AcDbCircle
 10
27.120543
 20
13.212681
 30
0.0
 40
1.506387999999999
100
AcDbArc
 50
290.994418
 51
359.68575
  0
ARC
  5
302
330
6B
100
AcDbEntity
  8
0
 62
     7
100
AcDbCircle
 10
27.449596
 20
13.212681
 30
0.0
 40
1.506387999999999
100
AcDbArc
 50
211.883389
 51
249.005582
  0
ARC
  5
303
330
6B
100
AcDbEntity
  8
0
 62
     7
100
AcDbCircle
 10
27.28507
 20
13.820709
 30
0.0
 40
0.8671939999999999
100
AcDbArc
 50
64.365172
 51
115.634828
  0
ARC
  5
304
330
6B
100
AcDbEntity
  8
0
 62
     7
100
AcDbCircle
 10
27.28507
 20
12.58813
 30
0.0
 40
0.8671939999999999
100
AcDbArc
 50
244.365172
 51
295.634828
  0
ARC
  5
305
330
6B
100
AcDbEntity
  8
0
 62
     7
100
AcDbCircle
 10
27.28507
 20
13.837182
 30
0.0
 40
0.425611
100
AcDbArc
 50
19.486606
 51
160.513394
  0
ARC
  5
306
330
6B
100
AcDbEntity
  8
0
 62
     7
100
AcDbCircle
 10
27.28507
 20
12.571657
 30
0.0
 40
0.425611
100
AcDbArc
 50
199.4866059999999
 51
340.513394
  0
ARC
  5
307
330
6B
100
AcDbEntity
  8
0
 62
     7
100
AcDbCircle
 10
23.897589
 20
-2.672766
 30
0.0
 40
18.6
100
AcDbArc
 50
69.50571500000001
 51
81.689988
  0
ARC
  5
308
330
6B
100
AcDbEntity
  8
0
 62
     7
100
AcDbCircle
 10
23.897589
 20
29.081605
 30
0.0
 40
18.6
100
AcDbArc
 50
278.310012
 51
290.494285
  0
ARC
  5
309
330
6B
100
AcDbEntity
  8
0
 62
     7
100
AcDbCircle
 10
29.832021
 20
13.204419
 30
0.0
 40
1.649999999999999
100
AcDbArc
 50
290.494285
 51
69.50571500000001
  0
ARC
  5
30A
330
6B
100
AcDbEntity
  8
0
 62
     7
100
AcDbCircle
 10
10.332021
 20
13.204419
 30
0.0
 40
1.649999999999999
100
AcDbArc
 50
110.494285
 51
249.505715
  0
ARC
  5
30B
330
6B
100
AcDbEntity
  8
0
 62
     7
100
AcDbCircle
 10
16.266452
 20
-2.672766
 30
0.0
 40
18.6
100
AcDbArc
 50
98.31001200000001
 51
110.494285
  0
ARC
  5
30C
330
6B
100
AcDbEntity
  8
0
 62
     7
100
AcDbCircle
 10
16.266452
 20
29.081605
 30
0.0
 40
18.6
100
AcDbArc
 50
249.505715
 51
261.689988
  0
ARC
  5
30D
330
6B
100
AcDbEntity
  8
0
 62
     7
100
AcDbCircle
 10
20.082021
 20
-28.795581
 30
0.0
 40
45.0
100
AcDbArc
 50
81.689988
 51
98.31001200000001
  0
ARC
  5
30E
330
6B
100
AcDbEntity
  8
0
 62
     7
100
AcDbCircle
 10
20.082021
 20
55.20441899999998
 30
0.0
 40
45.0
100
AcDbArc
 50
261.689988
 51
278.310012
  0
ARC
  5
30F
330
6B
100
AcDbEntity
  8
0
 62
     7
100
AcDbCircle
 10
20.082021
 20
-28.795581
 30
0.0
 40
44.55
100
AcDbArc
 50
81.689988
 51
98.31001200000001
  0
ARC
  5
310
330
6B
100
AcDbEntity
  8
0
 62
     7
100
AcDbCircle
 10
20.082021
 20
55.20441899999998
 30
0.0
 40
44.55
100
AcDbArc
 50
261.689988
 51
278.310012
  0
ARC
  5
311
330
6B
100
AcDbEntity
  8
0
 62
     7
100
AcDbCircle
 10
23.897589
 20
29.081605
 30
0.0
 40
18.15
100
AcDbArc
 50
278.310012
 51
290.494285
  0
ARC
  5
312
330
6B
100
AcDbEntity
  8
0
 62
     7
100
AcDbCircle
 10
23.897589
 20
-2.672766
 30
0.0
 40
18.15
100
AcDbArc
 50
69.50571500000001
 51
81.689988
  0
ARC
  5
313
330
6B
100
AcDbEntity
  8
0
 62
     7
100
AcDbCircle
 10
29.832021
 20
13.204419
 30
0.0
 40
1.199999999999999
100
AcDbArc
 50
290.494285
 51
69.50571500000001
  0
ARC
  5
314
330
6B
100
AcDbEntity
  8
0
 62
     7
100
AcDbCircle
 10
10.332021
 20
13.204419
 30
0.0
 40
1.199999999999999
100
AcDbArc
 50
110.494285
 51
249.505715
  0
ARC
  5
315
330
6B
100
AcDbEntity
  8
0
 62
     7
100
AcDbCircle
 10
16.266452
 20
-2.672766
 30
0.0
 40
18.15
100
AcDbArc
 50
98.31001200000001
 51
110.494285
  0
ARC
  5
316
330
6B
100
AcDbEntity
  8
0
 62
     7
100
AcDbCircle
 10
16.266452
 20
29.081605
 30
0.0
 40
18.15
100
AcDbArc
 50
249.505715
 51
261.689988
  0
LINE
  5
317
330
6B
100
AcDbEntity
  8
0
 62
     7
100
AcDbLine
 10
23.37485
 20
11.720936
 30
0.0
 11
21.996627
 21
11.720936
 31
0.0
  0
LINE
  5
318
330
6B
100
AcDbEntity
  8
0
 62
     7
100
AcDbLine
 10
23.37485
 20
11.872051
 30
0.0
 11
23.37485
 21
11.720936
 31
0.0
  0
LINE
  5
319
330
6B
100
AcDbEntity
  8
0
 62
     7
100
AcDbLine
 10
21.8488
 20
14.687832
 30
0.0
 11
20.454327
 21
14.687832
 31
0.0
  0
LINE
  5
31A
330
6B
100
AcDbEntity
  8
0
 62
     7
100
AcDbLine
 10
21.8488
 20
14.687832
 30
0.0
 11
21.8488
 21
14.536787
 31
0.0
  0
LINE
  5
31B
330
6B
100
AcDbEntity
  8
0
 62
     7
100
AcDbLine
 10
21.8488
 20
11.872051
 30
0.0
 11
21.8488
 21
11.720866
 31
0.0
  0
LINE
  5
31C
330
6B
100
AcDbEntity
  8
0
 62
     7
100
AcDbLine
 10
21.8488
 20
11.720866
 30
0.0
 11
20.454327
 21
11.720866
 31
0.0
  0
LINE
  5
31D
330
6B
100
AcDbEntity
  8
0
 62
     7
100
AcDbLine
 10
23.37485
 20
14.687902
 30
0.0
 11
23.37485
 21
14.536787
 31
0.0
  0
LINE
  5
31E
330
6B
100
AcDbEntity
  8
0
 62
     7
100
AcDbLine
 10
23.37485
 20
14.687902
 30
0.0
 11
21.996627
 21
14.687902
 31
0.0
  0
LINE
  5
31F
330
6B
100
AcDbEntity
  8
0
 62
     7
100
AcDbLine
 10
21.996627
 20
14.687902
 30
0.0
 11
21.996627
 21
14.536787
 31
0.0
  0
LINE
  5
320
330
6B
100
AcDbEntity
  8
0
 62
     7
100
AcDbLine
 10
23.527963
 20
11.872051
 30
0.0
 11
23.527963
 21
11.720936
 31
0.0
  0
LINE
  5
321
330
6B
100
AcDbEntity
  8
0
 62
     7
100
AcDbLine
 10
24.94532
 20
11.720936
 30
0.0
 11
23.527963
 21
11.720936
 31
0.0
  0
LINE
  5
322
330
6B
100
AcDbEntity
  8
0
 62
     7
100
AcDbLine
 10
24.594937
 20
14.210924
 30
0.0
 11
24.594937
 21
12.197914
 31
0.0
  0
LINE
  5
323
330
6B
100
AcDbEntity
  8
0
 62
     7
100
AcDbLine
 10
24.594937
 20
12.197914
 30
0.0
 11
24.730686
 21
12.197914
 31
0.0
  0
ARC
  5
324
330
6B
100
AcDbEntity
  8
0
 62
     7
100
AcDbCircle
 10
24.036554
 20
13.204419
 30
0.0
 40
1.22265
100
AcDbArc
 50
304.591955
 51
55.408045
  0
LINE
  5
325
330
6B
100
AcDbEntity
  8
0
 62
     7
100
AcDbLine
 10
24.94532
 20
14.687902
 30
0.0
 11
23.527963
 21
14.687902
 31
0.0
  0
LINE
  5
326
330
6B
100
AcDbEntity
  8
0
 62
     7
100
AcDbLine
 10
23.527963
 20
14.687902
 30
0.0
 11
23.527963
 21
14.536787
 31
0.0
  0
LINE
  5
327
330
6B
100
AcDbEntity
  8
0
 62
     7
100
AcDbLine
 10
21.996627
 20
11.872051
 30
0.0
 11
21.996627
 21
11.720936
 31
0.0
  0
LINE
  5
328
330
6B
100
AcDbEntity
  8
0
 62
     7
100
AcDbLine
 10
24.594937
 20
14.210924
 30
0.0
 11
24.730686
 21
14.210924
 31
0.0
  0
LINE
  5
329
330
6B
100
AcDbEntity
  8
0
 62
     7
100
AcDbLine
 10
16.278395
 20
11.872051
 30
0.0
 11
16.278392
 21
11.720922
 31
0.0
  0
LINE
  5
32A
330
6B
100
AcDbEntity
  8
0
 62
     7
100
AcDbLine
 10
14.900169
 20
11.72095
 30
0.0
 11
16.278392
 21
11.720926
 31
0.0
  0
LINE
  5
32B
330
6B
100
AcDbEntity
  8
0
 62
     7
100
AcDbLine
 10
11.831325
 20
11.720936
 30
0.0
 11
12.9308
 21
11.720936
 31
0.0
  0
ARC
  5
32C
330
6B
100
AcDbEntity
  8
0
 62
     7
100
AcDbCircle
 10
8.272794000000001
 20
13.239353
 30
0.0
 40
10.50969
100
AcDbArc
 50
353.866006
 51
357.694034
  0
LINE
  5
32D
330
6B
100
AcDbEntity
  8
0
 62
     7
100
AcDbLine
 10
18.070352
 20
12.81909
 30
0.0
 11
18.773974
 21
12.816487
 31
0.0
  0
LINE
  5
370
330
6B
100
AcDbEntity
  8
0
 62
     7
100
AcDbLine
 10
18.073193
 20
13.587101
 30
0.0
 11
18.776815
 21
13.584497
 31
0.0
  0
ARC
  5
371
330
6B
100
AcDbEntity
  8
0
 62
     7
100
AcDbCircle
 10
8.272794000000001
 20
13.239353
 30
0.0
 40
10.50969
100
AcDbArc
 50
1.881965999999999
 51
5.709994
  0
LINE
  5
372
330
6B
100
AcDbEntity
  8
0
 62
     7
100
AcDbLine
 10
16.278444
 20
14.687888
 30
0.0
 11
16.278441
 21
14.536787
 31
0.0
  0
LINE
  5
373
330
6B
100
AcDbEntity
  8
0
 62
     7
100
AcDbLine
 10
14.900221
 20
14.687917
 30
0.0
 11
16.278444
 21
14.687893
 31
0.0
  0
LINE
  5
374
330
6B
100
AcDbEntity
  8
0
 62
     7
100
AcDbLine
 10
14.900172
 20
11.872051
 30
0.0
 11
14.900169
 21
11.72095
 31
0.0
  0
LINE
  5
375
330
6B
100
AcDbEntity
  8
0
 62
     7
100
AcDbLine
 10
14.900221
 20
14.687917
 30
0.0
 11
14.900218
 21
14.536787
 31
0.0
  0
LINE
  5
376
330
6B
100
AcDbEntity
  8
0
 62
     7
100
AcDbLine
 10
12.9308
 20
11.872051
 30
0.0
 11
12.9308
 21
11.720936
 31
0.0
  0
LINE
  5
377
330
6B
100
AcDbEntity
  8
0
 62
     7
100
AcDbLine
 10
12.619552
 20
13.460856
 30
0.0
 11
13.707002
 21
11.720936
 31
0.0
  0
LINE
  5
378
330
6B
100
AcDbEntity
  8
0
 62
     7
100
AcDbLine
 10
13.707002
 20
11.720936
 30
0.0
 11
14.435168
 21
11.720936
 31
0.0
  0
LINE
  5
379
330
6B
100
AcDbEntity
  8
0
 62
     7
100
AcDbLine
 10
14.746416
 20
14.687902
 30
0.0
 11
14.746416
 21
14.536787
 31
0.0
  0
LINE
  5
37A
330
6B
100
AcDbEntity
  8
0
 62
     7
100
AcDbLine
 10
13.646941
 20
14.687902
 30
0.0
 11
14.746416
 21
14.687902
 31
0.0
  0
LINE
  5
37B
330
6B
100
AcDbEntity
  8
0
 62
     7
100
AcDbLine
 10
13.646941
 20
14.687902
 30
0.0
 11
13.646941
 21
14.536787
 31
0.0
  0
LINE
  5
37C
330
6B
100
AcDbEntity
  8
0
 62
     7
100
AcDbLine
 10
13.95819
 20
13.344069
 30
0.0
 11
13.076299
 21
14.687902
 31
0.0
  0
LINE
  5
37D
330
6B
100
AcDbEntity
  8
0
 62
     7
100
AcDbLine
 10
11.831325
 20
14.687902
 30
0.0
 11
13.076299
 21
14.687902
 31
0.0
  0
LINE
  5
37E
330
6B
100
AcDbEntity
  8
0
 62
     7
100
AcDbLine
 10
18.914335
 20
14.687832
 30
0.0
 11
20.308808
 21
14.687832
 31
0.0
  0
LINE
  5
37F
330
6B
100
AcDbEntity
  8
0
 62
     7
100
AcDbLine
 10
18.914335
 20
14.536787
 30
0.0
 11
18.914335
 21
14.687832
 31
0.0
  0
LINE
  5
380
330
6B
100
AcDbEntity
  8
0
 62
     7
100
AcDbLine
 10
18.914335
 20
11.720866
 30
0.0
 11
18.914335
 21
11.872051
 31
0.0
  0
LINE
  5
381
330
6B
100
AcDbEntity
  8
0
 62
     7
100
AcDbLine
 10
18.914335
 20
11.720866
 30
0.0
 11
20.308808
 21
11.720866
 31
0.0
  0
LINE
  5
382
330
6B
100
AcDbEntity
  8
0
 62
     7
100
AcDbLine
 10
20.454327
 20
11.872051
 30
0.0
 11
20.454327
 21
11.720866
 31
0.0
  0
LINE
  5
383
330
6B
100
AcDbEntity
  8
0
 62
     7
100
AcDbLine
 10
20.308808
 20
11.872051
 30
0.0
 11
20.308808
 21
11.720866
 31
0.0
  0
LINE
  5
384
330
6B
100
AcDbEntity
  8
0
 62
     7
100
AcDbLine
 10
20.308808
 20
14.536787
 30
0.0
 11
20.308808
 21
14.687832
 31
0.0
  0
LINE
  5
385
330
6B
100
AcDbEntity
  8
0
 62
     7
100
AcDbLine
 10
20.454327
 20
14.536787
 30
0.0
 11
20.454327
 21
14.687832
 31
0.0
  0
LINE
  5
386
330
6B
100
AcDbEntity
  8
0
 62
     7
100
AcDbLine
 10
11.831325
 20
11.872051
 30
0.0
 11
11.831325
 21
11.720936
 31
0.0
  0
LINE
  5
387
330
6B
100
AcDbEntity
  8
0
 62
     7
100
AcDbLine
 10
11.831325
 20
14.687902
 30
0.0
 11
11.831325
 21
14.536787
 31
0.0
  0
ARC
  5
388
330
6B
100
AcDbEntity
  8
0
 62
     7
100
AcDbCircle
 10
25.09532
 20
13.515668
 30
0.0
 40
1.172235
100
AcDbArc
 50
17.308749
 51
23.765071
  0
ARC
  5
389
330
6B
100
AcDbEntity
  8
0
 62
     7
100
AcDbCircle
 10
24.096554
 20
13.204419
 30
0.0
 40
2.218374999999999
100
AcDbArc
 50
342.691251
 51
17.308566
  0
ARC
  5
38A
330
6B
100
AcDbEntity
  8
0
 62
     7
100
AcDbCircle
 10
25.09532
 20
12.893171
 30
0.0
 40
1.172235
100
AcDbArc
 50
336.234929
 51
342.691251
  0
ARC
  5
38B
330
6B
100
AcDbEntity
  8
0
 62
     7
100
AcDbCircle
 10
24.94532
 20
13.515668
 30
0.0
 40
1.172235
100
AcDbArc
 50
17.308749
 51
90.0
  0
ARC
  5
38C
330
6B
100
AcDbEntity
  8
0
 62
     7
100
AcDbCircle
 10
23.946554
 20
13.204419
 30
0.0
 40
2.218374999999999
100
AcDbArc
 50
342.691251
 51
17.308566
  0
ARC
  5
38D
330
6B
100
AcDbEntity
  8
0
 62
     7
100
AcDbCircle
 10
24.94532
 20
12.893171
 30
0.0
 40
1.172235
100
AcDbArc
 50
270.0
 51
342.691251
  0
ARC
  5
38E
330
6B
100
AcDbEntity
  8
0
 62
     7
100
AcDbCircle
 10
17.713934
 20
13.204419
 30
0.0
 40
1.483482999999995
100
AcDbArc
 50
46.75287999999999
 51
89.749998
  0
ARC
  5
38F
330
6B
100
AcDbEntity
  8
0
 62
     7
100
AcDbCircle
 10
17.713934
 20
13.204419
 30
0.0
 40
1.483482999999995
100
AcDbArc
 50
273.976333
 51
312.82312
  0
ARC
  5
390
330
6B
100
AcDbEntity
  8
0
 62
     7
100
AcDbCircle
 10
25.886654
 20
13.181518
 30
0.0
 40
1.968491999999999
100
AcDbArc
 50
0.6665840000000001
 51
23.903928
  0
ARC
  5
391
330
6B
100
AcDbEntity
  8
0
 62
     7
100
AcDbCircle
 10
28.683485
 20
13.181518
 30
0.0
 40
1.968491999999999
100
AcDbArc
 50
156.096072
 51
179.333416
  0
ARC
  5
392
330
6B
100
AcDbEntity
  8
0
 62
     7
100
AcDbCircle
 10
25.886654
 20
13.22732
 30
0.0
 40
1.968491999999999
100
AcDbArc
 50
336.096072
 51
359.333416
  0
ARC
  5
393
330
6B
100
AcDbEntity
  8
0
 62
     7
100
AcDbCircle
 10
28.683485
 20
13.22732
 30
0.0
 40
1.968491999999999
100
AcDbArc
 50
180.666584
 51
203.903928
  0
CIRCLE
  5
394
330
6B
100
AcDbEntity
  8
0
 62
     7
100
AcDbCircle
 10
20.398667
 20
59.822072
 30
0.0
 40
33.5
  0
CIRCLE
  5
395
330
6B
100
AcDbEntity
  8
0
 62
     7
100
AcDbCircle
 10
20.398667
 20
59.822072
 30
0.0
 40
31.50453
  0
ARC
  5
396
330
6B
100
AcDbEntity
  8
0
 62
     7
100
AcDbCircle
 10
-0.101333
 20
88.82207199999998
 30
0.0
 40
14.0
100
AcDbArc
 50
98.433869
 51
180.0
  0
ARC
  5
397
330
6B
100
AcDbEntity
  8
0
 62
     7
100
AcDbCircle
 10
-4.501365999999999
 20
118.497647
 30
0.0
 40
16.0
100
AcDbArc
 50
278.433869
 51
302.398059
  0
ARC
  5
398
330
6B
100
AcDbEntity
  8
0
 62
     7
100
AcDbCircle
 10
17.773539
 20
83.395384
 30
0.0
 40
25.573312
100
AcDbArc
 50
96.39373
 51
122.398059
  0
LINE
  5
399
330
6B
100
AcDbEntity
  8
0
 62
     7
100
AcDbLine
 10
20.398667
 20
108.822072
 30
0.0
 11
14.985881
 21
108.822072
 31
0.0
  0
LINE
  5
39A
330
6B
100
AcDbEntity
  8
0
 62
     7
100
AcDbLine
 10
20.398667
 20
108.822072
 30
0.0
 11
25.811454
 21
108.822072
 31
0.0
  0
ARC
  5
39B
330
6B
100
AcDbEntity
  8
0
 62
     7
100
AcDbCircle
 10
23.023795
 20
83.395384
 30
0.0
 40
25.573312
100
AcDbArc
 50
57.60194100000001
 51
83.60626999999999
  0
ARC
  5
39C
330
6B
100
AcDbEntity
  8
0
 62
     7
100
AcDbCircle
 10
45.298701
 20
118.497647
 30
0.0
 40
16.0
100
AcDbArc
 50
237.601941
 51
261.566131
  0
ARC
  5
39D
330
6B
100
AcDbEntity
  8
0
 62
     7
100
AcDbCircle
 10
40.89866699999999
 20
88.82207199999998
 30
0.0
 40
14.0
100
AcDbArc
 50
0.0
 51
81.56613099999999
  0
LINE
  5
39E
330
6B
100
AcDbEntity
  8
0
 62
     7
100
AcDbLine
 10
59.898667
 20
24.822072
 30
0.0
 11
59.898667
 21
85.82207199999997
 31
0.0
  0
ARC
  5
39F
330
6B
100
AcDbEntity
  8
0
 62
     7
100
AcDbCircle
 10
54.898667
 20
24.822072
 30
0.0
 40
5.0
100
AcDbArc
 50
270.0
 51
0.0
  0
LINE
  5
3A0
330
6B
100
AcDbEntity
  8
0
 62
     7
100
AcDbLine
 10
-14.101333
 20
19.822072
 30
0.0
 11
54.898667
 21
19.822072
 31
0.0
  0
ARC
  5
3A1
330
6B
100
AcDbEntity
  8
0
 62
     7
100
AcDbCircle
 10
-14.101333
 20
24.822072
 30
0.0
 40
5.0
100
AcDbArc
 50
180.0
 51
270.0
  0
LINE
  5
3A2
330
6B
100
AcDbEntity
  8
0
 62
     7
100
AcDbLine
 10
-19.101333
 20
24.822072
 30
0.0
 11
-19.101333
 21
85.82207199999997
 31
0.0
  0
LINE
  5
3A3
330
6B
100
AcDbEntity
  8
0
 62
     7
100
AcDbLine
 10
-17.101333
 20
87.822072
 30
0.0
 11
-14.101333
 21
87.822072
 31
0.0
  0
CIRCLE
  5
3A4
330
6B
100
AcDbEntity
  8
0
 62
     7
100
AcDbCircle
 10
57.89866700000001
 20
85.82207199999997
 30
0.0
 40
1.75
  0
ARC
  5
3A5
330
6B
100
AcDbEntity
  8
0
 62
     7
100
AcDbCircle
 10
-17.101333
 20
85.82207199999997
 30
0.0
 40
2.0
100
AcDbArc
 50
90.0
 51
180.0
  0
LINE
  5
3A6
330
6B
100
AcDbEntity
  8
0
 62
     7
100
AcDbLine
 10
-14.101333
 20
88.82207199999998
 30
0.0
 11
-14.101333
 21
85.82207199999997
 31
0.0
  0
ARC
  5
3A7
330
6B
100
AcDbEntity
  8
0
 62
     7
100
AcDbCircle
 10
-17.101333
 20
85.82207199999997
 30
0.0
 40
3.0
100
AcDbArc
 50
275.73917
 51
0.0
  0
LINE
  5
3A8
330
6B
100
AcDbEntity
  8
0
 62
     7
100
AcDbLine
 10
-16.801333
 20
82.83711
 30
0.0
 11
-19.101333
 21
82.83711
 31
0.0
  0
LINE
  5
3A9
330
6B
100
AcDbEntity
  8
0
 62
     7
100
AcDbLine
 10
57.89866700000001
 20
87.822072
 30
0.0
 11
54.898667
 21
87.822072
 31
0.0
  0
ARC
  5
3AA
330
6B
100
AcDbEntity
  8
0
 62
     7
100
AcDbCircle
 10
57.89866700000001
 20
85.82207199999997
 30
0.0
 40
2.0
100
AcDbArc
 50
0.0
 51
90.0
  0
CIRCLE
  5
3AB
330
6B
100
AcDbEntity
  8
0
 62
     7
100
AcDbCircle
 10
-2.101333
 20
16.822072
 30
0.0
 40
1.75
  0
LINE
  5
3AC
330
6B
100
AcDbEntity
  8
0
 62
     3
100
AcDbLine
 10
-5.601333
 20
18.822072
 30
0.0
 11
-5.601333
 21
16.822072
 31
0.0
  0
ARC
  5
3AD
330
6B
100
AcDbEntity
  8
0
 62
     3
100
AcDbCircle
 10
-2.101333
 20
16.822072
 30
0.0
 40
3.5
100
AcDbArc
 50
180.0
 51
0.0
  0
LINE
  5
3AE
330
6B
100
AcDbEntity
  8
0
 62
     3
100
AcDbLine
 10
1.398667
 20
18.822072
 30
0.0
 11
1.398667
 21
16.822072
 31
0.0
  0
ARC
  5
3AF
330
6B
100
AcDbEntity
  8
0
 62
     3
100
AcDbCircle
 10
42.898667
 20
16.822072
 30
0.0
 40
3.5
100
AcDbArc
 50
180.0
 51
0.0
  0
CIRCLE
  5
3B0
330
6B
100
AcDbEntity
  8
0
 62
     7
100
AcDbCircle
 10
42.898667
 20
16.822072
 30
0.0
 40
1.75
  0
LINE
  5
3B1
330
6B
100
AcDbEntity
  8
0
 62
     3
100
AcDbLine
 10
17.481227
 20
-25.988576
 30
0.0
 11
17.481227
 21
-25.177928
 31
0.0
  0
LINE
  5
3B2
330
6B
100
AcDbEntity
  8
0
 62
     3
100
AcDbLine
 10
21.751912
 20
-25.717891
 30
0.0
 11
21.751912
 21
-25.177928
 31
0.0
  0
LINE
  5
3B3
330
6B
100
AcDbEntity
  8
0
 62
     3
100
AcDbLine
 10
24.751912
 20
-28.717891
 30
0.0
 11
33.69347600000001
 21
-28.717891
 31
0.0
  0
LINE
  5
3B4
330
6B
100
AcDbEntity
  8
0
 62
     3
100
AcDbLine
 10
24.481227
 20
-32.988576
 30
0.0
 11
35.02492800000001
 21
-32.988576
 31
0.0
  0
ARC
  5
3B5
330
6B
100
AcDbEntity
  8
0
 62
     3
100
AcDbCircle
 10
24.751912
 20
-25.717891
 30
0.0
 40
3.0
100
AcDbArc
 50
180.0
 51
270.0
  0
ARC
  5
3B6
330
6B
100
AcDbEntity
  8
0
 62
     3
100
AcDbCircle
 10
24.481227
 20
-25.988576
 30
0.0
 40
7.0
100
AcDbArc
 50
180.0
 51
270.0
  0
LINE
  5
3C0
330
6B
100
AcDbEntity
  8
0
 62
     3
100
AcDbLine
 10
109.2553967582438
 20
101.990108
 30
0.0
 11
180.0637809542684
 21
101.990108
 31
0.0
  0
TEXT
  5
3C1
330
6B
100
AcDbEntity
  8
0
 62
     3
100
AcDbText
 10
126.507462
 20
104.538423
 30
0.0
 40
4.5
  1
主　　　仕　　　様
 41
0.833333
100
AcDbText
  0
LINE
  5
3C2
330
6B
100
AcDbEntity
  8
0
 62
     7
100
AcDbLine
 10
126.4274292102468
 20
103.8478486040369
 30
0.0
 11
166.4274292102468
 21
103.8478486040369
 31
0.0
  0
TEXT
  5
3C3
330
6B
100
AcDbEntity
  8
0
 62
     3
100
AcDbText
 10
110.3683727582438
 20
97.03499200000001
 30
0.0
 40
3.2
  1
電源電圧
  7
高3.2
100
AcDbText
  0
TEXT
  5
3C4
330
6B
100
AcDbEntity
  8
0
 62
     3
100
AcDbText
 10
110.3683727582438
 20
91.03499199999999
 30
0.0
 40
3.2
  1
定　　格
  7
高3.2
100
AcDbText
  0
TEXT
  5
3C5
330
6B
100
AcDbEntity
  8
0
 62
     3
100
AcDbText
 10
110.3683727582438
 20
85.03499200000002
 30
0.0
 40
3.2
  1
消費電力
  7
高3.2
100
AcDbText
  0
TEXT
  5
3C6
330
6B
100
AcDbEntity
  8
0
 62
     3
100
AcDbText
 10
110.3683727582438
 20
79.034992
 30
0.0
 40
3.2
  1
使用バルブ
  7
高3.2
100
AcDbText
  0
TEXT
  5
3C7
330
6B
100
AcDbEntity
  8
0
 62
     3
100
AcDbText
 10
110.3683727582438
 20
73.034992
 30
0.0
 40
3.2
  1
バルブ寿命
  7
高3.2
100
AcDbText
  0
TEXT
  5
3C8
330
6B
100
AcDbEntity
  8
0
 62
     3
100
AcDbText
 10
110.3683727582438
 20
67.034992
 30
0.0
 40
3.2
  1
最大照度
  7
高3.2
100
AcDbText
  0
TEXT
  5
3C9
330
6B
100
AcDbEntity
  8
0
 62
     3
100
AcDbText
 10
110.3683727582438
 20
49.03499199999998
 30
0.0
 40
3.2
  1
色　温　度
  7
高3.2
100
AcDbText
  0
TEXT
  5
3CA
330
6B
100
AcDbEntity
  8
0
 62
     3
100
AcDbText
 10
110.3683727582438
 20
43.034992
 30
0.0
 40
3.2
  1
防水規格
  7
高3.2
100
AcDbText
  0
TEXT
  5
3CB
330
6B
100
AcDbEntity
  8
0
 62
     3
100
AcDbText
 10
110.3683727582438
 20
37.03499199999999
 30
0.0
 40
3.2
  1
灯具質量
  7
高3.2
100
AcDbText
  0
LINE
  5
3CC
330
6B
100
AcDbEntity
  8
0
 62
     7
100
AcDbLine
 10
109.2553967582438
 20
95.99010799999996
 30
0.0
 11
180.0637809542684
 21
95.990108
 31
0.0
  0
LINE
  5
3CD
330
6B
100
AcDbEntity
  8
0
 62
     7
100
AcDbLine
 10
109.2553967582438
 20
89.99010799999997
 30
0.0
 11
180.0637809542684
 21
89.99010800000002
 31
0.0
  0
LINE
  5
3CE
330
6B
100
AcDbEntity
  8
0
 62
     7
100
AcDbLine
 10
109.2553967582438
 20
83.99010799999997
 30
0.0
 11
180.0637809542684
 21
83.99010799999997
 31
0.0
  0
LINE
  5
3CF
330
6B
100
AcDbEntity
  8
0
 62
     7
100
AcDbLine
 10
109.2553967582438
 20
77.99010799999997
 30
0.0
 11
180.0637809542684
 21
77.99010799999997
 31
0.0
  0
LINE
  5
3D0
330
6B
100
AcDbEntity
  8
0
 62
     7
100
AcDbLine
 10
109.2553967582438
 20
71.99010799999998
 30
0.0
 11
180.0637809542684
 21
71.99010799999998
 31
0.0
  0
LINE
  5
3D1
330
6B
100
AcDbEntity
  8
0
 62
     7
100
AcDbLine
 10
109.2553967582438
 20
65.99010799999998
 30
0.0
 11
180.0637809542684
 21
65.99010799999999
 31
0.0
  0
LINE
  5
3D2
330
6B
100
AcDbEntity
  8
0
 62
     7
100
AcDbLine
 10
109.2553967582438
 20
47.990108
 30
0.0
 11
180.0637809542684
 21
47.99010799999999
 31
0.0
  0
LINE
  5
3D3
330
6B
100
AcDbEntity
  8
0
 62
     7
100
AcDbLine
 10
109.2553967582438
 20
41.99010799999999
 30
0.0
 11
180.0637809542684
 21
41.99010799999999
 31
0.0
  0
TEXT
  5
3D4
330
6B
100
AcDbEntity
  8
0
 62
     3
100
AcDbText
 10
135.4668567582438
 20
97.03499200000001
 30
0.0
 40
3.2
  1
DC24V（専用）
  7
高3.2
100
AcDbText
  0
TEXT
  5
3D5
330
6B
100
AcDbEntity
  8
0
 62
     3
100
AcDbText
 10
135.4668567582438
 20
85.03499200000002
 30
0.0
 40
3.2
  1
54W
  7
高3.2
100
AcDbText
  0
TEXT
  5
3D6
330
6B
100
AcDbEntity
  8
0
 62
     3
100
AcDbText
 10
135.4668567582438
 20
79.034992
 30
0.0
 40
3.2
  1
HIDキセノン球
  7
高3.2
100
AcDbText
  0
TEXT
  5
3D7
330
6B
100
AcDbEntity
  8
0
 62
     3
100
AcDbText
 10
135.4668567582438
 20
73.034992
 30
0.0
 40
3.2
  1
3000時間
  7
高3.2
100
AcDbText
  0
TEXT
  5
3D8
330
6B
100
AcDbEntity
  8
0
 62
     3
100
AcDbText
 10
135.4668567582438
 20
67.034992
 30
0.0
 40
3.2
  1
12,100Lx（5m位置）
  7
高3.2
100
AcDbText
  0
TEXT
  5
3D9
330
6B
100
AcDbEntity
  8
0
 62
     3
100
AcDbText
 10
135.4668567582438
 20
49.03499199999998
 30
0.0
 40
3.2
  1
4300K
  7
高3.2
100
AcDbText
  0
TEXT
  5
3DA
330
6B
100
AcDbEntity
  8
0
 62
     3
100
AcDbText
 10
135.4668567582438
 20
43.034992
 30
0.0
 40
3.2
  1
IP66
  7
高3.2
100
AcDbText
  0
LINE
  5
3DB
330
6B
100
AcDbEntity
  8
0
 62
     3
100
AcDbLine
 10
109.2553967582438
 20
35.99010799999999
 30
0.0
 11
180.0637809542684
 21
35.990108
 31
0.0
  0
LINE
  5
3DC
330
6B
100
AcDbEntity
  8
0
 62
     7
100
AcDbLine
 10
134.3538807582437
 20
59.990108
 30
0.0
 11
180.0637809542684
 21
59.990108
 31
0.0
  0
LINE
  5
3DD
330
6B
100
AcDbEntity
  8
0
 62
     7
100
AcDbLine
 10
109.2553967582438
 20
53.990108
 30
0.0
 11
180.0637809542684
 21
53.990108
 31
0.0
  0
LINE
  5
3DE
330
6B
100
AcDbEntity
  8
0
 62
     3
100
AcDbLine
 10
180.0637809542684
 20
101.990108
 30
0.0
 11
180.0637809542684
 21
35.99010799999999
 31
0.0
  0
LINE
  5
3DF
330
6B
100
AcDbEntity
  8
0
 62
     3
100
AcDbLine
 10
134.3538807582436
 20
35.99010799999999
 30
0.0
 11
134.3538807582437
 21
101.990108
 31
0.0
  0
LINE
  5
3E0
330
6B
100
AcDbEntity
  8
0
 62
     3
100
AcDbLine
 10
109.2553967582438
 20
101.990108
 30
0.0
 11
109.2553967582438
 21
35.99010799999999
 31
0.0
  0
TEXT
  5
3E1
330
6B
100
AcDbEntity
  8
0
 62
     3
100
AcDbText
 10
110.2495877582438
 20
58.135567
 30
0.0
 40
3.2
  1
首振り範囲
  7
高3.2
100
AcDbText
  0
TEXT
  5
3E2
330
6B
100
AcDbEntity
  8
0
 62
     3
100
AcDbText
 10
135.4668567582438
 20
61.034992
 30
0.0
 40
3.2
  1
左右：\U+00B1220度
  7
高3.2
100
AcDbText
  0
TEXT
  5
3E3
330
6B
100
AcDbEntity
  8
0
 62
     3
100
AcDbText
 10
135.4668567582438
 20
55.03499199999999
 30
0.0
 40
3.2
  1
上下：\U+00B160度
  7
高3.2
100
AcDbText
  0
TEXT
  5
3E8
330
6B
100
AcDbEntity
  8
0
 62
     3
100
AcDbText
 10
135.4668567582438
 20
91.03499199999999
 30
0.0
 40
3.2
  1
DC24V/2.1A
  7
高3.2
100
AcDbText
  0
TEXT
  5
3E9
330
6B
100
AcDbEntity
  8
0
 62
     3
100
AcDbText
 10
104.3899658694454
 20
-111.0055962145523
 30
0.0
 40
4.5
  1
HIDL-35R-24V
 41
0.8
  7
高4.5
100
AcDbText
  0
TEXT
  5
3EA
330
6B
100
AcDbEntity
  8
0
 62
     3
100
AcDbText
 10
150.9914514400506
 20
-134.6359232883176
 30
0.0
 40
6.299999999999998
  1
HIDL-35R-24V
 41
0.6
  7
高6.3
100
AcDbText
  0
LINE
  5
3F0
330
6B
100
AcDbEntity
  8
0
 62
     7
100
AcDbLine
 10
28.405806
 20
-32.988576
 30
0.0
 11
46.066695
 21
-58.26387099999998
 31
0.0
  0
LINE
  5
3F1
330
6B
100
AcDbEntity
  8
0
 62
     7
100
AcDbLine
 10
46.066695
 20
-58.26387099999998
 30
0.0
 11
62.566695
 21
-58.26387099999998
 31
0.0
  0
TEXT
  5
3F2
330
6B
100
AcDbEntity
  8
0
 62
     4
100
AcDbText
 10
48.816695
 20
-57.263871
 30
0.0
 40
3.2
  1
入力電線
 41
0.716146
100
AcDbText
  0
TEXT
  5
3F3
330
6B
100
AcDbEntity
  8
0
 62
     3
100
AcDbText
 10
134.897613
 20
-124.7035389552467
 30
0.0
 40
3.2
  1
1/2
  7
高3.2
100
AcDbText
  0
LINE
  5
3F4
330
6B
100
AcDbEntity
  8
0
  6
CENTER
 62
     7
100
AcDbLine
 10
-124.771482
 20
15.062454
 30
0.0
 11
-124.771482
 21
-28.576334
 31
0.0
  0
TEXT
  5
3F5
330
6B
100
AcDbEntity
  8
0
 62
     3
100
AcDbText
 10
135.4668567582438
 20
37.03499199999999
 30
0.0
 40
3.2
  1
2.3kg
  7
高3.2
100
AcDbText
  0
TEXT
  5
3F6
330
6B
100
AcDbEntity
  8
0
 62
     3
100
AcDbText
 10
150.809053
 20
-95.39788900000001
 30
0.0
 40
4.5
  1
コード　
  7
高4.5
100
AcDbText
  0
TEXT
  5
3F7
330
6B
100
AcDbEntity
  8
0
 62
     3
100
AcDbText
 10
177.198486
 20
-95.38773500000001
 30
0.0
 40
4.5
  1
12006
  7
高4.5
100
AcDbText
  0
LINE
  5
3F8
330
6B
100
AcDbEntity
  8
0
 62
     3
100
AcDbLine
 10
148.300637
 20
-95.83427699999999
 30
0.0
 11
148.300637
 21
-89.650902
 31
0.0
  0
LINE
  5
3F9
330
6B
100
AcDbEntity
  8
0
 62
     3
100
AcDbLine
 10
148.300637
 20
-89.650902
 30
0.0
 11
200.0
 21
-89.650902
 31
0.0
  0
LINE
  5
3FA
330
6B
100
AcDbEntity
  8
0
 62
     3
100
AcDbLine
 10
174.300637
 20
-95.83427699999999
 30
0.0
 11
174.300637
 21
-89.650902
 31
0.0
  0
ARC
  5
3FB
330
6B
100
AcDbEntity
  8
0
 62
     3
100
AcDbCircle
 10
208.17194418705
 20
-28.920535
 30
0.0
 40
127.5625
100
AcDbArc
 50
180.0
 51
188.36866
  0
ARC
  5
3FC
330
6B
100
AcDbEntity
  8
0
 62
     3
100
AcDbCircle
 10
92.35907218704999
 20
-32.419295
 30
0.0
 40
19.002889
100
AcDbArc
 50
240.344909
 51
301.804483
  0
ARC
  5
3FD
330
6B
100
AcDbEntity
  8
0
 62
     3
100
AcDbCircle
 10
-22.95305581294999
 20
-28.920535
 30
0.0
 40
127.5625
100
AcDbArc
 50
351.78163
 51
0.0
  0
ARC
  5
3FF
330
6B
100
AcDbEntity
  8
0
 62
     3
100
AcDbCircle
 10
83.94642218705
 20
-47.195139
 30
0.0
 40
2.0
100
AcDbArc
 50
188.36866
 51
240.344909
  0
ARC
  5
400
330
6B
100
AcDbEntity
  8
0
 62
     3
100
AcDbCircle
 10
101.31997318705
 20
-46.869225
 30
0.0
 40
2.0
100
AcDbArc
 50
301.804483
 51
351.78163
  0
ARC
  5
401
330
6B
100
AcDbEntity
  8
0
 62
     3
100
AcDbCircle
 10
208.17194418705
 20
-28.920535
 30
0.0
 40
127.5625
100
AcDbArc
 50
171.63134
 51
180.0
  0
ARC
  5
402
330
6B
100
AcDbEntity
  8
0
 62
     3
100
AcDbCircle
 10
92.35907218704999
 20
-25.421774
 30
0.0
 40
19.002889
100
AcDbArc
 50
58.19551700000001
 51
119.655091
  0
ARC
  5
403
330
6B
100
AcDbEntity
  8
0
 62
     3
100
AcDbCircle
 10
83.94642218705
 20
-10.645931
 30
0.0
 40
2.0
100
AcDbArc
 50
119.655091
 51
171.63134
  0
ARC
  5
404
330
6B
100
AcDbEntity
  8
0
 62
     3
100
AcDbCircle
 10
-22.95305581294999
 20
-28.920535
 30
0.0
 40
127.5625
100
AcDbArc
 50
0.0
 51
8.21837
  0
ARC
  5
406
330
6B
100
AcDbEntity
  8
0
 62
     3
100
AcDbCircle
 10
101.31997318705
 20
-10.971844
 30
0.0
 40
2.0
100
AcDbArc
 50
8.21837
 51
58.19551700000001
  0
CIRCLE
  5
407
330
6B
100
AcDbEntity
  8
0
 62
     3
100
AcDbCircle
 10
88.85944418704998
 20
-28.920535
 30
0.0
 40
2.25
  0
CIRCLE
  5
408
330
6B
100
AcDbEntity
  8
0
 62
     3
100
AcDbCircle
 10
96.35944418705001
 20
-28.920535
 30
0.0
 40
2.25
  0
ARC
  5
409
330
6B
100
AcDbEntity
  8
0
 62
     3
100
AcDbCircle
 10
92.60944418704999
 20
-39.420535
 30
0.0
 40
7.0
100
AcDbArc
 50
251.2506589999999
 51
288.749341
  0
LINE
  5
40A
330
6B
100
AcDbEntity
  8
0
 62
     3
100
AcDbLine
 10
83.94642218705
 20
-49.45857700000001
 30
0.0
 11
83.94642218705
 21
-52.46793199999999
 31
0.0
  0
LINE
  5
40B
330
6B
100
AcDbEntity
  8
0
 62
     3
100
AcDbLine
 10
86.78901718705002
 20
-50.587517
 30
0.0
 11
86.78901718705002
 21
-52.46793199999999
 31
0.0
  0
ARC
  5
40C
330
6B
100
AcDbEntity
  8
0
 62
     3
100
AcDbCircle
 10
85.36771918705001
 20
-52.480751
 30
0.0
 40
1.421354999999999
100
AcDbArc
 50
179.483212
 51
0.5167880000000002
  0
LINE
  5
40D
330
6B
100
AcDbEntity
  8
0
 62
     3
100
AcDbLine
 10
83.94642218705
 20
-52.46793199999999
 30
0.0
 11
86.78901718705002
 21
-52.46793199999999
 31
0.0
  0
ARC
  5
40E
330
6B
100
AcDbEntity
  8
0
 62
     7
100
AcDbCircle
 10
92.35907218704999
 20
-25.421774
 30
0.0
 40
13.002889
100
AcDbArc
 50
45.619852
 51
131.054401
  0
ARC
  5
40F
330
6B
100
AcDbEntity
  8
0
 62
     7
100
AcDbCircle
 10
92.35907218704999
 20
-31.421774
 30
0.0
 40
13.002889
100
AcDbArc
 50
42.46070399999999
 51
134.189201
  0
ARC
  5
410
330
6B
100
AcDbEntity
  8
0
 62
     7
100
AcDbCircle
 10
208.17194418705
 20
-28.920535
 30
0.0
 40
125.0625
100
AcDbArc
 50
171.743956
 51
180.0
  0
ARC
  5
411
330
6B
100
AcDbEntity
  8
0
 62
     7
100
AcDbCircle
 10
-22.95305581294999
 20
-28.920535
 30
0.0
 40
125.0625
100
AcDbArc
 50
0.0
 51
8.110718999999999
  0
ARC
  5
412
330
6B
100
AcDbEntity
  8
0
 62
     7
100
AcDbCircle
 10
92.35907218704999
 20
-25.421774
 30
0.0
 40
11.502889
100
AcDbArc
 50
35.78175600000002
 51
139.677998
  0
ARC
  5
413
330
6B
100
AcDbEntity
  8
0
 62
     7
100
AcDbCircle
 10
92.35907218704999
 20
-31.421774
 30
0.0
 40
11.502889
100
AcDbArc
 50
32.55049399999999
 51
142.868487
  0
ARC
  5
414
330
6B
100
AcDbEntity
  8
0
 62
     7
100
AcDbCircle
 10
92.35907218704999
 20
-25.421774
 30
0.0
 40
16.502889
100
AcDbArc
 50
59.00084799999999
 51
118.812614
  0
ARC
  5
415
330
6B
100
AcDbEntity
  8
0
 62
     7
100
AcDbCircle
 10
92.35907218704999
 20
-32.419295
 30
0.0
 40
16.502889
100
AcDbArc
 50
241.1873859999999
 51
300.9991519999999
  0
ARC
  5
416
330
6B
100
AcDbEntity
  8
0
 62
     7
100
AcDbCircle
 10
-22.95305581294999
 20
-28.920535
 30
0.0
 40
125.0625
100
AcDbArc
 50
351.889281
 51
0.0
  0
ARC
  5
417
330
6B
100
AcDbEntity
  8
0
 62
     7
100
AcDbCircle
 10
208.17194418705
 20
-28.920535
 30
0.0
 40
125.0625
100
AcDbArc
 50
180.0
 51
188.256044
  0
LINE
  5
418
330
6B
100
AcDbEntity
  8
0
 62
     7
100
AcDbLine
 10
95.43787118704999
 20
-39.420535
 30
0.0
 11
92.60944418704999
 21
-36.592108
 31
0.0
  0
LINE
  5
419
330
6B
100
AcDbEntity
  8
0
 62
     7
100
AcDbLine
 10
92.60944418704999
 20
-42.24896199999998
 30
0.0
 11
89.78101718705001
 21
-39.420535
 31
0.0
  0
LINE
  5
41A
330
6B
100
AcDbEntity
  8
0
 62
     7
100
AcDbLine
 10
92.60944418704999
 20
-36.592108
 30
0.0
 11
89.78101718705001
 21
-39.420535
 31
0.0
  0
LINE
  5
41B
330
6B
100
AcDbEntity
  8
0
 62
     7
100
AcDbLine
 10
95.43787118704999
 20
-39.420535
 30
0.0
 11
92.60944418704999
 21
-42.24896199999998
 31
0.0
  0
LINE
  5
41C
330
6B
100
AcDbEntity
  8
0
 62
     7
100
AcDbLine
 10
88.85860318705002
 20
-41.670535
 30
0.0
 11
85.98090718705
 21
-41.670535
 31
0.0
  0
LINE
  5
41D
330
6B
100
AcDbEntity
  8
0
 62
     7
100
AcDbLine
 10
88.85860318705002
 20
-37.170535
 30
0.0
 11
85.98090718705
 21
-37.170535
 31
0.0
  0
ARC
  5
41E
330
6B
100
AcDbEntity
  8
0
 62
     7
100
AcDbCircle
 10
88.85860318705002
 20
-37.94435900000003
 30
0.0
 40
0.773824
100
AcDbArc
 50
334.824811
 51
90.0
  0
ARC
  5
41F
330
6B
100
AcDbEntity
  8
0
 62
     7
100
AcDbCircle
 10
92.60944418704999
 20
-39.420535
 30
0.0
 40
7.0
100
AcDbArc
 50
161.250659
 51
198.7493409999999
  0
LINE
  5
420
330
6B
100
AcDbEntity
  8
0
 62
     7
100
AcDbLine
 10
88.85860318705002
 20
-41.670535
 30
0.0
 11
85.98090718705
 21
-41.670535
 31
0.0
  0
ARC
  5
421
330
6B
100
AcDbEntity
  8
0
 62
     7
100
AcDbCircle
 10
88.85860318705002
 20
-40.89671099999999
 30
0.0
 40
0.773824
100
AcDbArc
 50
270.0
 51
25.17518900000001
  0
LINE
  5
422
330
6B
100
AcDbEntity
  8
0
 62
     7
100
AcDbLine
 10
89.55892218705001
 20
-40.56753599999999
 30
0.0
 11
89.00449818705002
 21
-39.387999
 31
0.0
  0
LINE
  5
423
330
6B
100
AcDbEntity
  8
0
 62
     7
100
AcDbLine
 10
89.01979118705
 20
-39.420535
 30
0.0
 11
89.55892218705001
 21
-38.27353400000001
 31
0.0
  0
LINE
  5
424
330
6B
100
AcDbEntity
  8
0
 62
     7
100
AcDbLine
 10
88.37547418705002
 20
-40.83341599999999
 30
0.0
 11
88.37547418705002
 21
-37.982733
 31
0.0
  0
LINE
  5
425
330
6B
100
AcDbEntity
  8
0
 62
     7
100
AcDbLine
 10
88.37547418705002
 20
-37.982733
 30
0.0
 11
86.47501818705
 21
-39.42815
 31
0.0
  0
LINE
  5
426
330
6B
100
AcDbEntity
  8
0
 62
     7
100
AcDbLine
 10
88.37547418705002
 20
-40.858337
 30
0.0
 11
86.47501818705
 21
-39.41292
 31
0.0
  0
LINE
  5
427
330
6B
100
AcDbEntity
  8
0
 62
     7
100
AcDbLine
 10
94.85944418705001
 20
-43.171376
 30
0.0
 11
94.85944418705001
 21
-46.04907199999998
 31
0.0
  0
LINE
  5
428
330
6B
100
AcDbEntity
  8
0
 62
     7
100
AcDbLine
 10
90.35944418705
 20
-43.171376
 30
0.0
 11
90.35944418705
 21
-46.04907199999998
 31
0.0
  0
ARC
  5
429
330
6B
100
AcDbEntity
  8
0
 62
     7
100
AcDbCircle
 10
91.13326818704999
 20
-43.171376
 30
0.0
 40
0.773824
100
AcDbArc
 50
64.82481100000001
 51
180.0
  0
LINE
  5
42A
330
6B
100
AcDbEntity
  8
0
 62
     7
100
AcDbLine
 10
94.85944418705001
 20
-43.171376
 30
0.0
 11
94.85944418705001
 21
-46.04907199999998
 31
0.0
  0
ARC
  5
42B
330
6B
100
AcDbEntity
  8
0
 62
     7
100
AcDbCircle
 10
94.08562018705
 20
-43.171376
 30
0.0
 40
0.773824
100
AcDbArc
 50
0.0
 51
115.175189
  0
LINE
  5
42C
330
6B
100
AcDbEntity
  8
0
 62
     7
100
AcDbLine
 10
93.75644518705
 20
-42.471056
 30
0.0
 11
92.57690818704999
 21
-43.02548
 31
0.0
  0
LINE
  5
42D
330
6B
100
AcDbEntity
  8
0
 62
     7
100
AcDbLine
 10
92.60944418704999
 20
-43.010188
 30
0.0
 11
91.46244318704999
 21
-42.471056
 31
0.0
  0
LINE
  5
42E
330
6B
100
AcDbEntity
  8
0
 62
     7
100
AcDbLine
 10
94.02232518705002
 20
-43.65450399999999
 30
0.0
 11
91.17164218704999
 21
-43.65450399999999
 31
0.0
  0
LINE
  5
42F
330
6B
100
AcDbEntity
  8
0
 62
     7
100
AcDbLine
 10
91.17164218704999
 20
-43.65450399999999
 30
0.0
 11
92.61705918705001
 21
-45.55495999999997
 31
0.0
  0
LINE
  5
430
330
6B
100
AcDbEntity
  8
0
 62
     7
100
AcDbLine
 10
94.04724518705
 20
-43.65450399999999
 30
0.0
 11
92.60182918705
 21
-45.55495999999997
 31
0.0
  0
LINE
  5
431
330
6B
100
AcDbEntity
  8
0
 62
     7
100
AcDbLine
 10
96.36028518705
 20
-37.170535
 30
0.0
 11
99.23798018704999
 21
-37.170535
 31
0.0
  0
LINE
  5
432
330
6B
100
AcDbEntity
  8
0
 62
     7
100
AcDbLine
 10
96.36028518705
 20
-41.670535
 30
0.0
 11
99.23798018704999
 21
-41.670535
 31
0.0
  0
ARC
  5
433
330
6B
100
AcDbEntity
  8
0
 62
     7
100
AcDbCircle
 10
96.36028518705
 20
-40.89671099999999
 30
0.0
 40
0.773824
100
AcDbArc
 50
154.824811
 51
270.0
  0
ARC
  5
434
330
6B
100
AcDbEntity
  8
0
 62
     7
100
AcDbCircle
 10
92.60944418704999
 20
-39.420535
 30
0.0
 40
7.0
100
AcDbArc
 50
341.250659
 51
18.74934099999999
  0
LINE
  5
435
330
6B
100
AcDbEntity
  8
0
 62
     7
100
AcDbLine
 10
96.36028518705
 20
-37.170535
 30
0.0
 11
99.23798018704999
 21
-37.170535
 31
0.0
  0
ARC
  5
436
330
6B
100
AcDbEntity
  8
0
 62
     7
100
AcDbCircle
 10
96.36028518705
 20
-37.94435900000003
 30
0.0
 40
0.773824
100
AcDbArc
 50
90.0
 51
205.175189
  0
LINE
  5
437
330
6B
100
AcDbEntity
  8
0
 62
     7
100
AcDbLine
 10
95.65996518705
 20
-38.27353400000001
 30
0.0
 11
96.21438918705001
 21
-39.45307000000001
 31
0.0
  0
LINE
  5
438
330
6B
100
AcDbEntity
  8
0
 62
     7
100
AcDbLine
 10
96.19909718705002
 20
-39.420535
 30
0.0
 11
95.65996518705
 21
-40.56753599999999
 31
0.0
  0
LINE
  5
439
330
6B
100
AcDbEntity
  8
0
 62
     7
100
AcDbLine
 10
96.84341318705001
 20
-38.00765300000001
 30
0.0
 11
96.84341318705001
 21
-40.858337
 31
0.0
  0
LINE
  5
43A
330
6B
100
AcDbEntity
  8
0
 62
     7
100
AcDbLine
 10
96.84341318705001
 20
-40.858337
 30
0.0
 11
98.74386918704999
 21
-39.41292
 31
0.0
  0
LINE
  5
43B
330
6B
100
AcDbEntity
  8
0
 62
     7
100
AcDbLine
 10
96.84341318705001
 20
-37.982733
 30
0.0
 11
98.74386918704999
 21
-39.42815
 31
0.0
  0
LINE
  5
43C
330
6B
100
AcDbEntity
  8
0
 62
     7
100
AcDbLine
 10
90.35944418705
 20
-35.669694
 30
0.0
 11
90.35944418705
 21
-32.791998
 31
0.0
  0
LINE
  5
43D
330
6B
100
AcDbEntity
  8
0
 62
     7
100
AcDbLine
 10
94.85944418705001
 20
-35.669694
 30
0.0
 11
94.85944418705001
 21
-32.791998
 31
0.0
  0
ARC
  5
43E
330
6B
100
AcDbEntity
  8
0
 62
     7
100
AcDbCircle
 10
94.08562018705
 20
-35.669694
 30
0.0
 40
0.773824
100
AcDbArc
 50
244.824811
 51
0.0
  0
ARC
  5
43F
330
6B
100
AcDbEntity
  8
0
 62
     7
100
AcDbCircle
 10
92.60944418704999
 20
-39.420535
 30
0.0
 40
7.0
100
AcDbArc
 50
71.25065900000001
 51
108.7493409999999
  0
LINE
  5
440
330
6B
100
AcDbEntity
  8
0
 62
     7
100
AcDbLine
 10
90.35944418705
 20
-35.669694
 30
0.0
 11
90.35944418705
 21
-32.791998
 31
0.0
  0
ARC
  5
441
330
6B
100
AcDbEntity
  8
0
 62
     7
100
AcDbCircle
 10
91.13326818704999
 20
-35.669694
 30
0.0
 40
0.773824
100
AcDbArc
 50
180.0
 51
295.175189
  0
LINE
  5
442
330
6B
100
AcDbEntity
  8
0
 62
     7
100
AcDbLine
 10
91.46244318704999
 20
-36.370013
 30
0.0
 11
92.64197918704999
 21
-35.815589
 31
0.0
  0
LINE
  5
443
330
6B
100
AcDbEntity
  8
0
 62
     7
100
AcDbLine
 10
92.60944418704999
 20
-35.83088200000001
 30
0.0
 11
93.75644518705
 21
-36.370013
 31
0.0
  0
LINE
  5
444
330
6B
100
AcDbEntity
  8
0
 62
     7
100
AcDbLine
 10
91.19656218705001
 20
-35.186565
 30
0.0
 11
94.04724518705
 21
-35.186565
 31
0.0
  0
LINE
  5
445
330
6B
100
AcDbEntity
  8
0
 62
     7
100
AcDbLine
 10
94.04724518705
 20
-35.186565
 30
0.0
 11
92.60182918705
 21
-33.28610900000001
 31
0.0
  0
LINE
  5
446
330
6B
100
AcDbEntity
  8
0
 62
     7
100
AcDbLine
 10
91.17164218704999
 20
-35.186565
 30
0.0
 11
92.61705918705001
 21
-33.28610900000001
 31
0.0
  0
LINE
  5
447
330
6B
100
AcDbEntity
  8
0
 62
     7
100
AcDbLine
 10
91.73926418704999
 20
-6.428995999999997
 30
0.0
 11
91.73926418704999
 21
-3.636594
 31
0.0
  0
LINE
  5
448
330
6B
100
AcDbEntity
  8
0
 62
     7
100
AcDbLine
 10
93.35865418704999
 20
-6.445192999999997
 30
0.0
 11
93.35865418704999
 21
-3.636594
 31
0.0
  0
LINE
  5
449
330
6B
100
AcDbEntity
  8
0
 62
     7
100
AcDbLine
 10
93.35865418704999
 20
-3.636594
 30
0.0
 11
91.73926418704999
 21
-3.636594
 31
0.0
  0
LINE
  5
44A
330
6B
100
AcDbEntity
  8
0
 62
     3
100
AcDbLine
 10
121.6412742467617
 20
-54.947601
 30
0.0
 11
135.6412742467617
 21
-54.947601
 31
0.0
  0
ARC
  5
44B
330
6B
100
AcDbEntity
  8
0
 62
     3
100
AcDbCircle
 10
128.6412742467617
 20
-1.551852
 30
0.0
 40
14.604251
100
AcDbArc
 50
11.10400900000001
 51
168.895991
  0
ARC
  5
44C
330
6B
100
AcDbEntity
  8
0
 62
     3
100
AcDbCircle
 10
55.48102624676175
 20
-15.910638
 30
0.0
 40
89.160248
100
AcDbArc
 50
334.0345409999999
 51
11.10400900000001
  0
ARC
  5
44D
330
6B
100
AcDbEntity
  8
0
 62
     3
100
AcDbCircle
 10
201.8015222467617
 20
-15.910638
 30
0.0
 40
89.160248
100
AcDbArc
 50
168.895991
 51
205.965459
  0
LINE
  5
44E
330
6B
100
AcDbEntity
  8
0
 62
     7
100
AcDbLine
 10
133.5976372467617
 20
-1.529595
 30
0.0
 11
130.9874682467617
 21
1.080573999999999
 31
0.0
  0
LINE
  5
44F
330
6B
100
AcDbEntity
  8
0
 62
     7
100
AcDbLine
 10
126.2950802467617
 20
1.080573999999999
 30
0.0
 11
123.6849112467617
 21
-1.529595
 31
0.0
  0
LINE
  5
450
330
6B
100
AcDbEntity
  8
0
 62
     7
100
AcDbLine
 10
131.1412742467617
 20
-5.205943
 30
0.0
 11
133.5976372467617
 21
-1.529595
 31
0.0
  0
LINE
  5
451
330
6B
100
AcDbEntity
  8
0
 62
     7
100
AcDbLine
 10
126.1412742467617
 20
-5.205943
 30
0.0
 11
123.6849112467617
 21
-1.529595
 31
0.0
  0
ARC
  5
452
330
6B
100
AcDbEntity
  8
0
 62
     7
100
AcDbCircle
 10
128.6412742467617
 20
-1.265619999999997
 30
0.0
 40
3.318019
100
AcDbArc
 50
44.99999999999997
 51
135.0
  0
ARC
  5
453
330
6B
100
AcDbEntity
  8
0
 62
     7
100
AcDbCircle
 10
128.6412742467617
 20
-8.947600999999997
 30
0.0
 40
4.5
100
AcDbArc
 50
56.25101099999993
 51
123.7489889999999
  0
ARC
  5
454
330
6B
100
AcDbEntity
  8
0
 62
     7
100
AcDbCircle
 10
128.6412742467617
 20
-8.947600999999997
 30
0.0
 40
4.5
100
AcDbArc
 50
146.251011
 51
213.7489890000001
  0
LINE
  5
455
330
6B
100
AcDbEntity
  8
0
 62
     7
100
AcDbLine
 10
124.8996162467617
 20
-6.447601
 30
0.0
 11
121.2232682467617
 21
-3.991237
 31
0.0
  0
LINE
  5
456
330
6B
100
AcDbEntity
  8
0
 62
     7
100
AcDbLine
 10
138.6694482467617
 20
-6.601405999999997
 30
0.0
 11
136.0592792467617
 21
-3.991237
 31
0.0
  0
LINE
  5
457
330
6B
100
AcDbEntity
  8
0
 62
     7
100
AcDbLine
 10
132.3829312467617
 20
-6.447601
 30
0.0
 11
136.0592792467617
 21
-3.991237
 31
0.0
  0
ARC
  5
458
330
6B
100
AcDbEntity
  8
0
 62
     7
100
AcDbCircle
 10
128.6412742467617
 20
-8.947600999999997
 30
0.0
 40
4.5
100
AcDbArc
 50
326.251011
 51
33.74898899999998
  0
LINE
  5
459
330
6B
100
AcDbEntity
  8
0
 62
     7
100
AcDbLine
 10
126.5925302467617
 20
-2.821679999999998
 30
0.0
 11
130.8360682467617
 21
-2.821679999999998
 31
0.0
  0
LINE
  5
45A
330
6B
100
AcDbEntity
  8
0
 62
     7
100
AcDbLine
 10
130.8360682467617
 20
-2.821679999999998
 30
0.0
 11
128.6598952467617
 21
0.007346
 31
0.0
  0
LINE
  5
45B
330
6B
100
AcDbEntity
  8
0
 62
     7
100
AcDbLine
 10
126.4464792467617
 20
-2.821679999999998
 30
0.0
 11
128.6226532467617
 21
0.007346
 31
0.0
  0
LINE
  5
45C
330
6B
100
AcDbEntity
  8
0
 62
     7
100
AcDbLine
 10
122.5153532467617
 20
-10.996344
 30
0.0
 11
122.5153532467617
 21
-6.752805999999997
 31
0.0
  0
LINE
  5
45D
330
6B
100
AcDbEntity
  8
0
 62
     7
100
AcDbLine
 10
122.5153532467617
 20
-6.752805999999997
 30
0.0
 11
119.6863282467617
 21
-8.928978999999998
 31
0.0
  0
LINE
  5
45E
330
6B
100
AcDbEntity
  8
0
 62
     7
100
AcDbLine
 10
134.7671952467617
 20
-6.752805999999997
 30
0.0
 11
137.5962202467617
 21
-8.928978999999998
 31
0.0
  0
LINE
  5
45F
330
6B
100
AcDbEntity
  8
0
 62
     7
100
AcDbLine
 10
134.7671952467617
 20
-6.898857
 30
0.0
 11
134.7671952467617
 21
-11.142395
 31
0.0
  0
LINE
  5
460
330
6B
100
AcDbEntity
  8
0
 62
     7
100
AcDbLine
 10
133.5976372467617
 20
-1.529595
 30
0.0
 11
137.8204392467617
 21
9.807157
 31
0.0
  0
LINE
  5
461
330
6B
100
AcDbEntity
  8
0
 62
     7
100
AcDbLine
 10
123.6849112467617
 20
-1.529595
 30
0.0
 11
119.4621082467617
 21
9.807157
 31
0.0
  0
LINE
  5
462
330
6B
100
AcDbEntity
  8
0
 62
     7
100
AcDbLine
 10
121.2232682467617
 20
-3.991237
 30
0.0
 11
118.6130992467617
 21
-6.601405999999997
 31
0.0
  0
ARC
  5
463
330
6B
100
AcDbEntity
  8
0
 62
     7
100
AcDbCircle
 10
136.3232542467617
 20
-8.947600999999997
 30
0.0
 40
3.318019
100
AcDbArc
 50
314.9999999999999
 51
44.99999999999997
  0
LINE
  5
464
330
6B
100
AcDbEntity
  8
0
 62
     7
100
AcDbLine
 10
118.6130992467617
 20
-11.293795
 30
0.0
 11
121.2232682467617
 21
-13.903964
 31
0.0
  0
LINE
  5
465
330
6B
100
AcDbEntity
  8
0
 62
     7
100
AcDbLine
 10
124.8996162467617
 20
-11.447601
 30
0.0
 11
121.2232682467617
 21
-13.903964
 31
0.0
  0
ARC
  5
466
330
6B
100
AcDbEntity
  8
0
 62
     7
100
AcDbCircle
 10
128.6412742467617
 20
-16.629581
 30
0.0
 40
3.318019
100
AcDbArc
 50
225.0
 51
314.9999999999999
  0
LINE
  5
467
330
6B
100
AcDbEntity
  8
0
 62
     7
100
AcDbLine
 10
130.9874682467617
 20
-18.975775
 30
0.0
 11
133.5976372467617
 21
-16.365606
 31
0.0
  0
LINE
  5
468
330
6B
100
AcDbEntity
  8
0
 62
     7
100
AcDbLine
 10
131.1412742467617
 20
-12.689258
 30
0.0
 11
133.5976372467617
 21
-16.365606
 31
0.0
  0
ARC
  5
469
330
6B
100
AcDbEntity
  8
0
 62
     7
100
AcDbCircle
 10
128.6412742467617
 20
-8.947600999999997
 30
0.0
 40
4.5
100
AcDbArc
 50
236.251011
 51
303.7489889999999
  0
LINE
  5
46A
330
6B
100
AcDbEntity
  8
0
 62
     7
100
AcDbLine
 10
126.1412742467617
 20
-12.689258
 30
0.0
 11
123.6849112467617
 21
-16.365606
 31
0.0
  0
LINE
  5
46B
330
6B
100
AcDbEntity
  8
0
 62
     7
100
AcDbLine
 10
123.6849112467617
 20
-16.365606
 30
0.0
 11
126.2950802467617
 21
-18.975775
 31
0.0
  0
LINE
  5
46C
330
6B
100
AcDbEntity
  8
0
 62
     7
100
AcDbLine
 10
132.3829312467617
 20
-11.447601
 30
0.0
 11
136.0592792467617
 21
-13.903964
 31
0.0
  0
LINE
  5
46D
330
6B
100
AcDbEntity
  8
0
 62
     7
100
AcDbLine
 10
136.0592792467617
 20
-13.903964
 30
0.0
 11
138.6694482467617
 21
-11.293795
 31
0.0
  0
LINE
  5
46E
330
6B
100
AcDbEntity
  8
0
 62
     7
100
AcDbLine
 10
130.8360682467617
 20
-15.073521
 30
0.0
 11
128.6598952467617
 21
-17.902547
 31
0.0
  0
LINE
  5
46F
330
6B
100
AcDbEntity
  8
0
 62
     7
100
AcDbLine
 10
130.6900172467617
 20
-15.073521
 30
0.0
 11
126.4464792467617
 21
-15.073521
 31
0.0
  0
LINE
  5
470
330
6B
100
AcDbEntity
  8
0
 62
     7
100
AcDbLine
 10
126.4464792467617
 20
-15.073521
 30
0.0
 11
128.6226532467617
 21
-17.902547
 31
0.0
  0
TEXT
  5
471
330
6B
100
AcDbEntity
  8
0
 62
     7
100
AcDbText
 10
121.9293312467617
 20
-30.249238
 30
0.0
 40
2.25
  1
ON/OFF
100
AcDbText
  0
LINE
  5
472
330
6B
100
AcDbEntity
  8
0
 62
     7
100
AcDbLine
 10
122.5153532467617
 20
-11.142395
 30
0.0
 11
119.6863282467617
 21
-8.966222
 31
0.0
  0
ARC
  5
473
330
6B
100
AcDbEntity
  8
0
 62
     7
100
AcDbCircle
 10
120.9592932467617
 20
-8.947600999999997
 30
0.0
 40
3.318019
100
AcDbArc
 50
135.0
 51
225.0
  0
LINE
  5
474
330
6B
100
AcDbEntity
  8
0
 62
     7
100
AcDbLine
 10
134.7671952467617
 20
-11.142395
 30
0.0
 11
137.5962202467617
 21
-8.966222
 31
0.0
  0
ARC
  5
475
330
6B
100
AcDbEntity
  8
0
 62
     3
100
AcDbCircle
 10
128.6412742467617
 20
-8.947600999999997
 30
0.0
 40
17.651414
100
AcDbArc
 50
248.442157
 51
291.557843
  0
ARC
  5
476
330
6B
100
AcDbEntity
  8
0
 62
     3
100
AcDbCircle
 10
128.6412742467617
 20
-8.947600999999997
 30
0.0
 40
23.286866
100
AcDbArc
 50
251.3527
 51
288.6472999999999
  0
LINE
  5
477
330
6B
100
AcDbEntity
  8
0
 62
     7
100
AcDbLine
 10
133.5976372467617
 20
-16.365606
 30
0.0
 11
135.1271162467617
 21
-25.364247
 31
0.0
  0
LINE
  5
478
330
6B
100
AcDbEntity
  8
0
 62
     7
100
AcDbLine
 10
136.0870542467617
 20
-31.012017
 30
0.0
 11
138.8796162467617
 21
-47.441972
 31
0.0
  0
LINE
  5
479
330
6B
100
AcDbEntity
  8
0
 62
     7
100
AcDbLine
 10
123.6849112467617
 20
-16.365606
 30
0.0
 11
122.1554322467617
 21
-25.364247
 31
0.0
  0
LINE
  5
47A
330
6B
100
AcDbEntity
  8
0
 62
     7
100
AcDbLine
 10
121.1954942467617
 20
-31.012017
 30
0.0
 11
118.4029322467617
 21
-47.441972
 31
0.0
  0
LINE
  5
47B
330
6B
100
AcDbEntity
  8
0
 62
     3
100
AcDbLine
 10
135.1271162467617
 20
-25.364247
 30
0.0
 11
136.0870542467617
 21
-31.012017
 31
0.0
  0
LINE
  5
47C
330
6B
100
AcDbEntity
  8
0
 62
     3
100
AcDbLine
 10
122.1554322467617
 20
-25.364247
 30
0.0
 11
121.1954942467617
 21
-31.012017
 31
0.0
  0
LINE
  5
47D
330
6B
100
AcDbEntity
  8
0
 62
     3
100
AcDbLine
 10
122.6544802467617
 20
-58.947601
 30
0.0
 11
134.6280682467617
 21
-58.947601
 31
0.0
  0
LINE
  5
47E
330
6B
100
AcDbEntity
  8
0
 62
     3
100
AcDbLine
 10
128.6412742467617
 20
-58.947601
 30
0.0
 11
128.6412742467617
 21
-67.293639
 31
0.0
  0
LINE
  5
47F
330
6B
100
AcDbEntity
  8
0
 62
     3
100
AcDbLine
 10
132.9119592467617
 20
-59.20899399999999
 30
0.0
 11
132.9119592467617
 21
-66.966482
 31
0.0
  0
LINE
  5
480
330
6B
100
AcDbEntity
  8
0
 62
     3
100
AcDbLine
 10
124.3705892467617
 20
-59.20899399999999
 30
0.0
 11
124.3705892467617
 21
-67.94725200000001
 31
0.0
  0
LINE
  5
481
330
6B
100
AcDbEntity
  8
0
 62
     7
100
AcDbLine
 10
121.8945752467617
 20
-55.947601
 30
0.0
 11
135.3879722467617
 21
-55.947601
 31
0.0
  0
LINE
  5
482
330
6B
100
AcDbEntity
  8
0
 62
     7
100
AcDbLine
 10
122.1478772467617
 20
-56.94760099999999
 30
0.0
 11
135.1346712467617
 21
-56.94760099999999
 31
0.0
  0
LINE
  5
483
330
6B
100
AcDbEntity
  8
0
 62
     7
100
AcDbLine
 10
122.4011782467617
 20
-57.947601
 30
0.0
 11
134.8813692467617
 21
-57.947601
 31
0.0
  0
LINE
  5
484
330
6B
100
AcDbEntity
  8
0
 62
     7
100
AcDbLine
 10
134.2937682467617
 20
-54.947601
 30
0.0
 11
133.5437682467617
 21
-58.947601
 31
0.0
  0
LINE
  5
485
330
6B
100
AcDbEntity
  8
0
 62
     7
100
AcDbLine
 10
129.5250452467617
 20
-54.947601
 30
0.0
 11
129.5250452467617
 21
-58.947601
 31
0.0
  0
LINE
  5
486
330
6B
100
AcDbEntity
  8
0
 62
     7
100
AcDbLine
 10
127.7575032467617
 20
-54.947601
 30
0.0
 11
127.7575032467617
 21
-58.947601
 31
0.0
  0
LINE
  5
487
330
6B
100
AcDbEntity
  8
0
 62
     7
100
AcDbLine
 10
122.9887802467617
 20
-54.947601
 30
0.0
 11
123.7387802467617
 21
-58.947601
 31
0.0
  0
LINE
  5
488
330
6B
100
AcDbEntity
  8
0
 62
     3
100
AcDbLine
 10
135.6412742467617
 20
-54.947601
 30
0.0
 11
134.6280682467617
 21
-58.947601
 31
0.0
  0
LINE
  5
489
330
6B
100
AcDbEntity
  8
0
 62
     3
100
AcDbLine
 10
121.6412742467617
 20
-54.947601
 30
0.0
 11
122.6544802467617
 21
-58.947601
 31
0.0
  0
CIRCLE
  5
493
330
6B
100
AcDbEntity
  8
0
 62
     7
100
AcDbCircle
 10
170.640632407057
 20
-7.535879362046897
 30
0.0
 40
2.0
  0
CIRCLE
  5
494
330
6B
100
AcDbEntity
  8
0
 62
     7
100
AcDbCircle
 10
170.640632407057
 20
-7.535879362046897
 30
0.0
 40
1.0
  0
CIRCLE
  5
495
330
6B
100
AcDbEntity
  8
0
 62
     7
100
AcDbCircle
 10
170.640632407057
 20
-47.5358793620469
 30
0.0
 40
2.0
  0
CIRCLE
  5
496
330
6B
100
AcDbEntity
  8
0
 62
     7
100
AcDbCircle
 10
170.640632407057
 20
-47.5358793620469
 30
0.0
 40
1.0
  0
ARC
  5
497
330
6B
100
AcDbEntity
  8
0
 62
     3
100
AcDbCircle
 10
170.640632407057
 20
-11.0358793620469
 30
0.0
 40
13.5
100
AcDbArc
 50
20.64420499999998
 51
159.355795
  0
ARC
  5
498
330
6B
100
AcDbEntity
  8
0
 62
     3
100
AcDbCircle
 10
129.9585194070571
 20
-26.3631123620469
 30
0.0
 40
56.973651
100
AcDbArc
 50
334.7663189999997
 51
20.64420499999998
  0
ARC
  5
499
330
6B
100
AcDbEntity
  8
0
 62
     3
100
AcDbCircle
 10
211.3227444070571
 20
-26.3631123620469
 30
0.0
 40
56.973651
100
AcDbArc
 50
159.355795
 51
205.2336810000003
  0
ARC
  5
49A
330
6B
100
AcDbEntity
  8
0
 62
     3
100
AcDbCircle
 10
170.640632407057
 20
-45.5358793620469
 30
0.0
 40
12.0
100
AcDbArc
 50
205.2336810000003
 51
334.7663189999997
  0
ARC
  5
49B
330
6B
100
AcDbEntity
  8
0
 62
     3
100
AcDbCircle
 10
129.9585194070571
 20
-26.3631123620469
 30
0.0
 40
52.973651
100
AcDbArc
 50
340.7230969999996
 51
1.002347999999982
  0
ARC
  5
49C
330
6B
100
AcDbEntity
  8
0
 62
     3
100
AcDbCircle
 10
188.5944604070571
 20
-25.33721436204691
 30
0.0
 40
5.671262999999997
100
AcDbArc
 50
110.8087659999999
 51
181.002348
  0
ARC
  5
49D
330
6B
100
AcDbEntity
  8
0
 62
     3
100
AcDbCircle
 10
185.180023407057
 20
-45.67642036204691
 30
0.0
 40
5.527788
100
AcDbArc
 50
160.7230969999996
 51
232.0590129999994
  0
ARC
  5
49E
330
6B
100
AcDbEntity
  8
0
 62
     3
100
AcDbCircle
 10
152.6868034070571
 20
-25.33721436204691
 30
0.0
 40
5.671262999999997
100
AcDbArc
 50
358.997652
 51
69.19123400000007
  0
ARC
  5
49F
330
6B
100
AcDbEntity
  8
0
 62
     3
100
AcDbCircle
 10
211.3227444070571
 20
-26.3631123620469
 30
0.0
 40
52.973651
100
AcDbArc
 50
178.997652
 51
199.2769030000004
  0
ARC
  5
4A0
330
6B
100
AcDbEntity
  8
0
 62
     3
100
AcDbCircle
 10
156.1012404070571
 20
-45.67642036204691
 30
0.0
 40
5.527788
100
AcDbArc
 50
307.9409870000006
 51
19.27690300000036
  0
TEXT
  5
4A1
330
6B
100
AcDbEntity
  8
0
 62
     3
100
AcDbText
 10
-188.5
 20
-135.0
 30
0.0
 40
3.2
  1
No
 41
0.8
  7
高3.2
100
AcDbText
  0
TEXT
  5
4A2
330
6B
100
AcDbEntity
  8
0
 62
     3
100
AcDbText
 10
-179.9673461668792
 20
-135.0
 30
0.0
 40
3.2
  1
部品名
 41
0.8
  7
高3.2
100
AcDbText
  0
TEXT
  5
4A3
330
6B
100
AcDbEntity
  8
0
 62
     3
100
AcDbText
 10
-154.6037652461271
 20
-135.0
 30
0.0
 40
3.2
  1
材質
 41
0.8
  7
高3.2
100
AcDbText
  0
TEXT
  5
4A4
330
6B
100
AcDbEntity
  8
0
 62
     3
100
AcDbText
 10
-137.0042062467661
 20
-135.0
 30
0.0
 40
3.2
  1
備考
 41
0.8
  7
高3.2
100
AcDbText
  0
TEXT
  5
4A5
330
6B
100
AcDbEntity
  8
0
 62
     3
100
AcDbText
 10
-69.31592024172532
 20
-135.0
 30
0.0
 40
3.2
  1
個数
 41
0.8
  7
高3.2
100
AcDbText
  0
TEXT
  5
4A6
330
6B
100
AcDbEntity
  8
0
 62
     3
100
AcDbText
 10
-59.68253714485824
 20
-135.0
 30
0.0
 40
3.2
  1
コード
 41
0.8
  7
高3.2
100
AcDbText
  0
LINE
  5
4A7
330
6B
100
AcDbEntity
  8
0
 62
     3
100
AcDbLine
 10
27.56423159720168
 20
-130.5
 30
0.0
 11
-190.0
 21
-130.5
 31
0.0
  0
LINE
  5
4A8
330
6B
100
AcDbEntity
  8
0
 62
     3
100
AcDbLine
 10
27.56423159720168
 20
-75.5
 30
0.0
 11
-190.0
 21
-75.5
 31
0.0
  0
LINE
  5
4A9
330
6B
100
AcDbEntity
  8
0
 62
     3
100
AcDbLine
 10
27.56423159720168
 20
-135.5
 30
0.0
 11
27.56423159720168
 21
-75.5
 31
0.0
  0
LINE
  5
4AA
330
6B
100
AcDbEntity
  8
0
  6
DASHED
 62
     7
100
AcDbLine
 10
-150.338605
 20
31.85801
 30
0.0
 11
-135.096179
 21
31.85801
 31
0.0
  0
LINE
  5
4AB
330
6B
100
AcDbEntity
  8
0
  6
DASHED
 62
     7
100
AcDbLine
 10
-135.096179
 20
71.341864
 30
0.0
 11
-135.096179
 21
31.85801
 31
0.0
  0
LINE
  5
4AC
330
6B
100
AcDbEntity
  8
0
  6
DASHED
 62
     7
100
AcDbLine
 10
-135.096179
 20
71.341864
 30
0.0
 11
-150.338605
 21
71.341864
 31
0.0
  0
LINE
  5
4AD
330
6B
100
AcDbEntity
  8
0
  6
DASHED
 62
     7
100
AcDbLine
 10
-138.198903
 20
78.83018100000002
 30
0.0
 11
-138.198903
 21
71.341864
 31
0.0
  0
LINE
  5
4AE
330
6B
100
AcDbEntity
  8
0
  6
DASHED
 62
     7
100
AcDbLine
 10
-138.198903
 20
78.83018100000002
 30
0.0
 11
-147.275651
 21
78.83018100000002
 31
0.0
  0
LINE
  5
4AF
330
6B
100
AcDbEntity
  8
0
  6
DASHED
 62
     7
100
AcDbLine
 10
-147.275651
 20
78.83018100000002
 30
0.0
 11
-147.275651
 21
71.341864
 31
0.0
  0
LINE
  5
4B0
330
6B
100
AcDbEntity
  8
0
  6
DASHED
 62
     7
100
AcDbLine
 10
-150.338605
 20
71.341864
 30
0.0
 11
-150.338605
 21
31.85801
 31
0.0
  0
TEXT
  5
4B1
330
6B
100
AcDbEntity
  8
0
 62
     3
100
AcDbText
 10
-188.5
 20
-130.0
 30
0.0
 40
3.2
  1
1
 41
0.8
  7
高3.2
100
AcDbText
  0
TEXT
  5
4B7
330
6B
100
AcDbEntity
  8
0
 62
     3
100
AcDbText
 10
-188.5
 20
-100.0
 30
0.0
 40
3.2
  1
付属
 41
0.8
  7
高3.2
100
AcDbText
  0
TEXT
  5
4B8
330
6B
100
AcDbEntity
  8
0
 62
     3
100
AcDbText
 10
-188.5
 20
-95.0
 30
0.0
 40
3.2
  1
付属
 41
0.8
  7
高3.2
100
AcDbText
  0
TEXT
  5
4B9
330
6B
100
AcDbEntity
  8
0
 62
     3
100
AcDbText
 10
-188.5
 20
-90.0
 30
0.0
 40
3.2
  1
付属
 41
0.8
  7
高3.2
100
AcDbText
  0
TEXT
  5
4BA
330
6B
100
AcDbEntity
  8
0
 62
     3
100
AcDbText
 10
-188.5
 20
-85.0
 30
0.0
 40
3.2
  1
付属
 41
0.8
  7
高3.2
100
AcDbText
  0
TEXT
  5
4BB
330
6B
100
AcDbEntity
  8
0
 62
     3
100
AcDbText
 10
-179.9673461668792
 20
-130.0
 30
0.0
 40
3.2
  1
安定器
 41
0.8
  7
高3.2
100
AcDbText
  0
TEXT
  5
4BC
330
6B
100
AcDbEntity
  8
0
 62
     3
100
AcDbText
 10
-179.9673461668792
 20
-125.0
 30
0.0
 40
3.2
  1
フロントカバー
 41
0.8
  7
高3.2
100
AcDbText
  0
TEXT
  5
4BD
330
6B
100
AcDbEntity
  8
0
 62
     3
100
AcDbText
 10
-179.9673461668792
 20
-120.0
 30
0.0
 40
3.2
  1
HIDランプ
 41
0.8
  7
高3.2
100
AcDbText
  0
TEXT
  5
4BE
330
6B
100
AcDbEntity
  8
0
 62
     3
100
AcDbText
 10
-179.9673461668792
 20
-115.0
 30
0.0
 40
3.2
  1
リモコン
 41
0.8
  7
高3.2
100
AcDbText
  0
TEXT
  5
4BF
330
6B
100
AcDbEntity
  8
0
 62
     3
100
AcDbText
 10
-179.9673461668792
 20
-110.0
 30
0.0
 40
3.2
  1
コントローラー
 41
0.8
  7
高3.2
100
AcDbText
  0
TEXT
  5
4C0
330
6B
100
AcDbEntity
  8
0
 62
     3
100
AcDbText
 10
-179.9673461668792
 20
-105.0
 30
0.0
 40
3.2
  1
ソケット
 41
0.8
  7
高3.2
100
AcDbText
  0
TEXT
  5
4C1
330
6B
100
AcDbEntity
  8
0
 62
     3
100
AcDbText
 10
-179.9673461668792
 20
-100.0
 30
0.0
 40
3.2
  1
シガープラグ
 41
0.8
  7
高3.2
100
AcDbText
  0
TEXT
  5
4C2
330
6B
100
AcDbEntity
  8
0
 62
     3
100
AcDbText
 10
-179.9673461668792
 20
-95.0
 30
0.0
 40
3.2
  1
延長ケーブル
 41
0.8
  7
高3.2
100
AcDbText
  0
TEXT
  5
4C3
330
6B
100
AcDbEntity
  8
0
 62
     3
100
AcDbText
 10
-179.9673461668792
 20
-90.0
 30
0.0
 40
3.2
  1
Yピンコード
 41
0.8
  7
高3.2
100
AcDbText
  0
TEXT
  5
4C4
330
6B
100
AcDbEntity
  8
0
 62
     3
100
AcDbText
 10
-179.9673461668792
 20
-85.0
 30
0.0
 40
3.2
  1
アルカリ乾電池
 41
0.8
  7
高3.2
100
AcDbText
  0
TEXT
  5
4C5
330
6B
100
AcDbEntity
  8
0
 62
     3
100
AcDbText
 10
-154.6037652461271
 20
-130.0
 30
0.0
 40
3.2
  1
-
 41
0.8
  7
高3.2
100
AcDbText
  0
TEXT
  5
4C6
330
6B
100
AcDbEntity
  8
0
 62
     3
100
AcDbText
 10
-154.6037652461271
 20
-125.0
 30
0.0
 40
3.2
  1
PC
 41
0.8
  7
高3.2
100
AcDbText
  0
TEXT
  5
4C7
330
6B
100
AcDbEntity
  8
0
 62
     3
100
AcDbText
 10
-154.6037652461271
 20
-120.0
 30
0.0
 40
3.2
  1
キセノン
 41
0.8
  7
高3.2
100
AcDbText
  0
TEXT
  5
4C8
330
6B
100
AcDbEntity
  8
0
 62
     3
100
AcDbText
 10
-154.6037652461271
 20
-115.0
 30
0.0
 40
3.2
  1
ABS
 41
0.8
  7
高3.2
100
AcDbText
  0
TEXT
  5
4C9
330
6B
100
AcDbEntity
  8
0
 62
     3
100
AcDbText
 10
-154.6037652461271
 20
-110.0
 30
0.0
 40
3.2
  1
ABS
 41
0.8
  7
高3.2
100
AcDbText
  0
TEXT
  5
4CA
330
6B
100
AcDbEntity
  8
0
 62
     3
100
AcDbText
 10
-154.6037652461271
 20
-105.0
 30
0.0
 40
3.2
  1
ABS
 41
0.8
  7
高3.2
100
AcDbText
  0
TEXT
  5
4CB
330
6B
100
AcDbEntity
  8
0
 62
     3
100
AcDbText
 10
-154.6037652461271
 20
-100.0
 30
0.0
 40
3.2
  1
-
 41
0.8
  7
高3.2
100
AcDbText
  0
TEXT
  5
4CC
330
6B
100
AcDbEntity
  8
0
 62
     3
100
AcDbText
 10
-154.6037652461271
 20
-95.0
 30
0.0
 40
3.2
  1
-
 41
0.8
  7
高3.2
100
AcDbText
  0
TEXT
  5
4CD
330
6B
100
AcDbEntity
  8
0
 62
     3
100
AcDbText
 10
-154.6037652461271
 20
-90.0
 30
0.0
 40
3.2
  1
-
 41
0.8
  7
高3.2
100
AcDbText
  0
TEXT
  5
4CE
330
6B
100
AcDbEntity
  8
0
 62
     3
100
AcDbText
 10
-154.6037652461271
 20
-85.0
 30
0.0
 40
3.2
  1
-
 41
0.8
  7
高3.2
100
AcDbText
  0
TEXT
  5
4CF
330
6B
100
AcDbEntity
  8
0
 62
     3
100
AcDbText
 10
-137.0042062467661
 20
-125.0
 30
0.0
 40
3.2
  1
HIDL-35R-COVER
 41
0.8
  7
高3.2
100
AcDbText
  0
TEXT
  5
4D0
330
6B
100
AcDbEntity
  8
0
 62
     3
100
AcDbText
 10
-137.0042062467661
 20
-120.0
 30
0.0
 40
3.2
  1
HIDL-35R-BULB
 41
0.8
  7
高3.2
100
AcDbText
  0
TEXT
  5
4D1
330
6B
100
AcDbEntity
  8
0
 62
     3
100
AcDbText
 10
-137.0042062467661
 20
-115.0
 30
0.0
 40
3.2
  1
HIDL-35R-RC
 41
0.8
  7
高3.2
100
AcDbText
  0
TEXT
  5
4D2
330
6B
100
AcDbEntity
  8
0
 62
     3
100
AcDbText
 10
-137.0042062467661
 20
-85.0
 30
0.0
 40
3.2
  1
HIDL-35R-RC-B
 41
0.8
  7
高3.2
100
AcDbText
  0
TEXT
  5
4D3
330
6B
100
AcDbEntity
  8
0
 62
     3
100
AcDbText
 10
-137.0042062467661
 20
-90.0
 30
0.0
 40
3.2
  1
HIDL-35R-YPIN 0.3m 2Pカプラ
 41
0.8
  7
高3.2
100
AcDbText
  0
TEXT
  5
4D4
330
6B
100
AcDbEntity
  8
0
 62
     3
100
AcDbText
 10
-137.0042062467661
 20
-95.0
 30
0.0
 40
3.2
  1
HIDL-35R-EXT 4m 6Pカプラ
 41
0.8
  7
高3.2
100
AcDbText
  0
TEXT
  5
4D5
330
6B
100
AcDbEntity
  8
0
 62
     3
100
AcDbText
 10
-137.0042062467661
 20
-100.0
 30
0.0
 40
3.2
  1
HIDL-35R CP 0.3m 2Pカプラ
 41
0.8
  7
高3.2
100
AcDbText
  0
TEXT
  5
4D6
330
6B
100
AcDbEntity
  8
0
 62
     3
100
AcDbText
 10
-69.31592024172532
 20
-130.0
 30
0.0
 40
3.2
  1
1
 41
0.8
  7
高3.2
100
AcDbText
  0
TEXT
  5
4D7
330
6B
100
AcDbEntity
  8
0
 62
     3
100
AcDbText
 10
-69.31592024172532
 20
-125.0
 30
0.0
 40
3.2
  1
1
 41
0.8
  7
高3.2
100
AcDbText
  0
TEXT
  5
4D8
330
6B
100
AcDbEntity
  8
0
 62
     3
100
AcDbText
 10
-69.31592024172532
 20
-120.0
 30
0.0
 40
3.2
  1
1
 41
0.8
  7
高3.2
100
AcDbText
  0
TEXT
  5
4D9
330
6B
100
AcDbEntity
  8
0
 62
     3
100
AcDbText
 10
-69.31592024172532
 20
-115.0
 30
0.0
 40
3.2
  1
1
 41
0.8
  7
高3.2
100
AcDbText
  0
TEXT
  5
4DA
330
6B
100
AcDbEntity
  8
0
 62
     3
100
AcDbText
 10
-69.31592024172532
 20
-110.0
 30
0.0
 40
3.2
  1
1
 41
0.8
  7
高3.2
100
AcDbText
  0
TEXT
  5
4DB
330
6B
100
AcDbEntity
  8
0
 62
     3
100
AcDbText
 10
-69.31592024172532
 20
-105.0
 30
0.0
 40
3.2
  1
1
 41
0.8
  7
高3.2
100
AcDbText
  0
TEXT
  5
4DC
330
6B
100
AcDbEntity
  8
0
 62
     3
100
AcDbText
 10
-69.31592024172532
 20
-100.0
 30
0.0
 40
3.2
  1
1
 41
0.8
  7
高3.2
100
AcDbText
  0
TEXT
  5
4DD
330
6B
100
AcDbEntity
  8
0
 62
     3
100
AcDbText
 10
-69.31592024172532
 20
-95.0
 30
0.0
 40
3.2
  1
1
 41
0.8
  7
高3.2
100
AcDbText
  0
TEXT
  5
4DE
330
6B
100
AcDbEntity
  8
0
 62
     3
100
AcDbText
 10
-69.31592024172532
 20
-90.0
 30
0.0
 40
3.2
  1
1
 41
0.8
  7
高3.2
100
AcDbText
  0
TEXT
  5
4DF
330
6B
100
AcDbEntity
  8
0
 62
     3
100
AcDbText
 10
-69.31592024172532
 20
-85.0
 30
0.0
 40
3.2
  1
2
 41
0.8
  7
高3.2
100
AcDbText
  0
TEXT
  5
4E0
330
6B
100
AcDbEntity
  8
0
 62
     3
100
AcDbText
 10
-59.68253714485824
 20
-125.0
 30
0.0
 40
3.2
  1
53936
 41
0.8
  7
高3.2
100
AcDbText
  0
TEXT
  5
4E1
330
6B
100
AcDbEntity
  8
0
 62
     3
100
AcDbText
 10
-59.68253714485824
 20
-120.0
 30
0.0
 40
3.2
  1
53933
 41
0.8
  7
高3.2
100
AcDbText
  0
TEXT
  5
4E2
330
6B
100
AcDbEntity
  8
0
 62
     3
100
AcDbText
 10
-59.68253714485824
 20
-115.0
 30
0.0
 40
3.2
  1
53931
 41
0.8
  7
高3.2
100
AcDbText
  0
TEXT
  5
4E3
330
6B
100
AcDbEntity
  8
0
 62
     3
100
AcDbText
 10
-59.68253714485824
 20
-105.0
 30
0.0
 40
3.2
  1
53940
 41
0.8
  7
高3.2
100
AcDbText
  0
TEXT
  5
4E4
330
6B
100
AcDbEntity
  8
0
 62
     3
100
AcDbText
 10
-59.68253714485824
 20
-100.0
 30
0.0
 40
3.2
  1
53937
 41
0.8
  7
高3.2
100
AcDbText
  0
TEXT
  5
4E5
330
6B
100
AcDbEntity
  8
0
 62
     3
100
AcDbText
 10
-59.68253714485824
 20
-95.0
 30
0.0
 40
3.2
  1
53939
 41
0.8
  7
高3.2
100
AcDbText
  0
TEXT
  5
4E6
330
6B
100
AcDbEntity
  8
0
 62
     3
100
AcDbText
 10
-59.68253714485824
 20
-90.0
 30
0.0
 40
3.2
  1
53938
 41
0.8
  7
高3.2
100
AcDbText
  0
TEXT
  5
4E7
330
6B
100
AcDbEntity
  8
0
 62
     3
100
AcDbText
 10
-59.68253714485824
 20
-85.0
 30
0.0
 40
3.2
  1
53909
 41
0.8
  7
高3.2
100
AcDbText
  0
LINE
  5
4E8
330
6B
100
AcDbEntity
  8
0
 62
     7
100
AcDbLine
 10
27.56423159720168
 20
-80.5
 30
0.0
 11
-190.0
 21
-80.5
 31
0.0
  0
LINE
  5
4E9
330
6B
100
AcDbEntity
  8
0
 62
     7
100
AcDbLine
 10
27.56423159720168
 20
-125.5
 30
0.0
 11
-190.0
 21
-125.5
 31
0.0
  0
LINE
  5
4EA
330
6B
100
AcDbEntity
  8
0
 62
     7
100
AcDbLine
 10
27.56423159720168
 20
-120.5
 30
0.0
 11
-190.0
 21
-120.5
 31
0.0
  0
LINE
  5
4EB
330
6B
100
AcDbEntity
  8
0
 62
     7
100
AcDbLine
 10
27.56423159720168
 20
-115.5
 30
0.0
 11
-190.0
 21
-115.5
 31
0.0
  0
LINE
  5
4EC
330
6B
100
AcDbEntity
  8
0
 62
     7
100
AcDbLine
 10
27.56423159720168
 20
-110.5
 30
0.0
 11
-190.0
 21
-110.5
 31
0.0
  0
LINE
  5
4ED
330
6B
100
AcDbEntity
  8
0
 62
     7
100
AcDbLine
 10
27.56423159720168
 20
-105.5
 30
0.0
 11
-190.0
 21
-105.5
 31
0.0
  0
LINE
  5
4EE
330
6B
100
AcDbEntity
  8
0
 62
     7
100
AcDbLine
 10
27.56423159720168
 20
-100.5
 30
0.0
 11
-190.0
 21
-100.5
 31
0.0
  0
LINE
  5
4EF
330
6B
100
AcDbEntity
  8
0
 62
     7
100
AcDbLine
 10
27.56423159720168
 20
-95.50000000000002
 30
0.0
 11
-190.0
 21
-95.5
 31
0.0
  0
LINE
  5
4F0
330
6B
100
AcDbEntity
  8
0
 62
     7
100
AcDbLine
 10
27.56423159720168
 20
-90.5
 30
0.0
 11
-190.0
 21
-90.5
 31
0.0
  0
LINE
  5
4F1
330
6B
100
AcDbEntity
  8
0
 62
     7
100
AcDbLine
 10
27.56423159720168
 20
-85.5
 30
0.0
 11
-190.0
 21
-85.5
 31
0.0
  0
TEXT
  5
4F2
330
6B
100
AcDbEntity
  8
0
 62
     3
100
AcDbText
 10
-137.0042062467661
 20
-105.0
 30
0.0
 40
3.2
  1
HIDL-35R-SO　止めネジ付
 41
0.8
  7
高3.2
100
AcDbText
  0
TEXT
  5
4F3
330
6B
100
AcDbEntity
  8
0
 62
     3
100
AcDbText
 10
-154.6037652461271
 20
-80.0
 30
0.0
 40
3.2
  1
SUS
 41
0.8
  7
高3.2
100
AcDbText
  0
TEXT
  5
4F4
330
6B
100
AcDbEntity
  8
0
 62
     3
100
AcDbText
 10
-188.5
 20
-80.0
 30
0.0
 40
3.2
  1
付属
 41
0.8
  7
高3.2
100
AcDbText
  0
LINE
  5
4F5
330
6B
100
AcDbEntity
  8
0
 62
     7
100
AcDbLine
 10
-181.4673461668792
 20
-135.5
 30
0.0
 11
-181.4673461668792
 21
-75.5
 31
0.0
  0
LINE
  5
4F6
330
6B
100
AcDbEntity
  8
0
 62
     7
100
AcDbLine
 10
-156.1037652461272
 20
-135.5
 30
0.0
 11
-156.1037652461272
 21
-75.5
 31
0.0
  0
LINE
  5
4F7
330
6B
100
AcDbEntity
  8
0
 62
     7
100
AcDbLine
 10
-138.5042062467661
 20
-135.5
 30
0.0
 11
-138.5042062467661
 21
-75.5
 31
0.0
  0
LINE
  5
4F8
330
6B
100
AcDbEntity
  8
0
 62
     7
100
AcDbLine
 10
-70.81592024172531
 20
-135.5
 30
0.0
 11
-70.81592024172531
 21
-75.5
 31
0.0
  0
LINE
  5
4F9
330
6B
100
AcDbEntity
  8
0
 62
     7
100
AcDbLine
 10
-61.18253714485826
 20
-135.5
 30
0.0
 11
-61.18253714485826
 21
-75.5
 31
0.0
  0
TEXT
  5
4FA
330
6B
100
AcDbEntity
  8
0
 62
     3
100
AcDbText
 10
-69.31592024172532
 20
-80.0
 30
0.0
 40
3.2
  1
各4
 41
0.8
  7
高3.2
100
AcDbText
  0
TEXT
  5
4FB
330
6B
100
AcDbEntity
  8
0
 62
     3
100
AcDbText
 10
-59.68253714485824
 20
-80.0
 30
0.0
 40
3.2
  1
-
 41
0.8
  7
高3.2
100
AcDbText
  0
TEXT
  5
4FC
330
6B
100
AcDbEntity
  8
0
 62
     3
100
AcDbText
 10
-179.9673461668792
 20
-80.0
 30
0.0
 40
3.2
  1
ボルト等
 41
0.8
  7
高3.2
100
AcDbText
  0
TEXT
  5
4FD
330
6B
100
AcDbEntity
  8
0
 62
     3
100
AcDbText
 10
-137.0042062467661
 20
-80.0
 30
0.0
 40
3.2
  1
M8x35ボルト、ナット、ワッシャー
 41
0.8
  7
高3.2
100
AcDbText
  0
CIRCLE
  5
504
330
6B
100
AcDbEntity
  8
0
 62
     7
100
AcDbCircle
 10
152.8386206227401
 20
11.2034121709463
 30
0.0
 40
5.0
  0
TEXT
  5
505
330
6B
100
AcDbEntity
  8
0
 62
     4
100
AcDbText
 10
150.5986595931056
 20
8.21032553638706
 30
0.0
 40
6.299999999999998
  1
6
  7
高6.3
100
AcDbText
  0
LINE
  5
50B
330
6B
100
AcDbEntity
  8
0
 62
     7
100
AcDbLine
 10
82.50374018705
 20
-9.260771
 30
0.0
 11
75.36071418705002
 21
4.574417999999996
 31
0.0
  0
CIRCLE
  5
50C
330
6B
100
AcDbEntity
  8
0
 62
     7
100
AcDbCircle
 10
73.06692018705
 20
9.017222
 30
0.0
 40
5.0
  0
TEXT
  5
50D
330
6B
100
AcDbEntity
  8
0
 62
     4
100
AcDbText
 10
70.51942828747269
 20
6.02622468582183
 30
0.0
 40
6.299999999999998
  1
4
  7
高6.3
100
AcDbText
  0
LINE
  5
513
330
6B
100
AcDbEntity
  8
0
 62
     7
100
AcDbLine
 10
113.5273162467617
 20
-3.372123
 30
0.0
 11
104.5340102467617
 21
7.010658999999997
 31
0.0
  0
CIRCLE
  5
514
330
6B
100
AcDbEntity
  8
0
 62
     7
100
AcDbCircle
 10
101.2604182467617
 20
10.790024
 30
0.0
 40
5.0
  0
TEXT
  5
515
330
6B
100
AcDbEntity
  8
0
 62
     4
100
AcDbText
 10
99.03421533818686
 20
7.662249477172507
 30
0.0
 40
6.299999999999998
  1
5
  7
高6.3
100
AcDbText
  0
LINE
  5
51B
330
6B
100
AcDbEntity
  8
0
 62
     7
100
AcDbLine
 10
24.262147
 20
62.644493
 30
0.0
 11
54.55255199999999
 21
122.884705
 31
0.0
  0
CIRCLE
  5
51C
330
6B
100
AcDbEntity
  8
0
 62
     7
100
AcDbCircle
 10
56.798717
 20
127.351778
 30
0.0
 40
5.0
  0
TEXT
  5
51D
330
6B
100
AcDbEntity
  8
0
 62
     4
100
AcDbText
 10
54.66884206762916
 20
124.412041958529
 30
0.0
 40
6.299999999999998
  1
3
  7
高6.3
100
AcDbText
  0
LINE
  5
523
330
6B
100
AcDbEntity
  8
0
 62
     7
100
AcDbLine
 10
-67.51803999999999
 20
101.199308
 30
0.0
 11
-63.378504
 21
122.444077
 31
0.0
  0
CIRCLE
  5
524
330
6B
100
AcDbEntity
  8
0
 62
     7
100
AcDbCircle
 10
-62.42224
 20
127.351781
 30
0.0
 40
5.0
  0
TEXT
  5
525
330
6B
100
AcDbEntity
  8
0
 62
     4
100
AcDbText
 10
-64.55984274827121
 20
124.4194479165279
 30
0.0
 40
6.299999999999998
  1
2
  7
高6.3
100
AcDbText
  0
LINE
  5
52B
330
6B
100
AcDbEntity
  8
0
 62
     7
100
AcDbLine
 10
-147.275651
 20
77.71331500000002
 30
0.0
 11
-155.478668
 21
122.433828
 31
0.0
  0
CIRCLE
  5
52C
330
6B
100
AcDbEntity
  8
0
 62
     7
100
AcDbCircle
 10
-156.38076
 20
127.351778
 30
0.0
 40
5.0
  0
TEXT
  5
52D
330
6B
100
AcDbEntity
  8
0
 62
     4
100
AcDbText
 10
-157.5436717007699
 20
123.9812643486212
 30
0.0
 40
6.299999999999998
  1
1
  7
高6.3
100
AcDbText
  0
TEXT
  5
52E
330
6B
100
AcDbEntity
  8
0
 62
     3
100
AcDbText
 10
-137.0042062467661
 20
-130.0
 30
0.0
 40
3.2
  1
HIDL-35R-BL-24V
 41
0.8
  7
高3.2
100
AcDbText
  0
TEXT
  5
52F
330
6B
100
AcDbEntity
  8
0
 62
     3
100
AcDbText
 10
-59.68253714485824
 20
-130.0
 30
0.0
 40
3.2
  1
53935
 41
0.8
  7
高3.2
100
AcDbText
  0
TEXT
  5
530
330
6B
100
AcDbEntity
  8
0
 62
     3
100
AcDbText
 10
-137.0042062467661
 20
-110.0
 30
0.0
 40
3.2
  1
HIDL-35R-C-24V 3m2P 0.6m6P
 41
0.8
  7
高3.2
100
AcDbText
  0
TEXT
  5
531
330
6B
100
AcDbEntity
  8
0
 62
     3
100
AcDbText
 10
-59.68253714485824
 20
-110.0
 30
0.0
 40
3.2
  1
53947
 41
0.8
  7
高3.2
100
AcDbText
  0
TEXT
  5
789
330
6B
100
AcDbEntity
  8
0
 62
     3
100
AcDbText
 10
-188.5
 20
-125.0
 30
0.0
 40
3.2
  1
2
 41
0.8
  7
高3.2
100
AcDbText
  0
TEXT
  5
78A
330
6B
100
AcDbEntity
  8
0
 62
     3
100
AcDbText
 10
-188.5
 20
-120.0
 30
0.0
 40
3.2
  1
3
 41
0.8
  7
高3.2
100
AcDbText
  0
TEXT
  5
78B
330
6B
100
AcDbEntity
  8
0
 62
     3
100
AcDbText
 10
-188.5
 20
-115.0
 30
0.0
 40
3.2
  1
4
 41
0.8
  7
高3.2
100
AcDbText
  0
TEXT
  5
78C
330
6B
100
AcDbEntity
  8
0
 62
     3
100
AcDbText
 10
-188.5
 20
-110.0
 30
0.0
 40
3.2
  1
5
 41
0.8
  7
高3.2
100
AcDbText
  0
TEXT
  5
78D
330
6B
100
AcDbEntity
  8
0
 62
     3
100
AcDbText
 10
-188.5
 20
-105.0
 30
0.0
 40
3.2
  1
6
 41
0.8
  7
高3.2
100
AcDbText
  0
TEXT
  5
78F
330
6B
100
AcDbEntity
  8
0
 62
     3
100
AcDbText
 10
-42.60478020534032
 20
-135.0
 30
0.0
 40
3.2
  1
コード番号名称
 41
0.6
  7
高3.2
100
AcDbText
  0
TEXT
  5
790
330
6B
100
AcDbEntity
  8
0
 62
     3
100
AcDbText
 10
-42.60478020534032
 20
-125.0
 30
0.0
 40
3.2
  1
HIDL-35R-COVER　HIDL-35R用フロントカバー
 41
0.6
  7
高3.2
100
AcDbText
  0
TEXT
  5
791
330
6B
100
AcDbEntity
  8
0
 62
     3
100
AcDbText
 10
-42.60478020534032
 20
-120.0
 30
0.0
 40
3.2
  1
HIDL-35R-BULB　HIDL-35R用HIDランプ
 41
0.6
  7
高3.2
100
AcDbText
  0
TEXT
  5
792
330
6B
100
AcDbEntity
  8
0
 62
     3
100
AcDbText
 10
-42.60478020534032
 20
-115.0
 30
0.0
 40
3.2
  1
HIDL-35R-RC　HIDL-35R用リモコン
 41
0.6
  7
高3.2
100
AcDbText
  0
TEXT
  5
793
330
6B
100
AcDbEntity
  8
0
 62
     3
100
AcDbText
 10
-42.60478020534032
 20
-85.0
 30
0.0
 40
3.2
  1
HIDL-35R-RC-B　HIDL-35R用リモコン電池
 41
0.6
  7
高3.2
100
AcDbText
  0
TEXT
  5
794
330
6B
100
AcDbEntity
  8
0
 62
     3
100
AcDbText
 10
-42.60478020534032
 20
-90.0
 30
0.0
 40
3.2
  1
HIDL-35R-YPIN　HIDL-35R用Yピンコード
 41
0.6
  7
高3.2
100
AcDbText
  0
TEXT
  5
795
330
6B
100
AcDbEntity
  8
0
 62
     3
100
AcDbText
 10
-42.60478020534032
 20
-95.00000000000005
 30
0.0
 40
3.2
  1
HIDL-35R-EXT　HIDL-35R用延長ケーブル
 41
0.6
  7
高3.2
100
AcDbText
  0
TEXT
  5
796
330
6B
100
AcDbEntity
  8
0
 62
     3
100
AcDbText
 10
-42.60478020534032
 20
-100.0
 30
0.0
 40
3.2
  1
HIDL-35R CP　HIDL-35R用シガープラグ
 41
0.6
  7
高3.2
100
AcDbText
  0
TEXT
  5
797
330
6B
100
AcDbEntity
  8
0
 62
     3
100
AcDbText
 10
-42.60478020534032
 20
-105.0
 30
0.0
 40
3.2
  1
HIDL-35R-SO　HIDL-35R用コントローラーソケット
 41
0.6
  7
高3.2
100
AcDbText
  0
LINE
  5
798
330
6B
100
AcDbEntity
  8
0
 62
     7
100
AcDbLine
 10
-44.10478020534031
 20
-135.5
 30
0.0
 11
-44.10478020534031
 21
-75.5
 31
0.0
  0
TEXT
  5
799
330
6B
100
AcDbEntity
  8
0
 62
     3
100
AcDbText
 10
-42.60478020534032
 20
-80.0
 30
0.0
 40
3.2
  1
－
 41
0.6
  7
高3.2
100
AcDbText
  0
TEXT
  5
79A
330
6B
100
AcDbEntity
  8
0
 62
     3
100
AcDbText
 10
-42.60478020534032
 20
-130.0
 30
0.0
 40
3.2
  1
HIDL-35R-BL-24V　HIDL-35R用安定器24V
 41
0.6
  7
高3.2
100
AcDbText
  0
TEXT
  5
79B
330
6B
100
AcDbEntity
  8
0
 62
     3
100
AcDbText
 10
-42.60478020534032
 20
-110.0
 30
0.0
 40
3.2
  1
HIDL-35R-C-24V　HIDL-35R用コントローラー24V
 41
0.6
  7
高3.2
100
AcDbText
  0
TEXT
  5
97E
330
6B
100
AcDbEntity
  8
0
100
AcDbText
 10
109.8996883830218
 20
31.58866729089448
 30
0.0
 40
2.5
  1
注１）：照度は反射率などを含む当社実測値の為、
  7
高2.5
100
AcDbText
  0
TEXT
  5
A7B
330
6B
100
AcDbEntity
  8
0
100
AcDbText
 10
109.8996883830218
 20
28.36939032520331
 30
0.0
 40
2.5
  1
　　　　使用環境下により異なります。
  7
高2.5
100
AcDbText
  0
LINE
  5
BAC
330
6B
100
AcDbEntity
  8
0
  6
CENTER
 62
     7
100
AcDbLine
 10
-158.021482
 20
-16.17207184564381
 30
0.0
 11
-158.021482
 21
-28.576334
 31
0.0
  0
LINE
  5
BAF
330
6B
100
AcDbEntity
  8
0
  6
CENTER
 62
     7
100
AcDbLine
 10
-91.521482
 20
-16.17207184564381
 30
0.0
 11
-91.521482
 21
-28.576334
 31
0.0
  0
LINE
  5
BC4
330
6B
100
AcDbEntity
  8
0
  6
CENTER
 62
     7
100
AcDbLine
 10
53.648667
 20
-16.17207184564381
 30
0.0
 11
53.648667
 21
-28.576334
 31
0.0
  0
LINE
  5
BC5
330
6B
100
AcDbEntity
  8
0
  6
CENTER
 62
     7
100
AcDbLine
 10
-12.85133299999998
 20
-16.17207184564381
 30
0.0
 11
-12.85133299999998
 21
-28.576334
 31
0.0
  0
TEXT
  5
C05
330
6B
100
AcDbEntity
  8
0
 62
     3
100
AcDbText
 10
187.4999999999999
 20
129.055361
 30
0.0
 40
3.2
  1
担　当
  7
高3.2
100
AcDbText
  0
TEXT
  5
C06
330
6B
100
AcDbEntity
  8
0
 62
     3
100
AcDbText
 10
143.4999999999999
 20
129.055361
 30
0.0
 40
3.2
  1
変更・追記内容
  7
高3.2
100
AcDbText
  0
TEXT
  5
C07
330
6B
100
AcDbEntity
  8
0
 62
     3
100
AcDbText
 10
118.6135150003391
 20
124.3848224900917
 30
0.0
 40
2.0
  1
1
  7
高2
100
AcDbText
  0
TEXT
  5
C08
330
6B
100
AcDbEntity
  8
0
 62
     3
100
AcDbText
 10
118.3050035235818
 20
119.2150057778188
 30
0.0
 40
2.0
  1
2
  7
高2
100
AcDbText
  0
TEXT
  5
C09
330
6B
100
AcDbEntity
  8
0
 62
     3
100
AcDbText
 10
125.4999999999999
 20
129.055361
 30
0.0
 40
3.2
  1
日　付
  7
高3.2
100
AcDbText
  0
TEXT
  5
C0A
330
6B
100
AcDbEntity
  8
0
 62
     3
100
AcDbText
 10
125.4999999999999
 20
134.055361
 30
0.0
 40
3.2
  1
図　　　　面　　　　略　　　　歴
  7
高3.2
100
AcDbText
  0
TEXT
  5
C0B
330
6B
100
AcDbEntity
  8
0
 62
     3
100
AcDbText
 10
115.4999999999999
 20
129.055361
 30
0.0
 40
3.2
  1
記号
  7
高3.2
100
AcDbText
  0
LINE
  5
C0C
330
6B
100
AcDbEntity
  8
0
 62
     7
100
AcDbLine
 10
118.9999999999999
 20
122.3462570000001
 30
0.0
 11
117.0999999999999
 21
119.055361
 31
0.0
  0
LINE
  5
C0D
330
6B
100
AcDbEntity
  8
0
 62
     7
100
AcDbLine
 10
118.9999999999999
 20
122.3462570000001
 30
0.0
 11
120.8999999999998
 21
119.055361
 31
0.0
  0
LINE
  5
C0E
330
6B
100
AcDbEntity
  8
0
 62
     7
100
AcDbLine
 10
117.0999999999999
 20
119.055361
 30
0.0
 11
120.8999999999998
 21
119.055361
 31
0.0
  0
LINE
  5
C0F
330
6B
100
AcDbEntity
  8
0
 62
     7
100
AcDbLine
 10
118.9999999999999
 20
127.3462580000001
 30
0.0
 11
117.0999999999999
 21
124.055361
 31
0.0
  0
LINE
  5
C10
330
6B
100
AcDbEntity
  8
0
 62
     7
100
AcDbLine
 10
118.9999999999999
 20
127.3462580000001
 30
0.0
 11
120.8999999999998
 21
124.055361
 31
0.0
  0
LINE
  5
C11
330
6B
100
AcDbEntity
  8
0
 62
     7
100
AcDbLine
 10
117.0999999999999
 20
124.055361
 30
0.0
 11
120.8999999999998
 21
124.055361
 31
0.0
  0
LINE
  5
C12
330
6B
100
AcDbEntity
  8
0
 62
     3
100
AcDbLine
 10
113.9999999999999
 20
133.555361
 30
0.0
 11
199.9999999999999
 21
133.555361
 31
0.0
  0
LINE
  5
C13
330
6B
100
AcDbEntity
  8
0
 62
     3
100
AcDbLine
 10
113.9999999999999
 20
128.555361
 30
0.0
 11
199.9999999999999
 21
128.555361
 31
0.0
  0
LINE
  5
C14
330
6B
100
AcDbEntity
  8
0
 62
     7
100
AcDbLine
 10
113.9999999999999
 20
123.555361
 30
0.0
 11
199.9999999999999
 21
123.555361
 31
0.0
  0
LINE
  5
C15
330
6B
100
AcDbEntity
  8
0
 62
     3
100
AcDbLine
 10
113.9999999999999
 20
118.555361
 30
0.0
 11
199.9999999999999
 21
118.555361
 31
0.0
  0
LINE
  5
C16
330
6B
100
AcDbEntity
  8
0
 62
     7
100
AcDbLine
 10
185.9999999999997
 20
118.555361
 30
0.0
 11
185.9999999999999
 21
133.555361
 31
0.0
  0
LINE
  5
C17
330
6B
100
AcDbEntity
  8
0
 62
     7
100
AcDbLine
 10
141.9999999999999
 20
118.555361
 30
0.0
 11
141.9999999999999
 21
133.555361
 31
0.0
  0
LINE
  5
C18
330
6B
100
AcDbEntity
  8
0
 62
     7
100
AcDbLine
 10
123.9999999999999
 20
118.555361
 30
0.0
 11
123.9999999999999
 21
133.555361
 31
0.0
  0
LINE
  5
C19
330
6B
100
AcDbEntity
  8
0
 62
     3
100
AcDbLine
 10
113.9999999999999
 20
118.555361
 30
0.0
 11
113.9999999999999
 21
138.555361
 31
0.0
  0
TEXT
  5
C1B
330
6B
100
AcDbEntity
  8
0
  6
Continuous
100
AcDbText
 10
125.4999999999999
 20
124.055361
 30
0.0
 40
2.5
  1
'13.12.20
  7
高2.5
100
AcDbText
  0
TEXT
  5
C1C
330
6B
100
AcDbEntity
  8
0
  6
Continuous
100
AcDbText
 10
143.4999999999999
 20
124.055361
 30
0.0
 40
2.5
  1
取付穴ピッチ値修正
  7
高2.5
100
AcDbText
  0
TEXT
  5
C1D
330
6B
100
AcDbEntity
  8
0
  6
Continuous
100
AcDbText
 10
187.4999999999998
 20
124.0553609999995
 30
0.0
 40
2.5
  1
今村
  7
高2.5
100
AcDbText
  0
LINE
  5
E17
330
6B
100
AcDbEntity
  8
0
100
AcDbLine
 10
-12.85133299999998
 20
-28.826334
 30
0.0
 11
-12.85133299999998
 21
-44.94504314603285
 31
0.0
  0
LINE
  5
E1A
330
6B
100
AcDbEntity
  8
0
100
AcDbLine
 10
53.648667
 20
-28.826334
 30
0.0
 11
53.648667
 21
-44.94504314603285
 31
0.0
  0
LINE
  5
E1B
330
6B
100
AcDbEntity
  8
0
100
AcDbLine
 10
-10.35133299999998
 20
-43.69504314603285
 30
0.0
 11
51.148667
 21
-43.69504314603285
 31
0.0
  0
TEXT
  5
E1F
330
6B
100
AcDbEntity
  8
0
  6
Continuous
 62
     4
100
AcDbText
 10
-39.67993961169014
 20
-36.92499980429965
 30
0.0
 40
3.0
  1
4-\U+22059穴
100
AcDbText
1001
ACAD
1000
MTEXTBEGIN
1070
    73
1070
     1
1070
    44
1040
1.0
1070
    74
1070
     0
1000
MTEXTEND
  0
LINE
  5
E24
330
6B
100
AcDbEntity
  8
0
 62
     7
100
AcDbLine
 10
-148.163592
 20
79.583809
 30
0.0
 11
-147.275651
 21
77.71331500000002
 31
0.0
  0
LINE
  5
E25
330
6B
100
AcDbEntity
  8
0
 62
     7
100
AcDbLine
 10
-147.275651
 20
77.71331500000002
 30
0.0
 11
-147.109384
 21
79.777181
 31
0.0
  0
LINE
  5
E26
330
6B
100
AcDbEntity
  8
0
 62
     7
100
AcDbLine
 10
-67.661541
 20
103.264882
 30
0.0
 11
-67.51803999999999
 21
101.199308
 31
0.0
  0
LINE
  5
E27
330
6B
100
AcDbEntity
  8
0
 62
     7
100
AcDbLine
 10
-67.51803999999999
 20
101.199308
 30
0.0
 11
-66.609528
 21
103.059898
 31
0.0
  0
LINE
  5
E28
330
6B
100
AcDbEntity
  8
0
 62
     7
100
AcDbLine
 10
24.681833
 20
64.672065
 30
0.0
 11
24.262147
 21
62.644493
 31
0.0
  0
LINE
  5
E29
330
6B
100
AcDbEntity
  8
0
 62
     7
100
AcDbLine
 10
24.262147
 20
62.644493
 30
0.0
 11
25.639392
 21
64.190579
 31
0.0
  0
LINE
  5
E2A
330
6B
100
AcDbEntity
  8
0
 62
     7
100
AcDbLine
 10
111.8128082467617
 20
-2.211238999999999
 30
0.0
 11
113.5273162467617
 21
-3.372123
 31
0.0
  0
LINE
  5
E2B
330
6B
100
AcDbEntity
  8
0
 62
     7
100
AcDbLine
 10
113.5273162467617
 20
-3.372123
 30
0.0
 11
112.6229502467618
 21
-1.509514
 31
0.0
  0
LINE
  5
E2C
330
6B
100
AcDbEntity
  8
0
 62
     7
100
AcDbLine
 10
81.11004418704998
 20
-7.729497
 30
0.0
 11
82.50374018705
 21
-9.260771
 31
0.0
  0
LINE
  5
E2D
330
6B
100
AcDbEntity
  8
0
 62
     7
100
AcDbLine
 10
82.50374018705
 20
-9.260771
 30
0.0
 11
82.06240118705002
 21
-7.237800999999997
 31
0.0
  0
LINE
  5
E2E
330
6B
100
AcDbEntity
  8
0
 62
     7
100
AcDbLine
 10
120.7607202467617
 20
-66.377852
 30
0.0
 11
123.2125032467617
 21
-67.586208
 31
0.0
  0
LINE
  5
E2F
330
6B
100
AcDbEntity
  8
0
 62
     7
100
AcDbLine
 10
123.2125032467617
 20
-67.586208
 30
0.0
 11
125.6864182467617
 21
-68.067589
 31
0.0
  0
LINE
  5
E30
330
6B
100
AcDbEntity
  8
0
 62
     7
100
AcDbLine
 10
125.6864182467617
 20
-68.067589
 30
0.0
 11
128.1626672467617
 21
-67.460357
 31
0.0
  0
LINE
  5
E31
330
6B
100
AcDbEntity
  8
0
 62
     7
100
AcDbLine
 10
128.1626672467617
 20
-67.460357
 30
0.0
 11
130.6584112467617
 21
-66.775982
 31
0.0
  0
LINE
  5
E32
330
6B
100
AcDbEntity
  8
0
 62
     7
100
AcDbLine
 10
130.6584112467617
 20
-66.775982
 30
0.0
 11
133.2960042467617
 21
-67.06982099999999
 31
0.0
  0
LINE
  5
E33
330
6B
100
AcDbEntity
  8
0
 62
     7
100
AcDbLine
 10
133.2960042467617
 20
-67.06982099999999
 30
0.0
 11
135.9313162467617
 21
-68.067589
 31
0.0
  0
LINE
  5
E34
330
6B
100
AcDbEntity
  8
0
 62
     7
100
AcDbLine
 10
29.99063
 20
-34.321062
 30
0.0
 11
28.405806
 21
-32.988576
 31
0.0
  0
LINE
  5
E35
330
6B
100
AcDbEntity
  8
0
 62
     7
100
AcDbLine
 10
28.405806
 20
-32.988576
 30
0.0
 11
29.11206
 21
-34.934955
 31
0.0
  0
LINE
  5
E36
330
6B
100
AcDbEntity
  8
0
 62
     7
100
AcDbLine
 10
34.639586
 20
-27.404928
 30
0.0
 11
33.573967
 21
-28.934484
 31
0.0
  0
LINE
  5
E37
330
6B
100
AcDbEntity
  8
0
 62
     7
100
AcDbLine
 10
33.573967
 20
-28.934484
 30
0.0
 11
33.39433
 21
-30.37488
 31
0.0
  0
LINE
  5
E38
330
6B
100
AcDbEntity
  8
0
 62
     7
100
AcDbLine
 10
33.39433
 20
-30.37488
 30
0.0
 11
34.254503
 21
-31.473858
 31
0.0
  0
LINE
  5
E39
330
6B
100
AcDbEntity
  8
0
 62
     7
100
AcDbLine
 10
34.254503
 20
-31.473858
 30
0.0
 11
34.983882
 21
-32.553273
 31
0.0
  0
LINE
  5
E3A
330
6B
100
AcDbEntity
  8
0
 62
     7
100
AcDbLine
 10
34.983882
 20
-32.553273
 30
0.0
 11
34.66415100000001
 21
-33.573686
 31
0.0
  0
LINE
  5
E3B
330
6B
100
AcDbEntity
  8
0
 62
     7
100
AcDbLine
 10
34.66415100000001
 20
-33.573686
 30
0.0
 11
33.73862600000001
 21
-34.62870000000001
 31
0.0
  0
LINE
  5
E3C
330
6B
100
AcDbEntity
  8
0
 62
     7
100
AcDbLine
 10
18.073193
 20
13.587101
 30
0.0
 11
18.059888
 21
13.672292
 31
0.0
  0
LINE
  5
E3D
330
6B
100
AcDbEntity
  8
0
 62
     7
100
AcDbLine
 10
18.059888
 20
13.672292
 30
0.0
 11
18.043908
 21
13.753867
 31
0.0
  0
LINE
  5
E3E
330
6B
100
AcDbEntity
  8
0
 62
     7
100
AcDbLine
 10
18.043908
 20
13.753867
 30
0.0
 11
18.025379
 21
13.831195
 31
0.0
  0
LINE
  5
E3F
330
6B
100
AcDbEntity
  8
0
 62
     7
100
AcDbLine
 10
18.025379
 20
13.831195
 30
0.0
 11
18.004441
 21
13.903678
 31
0.0
  0
LINE
  5
E40
330
6B
100
AcDbEntity
  8
0
 62
     7
100
AcDbLine
 10
18.004441
 20
13.903678
 30
0.0
 11
17.981259
 21
13.970756
 31
0.0
  0
LINE
  5
E41
330
6B
100
AcDbEntity
  8
0
 62
     7
100
AcDbLine
 10
17.981259
 20
13.970756
 30
0.0
 11
17.95601
 21
14.031911
 31
0.0
  0
LINE
  5
E42
330
6B
100
AcDbEntity
  8
0
 62
     7
100
AcDbLine
 10
17.95601
 20
14.031911
 30
0.0
 11
17.928889
 21
14.08667
 31
0.0
  0
LINE
  5
E43
330
6B
100
AcDbEntity
  8
0
 62
     7
100
AcDbLine
 10
17.928889
 20
14.08667
 30
0.0
 11
17.900108
 21
14.13461
 31
0.0
  0
LINE
  5
E44
330
6B
100
AcDbEntity
  8
0
 62
     7
100
AcDbLine
 10
17.900108
 20
14.13461
 30
0.0
 11
17.869887
 21
14.175359
 31
0.0
  0
LINE
  5
E45
330
6B
100
AcDbEntity
  8
0
 62
     7
100
AcDbLine
 10
17.869887
 20
14.175359
 30
0.0
 11
17.838461
 21
14.208604
 31
0.0
  0
LINE
  5
E46
330
6B
100
AcDbEntity
  8
0
 62
     7
100
AcDbLine
 10
17.838461
 20
14.208604
 30
0.0
 11
17.806073
 21
14.234087
 31
0.0
  0
LINE
  5
E47
330
6B
100
AcDbEntity
  8
0
 62
     7
100
AcDbLine
 10
17.806073
 20
14.234087
 30
0.0
 11
17.772972
 21
14.251611
 31
0.0
  0
LINE
  5
E48
330
6B
100
AcDbEntity
  8
0
 62
     7
100
AcDbLine
 10
17.772972
 20
14.251611
 30
0.0
 11
17.739415
 21
14.261041
 31
0.0
  0
LINE
  5
E49
330
6B
100
AcDbEntity
  8
0
 62
     7
100
AcDbLine
 10
17.739415
 20
14.261041
 30
0.0
 11
17.705661
 21
14.262304
 31
0.0
  0
LINE
  5
E4A
330
6B
100
AcDbEntity
  8
0
 62
     7
100
AcDbLine
 10
17.705661
 20
14.262304
 30
0.0
 11
17.671971
 21
14.255389
 31
0.0
  0
LINE
  5
E4B
330
6B
100
AcDbEntity
  8
0
 62
     7
100
AcDbLine
 10
17.671971
 20
14.255389
 30
0.0
 11
17.638605
 21
14.240352
 31
0.0
  0
LINE
  5
E4C
330
6B
100
AcDbEntity
  8
0
 62
     7
100
AcDbLine
 10
17.638605
 20
14.240352
 30
0.0
 11
17.605821
 21
14.217307
 31
0.0
  0
LINE
  5
E4D
330
6B
100
AcDbEntity
  8
0
 62
     7
100
AcDbLine
 10
17.605821
 20
14.217307
 30
0.0
 11
17.573874
 21
14.186433
 31
0.0
  0
LINE
  5
E4E
330
6B
100
AcDbEntity
  8
0
 62
     7
100
AcDbLine
 10
17.573874
 20
14.186433
 30
0.0
 11
17.543008
 21
14.147969
 31
0.0
  0
LINE
  5
E4F
330
6B
100
AcDbEntity
  8
0
 62
     7
100
AcDbLine
 10
17.543008
 20
14.147969
 30
0.0
 11
17.513464
 21
14.102211
 31
0.0
  0
LINE
  5
E50
330
6B
100
AcDbEntity
  8
0
 62
     7
100
AcDbLine
 10
17.513464
 20
14.102211
 30
0.0
 11
17.48547
 21
14.049514
 31
0.0
  0
LINE
  5
E51
330
6B
100
AcDbEntity
  8
0
 62
     7
100
AcDbLine
 10
17.48547
 20
14.049514
 30
0.0
 11
17.459241
 21
13.990285
 31
0.0
  0
LINE
  5
E52
330
6B
100
AcDbEntity
  8
0
 62
     7
100
AcDbLine
 10
17.459241
 20
13.990285
 30
0.0
 11
17.434981
 21
13.924981
 31
0.0
  0
LINE
  5
E53
330
6B
100
AcDbEntity
  8
0
 62
     7
100
AcDbLine
 10
17.434981
 20
13.924981
 30
0.0
 11
17.412877
 21
13.854108
 31
0.0
  0
LINE
  5
E54
330
6B
100
AcDbEntity
  8
0
 62
     7
100
AcDbLine
 10
17.412877
 20
13.854108
 30
0.0
 11
17.393101
 21
13.778214
 31
0.0
  0
LINE
  5
E55
330
6B
100
AcDbEntity
  8
0
 62
     7
100
AcDbLine
 10
17.393101
 20
13.778214
 30
0.0
 11
17.375804
 21
13.697884
 31
0.0
  0
LINE
  5
E56
330
6B
100
AcDbEntity
  8
0
 62
     7
100
AcDbLine
 10
17.375804
 20
13.697884
 30
0.0
 11
17.36112
 21
13.613739
 31
0.0
  0
LINE
  5
E57
330
6B
100
AcDbEntity
  8
0
 62
     7
100
AcDbLine
 10
17.36112
 20
13.613739
 30
0.0
 11
17.349164
 21
13.526431
 31
0.0
  0
LINE
  5
E58
330
6B
100
AcDbEntity
  8
0
 62
     7
100
AcDbLine
 10
17.349164
 20
13.526431
 30
0.0
 11
17.340027
 21
13.436634
 31
0.0
  0
LINE
  5
E59
330
6B
100
AcDbEntity
  8
0
 62
     7
100
AcDbLine
 10
17.340027
 20
13.436634
 30
0.0
 11
17.333781
 21
13.345042
 31
0.0
  0
LINE
  5
E5A
330
6B
100
AcDbEntity
  8
0
 62
     7
100
AcDbLine
 10
17.333781
 20
13.345042
 30
0.0
 11
17.330473
 21
13.252364
 31
0.0
  0
LINE
  5
E5B
330
6B
100
AcDbEntity
  8
0
 62
     7
100
AcDbLine
 10
17.330473
 20
13.252364
 30
0.0
 11
17.330128
 21
13.159314
 31
0.0
  0
LINE
  5
E5C
330
6B
100
AcDbEntity
  8
0
 62
     7
100
AcDbLine
 10
17.330128
 20
13.159314
 30
0.0
 11
17.332751
 21
13.066613
 31
0.0
  0
LINE
  5
E5D
330
6B
100
AcDbEntity
  8
0
 62
     7
100
AcDbLine
 10
17.332751
 20
13.066613
 30
0.0
 11
17.338319
 21
12.974978
 31
0.0
  0
LINE
  5
E5E
330
6B
100
AcDbEntity
  8
0
 62
     7
100
AcDbLine
 10
17.338319
 20
12.974978
 30
0.0
 11
17.346791
 21
12.885116
 31
0.0
  0
LINE
  5
E5F
330
6B
100
AcDbEntity
  8
0
 62
     7
100
AcDbLine
 10
17.346791
 20
12.885116
 30
0.0
 11
17.358101
 21
12.797721
 31
0.0
  0
LINE
  5
E60
330
6B
100
AcDbEntity
  8
0
 62
     7
100
AcDbLine
 10
17.358101
 20
12.797721
 30
0.0
 11
17.372161
 21
12.713471
 31
0.0
  0
LINE
  5
E61
330
6B
100
AcDbEntity
  8
0
 62
     7
100
AcDbLine
 10
17.372161
 20
12.713471
 30
0.0
 11
17.388863
 21
12.633015
 31
0.0
  0
LINE
  5
E62
330
6B
100
AcDbEntity
  8
0
 62
     7
100
AcDbLine
 10
17.388863
 20
12.633015
 30
0.0
 11
17.408078
 21
12.556976
 31
0.0
  0
LINE
  5
E63
330
6B
100
AcDbEntity
  8
0
 62
     7
100
AcDbLine
 10
17.408078
 20
12.556976
 30
0.0
 11
17.429657
 21
12.485941
 31
0.0
  0
LINE
  5
E64
330
6B
100
AcDbEntity
  8
0
 62
     7
100
AcDbLine
 10
17.429657
 20
12.485941
 30
0.0
 11
17.453433
 21
12.42046
 31
0.0
  0
LINE
  5
E65
330
6B
100
AcDbEntity
  8
0
 62
     7
100
AcDbLine
 10
17.453433
 20
12.42046
 30
0.0
 11
17.479222
 21
12.361038
 31
0.0
  0
LINE
  5
E66
330
6B
100
AcDbEntity
  8
0
 62
     7
100
AcDbLine
 10
17.479222
 20
12.361038
 30
0.0
 11
17.506826
 21
12.308136
 31
0.0
  0
LINE
  5
E67
330
6B
100
AcDbEntity
  8
0
 62
     7
100
AcDbLine
 10
17.506826
 20
12.308136
 30
0.0
 11
17.536031
 21
12.262161
 31
0.0
  0
LINE
  5
E68
330
6B
100
AcDbEntity
  8
0
 62
     7
100
AcDbLine
 10
17.536031
 20
12.262161
 30
0.0
 11
17.56661
 21
12.223469
 31
0.0
  0
LINE
  5
E69
330
6B
100
AcDbEntity
  8
0
 62
     7
100
AcDbLine
 10
17.56661
 20
12.223469
 30
0.0
 11
17.598329
 21
12.192359
 31
0.0
  0
LINE
  5
E6A
330
6B
100
AcDbEntity
  8
0
 62
     7
100
AcDbLine
 10
17.598329
 20
12.192359
 30
0.0
 11
17.630941
 21
12.169073
 31
0.0
  0
LINE
  5
E6B
330
6B
100
AcDbEntity
  8
0
 62
     7
100
AcDbLine
 10
17.630941
 20
12.169073
 30
0.0
 11
17.664194
 21
12.153789
 31
0.0
  0
LINE
  5
E6C
330
6B
100
AcDbEntity
  8
0
 62
     7
100
AcDbLine
 10
17.664194
 20
12.153789
 30
0.0
 11
17.697832
 21
12.146625
 31
0.0
  0
LINE
  5
E6D
330
6B
100
AcDbEntity
  8
0
 62
     7
100
AcDbLine
 10
17.697832
 20
12.146625
 30
0.0
 11
17.731595
 21
12.147638
 31
0.0
  0
LINE
  5
E6E
330
6B
100
AcDbEntity
  8
0
 62
     7
100
AcDbLine
 10
17.731595
 20
12.147638
 30
0.0
 11
17.765221
 21
12.156819
 31
0.0
  0
LINE
  5
E6F
330
6B
100
AcDbEntity
  8
0
 62
     7
100
AcDbLine
 10
17.765221
 20
12.156819
 30
0.0
 11
17.79845
 21
12.174098
 31
0.0
  0
LINE
  5
E70
330
6B
100
AcDbEntity
  8
0
 62
     7
100
AcDbLine
 10
17.79845
 20
12.174098
 30
0.0
 11
17.831027
 21
12.199341
 31
0.0
  0
LINE
  5
E71
330
6B
100
AcDbEntity
  8
0
 62
     7
100
AcDbLine
 10
17.831027
 20
12.199341
 30
0.0
 11
17.862698
 21
12.232352
 31
0.0
  0
LINE
  5
E72
330
6B
100
AcDbEntity
  8
0
 62
     7
100
AcDbLine
 10
17.862698
 20
12.232352
 30
0.0
 11
17.893219
 21
12.272877
 31
0.0
  0
LINE
  5
E73
330
6B
100
AcDbEntity
  8
0
 62
     7
100
AcDbLine
 10
17.893219
 20
12.272877
 30
0.0
 11
17.922355
 21
12.320602
 31
0.0
  0
LINE
  5
E74
330
6B
100
AcDbEntity
  8
0
 62
     7
100
AcDbLine
 10
17.922355
 20
12.320602
 30
0.0
 11
17.949879
 21
12.375159
 31
0.0
  0
LINE
  5
E75
330
6B
100
AcDbEntity
  8
0
 62
     7
100
AcDbLine
 10
17.949879
 20
12.375159
 30
0.0
 11
17.97557999999998
 21
12.436125
 31
0.0
  0
LINE
  5
E76
330
6B
100
AcDbEntity
  8
0
 62
     7
100
AcDbLine
 10
17.97557999999998
 20
12.436125
 30
0.0
 11
17.999259
 21
12.50303
 31
0.0
  0
LINE
  5
E77
330
6B
100
AcDbEntity
  8
0
 62
     7
100
AcDbLine
 10
17.999259
 20
12.50303
 30
0.0
 11
18.020732
 21
12.575357
 31
0.0
  0
LINE
  5
E78
330
6B
100
AcDbEntity
  8
0
 62
     7
100
AcDbLine
 10
18.020732
 20
12.575357
 30
0.0
 11
18.039833
 21
12.652545
 31
0.0
  0
LINE
  5
E79
330
6B
100
AcDbEntity
  8
0
 62
     7
100
AcDbLine
 10
18.039833
 20
12.652545
 30
0.0
 11
18.056416
 21
12.734
 31
0.0
  0
LINE
  5
E7A
330
6B
100
AcDbEntity
  8
0
 62
     7
100
AcDbLine
 10
18.056416
 20
12.734
 30
0.0
 11
18.070352
 21
12.81909
 31
0.0
  0
LINE
  5
E7B
330
6B
100
AcDbEntity
  8
0
 62
     2
100
AcDbLine
 10
0.258626
 20
139.09599
 30
0.0
 11
0.232015
 21
139.266372
 31
0.0
  0
LINE
  5
E7C
330
6B
100
AcDbEntity
  8
0
 62
     2
100
AcDbLine
 10
0.232015
 20
139.266372
 30
0.0
 11
0.200056
 21
139.429522
 31
0.0
  0
LINE
  5
E7D
330
6B
100
AcDbEntity
  8
0
 62
     2
100
AcDbLine
 10
0.200056
 20
139.429522
 30
0.0
 11
0.162997
 21
139.584178
 31
0.0
  0
LINE
  5
E7E
330
6B
100
AcDbEntity
  8
0
 62
     2
100
AcDbLine
 10
0.162997
 20
139.584178
 30
0.0
 11
0.121122
 21
139.729144
 31
0.0
  0
LINE
  5
E7F
330
6B
100
AcDbEntity
  8
0
 62
     2
100
AcDbLine
 10
0.121122
 20
139.729144
 30
0.0
 11
0.074757
 21
139.863301
 31
0.0
  0
LINE
  5
E80
330
6B
100
AcDbEntity
  8
0
 62
     2
100
AcDbLine
 10
0.074757
 20
139.863301
 30
0.0
 11
0.024259
 21
139.985611
 31
0.0
  0
LINE
  5
E81
330
6B
100
AcDbEntity
  8
0
 62
     2
100
AcDbLine
 10
0.024259
 20
139.985611
 30
0.0
 11
-0.029982
 21
140.095128
 31
0.0
  0
LINE
  5
E82
330
6B
100
AcDbEntity
  8
0
 62
     2
100
AcDbLine
 10
-0.029982
 20
140.095128
 30
0.0
 11
-0.087545
 21
140.191007
 31
0.0
  0
LINE
  5
E83
330
6B
100
AcDbEntity
  8
0
 62
     2
100
AcDbLine
 10
-0.087545
 20
140.191007
 30
0.0
 11
-0.147986
 21
140.272507
 31
0.0
  0
LINE
  5
E84
330
6B
100
AcDbEntity
  8
0
 62
     2
100
AcDbLine
 10
-0.147986
 20
140.272507
 30
0.0
 11
-0.210838
 21
140.338996
 31
0.0
  0
LINE
  5
E85
330
6B
100
AcDbEntity
  8
0
 62
     2
100
AcDbLine
 10
-0.210838
 20
140.338996
 30
0.0
 11
-0.275615
 21
140.389962
 31
0.0
  0
LINE
  5
E86
330
6B
100
AcDbEntity
  8
0
 62
     2
100
AcDbLine
 10
-0.275615
 20
140.389962
 30
0.0
 11
-0.341817
 21
140.42501
 31
0.0
  0
LINE
  5
E87
330
6B
100
AcDbEntity
  8
0
 62
     2
100
AcDbLine
 10
-0.341817
 20
140.42501
 30
0.0
 11
-0.4089310000000001
 21
140.44387
 31
0.0
  0
LINE
  5
E88
330
6B
100
AcDbEntity
  8
0
 62
     2
100
AcDbLine
 10
-0.4089310000000001
 20
140.44387
 30
0.0
 11
-0.4764390000000003
 21
140.446396
 31
0.0
  0
LINE
  5
E89
330
6B
100
AcDbEntity
  8
0
 62
     2
100
AcDbLine
 10
-0.4764390000000003
 20
140.446396
 30
0.0
 11
-0.543819
 21
140.432567
 31
0.0
  0
LINE
  5
E8A
330
6B
100
AcDbEntity
  8
0
 62
     2
100
AcDbLine
 10
-0.543819
 20
140.432567
 30
0.0
 11
-0.6105510000000001
 21
140.402492
 31
0.0
  0
LINE
  5
E8B
330
6B
100
AcDbEntity
  8
0
 62
     2
100
AcDbLine
 10
-0.6105510000000001
 20
140.402492
 30
0.0
 11
-0.676118
 21
140.356403
 31
0.0
  0
LINE
  5
E8C
330
6B
100
AcDbEntity
  8
0
 62
     2
100
AcDbLine
 10
-0.676118
 20
140.356403
 30
0.0
 11
-0.7400130000000003
 21
140.294655
 31
0.0
  0
LINE
  5
E8D
330
6B
100
AcDbEntity
  8
0
 62
     2
100
AcDbLine
 10
-0.7400130000000003
 20
140.294655
 30
0.0
 11
-0.801744
 21
140.217726
 31
0.0
  0
LINE
  5
E8E
330
6B
100
AcDbEntity
  8
0
 62
     2
100
AcDbLine
 10
-0.801744
 20
140.217726
 30
0.0
 11
-0.8608319999999999
 21
140.126211
 31
0.0
  0
LINE
  5
E8F
330
6B
100
AcDbEntity
  8
0
 62
     2
100
AcDbLine
 10
-0.8608319999999999
 20
140.126211
 30
0.0
 11
-0.9168209999999998
 21
140.020817
 31
0.0
  0
LINE
  5
E90
330
6B
100
AcDbEntity
  8
0
 62
     2
100
AcDbLine
 10
-0.9168209999999998
 20
140.020817
 30
0.0
 11
-0.969278
 21
139.902358
 31
0.0
  0
LINE
  5
E91
330
6B
100
AcDbEntity
  8
0
 62
     2
100
AcDbLine
 10
-0.969278
 20
139.902358
 30
0.0
 11
-1.017797999999997
 21
139.771751
 31
0.0
  0
LINE
  5
E92
330
6B
100
AcDbEntity
  8
0
 62
     2
100
AcDbLine
 10
-1.017797999999997
 20
139.771751
 30
0.0
 11
-1.062006
 21
139.630005
 31
0.0
  0
LINE
  5
E93
330
6B
100
AcDbEntity
  8
0
 62
     2
100
AcDbLine
 10
-1.062006
 20
139.630005
 30
0.0
 11
-1.101558999999999
 21
139.478216
 31
0.0
  0
LINE
  5
E94
330
6B
100
AcDbEntity
  8
0
 62
     2
100
AcDbLine
 10
-1.101558999999999
 20
139.478216
 30
0.0
 11
-1.136152999999997
 21
139.317556
 31
0.0
  0
LINE
  5
E95
330
6B
100
AcDbEntity
  8
0
 62
     2
100
AcDbLine
 10
-1.136152999999997
 20
139.317556
 30
0.0
 11
-1.16552
 21
139.149267
 31
0.0
  0
LINE
  5
E96
330
6B
100
AcDbEntity
  8
0
 62
     2
100
AcDbLine
 10
-1.16552
 20
139.149267
 30
0.0
 11
-1.189432
 21
138.974651
 31
0.0
  0
LINE
  5
E97
330
6B
100
AcDbEntity
  8
0
 62
     2
100
AcDbLine
 10
-1.189432
 20
138.974651
 30
0.0
 11
-1.207705999999999
 21
138.795057
 31
0.0
  0
LINE
  5
E98
330
6B
100
AcDbEntity
  8
0
 62
     2
100
AcDbLine
 10
-1.207705999999999
 20
138.795057
 30
0.0
 11
-1.220199
 21
138.611873
 31
0.0
  0
LINE
  5
E99
330
6B
100
AcDbEntity
  8
0
 62
     2
100
AcDbLine
 10
-1.220199
 20
138.611873
 30
0.0
 11
-1.226814999999997
 21
138.426516
 31
0.0
  0
LINE
  5
E9A
330
6B
100
AcDbEntity
  8
0
 62
     2
100
AcDbLine
 10
-1.226814999999997
 20
138.426516
 30
0.0
 11
-1.227504
 21
138.240417
 31
0.0
  0
LINE
  5
E9B
330
6B
100
AcDbEntity
  8
0
 62
     2
100
AcDbLine
 10
-1.227504
 20
138.240417
 30
0.0
 11
-1.222258999999997
 21
138.055015
 31
0.0
  0
LINE
  5
E9C
330
6B
100
AcDbEntity
  8
0
 62
     2
100
AcDbLine
 10
-1.222258999999997
 20
138.055015
 30
0.0
 11
-1.211122
 21
137.871744
 31
0.0
  0
LINE
  5
E9D
330
6B
100
AcDbEntity
  8
0
 62
     2
100
AcDbLine
 10
-1.211122
 20
137.871744
 30
0.0
 11
-1.194177999999997
 21
137.692019
 31
0.0
  0
LINE
  5
E9E
330
6B
100
AcDbEntity
  8
0
 62
     2
100
AcDbLine
 10
-1.194177999999997
 20
137.692019
 30
0.0
 11
-1.171558
 21
137.517231
 31
0.0
  0
LINE
  5
E9F
330
6B
100
AcDbEntity
  8
0
 62
     2
100
AcDbLine
 10
-1.171558
 20
137.517231
 30
0.0
 11
-1.143437999999999
 21
137.34873
 31
0.0
  0
LINE
  5
EA0
330
6B
100
AcDbEntity
  8
0
 62
     2
100
AcDbLine
 10
-1.143437999999999
 20
137.34873
 30
0.0
 11
-1.110033999999997
 21
137.187819
 31
0.0
  0
LINE
  5
EA1
330
6B
100
AcDbEntity
  8
0
 62
     2
100
AcDbLine
 10
-1.110033999999997
 20
137.187819
 30
0.0
 11
-1.071604999999999
 21
137.03574
 31
0.0
  0
LINE
  5
EA2
330
6B
100
AcDbEntity
  8
0
 62
     2
100
AcDbLine
 10
-1.071604999999999
 20
137.03574
 30
0.0
 11
-1.028446999999999
 21
136.893671
 31
0.0
  0
LINE
  5
EA3
330
6B
100
AcDbEntity
  8
0
 62
     2
100
AcDbLine
 10
-1.028446999999999
 20
136.893671
 30
0.0
 11
-0.9808949999999999
 21
136.762708
 31
0.0
  0
LINE
  5
EA4
330
6B
100
AcDbEntity
  8
0
 62
     2
100
AcDbLine
 10
-0.9808949999999999
 20
136.762708
 30
0.0
 11
-0.929316
 21
136.643865
 31
0.0
  0
LINE
  5
EA5
330
6B
100
AcDbEntity
  8
0
 62
     2
100
AcDbLine
 10
-0.929316
 20
136.643865
 30
0.0
 11
-0.874108
 21
136.53806
 31
0.0
  0
LINE
  5
EA6
330
6B
100
AcDbEntity
  8
0
 62
     2
100
AcDbLine
 10
-0.874108
 20
136.53806
 30
0.0
 11
-0.815699
 21
136.44611
 31
0.0
  0
LINE
  5
EA7
330
6B
100
AcDbEntity
  8
0
 62
     2
100
AcDbLine
 10
-0.815699
 20
136.44611
 30
0.0
 11
-0.75454
 21
136.368726
 31
0.0
  0
LINE
  5
EA8
330
6B
100
AcDbEntity
  8
0
 62
     2
100
AcDbLine
 10
-0.75454
 20
136.368726
 30
0.0
 11
-0.6911030000000002
 21
136.306507
 31
0.0
  0
LINE
  5
EA9
330
6B
100
AcDbEntity
  8
0
 62
     2
100
AcDbLine
 10
-0.6911030000000002
 20
136.306507
 30
0.0
 11
-0.625879
 21
136.259934
 31
0.0
  0
LINE
  5
EAA
330
6B
100
AcDbEntity
  8
0
 62
     2
100
AcDbLine
 10
-0.625879
 20
136.259934
 30
0.0
 11
-0.559372
 21
136.229366
 31
0.0
  0
LINE
  5
EAB
330
6B
100
AcDbEntity
  8
0
 62
     2
100
AcDbLine
 10
-0.559372
 20
136.229366
 30
0.0
 11
-0.492096
 21
136.215039
 31
0.0
  0
LINE
  5
EAC
330
6B
100
AcDbEntity
  8
0
 62
     2
100
AcDbLine
 10
-0.492096
 20
136.215039
 30
0.0
 11
-0.424571
 21
136.217065
 31
0.0
  0
LINE
  5
EAD
330
6B
100
AcDbEntity
  8
0
 62
     2
100
AcDbLine
 10
-0.424571
 20
136.217065
 30
0.0
 11
-0.357319
 21
136.235427
 31
0.0
  0
LINE
  5
EAE
330
6B
100
AcDbEntity
  8
0
 62
     2
100
AcDbLine
 10
-0.357319
 20
136.235427
 30
0.0
 11
-0.29086
 21
136.269985
 31
0.0
  0
LINE
  5
EAF
330
6B
100
AcDbEntity
  8
0
 62
     2
100
AcDbLine
 10
-0.29086
 20
136.269985
 30
0.0
 11
-0.225707
 21
136.32047
 31
0.0
  0
LINE
  5
EB0
330
6B
100
AcDbEntity
  8
0
 62
     2
100
AcDbLine
 10
-0.225707
 20
136.32047
 30
0.0
 11
-0.162365
 21
136.386493
 31
0.0
  0
LINE
  5
EB1
330
6B
100
AcDbEntity
  8
0
 62
     2
100
AcDbLine
 10
-0.162365
 20
136.386493
 30
0.0
 11
-0.101322
 21
136.4675419999999
 31
0.0
  0
LINE
  5
EB2
330
6B
100
AcDbEntity
  8
0
 62
     2
100
AcDbLine
 10
-0.101322
 20
136.4675419999999
 30
0.0
 11
-0.043051
 21
136.562993
 31
0.0
  0
LINE
  5
EB3
330
6B
100
AcDbEntity
  8
0
 62
     2
100
AcDbLine
 10
-0.043051
 20
136.562993
 30
0.0
 11
0.011998
 21
136.672106
 31
0.0
  0
LINE
  5
EB4
330
6B
100
AcDbEntity
  8
0
 62
     2
100
AcDbLine
 10
0.011998
 20
136.672106
 30
0.0
 11
0.0634
 21
136.794039
 31
0.0
  0
LINE
  5
EB5
330
6B
100
AcDbEntity
  8
0
 62
     2
100
AcDbLine
 10
0.0634
 20
136.794039
 30
0.0
 11
0.110757
 21
136.927849
 31
0.0
  0
LINE
  5
EB6
330
6B
100
AcDbEntity
  8
0
 62
     2
100
AcDbLine
 10
0.110757
 20
136.927849
 30
0.0
 11
0.153703
 21
137.072502
 31
0.0
  0
LINE
  5
EB7
330
6B
100
AcDbEntity
  8
0
 62
     2
100
AcDbLine
 10
0.153703
 20
137.072502
 30
0.0
 11
0.191906
 21
137.226879
 31
0.0
  0
LINE
  5
EB8
330
6B
100
AcDbEntity
  8
0
 62
     2
100
AcDbLine
 10
0.191906
 20
137.226879
 30
0.0
 11
0.225072
 21
137.389788
 31
0.0
  0
LINE
  5
EB9
330
6B
100
AcDbEntity
  8
0
 62
     2
100
AcDbLine
 10
0.225072
 20
137.389788
 30
0.0
 11
0.252943
 21
137.559969
 31
0.0
  0
LINE
  5
EBA
330
6B
100
AcDbEntity
  8
0
100
AcDbLine
 10
-17.351333
 20
-25.177928
 30
0.0
 11
-35.97284500000003
 21
-25.177928
 31
0.0
  0
LINE
  5
EBB
330
6B
100
AcDbEntity
  8
0
100
AcDbLine
 10
20.148667
 20
109.822072
 30
0.0
 11
-35.972845
 21
109.822072
 31
0.0
  0
LINE
  5
EBC
330
6B
100
AcDbEntity
  8
0
100
AcDbLine
 10
-34.72284500000003
 20
-22.677928
 30
0.0
 11
-34.722845
 21
107.322072
 31
0.0
  0
LINE
  5
EC0
330
6B
100
AcDbEntity
  8
0
100
AcDbLine
 10
-124.771482
 20
-6.506939999999997
 30
0.0
 11
-124.771482
 21
-0.2584537756198388
 31
0.0
  0
LINE
  5
EC1
330
6B
100
AcDbEntity
  8
0
100
AcDbLine
 10
-53.77148199999999
 20
59.572072
 30
0.0
 11
-53.771482
 21
-2.758453775619841
 31
0.0
  0
LINE
  5
EC2
330
6B
100
AcDbEntity
  8
0
100
AcDbLine
 10
-122.271482
 20
-1.508453775619839
 30
0.0
 11
-56.271482
 21
-1.508453775619839
 31
0.0
  0
LINE
  5
EC6
330
6B
100
AcDbEntity
  8
0
100
AcDbLine
 10
-169.271482
 20
70.76224399999998
 30
0.0
 11
-169.271482
 21
119.225074
 31
0.0
  0
LINE
  5
EC7
330
6B
100
AcDbEntity
  8
0
100
AcDbLine
 10
-53.77148199999999
 20
60.07207199999999
 30
0.0
 11
-53.77148199999998
 21
119.225074
 31
0.0
  0
LINE
  5
EC8
330
6B
100
AcDbEntity
  8
0
100
AcDbLine
 10
-166.771482
 20
117.975074
 30
0.0
 11
-56.27148199999998
 21
117.975074
 31
0.0
  0
LINE
  5
ECC
330
6B
100
AcDbEntity
  8
0
100
AcDbLine
 10
-162.271482
 20
-25.427928
 30
0.0
 11
-162.271482
 21
-44.37218499999999
 31
0.0
  0
LINE
  5
ECD
330
6B
100
AcDbEntity
  8
0
100
AcDbLine
 10
-87.271482
 20
-25.427928
 30
0.0
 11
-87.271482
 21
-44.37218499999999
 31
0.0
  0
LINE
  5
ECE
330
6B
100
AcDbEntity
  8
0
100
AcDbLine
 10
-159.771482
 20
-43.12218499999999
 30
0.0
 11
-89.771482
 21
-43.12218499999999
 31
0.0
  0
LINE
  5
ED2
330
6B
100
AcDbEntity
  8
0
100
AcDbLine
 10
-158.021482
 20
-28.826334
 30
0.0
 11
-158.021482
 21
-37.346058
 31
0.0
  0
LINE
  5
ED3
330
6B
100
AcDbEntity
  8
0
100
AcDbLine
 10
-91.521482
 20
-28.826334
 30
0.0
 11
-91.521482
 21
-37.346058
 31
0.0
  0
LINE
  5
ED4
330
6B
100
AcDbEntity
  8
0
100
AcDbLine
 10
-155.521482
 20
-36.096058
 30
0.0
 11
-94.021482
 21
-36.096058
 31
0.0
  0
LINE
  5
ED8
330
6B
100
AcDbEntity
  8
0
100
AcDbLine
 10
-17.101333
 20
-25.427928
 30
0.0
 11
-17.101333
 21
-51.133888
 31
0.0
  0
LINE
  5
ED9
330
6B
100
AcDbEntity
  8
0
100
AcDbLine
 10
57.89866700000001
 20
-25.427928
 30
0.0
 11
57.89866700000001
 21
-51.133888
 31
0.0
  0
LINE
  5
EDA
330
6B
100
AcDbEntity
  8
0
100
AcDbLine
 10
-14.601333
 20
-49.883888
 30
0.0
 11
55.39866700000001
 21
-49.883888
 31
0.0
  0
LINE
  5
EDE
330
6B
100
AcDbEntity
  8
0
100
AcDbLine
 10
-25.601333
 20
52.072072
 30
0.0
 11
-25.601333
 21
119.2250739999999
 31
0.0
  0
LINE
  5
EDF
330
6B
100
AcDbEntity
  8
0
100
AcDbLine
 10
66.398667
 20
52.072072
 30
0.0
 11
66.398667
 21
119.2250739999999
 31
0.0
  0
LINE
  5
EE0
330
6B
100
AcDbEntity
  8
0
100
AcDbLine
 10
-23.101333
 20
117.975074
 30
0.0
 11
63.898667
 21
117.975074
 31
0.0
  0
TEXT
  5
EE4
330
6B
100
AcDbEntity
  8
0
  6
Continuous
 62
     4
100
AcDbText
 10
7.732658364740697
 20
-43.07004314603285
 30
0.0
 40
3.0
  1
取付ピッチ133
100
AcDbText
  0
LINE
  5
EE5
330
6B
100
AcDbEntity
  8
0
  6
ByBlock
 62
     0
370
    -2
100
AcDbLine
 10
51.148667
 20
-43.02517064603285
 30
0.0
 11
53.648667
 21
-43.69504314603285
 31
0.0
  0
LINE
  5
EE6
330
6B
100
AcDbEntity
  8
0
  6
ByBlock
 62
     0
370
    -2
100
AcDbLine
 10
53.648667
 20
-43.69504314603285
 30
0.0
 11
51.148667
 21
-44.36491564603285
 31
0.0
  0
LINE
  5
EE7
330
6B
100
AcDbEntity
  8
0
  6
ByBlock
 62
     0
370
    -2
100
AcDbLine
 10
53.648667
 20
-43.69504314603285
 30
0.0
 11
51.148667
 21
-43.69504314603285
 31
0.0
  0
LINE
  5
EE8
330
6B
100
AcDbEntity
  8
0
  6
ByBlock
 62
     0
370
    -2
100
AcDbLine
 10
-10.35133299999998
 20
-44.36491564603286
 30
0.0
 11
-12.85133299999998
 21
-43.69504314603285
 31
0.0
  0
LINE
  5
EE9
330
6B
100
AcDbEntity
  8
0
  6
ByBlock
 62
     0
370
    -2
100
AcDbLine
 10
-12.85133299999998
 20
-43.69504314603285
 30
0.0
 11
-10.35133299999998
 21
-43.02517064603285
 31
0.0
  0
LINE
  5
EEA
330
6B
100
AcDbEntity
  8
0
  6
ByBlock
 62
     0
370
    -2
100
AcDbLine
 10
-12.85133299999998
 20
-43.69504314603285
 30
0.0
 11
-10.35133299999998
 21
-43.69504314603285
 31
0.0
  0
LINE
  5
EEB
330
6B
100
AcDbEntity
  8
0
  6
Continuous
100
AcDbLine
 10
-14.40084302725921
 20
-27.13981960644086
 30
0.0
 11
-22.86772836146839
 21
-37.86005437592075
 31
0.0
  0
LINE
  5
EEC
330
6B
100
AcDbEntity
  8
0
  6
Continuous
100
AcDbLine
 10
-22.86772836146839
 20
-37.86005437592075
 30
0.0
 11
-25.9927283614684
 21
-37.86005437592075
 31
0.0
  0
LINE
  5
EED
330
6B
100
AcDbEntity
  8
0
  6
ByBlock
 62
     0
370
    -2
100
AcDbLine
 10
-14.92652992131344
 20
-26.72462994414678
 30
0.0
 11
-12.85133299999998
 21
-25.177928
 31
0.0
  0
LINE
  5
EEE
330
6B
100
AcDbEntity
  8
0
  6
ByBlock
 62
     0
370
    -2
100
AcDbLine
 10
-12.85133299999998
 20
-25.177928
 30
0.0
 11
-13.87515613320499
 21
-27.55500926873494
 31
0.0
  0
LINE
  5
EEF
330
6B
100
AcDbEntity
  8
0
  6
ByBlock
 62
     0
370
    -2
100
AcDbLine
 10
-12.85133299999998
 20
-25.177928
 30
0.0
 11
-14.40084302725921
 21
-27.13981960644086
 31
0.0
  0
LINE
  5
EF0
330
6B
100
AcDbEntity
  8
0
  6
Continuous
100
AcDbLine
 10
157.2985735292135
 20
-3.87888965854104
 30
0.0
 11
154.2564676887836
 21
6.408653605876355
 31
0.0
1001
ACAD
1000
DSTYLE
1002
{
1070
   147
1040
0.625
1070
    77
1070
     0
1002
}
  0
LINE
  5
EF1
330
6B
100
AcDbEntity
  8
0
  6
ByBlock
 62
     0
370
    -2
100
AcDbLine
 10
157.9409489105895
 20
-3.688934306791383
 30
0.0
 11
158.0074970622353
 21
-6.276268941076011
 31
0.0
  0
LINE
  5
EF2
330
6B
100
AcDbEntity
  8
0
  6
ByBlock
 62
     0
370
    -2
100
AcDbLine
 10
158.0074970622353
 20
-6.276268941076011
 30
0.0
 11
156.6561981478376
 21
-4.068845010290696
 31
0.0
  0
LINE
  5
EF3
330
6B
100
AcDbEntity
  8
0
  6
ByBlock
 62
     0
370
    -2
100
AcDbLine
 10
158.0074970622353
 20
-6.276268941076011
 30
0.0
 11
157.2985735292135
 21
-3.878889658541039
 31
0.0
  0
TEXT
  5
EF4
330
6B
100
AcDbEntity
  8
0
  6
Continuous
 62
     4
100
AcDbText
 10
-35.34784500000002
 20
38.57207199999999
 30
0.0
 40
3.0
  1
270
 50
90.0
100
AcDbText
  0
LINE
  5
EF5
330
6B
100
AcDbEntity
  8
0
  6
ByBlock
 62
     0
370
    -2
100
AcDbLine
 10
-35.3927175
 20
107.322072
 30
0.0
 11
-34.722845
 21
109.822072
 31
0.0
  0
LINE
  5
EF6
330
6B
100
AcDbEntity
  8
0
  6
ByBlock
 62
     0
370
    -2
100
AcDbLine
 10
-34.722845
 20
109.822072
 30
0.0
 11
-34.0529725
 21
107.322072
 31
0.0
  0
LINE
  5
EF7
330
6B
100
AcDbEntity
  8
0
  6
ByBlock
 62
     0
370
    -2
100
AcDbLine
 10
-34.722845
 20
109.822072
 30
0.0
 11
-34.722845
 21
107.322072
 31
0.0
  0
LINE
  5
EF8
330
6B
100
AcDbEntity
  8
0
  6
ByBlock
 62
     0
370
    -2
100
AcDbLine
 10
-34.05297250000002
 20
-22.677928
 30
0.0
 11
-34.72284500000003
 21
-25.177928
 31
0.0
  0
LINE
  5
EF9
330
6B
100
AcDbEntity
  8
0
  6
ByBlock
 62
     0
370
    -2
100
AcDbLine
 10
-34.72284500000003
 20
-25.177928
 30
0.0
 11
-35.39271750000003
 21
-22.677928
 31
0.0
  0
LINE
  5
EFA
330
6B
100
AcDbEntity
  8
0
  6
ByBlock
 62
     0
370
    -2
100
AcDbLine
 10
-34.72284500000003
 20
-25.177928
 30
0.0
 11
-34.72284500000003
 21
-22.677928
 31
0.0
  0
TEXT
  5
EFB
330
6B
100
AcDbEntity
  8
0
  6
Continuous
 62
     4
100
AcDbText
 10
-91.26436742406822
 20
-0.8834537756198383
 30
0.0
 40
3.0
  1
左右回転R142
100
AcDbText
  0
LINE
  5
EFC
330
6B
100
AcDbEntity
  8
0
  6
ByBlock
 62
     0
370
    -2
100
AcDbLine
 10
-56.271482
 20
-0.838581275619839
 30
0.0
 11
-53.771482
 21
-1.508453775619839
 31
0.0
  0
LINE
  5
EFD
330
6B
100
AcDbEntity
  8
0
  6
ByBlock
 62
     0
370
    -2
100
AcDbLine
 10
-53.771482
 20
-1.508453775619839
 30
0.0
 11
-56.271482
 21
-2.178326275619839
 31
0.0
  0
LINE
  5
EFE
330
6B
100
AcDbEntity
  8
0
  6
ByBlock
 62
     0
370
    -2
100
AcDbLine
 10
-53.771482
 20
-1.508453775619839
 30
0.0
 11
-56.271482
 21
-1.508453775619839
 31
0.0
  0
LINE
  5
EFF
330
6B
100
AcDbEntity
  8
0
  6
ByBlock
 62
     0
370
    -2
100
AcDbLine
 10
-122.271482
 20
-2.178326275619839
 30
0.0
 11
-124.771482
 21
-1.508453775619839
 31
0.0
  0
LINE
  5
F00
330
6B
100
AcDbEntity
  8
0
  6
ByBlock
 62
     0
370
    -2
100
AcDbLine
 10
-124.771482
 20
-1.508453775619839
 30
0.0
 11
-122.271482
 21
-0.8385812756198394
 31
0.0
  0
LINE
  5
F01
330
6B
100
AcDbEntity
  8
0
  6
ByBlock
 62
     0
370
    -2
100
AcDbLine
 10
-124.771482
 20
-1.508453775619839
 30
0.0
 11
-122.271482
 21
-1.508453775619839
 31
0.0
  0
TEXT
  5
F02
330
6B
100
AcDbEntity
  8
0
  6
Continuous
 62
     4
100
AcDbText
 10
-115.271482
 20
118.600074
 30
0.0
 40
3.0
  1
230
100
AcDbText
  0
LINE
  5
F03
330
6B
100
AcDbEntity
  8
0
  6
ByBlock
 62
     0
370
    -2
100
AcDbLine
 10
-56.27148199999998
 20
118.6449465
 30
0.0
 11
-53.77148199999998
 21
117.975074
 31
0.0
  0
LINE
  5
F04
330
6B
100
AcDbEntity
  8
0
  6
ByBlock
 62
     0
370
    -2
100
AcDbLine
 10
-53.77148199999998
 20
117.975074
 30
0.0
 11
-56.27148199999998
 21
117.3052015
 31
0.0
  0
LINE
  5
F05
330
6B
100
AcDbEntity
  8
0
  6
ByBlock
 62
     0
370
    -2
100
AcDbLine
 10
-53.77148199999998
 20
117.975074
 30
0.0
 11
-56.27148199999998
 21
117.975074
 31
0.0
  0
LINE
  5
F06
330
6B
100
AcDbEntity
  8
0
  6
ByBlock
 62
     0
370
    -2
100
AcDbLine
 10
-166.771482
 20
117.3052015
 30
0.0
 11
-169.271482
 21
117.975074
 31
0.0
  0
LINE
  5
F07
330
6B
100
AcDbEntity
  8
0
  6
ByBlock
 62
     0
370
    -2
100
AcDbLine
 10
-169.271482
 20
117.975074
 30
0.0
 11
-166.771482
 21
118.6449465
 31
0.0
  0
LINE
  5
F08
330
6B
100
AcDbEntity
  8
0
  6
ByBlock
 62
     0
370
    -2
100
AcDbLine
 10
-169.271482
 20
117.975074
 30
0.0
 11
-166.771482
 21
117.975074
 31
0.0
  0
TEXT
  5
F09
330
6B
100
AcDbEntity
  8
0
  6
Continuous
 62
     4
100
AcDbText
 10
-128.021482
 20
-42.49718499999999
 30
0.0
 40
3.0
  1
150
100
AcDbText
  0
LINE
  5
F0A
330
6B
100
AcDbEntity
  8
0
  6
ByBlock
 62
     0
370
    -2
100
AcDbLine
 10
-89.771482
 20
-42.45231249999998
 30
0.0
 11
-87.271482
 21
-43.12218499999999
 31
0.0
  0
LINE
  5
F0B
330
6B
100
AcDbEntity
  8
0
  6
ByBlock
 62
     0
370
    -2
100
AcDbLine
 10
-87.271482
 20
-43.12218499999999
 30
0.0
 11
-89.771482
 21
-43.79205749999998
 31
0.0
  0
LINE
  5
F0C
330
6B
100
AcDbEntity
  8
0
  6
ByBlock
 62
     0
370
    -2
100
AcDbLine
 10
-87.271482
 20
-43.12218499999999
 30
0.0
 11
-89.771482
 21
-43.12218499999999
 31
0.0
  0
LINE
  5
F0D
330
6B
100
AcDbEntity
  8
0
  6
ByBlock
 62
     0
370
    -2
100
AcDbLine
 10
-159.771482
 20
-43.79205749999998
 30
0.0
 11
-162.271482
 21
-43.12218499999999
 31
0.0
  0
LINE
  5
F0E
330
6B
100
AcDbEntity
  8
0
  6
ByBlock
 62
     0
370
    -2
100
AcDbLine
 10
-162.271482
 20
-43.12218499999999
 30
0.0
 11
-159.771482
 21
-42.45231249999998
 31
0.0
  0
LINE
  5
F0F
330
6B
100
AcDbEntity
  8
0
  6
ByBlock
 62
     0
370
    -2
100
AcDbLine
 10
-162.271482
 20
-43.12218499999999
 30
0.0
 11
-159.771482
 21
-43.12218499999999
 31
0.0
  0
TEXT
  5
F10
330
6B
100
AcDbEntity
  8
0
  6
Continuous
 62
     4
100
AcDbText
 10
-137.271482
 20
-35.471058
 30
0.0
 40
3.0
  1
取付ピッチ133
100
AcDbText
  0
LINE
  5
F11
330
6B
100
AcDbEntity
  8
0
  6
ByBlock
 62
     0
370
    -2
100
AcDbLine
 10
-94.021482
 20
-35.4261855
 30
0.0
 11
-91.521482
 21
-36.096058
 31
0.0
  0
LINE
  5
F12
330
6B
100
AcDbEntity
  8
0
  6
ByBlock
 62
     0
370
    -2
100
AcDbLine
 10
-91.521482
 20
-36.096058
 30
0.0
 11
-94.021482
 21
-36.7659305
 31
0.0
  0
LINE
  5
F13
330
6B
100
AcDbEntity
  8
0
  6
ByBlock
 62
     0
370
    -2
100
AcDbLine
 10
-91.521482
 20
-36.096058
 30
0.0
 11
-94.021482
 21
-36.096058
 31
0.0
  0
LINE
  5
F14
330
6B
100
AcDbEntity
  8
0
  6
ByBlock
 62
     0
370
    -2
100
AcDbLine
 10
-155.521482
 20
-36.7659305
 30
0.0
 11
-158.021482
 21
-36.096058
 31
0.0
  0
LINE
  5
F15
330
6B
100
AcDbEntity
  8
0
  6
ByBlock
 62
     0
370
    -2
100
AcDbLine
 10
-158.021482
 20
-36.096058
 30
0.0
 11
-155.521482
 21
-35.4261855
 31
0.0
  0
LINE
  5
F16
330
6B
100
AcDbEntity
  8
0
  6
ByBlock
 62
     0
370
    -2
100
AcDbLine
 10
-158.021482
 20
-36.096058
 30
0.0
 11
-155.521482
 21
-36.096058
 31
0.0
  0
TEXT
  5
F17
330
6B
100
AcDbEntity
  8
0
  6
Continuous
 62
     4
100
AcDbText
 10
17.148667
 20
-49.258888
 30
0.0
 40
3.0
  1
150
100
AcDbText
  0
LINE
  5
F18
330
6B
100
AcDbEntity
  8
0
  6
ByBlock
 62
     0
370
    -2
100
AcDbLine
 10
55.39866700000001
 20
-49.2140155
 30
0.0
 11
57.89866700000001
 21
-49.883888
 31
0.0
  0
LINE
  5
F19
330
6B
100
AcDbEntity
  8
0
  6
ByBlock
 62
     0
370
    -2
100
AcDbLine
 10
57.89866700000001
 20
-49.883888
 30
0.0
 11
55.39866700000001
 21
-50.55376049999999
 31
0.0
  0
LINE
  5
F1A
330
6B
100
AcDbEntity
  8
0
  6
ByBlock
 62
     0
370
    -2
100
AcDbLine
 10
57.89866700000001
 20
-49.883888
 30
0.0
 11
55.39866700000001
 21
-49.883888
 31
0.0
  0
LINE
  5
F1B
330
6B
100
AcDbEntity
  8
0
  6
ByBlock
 62
     0
370
    -2
100
AcDbLine
 10
-14.601333
 20
-50.55376049999999
 30
0.0
 11
-17.101333
 21
-49.883888
 31
0.0
  0
LINE
  5
F1C
330
6B
100
AcDbEntity
  8
0
  6
ByBlock
 62
     0
370
    -2
100
AcDbLine
 10
-17.101333
 20
-49.883888
 30
0.0
 11
-14.601333
 21
-49.2140155
 31
0.0
  0
LINE
  5
F1D
330
6B
100
AcDbEntity
  8
0
  6
ByBlock
 62
     0
370
    -2
100
AcDbLine
 10
-17.101333
 20
-49.883888
 30
0.0
 11
-14.601333
 21
-49.883888
 31
0.0
  0
TEXT
  5
F1E
330
6B
100
AcDbEntity
  8
0
  6
Continuous
 62
     4
100
AcDbText
 10
16.898667
 20
118.600074
 30
0.0
 40
3.0
  1
184
100
AcDbText
  0
LINE
  5
F1F
330
6B
100
AcDbEntity
  8
0
  6
ByBlock
 62
     0
370
    -2
100
AcDbLine
 10
63.898667
 20
118.6449465
 30
0.0
 11
66.398667
 21
117.975074
 31
0.0
  0
LINE
  5
F20
330
6B
100
AcDbEntity
  8
0
  6
ByBlock
 62
     0
370
    -2
100
AcDbLine
 10
66.398667
 20
117.975074
 30
0.0
 11
63.898667
 21
117.3052015
 31
0.0
  0
LINE
  5
F21
330
6B
100
AcDbEntity
  8
0
  6
ByBlock
 62
     0
370
    -2
100
AcDbLine
 10
66.398667
 20
117.975074
 30
0.0
 11
63.898667
 21
117.975074
 31
0.0
  0
LINE
  5
F22
330
6B
100
AcDbEntity
  8
0
  6
ByBlock
 62
     0
370
    -2
100
AcDbLine
 10
-23.101333
 20
117.3052015
 30
0.0
 11
-25.601333
 21
117.975074
 31
0.0
  0
LINE
  5
F23
330
6B
100
AcDbEntity
  8
0
  6
ByBlock
 62
     0
370
    -2
100
AcDbLine
 10
-25.601333
 20
117.975074
 30
0.0
 11
-23.101333
 21
118.6449465
 31
0.0
  0
LINE
  5
F24
330
6B
100
AcDbEntity
  8
0
  6
ByBlock
 62
     0
370
    -2
100
AcDbLine
 10
-25.601333
 20
117.975074
 30
0.0
 11
-23.101333
 21
117.975074
 31
0.0
  0
ENDSEC
  0
SECTION
  2
OBJECTS
  0
DICTIONARY
  5
C
330
0
100
AcDbDictionary
281
     1
  3
ACAD_2007HEADERVARS_RT
350
F28
  3
ACAD_COLOR
350
62
  3
ACAD_GROUP
350
D
  3
ACAD_LAYOUT
350
61
  3
ACAD_MATERIAL
350
10
  3
ACAD_MLEADERSTYLE
350
65
  3
ACAD_MLINESTYLE
350
5E
  3
ACAD_PLOTSETTINGS
350
60
  3
ACAD_PLOTSTYLENAME
350
E
  3
ACAD_SCALELIST
350
42
  3
ACAD_TABLESTYLE
350
63
  3
ACAD_VISUALSTYLE
350
29
  3
ACDB_RECOMPOSE_DATA
350
F26
  3
AcDbVariableDictionary
350
7A8
  3
DWGPROPS
350
F27
  0
DICTIONARY
  5
5D8
330
2
100
AcDbDictionary
280
     1
281
     1
  3
ACAD_LAYERSTATES
360
5D9
  0
DICTIONARY
  5
7A4
330
54
100
AcDbDictionary
280
     1
281
     1
  3
ADSK_XREC_LAYER_RECONCILED
360
7A5
  0
DICTIONARY
  5
BAD
330
6B
100
AcDbDictionary
280
     1
281
     1
  3
ACAD_SORTENTS
360
BAE
  0
DICTIONARY
  5
F28
102
{ACAD_REACTORS
330
C
102
}
330
C
100
AcDbDictionary
281
     1
  3
DIMARCSYM
350
F2A
  3
DIMFXL
350
F29
  3
DIMJOGANG
350
F2B
  0
DICTIONARY
  5
62
102
{ACAD_REACTORS
330
C
102
}
330
C
100
AcDbDictionary
281
     1
  0
DICTIONARY
  5
D
102
{ACAD_REACTORS
330
C
102
}
330
C
100
AcDbDictionary
281
     1
  0
DICTIONARY
  5
61
102
{ACAD_REACTORS
330
C
102
}
330
C
100
AcDbDictionary
281
     1
  3
Model
350
6E
  3
レイアウト1
350
6A
  0
DICTIONARY
  5
10
102
{ACAD_REACTORS
330
C
102
}
330
C
100
AcDbDictionary
281
     1
  3
ByBlock
350
19
  3
ByLayer
350
11
  3
Global
350
21
  0
DICTIONARY
  5
65
102
{ACAD_REACTORS
330
C
102
}
330
C
100
AcDbDictionary
281
     1
  3
Standard
350
66
  0
DICTIONARY
  5
5E
102
{ACAD_REACTORS
330
C
102
}
330
C
100
AcDbDictionary
281
     1
  3
Standard
350
5F
  0
DICTIONARY
  5
60
102
{ACAD_REACTORS
330
C
102
}
330
C
100
AcDbDictionary
281
     1
  0
ACDBDICTIONARYWDFLT
  5
E
102
{ACAD_REACTORS
330
C
102
}
330
C
100
AcDbDictionary
281
     1
  3
Normal
350
F
100
AcDbDictionaryWithDefault
340
F
  0
DICTIONARY
  5
42
102
{ACAD_REACTORS
330
C
102
}
330
C
100
AcDbDictionary
281
     1
  3
A0
350
43
  3
A1
350
44
  3
A2
350
45
  3
A3
350
46
  3
A4
350
47
  3
A5
350
48
  3
A6
350
49
  3
A7
350
4A
  3
A8
350
4B
  3
A9
350
4C
  3
B0
350
4D
  3
B1
350
4E
  3
B2
350
4F
  3
B3
350
50
  3
B4
350
51
  3
B5
350
52
  3
B6
350
53
  0
DICTIONARY
  5
63
102
{ACAD_REACTORS
330
C
102
}
330
C
100
AcDbDictionary
281
     1
  3
Standard
350
64
  0
DICTIONARY
  5
29
102
{ACAD_REACTORS
330
C
102
}
330
C
100
AcDbDictionary
281
     1
  3
2dWireframe
350
2F
  3
3dWireframe
350
5D7
  3
Basic
350
2E
  3
Brighten
350
35
  3
ColorChange
350
39
  3
Conceptual
350
32
  3
Dim
350
34
  3
EdgeColorOff
350
41
  3
Facepattern
350
38
  3
Flat
350
2A
  3
FlatWithEdges
350
2B
  3
Gouraud
350
2C
  3
GouraudWithEdges
350
2D
  3
Hidden
350
31
  3
JitterOff
350
3F
  3
Linepattern
350
37
  3
OverhangOff
350
40
  3
Realistic
350
33
  3
Shaded
350
3E
  3
Shaded with edges
350
3D
  3
Shades of Gray
350
3A
  3
Sketchy
350
3B
  3
Thicken
350
36
  3
Wireframe
350
30
  3
X-Ray
350
3C
  0
XRECORD
  5
F26
102
{ACAD_REACTORS
330
C
102
}
330
C
100
AcDbXrecord
280
     1
 90
        1
330
64
  0
DICTIONARY
  5
7A8
102
{ACAD_REACTORS
330
C
102
}
330
C
100
AcDbDictionary
281
     1
  3
CANNOSCALE
350
7AB
  3
CMLEADERSTYLE
350
7AA
  3
CTABLESTYLE
350
7A9
  3
DIMASSOC
350
7AE
  3
INDEXCTL
350
7AD
  3
SORTENTS
350
7AC
  3
XCLIPFRAME
350
DD8
  0
XRECORD
  5
F27
102
{ACAD_REACTORS
330
C
102
}
330
C
100
AcDbXrecord
280
     1
  1
DWGPROPS COOKIE
  2

  3

  4

  6

  7

  8
imamura
  9

300
=
301
=
302
=
303
=
304
=
305
=
306
=
307
=
308
=
309
=
 40
0.1517597337962963
 41
2455678.405899364
 42
2457326.718838021
  1

 90
        0
  0
DICTIONARY
  5
5D9
102
{ACAD_REACTORS
330
5D8
102
}
330
5D8
100
AcDbDictionary
281
     1
  0
XRECORD
  5
7A5
102
{ACAD_REACTORS
330
7A4
102
}
330
7A4
100
AcDbXrecord
280
     1
290
     1
  0
SORTENTSTABLE
  5
BAE
102
{ACAD_REACTORS
330
BAD
102
}
330
BAD
100
AcDbSortentsTable
330
6B
331
3AF
  5
4A5
331
2F5
  5
3DA
331
3AB
  5
4A1
331
2F1
  5
3D6
331
32C
  5
41C
331
3A7
  5
49D
331
2ED
  5
3D2
331
328
  5
418
331
3EA
  5
4DE
331
2E9
  5
3CE
331
3A3
  5
499
331
BAF
  5
4E6
331
EDF
  5
100
331
206
  5
2A7
331
E2E
  5
E51
331
27C
  5
316
331
202
  5
2A3
331
F16
  5
159
331
E2A
  5
ECB
331
F12
  5
15B
331
23D
  5
2D7
331
ED3
  5
155
331
2B7
  5
393
331
1FE
  5
29F
331
278
  5
312
331
239
  5
2D3
331
2B3
  5
38F
331
1FA
  5
29B
331
E64
  5
446
331
274
  5
30E
331
270
  5
30A
331
E60
  5
442
331
E9F
  5
26E
331
51C
  5
ED3
331
E5C
  5
43E
331
E9B
  5
26A
331
C17
  5
F1F
331
4A6
  5
E6A
331
42C
  5
794
331
E58
  5
43A
331
A7B
  5
EFA
331
514
  5
ECE
331
467
  5
E2E
331
C13
  5
F1B
331
4A2
  5
E66
331
428
  5
78F
331
14D
  5
1EA
331
463
  5
E2A
331
4DD
  5
E9C
331
424
  5
78B
331
C0F
  5
F17
331
49E
  5
E62
331
149
  5
1E8
331
4D9
  5
E98
331
420
  5
530
331
C0B
  5
F13
331
49A
  5
E5E
331
184
  5
221
331
180
  5
21D
331
324
  5
414
331
39F
  5
495
331
2E5
  5
3CA
331
320
  5
410
331
3E2
  5
4DA
331
2E1
  5
3C6
331
39B
  5
488
331
31C
  5
40C
331
3DE
  5
4D6
331
2DD
  5
3C2
331
397
  5
484
331
318
  5
408
331
3DA
  5
4D2
331
2D9
  5
3B5
331
393
  5
480
331
E26
  5
ED5
331
F0E
  5
162
331
235
  5
2CF
331
F0A
  5
164
331
2AF
  5
38B
331
1F6
  5
297
331
F06
  5
16B
331
231
  5
2CB
331
EC7
  5
169
331
2AB
  5
387
331
1F2
  5
293
331
26C
  5
306
331
E1A
  5
F02
331
2A7
  5
383
331
1EE
  5
28F
331
F02
  5
171
331
268
  5
302
331
E97
  5
266
331
229
  5
2CA
331
2A3
  5
37F
331
1EA
  5
28B
331
264
  5
2FE
331
E54
  5
436
331
E93
  5
262
331
260
  5
2FA
331
E50
  5
432
331
E8F
  5
25E
331
50C
  5
EC6
331
E4C
  5
42E
331
E8B
  5
25A
331
45F
  5
E26
331
45B
  5
E22
331
E48
  5
42A
331
4D5
  5
E94
331
41C
  5
52B
331
C07
  5
F0F
331
496
  5
E5A
331
79B
  5
EF8
331
504
  5
EBF
331
457
  5
E1E
331
4D1
  5
E90
331
418
  5
51E
331
17C
  5
219
331
453
  5
E1A
331
4CD
  5
E8C
331
414
  5
515
331
178
  5
215
331
4C9
  5
E88
331
410
  5
50B
331
174
  5
211
331
170
  5
20D
331
314
  5
403
331
3D6
  5
4CE
331
2D5
  5
3B1
331
38F
  5
47C
331
310
  5
3FE
331
3D2
  5
4CA
331
2D1
  5
3AD
331
38B
  5
478
331
30C
  5
3FA
331
3CE
  5
4C6
331
2CD
  5
3A9
331
387
  5
474
331
308
  5
3F6
331
3CA
  5
4C2
331
2C9
  5
3A5
331
383
  5
470
331
EFE
  5
17A
331
EFA
  5
181
331
29F
  5
37B
331
225
  5
2C6
331
EBB
  5
17D
331
221
  5
2C2
331
EB7
  5
286
331
EF6
  5
183
331
29B
  5
377
331
1A2
  5
246
331
25C
  5
2F6
331
EF2
  5
EE9
331
21D
  5
2BE
331
EB3
  5
282
331
297
  5
373
331
19E
  5
242
331
258
  5
2F2
331
E87
  5
256
331
219
  5
2BA
331
293
  5
32D
331
19A
  5
23E
331
254
  5
2EE
331
E44
  5
426
331
E83
  5
252
331
250
  5
2EA
331
797
  5
EF4
331
E40
  5
422
331
E7F
  5
24E
331
793
  5
EF0
331
E3C
  5
41E
331
E7B
  5
24A
331
4FC
  5
EBD
331
44F
  5
C1B
331
78F
  5
EEC
331
E38
  5
4AF
331
4F8
  5
EB9
331
44B
  5
C16
331
4C5
  5
E84
331
40C
  5
4FD
331
486
  5
E4D
331
78B
  5
EE5
331
4F4
  5
EB5
331
447
  5
C12
331
4C1
  5
E80
331
408
  5
4F9
331
482
  5
E49
331
16C
  5
209
331
11D
  5
19F
331
4F0
  5
EAF
331
443
  5
C0E
331
4BD
  5
E7C
331
404
  5
4F6
331
47E
  5
E45
331
168
  5
205
331
119
  5
19B
331
4B9
  5
E78
331
400
  5
4F2
331
47A
  5
E41
331
164
  5
201
331
115
  5
197
331
160
  5
1FD
331
304
  5
3F2
331
3C6
  5
4BE
331
2C5
  5
3A1
331
37F
  5
46C
331
300
  5
3E9
331
3C2
  5
4BA
331
2C1
  5
39D
331
37B
  5
468
331
2FC
  5
3E1
331
3B6
  5
4AC
331
2BD
  5
399
331
377
  5
464
331
2F8
  5
3DD
331
3B2
  5
4A8
331
2B9
  5
395
331
373
  5
460
331
EEE
  5
EFC
331
EAF
  5
27E
331
EEA
  5
F06
331
215
  5
2B6
331
EAB
  5
27A
331
28F
  5
329
331
196
  5
23A
331
EE6
  5
F08
331
EA7
  5
276
331
211
  5
2B2
331
F21
  5
112
331
28B
  5
325
331
24C
  5
2E6
331
192
  5
236
331
EA3
  5
272
331
20D
  5
2AE
331
F1D
  5
144
331
287
  5
321
331
18E
  5
232
331
E77
  5
459
331
248
  5
2E2
331
209
  5
2AA
331
F19
  5
149
331
283
  5
31D
331
18A
  5
227
331
E34
  5
4DF
331
E73
  5
455
331
244
  5
2DE
331
52F
  5
EE0
331
E30
  5
E53
331
E6F
  5
451
331
240
  5
2DA
331
52B
  5
EDC
331
E6B
  5
44D
331
4EC
  5
EAB
331
43F
  5
C0A
331
4E8
  5
EA7
331
43B
  5
C06
331
476
  5
E3D
331
3FC
  5
4EF
331
523
  5
ED7
331
4E4
  5
EA3
331
437
  5
B0F
331
4B1
  5
E75
331
3F8
  5
4EB
331
472
  5
E39
331
15C
  5
1F9
331
10D
  5
193
331
4E0
  5
E9F
331
433
  5
79B
331
4AD
  5
E71
331
3F4
  5
4E5
331
46E
  5
E35
331
158
  5
1F5
331
109
  5
18F
331
4A9
  5
E6D
331
3F0
  5
4E1
331
46A
  5
E31
331
154
  5
1F1
331
105
  5
18B
331
150
  5
1ED
331
3AE
  5
4A4
331
2F4
  5
3D9
331
3AA
  5
4A0
331
2F0
  5
3D5
331
32B
  5
41B
331
3A6
  5
49C
331
2EC
  5
3D1
331
3E9
  5
4DD
331
2E8
  5
3CD
331
3A2
  5
498
331
EDE
  5
FE
331
27F
  5
319
331
205
  5
2A6
331
EDA
  5
11C
331
E2D
  5
EC4
331
27B
  5
315
331
201
  5
2A2
331
F15
  5
158
331
E29
  5
ED1
331
F11
  5
15A
331
23C
  5
2D6
331
ED2
  5
151
331
2B6
  5
392
331
1FD
  5
29E
331
E67
  5
449
331
277
  5
311
331
238
  5
2D2
331
2B2
  5
38E
331
1F9
  5
29A
331
E63
  5
445
331
273
  5
30D
331
E5F
  5
441
331
E9E
  5
26D
331
51B
  5
ED2
331
E5B
  5
43D
331
E9A
  5
269
331
42F
  5
797
331
C16
  5
F1E
331
4A5
  5
E69
331
42B
  5
793
331
513
  5
ECD
331
466
  5
E2D
331
C12
  5
F1A
331
4A1
  5
E65
331
427
  5
78E
331
462
  5
E29
331
4DC
  5
E9B
331
423
  5
78A
331
C0E
  5
F16
331
49D
  5
E61
331
187
  5
224
331
148
  5
1A5
331
4D8
  5
E97
331
C0A
  5
F12
331
499
  5
E5D
331
183
  5
220
331
144
  5
1A4
331
327
  5
417
331
323
  5
413
331
39E
  5
493
331
2E4
  5
3C9
331
31F
  5
40F
331
3E1
  5
4D9
331
2E0
  5
3C5
331
39A
  5
487
331
31B
  5
40B
331
3DD
  5
4D5
331
2DC
  5
3C1
331
396
  5
483
331
3D9
  5
4D1
331
2D8
  5
3B4
331
392
  5
47F
331
E25
  5
EDB
331
F0D
  5
161
331
ECE
  5
160
331
234
  5
2CE
331
F09
  5
167
331
2AE
  5
38A
331
1F5
  5
296
331
26F
  5
309
331
F05
  5
170
331
2AA
  5
386
331
1F1
  5
292
331
EC6
  5
168
331
26B
  5
305
331
F01
  5
177
331
2A6
  5
382
331
1ED
  5
28E
331
EC2
  5
174
331
267
  5
301
331
E57
  5
439
331
E96
  5
265
331
228
  5
2C9
331
2A2
  5
37E
331
1E9
  5
28A
331
263
  5
2FD
331
E53
  5
435
331
E92
  5
261
331
97E
  5
EF9
331
E4F
  5
431
331
E8E
  5
25D
331
50B
  5
EC5
331
E4B
  5
42D
331
E8A
  5
259
331
45E
  5
E25
331
41F
  5
52F
331
45A
  5
E21
331
4D4
  5
E93
331
41B
  5
526
331
C06
  5
F0E
331
495
  5
E59
331
17F
  5
21C
331
79A
  5
EF7
331
456
  5
E1D
331
4D0
  5
E8F
331
417
  5
51D
331
17B
  5
218
331
452
  5
E17
331
4CC
  5
E8B
331
413
  5
513
331
177
  5
214
331
138
  5
1A2
331
4C8
  5
E87
331
489
  5
E50
331
173
  5
210
331
317
  5
406
331
313
  5
402
331
3D5
  5
4CD
331
2D4
  5
3B0
331
38E
  5
47B
331
30F
  5
3FD
331
3D1
  5
4C9
331
2D0
  5
3AC
331
38A
  5
477
331
30B
  5
3F9
331
3CD
  5
4C5
331
2CC
  5
3A8
331
386
  5
473
331
3C9
  5
4C1
331
2C8
  5
3A4
331
382
  5
46F
331
FE
  5
186
331
EFD
  5
179
331
EF9
  5
180
331
224
  5
2C5
331
EBA
  5
17C
331
29E
  5
37A
331
1A5
  5
249
331
25F
  5
2F9
331
220
  5
2C1
331
EB6
  5
285
331
EF5
  5
182
331
29A
  5
376
331
1A1
  5
245
331
25B
  5
2F5
331
EF1
  5
EE8
331
21C
  5
2BD
331
EB2
  5
281
331
296
  5
372
331
19D
  5
241
331
257
  5
2F1
331
E47
  5
429
331
E86
  5
255
331
218
  5
2B9
331
292
  5
32C
331
199
  5
23D
331
253
  5
2ED
331
E43
  5
425
331
E82
  5
251
331
796
  5
EF3
331
E3F
  5
421
331
E7E
  5
24D
331
792
  5
EEF
331
E3B
  5
4B7
331
E7A
  5
45C
331
4FB
  5
EBC
331
44E
  5
C19
331
40F
  5
506
331
4F7
  5
EB8
331
44A
  5
C15
331
4C4
  5
E83
331
40B
  5
4FC
331
485
  5
E4C
331
16F
  5
20C
331
78A
  5
EE4
331
4F3
  5
EB4
331
446
  5
C11
331
4C0
  5
E7F
331
407
  5
4F8
331
481
  5
E48
331
16B
  5
208
331
11C
  5
19E
331
442
  5
C0D
331
4BC
  5
E7B
331
403
  5
4F5
331
47D
  5
E44
331
167
  5
204
331
118
  5
19A
331
4B8
  5
E77
331
479
  5
E40
331
163
  5
200
331
114
  5
196
331
307
  5
3F5
331
303
  5
3F1
331
3C5
  5
4BD
331
2C4
  5
3A0
331
37E
  5
46B
331
2FF
  5
3E8
331
3C1
  5
4B9
331
2C0
  5
39C
331
37A
  5
467
331
2FB
  5
3E0
331
3B5
  5
4AB
331
2BC
  5
398
331
376
  5
463
331
3B1
  5
4A7
331
2B8
  5
394
331
372
  5
45F
331
EED
  5
EFB
331
EAE
  5
27D
331
EE9
  5
F05
331
EAA
  5
279
331
214
  5
2B5
331
28E
  5
328
331
195
  5
239
331
F24
  5
108
331
24F
  5
2E9
331
EE5
  5
F07
331
EA6
  5
275
331
210
  5
2B1
331
F20
  5
10D
331
28A
  5
324
331
24B
  5
2E5
331
191
  5
235
331
EA2
  5
271
331
20C
  5
2AD
331
F1C
  5
11E
331
286
  5
320
331
18D
  5
231
331
E37
  5
4AE
331
E76
  5
458
331
247
  5
2E1
331
208
  5
2A9
331
F18
  5
148
331
282
  5
31C
331
189
  5
226
331
E33
  5
E56
331
E72
  5
454
331
243
  5
2DD
331
52E
  5
EDF
331
E6E
  5
450
331
4EF
  5
EAE
331
4EB
  5
EAA
331
E6A
  5
44C
331
43E
  5
C09
331
3FF
  5
4F1
331
4E7
  5
EA6
331
43A
  5
C05
331
475
  5
E3C
331
3FB
  5
4EE
331
15F
  5
1FC
331
4E3
  5
EA2
331
436
  5
B0E
331
4B0
  5
E74
331
3F7
  5
4EA
331
471
  5
E38
331
15B
  5
1F8
331
10C
  5
192
331
432
  5
79A
331
C1D
  5
F24
331
4AC
  5
E70
331
3F3
  5
4E4
331
46D
  5
E34
331
157
  5
1F4
331
108
  5
18E
331
C19
  5
F21
331
4A8
  5
E6C
331
469
  5
E30
331
153
  5
1F0
331
104
  5
18A
331
100
  5
187
331
2F7
  5
3DC
331
3AD
  5
4A3
331
2F3
  5
3D8
331
3A9
  5
49F
331
2EF
  5
3D4
331
32A
  5
41A
331
3A5
  5
49B
331
2EB
  5
3D0
331
3E8
  5
4DC
331
3A1
  5
497
331
27E
  5
318
331
204
  5
2A5
331
ED9
  5
118
331
E2C
  5
EC3
331
23F
  5
2D9
331
F14
  5
157
331
27A
  5
314
331
200
  5
2A1
331
E28
  5
ED0
331
23B
  5
2D5
331
F10
  5
15D
331
2B5
  5
391
331
1FC
  5
29D
331
E66
  5
448
331
276
  5
310
331
2B1
  5
38D
331
1F8
  5
299
331
E62
  5
444
331
272
  5
30C
331
E5E
  5
440
331
E9D
  5
26C
331
42E
  5
796
331
E5A
  5
43C
331
E99
  5
268
331
C15
  5
F1D
331
4A4
  5
E68
331
42A
  5
792
331
14F
  5
1EC
331
465
  5
E2C
331
4DF
  5
E9E
331
426
  5
78D
331
C11
  5
F19
331
4A0
  5
E64
331
461
  5
E28
331
4DB
  5
E9A
331
422
  5
789
331
C0D
  5
F15
331
49C
  5
E60
331
186
  5
223
331
C09
  5
F11
331
498
  5
E5C
331
182
  5
21F
331
326
  5
416
331
2E7
  5
3CC
331
322
  5
412
331
39D
  5
48A
331
2E3
  5
3C8
331
31E
  5
40E
331
3E0
  5
4D8
331
2DF
  5
3C4
331
399
  5
486
331
31A
  5
40A
331
3DC
  5
4D4
331
2DB
  5
3C0
331
395
  5
482
331
3D8
  5
4D0
331
391
  5
47E
331
531
  5
EE2
331
BC5
  5
F0C
331
E24
  5
EDA
331
F0C
  5
166
331
237
  5
2D1
331
ECD
  5
15F
331
233
  5
2CD
331
F08
  5
16D
331
2AD
  5
389
331
1F4
  5
295
331
26E
  5
308
331
2A9
  5
385
331
1F0
  5
291
331
F04
  5
16F
331
26A
  5
304
331
F00
  5
176
331
2A5
  5
381
331
1EC
  5
28D
331
EC1
  5
173
331
266
  5
300
331
E56
  5
438
331
E95
  5
264
331
2A1
  5
37D
331
1E8
  5
289
331
262
  5
2FC
331
E52
  5
434
331
E91
  5
260
331
E4E
  5
430
331
E8D
  5
25C
331
45D
  5
E24
331
E4A
  5
42C
331
E89
  5
258
331
4D7
  5
E96
331
41E
  5
52E
331
459
  5
E20
331
4D3
  5
E92
331
41A
  5
525
331
C05
  5
F0D
331
494
  5
E58
331
17E
  5
21B
331
799
  5
EF6
331
455
  5
E1C
331
4CF
  5
E8E
331
416
  5
51B
331
17A
  5
217
331
451
  5
C1D
331
4CB
  5
E8A
331
412
  5
50E
331
176
  5
213
331
488
  5
E4F
331
172
  5
20F
331
316
  5
405
331
2D7
  5
3B3
331
312
  5
401
331
3D4
  5
4CC
331
2D3
  5
3AF
331
38D
  5
47A
331
30E
  5
3FC
331
3D0
  5
4C8
331
2CF
  5
3AB
331
389
  5
476
331
30A
  5
3F8
331
3CC
  5
4C4
331
2CB
  5
3A7
331
385
  5
472
331
3C8
  5
4C0
331
381
  5
46E
331
227
  5
2C8
331
EFC
  5
178
331
223
  5
2C4
331
EB9
  5
288
331
EF8
  5
17F
331
29D
  5
379
331
1A4
  5
248
331
25E
  5
2F8
331
21F
  5
2C0
331
EB5
  5
284
331
EF4
  5
185
331
299
  5
375
331
1A0
  5
244
331
25A
  5
2F4
331
EF0
  5
EEB
331
21B
  5
2BC
331
EB1
  5
280
331
295
  5
371
331
19C
  5
240
331
256
  5
2F0
331
E46
  5
428
331
E85
  5
254
331
291
  5
32B
331
198
  5
23C
331
252
  5
2EC
331
E42
  5
424
331
E81
  5
250
331
795
  5
EF2
331
E3E
  5
420
331
E7D
  5
24C
331
791
  5
EEE
331
E3A
  5
4B1
331
E79
  5
45B
331
4FA
  5
EBB
331
44D
  5
C18
331
4C7
  5
E86
331
40E
  5
505
331
78D
  5
EE7
331
4F6
  5
EB7
331
449
  5
C14
331
4C3
  5
E82
331
40A
  5
4FB
331
484
  5
E4B
331
16E
  5
20B
331
789
  5
EE3
331
4F2
  5
EB3
331
445
  5
C10
331
4BF
  5
E7E
331
406
  5
4F7
331
480
  5
E47
331
16A
  5
207
331
11B
  5
19D
331
441
  5
C0C
331
4BB
  5
E7A
331
402
  5
4F4
331
47C
  5
E43
331
166
  5
203
331
117
  5
199
331
478
  5
E3F
331
162
  5
1FF
331
113
  5
195
331
306
  5
3F4
331
2C7
  5
3A3
331
302
  5
3F0
331
3C4
  5
4BC
331
2C3
  5
39F
331
37D
  5
46A
331
2FE
  5
3E3
331
3C0
  5
4B8
331
2BF
  5
39B
331
379
  5
466
331
2FA
  5
3DF
331
3B4
  5
4AA
331
2BB
  5
397
331
375
  5
462
331
3B0
  5
4A6
331
371
  5
45E
331
EEC
  5
EFF
331
217
  5
2B8
331
EAD
  5
27C
331
EE8
  5
F04
331
EA9
  5
278
331
213
  5
2B4
331
28D
  5
327
331
194
  5
238
331
F23
  5
107
331
24E
  5
2E8
331
EE4
  5
F0A
331
EA5
  5
274
331
20F
  5
2B0
331
F1F
  5
10C
331
289
  5
323
331
24A
  5
2E4
331
190
  5
234
331
EA1
  5
270
331
20B
  5
2AC
331
F1B
  5
11D
331
285
  5
31F
331
18C
  5
229
331
E36
  5
4AD
331
E75
  5
457
331
246
  5
2E0
331
EE0
  5
102
331
281
  5
31B
331
188
  5
225
331
E32
  5
E55
331
E71
  5
453
331
242
  5
2DC
331
52D
  5
EDE
331
E6D
  5
44F
331
4EE
  5
EAD
331
4EA
  5
EA9
331
E69
  5
44B
331
4B7
  5
E76
331
43D
  5
C08
331
525
  5
ED9
331
4E6
  5
EA5
331
439
  5
BC5
331
474
  5
E3B
331
3FA
  5
4ED
331
15E
  5
1FB
331
4E2
  5
EA1
331
435
  5
A7B
331
4AF
  5
E73
331
3F6
  5
4E9
331
470
  5
E37
331
15A
  5
1F7
331
10B
  5
191
331
431
  5
799
331
C1C
  5
F23
331
4AB
  5
E6F
331
3F2
  5
4E3
331
46C
  5
E33
331
156
  5
1F3
331
107
  5
18D
331
C18
  5
F20
331
468
  5
E2F
331
152
  5
1EF
331
103
  5
189
331
2F6
  5
3DB
331
3AC
  5
4A2
331
2F2
  5
3D7
331
32D
  5
41D
331
3A8
  5
49E
331
2EE
  5
3D3
331
329
  5
419
331
3A4
  5
49A
331
2EA
  5
3CF
331
3A0
  5
496
331
BAC
  5
4E7
331
207
  5
2A8
331
E2F
  5
E52
331
F17
  5
150
331
27D
  5
317
331
203
  5
2A4
331
ED8
  5
117
331
E2B
  5
ECC
331
F13
  5
15C
331
23E
  5
2D8
331
ED4
  5
156
331
279
  5
313
331
1FF
  5
2A0
331
23A
  5
2D4
331
2B4
  5
390
331
1FB
  5
29C
331
E65
  5
447
331
275
  5
30F
331
2B0
  5
38C
331
E61
  5
443
331
271
  5
30B
331
51D
  5
ED4
331
E5D
  5
43F
331
E9C
  5
26B
331
4A7
  5
E6B
331
42D
  5
795
331
E59
  5
43B
331
E98
  5
267
331
515
  5
ECF
331
C14
  5
F1C
331
4A3
  5
E67
331
429
  5
791
331
14E
  5
1EB
331
464
  5
E2B
331
4DE
  5
E9D
331
425
  5
78C
331
C10
  5
F18
331
49F
  5
E63
331
14A
  5
1E9
331
460
  5
E27
331
4DA
  5
E99
331
421
  5
531
331
C0C
  5
F14
331
49B
  5
E5F
331
185
  5
222
331
C08
  5
F10
331
181
  5
21E
331
325
  5
415
331
2E6
  5
3CB
331
321
  5
411
331
3E3
  5
4DB
331
2E2
  5
3C7
331
39C
  5
489
331
31D
  5
40D
331
3DF
  5
4D7
331
2DE
  5
3C3
331
398
  5
485
331
319
  5
409
331
3DB
  5
4D3
331
2DA
  5
3B6
331
394
  5
481
331
390
  5
47D
331
530
  5
EE1
331
BC4
  5
F0B
331
E27
  5
ED6
331
F0F
  5
163
331
F0B
  5
165
331
236
  5
2D0
331
ECC
  5
15E
331
1F7
  5
298
331
E1F
  5
F00
331
F07
  5
16C
331
232
  5
2CC
331
EC8
  5
16A
331
2AC
  5
388
331
1F3
  5
294
331
26D
  5
307
331
E1B
  5
F03
331
2A8
  5
384
331
1EF
  5
290
331
F03
  5
16E
331
269
  5
303
331
2A4
  5
380
331
1EB
  5
28C
331
EC0
  5
172
331
265
  5
2FF
331
E55
  5
437
331
E94
  5
263
331
2A0
  5
37C
331
261
  5
2FB
331
E51
  5
433
331
E90
  5
25F
331
50D
  5
ECA
331
E4D
  5
42F
331
E8C
  5
25B
331
45C
  5
E23
331
E49
  5
42B
331
E88
  5
257
331
4D6
  5
E95
331
41D
  5
52D
331
497
  5
E5B
331
505
  5
EC0
331
458
  5
E1F
331
4D2
  5
E91
331
419
  5
523
331
493
  5
E57
331
17D
  5
21A
331
13E
  5
1A3
331
798
  5
EF5
331
454
  5
E1B
331
4CE
  5
E8D
331
415
  5
516
331
179
  5
216
331
450
  5
C1C
331
4CA
  5
E89
331
411
  5
50D
331
175
  5
212
331
136
  5
1A1
331
171
  5
20E
331
315
  5
404
331
3D7
  5
4CF
331
2D6
  5
3B2
331
311
  5
3FF
331
3D3
  5
4CB
331
2D2
  5
3AE
331
38C
  5
479
331
30D
  5
3FB
331
3CF
  5
4C7
331
2CE
  5
3AA
331
388
  5
475
331
309
  5
3F7
331
3CB
  5
4C3
331
2CA
  5
3A6
331
384
  5
471
331
380
  5
46D
331
E17
  5
F01
331
EFF
  5
175
331
226
  5
2C7
331
EBC
  5
17E
331
EFB
  5
17B
331
222
  5
2C3
331
EB8
  5
287
331
EF7
  5
184
331
29C
  5
378
331
1A3
  5
247
331
25D
  5
2F7
331
EF3
  5
EEA
331
21E
  5
2BF
331
EB4
  5
283
331
298
  5
374
331
19F
  5
243
331
259
  5
2F3
331
21A
  5
2BB
331
EB0
  5
27F
331
294
  5
370
331
19B
  5
23F
331
255
  5
2EF
331
E45
  5
427
331
E84
  5
253
331
290
  5
32A
331
251
  5
2EB
331
E41
  5
423
331
E80
  5
24F
331
794
  5
EF1
331
E3D
  5
41F
331
E7C
  5
24B
331
4FD
  5
EBE
331
790
  5
EED
331
E39
  5
4B0
331
E78
  5
45A
331
4F9
  5
EBA
331
44C
  5
C17
331
4C6
  5
E85
331
40D
  5
504
331
487
  5
E4E
331
78C
  5
EE6
331
4F5
  5
EB6
331
448
  5
C13
331
4C2
  5
E81
331
409
  5
4FA
331
483
  5
E4A
331
16D
  5
20A
331
11E
  5
1A0
331
4F1
  5
EB2
331
4BE
  5
E7D
331
444
  5
C0F
331
47F
  5
E46
331
169
  5
206
331
11A
  5
19C
331
440
  5
C0B
331
4BA
  5
E79
331
401
  5
4F3
331
47B
  5
E42
331
165
  5
202
331
116
  5
198
331
161
  5
1FE
331
112
  5
194
331
305
  5
3F3
331
3C7
  5
4BF
331
2C6
  5
3A2
331
301
  5
3EA
331
3C3
  5
4BB
331
2C2
  5
39E
331
37C
  5
469
331
2FD
  5
3E2
331
378
  5
465
331
2BE
  5
39A
331
2F9
  5
3DE
331
3B3
  5
4A9
331
2BA
  5
396
331
374
  5
461
331
370
  5
45D
331
EEF
  5
EFD
331
EEB
  5
EFE
331
216
  5
2B7
331
EAC
  5
27B
331
197
  5
23B
331
EE7
  5
F09
331
EA8
  5
277
331
212
  5
2B3
331
28C
  5
326
331
193
  5
237
331
F22
  5
106
331
24D
  5
2E7
331
EA4
  5
273
331
20E
  5
2AF
331
F1E
  5
116
331
288
  5
322
331
18F
  5
233
331
249
  5
2E3
331
EA0
  5
26F
331
20A
  5
2AB
331
F1A
  5
14F
331
284
  5
31E
331
18B
  5
228
331
E35
  5
4E0
331
E74
  5
456
331
245
  5
2DF
331
280
  5
31A
331
E31
  5
E54
331
E70
  5
452
331
241
  5
2DB
331
52C
  5
EDD
331
E6C
  5
44E
331
4ED
  5
EAC
331
4E9
  5
EA8
331
E68
  5
44A
331
43C
  5
C07
331
477
  5
E3E
331
3FD
  5
4F0
331
524
  5
ED8
331
4E5
  5
EA4
331
438
  5
BC4
331
473
  5
E3A
331
3F9
  5
4EC
331
15D
  5
1FA
331
4E1
  5
EA0
331
434
  5
97E
331
4AE
  5
E72
331
3F5
  5
4E8
331
46F
  5
E36
331
159
  5
1F6
331
10A
  5
190
331
430
  5
798
331
C1B
  5
F22
331
4AA
  5
E6E
331
3F1
  5
4E2
331
46B
  5
E32
331
155
  5
1F2
331
106
  5
18C
331
151
  5
1EE
331
102
  5
188
  0
XRECORD
  5
F2A
102
{ACAD_REACTORS
330
F28
102
}
330
F28
100
AcDbXrecord
280
     1
 70
     2
  0
XRECORD
  5
F29
102
{ACAD_REACTORS
330
F28
102
}
330
F28
100
AcDbXrecord
280
     1
 40
1.25
  0
XRECORD
  5
F2B
102
{ACAD_REACTORS
330
F28
102
}
330
F28
100
AcDbXrecord
280
     1
 40
1.570796326794896
  0
LAYOUT
  5
6E
102
{ACAD_XDICTIONARY
360
F5F
102
}
102
{ACAD_REACTORS
330
61
102
}
330
61
100
AcDbPlotSettings
  1

  2
FX DP 205
  4
A4
  6

 40
4.942416191101074
 41
4.942413330078125
 42
4.942398071289061
 43
4.942413330078125
 44
209.9733276367186
 45
296.9683227539062
 46
0.0
 47
0.0
 48
529.0077609999998
 49
-1279.351723
140
939.007761
141
-997.351723
142
1.0
143
1.410922572876564
 70
 28336
 72
     1
 73
     1
 74
     1
  7
n-plot.ctb
 75
     0
147
0.7087561140660013
148
205.0133595264678
149
135.5095391625302
100
AcDbLayout
  1
Model
 70
     1
 71
     0
 10
0.0
 20
0.0
 11
12.0
 21
9.0
 12
0.0
 22
0.0
 32
0.0
 14
0.0
 24
0.0
 34
0.0
 15
0.0
 25
0.0
 35
0.0
146
0.0
 13
0.0
 23
0.0
 33
0.0
 16
1.0
 26
0.0
 36
0.0
 17
0.0
 27
1.0
 37
0.0
 76
     0
330
6B
331
8B
1001
ACAD_PSEXT
1000
FX DP 205
1000
FX DP 205
1000
設計角
1000

1070
     0
  0
LAYOUT
  5
6A
102
{ACAD_XDICTIONARY
360
F5D
102
}
102
{ACAD_REACTORS
330
61
102
}
330
61
100
AcDbPlotSettings
  1

  2
FX DP 205
  4

  6

 40
0.0
 41
0.0
 42
0.0
 43
0.0
 44
0.0
 45
0.0
 46
0.0
 47
0.0
 48
0.0
 49
0.0
140
0.0
141
0.0
142
1.0
143
1.0
 70
   688
 72
     0
 73
     0
 74
     5
  7

 75
    16
147
1.0
148
0.0
149
0.0
100
AcDbLayout
  1
レイアウト1
 70
     1
 71
     1
 10
0.0
 20
0.0
 11
12.0
 21
9.0
 12
0.0
 22
0.0
 32
0.0
 14
1.000000000000000E+20
 24
1.000000000000000E+20
 34
1.000000000000000E+20
 15
-1.000000000000000E+20
 25
-1.000000000000000E+20
 35
-1.000000000000000E+20
146
0.0
 13
0.0
 23
0.0
 33
0.0
 16
1.0
 26
0.0
 36
0.0
 17
0.0
 27
1.0
 37
0.0
 76
     0
330
67
  0
MATERIAL
  5
19
102
{ACAD_XDICTIONARY
360
1A
102
}
102
{ACAD_REACTORS
330
10
102
}
330
10
100
AcDbMaterial
  1
ByBlock
 72
     0
 43
0.0208333333333333
 43
0.0
 43
0.0
 43
0.0
 43
0.0
 43
0.0208333333333333
 43
0.0
 43
0.0
 43
0.0
 43
0.0
 43
1.0
 43
0.0
 43
0.0
 43
0.0
 43
0.0
 43
1.0
 77
     0
 47
0.0208333333333333
 47
0.0
 47
0.0
 47
0.0
 47
0.0
 47
0.0208333333333333
 47
0.0
 47
0.0
 47
0.0
 47
0.0
 47
1.0
 47
0.0
 47
0.0
 47
0.0
 47
0.0
 47
1.0
171
     0
 49
0.0208333333333333
 49
0.0
 49
0.0
 49
0.0
 49
0.0
 49
0.0208333333333333
 49
0.0
 49
0.0
 49
0.0
 49
0.0
 49
1.0
 49
0.0
 49
0.0
 49
0.0
 49
0.0
 49
1.0
175
     0
142
0.0208333333333333
142
0.0
142
0.0
142
0.0
142
0.0
142
0.0208333333333333
142
0.0
142
0.0
142
0.0
142
0.0
142
1.0
142
0.0
142
0.0
142
0.0
142
0.0
142
1.0
179
     0
144
0.0208333333333333
144
0.0
144
0.0
144
0.0
144
0.0
144
0.0208333333333333
144
0.0
144
0.0
144
0.0
144
0.0
144
1.0
144
0.0
144
0.0
144
0.0
144
0.0
144
1.0
147
0.0208333333333333
147
0.0
147
0.0
147
0.0
147
0.0
147
0.0208333333333333
147
0.0
147
0.0
147
0.0
147
0.0
147
1.0
147
0.0
147
0.0
147
0.0
147
0.0
147
1.0
  0
MATERIAL
  5
11
102
{ACAD_XDICTIONARY
360
12
102
}
102
{ACAD_REACTORS
330
10
102
}
330
10
100
AcDbMaterial
  1
ByLayer
 72
     0
 43
0.0208333333333333
 43
0.0
 43
0.0
 43
0.0
 43
0.0
 43
0.0208333333333333
 43
0.0
 43
0.0
 43
0.0
 43
0.0
 43
1.0
 43
0.0
 43
0.0
 43
0.0
 43
0.0
 43
1.0
 77
     0
 47
0.0208333333333333
 47
0.0
 47
0.0
 47
0.0
 47
0.0
 47
0.0208333333333333
 47
0.0
 47
0.0
 47
0.0
 47
0.0
 47
1.0
 47
0.0
 47
0.0
 47
0.0
 47
0.0
 47
1.0
171
     0
 49
0.0208333333333333
 49
0.0
 49
0.0
 49
0.0
 49
0.0
 49
0.0208333333333333
 49
0.0
 49
0.0
 49
0.0
 49
0.0
 49
1.0
 49
0.0
 49
0.0
 49
0.0
 49
0.0
 49
1.0
175
     0
142
0.0208333333333333
142
0.0
142
0.0
142
0.0
142
0.0
142
0.0208333333333333
142
0.0
142
0.0
142
0.0
142
0.0
142
1.0
142
0.0
142
0.0
142
0.0
142
0.0
142
1.0
179
     0
144
0.0208333333333333
144
0.0
144
0.0
144
0.0
144
0.0
144
0.0208333333333333
144
0.0
144
0.0
144
0.0
144
0.0
144
1.0
144
0.0
144
0.0
144
0.0
144
0.0
144
1.0
147
0.0208333333333333
147
0.0
147
0.0
147
0.0
147
0.0
147
0.0208333333333333
147
0.0
147
0.0
147
0.0
147
0.0
147
1.0
147
0.0
147
0.0
147
0.0
147
0.0
147
1.0
  0
MATERIAL
  5
21
102
{ACAD_XDICTIONARY
360
22
102
}
102
{ACAD_REACTORS
330
10
102
}
330
10
100
AcDbMaterial
  1
Global
 72
     0
 43
0.0208333333333333
 43
0.0
 43
0.0
 43
0.0
 43
0.0
 43
0.0208333333333333
 43
0.0
 43
0.0
 43
0.0
 43
0.0
 43
1.0
 43
0.0
 43
0.0
 43
0.0
 43
0.0
 43
1.0
 77
     0
 47
0.0208333333333333
 47
0.0
 47
0.0
 47
0.0
 47
0.0
 47
0.0208333333333333
 47
0.0
 47
0.0
 47
0.0
 47
0.0
 47
1.0
 47
0.0
 47
0.0
 47
0.0
 47
0.0
 47
1.0
171
     0
 49
0.0208333333333333
 49
0.0
 49
0.0
 49
0.0
 49
0.0
 49
0.0208333333333333
 49
0.0
 49
0.0
 49
0.0
 49
0.0
 49
1.0
 49
0.0
 49
0.0
 49
0.0
 49
0.0
 49
1.0
175
     0
142
0.0208333333333333
142
0.0
142
0.0
142
0.0
142
0.0
142
0.0208333333333333
142
0.0
142
0.0
142
0.0
142
0.0
142
1.0
142
0.0
142
0.0
142
0.0
142
0.0
142
1.0
179
     0
144
0.0208333333333333
144
0.0
144
0.0
144
0.0
144
0.0
144
0.0208333333333333
144
0.0
144
0.0
144
0.0
144
0.0
144
1.0
144
0.0
144
0.0
144
0.0
144
0.0
144
1.0
147
0.0208333333333333
147
0.0
147
0.0
147
0.0
147
0.0
147
0.0208333333333333
147
0.0
147
0.0
147
0.0
147
0.0
147
1.0
147
0.0
147
0.0
147
0.0
147
0.0
147
1.0
  0
MLEADERSTYLE
  5
66
102
{ACAD_REACTORS
330
65
102
}
330
65
100
AcDbMLeaderStyle
170
     2
171
     1
172
     0
 90
        2
 40
0.0
 41
0.0
173
     1
 91
-1056964608
340
5A
 92
       -2
290
     1
 42
0.09
291
     1
 43
0.36
  3
Standard
 44
0.18
300

342
55
174
     1
178
     6
175
     1
176
     0
 93
-1056964608
 45
0.18
292
     0
297
     0
 46
0.18
 94
-1056964608
 47
1.0
 49
1.0
140
1.0
293
     1
141
0.0
294
     1
177
     0
142
1.0
295
     0
296
     0
143
0.125
1001
ACAD_MLEADERVER
1070
     2
  0
MLINESTYLE
  5
5F
102
{ACAD_REACTORS
330
5E
102
}
330
5E
100
AcDbMlineStyle
  2
STANDARD
 70
     0
  3

 62
   256
 51
90.0
 52
90.0
 71
     2
 49
0.5
 62
   256
  6
BYLAYER
 49
-0.5
 62
   256
  6
BYLAYER
  0
ACDBPLACEHOLDER
  5
F
102
{ACAD_REACTORS
330
E
102
}
330
E
  0
SCALE
  5
43
102
{ACAD_REACTORS
330
42
102
}
330
42
100
AcDbScale
 70
     0
300
1:1
140
1.0
141
1.0
290
     1
  0
SCALE
  5
44
102
{ACAD_REACTORS
330
42
102
}
330
42
100
AcDbScale
 70
     0
300
1/128" = 1'-0"
140
0.0078125
141
12.0
290
     0
  0
SCALE
  5
45
102
{ACAD_REACTORS
330
42
102
}
330
42
100
AcDbScale
 70
     0
300
1/64" = 1'-0"
140
0.015625
141
12.0
290
     0
  0
SCALE
  5
46
102
{ACAD_REACTORS
330
42
102
}
330
42
100
AcDbScale
 70
     0
300
1/32" = 1'-0"
140
0.03125
141
12.0
290
     0
  0
SCALE
  5
47
102
{ACAD_REACTORS
330
42
102
}
330
42
100
AcDbScale
 70
     0
300
1/16" = 1'-0"
140
0.0625
141
12.0
290
     0
  0
SCALE
  5
48
102
{ACAD_REACTORS
330
42
102
}
330
42
100
AcDbScale
 70
     0
300
3/32" = 1'-0"
140
0.09375
141
12.0
290
     0
  0
SCALE
  5
49
102
{ACAD_REACTORS
330
42
102
}
330
42
100
AcDbScale
 70
     0
300
1/8" = 1'-0"
140
0.125
141
12.0
290
     0
  0
SCALE
  5
4A
102
{ACAD_REACTORS
330
42
102
}
330
42
100
AcDbScale
 70
     0
300
3/16" = 1'-0"
140
0.1875
141
12.0
290
     0
  0
SCALE
  5
4B
102
{ACAD_REACTORS
330
42
102
}
330
42
100
AcDbScale
 70
     0
300
1/4" = 1'-0"
140
0.25
141
12.0
290
     0
  0
SCALE
  5
4C
102
{ACAD_REACTORS
330
42
102
}
330
42
100
AcDbScale
 70
     0
300
3/8" = 1'-0"
140
0.375
141
12.0
290
     0
  0
SCALE
  5
4D
102
{ACAD_REACTORS
330
42
102
}
330
42
100
AcDbScale
 70
     0
300
1/2" = 1'-0"
140
0.5
141
12.0
290
     0
  0
SCALE
  5
4E
102
{ACAD_REACTORS
330
42
102
}
330
42
100
AcDbScale
 70
     0
300
3/4" = 1'-0"
140
0.75
141
12.0
290
     0
  0
SCALE
  5
4F
102
{ACAD_REACTORS
330
42
102
}
330
42
100
AcDbScale
 70
     0
300
1" = 1'-0"
140
1.0
141
12.0
290
     0
  0
SCALE
  5
50
102
{ACAD_REACTORS
330
42
102
}
330
42
100
AcDbScale
 70
     0
300
1-1/2" = 1'-0"
140
1.5
141
12.0
290
     0
  0
SCALE
  5
51
102
{ACAD_REACTORS
330
42
102
}
330
42
100
AcDbScale
 70
     0
300
3" = 1'-0"
140
3.0
141
12.0
290
     0
  0
SCALE
  5
52
102
{ACAD_REACTORS
330
42
102
}
330
42
100
AcDbScale
 70
     0
300
6" = 1'-0"
140
6.0
141
12.0
290
     0
  0
SCALE
  5
53
102
{ACAD_REACTORS
330
42
102
}
330
42
100
AcDbScale
 70
     0
300
1'-0" = 1'-0"
140
12.0
141
12.0
290
     0
  0
TABLESTYLE
  5
64
102
{ACAD_XDICTIONARY
360
847
102
}
102
{ACAD_REACTORS
330
63
102
}
330
63
100
AcDbTableStyle
  3
Standard
 70
     0
 71
     0
 40
0.06
 41
0.06
280
     0
281
     0
  7
STANDARD
140
0.18
170
     2
 62
     0
 63
     7
283
     0
274
    -2
284
     1
 64
     0
275
    -2
285
     1
 65
     0
276
    -2
286
     1
 66
     0
277
    -2
287
     1
 67
     0
278
    -2
288
     1
 68
     0
279
    -2
289
     1
 69
     0
  7
STANDARD
140
0.25
170
     5
 62
     0
 63
     7
283
     0
274
    -2
284
     1
 64
     0
275
    -2
285
     1
 65
     0
276
    -2
286
     1
 66
     0
277
    -2
287
     1
 67
     0
278
    -2
288
     1
 68
     0
279
    -2
289
     1
 69
     0
  7
STANDARD
140
0.18
170
     5
 62
     0
 63
     7
283
     0
274
    -2
284
     1
 64
     0
275
    -2
285
     1
 65
     0
276
    -2
286
     1
 66
     0
277
    -2
287
     1
 67
     0
278
    -2
288
     1
 68
     0
279
    -2
289
     1
 69
     0
  0
VISUALSTYLE
  5
2F
102
{ACAD_XDICTIONARY
360
F36
102
}
102
{ACAD_REACTORS
330
29
102
}
330
29
100
AcDbVisualStyle
  2

 70
     4
 71
     0
 72
     2
 73
     0
 90
        0
 40
-0.6
 41
-30.0
 62
     5
 63
     7
 74
     1
 91
        4
 64
     7
 65
   257
 75
     1
175
     1
 42
1.0
 92
        0
 66
   257
 43
1.0
 76
     1
 77
     6
 78
     2
 67
     7
 79
     5
170
     0
171
     0
290
     0
174
     0
 93
        1
 44
0.0
173
     0
291
     0
 45
0.0
1001
ACAD
1000
AcDbSavedByObjectVersion
1070
     0
  0
VISUALSTYLE
  5
5D7
102
{ACAD_XDICTIONARY
360
F61
102
}
102
{ACAD_REACTORS
330
29
102
}
330
29
100
AcDbVisualStyle
  2

 70
     5
 71
     0
 72
     2
 73
     1
 90
        0
 40
-0.6
 41
-30.0
 62
     5
 63
     7
 74
     1
 91
        4
 64
     7
 65
   257
 75
     1
175
     1
 42
1.0
 92
        0
 66
   257
 43
1.0
 76
     1
 77
     6
 78
     2
 67
     7
 79
     5
170
     0
171
     0
290
     0
174
     0
 93
        1
 44
0.0
173
     0
291
     0
 45
0.0
1001
ACAD
1000
AcDbSavedByObjectVersion
1070
     0
  0
VISUALSTYLE
  5
2E
102
{ACAD_XDICTIONARY
360
F34
102
}
102
{ACAD_REACTORS
330
29
102
}
330
29
100
AcDbVisualStyle
  2

 70
     7
 71
     1
 72
     0
 73
     1
 90
        0
 40
-0.6
 41
-30.0
 62
     5
 63
     7
 74
     0
 91
        4
 64
     7
 65
   257
 75
     1
175
     1
 42
1.0
 92
        8
 66
     7
 43
1.0
 76
     1
 77
     6
 78
     2
 67
     7
 79
     5
170
     0
171
     0
290
     0
174
     0
 93
        1
 44
0.0
173
     0
291
     1
 45
0.0
1001
ACAD
1000
AcDbSavedByObjectVersion
1070
     0
  0
VISUALSTYLE
  5
35
102
{ACAD_XDICTIONARY
360
F42
102
}
102
{ACAD_REACTORS
330
29
102
}
330
29
100
AcDbVisualStyle
  2

 70
    12
 71
     2
 72
     2
 73
     0
 90
        0
 40
-0.6
 41
-30.0
 62
     5
 63
     7
 74
     1
 91
        4
 64
     7
 65
   257
 75
     1
175
     1
 42
1.0
 92
        8
 66
     7
 43
1.0
 76
     1
 77
     6
 78
     2
 67
     7
 79
     5
170
     0
171
     0
290
     0
174
     0
 93
        1
 44
50.0
173
     0
291
     1
 45
0.0
1001
ACAD
1000
AcDbSavedByObjectVersion
1070
     0
  0
VISUALSTYLE
  5
39
102
{ACAD_XDICTIONARY
360
F4A
102
}
102
{ACAD_REACTORS
330
29
102
}
330
29
100
AcDbVisualStyle
  2

 70
    16
 71
     2
 72
     2
 73
     3
 90
        0
 40
-0.6
 41
-30.0
 62
     5
 63
     8
 74
     1
 91
        4
 64
     7
 65
   257
 75
     1
175
     1
 42
1.0
 92
        8
 66
     8
 43
1.0
 76
     1
 77
     6
 78
     2
 67
     7
 79
     5
170
     0
171
     0
290
     0
174
     0
 93
        1
 44
0.0
173
     0
291
     1
 45
0.0
1001
ACAD
1000
AcDbSavedByObjectVersion
1070
     0
  0
VISUALSTYLE
  5
32
102
{ACAD_XDICTIONARY
360
F3C
102
}
102
{ACAD_REACTORS
330
29
102
}
330
29
100
AcDbVisualStyle
  2

 70
     9
 71
     3
 72
     2
 73
     0
 90
        0
 40
-0.6
 41
-30.0
 62
     5
 63
     7
 74
     2
 91
        2
 64
     7
 65
   257
 75
     1
175
     1
 42
179.0
 92
        8
 66
     7
 43
1.0
 76
     1
 77
     6
 78
     2
 67
     7
 79
     3
170
     0
171
     0
290
     0
174
     0
 93
        1
 44
0.0
173
     0
291
     0
 45
0.0
1001
ACAD
1000
AcDbSavedByObjectVersion
1070
     0
  0
VISUALSTYLE
  5
34
102
{ACAD_XDICTIONARY
360
F40
102
}
102
{ACAD_REACTORS
330
29
102
}
330
29
100
AcDbVisualStyle
  2

 70
    11
 71
     2
 72
     2
 73
     0
 90
        0
 40
-0.6
 41
-30.0
 62
     5
 63
     7
 74
     1
 91
        4
 64
     7
 65
   257
 75
     1
175
     1
 42
1.0
 92
        8
 66
     7
 43
1.0
 76
     1
 77
     6
 78
     2
 67
     7
 79
     5
170
     0
171
     0
290
     0
174
     0
 93
        1
 44
-50.0
173
     0
291
     1
 45
0.0
1001
ACAD
1000
AcDbSavedByObjectVersion
1070
     0
  0
VISUALSTYLE
  5
41
102
{ACAD_XDICTIONARY
360
F5A
102
}
102
{ACAD_REACTORS
330
29
102
}
330
29
100
AcDbVisualStyle
  2

 70
    22
 71
     2
 72
     2
 73
     0
 90
        0
 40
-0.6
 41
-30.0
 62
     5
 63
     7
 74
     1
 91
        4
 64
     7
 65
   257
 75
     1
175
     1
 42
1.0
 92
        8
 66
     7
 43
1.0
 76
     1
 77
     6
 78
     2
 67
     7
 79
     5
170
     0
171
     0
290
     0
174
     0
 93
        1
 44
0.0
173
     0
291
     1
 45
0.0
1001
ACAD
1000
AcDbSavedByObjectVersion
1070
     0
  0
VISUALSTYLE
  5
38
102
{ACAD_XDICTIONARY
360
F48
102
}
102
{ACAD_REACTORS
330
29
102
}
330
29
100
AcDbVisualStyle
  2

 70
    15
 71
     2
 72
     2
 73
     0
 90
        0
 40
-0.6
 41
-30.0
 62
     5
 63
     7
 74
     1
 91
        4
 64
     7
 65
   257
 75
     1
175
     1
 42
1.0
 92
        8
 66
     7
 43
1.0
 76
     1
 77
     6
 78
     2
 67
     7
 79
     5
170
     0
171
     0
290
     0
174
     0
 93
        1
 44
0.0
173
     0
291
     1
 45
0.0
1001
ACAD
1000
AcDbSavedByObjectVersion
1070
     0
  0
VISUALSTYLE
  5
2A
102
{ACAD_XDICTIONARY
360
F2C
102
}
102
{ACAD_REACTORS
330
29
102
}
330
29
100
AcDbVisualStyle
  2

 70
     0
 71
     2
 72
     1
 73
     1
 90
        2
 40
-0.6
 41
30.0
 62
     5
 63
     7
 74
     0
 91
        0
 64
     7
 65
   257
 75
     1
175
     1
 42
1.0
 92
        8
 66
     7
 43
1.0
 76
     1
 77
     6
 78
     2
 67
     7
 79
     5
170
     0
171
     0
290
     0
174
     0
 93
       13
 44
0.0
173
     0
291
     1
 45
0.0
1001
ACAD
1000
AcDbSavedByObjectVersion
1070
     0
  0
VISUALSTYLE
  5
2B
102
{ACAD_XDICTIONARY
360
F2E
102
}
102
{ACAD_REACTORS
330
29
102
}
330
29
100
AcDbVisualStyle
  2

 70
     1
 71
     2
 72
     1
 73
     1
 90
        2
 40
-0.6
 41
30.0
 62
     5
 63
     7
 74
     1
 91
        0
 64
     7
 65
   257
 75
     1
175
     1
 42
1.0
 92
        0
 66
   257
 43
1.0
 76
     1
 77
     6
 78
     2
 67
     7
 79
     5
170
     0
171
     0
290
     0
174
     0
 93
       13
 44
0.0
173
     0
291
     1
 45
0.0
1001
ACAD
1000
AcDbSavedByObjectVersion
1070
     0
  0
VISUALSTYLE
  5
2C
102
{ACAD_XDICTIONARY
360
F30
102
}
102
{ACAD_REACTORS
330
29
102
}
330
29
100
AcDbVisualStyle
  2

 70
     2
 71
     2
 72
     2
 73
     1
 90
        2
 40
-0.6
 41
30.0
 62
     5
 63
     7
 74
     0
 91
        0
 64
     7
 65
   257
 75
     1
175
     1
 42
1.0
 92
        0
 66
     7
 43
1.0
 76
     1
 77
     6
 78
     2
 67
     7
 79
     5
170
     0
171
     0
290
     0
174
     0
 93
       13
 44
0.0
173
     0
291
     1
 45
0.0
1001
ACAD
1000
AcDbSavedByObjectVersion
1070
     0
  0
VISUALSTYLE
  5
2D
102
{ACAD_XDICTIONARY
360
F32
102
}
102
{ACAD_REACTORS
330
29
102
}
330
29
100
AcDbVisualStyle
  2

 70
     3
 71
     2
 72
     2
 73
     1
 90
        2
 40
-0.6
 41
30.0
 62
     5
 63
     7
 74
     1
 91
        0
 64
     7
 65
   257
 75
     1
175
     1
 42
1.0
 92
        0
 66
   257
 43
1.0
 76
     1
 77
     6
 78
     2
 67
     7
 79
     5
170
     0
171
     0
290
     0
174
     0
 93
       13
 44
0.0
173
     0
291
     1
 45
0.0
1001
ACAD
1000
AcDbSavedByObjectVersion
1070
     0
  0
VISUALSTYLE
  5
31
102
{ACAD_XDICTIONARY
360
F3A
102
}
102
{ACAD_REACTORS
330
29
102
}
330
29
100
AcDbVisualStyle
  2

 70
     6
 71
     1
 72
     2
 73
     2
 90
        0
 40
-0.6
 41
-30.0
 62
     5
 63
     7
 74
     2
 91
        2
 64
     7
 65
   257
 75
     2
175
     1
 42
40.0
 92
        0
 66
   257
 43
1.0
 76
     1
 77
     6
 78
     2
 67
     7
 79
     3
170
     0
171
     0
290
     0
174
     0
 93
        1
 44
0.0
173
     0
291
     0
 45
0.0
1001
ACAD
1000
AcDbSavedByObjectVersion
1070
     0
  0
VISUALSTYLE
  5
3F
102
{ACAD_XDICTIONARY
360
F56
102
}
102
{ACAD_REACTORS
330
29
102
}
330
29
100
AcDbVisualStyle
  2

 70
    20
 71
     2
 72
     2
 73
     0
 90
        0
 40
-0.6
 41
-30.0
 62
     5
 63
     7
 74
     1
 91
        4
 64
     7
 65
   257
 75
     1
175
     1
 42
1.0
 92
       10
 66
     7
 43
1.0
 76
     1
 77
     6
 78
     2
 67
     7
 79
     5
170
     0
171
     0
290
     0
174
     0
 93
        1
 44
0.0
173
     0
291
     1
 45
0.0
1001
ACAD
1000
AcDbSavedByObjectVersion
1070
     0
  0
VISUALSTYLE
  5
37
102
{ACAD_XDICTIONARY
360
F46
102
}
102
{ACAD_REACTORS
330
29
102
}
330
29
100
AcDbVisualStyle
  2

 70
    14
 71
     2
 72
     2
 73
     0
 90
        0
 40
-0.6
 41
-30.0
 62
     5
 63
     7
 74
     1
 91
        4
 64
     7
 65
   257
 75
     7
175
     7
 42
1.0
 92
        8
 66
     7
 43
1.0
 76
     1
 77
     6
 78
     2
 67
     7
 79
     5
170
     0
171
     0
290
     0
174
     0
 93
        1
 44
0.0
173
     0
291
     1
 45
0.0
1001
ACAD
1000
AcDbSavedByObjectVersion
1070
     0
  0
VISUALSTYLE
  5
40
102
{ACAD_XDICTIONARY
360
F58
102
}
102
{ACAD_REACTORS
330
29
102
}
330
29
100
AcDbVisualStyle
  2

 70
    21
 71
     2
 72
     2
 73
     0
 90
        0
 40
-0.6
 41
-30.0
 62
     5
 63
     7
 74
     1
 91
        4
 64
     7
 65
   257
 75
     1
175
     1
 42
1.0
 92
        9
 66
     7
 43
1.0
 76
     1
 77
     6
 78
     2
 67
     7
 79
     5
170
     0
171
     0
290
     0
174
     0
 93
        1
 44
0.0
173
     0
291
     1
 45
0.0
1001
ACAD
1000
AcDbSavedByObjectVersion
1070
     0
  0
VISUALSTYLE
  5
33
102
{ACAD_XDICTIONARY
360
F3E
102
}
102
{ACAD_REACTORS
330
29
102
}
330
29
100
AcDbVisualStyle
  2

 70
     8
 71
     2
 72
     3
 73
     0
 90
        2
 40
-0.6
 41
30.0
 62
     5
 63
     7
 74
     0
 91
        0
 64
     7
 65
   257
 75
     1
175
     1
 42
1.0
 92
        8
 66
   257
 43
1.0
 76
     1
 77
     6
 78
     2
 67
     7
 79
     3
170
     0
171
     0
290
     0
174
     0
 93
       13
 44
0.0
173
     0
291
     0
 45
0.0
1001
ACAD
1000
AcDbSavedByObjectVersion
1070
     0
  0
VISUALSTYLE
  5
3E
102
{ACAD_XDICTIONARY
360
F54
102
}
102
{ACAD_REACTORS
330
29
102
}
330
29
100
AcDbVisualStyle
  2

 70
    27
 71
     2
 72
     2
 73
     1
 90
        2
 40
-0.6
 41
30.0
 62
     5
 63
     7
 74
     0
 91
        4
 64
     7
 65
   257
 75
     1
175
     1
 42
1.0
 92
        8
 66
   257
 43
1.0
 76
     1
 77
     6
 78
     2
 67
     8
 79
     3
170
     0
171
     0
290
     0
174
     0
 93
        5
 44
0.0
173
     0
291
     0
 45
0.0
1001
ACAD
1000
AcDbSavedByObjectVersion
1070
     0
  0
VISUALSTYLE
  5
3D
102
{ACAD_XDICTIONARY
360
F52
102
}
102
{ACAD_REACTORS
330
29
102
}
330
29
100
AcDbVisualStyle
  2

 70
    26
 71
     2
 72
     2
 73
     1
 90
        2
 40
-0.6
 41
30.0
 62
     5
 63
     7
 74
     1
 91
       10
 64
     7
 65
   257
 75
     2
175
     1
 42
1.0
 92
        8
 66
   257
 43
1.0
 76
     1
 77
     6
 78
     2
 67
     7
 79
     3
170
     0
171
     0
290
     0
174
     0
 93
        5
 44
0.0
173
     0
291
     0
 45
0.0
1001
ACAD
1000
AcDbSavedByObjectVersion
1070
     0
  0
VISUALSTYLE
  5
3A
102
{ACAD_XDICTIONARY
360
F4C
102
}
102
{ACAD_REACTORS
330
29
102
}
330
29
100
AcDbVisualStyle
  2

 70
    23
 71
     2
 72
     2
 73
     3
 90
        0
 40
-0.6
 41
-30.0
 62
     5
 63
     7
 74
     2
 91
        2
 64
     7
 65
     7
 75
     1
175
     1
 42
40.0
 92
        8
 66
     7
 43
1.0
 76
     1
 77
     6
 78
     2
 67
     7
 79
     3
170
     0
171
     0
290
     0
174
     0
 93
        1
 44
0.0
173
     0
291
     0
 45
0.0
1001
ACAD
1000
AcDbSavedByObjectVersion
1070
     0
  0
VISUALSTYLE
  5
3B
102
{ACAD_XDICTIONARY
360
F4E
102
}
102
{ACAD_REACTORS
330
29
102
}
330
29
100
AcDbVisualStyle
  2

 70
    24
 71
     1
 72
     2
 73
     2
 90
        0
 40
-0.6
 41
-30.0
 62
     5
 63
     7
 74
     2
 91
        2
 64
     7
 65
     7
 75
     1
175
     1
 42
40.0
 92
       11
 66
     7
 43
1.0
 76
     1
 77
     6
 78
     2
 67
     7
 79
     6
170
     0
171
     0
290
     0
174
     0
 93
        1
 44
0.0
173
     0
291
     0
 45
0.0
1001
ACAD
1000
AcDbSavedByObjectVersion
1070
     0
  0
VISUALSTYLE
  5
36
102
{ACAD_XDICTIONARY
360
F44
102
}
102
{ACAD_REACTORS
330
29
102
}
330
29
100
AcDbVisualStyle
  2

 70
    13
 71
     2
 72
     2
 73
     0
 90
        0
 40
-0.6
 41
-30.0
 62
     5
 63
     7
 74
     1
 91
        4
 64
     7
 65
   257
 75
     1
175
     1
 42
1.0
 92
       12
 66
     7
 43
1.0
 76
     1
 77
     6
 78
     2
 67
     7
 79
     5
170
     0
171
     0
290
     0
174
     0
 93
        1
 44
0.0
173
     0
291
     1
 45
0.0
1001
ACAD
1000
AcDbSavedByObjectVersion
1070
     0
  0
VISUALSTYLE
  5
30
102
{ACAD_XDICTIONARY
360
F38
102
}
102
{ACAD_REACTORS
330
29
102
}
330
29
100
AcDbVisualStyle
  2

 70
     5
 71
     0
 72
     2
 73
     0
 90
        0
 40
-0.6
 41
-30.0
 62
     5
 63
     7
 74
     1
 91
        4
 64
     7
 65
   257
 75
     1
175
     1
 42
1.0
 92
        0
 66
   257
 43
1.0
 76
     1
 77
     6
 78
     2
 67
     7
 79
     3
170
     0
171
     0
290
     0
174
     0
 93
        1
 44
0.0
173
     0
291
     0
 45
0.0
1001
ACAD
1000
AcDbSavedByObjectVersion
1070
     0
  0
VISUALSTYLE
  5
3C
102
{ACAD_XDICTIONARY
360
F50
102
}
102
{ACAD_REACTORS
330
29
102
}
330
29
100
AcDbVisualStyle
  2

 70
    25
 71
     2
 72
     2
 73
     1
 90
        1
 40
0.5
 41
-30.0
 62
     5
 63
     7
 74
     1
 91
        0
 64
     7
 65
   257
 75
     1
175
     1
 42
1.0
 92
        8
 66
     7
 43
1.0
 76
     1
 77
     6
 78
     2
 67
     7
 79
     3
170
     0
171
     0
290
     0
174
     0
 93
       13
 44
0.0
173
     0
291
     0
 45
0.0
1001
ACAD
1000
AcDbSavedByObjectVersion
1070
     0
  0
DICTIONARYVAR
  5
7AB
102
{ACAD_REACTORS
330
7A8
102
}
330
7A8
100
DictionaryVariables
280
     0
  1
1:1
  0
DICTIONARYVAR
  5
7AA
102
{ACAD_REACTORS
330
7A8
102
}
330
7A8
100
DictionaryVariables
280
     0
  1
STANDARD
  0
DICTIONARYVAR
  5
7A9
102
{ACAD_REACTORS
330
7A8
102
}
330
7A8
100
DictionaryVariables
280
     0
  1
STANDARD
  0
DICTIONARYVAR
  5
7AE
102
{ACAD_REACTORS
330
7A8
102
}
330
7A8
100
DictionaryVariables
280
     0
  1
1
  0
DICTIONARYVAR
  5
7AD
102
{ACAD_REACTORS
330
7A8
102
}
330
7A8
100
DictionaryVariables
280
     0
  1
0
  0
DICTIONARYVAR
  5
7AC
102
{ACAD_REACTORS
330
7A8
102
}
330
7A8
100
DictionaryVariables
280
     0
  1
127
  0
DICTIONARYVAR
  5
DD8
102
{ACAD_REACTORS
330
7A8
102
}
330
7A8
100
DictionaryVariables
280
     0
  1
2
  0
DICTIONARY
  5
F5F
330
6E
100
AcDbDictionary
280
     1
281
     1
  3
ACAD_XREC_ROUNDTRIP
360
F60
  0
DICTIONARY
  5
F5D
330
6A
100
AcDbDictionary
280
     1
281
     1
  3
ACAD_XREC_ROUNDTRIP
360
F5E
  0
DICTIONARY
  5
1A
330
19
100
AcDbDictionary
280
     1
281
     1
  3
ACAD_XREC_ROUNDTRIP
360
850
  3
BUMPTILE
360
1C
  3
DIFFUSETILE
360
1B
  3
OPACITYTILE
360
1F
  3
REFLECTIONTILE
360
1E
  3
REFRACTIONTILE
360
20
  3
SPECULARTILE
360
1D
  0
DICTIONARY
  5
12
330
11
100
AcDbDictionary
280
     1
281
     1
  3
ACAD_XREC_ROUNDTRIP
360
84F
  3
BUMPTILE
360
14
  3
DIFFUSETILE
360
13
  3
OPACITYTILE
360
17
  3
REFLECTIONTILE
360
16
  3
REFRACTIONTILE
360
18
  3
SPECULARTILE
360
15
  0
DICTIONARY
  5
22
330
21
100
AcDbDictionary
280
     1
281
     1
  3
ACAD_XREC_ROUNDTRIP
360
851
  3
BUMPTILE
360
24
  3
DIFFUSETILE
360
23
  3
OPACITYTILE
360
27
  3
REFLECTIONTILE
360
26
  3
REFRACTIONTILE
360
28
  3
SPECULARTILE
360
25
  0
DICTIONARY
  5
847
330
64
100
AcDbDictionary
280
     1
281
     1
  3
ACAD_ROUNDTRIP_2008_TABLESTYLE_CELLSTYLEMAP
360
F25
  3
ACAD_XREC_ROUNDTRIP
360
F5C
  0
DICTIONARY
  5
F36
330
2F
100
AcDbDictionary
280
     1
281
     1
  3
ACAD_XREC_ROUNDTRIP
360
F37
  0
DICTIONARY
  5
F61
330
5D7
100
AcDbDictionary
280
     1
281
     1
  3
ACAD_XREC_ROUNDTRIP
360
F62
  0
DICTIONARY
  5
F34
330
2E
100
AcDbDictionary
280
     1
281
     1
  3
ACAD_XREC_ROUNDTRIP
360
F35
  0
DICTIONARY
  5
F42
330
35
100
AcDbDictionary
280
     1
281
     1
  3
ACAD_XREC_ROUNDTRIP
360
F43
  0
DICTIONARY
  5
F4A
330
39
100
AcDbDictionary
280
     1
281
     1
  3
ACAD_XREC_ROUNDTRIP
360
F4B
  0
DICTIONARY
  5
F3C
330
32
100
AcDbDictionary
280
     1
281
     1
  3
ACAD_XREC_ROUNDTRIP
360
F3D
  0
DICTIONARY
  5
F40
330
34
100
AcDbDictionary
280
     1
281
     1
  3
ACAD_XREC_ROUNDTRIP
360
F41
  0
DICTIONARY
  5
F5A
330
41
100
AcDbDictionary
280
     1
281
     1
  3
ACAD_XREC_ROUNDTRIP
360
F5B
  0
DICTIONARY
  5
F48
330
38
100
AcDbDictionary
280
     1
281
     1
  3
ACAD_XREC_ROUNDTRIP
360
F49
  0
DICTIONARY
  5
F2C
330
2A
100
AcDbDictionary
280
     1
281
     1
  3
ACAD_XREC_ROUNDTRIP
360
F2D
  0
DICTIONARY
  5
F2E
330
2B
100
AcDbDictionary
280
     1
281
     1
  3
ACAD_XREC_ROUNDTRIP
360
F2F
  0
DICTIONARY
  5
F30
330
2C
100
AcDbDictionary
280
     1
281
     1
  3
ACAD_XREC_ROUNDTRIP
360
F31
  0
DICTIONARY
  5
F32
330
2D
100
AcDbDictionary
280
     1
281
     1
  3
ACAD_XREC_ROUNDTRIP
360
F33
  0
DICTIONARY
  5
F3A
330
31
100
AcDbDictionary
280
     1
281
     1
  3
ACAD_XREC_ROUNDTRIP
360
F3B
  0
DICTIONARY
  5
F56
330
3F
100
AcDbDictionary
280
     1
281
     1
  3
ACAD_XREC_ROUNDTRIP
360
F57
  0
DICTIONARY
  5
F46
330
37
100
AcDbDictionary
280
     1
281
     1
  3
ACAD_XREC_ROUNDTRIP
360
F47
  0
DICTIONARY
  5
F58
330
40
100
AcDbDictionary
280
     1
281
     1
  3
ACAD_XREC_ROUNDTRIP
360
F59
  0
DICTIONARY
  5
F3E
330
33
100
AcDbDictionary
280
     1
281
     1
  3
ACAD_XREC_ROUNDTRIP
360
F3F
  0
DICTIONARY
  5
F54
330
3E
100
AcDbDictionary
280
     1
281
     1
  3
ACAD_XREC_ROUNDTRIP
360
F55
  0
DICTIONARY
  5
F52
330
3D
100
AcDbDictionary
280
     1
281
     1
  3
ACAD_XREC_ROUNDTRIP
360
F53
  0
DICTIONARY
  5
F4C
330
3A
100
AcDbDictionary
280
     1
281
     1
  3
ACAD_XREC_ROUNDTRIP
360
F4D
  0
DICTIONARY
  5
F4E
330
3B
100
AcDbDictionary
280
     1
281
     1
  3
ACAD_XREC_ROUNDTRIP
360
F4F
  0
DICTIONARY
  5
F44
330
36
100
AcDbDictionary
280
     1
281
     1
  3
ACAD_XREC_ROUNDTRIP
360
F45
  0
DICTIONARY
  5
F38
330
30
100
AcDbDictionary
280
     1
281
     1
  3
ACAD_XREC_ROUNDTRIP
360
F39
  0
DICTIONARY
  5
F50
330
3C
100
AcDbDictionary
280
     1
281
     1
  3
ACAD_XREC_ROUNDTRIP
360
F51
  0
XRECORD
  5
F60
102
{ACAD_REACTORS
330
F5F
102
}
330
F5F
100
AcDbXrecord
280
     1
102
SHADEPLOT
 70
     1
102
SHADEPLOTRESLEVEL
 70
     2
102
SHADEPLOTCUSTOMDPI
 70
   300
  0
XRECORD
  5
F5E
102
{ACAD_REACTORS
330
F5D
102
}
330
F5D
100
AcDbXrecord
280
     1
102
SHADEPLOT
 70
     0
102
SHADEPLOTRESLEVEL
 70
     2
102
SHADEPLOTCUSTOMDPI
 70
   300
  0
XRECORD
  5
850
102
{ACAD_REACTORS
330
1A
102
}
330
1A
100
AcDbXrecord
280
     1
102
MATERIAL
148
0.0
149
0.0
149
0.0
 93
        0
 94
      127
282
     0
 72
     0
 77
     0
171
     0
175
     0
179
     0
273
     0
  0
XRECORD
  5
1C
102
{ACAD_REACTORS
330
1A
102
}
330
1A
100
AcDbXrecord
280
     1
270
     1
271
     1
  0
XRECORD
  5
1B
102
{ACAD_REACTORS
330
1A
102
}
330
1A
100
AcDbXrecord
280
     1
270
     1
271
     1
  0
XRECORD
  5
1F
102
{ACAD_REACTORS
330
1A
102
}
330
1A
100
AcDbXrecord
280
     1
270
     1
271
     1
  0
XRECORD
  5
1E
102
{ACAD_REACTORS
330
1A
102
}
330
1A
100
AcDbXrecord
280
     1
270
     1
271
     1
  0
XRECORD
  5
20
102
{ACAD_REACTORS
330
1A
102
}
330
1A
100
AcDbXrecord
280
     1
270
     1
271
     1
  0
XRECORD
  5
1D
102
{ACAD_REACTORS
330
1A
102
}
330
1A
100
AcDbXrecord
280
     1
270
     1
271
     1
  0
XRECORD
  5
84F
102
{ACAD_REACTORS
330
12
102
}
330
12
100
AcDbXrecord
280
     1
102
MATERIAL
148
0.0
149
0.0
149
0.0
 93
        0
 94
      127
282
     0
 72
     0
 77
     0
171
     0
175
     0
179
     0
273
     0
  0
XRECORD
  5
14
102
{ACAD_REACTORS
330
12
102
}
330
12
100
AcDbXrecord
280
     1
270
     1
271
     1
  0
XRECORD
  5
13
102
{ACAD_REACTORS
330
12
102
}
330
12
100
AcDbXrecord
280
     1
270
     1
271
     1
  0
XRECORD
  5
17
102
{ACAD_REACTORS
330
12
102
}
330
12
100
AcDbXrecord
280
     1
270
     1
271
     1
  0
XRECORD
  5
16
102
{ACAD_REACTORS
330
12
102
}
330
12
100
AcDbXrecord
280
     1
270
     1
271
     1
  0
XRECORD
  5
18
102
{ACAD_REACTORS
330
12
102
}
330
12
100
AcDbXrecord
280
     1
270
     1
271
     1
  0
XRECORD
  5
15
102
{ACAD_REACTORS
330
12
102
}
330
12
100
AcDbXrecord
280
     1
270
     1
271
     1
  0
XRECORD
  5
851
102
{ACAD_REACTORS
330
22
102
}
330
22
100
AcDbXrecord
280
     1
102
MATERIAL
148
0.0
149
0.0
149
0.0
 93
        0
 94
      127
282
     0
 72
     0
 77
     0
171
     0
175
     0
179
     0
273
     0
  0
XRECORD
  5
24
102
{ACAD_REACTORS
330
22
102
}
330
22
100
AcDbXrecord
280
     1
270
     1
271
     1
  0
XRECORD
  5
23
102
{ACAD_REACTORS
330
22
102
}
330
22
100
AcDbXrecord
280
     1
270
     1
271
     1
  0
XRECORD
  5
27
102
{ACAD_REACTORS
330
22
102
}
330
22
100
AcDbXrecord
280
     1
270
     1
271
     1
  0
XRECORD
  5
26
102
{ACAD_REACTORS
330
22
102
}
330
22
100
AcDbXrecord
280
     1
270
     1
271
     1
  0
XRECORD
  5
28
102
{ACAD_REACTORS
330
22
102
}
330
22
100
AcDbXrecord
280
     1
270
     1
271
     1
  0
XRECORD
  5
25
102
{ACAD_REACTORS
330
22
102
}
330
22
100
AcDbXrecord
280
     1
270
     1
271
     1
  0
CELLSTYLEMAP
  5
F25
102
{ACAD_REACTORS
330
847
102
}
330
847
100
AcDbCellStyleMap
 90
        3
300
CELLSTYLE
  1
TABLEFORMAT_BEGIN
 90
        5
170
     1
 91
        0
 92
    32768
 62
   257
 93
        1
300
CONTENTFORMAT
  1
CONTENTFORMAT_BEGIN
 90
        0
 91
        0
 92
      512
 93
        0
300

 40
0.0
140
1.0
 94
        5
 62
     0
340
55
144
0.25
309
CONTENTFORMAT_END
171
     1
301
MARGIN
  1
CELLMARGIN_BEGIN
 40
0.06
 40
0.06
 40
0.06
 40
0.06
 40
0.18
 40
0.18
309
CELLMARGIN_END
 94
        6
 95
        1
302
GRIDFORMAT
  1
GRIDFORMAT_BEGIN
 90
        0
 91
        1
 62
     0
 92
       -2
340
0
 93
        0
 40
0.045
309
GRIDFORMAT_END
 95
        2
302
GRIDFORMAT
  1
GRIDFORMAT_BEGIN
 90
        0
 91
        1
 62
     0
 92
       -2
340
0
 93
        0
 40
0.045
309
GRIDFORMAT_END
 95
        4
302
GRIDFORMAT
  1
GRIDFORMAT_BEGIN
 90
        0
 91
        1
 62
     0
 92
       -2
340
0
 93
        0
 40
0.045
309
GRIDFORMAT_END
 95
        8
302
GRIDFORMAT
  1
GRIDFORMAT_BEGIN
 90
        0
 91
        1
 62
     0
 92
       -2
340
0
 93
        0
 40
0.045
309
GRIDFORMAT_END
 95
       16
302
GRIDFORMAT
  1
GRIDFORMAT_BEGIN
 90
        0
 91
        1
 62
     0
 92
       -2
340
0
 93
        0
 40
0.045
309
GRIDFORMAT_END
 95
       32
302
GRIDFORMAT
  1
GRIDFORMAT_BEGIN
 90
        0
 91
        1
 62
     0
 92
       -2
340
0
 93
        0
 40
0.045
309
GRIDFORMAT_END
309
TABLEFORMAT_END
  1
CELLSTYLE_BEGIN
 90
        1
 91
        1
300
_TITLE
309
CELLSTYLE_END
300
CELLSTYLE
  1
TABLEFORMAT_BEGIN
 90
        5
170
     1
 91
        0
 92
        0
 62
   257
 93
        1
300
CONTENTFORMAT
  1
CONTENTFORMAT_BEGIN
 90
        0
 91
        0
 92
      512
 93
        0
300

 40
0.0
140
1.0
 94
        5
 62
     0
340
55
144
0.18
309
CONTENTFORMAT_END
171
     1
301
MARGIN
  1
CELLMARGIN_BEGIN
 40
0.06
 40
0.06
 40
0.06
 40
0.06
 40
0.18
 40
0.18
309
CELLMARGIN_END
 94
        6
 95
        1
302
GRIDFORMAT
  1
GRIDFORMAT_BEGIN
 90
        0
 91
        1
 62
     0
 92
       -2
340
0
 93
        0
 40
0.045
309
GRIDFORMAT_END
 95
        2
302
GRIDFORMAT
  1
GRIDFORMAT_BEGIN
 90
        0
 91
        1
 62
     0
 92
       -2
340
0
 93
        0
 40
0.045
309
GRIDFORMAT_END
 95
        4
302
GRIDFORMAT
  1
GRIDFORMAT_BEGIN
 90
        0
 91
        1
 62
     0
 92
       -2
340
0
 93
        0
 40
0.045
309
GRIDFORMAT_END
 95
        8
302
GRIDFORMAT
  1
GRIDFORMAT_BEGIN
 90
        0
 91
        1
 62
     0
 92
       -2
340
0
 93
        0
 40
0.045
309
GRIDFORMAT_END
 95
       16
302
GRIDFORMAT
  1
GRIDFORMAT_BEGIN
 90
        0
 91
        1
 62
     0
 92
       -2
340
0
 93
        0
 40
0.045
309
GRIDFORMAT_END
 95
       32
302
GRIDFORMAT
  1
GRIDFORMAT_BEGIN
 90
        0
 91
        1
 62
     0
 92
       -2
340
0
 93
        0
 40
0.045
309
GRIDFORMAT_END
309
TABLEFORMAT_END
  1
CELLSTYLE_BEGIN
 90
        2
 91
        1
300
_HEADER
309
CELLSTYLE_END
300
CELLSTYLE
  1
TABLEFORMAT_BEGIN
 90
        5
170
     1
 91
        0
 92
        0
 62
   257
 93
        1
300
CONTENTFORMAT
  1
CONTENTFORMAT_BEGIN
 90
        0
 91
        0
 92
      512
 93
        0
300

 40
0.0
140
1.0
 94
        2
 62
     0
340
55
144
0.18
309
CONTENTFORMAT_END
171
     1
301
MARGIN
  1
CELLMARGIN_BEGIN
 40
0.06
 40
0.06
 40
0.06
 40
0.06
 40
0.18
 40
0.18
309
CELLMARGIN_END
 94
        6
 95
        1
302
GRIDFORMAT
  1
GRIDFORMAT_BEGIN
 90
        0
 91
        1
 62
     0
 92
       -2
340
0
 93
        0
 40
0.045
309
GRIDFORMAT_END
 95
        2
302
GRIDFORMAT
  1
GRIDFORMAT_BEGIN
 90
        0
 91
        1
 62
     0
 92
       -2
340
0
 93
        0
 40
0.045
309
GRIDFORMAT_END
 95
        4
302
GRIDFORMAT
  1
GRIDFORMAT_BEGIN
 90
        0
 91
        1
 62
     0
 92
       -2
340
0
 93
        0
 40
0.045
309
GRIDFORMAT_END
 95
        8
302
GRIDFORMAT
  1
GRIDFORMAT_BEGIN
 90
        0
 91
        1
 62
     0
 92
       -2
340
0
 93
        0
 40
0.045
309
GRIDFORMAT_END
 95
       16
302
GRIDFORMAT
  1
GRIDFORMAT_BEGIN
 90
        0
 91
        1
 62
     0
 92
       -2
340
0
 93
        0
 40
0.045
309
GRIDFORMAT_END
 95
       32
302
GRIDFORMAT
  1
GRIDFORMAT_BEGIN
 90
        0
 91
        1
 62
     0
 92
       -2
340
0
 93
        0
 40
0.045
309
GRIDFORMAT_END
309
TABLEFORMAT_END
  1
CELLSTYLE_BEGIN
 90
        3
 91
        2
300
_DATA
309
CELLSTYLE_END
  0
XRECORD
  5
F5C
102
{ACAD_REACTORS
330
847
102
}
330
847
100
AcDbXrecord
280
     1
102
ACAD_ROUNDTRIP_PRE2007_TABLESTYLE
 90
      512
 91
        0
  1

 92
      512
 93
        0
  2

 94
      512
 95
        0
  3

  0
XRECORD
  5
F37
102
{ACAD_REACTORS
330
F36
102
}
330
F36
100
AcDbXrecord
280
     1
102
RTVSPropertyOp0
 70
     1
102
RTVSPropertyOp1
 70
     1
102
RTVSPropertyOp2
 70
     1
102
RTVSPropertyOp3
 70
     1
102
RTVSPropertyOp4
 70
     1
102
RTVSPropertyOp5
 70
     1
102
RTVSPropertyOp6
 70
     1
102
RTVSPropertyOp7
 70
     1
102
RTVSPropertyOp8
 70
     1
102
RTVSPropertyOp9
 70
     1
102
RTVSPropertyOp10
 70
     1
102
RTVSPropertyOp11
 70
     1
102
RTVSPropertyOp12
 70
     1
102
RTVSPropertyOp13
 70
     1
102
RTVSPropertyOp14
 70
     1
102
RTVSPropertyOp15
 70
     1
102
RTVSPropertyOp16
 70
     1
102
RTVSPropertyOp17
 70
     1
102
RTVSPropertyOp18
 70
     1
102
RTVSPropertyOp19
 70
     1
102
RTVSPropertyOp20
 70
     1
102
RTVSPropertyOp21
 70
     1
102
RTVSPropertyOp22
 70
     1
102
RTVSPropertyOp23
 70
     1
102
RTVSPropertyOp24
 70
     1
102
RTVSPropertyOp25
 70
     1
102
RTVSPropertyOp26
 70
     1
102
RTVSPropertyOp27
 70
     1
102
RTVSPropertyOp28
 70
     1
102
RTVSPropertyOp29
 70
     1
102
RTVSPropertyOp30
 70
     1
102
RTVSPropertyOp31
 70
     1
102
RTVSPropertyOp32
 70
     1
  0
XRECORD
  5
F62
102
{ACAD_REACTORS
330
F61
102
}
330
F61
100
AcDbXrecord
280
     1
102
RTVSPropertyOp0
 70
     1
102
RTVSPropertyOp1
 70
     1
102
RTVSPropertyOp2
 70
     1
102
RTVSPropertyOp3
 70
     1
102
RTVSPropertyOp4
 70
     1
102
RTVSPropertyOp5
 70
     1
102
RTVSPropertyOp6
 70
     1
102
RTVSPropertyOp7
 70
     1
102
RTVSPropertyOp8
 70
     1
102
RTVSPropertyOp9
 70
     1
102
RTVSPropertyOp10
 70
     1
102
RTVSPropertyOp11
 70
     1
102
RTVSPropertyOp12
 70
     1
102
RTVSPropertyOp13
 70
     1
102
RTVSPropertyOp14
 70
     1
102
RTVSPropertyOp15
 70
     1
102
RTVSPropertyOp16
 70
     1
102
RTVSPropertyOp17
 70
     1
102
RTVSPropertyOp18
 70
     1
102
RTVSPropertyOp19
 70
     1
102
RTVSPropertyOp20
 70
     1
102
RTVSPropertyOp21
 70
     1
102
RTVSPropertyOp22
 70
     1
102
RTVSPropertyOp23
 70
     1
102
RTVSPropertyOp24
 70
     1
102
RTVSPropertyOp25
 70
     1
102
RTVSPropertyOp26
 70
     1
102
RTVSPropertyOp27
 70
     1
102
RTVSPropertyOp28
 70
     1
102
RTVSPropertyOp29
 70
     1
102
RTVSPropertyOp30
 70
     1
102
RTVSPropertyOp31
 70
     1
102
RTVSPropertyOp32
 70
     1
  0
XRECORD
  5
F35
102
{ACAD_REACTORS
330
F34
102
}
330
F34
100
AcDbXrecord
280
     1
102
RTVSPropertyOp0
 70
     1
102
RTVSPropertyOp1
 70
     1
102
RTVSPropertyOp2
 70
     1
102
RTVSPropertyOp3
 70
     1
102
RTVSPropertyOp4
 70
     1
102
RTVSPropertyOp5
 70
     1
102
RTVSPropertyOp6
 70
     1
102
RTVSPropertyOp7
 70
     1
102
RTVSPropertyOp8
 70
     1
102
RTVSPropertyOp9
 70
     1
102
RTVSPropertyOp10
 70
     1
102
RTVSPropertyOp11
 70
     1
102
RTVSPropertyOp12
 70
     1
102
RTVSPropertyOp13
 70
     1
102
RTVSPropertyOp14
 70
     1
102
RTVSPropertyOp15
 70
     1
102
RTVSPropertyOp16
 70
     1
102
RTVSPropertyOp17
 70
     1
102
RTVSPropertyOp18
 70
     1
102
RTVSPropertyOp19
 70
     1
102
RTVSPropertyOp20
 70
     1
102
RTVSPropertyOp21
 70
     1
102
RTVSPropertyOp22
 70
     1
102
RTVSPropertyOp23
 70
     1
102
RTVSPropertyOp24
 70
     1
102
RTVSPropertyOp25
 70
     1
102
RTVSPropertyOp26
 70
     1
102
RTVSPropertyOp27
 70
     1
102
RTVSPropertyOp28
 70
     1
102
RTVSPropertyOp29
 70
     1
102
RTVSPropertyOp30
 70
     1
102
RTVSPropertyOp31
 70
     1
102
RTVSPropertyOp32
 70
     1
  0
XRECORD
  5
F43
102
{ACAD_REACTORS
330
F42
102
}
330
F42
100
AcDbXrecord
280
     1
102
RTVSPropertyOp0
 70
     1
102
RTVSPropertyOp1
 70
     1
102
RTVSPropertyOp2
 70
     1
102
RTVSPropertyOp3
 70
     1
102
RTVSPropertyOp4
 70
     1
102
RTVSPropertyOp5
 70
     1
102
RTVSPropertyOp6
 70
     1
102
RTVSPropertyOp7
 70
     1
102
RTVSPropertyOp8
 70
     1
102
RTVSPropertyOp9
 70
     1
102
RTVSPropertyOp10
 70
     1
102
RTVSPropertyOp11
 70
     1
102
RTVSPropertyOp12
 70
     1
102
RTVSPropertyOp13
 70
     1
102
RTVSPropertyOp14
 70
     1
102
RTVSPropertyOp15
 70
     1
102
RTVSPropertyOp16
 70
     1
102
RTVSPropertyOp17
 70
     1
102
RTVSPropertyOp18
 70
     1
102
RTVSPropertyOp19
 70
     1
102
RTVSPropertyOp20
 70
     1
102
RTVSPropertyOp21
 70
     1
102
RTVSPropertyOp22
 70
     1
102
RTVSPropertyOp23
 70
     1
102
RTVSPropertyOp24
 70
     1
102
RTVSPropertyOp25
 70
     1
102
RTVSPropertyOp26
 70
     1
102
RTVSPropertyOp27
 70
     1
102
RTVSPropertyOp28
 70
     1
102
RTVSPropertyOp29
 70
     1
102
RTVSPropertyOp30
 70
     1
102
RTVSPropertyOp31
 70
     1
102
RTVSPropertyOp32
 70
     1
  0
XRECORD
  5
F4B
102
{ACAD_REACTORS
330
F4A
102
}
330
F4A
100
AcDbXrecord
280
     1
102
RTVSPropertyOp0
 70
     1
102
RTVSPropertyOp1
 70
     1
102
RTVSPropertyOp2
 70
     1
102
RTVSPropertyOp3
 70
     1
102
RTVSPropertyOp4
 70
     1
102
RTVSPropertyOp5
 70
     1
102
RTVSPropertyOp6
 70
     1
102
RTVSPropertyOp7
 70
     1
102
RTVSPropertyOp8
 70
     1
102
RTVSPropertyOp9
 70
     1
102
RTVSPropertyOp10
 70
     1
102
RTVSPropertyOp11
 70
     1
102
RTVSPropertyOp12
 70
     1
102
RTVSPropertyOp13
 70
     1
102
RTVSPropertyOp14
 70
     1
102
RTVSPropertyOp15
 70
     1
102
RTVSPropertyOp16
 70
     1
102
RTVSPropertyOp17
 70
     1
102
RTVSPropertyOp18
 70
     1
102
RTVSPropertyOp19
 70
     1
102
RTVSPropertyOp20
 70
     1
102
RTVSPropertyOp21
 70
     1
102
RTVSPropertyOp22
 70
     1
102
RTVSPropertyOp23
 70
     1
102
RTVSPropertyOp24
 70
     1
102
RTVSPropertyOp25
 70
     1
102
RTVSPropertyOp26
 70
     1
102
RTVSPropertyOp27
 70
     1
102
RTVSPropertyOp28
 70
     1
102
RTVSPropertyOp29
 70
     1
102
RTVSPropertyOp30
 70
     1
102
RTVSPropertyOp31
 70
     1
102
RTVSPropertyOp32
 70
     1
  0
XRECORD
  5
F3D
102
{ACAD_REACTORS
330
F3C
102
}
330
F3C
100
AcDbXrecord
280
     1
102
RTVSPropertyOp0
 70
     1
102
RTVSPropertyOp1
 70
     1
102
RTVSPropertyOp2
 70
     1
102
RTVSPropertyOp3
 70
     1
102
RTVSPropertyOp4
 70
     1
102
RTVSPropertyOp5
 70
     1
102
RTVSPropertyOp6
 70
     1
102
RTVSPropertyOp7
 70
     1
102
RTVSPropertyOp8
 70
     1
102
RTVSPropertyOp9
 70
     1
102
RTVSPropertyOp10
 70
     1
102
RTVSPropertyOp11
 70
     1
102
RTVSPropertyOp12
 70
     1
102
RTVSPropertyOp13
 70
     1
102
RTVSPropertyOp14
 70
     1
102
RTVSPropertyOp15
 70
     1
102
RTVSPropertyOp16
 70
     1
102
RTVSPropertyOp17
 70
     1
102
RTVSPropertyOp18
 70
     1
102
RTVSPropertyOp19
 70
     1
102
RTVSPropertyOp20
 70
     1
102
RTVSPropertyOp21
 70
     1
102
RTVSPropertyOp22
 70
     1
102
RTVSPropertyOp23
 70
     1
102
RTVSPropertyOp24
 70
     1
102
RTVSPropertyOp25
 70
     1
102
RTVSPropertyOp26
 70
     1
102
RTVSPropertyOp27
 70
     1
102
RTVSPropertyOp28
 70
     1
102
RTVSPropertyOp29
 70
     1
102
RTVSPropertyOp30
 70
     1
102
RTVSPropertyOp31
 70
     1
102
RTVSPropertyOp32
 70
     1
  0
XRECORD
  5
F41
102
{ACAD_REACTORS
330
F40
102
}
330
F40
100
AcDbXrecord
280
     1
102
RTVSPropertyOp0
 70
     1
102
RTVSPropertyOp1
 70
     1
102
RTVSPropertyOp2
 70
     1
102
RTVSPropertyOp3
 70
     1
102
RTVSPropertyOp4
 70
     1
102
RTVSPropertyOp5
 70
     1
102
RTVSPropertyOp6
 70
     1
102
RTVSPropertyOp7
 70
     1
102
RTVSPropertyOp8
 70
     1
102
RTVSPropertyOp9
 70
     1
102
RTVSPropertyOp10
 70
     1
102
RTVSPropertyOp11
 70
     1
102
RTVSPropertyOp12
 70
     1
102
RTVSPropertyOp13
 70
     1
102
RTVSPropertyOp14
 70
     1
102
RTVSPropertyOp15
 70
     1
102
RTVSPropertyOp16
 70
     1
102
RTVSPropertyOp17
 70
     1
102
RTVSPropertyOp18
 70
     1
102
RTVSPropertyOp19
 70
     1
102
RTVSPropertyOp20
 70
     1
102
RTVSPropertyOp21
 70
     1
102
RTVSPropertyOp22
 70
     1
102
RTVSPropertyOp23
 70
     1
102
RTVSPropertyOp24
 70
     1
102
RTVSPropertyOp25
 70
     1
102
RTVSPropertyOp26
 70
     1
102
RTVSPropertyOp27
 70
     1
102
RTVSPropertyOp28
 70
     1
102
RTVSPropertyOp29
 70
     1
102
RTVSPropertyOp30
 70
     1
102
RTVSPropertyOp31
 70
     1
102
RTVSPropertyOp32
 70
     1
  0
XRECORD
  5
F5B
102
{ACAD_REACTORS
330
F5A
102
}
330
F5A
100
AcDbXrecord
280
     1
102
RTVSPropertyOp0
 70
     0
102
RTVSPropertyOp1
 70
     0
102
RTVSPropertyOp2
 70
     0
102
RTVSPropertyOp3
 70
     0
102
RTVSPropertyOp4
 70
     0
102
RTVSPropertyOp5
 70
     0
102
RTVSPropertyOp6
 70
     0
102
RTVSPropertyOp7
 70
     0
102
RTVSPropertyOp8
 70
     0
102
RTVSPropertyOp9
 70
     0
102
RTVSPropertyOp10
 70
     0
102
RTVSPropertyOp11
 70
     0
102
RTVSPropertyOp12
 70
     0
102
RTVSPropertyOp13
 70
     0
102
RTVSPropertyOp14
 70
     2
102
RTVSPropertyOp15
 70
     0
102
RTVSPropertyOp16
 70
     0
102
RTVSPropertyOp17
 70
     0
102
RTVSPropertyOp18
 70
     0
102
RTVSPropertyOp19
 70
     0
102
RTVSPropertyOp20
 70
     0
102
RTVSPropertyOp21
 70
     0
102
RTVSPropertyOp22
 70
     0
102
RTVSPropertyOp23
 70
     0
102
RTVSPropertyOp24
 70
     0
102
RTVSPropertyOp25
 70
     0
102
RTVSPropertyOp26
 70
     0
102
RTVSPropertyOp27
 70
     0
102
RTVSPropertyOp28
 70
     0
102
RTVSPropertyOp29
 70
     0
102
RTVSPropertyOp30
 70
     0
102
RTVSPropertyOp31
 70
     0
102
RTVSPropertyOp32
 70
     0
  0
XRECORD
  5
F49
102
{ACAD_REACTORS
330
F48
102
}
330
F48
100
AcDbXrecord
280
     1
102
RTVSPropertyOp0
 70
     1
102
RTVSPropertyOp1
 70
     1
102
RTVSPropertyOp2
 70
     1
102
RTVSPropertyOp3
 70
     1
102
RTVSPropertyOp4
 70
     1
102
RTVSPropertyOp5
 70
     1
102
RTVSPropertyOp6
 70
     1
102
RTVSPropertyOp7
 70
     1
102
RTVSPropertyOp8
 70
     1
102
RTVSPropertyOp9
 70
     1
102
RTVSPropertyOp10
 70
     1
102
RTVSPropertyOp11
 70
     1
102
RTVSPropertyOp12
 70
     1
102
RTVSPropertyOp13
 70
     1
102
RTVSPropertyOp14
 70
     1
102
RTVSPropertyOp15
 70
     1
102
RTVSPropertyOp16
 70
     1
102
RTVSPropertyOp17
 70
     1
102
RTVSPropertyOp18
 70
     1
102
RTVSPropertyOp19
 70
     1
102
RTVSPropertyOp20
 70
     1
102
RTVSPropertyOp21
 70
     1
102
RTVSPropertyOp22
 70
     1
102
RTVSPropertyOp23
 70
     1
102
RTVSPropertyOp24
 70
     1
102
RTVSPropertyOp25
 70
     1
102
RTVSPropertyOp26
 70
     1
102
RTVSPropertyOp27
 70
     1
102
RTVSPropertyOp28
 70
     1
102
RTVSPropertyOp29
 70
     1
102
RTVSPropertyOp30
 70
     1
102
RTVSPropertyOp31
 70
     1
102
RTVSPropertyOp32
 70
     1
  0
XRECORD
  5
F2D
102
{ACAD_REACTORS
330
F2C
102
}
330
F2C
100
AcDbXrecord
280
     1
102
RTVSPropertyOp0
 70
     1
102
RTVSPropertyOp1
 70
     1
102
RTVSPropertyOp2
 70
     1
102
RTVSPropertyOp3
 70
     1
102
RTVSPropertyOp4
 70
     1
102
RTVSPropertyOp5
 70
     1
102
RTVSPropertyOp6
 70
     1
102
RTVSPropertyOp7
 70
     1
102
RTVSPropertyOp8
 70
     1
102
RTVSPropertyOp9
 70
     1
102
RTVSPropertyOp10
 70
     1
102
RTVSPropertyOp11
 70
     1
102
RTVSPropertyOp12
 70
     1
102
RTVSPropertyOp13
 70
     1
102
RTVSPropertyOp14
 70
     1
102
RTVSPropertyOp15
 70
     1
102
RTVSPropertyOp16
 70
     1
102
RTVSPropertyOp17
 70
     1
102
RTVSPropertyOp18
 70
     1
102
RTVSPropertyOp19
 70
     1
102
RTVSPropertyOp20
 70
     1
102
RTVSPropertyOp21
 70
     1
102
RTVSPropertyOp22
 70
     1
102
RTVSPropertyOp23
 70
     1
102
RTVSPropertyOp24
 70
     1
102
RTVSPropertyOp25
 70
     1
102
RTVSPropertyOp26
 70
     1
102
RTVSPropertyOp27
 70
     1
102
RTVSPropertyOp28
 70
     1
102
RTVSPropertyOp29
 70
     1
102
RTVSPropertyOp30
 70
     1
102
RTVSPropertyOp31
 70
     1
102
RTVSPropertyOp32
 70
     1
  0
XRECORD
  5
F2F
102
{ACAD_REACTORS
330
F2E
102
}
330
F2E
100
AcDbXrecord
280
     1
102
RTVSPropertyOp0
 70
     1
102
RTVSPropertyOp1
 70
     1
102
RTVSPropertyOp2
 70
     1
102
RTVSPropertyOp3
 70
     1
102
RTVSPropertyOp4
 70
     1
102
RTVSPropertyOp5
 70
     1
102
RTVSPropertyOp6
 70
     1
102
RTVSPropertyOp7
 70
     1
102
RTVSPropertyOp8
 70
     1
102
RTVSPropertyOp9
 70
     1
102
RTVSPropertyOp10
 70
     1
102
RTVSPropertyOp11
 70
     1
102
RTVSPropertyOp12
 70
     1
102
RTVSPropertyOp13
 70
     1
102
RTVSPropertyOp14
 70
     1
102
RTVSPropertyOp15
 70
     1
102
RTVSPropertyOp16
 70
     1
102
RTVSPropertyOp17
 70
     1
102
RTVSPropertyOp18
 70
     1
102
RTVSPropertyOp19
 70
     1
102
RTVSPropertyOp20
 70
     1
102
RTVSPropertyOp21
 70
     1
102
RTVSPropertyOp22
 70
     1
102
RTVSPropertyOp23
 70
     1
102
RTVSPropertyOp24
 70
     1
102
RTVSPropertyOp25
 70
     1
102
RTVSPropertyOp26
 70
     1
102
RTVSPropertyOp27
 70
     1
102
RTVSPropertyOp28
 70
     1
102
RTVSPropertyOp29
 70
     1
102
RTVSPropertyOp30
 70
     1
102
RTVSPropertyOp31
 70
     1
102
RTVSPropertyOp32
 70
     1
  0
XRECORD
  5
F31
102
{ACAD_REACTORS
330
F30
102
}
330
F30
100
AcDbXrecord
280
     1
102
RTVSPropertyOp0
 70
     1
102
RTVSPropertyOp1
 70
     1
102
RTVSPropertyOp2
 70
     1
102
RTVSPropertyOp3
 70
     1
102
RTVSPropertyOp4
 70
     1
102
RTVSPropertyOp5
 70
     1
102
RTVSPropertyOp6
 70
     1
102
RTVSPropertyOp7
 70
     1
102
RTVSPropertyOp8
 70
     1
102
RTVSPropertyOp9
 70
     1
102
RTVSPropertyOp10
 70
     1
102
RTVSPropertyOp11
 70
     1
102
RTVSPropertyOp12
 70
     1
102
RTVSPropertyOp13
 70
     1
102
RTVSPropertyOp14
 70
     1
102
RTVSPropertyOp15
 70
     1
102
RTVSPropertyOp16
 70
     1
102
RTVSPropertyOp17
 70
     1
102
RTVSPropertyOp18
 70
     1
102
RTVSPropertyOp19
 70
     1
102
RTVSPropertyOp20
 70
     1
102
RTVSPropertyOp21
 70
     1
102
RTVSPropertyOp22
 70
     1
102
RTVSPropertyOp23
 70
     1
102
RTVSPropertyOp24
 70
     1
102
RTVSPropertyOp25
 70
     1
102
RTVSPropertyOp26
 70
     1
102
RTVSPropertyOp27
 70
     1
102
RTVSPropertyOp28
 70
     1
102
RTVSPropertyOp29
 70
     1
102
RTVSPropertyOp30
 70
     1
102
RTVSPropertyOp31
 70
     1
102
RTVSPropertyOp32
 70
     1
  0
XRECORD
  5
F33
102
{ACAD_REACTORS
330
F32
102
}
330
F32
100
AcDbXrecord
280
     1
102
RTVSPropertyOp0
 70
     1
102
RTVSPropertyOp1
 70
     1
102
RTVSPropertyOp2
 70
     1
102
RTVSPropertyOp3
 70
     1
102
RTVSPropertyOp4
 70
     1
102
RTVSPropertyOp5
 70
     1
102
RTVSPropertyOp6
 70
     1
102
RTVSPropertyOp7
 70
     1
102
RTVSPropertyOp8
 70
     1
102
RTVSPropertyOp9
 70
     1
102
RTVSPropertyOp10
 70
     1
102
RTVSPropertyOp11
 70
     1
102
RTVSPropertyOp12
 70
     1
102
RTVSPropertyOp13
 70
     1
102
RTVSPropertyOp14
 70
     1
102
RTVSPropertyOp15
 70
     1
102
RTVSPropertyOp16
 70
     1
102
RTVSPropertyOp17
 70
     1
102
RTVSPropertyOp18
 70
     1
102
RTVSPropertyOp19
 70
     1
102
RTVSPropertyOp20
 70
     1
102
RTVSPropertyOp21
 70
     1
102
RTVSPropertyOp22
 70
     1
102
RTVSPropertyOp23
 70
     1
102
RTVSPropertyOp24
 70
     1
102
RTVSPropertyOp25
 70
     1
102
RTVSPropertyOp26
 70
     1
102
RTVSPropertyOp27
 70
     1
102
RTVSPropertyOp28
 70
     1
102
RTVSPropertyOp29
 70
     1
102
RTVSPropertyOp30
 70
     1
102
RTVSPropertyOp31
 70
     1
102
RTVSPropertyOp32
 70
     1
  0
XRECORD
  5
F3B
102
{ACAD_REACTORS
330
F3A
102
}
330
F3A
100
AcDbXrecord
280
     1
102
RTVSPropertyOp0
 70
     1
102
RTVSPropertyOp1
 70
     1
102
RTVSPropertyOp2
 70
     1
102
RTVSPropertyOp3
 70
     1
102
RTVSPropertyOp4
 70
     1
102
RTVSPropertyOp5
 70
     1
102
RTVSPropertyOp6
 70
     1
102
RTVSPropertyOp7
 70
     1
102
RTVSPropertyOp8
 70
     1
102
RTVSPropertyOp9
 70
     1
102
RTVSPropertyOp10
 70
     1
102
RTVSPropertyOp11
 70
     1
102
RTVSPropertyOp12
 70
     1
102
RTVSPropertyOp13
 70
     1
102
RTVSPropertyOp14
 70
     1
102
RTVSPropertyOp15
 70
     1
102
RTVSPropertyOp16
 70
     1
102
RTVSPropertyOp17
 70
     1
102
RTVSPropertyOp18
 70
     1
102
RTVSPropertyOp19
 70
     1
102
RTVSPropertyOp20
 70
     1
102
RTVSPropertyOp21
 70
     1
102
RTVSPropertyOp22
 70
     1
102
RTVSPropertyOp23
 70
     1
102
RTVSPropertyOp24
 70
     1
102
RTVSPropertyOp25
 70
     1
102
RTVSPropertyOp26
 70
     1
102
RTVSPropertyOp27
 70
     1
102
RTVSPropertyOp28
 70
     1
102
RTVSPropertyOp29
 70
     1
102
RTVSPropertyOp30
 70
     1
102
RTVSPropertyOp31
 70
     1
102
RTVSPropertyOp32
 70
     1
  0
XRECORD
  5
F57
102
{ACAD_REACTORS
330
F56
102
}
330
F56
100
AcDbXrecord
280
     1
102
RTVSPropertyOp0
 70
     0
102
RTVSPropertyOp1
 70
     0
102
RTVSPropertyOp2
 70
     0
102
RTVSPropertyOp3
 70
     0
102
RTVSPropertyOp4
 70
     0
102
RTVSPropertyOp5
 70
     0
102
RTVSPropertyOp6
 70
     0
102
RTVSPropertyOp7
 70
     0
102
RTVSPropertyOp8
 70
     0
102
RTVSPropertyOp9
 70
     0
102
RTVSPropertyOp10
 70
     0
102
RTVSPropertyOp11
 70
     0
102
RTVSPropertyOp12
 70
     0
102
RTVSPropertyOp13
 70
     0
102
RTVSPropertyOp14
 70
     2
102
RTVSPropertyOp15
 70
     0
102
RTVSPropertyOp16
 70
     0
102
RTVSPropertyOp17
 70
     0
102
RTVSPropertyOp18
 70
     0
102
RTVSPropertyOp19
 70
     0
102
RTVSPropertyOp20
 70
     0
102
RTVSPropertyOp21
 70
     0
102
RTVSPropertyOp22
 70
     0
102
RTVSPropertyOp23
 70
     0
102
RTVSPropertyOp24
 70
     0
102
RTVSPropertyOp25
 70
     0
102
RTVSPropertyOp26
 70
     0
102
RTVSPropertyOp27
 70
     0
102
RTVSPropertyOp28
 70
     0
102
RTVSPropertyOp29
 70
     0
102
RTVSPropertyOp30
 70
     0
102
RTVSPropertyOp31
 70
     0
102
RTVSPropertyOp32
 70
     0
  0
XRECORD
  5
F47
102
{ACAD_REACTORS
330
F46
102
}
330
F46
100
AcDbXrecord
280
     1
102
RTVSPropertyOp0
 70
     1
102
RTVSPropertyOp1
 70
     1
102
RTVSPropertyOp2
 70
     1
102
RTVSPropertyOp3
 70
     1
102
RTVSPropertyOp4
 70
     1
102
RTVSPropertyOp5
 70
     1
102
RTVSPropertyOp6
 70
     1
102
RTVSPropertyOp7
 70
     1
102
RTVSPropertyOp8
 70
     1
102
RTVSPropertyOp9
 70
     1
102
RTVSPropertyOp10
 70
     1
102
RTVSPropertyOp11
 70
     1
102
RTVSPropertyOp12
 70
     1
102
RTVSPropertyOp13
 70
     1
102
RTVSPropertyOp14
 70
     1
102
RTVSPropertyOp15
 70
     1
102
RTVSPropertyOp16
 70
     1
102
RTVSPropertyOp17
 70
     1
102
RTVSPropertyOp18
 70
     1
102
RTVSPropertyOp19
 70
     1
102
RTVSPropertyOp20
 70
     1
102
RTVSPropertyOp21
 70
     1
102
RTVSPropertyOp22
 70
     1
102
RTVSPropertyOp23
 70
     1
102
RTVSPropertyOp24
 70
     1
102
RTVSPropertyOp25
 70
     1
102
RTVSPropertyOp26
 70
     1
102
RTVSPropertyOp27
 70
     1
102
RTVSPropertyOp28
 70
     1
102
RTVSPropertyOp29
 70
     1
102
RTVSPropertyOp30
 70
     1
102
RTVSPropertyOp31
 70
     1
102
RTVSPropertyOp32
 70
     1
  0
XRECORD
  5
F59
102
{ACAD_REACTORS
330
F58
102
}
330
F58
100
AcDbXrecord
280
     1
102
RTVSPropertyOp0
 70
     0
102
RTVSPropertyOp1
 70
     0
102
RTVSPropertyOp2
 70
     0
102
RTVSPropertyOp3
 70
     0
102
RTVSPropertyOp4
 70
     0
102
RTVSPropertyOp5
 70
     0
102
RTVSPropertyOp6
 70
     0
102
RTVSPropertyOp7
 70
     0
102
RTVSPropertyOp8
 70
     0
102
RTVSPropertyOp9
 70
     0
102
RTVSPropertyOp10
 70
     0
102
RTVSPropertyOp11
 70
     0
102
RTVSPropertyOp12
 70
     0
102
RTVSPropertyOp13
 70
     0
102
RTVSPropertyOp14
 70
     2
102
RTVSPropertyOp15
 70
     0
102
RTVSPropertyOp16
 70
     0
102
RTVSPropertyOp17
 70
     0
102
RTVSPropertyOp18
 70
     0
102
RTVSPropertyOp19
 70
     0
102
RTVSPropertyOp20
 70
     0
102
RTVSPropertyOp21
 70
     0
102
RTVSPropertyOp22
 70
     0
102
RTVSPropertyOp23
 70
     0
102
RTVSPropertyOp24
 70
     0
102
RTVSPropertyOp25
 70
     0
102
RTVSPropertyOp26
 70
     0
102
RTVSPropertyOp27
 70
     0
102
RTVSPropertyOp28
 70
     0
102
RTVSPropertyOp29
 70
     0
102
RTVSPropertyOp30
 70
     0
102
RTVSPropertyOp31
 70
     0
102
RTVSPropertyOp32
 70
     0
  0
XRECORD
  5
F3F
102
{ACAD_REACTORS
330
F3E
102
}
330
F3E
100
AcDbXrecord
280
     1
102
RTVSPropertyOp0
 70
     1
102
RTVSPropertyOp1
 70
     1
102
RTVSPropertyOp2
 70
     1
102
RTVSPropertyOp3
 70
     1
102
RTVSPropertyOp4
 70
     1
102
RTVSPropertyOp5
 70
     1
102
RTVSPropertyOp6
 70
     1
102
RTVSPropertyOp7
 70
     1
102
RTVSPropertyOp8
 70
     1
102
RTVSPropertyOp9
 70
     1
102
RTVSPropertyOp10
 70
     1
102
RTVSPropertyOp11
 70
     1
102
RTVSPropertyOp12
 70
     1
102
RTVSPropertyOp13
 70
     1
102
RTVSPropertyOp14
 70
     1
102
RTVSPropertyOp15
 70
     1
102
RTVSPropertyOp16
 70
     1
102
RTVSPropertyOp17
 70
     1
102
RTVSPropertyOp18
 70
     1
102
RTVSPropertyOp19
 70
     1
102
RTVSPropertyOp20
 70
     1
102
RTVSPropertyOp21
 70
     1
102
RTVSPropertyOp22
 70
     1
102
RTVSPropertyOp23
 70
     1
102
RTVSPropertyOp24
 70
     1
102
RTVSPropertyOp25
 70
     1
102
RTVSPropertyOp26
 70
     1
102
RTVSPropertyOp27
 70
     1
102
RTVSPropertyOp28
 70
     1
102
RTVSPropertyOp29
 70
     1
102
RTVSPropertyOp30
 70
     1
102
RTVSPropertyOp31
 70
     1
102
RTVSPropertyOp32
 70
     1
  0
XRECORD
  5
F55
102
{ACAD_REACTORS
330
F54
102
}
330
F54
100
AcDbXrecord
280
     1
102
RTVSPropertyOp0
 70
     1
102
RTVSPropertyOp1
 70
     1
102
RTVSPropertyOp2
 70
     1
102
RTVSPropertyOp3
 70
     1
102
RTVSPropertyOp4
 70
     1
102
RTVSPropertyOp5
 70
     1
102
RTVSPropertyOp6
 70
     1
102
RTVSPropertyOp7
 70
     1
102
RTVSPropertyOp8
 70
     1
102
RTVSPropertyOp9
 70
     1
102
RTVSPropertyOp10
 70
     1
102
RTVSPropertyOp11
 70
     1
102
RTVSPropertyOp12
 70
     1
102
RTVSPropertyOp13
 70
     1
102
RTVSPropertyOp14
 70
     1
102
RTVSPropertyOp15
 70
     1
102
RTVSPropertyOp16
 70
     1
102
RTVSPropertyOp17
 70
     1
102
RTVSPropertyOp18
 70
     1
102
RTVSPropertyOp19
 70
     1
102
RTVSPropertyOp20
 70
     1
102
RTVSPropertyOp21
 70
     1
102
RTVSPropertyOp22
 70
     1
102
RTVSPropertyOp23
 70
     1
102
RTVSPropertyOp24
 70
     1
102
RTVSPropertyOp25
 70
     1
102
RTVSPropertyOp26
 70
     1
102
RTVSPropertyOp27
 70
     1
102
RTVSPropertyOp28
 70
     1
102
RTVSPropertyOp29
 70
     1
102
RTVSPropertyOp30
 70
     1
102
RTVSPropertyOp31
 70
     1
102
RTVSPropertyOp32
 70
     1
  0
XRECORD
  5
F53
102
{ACAD_REACTORS
330
F52
102
}
330
F52
100
AcDbXrecord
280
     1
102
RTVSPropertyOp0
 70
     1
102
RTVSPropertyOp1
 70
     1
102
RTVSPropertyOp2
 70
     1
102
RTVSPropertyOp3
 70
     1
102
RTVSPropertyOp4
 70
     1
102
RTVSPropertyOp5
 70
     1
102
RTVSPropertyOp6
 70
     1
102
RTVSPropertyOp7
 70
     1
102
RTVSPropertyOp8
 70
     1
102
RTVSPropertyOp9
 70
     1
102
RTVSPropertyOp10
 70
     1
102
RTVSPropertyOp11
 70
     1
102
RTVSPropertyOp12
 70
     1
102
RTVSPropertyOp13
 70
     1
102
RTVSPropertyOp14
 70
     1
102
RTVSPropertyOp15
 70
     1
102
RTVSPropertyOp16
 70
     1
102
RTVSPropertyOp17
 70
     1
102
RTVSPropertyOp18
 70
     1
102
RTVSPropertyOp19
 70
     1
102
RTVSPropertyOp20
 70
     1
102
RTVSPropertyOp21
 70
     1
102
RTVSPropertyOp22
 70
     1
102
RTVSPropertyOp23
 70
     1
102
RTVSPropertyOp24
 70
     1
102
RTVSPropertyOp25
 70
     1
102
RTVSPropertyOp26
 70
     1
102
RTVSPropertyOp27
 70
     1
102
RTVSPropertyOp28
 70
     1
102
RTVSPropertyOp29
 70
     1
102
RTVSPropertyOp30
 70
     1
102
RTVSPropertyOp31
 70
     1
102
RTVSPropertyOp32
 70
     1
  0
XRECORD
  5
F4D
102
{ACAD_REACTORS
330
F4C
102
}
330
F4C
100
AcDbXrecord
280
     1
102
RTVSPropertyOp0
 70
     1
102
RTVSPropertyOp1
 70
     1
102
RTVSPropertyOp2
 70
     1
102
RTVSPropertyOp3
 70
     1
102
RTVSPropertyOp4
 70
     1
102
RTVSPropertyOp5
 70
     1
102
RTVSPropertyOp6
 70
     1
102
RTVSPropertyOp7
 70
     1
102
RTVSPropertyOp8
 70
     1
102
RTVSPropertyOp9
 70
     1
102
RTVSPropertyOp10
 70
     1
102
RTVSPropertyOp11
 70
     1
102
RTVSPropertyOp12
 70
     1
102
RTVSPropertyOp13
 70
     1
102
RTVSPropertyOp14
 70
     1
102
RTVSPropertyOp15
 70
     1
102
RTVSPropertyOp16
 70
     1
102
RTVSPropertyOp17
 70
     1
102
RTVSPropertyOp18
 70
     1
102
RTVSPropertyOp19
 70
     1
102
RTVSPropertyOp20
 70
     1
102
RTVSPropertyOp21
 70
     1
102
RTVSPropertyOp22
 70
     1
102
RTVSPropertyOp23
 70
     1
102
RTVSPropertyOp24
 70
     1
102
RTVSPropertyOp25
 70
     1
102
RTVSPropertyOp26
 70
     1
102
RTVSPropertyOp27
 70
     1
102
RTVSPropertyOp28
 70
     1
102
RTVSPropertyOp29
 70
     1
102
RTVSPropertyOp30
 70
     1
102
RTVSPropertyOp31
 70
     1
102
RTVSPropertyOp32
 70
     1
  0
XRECORD
  5
F4F
102
{ACAD_REACTORS
330
F4E
102
}
330
F4E
100
AcDbXrecord
280
     1
102
RTVSPropertyOp0
 70
     1
102
RTVSPropertyOp1
 70
     1
102
RTVSPropertyOp2
 70
     1
102
RTVSPropertyOp3
 70
     1
102
RTVSPropertyOp4
 70
     1
102
RTVSPropertyOp5
 70
     1
102
RTVSPropertyOp6
 70
     1
102
RTVSPropertyOp7
 70
     1
102
RTVSPropertyOp8
 70
     1
102
RTVSPropertyOp9
 70
     1
102
RTVSPropertyOp10
 70
     1
102
RTVSPropertyOp11
 70
     1
102
RTVSPropertyOp12
 70
     1
102
RTVSPropertyOp13
 70
     1
102
RTVSPropertyOp14
 70
     1
102
RTVSPropertyOp15
 70
     1
102
RTVSPropertyOp16
 70
     1
102
RTVSPropertyOp17
 70
     1
102
RTVSPropertyOp18
 70
     1
102
RTVSPropertyOp19
 70
     1
102
RTVSPropertyOp20
 70
     1
102
RTVSPropertyOp21
 70
     1
102
RTVSPropertyOp22
 70
     1
102
RTVSPropertyOp23
 70
     1
102
RTVSPropertyOp24
 70
     1
102
RTVSPropertyOp25
 70
     1
102
RTVSPropertyOp26
 70
     1
102
RTVSPropertyOp27
 70
     1
102
RTVSPropertyOp28
 70
     1
102
RTVSPropertyOp29
 70
     1
102
RTVSPropertyOp30
 70
     1
102
RTVSPropertyOp31
 70
     1
102
RTVSPropertyOp32
 70
     1
  0
XRECORD
  5
F45
102
{ACAD_REACTORS
330
F44
102
}
330
F44
100
AcDbXrecord
280
     1
102
RTVSPropertyOp0
 70
     1
102
RTVSPropertyOp1
 70
     1
102
RTVSPropertyOp2
 70
     1
102
RTVSPropertyOp3
 70
     1
102
RTVSPropertyOp4
 70
     1
102
RTVSPropertyOp5
 70
     1
102
RTVSPropertyOp6
 70
     1
102
RTVSPropertyOp7
 70
     1
102
RTVSPropertyOp8
 70
     1
102
RTVSPropertyOp9
 70
     1
102
RTVSPropertyOp10
 70
     1
102
RTVSPropertyOp11
 70
     1
102
RTVSPropertyOp12
 70
     1
102
RTVSPropertyOp13
 70
     1
102
RTVSPropertyOp14
 70
     1
102
RTVSPropertyOp15
 70
     1
102
RTVSPropertyOp16
 70
     1
102
RTVSPropertyOp17
 70
     1
102
RTVSPropertyOp18
 70
     1
102
RTVSPropertyOp19
 70
     1
102
RTVSPropertyOp20
 70
     1
102
RTVSPropertyOp21
 70
     1
102
RTVSPropertyOp22
 70
     1
102
RTVSPropertyOp23
 70
     1
102
RTVSPropertyOp24
 70
     1
102
RTVSPropertyOp25
 70
     1
102
RTVSPropertyOp26
 70
     1
102
RTVSPropertyOp27
 70
     1
102
RTVSPropertyOp28
 70
     1
102
RTVSPropertyOp29
 70
     1
102
RTVSPropertyOp30
 70
     1
102
RTVSPropertyOp31
 70
     1
102
RTVSPropertyOp32
 70
     1
  0
XRECORD
  5
F39
102
{ACAD_REACTORS
330
F38
102
}
330
F38
100
AcDbXrecord
280
     1
102
RTVSPropertyOp0
 70
     1
102
RTVSPropertyOp1
 70
     1
102
RTVSPropertyOp2
 70
     1
102
RTVSPropertyOp3
 70
     1
102
RTVSPropertyOp4
 70
     1
102
RTVSPropertyOp5
 70
     1
102
RTVSPropertyOp6
 70
     1
102
RTVSPropertyOp7
 70
     1
102
RTVSPropertyOp8
 70
     1
102
RTVSPropertyOp9
 70
     1
102
RTVSPropertyOp10
 70
     1
102
RTVSPropertyOp11
 70
     1
102
RTVSPropertyOp12
 70
     1
102
RTVSPropertyOp13
 70
     1
102
RTVSPropertyOp14
 70
     1
102
RTVSPropertyOp15
 70
     1
102
RTVSPropertyOp16
 70
     1
102
RTVSPropertyOp17
 70
     1
102
RTVSPropertyOp18
 70
     1
102
RTVSPropertyOp19
 70
     1
102
RTVSPropertyOp20
 70
     1
102
RTVSPropertyOp21
 70
     1
102
RTVSPropertyOp22
 70
     1
102
RTVSPropertyOp23
 70
     1
102
RTVSPropertyOp24
 70
     1
102
RTVSPropertyOp25
 70
     1
102
RTVSPropertyOp26
 70
     1
102
RTVSPropertyOp27
 70
     1
102
RTVSPropertyOp28
 70
     1
102
RTVSPropertyOp29
 70
     1
102
RTVSPropertyOp30
 70
     1
102
RTVSPropertyOp31
 70
     1
102
RTVSPropertyOp32
 70
     1
  0
XRECORD
  5
F51
102
{ACAD_REACTORS
330
F50
102
}
330
F50
100
AcDbXrecord
280
     1
102
RTVSPropertyOp0
 70
     1
102
RTVSPropertyOp1
 70
     1
102
RTVSPropertyOp2
 70
     1
102
RTVSPropertyOp3
 70
     1
102
RTVSPropertyOp4
 70
     1
102
RTVSPropertyOp5
 70
     1
102
RTVSPropertyOp6
 70
     1
102
RTVSPropertyOp7
 70
     1
102
RTVSPropertyOp8
 70
     1
102
RTVSPropertyOp9
 70
     1
102
RTVSPropertyOp10
 70
     1
102
RTVSPropertyOp11
 70
     1
102
RTVSPropertyOp12
 70
     1
102
RTVSPropertyOp13
 70
     1
102
RTVSPropertyOp14
 70
     1
102
RTVSPropertyOp15
 70
     1
102
RTVSPropertyOp16
 70
     1
102
RTVSPropertyOp17
 70
     1
102
RTVSPropertyOp18
 70
     1
102
RTVSPropertyOp19
 70
     1
102
RTVSPropertyOp20
 70
     1
102
RTVSPropertyOp21
 70
     1
102
RTVSPropertyOp22
 70
     1
102
RTVSPropertyOp23
 70
     1
102
RTVSPropertyOp24
 70
     1
102
RTVSPropertyOp25
 70
     1
102
RTVSPropertyOp26
 70
     1
102
RTVSPropertyOp27
 70
     1
102
RTVSPropertyOp28
 70
     1
102
RTVSPropertyOp29
 70
     1
102
RTVSPropertyOp30
 70
     1
102
RTVSPropertyOp31
 70
     1
102
RTVSPropertyOp32
 70
     1
  0
ENDSEC
  0
EOF
