  0
SECTION
  2
HEADER
  9
$ACADVER
  1
AC1015
  9
$ACADMAINTVER
 70
    20
  9
$DWGCODEPAGE
  3
ANSI_932
  9
$INSBASE
 10
0.0
 20
0.0
 30
0.0
  9
$EXTMIN
 10
471.2024929999998
 20
10.609884
 30
0.0
  9
$EXTMAX
 10
663.2454279999998
 20
291.732013
 30
0.0
  9
$LIMMIN
 10
471.201484
 20
10.608884
  9
$LIMMAX
 10
663.203515
 20
291.732995
  9
$ORTHOMODE
 70
     1
  9
$REGENMODE
 70
     1
  9
$FILLMODE
 70
     1
  9
$QTEXTMODE
 70
     0
  9
$MIRRTEXT
 70
     0
  9
$LTSCALE
 40
4.685369
  9
$ATTMODE
 70
     1
  9
$TEXTSIZE
 40
3.2
  9
$TRACEWID
 40
0.05
  9
$TEXTSTYLE
  7
高3.2
  9
$CLAYER
  8
0
  9
$CELTYPE
  6
CONTINUOUS
  9
$CECOLOR
 62
   256
  9
$CELTSCALE
 40
1.0
  9
$DISPSILH
 70
     0
  9
$DIMSCALE
 40
1.0
  9
$DIMASZ
 40
2.5
  9
$DIMEXO
 40
0.25
  9
$DIMDLI
 40
0.2
  9
$DIMRND
 40
0.0
  9
$DIMDLE
 40
0.0
  9
$DIMEXE
 40
1.25
  9
$DIMTP
 40
0.0
  9
$DIMTM
 40
0.0
  9
$DIMTXT
 40
3.0
  9
$DIMCEN
 40
0.0
  9
$DIMTSZ
 40
0.0
  9
$DIMTOL
 70
     0
  9
$DIMLIM
 70
     0
  9
$DIMTIH
 70
     0
  9
$DIMTOH
 70
     0
  9
$DIMSE1
 70
     0
  9
$DIMSE2
 70
     0
  9
$DIMTAD
 70
     3
  9
$DIMZIN
 70
     8
  9
$DIMBLK
  1
Open30
  9
$DIMASO
 70
     1
  9
$DIMSHO
 70
     1
  9
$DIMPOST
  1

  9
$DIMAPOST
  1

  9
$DIMALT
 70
     0
  9
$DIMALTD
 70
     3
  9
$DIMALTF
 40
0.03937007874016
  9
$DIMLFAC
 40
1.0
  9
$DIMTOFL
 70
     1
  9
$DIMTVP
 40
0.0
  9
$DIMTIX
 70
     0
  9
$DIMSOXD
 70
     0
  9
$DIMSAH
 70
     0
  9
$DIMBLK1
  1

  9
$DIMBLK2
  1

  9
$DIMSTYLE
  2
1：1
  9
$DIMCLRD
 70
     0
  9
$DIMCLRE
 70
     0
  9
$DIMCLRT
 70
     4
  9
$DIMTFAC
 40
1.0
  9
$DIMGAP
 40
0.625
  9
$DIMJUST
 70
     0
  9
$DIMSD1
 70
     0
  9
$DIMSD2
 70
     0
  9
$DIMTOLJ
 70
     0
  9
$DIMTZIN
 70
     8
  9
$DIMALTZ
 70
     0
  9
$DIMALTTZ
 70
     0
  9
$DIMUPT
 70
     1
  9
$DIMDEC
 70
     2
  9
$DIMTDEC
 70
     2
  9
$DIMALTU
 70
     2
  9
$DIMALTTD
 70
     3
  9
$DIMTXSTY
  7
STANDARD
  9
$DIMAUNIT
 70
     0
  9
$DIMADEC
 70
     1
  9
$DIMALTRND
 40
0.0
  9
$DIMAZIN
 70
     2
  9
$DIMDSEP
 70
    46
  9
$DIMATFIT
 70
     0
  9
$DIMFRAC
 70
     0
  9
$DIMLDRBLK
  1
Open30
  9
$DIMLUNIT
 70
     2
  9
$DIMLWD
 70
    -2
  9
$DIMLWE
 70
    -2
  9
$DIMTMOVE
 70
     0
  9
$LUNITS
 70
     2
  9
$LUPREC
 70
     4
  9
$SKETCHINC
 40
0.1
  9
$FILLETRAD
 40
0.0
  9
$AUNITS
 70
     0
  9
$AUPREC
 70
     0
  9
$MENU
  1
.
  9
$ELEVATION
 40
0.0
  9
$PELEVATION
 40
0.0
  9
$THICKNESS
 40
0.0
  9
$LIMCHECK
 70
     0
  9
$CHAMFERA
 40
0.0
  9
$CHAMFERB
 40
0.0
  9
$CHAMFERC
 40
0.0
  9
$CHAMFERD
 40
0.0
  9
$SKPOLY
 70
     0
  9
$TDCREATE
 40
2456071.748097141
  9
$TDUCREATE
 40
2456071.373097142
  9
$TDUPDATE
 40
2456850.821295313
  9
$TDUUPDATE
 40
2456850.446295312
  9
$TDINDWG
 40
0.0116731944
  9
$TDUSRTIMER
 40
0.0116731944
  9
$USRTIMER
 70
     1
  9
$ANGBASE
 50
0.0
  9
$ANGDIR
 70
     0
  9
$PDMODE
 70
     0
  9
$PDSIZE
 40
0.0
  9
$PLINEWID
 40
0.0
  9
$SPLFRAME
 70
     0
  9
$SPLINETYPE
 70
     6
  9
$SPLINESEGS
 70
     8
  9
$HANDSEED
  5
718
  9
$SURFTAB1
 70
     6
  9
$SURFTAB2
 70
     6
  9
$SURFTYPE
 70
     6
  9
$SURFU
 70
     6
  9
$SURFV
 70
     6
  9
$UCSBASE
  2

  9
$UCSNAME
  2

  9
$UCSORG
 10
0.0
 20
0.0
 30
0.0
  9
$UCSXDIR
 10
1.0
 20
0.0
 30
0.0
  9
$UCSYDIR
 10
0.0
 20
1.0
 30
0.0
  9
$UCSORTHOREF
  2

  9
$UCSORTHOVIEW
 70
     0
  9
$UCSORGTOP
 10
0.0
 20
0.0
 30
0.0
  9
$UCSORGBOTTOM
 10
0.0
 20
0.0
 30
0.0
  9
$UCSORGLEFT
 10
0.0
 20
0.0
 30
0.0
  9
$UCSORGRIGHT
 10
0.0
 20
0.0
 30
0.0
  9
$UCSORGFRONT
 10
0.0
 20
0.0
 30
0.0
  9
$UCSORGBACK
 10
0.0
 20
0.0
 30
0.0
  9
$PUCSBASE
  2

  9
$PUCSNAME
  2

  9
$PUCSORG
 10
0.0
 20
0.0
 30
0.0
  9
$PUCSXDIR
 10
1.0
 20
0.0
 30
0.0
  9
$PUCSYDIR
 10
0.0
 20
1.0
 30
0.0
  9
$PUCSORTHOREF
  2

  9
$PUCSORTHOVIEW
 70
     0
  9
$PUCSORGTOP
 10
0.0
 20
0.0
 30
0.0
  9
$PUCSORGBOTTOM
 10
0.0
 20
0.0
 30
0.0
  9
$PUCSORGLEFT
 10
0.0
 20
0.0
 30
0.0
  9
$PUCSORGRIGHT
 10
0.0
 20
0.0
 30
0.0
  9
$PUCSORGFRONT
 10
0.0
 20
0.0
 30
0.0
  9
$PUCSORGBACK
 10
0.0
 20
0.0
 30
0.0
  9
$USERI1
 70
     0
  9
$USERI2
 70
     0
  9
$USERI3
 70
     0
  9
$USERI4
 70
     0
  9
$USERI5
 70
     0
  9
$USERR1
 40
0.0
  9
$USERR2
 40
0.0
  9
$USERR3
 40
0.0
  9
$USERR4
 40
0.0
  9
$USERR5
 40
0.0
  9
$WORLDVIEW
 70
     1
  9
$SHADEDGE
 70
     3
  9
$SHADEDIF
 70
    70
  9
$TILEMODE
 70
     1
  9
$MAXACTVP
 70
    64
  9
$PINSBASE
 10
0.0
 20
0.0
 30
0.0
  9
$PLIMCHECK
 70
     0
  9
$PEXTMIN
 10
1.000000000000000E+20
 20
1.000000000000000E+20
 30
1.000000000000000E+20
  9
$PEXTMAX
 10
-1.000000000000000E+20
 20
-1.000000000000000E+20
 30
-1.000000000000000E+20
  9
$PLIMMIN
 10
0.0
 20
0.0
  9
$PLIMMAX
 10
12.0
 20
9.0
  9
$UNITMODE
 70
     0
  9
$VISRETAIN
 70
     1
  9
$PLINEGEN
 70
     0
  9
$PSLTSCALE
 70
     1
  9
$TREEDEPTH
 70
  3020
  9
$CMLSTYLE
  2
Standard
  9
$CMLJUST
 70
     0
  9
$CMLSCALE
 40
1.0
  9
$PROXYGRAPHICS
 70
     1
  9
$MEASUREMENT
 70
     0
  9
$CELWEIGHT
370
    -1
  9
$ENDCAPS
280
     0
  9
$JOINSTYLE
280
     0
  9
$LWDISPLAY
290
     0
  9
$INSUNITS
 70
     0
  9
$HYPERLINKBASE
  1

  9
$STYLESHEET
  1

  9
$XEDIT
290
     1
  9
$CEPSNTYPE
380
     0
  9
$PSTYLEMODE
290
     1
  9
$FINGERPRINTGUID
  2
{6438892F-48C2-4F1C-9220-2DDCC7AD4368}
  9
$VERSIONGUID
  2
{1FE8318D-5EC7-4733-946E-79FA62E14FE2}
  9
$EXTNAMES
290
     1
  9
$PSVPSCALE
 40
0.0
  9
$OLESTARTUP
290
     0
  0
ENDSEC
  0
SECTION
  2
CLASSES
  0
CLASS
  1
ACDBDICTIONARYWDFLT
  2
AcDbDictionaryWithDefault
  3
ObjectDBX Classes
 90
        0
280
     0
281
     0
  0
CLASS
  1
MATERIAL
  2
AcDbMaterial
  3
ObjectDBX Classes
 90
     1153
280
     0
281
     0
  0
CLASS
  1
VISUALSTYLE
  2
AcDbVisualStyle
  3
ObjectDBX Classes
 90
     4095
280
     0
281
     0
  0
CLASS
  1
SCALE
  2
AcDbScale
  3
ObjectDBX Classes
 90
     1153
280
     0
281
     0
  0
CLASS
  1
TABLESTYLE
  2
AcDbTableStyle
  3
ObjectDBX Classes
 90
     4095
280
     0
281
     0
  0
CLASS
  1
MLEADERSTYLE
  2
AcDbMLeaderStyle
  3
ACDB_MLEADERSTYLE_CLASS
 90
     4095
280
     0
281
     0
  0
CLASS
  1
SORTENTSTABLE
  2
AcDbSortentsTable
  3
ObjectDBX Classes
 90
        0
280
     0
281
     0
  0
CLASS
  1
DICTIONARYVAR
  2
AcDbDictionaryVar
  3
ObjectDBX Classes
 90
        0
280
     0
281
     0
  0
CLASS
  1
CELLSTYLEMAP
  2
AcDbCellStyleMap
  3
ObjectDBX Classes
 90
     1152
280
     0
281
     0
  0
CLASS
  1
ACDBPLACEHOLDER
  2
AcDbPlaceHolder
  3
ObjectDBX Classes
 90
        0
280
     0
281
     0
  0
CLASS
  1
LAYOUT
  2
AcDbLayout
  3
ObjectDBX Classes
 90
        0
280
     0
281
     0
  0
ENDSEC
  0
SECTION
  2
TABLES
  0
TABLE
  2
VPORT
  5
8
330
0
100
AcDbSymbolTable
 70
     1
  0
VPORT
  5
8B
330
8
100
AcDbSymbolTableRecord
100
AcDbViewportTableRecord
  2
*Active
 70
     0
 10
0.0
 20
0.0
 11
1.0
 21
1.0
 12
572.5241481571056
 22
134.1924858424914
 13
0.0
 23
0.0
 14
1.0
 24
1.0
 15
0.0
 25
0.0
 16
0.0
 26
0.0
 36
1.0
 17
0.0
 27
0.0
 37
0.0
 40
650.5946156352989
 41
1.925141242937853
 42
50.0
 43
0.0
 44
0.0
 50
0.0
 51
0.0
 71
     0
 72
   100
 73
     1
 74
     1
 75
     0
 76
     0
 77
     0
 78
     0
281
     0
 65
     1
110
0.0
120
0.0
130
0.0
111
1.0
121
0.0
131
0.0
112
0.0
122
1.0
132
0.0
 79
     0
146
0.0
  0
ENDTAB
  0
TABLE
  2
LTYPE
  5
5
330
0
100
AcDbSymbolTable
 70
     2
  0
LTYPE
  5
5A
330
5
100
AcDbSymbolTableRecord
100
AcDbLinetypeTableRecord
  2
ByBlock
 70
     0
  3

 72
    65
 73
     0
 40
0.0
  0
LTYPE
  5
5B
330
5
100
AcDbSymbolTableRecord
100
AcDbLinetypeTableRecord
  2
ByLayer
 70
     0
  3

 72
    65
 73
     0
 40
0.0
  0
LTYPE
  5
5C
330
5
100
AcDbSymbolTableRecord
100
AcDbLinetypeTableRecord
  2
CONTINUOUS
 70
     0
  3
Solid-line
 72
    65
 73
     0
 40
0.0
  0
LTYPE
  5
72
330
5
100
AcDbSymbolTableRecord
100
AcDbLinetypeTableRecord
  2
CENTER
 70
     0
  3
CENTER
 72
    65
 73
     4
 40
2.0
 49
1.25
 74
     0
 49
-0.25
 74
     0
 49
0.25
 74
     0
 49
-0.25
 74
     0
  0
ENDTAB
  0
TABLE
  2
LAYER
  5
2
102
{ACAD_XDICTIONARY
360
38D
102
}
330
0
100
AcDbSymbolTable
 70
     3
  0
LAYER
  5
54
102
{ACAD_XDICTIONARY
360
523
102
}
330
2
100
AcDbSymbolTableRecord
100
AcDbLayerTableRecord
  2
0
 70
     0
 62
     7
  6
CONTINUOUS
370
    -3
390
F
  0
LAYER
  5
378
330
2
100
AcDbSymbolTableRecord
100
AcDbLayerTableRecord
  2
Defpoints
 70
     0
 62
     7
  6
CONTINUOUS
290
     0
370
    -3
390
F
  0
ENDTAB
  0
TABLE
  2
STYLE
  5
3
330
0
100
AcDbSymbolTable
 70
     6
  0
STYLE
  5
55
330
3
100
AcDbSymbolTableRecord
100
AcDbTextStyleTableRecord
  2
STANDARD
 70
     0
 40
0.0
 41
1.0
 50
0.0
 71
     0
 42
0.2
  3
TXT
  4
BIGFONT
  0
STYLE
  5
379
330
3
100
AcDbSymbolTableRecord
100
AcDbTextStyleTableRecord
  2
高3.2
 70
     0
 40
3.2
 41
1.0
 50
0.0
 71
     0
 42
3.2
  3
txt.shx
  4
bigfont.shx
  0
STYLE
  5
37A
330
3
100
AcDbSymbolTableRecord
100
AcDbTextStyleTableRecord
  2
高6.3
 70
     0
 40
6.299999999999998
 41
1.0
 50
0.0
 71
     0
 42
6.299999999999998
  3
txt.shx
  4
bigfont.shx
  0
STYLE
  5
37C
330
3
100
AcDbSymbolTableRecord
100
AcDbTextStyleTableRecord
  2
高4.5
 70
     0
 40
4.5
 41
1.0
 50
0.0
 71
     0
 42
6.299999999999998
  3
txt.shx
  4
bigfont.shx
  0
STYLE
  5
37D
330
3
100
AcDbSymbolTableRecord
100
AcDbTextStyleTableRecord
  2
高2
 70
     0
 40
2.0
 41
1.0
 50
0.0
 71
     0
 42
2.0
  3
txt.shx
  4
bigfont.shx
  0
ENDTAB
  0
TABLE
  2
VIEW
  5
6
330
0
100
AcDbSymbolTable
 70
     0
  0
ENDTAB
  0
TABLE
  2
UCS
  5
7
330
0
100
AcDbSymbolTable
 70
     0
  0
ENDTAB
  0
TABLE
  2
APPID
  5
9
330
0
100
AcDbSymbolTable
 70
    10
  0
APPID
  5
56
330
9
100
AcDbSymbolTableRecord
100
AcDbRegAppTableRecord
  2
ACAD
 70
     0
  0
APPID
  5
5D
330
9
100
AcDbSymbolTableRecord
100
AcDbRegAppTableRecord
  2
AcadAnnotative
 70
     0
  0
APPID
  5
388
330
9
100
AcDbSymbolTableRecord
100
AcDbRegAppTableRecord
  2
ACAD_DSTYLE_DIMJOGGED_JOGANGLE_SYMBOL
 70
     0
  0
APPID
  5
389
330
9
100
AcDbSymbolTableRecord
100
AcDbRegAppTableRecord
  2
ACAD_DSTYLE_DIMJAG
 70
     0
  0
APPID
  5
38A
330
9
100
AcDbSymbolTableRecord
100
AcDbRegAppTableRecord
  2
ACAD_DSTYLE_DIMBREAK
 70
     0
  0
APPID
  5
38B
330
9
100
AcDbSymbolTableRecord
100
AcDbRegAppTableRecord
  2
ACAD_DSTYLE_DIMTALN
 70
     0
  0
APPID
  5
4ED
330
9
100
AcDbSymbolTableRecord
100
AcDbRegAppTableRecord
  2
ACAD_EXEMPT_FROM_CAD_STANDARDS
 70
     0
  0
APPID
  5
56B
330
9
100
AcDbSymbolTableRecord
100
AcDbRegAppTableRecord
  2
ACAD_MLEADERVER
 70
     0
  0
APPID
  5
570
330
9
100
AcDbSymbolTableRecord
100
AcDbRegAppTableRecord
  2
ACAD_DSTYLE_DIMARC_LENGTH_SYMBOL
 70
     0
  0
APPID
  5
571
330
9
100
AcDbSymbolTableRecord
100
AcDbRegAppTableRecord
  2
ACAD_DSTYLE_DIMEXT_LENGTH
 70
     0
  0
ENDTAB
  0
TABLE
  2
DIMSTYLE
  5
A
330
0
100
AcDbSymbolTable
 70
     2
100
AcDbDimStyleTable
 71
     1
340
37E
  0
DIMSTYLE
105
57
330
A
100
AcDbSymbolTableRecord
100
AcDbDimStyleTableRecord
  2
Standard
 70
     0
340
55
  0
DIMSTYLE
105
37E
330
A
100
AcDbSymbolTableRecord
100
AcDbDimStyleTableRecord
  2
1：1
 70
     0
 41
2.5
 42
0.25
 43
0.2
 44
1.25
 73
     0
 74
     0
 77
     3
 78
     8
 79
     2
140
3.0
141
0.0
143
0.03937007874016
147
0.625
171
     3
172
     1
178
     4
179
     1
271
     2
272
     2
274
     3
283
     0
284
     8
288
     1
289
     0
340
55
341
2E8
342
2E8
1001
ACAD_DSTYLE_DIMARC_LENGTH_SYMBOL
1070
   379
1070
     2
1001
ACAD_DSTYLE_DIMEXT_LENGTH
1070
   378
1040
1.25
1001
ACAD_DSTYLE_DIMJOGGED_JOGANGLE_SYMBOL
1070
   384
1040
1.570796326794896
  0
ENDTAB
  0
TABLE
  2
BLOCK_RECORD
  5
1
330
0
100
AcDbSymbolTable
 70
     6
  0
BLOCK_RECORD
  5
6B
102
{ACAD_XDICTIONARY
360
5A7
102
}
330
1
100
AcDbSymbolTableRecord
100
AcDbBlockTableRecord
  2
*Model_Space
340
6E
  0
BLOCK_RECORD
  5
67
330
1
100
AcDbSymbolTableRecord
100
AcDbBlockTableRecord
  2
*Paper_Space
340
6A
  0
BLOCK_RECORD
  5
2E8
330
1
100
AcDbSymbolTableRecord
100
AcDbBlockTableRecord
  2
_Open30
340
0
102
{BLKREFS
331
5EC
331
5ED
331
5F5
331
5F6
331
5FE
331
5FF
331
607
331
608
331
610
331
611
102
}
  0
BLOCK_RECORD
  5
49F
330
1
100
AcDbSymbolTableRecord
100
AcDbBlockTableRecord
  2
*D1
340
0
  0
BLOCK_RECORD
  5
4AB
330
1
100
AcDbSymbolTableRecord
100
AcDbBlockTableRecord
  2
*D2
340
0
  0
BLOCK_RECORD
  5
4B7
330
1
100
AcDbSymbolTableRecord
100
AcDbBlockTableRecord
  2
*D3
340
0
  0
BLOCK_RECORD
  5
4EF
330
1
100
AcDbSymbolTableRecord
100
AcDbBlockTableRecord
  2
*D4
340
0
  0
BLOCK_RECORD
  5
4FC
330
1
100
AcDbSymbolTableRecord
100
AcDbBlockTableRecord
  2
*D5
340
0
  0
ENDTAB
  0
ENDSEC
  0
SECTION
  2
BLOCKS
  0
BLOCK
  5
6C
330
6B
100
AcDbEntity
  8
0
100
AcDbBlockBegin
  2
*Model_Space
 70
     0
 10
0.0
 20
0.0
 30
0.0
  3
*Model_Space
  1

  0
ENDBLK
  5
6D
330
6B
100
AcDbEntity
  8
0
100
AcDbBlockEnd
  0
BLOCK
  5
68
330
67
100
AcDbEntity
 67
     1
  8
0
100
AcDbBlockBegin
  2
*Paper_Space
 70
     0
 10
0.0
 20
0.0
 30
0.0
  3
*Paper_Space
  1

  0
ENDBLK
  5
69
330
67
100
AcDbEntity
 67
     1
  8
0
100
AcDbBlockEnd
  0
BLOCK
  5
2E9
330
2E8
100
AcDbEntity
  8
0
100
AcDbBlockBegin
  2
_Open30
 70
     0
 10
0.0
 20
0.0
 30
0.0
  3
_Open30
  1

  0
LINE
  5
2EA
330
2E8
100
AcDbEntity
  8
0
  6
ByBlock
 62
     0
370
    -2
100
AcDbLine
 10
-1.0
 20
0.267949
 30
0.0
 11
0.0
 21
0.0
 31
0.0
  0
LINE
  5
2EB
330
2E8
100
AcDbEntity
  8
0
  6
ByBlock
 62
     0
370
    -2
100
AcDbLine
 10
0.0
 20
0.0
 30
0.0
 11
-1.0
 21
-0.267949
 31
0.0
  0
LINE
  5
2EC
330
2E8
100
AcDbEntity
  8
0
  6
ByBlock
 62
     0
370
    -2
100
AcDbLine
 10
0.0
 20
0.0
 30
0.0
 11
-1.0
 21
0.0
 31
0.0
  0
ENDBLK
  5
2ED
330
2E8
100
AcDbEntity
  8
0
100
AcDbBlockEnd
  0
BLOCK
  5
4A0
330
49F
100
AcDbEntity
  8
0
100
AcDbBlockBegin
  2
*D1
 70
     1
 10
0.0
 20
0.0
 30
0.0
  3
*D1
  1

  0
LINE
  5
5E9
330
49F
100
AcDbEntity
  8
0
 62
     0
370
    -2
100
AcDbLine
 10
538.2766139999999
 20
226.706248
 30
0.0
 11
504.0931269999998
 21
226.706248
 31
0.0
  0
LINE
  5
5EA
330
49F
100
AcDbEntity
  8
0
 62
     0
370
    -2
100
AcDbLine
 10
538.2766139999999
 20
258.706248
 30
0.0
 11
504.0931269999998
 21
258.706248
 31
0.0
  0
LINE
  5
5EB
330
49F
100
AcDbEntity
  8
0
 62
     0
370
    -2
100
AcDbLine
 10
505.3431269999999
 20
229.206248
 30
0.0
 11
505.3431269999999
 21
256.206248
 31
0.0
  0
INSERT
  5
5EC
330
49F
100
AcDbEntity
  8
0
 62
     0
370
    -2
100
AcDbBlockReference
  2
_Open30
 10
505.3431269999999
 20
226.706248
 30
0.0
 41
2.5
 42
2.5
 43
2.5
 50
270.0
  0
INSERT
  5
5ED
330
49F
100
AcDbEntity
  8
0
 62
     0
370
    -2
100
AcDbBlockReference
  2
_Open30
 10
505.3431269999999
 20
258.706248
 30
0.0
 41
2.5
 42
2.5
 43
2.5
 50
90.0
  0
MTEXT
  5
5EE
330
49F
100
AcDbEntity
  8
0
 62
     4
100
AcDbMText
 10
503.2181269999997
 20
242.7062480000001
 30
0.0
 40
3.0
 41
0.0
 71
     5
 72
     1
  1
%%C32
 11
0.0000000000000001
 21
1.0
 31
0.0
 73
     1
 44
1.0
1001
ACAD
1000
MTEXTBEGIN
1070
    73
1070
     1
1070
    44
1040
1.0
1070
    74
1070
     0
1000
MTEXTEND
  0
POINT
  5
5EF
330
49F
100
AcDbEntity
  8
Defpoints
 62
     0
100
AcDbPoint
 10
538.5266139999998
 20
226.706248
 30
0.0
  0
POINT
  5
5F0
330
49F
100
AcDbEntity
  8
Defpoints
 62
     0
100
AcDbPoint
 10
538.5266139999998
 20
258.706248
 30
0.0
  0
POINT
  5
5F1
330
49F
100
AcDbEntity
  8
Defpoints
 62
     0
100
AcDbPoint
 10
505.3431269999999
 20
258.706248
 30
0.0
  0
ENDBLK
  5
4A1
330
49F
100
AcDbEntity
  8
0
100
AcDbBlockEnd
  0
BLOCK
  5
4AC
330
4AB
100
AcDbEntity
  8
0
100
AcDbBlockBegin
  2
*D2
 70
     1
 10
0.0
 20
0.0
 30
0.0
  3
*D2
  1

  0
LINE
  5
5FB
330
4AB
100
AcDbEntity
  8
0
 62
     0
370
    -2
100
AcDbLine
 10
541.276614
 20
127.028787
 30
0.0
 11
565.0305139999998
 21
127.028787
 31
0.0
  0
LINE
  5
5FC
330
4AB
100
AcDbEntity
  8
0
 62
     0
370
    -2
100
AcDbLine
 10
538.2766139999999
 20
214.128787
 30
0.0
 11
565.0305139999998
 21
214.128787
 31
0.0
  0
LINE
  5
5FD
330
4AB
100
AcDbEntity
  8
0
 62
     0
370
    -2
100
AcDbLine
 10
563.7805139999998
 20
129.528787
 30
0.0
 11
563.7805139999998
 21
211.628787
 31
0.0
  0
INSERT
  5
5FE
330
4AB
100
AcDbEntity
  8
0
 62
     0
370
    -2
100
AcDbBlockReference
  2
_Open30
 10
563.7805139999998
 20
127.028787
 30
0.0
 41
2.5
 42
2.5
 43
2.5
 50
270.0
  0
INSERT
  5
5FF
330
4AB
100
AcDbEntity
  8
0
 62
     0
370
    -2
100
AcDbBlockReference
  2
_Open30
 10
563.7805139999998
 20
214.128787
 30
0.0
 41
2.5
 42
2.5
 43
2.5
 50
90.0
  0
MTEXT
  5
600
330
4AB
100
AcDbEntity
  8
0
 62
     4
100
AcDbMText
 10
561.6555139999998
 20
170.5787870000001
 30
0.0
 40
3.0
 41
0.0
 71
     5
 72
     1
  1
87
 11
0.0000000000000001
 21
1.0
 31
0.0
 73
     1
 44
1.0
1001
ACAD
1000
MTEXTBEGIN
1070
    73
1070
     1
1070
    44
1040
1.0
1070
    74
1070
     0
1000
MTEXTEND
  0
POINT
  5
601
330
4AB
100
AcDbEntity
  8
Defpoints
 62
     0
100
AcDbPoint
 10
541.026614
 20
127.028787
 30
0.0
  0
POINT
  5
602
330
4AB
100
AcDbEntity
  8
Defpoints
 62
     0
100
AcDbPoint
 10
538.0266139999998
 20
214.128787
 30
0.0
  0
POINT
  5
603
330
4AB
100
AcDbEntity
  8
Defpoints
 62
     0
100
AcDbPoint
 10
563.7805139999998
 20
214.128787
 30
0.0
  0
ENDBLK
  5
4AD
330
4AB
100
AcDbEntity
  8
0
100
AcDbBlockEnd
  0
BLOCK
  5
4B8
330
4B7
100
AcDbEntity
  8
0
100
AcDbBlockBegin
  2
*D3
 70
     1
 10
0.0
 20
0.0
 30
0.0
  3
*D3
  1

  0
LINE
  5
5F2
330
4B7
100
AcDbEntity
  8
0
 62
     0
370
    -2
100
AcDbLine
 10
554.7766139999999
 20
164.128787
 30
0.0
 11
557.9056229999999
 21
164.128787
 31
0.0
  0
LINE
  5
5F3
330
4B7
100
AcDbEntity
  8
0
 62
     0
370
    -2
100
AcDbLine
 10
538.2766139999999
 20
214.128787
 30
0.0
 11
557.9056229999999
 21
214.128787
 31
0.0
  0
LINE
  5
5F4
330
4B7
100
AcDbEntity
  8
0
 62
     0
370
    -2
100
AcDbLine
 10
556.6556229999998
 20
166.628787
 30
0.0
 11
556.6556229999998
 21
211.628787
 31
0.0
  0
INSERT
  5
5F5
330
4B7
100
AcDbEntity
  8
0
 62
     0
370
    -2
100
AcDbBlockReference
  2
_Open30
 10
556.6556229999998
 20
164.128787
 30
0.0
 41
2.5
 42
2.5
 43
2.5
 50
270.0
  0
INSERT
  5
5F6
330
4B7
100
AcDbEntity
  8
0
 62
     0
370
    -2
100
AcDbBlockReference
  2
_Open30
 10
556.6556229999998
 20
214.128787
 30
0.0
 41
2.5
 42
2.5
 43
2.5
 50
90.0
  0
MTEXT
  5
5F7
330
4B7
100
AcDbEntity
  8
0
 62
     4
100
AcDbMText
 10
554.5306229999998
 20
189.1287870000001
 30
0.0
 40
3.0
 41
0.0
 71
     5
 72
     1
  1
50
 11
0.0000000000000001
 21
1.0
 31
0.0
 73
     1
 44
1.0
1001
ACAD
1000
MTEXTBEGIN
1070
    73
1070
     1
1070
    44
1040
1.0
1070
    74
1070
     0
1000
MTEXTEND
  0
POINT
  5
5F8
330
4B7
100
AcDbEntity
  8
Defpoints
 62
     0
100
AcDbPoint
 10
554.5266139999998
 20
164.128787
 30
0.0
  0
POINT
  5
5F9
330
4B7
100
AcDbEntity
  8
Defpoints
 62
     0
100
AcDbPoint
 10
538.0266139999998
 20
214.128787
 30
0.0
  0
POINT
  5
5FA
330
4B7
100
AcDbEntity
  8
Defpoints
 62
     0
100
AcDbPoint
 10
556.6556229999998
 20
214.128787
 30
0.0
  0
ENDBLK
  5
4B9
330
4B7
100
AcDbEntity
  8
0
100
AcDbBlockEnd
  0
BLOCK
  5
4F0
330
4EF
100
AcDbEntity
  8
0
100
AcDbBlockBegin
  2
*D4
 70
     1
 10
0.0
 20
0.0
 30
0.0
  3
*D4
  1

  0
LINE
  5
604
330
4EF
100
AcDbEntity
  8
0
 62
     0
370
    -2
100
AcDbLine
 10
552.1886459999998
 20
100.111455
 30
0.0
 11
565.0305139999998
 21
100.111455
 31
0.0
  0
LINE
  5
605
330
4EF
100
AcDbEntity
  8
0
 62
     0
370
    -2
100
AcDbLine
 10
541.276614
 20
127.028787
 30
0.0
 11
565.0305139999998
 21
127.028787
 31
0.0
  0
LINE
  5
606
330
4EF
100
AcDbEntity
  8
0
 62
     0
370
    -2
100
AcDbLine
 10
563.7805139999998
 20
102.611455
 30
0.0
 11
563.7805139999998
 21
124.528787
 31
0.0
  0
INSERT
  5
607
330
4EF
100
AcDbEntity
  8
0
 62
     0
370
    -2
100
AcDbBlockReference
  2
_Open30
 10
563.7805139999998
 20
100.111455
 30
0.0
 41
2.5
 42
2.5
 43
2.5
 50
270.0
  0
INSERT
  5
608
330
4EF
100
AcDbEntity
  8
0
 62
     0
370
    -2
100
AcDbBlockReference
  2
_Open30
 10
563.7805139999998
 20
127.028787
 30
0.0
 41
2.5
 42
2.5
 43
2.5
 50
90.0
  0
MTEXT
  5
609
330
4EF
100
AcDbEntity
  8
0
 62
     4
100
AcDbMText
 10
561.6555139999998
 20
113.5701210000001
 30
0.0
 40
3.0
 41
0.0
 71
     5
 72
     1
  1
(93)
 11
0.0000000000000001
 21
1.0
 31
0.0
 73
     1
 44
1.0
1001
ACAD
1000
MTEXTBEGIN
1070
    73
1070
     1
1070
    44
1040
1.0
1070
    74
1070
     0
1000
MTEXTEND
  0
POINT
  5
60A
330
4EF
100
AcDbEntity
  8
Defpoints
 62
     0
100
AcDbPoint
 10
551.9386459999998
 20
100.111455
 30
0.0
  0
POINT
  5
60B
330
4EF
100
AcDbEntity
  8
Defpoints
 62
     0
100
AcDbPoint
 10
541.026614
 20
127.028787
 30
0.0
  0
POINT
  5
60C
330
4EF
100
AcDbEntity
  8
Defpoints
 62
     0
100
AcDbPoint
 10
563.7805139999998
 20
127.028787
 30
0.0
  0
ENDBLK
  5
4F1
330
4EF
100
AcDbEntity
  8
0
100
AcDbBlockEnd
  0
BLOCK
  5
4FD
330
4FC
100
AcDbEntity
  8
0
100
AcDbBlockBegin
  2
*D5
 70
     1
 10
0.0
 20
0.0
 30
0.0
  3
*D5
  1

  0
LINE
  5
60D
330
4FC
100
AcDbEntity
  8
0
 62
     0
370
    -2
100
AcDbLine
 10
518.1603939999998
 20
100.111455
 30
0.0
 11
505.8732899999999
 21
100.111455
 31
0.0
  0
LINE
  5
60E
330
4FC
100
AcDbEntity
  8
0
 62
     0
370
    -2
100
AcDbLine
 10
529.3266139999998
 20
132.028787
 30
0.0
 11
505.87329
 21
132.028787
 31
0.0
  0
LINE
  5
60F
330
4FC
100
AcDbEntity
  8
0
 62
     0
370
    -2
100
AcDbLine
 10
507.12329
 20
102.611455
 30
0.0
 11
507.12329
 21
129.528787
 31
0.0
  0
INSERT
  5
610
330
4FC
100
AcDbEntity
  8
0
 62
     0
370
    -2
100
AcDbBlockReference
  2
_Open30
 10
507.12329
 20
100.111455
 30
0.0
 41
2.5
 42
2.5
 43
2.5
 50
270.0
  0
INSERT
  5
611
330
4FC
100
AcDbEntity
  8
0
 62
     0
370
    -2
100
AcDbBlockReference
  2
_Open30
 10
507.12329
 20
132.028787
 30
0.0
 41
2.5
 42
2.5
 43
2.5
 50
90.0
  0
MTEXT
  5
612
330
4FC
100
AcDbEntity
  8
0
 62
     4
100
AcDbMText
 10
504.9982899999999
 20
116.0701210000001
 30
0.0
 40
3.0
 41
0.0
 71
     5
 72
     1
  1
(100)
 11
0.0000000000000001
 21
1.0
 31
0.0
 73
     1
 44
1.0
1001
ACAD
1000
MTEXTBEGIN
1070
    73
1070
     1
1070
    44
1040
1.0
1070
    74
1070
     0
1000
MTEXTEND
  0
POINT
  5
613
330
4FC
100
AcDbEntity
  8
Defpoints
 62
     0
100
AcDbPoint
 10
518.4103939999999
 20
100.111455
 30
0.0
  0
POINT
  5
614
330
4FC
100
AcDbEntity
  8
Defpoints
 62
     0
100
AcDbPoint
 10
529.5766139999998
 20
132.028787
 30
0.0
  0
POINT
  5
615
330
4FC
100
AcDbEntity
  8
Defpoints
 62
     0
100
AcDbPoint
 10
507.12329
 20
132.028787
 30
0.0
  0
ENDBLK
  5
4FE
330
4FC
100
AcDbEntity
  8
0
100
AcDbBlockEnd
  0
ENDSEC
  0
SECTION
  2
ENTITIES
  0
LINE
  5
D5
330
6B
100
AcDbEntity
  8
0
 62
     3
100
AcDbLine
 10
522.526614
 20
164.128787
 30
0.0
 11
529.376614
 21
164.128787
 31
0.0
  0
LINE
  5
D6
330
6B
100
AcDbEntity
  8
0
 62
     3
100
AcDbLine
 10
522.526614
 20
161.528787
 30
0.0
 11
528.0766139999998
 21
161.528787
 31
0.0
  0
LINE
  5
D7
330
6B
100
AcDbEntity
  8
0
 62
     3
100
AcDbLine
 10
544.7766139999998
 20
171.128787
 30
0.0
 11
544.7766139999998
 21
164.128787
 31
0.0
  0
LINE
  5
D8
330
6B
100
AcDbEntity
  8
0
 62
     3
100
AcDbLine
 10
529.376614
 20
171.128787
 30
0.0
 11
529.376614
 21
164.128787
 31
0.0
  0
LINE
  5
D9
330
6B
100
AcDbEntity
  8
0
 62
     3
100
AcDbLine
 10
529.376614
 20
171.128787
 30
0.0
 11
544.7766139999998
 21
171.128787
 31
0.0
  0
LINE
  5
DA
330
6B
100
AcDbEntity
  8
0
 62
     3
100
AcDbLine
 10
540.4266139999998
 20
213.128787
 30
0.0
 11
536.626614
 21
213.128787
 31
0.0
  0
LINE
  5
DB
330
6B
100
AcDbEntity
  8
0
 62
     3
100
AcDbLine
 10
533.0766139999998
 20
213.528787
 30
0.0
 11
531.0766139999998
 21
213.528787
 31
0.0
  0
LINE
  5
DC
330
6B
100
AcDbEntity
  8
0
 62
     3
100
AcDbLine
 10
532.5766139999998
 20
214.128787
 30
0.0
 11
538.0266139999998
 21
214.128787
 31
0.0
  0
ARC
  5
DD
330
6B
100
AcDbEntity
  8
0
 62
     3
100
AcDbCircle
 10
538.5266139999998
 20
242.706248
 30
0.0
 40
16.0
100
AcDbArc
 50
7.180755999999997
 51
39.626552
  0
LINE
  5
DE
330
6B
100
AcDbEntity
  8
0
 62
     3
100
AcDbLine
 10
543.0266139999998
 20
204.328787
 30
0.0
 11
543.0266139999998
 21
171.128787
 31
0.0
  0
LINE
  5
DF
330
6B
100
AcDbEntity
  8
0
 62
     3
100
AcDbLine
 10
534.0266139999998
 20
204.328787
 30
0.0
 11
534.0266139999998
 21
171.128787
 31
0.0
  0
LINE
  5
E0
330
6B
100
AcDbEntity
  8
0
 62
     3
100
AcDbLine
 10
533.0766139999998
 20
213.528787
 30
0.0
 11
533.0766139999998
 21
171.128787
 31
0.0
  0
LINE
  5
E1
330
6B
100
AcDbEntity
  8
0
 62
     3
100
AcDbLine
 10
531.0766139999998
 20
213.528787
 30
0.0
 11
531.0766139999998
 21
171.128787
 31
0.0
  0
LINE
  5
E2
330
6B
100
AcDbEntity
  8
0
 62
     3
100
AcDbLine
 10
541.126614
 20
208.328787
 30
0.0
 11
535.9266139999999
 21
208.328787
 31
0.0
  0
LINE
  5
E3
330
6B
100
AcDbEntity
  8
0
 62
     3
100
AcDbLine
 10
541.126614
 20
208.328787
 30
0.0
 11
541.126614
 21
206.326285
 31
0.0
  0
LINE
  5
E4
330
6B
100
AcDbEntity
  8
0
 62
     3
100
AcDbLine
 10
535.9266139999999
 20
208.328787
 30
0.0
 11
535.9266139999999
 21
206.326285
 31
0.0
  0
LINE
  5
E5
330
6B
100
AcDbEntity
  8
0
 62
     3
100
AcDbLine
 10
540.4266139999998
 20
213.128787
 30
0.0
 11
540.4266139999998
 21
208.328787
 31
0.0
  0
LINE
  5
E6
330
6B
100
AcDbEntity
  8
0
 62
     3
100
AcDbLine
 10
536.626614
 20
213.128787
 30
0.0
 11
536.626614
 21
208.328787
 31
0.0
  0
ARC
  5
E7
330
6B
100
AcDbEntity
  8
0
 62
     3
100
AcDbCircle
 10
541.026614
 20
204.328787
 30
0.0
 40
2.0
100
AcDbArc
 50
0.0
 51
90.0
  0
ARC
  5
E8
330
6B
100
AcDbEntity
  8
0
 62
     3
100
AcDbCircle
 10
536.026614
 20
204.328787
 30
0.0
 40
2.0
100
AcDbArc
 50
90.0
 51
180.0
  0
LINE
  5
E9
330
6B
100
AcDbEntity
  8
0
 62
     3
100
AcDbLine
 10
554.5266139999998
 20
161.528787
 30
0.0
 11
554.5266139999998
 21
164.128787
 31
0.0
  0
LINE
  5
EA
330
6B
100
AcDbEntity
  8
0
 62
     3
100
AcDbLine
 10
522.526614
 20
164.128787
 30
0.0
 11
522.526614
 21
161.528787
 31
0.0
  0
ARC
  5
EB
330
6B
100
AcDbEntity
  8
0
 62
     3
100
AcDbCircle
 10
532.5766139999998
 20
213.628787
 30
0.0
 40
0.5
100
AcDbArc
 50
90.0
 51
180.0
  0
ARC
  5
EC
330
6B
100
AcDbEntity
  8
0
 62
     3
100
AcDbCircle
 10
538.0266139999998
 20
213.628787
 30
0.0
 40
0.5
100
AcDbArc
 50
0.0
 51
90.0
  0
CIRCLE
  5
ED
330
6B
100
AcDbEntity
  8
0
 62
     3
100
AcDbCircle
 10
538.5266139999998
 20
242.706248
 30
0.0
 40
4.5
  0
LINE
  5
EE
330
6B
100
AcDbEntity
  8
0
 62
     3
100
AcDbLine
 10
538.5266139999998
 20
242.706248
 30
0.0
 11
532.0766139999998
 21
242.706248
 31
0.0
  0
LINE
  5
EF
330
6B
100
AcDbEntity
  8
0
 62
     3
100
AcDbLine
 10
551.9386459999998
 20
100.111455
 30
0.0
 11
544.4386459999998
 21
100.111455
 31
0.0
  0
LINE
  5
F0
330
6B
100
AcDbEntity
  8
0
 62
     3
100
AcDbLine
 10
547.0266139999998
 20
161.528787
 30
0.0
 11
547.0266139999998
 21
152.028787
 31
0.0
  0
LINE
  5
F1
330
6B
100
AcDbEntity
  8
0
 62
     3
100
AcDbLine
 10
528.0766139999998
 20
161.528787
 30
0.0
 11
528.0766139999998
 21
152.028787
 31
0.0
  0
LINE
  5
F2
330
6B
100
AcDbEntity
  8
0
 62
     3
100
AcDbLine
 10
528.0766139999998
 20
152.028787
 30
0.0
 11
529.4766139999998
 21
152.028787
 31
0.0
  0
LINE
  5
F3
330
6B
100
AcDbEntity
  8
0
 62
     3
100
AcDbLine
 10
544.8266139999998
 20
152.028787
 30
0.0
 11
544.8266139999998
 21
146.028787
 31
0.0
  0
LINE
  5
F4
330
6B
100
AcDbEntity
  8
0
 62
     3
100
AcDbLine
 10
529.4766139999998
 20
146.028787
 30
0.0
 11
529.4766139999998
 21
152.028787
 31
0.0
  0
LINE
  5
F5
330
6B
100
AcDbEntity
  8
0
 62
     3
100
AcDbLine
 10
528.8016139999998
 20
146.028787
 30
0.0
 11
529.4766139999998
 21
146.028787
 31
0.0
  0
LINE
  5
F6
330
6B
100
AcDbEntity
  8
0
 62
     3
100
AcDbLine
 10
541.8016139999998
 20
146.028787
 30
0.0
 11
541.8016139999998
 21
144.028787
 31
0.0
  0
LINE
  5
F7
330
6B
100
AcDbEntity
  8
0
 62
     3
100
AcDbLine
 10
528.8016139999998
 20
146.028787
 30
0.0
 11
528.8016139999998
 21
144.028787
 31
0.0
  0
LINE
  5
F8
330
6B
100
AcDbEntity
  8
0
 62
     3
100
AcDbLine
 10
527.801614
 20
144.028787
 30
0.0
 11
542.8016139999998
 21
144.028787
 31
0.0
  0
LINE
  5
F9
330
6B
100
AcDbEntity
  8
0
 62
     3
100
AcDbLine
 10
542.8016139999998
 20
144.028787
 30
0.0
 11
542.8016139999998
 21
129.028787
 31
0.0
  0
LINE
  5
FA
330
6B
100
AcDbEntity
  8
0
 62
     3
100
AcDbLine
 10
527.801614
 20
134.028787
 30
0.0
 11
527.801614
 21
144.028787
 31
0.0
  0
LINE
  5
FB
330
6B
100
AcDbEntity
  8
0
 62
     3
100
AcDbLine
 10
527.801614
 20
134.028787
 30
0.0
 11
529.5766139999998
 21
134.028787
 31
0.0
  0
LINE
  5
FC
330
6B
100
AcDbEntity
  8
0
 62
     3
100
AcDbLine
 10
529.5766139999998
 20
132.028787
 30
0.0
 11
529.5766139999998
 21
134.028787
 31
0.0
  0
LINE
  5
FD
330
6B
100
AcDbEntity
  8
0
 62
     3
100
AcDbLine
 10
529.5766139999998
 20
132.028787
 30
0.0
 11
534.2516139999998
 21
132.028787
 31
0.0
  0
LINE
  5
FE
330
6B
100
AcDbEntity
  8
0
 62
     3
100
AcDbLine
 10
534.2516139999998
 20
129.028787
 30
0.0
 11
536.026614
 21
129.028787
 31
0.0
  0
LINE
  5
FF
330
6B
100
AcDbEntity
  8
0
 62
     3
100
AcDbLine
 10
534.2516139999998
 20
132.028787
 30
0.0
 11
534.2516139999998
 21
129.028787
 31
0.0
  0
LINE
  5
100
330
6B
100
AcDbEntity
  8
0
 62
     3
100
AcDbLine
 10
536.026614
 20
127.028787
 30
0.0
 11
541.026614
 21
127.028787
 31
0.0
  0
LINE
  5
101
330
6B
100
AcDbEntity
  8
0
 62
     3
100
AcDbLine
 10
541.026614
 20
129.028787
 30
0.0
 11
541.026614
 21
127.028787
 31
0.0
  0
LINE
  5
102
330
6B
100
AcDbEntity
  8
0
 62
     3
100
AcDbLine
 10
536.026614
 20
129.028787
 30
0.0
 11
536.026614
 21
127.028787
 31
0.0
  0
LINE
  5
103
330
6B
100
AcDbEntity
  8
0
 62
     3
100
AcDbLine
 10
548.1886459999998
 20
100.111455
 30
0.0
 11
548.1886459999998
 21
97.111455
 31
0.0
  0
LINE
  5
104
330
6B
100
AcDbEntity
  8
0
 62
     3
100
AcDbLine
 10
544.4386459999998
 20
97.111455
 30
0.0
 11
544.4386459999998
 21
78.11145500000002
 31
0.0
  0
LINE
  5
105
330
6B
100
AcDbEntity
  8
0
 62
     3
100
AcDbLine
 10
551.9386459999998
 20
100.111455
 30
0.0
 11
551.9386459999998
 21
88.111455
 31
0.0
  0
LINE
  5
106
330
6B
100
AcDbEntity
  8
0
 62
     3
100
AcDbLine
 10
543.6886459999998
 20
97.111455
 30
0.0
 11
548.1886459999998
 21
97.111455
 31
0.0
  0
LINE
  5
107
330
6B
100
AcDbEntity
  8
0
 62
     3
100
AcDbLine
 10
543.6886459999998
 20
98.11145500000002
 30
0.0
 11
543.6886459999998
 21
97.111455
 31
0.0
  0
LINE
  5
108
330
6B
100
AcDbEntity
  8
0
 62
     3
100
AcDbLine
 10
552.6886459999998
 20
98.11145500000002
 30
0.0
 11
552.6886459999998
 21
97.111455
 31
0.0
  0
LINE
  5
109
330
6B
100
AcDbEntity
  8
0
 62
     3
100
AcDbLine
 10
544.4386459999998
 20
100.111455
 30
0.0
 11
543.6886459999998
 21
98.11145500000002
 31
0.0
  0
LINE
  5
10A
330
6B
100
AcDbEntity
  8
0
 62
     3
100
AcDbLine
 10
551.9386459999998
 20
100.111455
 30
0.0
 11
552.6886459999998
 21
98.11145500000002
 31
0.0
  0
LINE
  5
10B
330
6B
100
AcDbEntity
  8
0
 62
     3
100
AcDbLine
 10
551.9386459999998
 20
97.111455
 30
0.0
 11
552.6886459999998
 21
97.111455
 31
0.0
  0
LINE
  5
10C
330
6B
100
AcDbEntity
  8
0
 62
     3
100
AcDbLine
 10
553.6886459999998
 20
88.111455
 30
0.0
 11
547.6886459999998
 21
88.111455
 31
0.0
  0
LINE
  5
10D
330
6B
100
AcDbEntity
  8
0
 62
     3
100
AcDbLine
 10
547.6886459999998
 20
88.111455
 30
0.0
 11
547.6886459999998
 21
67.61145500000001
 31
0.0
  0
LINE
  5
10E
330
6B
100
AcDbEntity
  8
0
 62
     3
100
AcDbLine
 10
553.6886459999998
 20
88.111455
 30
0.0
 11
553.6886459999998
 21
82.111455
 31
0.0
  0
LINE
  5
10F
330
6B
100
AcDbEntity
  8
0
 62
     3
100
AcDbLine
 10
556.1886459999998
 20
82.111455
 30
0.0
 11
547.6886459999998
 21
82.111455
 31
0.0
  0
LINE
  5
110
330
6B
100
AcDbEntity
  8
0
 62
     3
100
AcDbLine
 10
547.6886459999998
 20
78.11145500000002
 30
0.0
 11
543.1886459999998
 21
78.11145500000002
 31
0.0
  0
LINE
  5
111
330
6B
100
AcDbEntity
  8
0
 62
     3
100
AcDbLine
 10
543.1886459999998
 20
78.11145500000002
 30
0.0
 11
543.1886459999998
 21
67.61145500000001
 31
0.0
  0
LINE
  5
112
330
6B
100
AcDbEntity
  8
0
 62
     3
100
AcDbLine
 10
556.1886459999998
 20
58.11145500000001
 30
0.0
 11
541.3886459999998
 21
58.11145500000001
 31
0.0
  0
LINE
  5
113
330
6B
100
AcDbEntity
  8
0
 62
     3
100
AcDbLine
 10
541.3886459999998
 20
67.61145500000001
 30
0.0
 11
541.3886459999998
 21
58.11145500000001
 31
0.0
  0
LINE
  5
114
330
6B
100
AcDbEntity
  8
0
 62
     3
100
AcDbLine
 10
552.7973339999999
 20
67.61145500000001
 30
0.0
 11
541.3886459999998
 21
67.61145500000001
 31
0.0
  0
LINE
  5
115
330
6B
100
AcDbEntity
  8
0
 62
     3
100
AcDbLine
 10
556.1886459999998
 20
82.111455
 30
0.0
 11
556.1886459999998
 21
58.11145500000001
 31
0.0
  0
LINE
  5
116
330
6B
100
AcDbEntity
  8
0
 62
     3
100
AcDbLine
 10
539.1886459999998
 20
68.61145500000001
 30
0.0
 11
539.1886459999998
 21
66.611455
 31
0.0
  0
LINE
  5
117
330
6B
100
AcDbEntity
  8
0
 62
     3
100
AcDbLine
 10
543.1886459999998
 20
68.61145500000001
 30
0.0
 11
539.1886459999998
 21
68.61145500000001
 31
0.0
  0
LINE
  5
118
330
6B
100
AcDbEntity
  8
0
 62
     3
100
AcDbLine
 10
539.1886459999998
 20
66.611455
 30
0.0
 11
541.3886459999998
 21
64.611455
 31
0.0
  0
LINE
  5
119
330
6B
100
AcDbEntity
  8
0
 62
     3
100
AcDbLine
 10
525.910394
 20
97.111455
 30
0.0
 11
525.910394
 21
90.611455
 31
0.0
  0
LINE
  5
11A
330
6B
100
AcDbEntity
  8
0
 62
     3
100
AcDbLine
 10
518.4103939999999
 20
97.111455
 30
0.0
 11
518.4103939999999
 21
92.111455
 31
0.0
  0
LINE
  5
11B
330
6B
100
AcDbEntity
  8
0
 62
     3
100
AcDbLine
 10
526.660394
 20
98.11145500000002
 30
0.0
 11
526.660394
 21
97.111455
 31
0.0
  0
LINE
  5
11C
330
6B
100
AcDbEntity
  8
0
 62
     3
100
AcDbLine
 10
517.6603939999998
 20
98.11145500000002
 30
0.0
 11
517.6603939999998
 21
97.111455
 31
0.0
  0
LINE
  5
11D
330
6B
100
AcDbEntity
  8
0
 62
     3
100
AcDbLine
 10
526.660394
 20
97.111455
 30
0.0
 11
517.6603939999998
 21
97.111455
 31
0.0
  0
LINE
  5
11E
330
6B
100
AcDbEntity
  8
0
 62
     3
100
AcDbLine
 10
526.660394
 20
98.11145500000002
 30
0.0
 11
525.910394
 21
100.111455
 31
0.0
  0
LINE
  5
11F
330
6B
100
AcDbEntity
  8
0
 62
     3
100
AcDbLine
 10
525.910394
 20
100.111455
 30
0.0
 11
518.4103939999999
 21
100.111455
 31
0.0
  0
LINE
  5
120
330
6B
100
AcDbEntity
  8
0
 62
     3
100
AcDbLine
 10
518.4103939999999
 20
100.111455
 30
0.0
 11
517.6603939999998
 21
98.11145500000002
 31
0.0
  0
LINE
  5
121
330
6B
100
AcDbEntity
  8
0
 62
     3
100
AcDbLine
 10
522.160394
 20
92.111455
 30
0.0
 11
514.660394
 21
92.111455
 31
0.0
  0
LINE
  5
122
330
6B
100
AcDbEntity
  8
0
 62
     3
100
AcDbLine
 10
527.860394
 20
90.611455
 30
0.0
 11
517.8676679999998
 21
90.611455
 31
0.0
  0
LINE
  5
123
330
6B
100
AcDbEntity
  8
0
 62
     3
100
AcDbLine
 10
527.860394
 20
89.11145500000001
 30
0.0
 11
515.360394
 21
89.11145500000001
 31
0.0
  0
LINE
  5
124
330
6B
100
AcDbEntity
  8
0
 62
     3
100
AcDbLine
 10
527.860394
 20
90.611455
 30
0.0
 11
527.860394
 21
89.11145500000001
 31
0.0
  0
LINE
  5
125
330
6B
100
AcDbEntity
  8
0
 62
     3
100
AcDbLine
 10
513.6603939999998
 20
91.11145500000001
 30
0.0
 11
513.6603939999998
 21
77.111455
 31
0.0
  0
LINE
  5
126
330
6B
100
AcDbEntity
  8
0
 62
     3
100
AcDbLine
 10
515.360394
 20
89.11145500000001
 30
0.0
 11
515.360394
 21
76.397242
 31
0.0
  0
LINE
  5
127
330
6B
100
AcDbEntity
  8
0
 62
     3
100
AcDbLine
 10
525.460394
 20
72.111455
 30
0.0
 11
518.860394
 21
72.111455
 31
0.0
  0
LINE
  5
128
330
6B
100
AcDbEntity
  8
0
 62
     3
100
AcDbLine
 10
525.460394
 20
82.111455
 30
0.0
 11
525.460394
 21
72.111455
 31
0.0
  0
LINE
  5
129
330
6B
100
AcDbEntity
  8
0
 62
     3
100
AcDbLine
 10
518.860394
 20
82.111455
 30
0.0
 11
518.860394
 21
72.111455
 31
0.0
  0
LINE
  5
12A
330
6B
100
AcDbEntity
  8
0
 62
     3
100
AcDbLine
 10
510.831967
 20
74.283028
 30
0.0
 11
513.6603939999998
 21
77.111455
 31
0.0
  0
LINE
  5
12B
330
6B
100
AcDbEntity
  8
0
 62
     3
100
AcDbLine
 10
512.2461809999999
 20
72.868814
 30
0.0
 11
515.0675009999998
 21
75.690135
 31
0.0
  0
ARC
  5
12C
330
6B
100
AcDbEntity
  8
0
 62
     3
100
AcDbCircle
 10
514.660394
 20
91.11145500000001
 30
0.0
 40
1.0
100
AcDbArc
 50
90.0
 51
180.0
  0
ARC
  5
12D
330
6B
100
AcDbEntity
  8
0
 62
     3
100
AcDbCircle
 10
514.360394
 20
76.397242
 30
0.0
 40
1.0
100
AcDbArc
 50
315.0
 51
0.0
  0
ARC
  5
12E
330
6B
100
AcDbEntity
  8
0
 62
     3
100
AcDbCircle
 10
511.539074
 20
73.57592099999997
 30
0.0
 40
1.0
100
AcDbArc
 50
225.0
 51
315.0
  0
ARC
  5
12F
330
6B
100
AcDbEntity
  8
0
 62
     3
100
AcDbCircle
 10
511.539074
 20
73.57592099999997
 30
0.0
 40
1.0
100
AcDbArc
 50
135.0
 51
225.0
  0
LINE
  5
130
330
6B
100
AcDbEntity
  8
0
 62
     3
100
AcDbLine
 10
551.0266139999998
 20
244.706248
 30
0.0
 11
554.4011219999998
 21
244.706248
 31
0.0
  0
LINE
  5
131
330
6B
100
AcDbEntity
  8
0
 62
     3
100
AcDbLine
 10
551.0266139999998
 20
240.706248
 30
0.0
 11
554.4011219999998
 21
240.706248
 31
0.0
  0
LINE
  5
132
330
6B
100
AcDbEntity
  8
0
 62
     3
100
AcDbLine
 10
551.0266139999998
 20
240.706248
 30
0.0
 11
551.0266139999998
 21
244.706248
 31
0.0
  0
ARC
  5
133
330
6B
100
AcDbEntity
  8
0
 62
     3
100
AcDbCircle
 10
549.840322
 20
254.019957
 30
0.0
 40
1.5
100
AcDbArc
 50
137.686724
 51
312.313276
  0
ARC
  5
134
330
6B
100
AcDbEntity
  8
0
 62
     3
100
AcDbCircle
 10
538.5266139999998
 20
242.706248
 30
0.0
 40
16.0
100
AcDbArc
 50
50.37344799999999
 51
352.819244
  0
LINE
  5
135
330
6B
100
AcDbEntity
  8
0
 62
     3
100
AcDbLine
 10
544.8266139999998
 20
152.028787
 30
0.0
 11
547.0266139999998
 21
152.028787
 31
0.0
  0
LINE
  5
136
330
6B
100
AcDbEntity
  8
0
 62
     3
100
AcDbLine
 10
541.8016139999998
 20
146.028787
 30
0.0
 11
544.8266139999998
 21
146.028787
 31
0.0
  0
LINE
  5
137
330
6B
100
AcDbEntity
  8
0
 62
     3
100
AcDbLine
 10
541.026614
 20
129.028787
 30
0.0
 11
542.8016139999998
 21
129.028787
 31
0.0
  0
LINE
  5
138
330
6B
100
AcDbEntity
  8
0
 62
     3
100
AcDbLine
 10
544.7766139999998
 20
164.128787
 30
0.0
 11
554.5266139999998
 21
164.128787
 31
0.0
  0
LINE
  5
139
330
6B
100
AcDbEntity
  8
0
 62
     3
100
AcDbLine
 10
547.0266139999998
 20
161.528787
 30
0.0
 11
554.5266139999998
 21
161.528787
 31
0.0
  0
LINE
  5
13A
330
6B
100
AcDbEntity
  8
0
 62
     3
100
AcDbLine
 10
471.69042
 20
149.109884
 30
0.0
 11
471.2024929999998
 21
149.109884
 31
0.0
  0
LINE
  5
13B
330
6B
100
AcDbEntity
  8
0
 62
     3
100
AcDbLine
 10
579.6024929999998
 20
283.104495
 30
0.0
 11
663.202493
 21
283.104495
 31
0.0
  0
TEXT
  5
13C
330
6B
100
AcDbEntity
  8
0
 62
     3
100
AcDbText
 10
612.2817169999998
 20
278.942333
 30
0.0
 40
3.2
  1
変更・追記内容
  7
高3.2
100
AcDbText
  0
LINE
  5
13D
330
6B
100
AcDbEntity
  8
0
 62
     3
100
AcDbLine
 10
579.6024929999998
 20
287.609884
 30
0.0
 11
579.6024929999998
 21
268.254495
 31
0.0
  0
TEXT
  5
13E
330
6B
100
AcDbEntity
  8
0
 62
     3
100
AcDbText
 10
584.0392834579354
 20
274.2969543991934
 30
0.0
 40
2.0
  1
1
  7
高2
100
AcDbText
  0
TEXT
  5
13F
330
6B
100
AcDbEntity
  8
0
 62
     3
100
AcDbText
 10
583.7134238710622
 20
269.0798088717358
 30
0.0
 40
2.0
  1
2
  7
高2
100
AcDbText
  0
TEXT
  5
140
330
6B
100
AcDbEntity
  8
0
 62
     3
100
AcDbText
 10
592.2186629999998
 20
278.705756
 30
0.0
 40
3.2
  1
日
  7
高3.2
100
AcDbText
  0
TEXT
  5
141
330
6B
100
AcDbEntity
  8
0
 62
     3
100
AcDbText
 10
601.095537
 20
278.705756
 30
0.0
 40
3.2
  1
付
  7
高3.2
100
AcDbText
  0
TEXT
  5
142
330
6B
100
AcDbEntity
  8
0
 62
     3
100
AcDbText
 10
592.387284
 20
283.754495
 30
0.0
 40
3.2
  1
図
  7
高3.2
100
AcDbText
  0
TEXT
  5
143
330
6B
100
AcDbEntity
  8
0
 62
     3
100
AcDbText
 10
611.0431789999998
 20
283.754495
 30
0.0
 40
3.2
  1
面
  7
高3.2
100
AcDbText
  0
TEXT
  5
144
330
6B
100
AcDbEntity
  8
0
 62
     3
100
AcDbText
 10
629.699074
 20
283.754495
 30
0.0
 40
3.2
  1
略
  7
高3.2
100
AcDbText
  0
TEXT
  5
145
330
6B
100
AcDbEntity
  8
0
 62
     3
100
AcDbText
 10
648.3549690000001
 20
283.754495
 30
0.0
 40
3.2
  1
歴
  7
高3.2
100
AcDbText
  0
TEXT
  5
146
330
6B
100
AcDbEntity
  8
0
 62
     3
100
AcDbText
 10
580.2048570000001
 20
278.879495
 30
0.0
 40
3.2
  1
記
  7
高3.2
100
AcDbText
  0
TEXT
  5
147
330
6B
100
AcDbEntity
  8
0
 62
     3
100
AcDbText
 10
586.457765
 20
278.879495
 30
0.0
 40
3.2
  1
号
  7
高3.2
100
AcDbText
  0
LINE
  5
148
330
6B
100
AcDbEntity
  8
0
 62
     3
100
AcDbLine
 10
663.202493
 20
268.254495
 30
0.0
 11
579.6024929999998
 21
268.254495
 31
0.0
  0
LINE
  5
14B
330
6B
100
AcDbEntity
  8
0
 62
     2
100
AcDbLine
 10
550.286845
 20
289.3973279999999
 30
0.0
 11
550.7225929999998
 21
289.16986
 31
0.0
  0
LINE
  5
14C
330
6B
100
AcDbEntity
  8
0
 62
     2
100
AcDbLine
 10
550.286845
 20
285.666698
 30
0.0
 11
550.7225929999998
 21
285.8941660000001
 31
0.0
  0
LINE
  5
14D
330
6B
100
AcDbEntity
  8
0
 62
     2
100
AcDbLine
 10
550.7225929999998
 20
289.16986
 30
0.0
 11
550.7225929999998
 21
285.8941660000001
 31
0.0
  0
LINE
  5
14E
330
6B
100
AcDbEntity
  8
0
 62
     2
100
AcDbLine
 10
551.826111
 20
285.666698
 30
0.0
 11
551.3903629999998
 21
285.8941660000001
 31
0.0
  0
LINE
  5
14F
330
6B
100
AcDbEntity
  8
0
 62
     2
100
AcDbLine
 10
551.3903629999998
 20
287.891025
 30
0.0
 11
551.3903629999998
 21
285.8941660000001
 31
0.0
  0
LINE
  5
150
330
6B
100
AcDbEntity
  8
0
 62
     2
100
AcDbLine
 10
554.367973
 20
289.3973279999999
 30
0.0
 11
553.932226
 21
289.16986
 31
0.0
  0
LINE
  5
151
330
6B
100
AcDbEntity
  8
0
 62
     2
100
AcDbLine
 10
552.828708
 20
289.3973279999999
 30
0.0
 11
553.264456
 21
289.16986
 31
0.0
  0
LINE
  5
152
330
6B
100
AcDbEntity
  8
0
 62
     2
100
AcDbLine
 10
553.264456
 20
289.16986
 30
0.0
 11
553.264456
 21
287.727523
 31
0.0
  0
LINE
  5
153
330
6B
100
AcDbEntity
  8
0
 62
     2
100
AcDbLine
 10
553.932226
 20
289.16986
 30
0.0
 11
553.932226
 21
285.455137
 31
0.0
  0
LINE
  5
154
330
6B
100
AcDbEntity
  8
0
 62
     2
100
AcDbLine
 10
554.5832709999998
 20
289.397326
 30
0.0
 11
555.0190169999998
 21
289.169855
 31
0.0
  0
LINE
  5
155
330
6B
100
AcDbEntity
  8
0
 62
     2
100
AcDbLine
 10
554.5831929999998
 20
285.666748
 30
0.0
 11
555.018949
 21
285.8942009999999
 31
0.0
  0
LINE
  5
156
330
6B
100
AcDbEntity
  8
0
 62
     2
100
AcDbLine
 10
555.0190169999998
 20
289.169855
 30
0.0
 11
555.0190169999998
 21
285.8942009999999
 31
0.0
  0
LINE
  5
157
330
6B
100
AcDbEntity
  8
0
 62
     2
100
AcDbLine
 10
556.512807
 20
289.397302
 30
0.0
 11
556.0770559999999
 21
289.16984
 31
0.0
  0
LINE
  5
158
330
6B
100
AcDbEntity
  8
0
 62
     2
100
AcDbLine
 10
556.0770559999999
 20
289.16984
 30
0.0
 11
556.0770559999999
 21
285.894186
 31
0.0
  0
LINE
  5
159
330
6B
100
AcDbEntity
  8
0
 62
     2
100
AcDbLine
 10
556.512807
 20
285.6667240000001
 30
0.0
 11
556.0770559999999
 21
285.894186
 31
0.0
  0
LINE
  5
15A
330
6B
100
AcDbEntity
  8
0
 62
     2
100
AcDbLine
 10
560.203061
 20
289.397261
 30
0.0
 11
560.638808
 21
289.169791
 31
0.0
  0
LINE
  5
15B
330
6B
100
AcDbEntity
  8
0
 62
     2
100
AcDbLine
 10
560.638808
 20
289.169791
 30
0.0
 11
560.6387499999998
 21
285.894138
 31
0.0
  0
LINE
  5
15C
330
6B
100
AcDbEntity
  8
0
 62
     2
100
AcDbLine
 10
560.202995
 20
285.666683
 30
0.0
 11
560.6387499999998
 21
285.894138
 31
0.0
  0
LINE
  5
15D
330
6B
100
AcDbEntity
  8
0
 62
     2
100
AcDbLine
 10
562.155321
 20
289.397261
 30
0.0
 11
561.7195739999998
 21
289.169791
 31
0.0
  0
LINE
  5
15E
330
6B
100
AcDbEntity
  8
0
 62
     2
100
AcDbLine
 10
562.155387
 20
285.666683
 30
0.0
 11
561.719632
 21
285.894138
 31
0.0
  0
LINE
  5
15F
330
6B
100
AcDbEntity
  8
0
 62
     2
100
AcDbLine
 10
562.359049
 20
289.397261
 30
0.0
 11
562.794796
 21
289.169791
 31
0.0
  0
LINE
  5
160
330
6B
100
AcDbEntity
  8
0
 62
     2
100
AcDbLine
 10
562.358984
 20
285.666683
 30
0.0
 11
562.7947389999998
 21
285.894138
 31
0.0
  0
LINE
  5
161
330
6B
100
AcDbEntity
  8
0
 62
     2
100
AcDbLine
 10
564.3113099999998
 20
289.397261
 30
0.0
 11
563.8755629999998
 21
289.169791
 31
0.0
  0
LINE
  5
162
330
6B
100
AcDbEntity
  8
0
 62
     2
100
AcDbLine
 10
563.8755629999998
 20
289.169791
 30
0.0
 11
563.87562
 21
285.894138
 31
0.0
  0
LINE
  5
163
330
6B
100
AcDbEntity
  8
0
 62
     2
100
AcDbLine
 10
564.311375
 20
285.666683
 30
0.0
 11
563.87562
 21
285.894138
 31
0.0
  0
LINE
  5
164
330
6B
100
AcDbEntity
  8
0
 62
     2
100
AcDbLine
 10
562.7947719999998
 20
287.742658
 30
0.0
 11
561.7195989999999
 21
287.742658
 31
0.0
  0
LINE
  5
165
330
6B
100
AcDbEntity
  8
0
 62
     2
100
AcDbLine
 10
562.794764
 20
287.321368
 30
0.0
 11
561.719607
 21
287.321368
 31
0.0
  0
LINE
  5
166
330
6B
100
AcDbEntity
  8
0
 62
     2
100
AcDbLine
 10
562.794796
 20
289.169791
 30
0.0
 11
562.7947719999998
 21
287.742658
 31
0.0
  0
LINE
  5
167
330
6B
100
AcDbEntity
  8
0
 62
     2
100
AcDbLine
 10
562.794764
 20
287.321368
 30
0.0
 11
562.7947389999998
 21
285.894138
 31
0.0
  0
LINE
  5
168
330
6B
100
AcDbEntity
  8
0
 62
     2
100
AcDbLine
 10
561.7195739999998
 20
289.169791
 30
0.0
 11
561.7195989999999
 21
287.742658
 31
0.0
  0
LINE
  5
169
330
6B
100
AcDbEntity
  8
0
 62
     2
100
AcDbLine
 10
561.719607
 20
287.321368
 30
0.0
 11
561.719632
 21
285.894138
 31
0.0
  0
LINE
  5
16A
330
6B
100
AcDbEntity
  8
0
 62
     2
100
AcDbLine
 10
564.518269
 20
289.397261
 30
0.0
 11
564.954017
 21
289.169791
 31
0.0
  0
LINE
  5
16B
330
6B
100
AcDbEntity
  8
0
 62
     2
100
AcDbLine
 10
564.954017
 20
289.169791
 30
0.0
 11
564.9539589999998
 21
285.894138
 31
0.0
  0
LINE
  5
16C
330
6B
100
AcDbEntity
  8
0
 62
     2
100
AcDbLine
 10
564.5182039999999
 20
285.666683
 30
0.0
 11
564.9539589999998
 21
285.894138
 31
0.0
  0
LINE
  5
16D
330
6B
100
AcDbEntity
  8
0
 62
     2
100
AcDbLine
 10
566.4477799999998
 20
289.397261
 30
0.0
 11
566.0120329999998
 21
289.169791
 31
0.0
  0
LINE
  5
16E
330
6B
100
AcDbEntity
  8
0
 62
     2
100
AcDbLine
 10
566.0120329999998
 20
289.169791
 30
0.0
 11
566.01209
 21
285.894138
 31
0.0
  0
LINE
  5
16F
330
6B
100
AcDbEntity
  8
0
 62
     2
100
AcDbLine
 10
566.447845
 20
285.666683
 30
0.0
 11
566.01209
 21
285.894138
 31
0.0
  0
LINE
  5
170
330
6B
100
AcDbEntity
  8
0
 62
     2
100
AcDbLine
 10
566.6621389999997
 20
289.397261
 30
0.0
 11
567.0978859999999
 21
289.169791
 31
0.0
  0
LINE
  5
171
330
6B
100
AcDbEntity
  8
0
 62
     2
100
AcDbLine
 10
567.0978859999999
 20
289.169791
 30
0.0
 11
567.097829
 21
285.894138
 31
0.0
  0
LINE
  5
172
330
6B
100
AcDbEntity
  8
0
 62
     2
100
AcDbLine
 10
566.662074
 20
285.666683
 30
0.0
 11
567.097829
 21
285.894138
 31
0.0
  0
ARC
  5
173
330
6B
100
AcDbEntity
  8
0
 62
     2
100
AcDbCircle
 10
558.811149
 20
287.541403
 30
0.0
 40
2.086285999999998
100
AcDbArc
 50
97.701524
 51
270.0
  0
ARC
  5
174
330
6B
100
AcDbEntity
  8
0
 62
     2
100
AcDbCircle
 10
571.69175
 20
287.520446
 30
0.0
 40
2.108943
100
AcDbArc
 50
0.31425
 51
69.00558199999998
  0
ARC
  5
175
330
6B
100
AcDbEntity
  8
0
 62
     2
100
AcDbCircle
 10
572.1524249999998
 20
287.520446
 30
0.0
 40
2.108943
100
AcDbArc
 50
110.994418
 51
148.116611
  0
ARC
  5
176
330
6B
100
AcDbEntity
  8
0
 62
     2
100
AcDbCircle
 10
571.69175
 20
287.5435799999999
 30
0.0
 40
2.108943
100
AcDbArc
 50
290.994418
 51
359.68575
  0
ARC
  5
177
330
6B
100
AcDbEntity
  8
0
 62
     2
100
AcDbCircle
 10
572.1524249999998
 20
287.5435799999999
 30
0.0
 40
2.108943
100
AcDbArc
 50
211.883389
 51
249.005582
  0
ARC
  5
178
330
6B
100
AcDbEntity
  8
0
 62
     2
100
AcDbCircle
 10
571.922088
 20
288.394819
 30
0.0
 40
1.214070999999999
100
AcDbArc
 50
64.365172
 51
115.634828
  0
ARC
  5
179
330
6B
100
AcDbEntity
  8
0
 62
     2
100
AcDbCircle
 10
571.922088
 20
286.669208
 30
0.0
 40
1.214070999999999
100
AcDbArc
 50
244.365172
 51
295.634828
  0
ARC
  5
17A
330
6B
100
AcDbEntity
  8
0
 62
     2
100
AcDbCircle
 10
571.922088
 20
288.41788
 30
0.0
 40
0.5958560000000001
100
AcDbArc
 50
19.486606
 51
160.513394
  0
ARC
  5
17B
330
6B
100
AcDbEntity
  8
0
 62
     2
100
AcDbCircle
 10
571.922088
 20
286.646146
 30
0.0
 40
0.5958560000000001
100
AcDbArc
 50
199.4866059999999
 51
340.513394
  0
ARC
  5
17C
330
6B
100
AcDbEntity
  8
0
 62
     3
100
AcDbCircle
 10
567.179615
 20
265.303953
 30
0.0
 40
26.04
100
AcDbArc
 50
69.50571500000001
 51
81.689988
  0
ARC
  5
17D
330
6B
100
AcDbEntity
  8
0
 62
     3
100
AcDbCircle
 10
567.179615
 20
309.760073
 30
0.0
 40
26.04
100
AcDbArc
 50
278.310012
 51
290.494285
  0
ARC
  5
17E
330
6B
100
AcDbEntity
  8
0
 62
     3
100
AcDbCircle
 10
575.487819
 20
287.532013
 30
0.0
 40
2.31
100
AcDbArc
 50
290.494285
 51
69.50571500000001
  0
ARC
  5
17F
330
6B
100
AcDbEntity
  8
0
 62
     3
100
AcDbCircle
 10
548.1878189999998
 20
287.532013
 30
0.0
 40
2.31
100
AcDbArc
 50
110.494285
 51
249.505715
  0
ARC
  5
180
330
6B
100
AcDbEntity
  8
0
 62
     3
100
AcDbCircle
 10
556.496024
 20
265.303953
 30
0.0
 40
26.04
100
AcDbArc
 50
98.31001200000001
 51
110.494285
  0
ARC
  5
181
330
6B
100
AcDbEntity
  8
0
 62
     3
100
AcDbCircle
 10
556.496024
 20
309.760073
 30
0.0
 40
26.04
100
AcDbArc
 50
249.505715
 51
261.689988
  0
ARC
  5
182
330
6B
100
AcDbEntity
  8
0
 62
     3
100
AcDbCircle
 10
561.837819
 20
228.732013
 30
0.0
 40
63.0
100
AcDbArc
 50
81.689988
 51
98.31001200000001
  0
ARC
  5
183
330
6B
100
AcDbEntity
  8
0
 62
     3
100
AcDbCircle
 10
561.837819
 20
346.332013
 30
0.0
 40
63.0
100
AcDbArc
 50
261.689988
 51
278.310012
  0
ARC
  5
184
330
6B
100
AcDbEntity
  8
0
 62
     3
100
AcDbCircle
 10
561.837819
 20
228.732013
 30
0.0
 40
62.37
100
AcDbArc
 50
81.689988
 51
98.31001200000001
  0
ARC
  5
185
330
6B
100
AcDbEntity
  8
0
 62
     3
100
AcDbCircle
 10
561.837819
 20
346.332013
 30
0.0
 40
62.37
100
AcDbArc
 50
261.689988
 51
278.310012
  0
ARC
  5
186
330
6B
100
AcDbEntity
  8
0
 62
     3
100
AcDbCircle
 10
567.179615
 20
309.760073
 30
0.0
 40
25.41
100
AcDbArc
 50
278.310012
 51
290.494285
  0
ARC
  5
187
330
6B
100
AcDbEntity
  8
0
 62
     3
100
AcDbCircle
 10
567.179615
 20
265.303953
 30
0.0
 40
25.41
100
AcDbArc
 50
69.50571500000001
 51
81.689988
  0
ARC
  5
188
330
6B
100
AcDbEntity
  8
0
 62
     3
100
AcDbCircle
 10
575.487819
 20
287.532013
 30
0.0
 40
1.679999999999999
100
AcDbArc
 50
290.494285
 51
69.50571500000001
  0
ARC
  5
189
330
6B
100
AcDbEntity
  8
0
 62
     3
100
AcDbCircle
 10
548.1878189999998
 20
287.532013
 30
0.0
 40
1.679999999999999
100
AcDbArc
 50
110.494285
 51
249.505715
  0
ARC
  5
18A
330
6B
100
AcDbEntity
  8
0
 62
     3
100
AcDbCircle
 10
556.496024
 20
265.303953
 30
0.0
 40
25.41
100
AcDbArc
 50
98.31001200000001
 51
110.494285
  0
ARC
  5
18B
330
6B
100
AcDbEntity
  8
0
 62
     3
100
AcDbCircle
 10
556.496024
 20
309.760073
 30
0.0
 40
25.41
100
AcDbArc
 50
249.505715
 51
261.689988
  0
LINE
  5
18C
330
6B
100
AcDbEntity
  8
0
 62
     2
100
AcDbLine
 10
566.4477799999998
 20
285.455137
 30
0.0
 11
564.518269
 21
285.455137
 31
0.0
  0
LINE
  5
18D
330
6B
100
AcDbEntity
  8
0
 62
     2
100
AcDbLine
 10
566.4477799999998
 20
285.666698
 30
0.0
 11
566.4477799999998
 21
285.455137
 31
0.0
  0
LINE
  5
18E
330
6B
100
AcDbEntity
  8
0
 62
     2
100
AcDbLine
 10
564.311311
 20
289.608791
 30
0.0
 11
562.359049
 21
289.608791
 31
0.0
  0
LINE
  5
18F
330
6B
100
AcDbEntity
  8
0
 62
     2
100
AcDbLine
 10
564.311311
 20
289.608791
 30
0.0
 11
564.311311
 21
289.3973279999999
 31
0.0
  0
LINE
  5
190
330
6B
100
AcDbEntity
  8
0
 62
     2
100
AcDbLine
 10
564.311311
 20
285.666698
 30
0.0
 11
564.311311
 21
285.455038
 31
0.0
  0
LINE
  5
191
330
6B
100
AcDbEntity
  8
0
 62
     2
100
AcDbLine
 10
564.311311
 20
285.455038
 30
0.0
 11
562.359049
 21
285.455038
 31
0.0
  0
LINE
  5
192
330
6B
100
AcDbEntity
  8
0
 62
     2
100
AcDbLine
 10
566.4477799999998
 20
289.60889
 30
0.0
 11
566.4477799999998
 21
289.3973279999999
 31
0.0
  0
LINE
  5
193
330
6B
100
AcDbEntity
  8
0
 62
     2
100
AcDbLine
 10
566.4477799999998
 20
289.60889
 30
0.0
 11
564.518269
 21
289.60889
 31
0.0
  0
LINE
  5
194
330
6B
100
AcDbEntity
  8
0
 62
     2
100
AcDbLine
 10
564.518269
 20
289.60889
 30
0.0
 11
564.518269
 21
289.3973279999999
 31
0.0
  0
LINE
  5
195
330
6B
100
AcDbEntity
  8
0
 62
     2
100
AcDbLine
 10
566.662138
 20
285.666698
 30
0.0
 11
566.662138
 21
285.455137
 31
0.0
  0
LINE
  5
196
330
6B
100
AcDbEntity
  8
0
 62
     2
100
AcDbLine
 10
568.646439
 20
285.455137
 30
0.0
 11
566.662138
 21
285.455137
 31
0.0
  0
LINE
  5
197
330
6B
100
AcDbEntity
  8
0
 62
     2
100
AcDbLine
 10
568.1559019999999
 20
288.94112
 30
0.0
 11
568.1559019999999
 21
286.122906
 31
0.0
  0
LINE
  5
198
330
6B
100
AcDbEntity
  8
0
 62
     2
100
AcDbLine
 10
568.1559019999999
 20
286.122906
 30
0.0
 11
568.345951
 21
286.122906
 31
0.0
  0
ARC
  5
199
330
6B
100
AcDbEntity
  8
0
 62
     2
100
AcDbCircle
 10
567.3741660000001
 20
287.532013
 30
0.0
 40
1.711709999999999
100
AcDbArc
 50
304.591955
 51
55.408045
  0
LINE
  5
19A
330
6B
100
AcDbEntity
  8
0
 62
     2
100
AcDbLine
 10
568.646439
 20
289.60889
 30
0.0
 11
566.662138
 21
289.60889
 31
0.0
  0
LINE
  5
19B
330
6B
100
AcDbEntity
  8
0
 62
     2
100
AcDbLine
 10
566.662138
 20
289.60889
 30
0.0
 11
566.662138
 21
289.3973279999999
 31
0.0
  0
LINE
  5
19C
330
6B
100
AcDbEntity
  8
0
 62
     2
100
AcDbLine
 10
564.518269
 20
285.666698
 30
0.0
 11
564.518269
 21
285.455137
 31
0.0
  0
LINE
  5
19D
330
6B
100
AcDbEntity
  8
0
 62
     2
100
AcDbLine
 10
568.1559019999999
 20
288.94112
 30
0.0
 11
568.345951
 21
288.94112
 31
0.0
  0
LINE
  5
19E
330
6B
100
AcDbEntity
  8
0
 62
     2
100
AcDbLine
 10
556.512743
 20
285.666698
 30
0.0
 11
556.5127389999998
 21
285.455117
 31
0.0
  0
LINE
  5
19F
330
6B
100
AcDbEntity
  8
0
 62
     2
100
AcDbLine
 10
554.583227
 20
285.455157
 30
0.0
 11
556.5127389999998
 21
285.455123
 31
0.0
  0
LINE
  5
1A0
330
6B
100
AcDbEntity
  8
0
 62
     2
100
AcDbLine
 10
550.286845
 20
285.455137
 30
0.0
 11
551.826111
 21
285.455137
 31
0.0
  0
ARC
  5
1A1
330
6B
100
AcDbEntity
  8
0
 62
     2
100
AcDbCircle
 10
545.304903
 20
287.58092
 30
0.0
 40
14.713566
100
AcDbArc
 50
353.866006
 51
357.694034
  0
LINE
  5
1A2
330
6B
100
AcDbEntity
  8
0
 62
     2
100
AcDbLine
 10
559.0214829999998
 20
286.992552
 30
0.0
 11
560.0065530000001
 21
286.988907
 31
0.0
  0
LINE
  5
1E5
330
6B
100
AcDbEntity
  8
0
 62
     2
100
AcDbLine
 10
559.025461
 20
288.067767
 30
0.0
 11
560.0105319999999
 21
288.064122
 31
0.0
  0
ARC
  5
1E6
330
6B
100
AcDbEntity
  8
0
 62
     2
100
AcDbCircle
 10
545.304903
 20
287.58092
 30
0.0
 40
14.713566
100
AcDbArc
 50
1.881965999999999
 51
5.709994
  0
LINE
  5
1E7
330
6B
100
AcDbEntity
  8
0
 62
     2
100
AcDbLine
 10
556.512812
 20
289.60887
 30
0.0
 11
556.512808
 21
289.3973279999999
 31
0.0
  0
LINE
  5
1E8
330
6B
100
AcDbEntity
  8
0
 62
     2
100
AcDbLine
 10
554.5833
 20
289.608909
 30
0.0
 11
556.512812
 21
289.6088759999999
 31
0.0
  0
LINE
  5
1E9
330
6B
100
AcDbEntity
  8
0
 62
     2
100
AcDbLine
 10
554.5832309999998
 20
285.666698
 30
0.0
 11
554.583227
 21
285.455157
 31
0.0
  0
LINE
  5
1EA
330
6B
100
AcDbEntity
  8
0
 62
     2
100
AcDbLine
 10
554.5833
 20
289.608909
 30
0.0
 11
554.583296
 21
289.3973279999999
 31
0.0
  0
LINE
  5
1EB
330
6B
100
AcDbEntity
  8
0
 62
     2
100
AcDbLine
 10
551.826111
 20
285.666698
 30
0.0
 11
551.826111
 21
285.455137
 31
0.0
  0
LINE
  5
1EC
330
6B
100
AcDbEntity
  8
0
 62
     2
100
AcDbLine
 10
551.3903629999998
 20
287.891025
 30
0.0
 11
552.9127929999998
 21
285.455137
 31
0.0
  0
LINE
  5
1ED
330
6B
100
AcDbEntity
  8
0
 62
     2
100
AcDbLine
 10
552.9127929999998
 20
285.455137
 30
0.0
 11
553.932226
 21
285.455137
 31
0.0
  0
LINE
  5
1EE
330
6B
100
AcDbEntity
  8
0
 62
     2
100
AcDbLine
 10
554.367973
 20
289.60889
 30
0.0
 11
554.367973
 21
289.3973279999999
 31
0.0
  0
LINE
  5
1EF
330
6B
100
AcDbEntity
  8
0
 62
     2
100
AcDbLine
 10
552.828708
 20
289.60889
 30
0.0
 11
554.367973
 21
289.60889
 31
0.0
  0
LINE
  5
1F0
330
6B
100
AcDbEntity
  8
0
 62
     2
100
AcDbLine
 10
552.828708
 20
289.60889
 30
0.0
 11
552.828708
 21
289.3973279999999
 31
0.0
  0
LINE
  5
1F1
330
6B
100
AcDbEntity
  8
0
 62
     2
100
AcDbLine
 10
553.264456
 20
287.727523
 30
0.0
 11
552.0298089999998
 21
289.60889
 31
0.0
  0
LINE
  5
1F2
330
6B
100
AcDbEntity
  8
0
 62
     2
100
AcDbLine
 10
550.286845
 20
289.60889
 30
0.0
 11
552.0298089999998
 21
289.60889
 31
0.0
  0
LINE
  5
1F3
330
6B
100
AcDbEntity
  8
0
 62
     2
100
AcDbLine
 10
560.2030599999998
 20
289.608791
 30
0.0
 11
562.155322
 21
289.608791
 31
0.0
  0
LINE
  5
1F4
330
6B
100
AcDbEntity
  8
0
 62
     2
100
AcDbLine
 10
560.2030599999998
 20
289.3973279999999
 30
0.0
 11
560.2030599999998
 21
289.608791
 31
0.0
  0
LINE
  5
1F5
330
6B
100
AcDbEntity
  8
0
 62
     2
100
AcDbLine
 10
560.2030599999998
 20
285.455038
 30
0.0
 11
560.2030599999998
 21
285.666698
 31
0.0
  0
LINE
  5
1F6
330
6B
100
AcDbEntity
  8
0
 62
     2
100
AcDbLine
 10
560.2030599999998
 20
285.455038
 30
0.0
 11
562.155322
 21
285.455038
 31
0.0
  0
LINE
  5
1F7
330
6B
100
AcDbEntity
  8
0
 62
     2
100
AcDbLine
 10
562.359049
 20
285.666698
 30
0.0
 11
562.359049
 21
285.455038
 31
0.0
  0
LINE
  5
1F8
330
6B
100
AcDbEntity
  8
0
 62
     2
100
AcDbLine
 10
562.155322
 20
285.666698
 30
0.0
 11
562.155322
 21
285.455038
 31
0.0
  0
LINE
  5
1F9
330
6B
100
AcDbEntity
  8
0
 62
     2
100
AcDbLine
 10
562.155322
 20
289.3973279999999
 30
0.0
 11
562.155322
 21
289.608791
 31
0.0
  0
LINE
  5
1FA
330
6B
100
AcDbEntity
  8
0
 62
     2
100
AcDbLine
 10
562.359049
 20
289.3973279999999
 30
0.0
 11
562.359049
 21
289.608791
 31
0.0
  0
LINE
  5
1FB
330
6B
100
AcDbEntity
  8
0
 62
     2
100
AcDbLine
 10
550.286845
 20
285.666698
 30
0.0
 11
550.286845
 21
285.455137
 31
0.0
  0
LINE
  5
1FC
330
6B
100
AcDbEntity
  8
0
 62
     2
100
AcDbLine
 10
550.286845
 20
289.60889
 30
0.0
 11
550.286845
 21
289.3973279999999
 31
0.0
  0
ARC
  5
1FD
330
6B
100
AcDbEntity
  8
0
 62
     2
100
AcDbCircle
 10
568.856439
 20
287.967761
 30
0.0
 40
1.641127999999999
100
AcDbArc
 50
17.308749
 51
23.765071
  0
ARC
  5
1FE
330
6B
100
AcDbEntity
  8
0
 62
     2
100
AcDbCircle
 10
567.458166
 20
287.532013
 30
0.0
 40
3.105725999999998
100
AcDbArc
 50
342.691251
 51
17.308566
  0
ARC
  5
1FF
330
6B
100
AcDbEntity
  8
0
 62
     2
100
AcDbCircle
 10
568.856439
 20
287.096265
 30
0.0
 40
1.641127999999999
100
AcDbArc
 50
336.234929
 51
342.691251
  0
ARC
  5
200
330
6B
100
AcDbEntity
  8
0
 62
     2
100
AcDbCircle
 10
568.646439
 20
287.967761
 30
0.0
 40
1.641127999999999
100
AcDbArc
 50
17.308749
 51
90.0
  0
ARC
  5
201
330
6B
100
AcDbEntity
  8
0
 62
     2
100
AcDbCircle
 10
567.2481659999998
 20
287.532013
 30
0.0
 40
3.105725999999998
100
AcDbArc
 50
342.691251
 51
17.308566
  0
ARC
  5
202
330
6B
100
AcDbEntity
  8
0
 62
     2
100
AcDbCircle
 10
568.646439
 20
287.096265
 30
0.0
 40
1.641127999999999
100
AcDbArc
 50
270.0
 51
342.691251
  0
ARC
  5
203
330
6B
100
AcDbEntity
  8
0
 62
     2
100
AcDbCircle
 10
558.522499
 20
287.532013
 30
0.0
 40
2.076875999999999
100
AcDbArc
 50
46.75287999999999
 51
89.749998
  0
ARC
  5
204
330
6B
100
AcDbEntity
  8
0
 62
     2
100
AcDbCircle
 10
558.522499
 20
287.532013
 30
0.0
 40
2.076875999999999
100
AcDbArc
 50
273.976333
 51
312.82312
  0
ARC
  5
205
330
6B
100
AcDbEntity
  8
0
 62
     2
100
AcDbCircle
 10
569.964307
 20
287.499952
 30
0.0
 40
2.755888999999998
100
AcDbArc
 50
0.6665840000000001
 51
23.903928
  0
ARC
  5
206
330
6B
100
AcDbEntity
  8
0
 62
     2
100
AcDbCircle
 10
573.879869
 20
287.499952
 30
0.0
 40
2.755888999999998
100
AcDbArc
 50
156.096072
 51
179.333416
  0
ARC
  5
207
330
6B
100
AcDbEntity
  8
0
 62
     2
100
AcDbCircle
 10
569.964307
 20
287.564075
 30
0.0
 40
2.755888999999998
100
AcDbArc
 50
336.096072
 51
359.333416
  0
ARC
  5
208
330
6B
100
AcDbEntity
  8
0
 62
     2
100
AcDbCircle
 10
573.879869
 20
287.564075
 30
0.0
 40
2.755888999999998
100
AcDbArc
 50
180.666584
 51
203.903928
  0
LINE
  5
209
330
6B
100
AcDbEntity
  8
0
 62
     3
100
AcDbLine
 10
584.4495199999999
 20
19.375606
 30
0.0
 11
584.4495199999999
 21
33.375606
 31
0.0
  0
TEXT
  5
20A
330
6B
100
AcDbEntity
  8
0
 62
     3
100
AcDbText
 10
613.5134479999997
 20
44.58072199999999
 30
0.0
 40
2.0
  1
A
 41
0.7
100
AcDbText
  0
TEXT
  5
20B
330
6B
100
AcDbEntity
  8
0
 62
     3
100
AcDbText
 10
616.0487339999998
 20
44.58072199999999
 30
0.0
 40
2.0
  1
P
 41
0.7
100
AcDbText
  0
TEXT
  5
20C
330
6B
100
AcDbEntity
  8
0
 62
     3
100
AcDbText
 10
618.5840199999999
 20
44.58072199999999
 30
0.0
 40
2.0
  1
P
 41
0.7
100
AcDbText
  0
TEXT
  5
20D
330
6B
100
AcDbEntity
  8
0
 62
     3
100
AcDbText
 10
621.1193059999998
 20
44.58072199999999
 30
0.0
 40
2.0
  1
D
 41
0.7
100
AcDbText
  0
TEXT
  5
20E
330
6B
100
AcDbEntity
  8
0
 62
     3
100
AcDbText
 10
626.4879899999998
 20
44.58072199999999
 30
0.0
 40
2.0
  1
C
 41
0.7
100
AcDbText
  0
TEXT
  5
20F
330
6B
100
AcDbEntity
  8
0
 62
     3
100
AcDbText
 10
629.023276
 20
44.58072199999999
 30
0.0
 40
2.0
  1
H
 41
0.7
100
AcDbText
  0
TEXT
  5
210
330
6B
100
AcDbEntity
  8
0
 62
     3
100
AcDbText
 10
631.5585619999998
 20
44.58072199999999
 30
0.0
 40
2.0
  1
C
 41
0.7
100
AcDbText
  0
TEXT
  5
211
330
6B
100
AcDbEntity
  8
0
 62
     3
100
AcDbText
 10
634.0938480000001
 20
44.58072199999999
 30
0.0
 40
2.0
  1
K
 41
0.7
100
AcDbText
  0
TEXT
  5
212
330
6B
100
AcDbEntity
  8
0
 62
     3
100
AcDbText
 10
639.7678149999998
 20
44.58072199999999
 30
0.0
 40
2.0
  1
DESN
 41
1.216762999999998
100
AcDbText
  0
TEXT
  5
213
330
6B
100
AcDbEntity
  8
0
 62
     3
100
AcDbText
 10
554.7614559999998
 20
16.234224
 30
0.0
 40
2.0
  1
NICHIDO IND.CO.LTD
 41
1.274876
100
AcDbText
  0
LINE
  5
214
330
6B
100
AcDbEntity
  8
0
 62
     3
100
AcDbLine
 10
565.1444849999998
 20
47.375606
 30
0.0
 11
565.1444849999998
 21
26.375606
 31
0.0
  0
LINE
  5
215
330
6B
100
AcDbEntity
  8
0
 62
     3
100
AcDbLine
 10
624.5031299999998
 20
47.37560600000001
 30
0.0
 11
624.5031299999998
 21
19.375606
 31
0.0
  0
TEXT
  5
216
330
6B
100
AcDbEntity
  8
0
 62
     3
100
AcDbText
 10
612.7431199999997
 20
19.897514
 30
0.0
 40
3.2
  1
作成日
 41
1.017225999999998
100
AcDbText
  0
LINE
  5
217
330
6B
100
AcDbEntity
  8
0
 62
     3
100
AcDbLine
 10
663.202493
 20
47.375606
 30
0.0
 11
551.899051
 21
47.375606
 31
0.0
  0
TEXT
  5
218
330
6B
100
AcDbEntity
  8
0
 62
     3
100
AcDbText
 10
653.8269329999998
 20
44.66654099999998
 30
0.0
 40
1.8
  1
D
 41
0.666667
100
AcDbText
  0
TEXT
  5
219
330
6B
100
AcDbEntity
  8
0
 62
     3
100
AcDbText
 10
656.643561
 20
44.66654099999998
 30
0.0
 40
1.8
  1
E
 41
0.666667
100
AcDbText
  0
TEXT
  5
21A
330
6B
100
AcDbEntity
  8
0
 62
     3
100
AcDbText
 10
659.4601889999998
 20
44.66654099999998
 30
0.0
 40
1.8
  1
F
 41
0.666667
100
AcDbText
  0
TEXT
  5
21B
330
6B
100
AcDbEntity
  8
0
 62
     3
100
AcDbText
 10
653.8269329999998
 20
40.673987
 30
0.0
 40
3.2
  1
製図
 41
1.076369
100
AcDbText
  0
LINE
  5
21C
330
6B
100
AcDbEntity
  8
0
 62
     3
100
AcDbLine
 10
551.899051
 20
47.375606
 30
0.0
 11
551.899051
 21
10.609884
 31
0.0
  0
TEXT
  5
21D
330
6B
100
AcDbEntity
  8
0
 62
     3
100
AcDbText
 10
553.2757039999998
 20
10.942349
 30
0.0
 40
5.0
  1
日動工業株式会社
 41
0.833333
100
AcDbText
  0
LINE
  5
21E
330
6B
100
AcDbEntity
  8
0
 62
     3
100
AcDbLine
 10
594.7814549999998
 20
15.442745
 30
0.0
 11
611.5031299999998
 21
15.442745
 31
0.0
  0
LINE
  5
220
330
6B
100
AcDbEntity
  8
0
 62
     3
100
AcDbLine
 10
551.899051
 20
19.375606
 30
0.0
 11
663.202493
 21
19.375606
 31
0.0
  0
LINE
  5
222
330
6B
100
AcDbEntity
  8
0
 62
     3
100
AcDbLine
 10
551.899051
 20
40.37560599999999
 30
0.0
 11
663.202493
 21
40.37560599999999
 31
0.0
  0
LINE
  5
228
330
6B
100
AcDbEntity
  8
0
 62
     3
100
AcDbLine
 10
551.899051
 20
33.375606
 30
0.0
 11
611.5031299999998
 21
33.375606
 31
0.0
  0
LINE
  5
22E
330
6B
100
AcDbEntity
  8
0
 62
     3
100
AcDbLine
 10
551.899051
 20
26.375606
 30
0.0
 11
663.202493
 21
26.375606
 31
0.0
  0
TEXT
  5
22F
330
6B
100
AcDbEntity
  8
0
 62
     3
100
AcDbText
 10
595.235508
 20
11.212078
 30
0.0
 40
3.2
  1
ZK-A4Y
 41
0.8112849999999999
100
AcDbText
  0
LINE
  5
230
330
6B
100
AcDbEntity
  8
0
 62
     3
100
AcDbLine
 10
483.2024929999998
 20
287.609884
 30
0.0
 11
483.2024929999998
 21
10.609884
 31
0.0
  0
LINE
  5
231
330
6B
100
AcDbEntity
  8
0
 62
     3
100
AcDbLine
 10
663.202493
 20
10.609884
 30
0.0
 11
663.202493
 21
287.609884
 31
0.0
  0
LINE
  5
232
330
6B
100
AcDbEntity
  8
0
 62
     3
100
AcDbLine
 10
663.202493
 20
10.609884
 30
0.0
 11
483.2024929999998
 21
10.609884
 31
0.0
  0
TEXT
  5
237
330
6B
100
AcDbEntity
  8
0
 62
     3
100
AcDbText
 10
553.7164479999999
 20
44.545132
 30
0.0
 40
2.0
  1
CONPONENTS
 41
0.5331600000000001
100
AcDbText
  0
TEXT
  5
238
330
6B
100
AcDbEntity
  8
0
 62
     3
100
AcDbText
 10
553.3667209999999
 20
26.612955
 30
0.0
 40
3.0
  1
材
 41
0.833333
100
AcDbText
  0
TEXT
  5
239
330
6B
100
AcDbEntity
  8
0
 62
     3
100
AcDbText
 10
560.9023639999998
 20
26.612955
 30
0.0
 40
3.0
  1
質
 41
0.833333
100
AcDbText
  0
TEXT
  5
23A
330
6B
100
AcDbEntity
  8
0
 62
     3
100
AcDbText
 10
553.454792
 20
37.23748
 30
0.0
 40
2.0
  1
MODEL
 41
1.031072999999999
100
AcDbText
  0
TEXT
  5
23B
330
6B
100
AcDbEntity
  8
0
 62
     3
100
AcDbText
 10
553.3667209999999
 20
30.29526300000001
 30
0.0
 40
2.0
  1
MATERIAL
 41
0.659278
100
AcDbText
  0
TEXT
  5
23C
330
6B
100
AcDbEntity
  8
0
 62
     3
100
AcDbText
 10
584.6740009999998
 20
26.612955
 30
0.0
 40
3.0
  1
備
 41
0.833333
100
AcDbText
  0
TEXT
  5
23D
330
6B
100
AcDbEntity
  8
0
 62
     3
100
AcDbText
 10
591.4070029999997
 20
26.612955
 30
0.0
 40
3.0
  1
考
 41
0.833333
100
AcDbText
  0
TEXT
  5
23E
330
6B
100
AcDbEntity
  8
0
 62
     3
100
AcDbText
 10
585.0567751153064
 20
30.29526300000001
 30
0.0
 40
2.0
  1
REMARKS
 41
0.675794
100
AcDbText
  0
TEXT
  5
23F
330
6B
100
AcDbEntity
  8
0
 62
     3
100
AcDbText
 10
554.95645
 20
23.375143
 30
0.0
 40
2.0
  1
3AD
 41
1.42614
100
AcDbText
  0
TEXT
  5
240
330
6B
100
AcDbEntity
  8
0
 62
     3
100
AcDbText
 10
564.26743
 20
23.540876
 30
0.0
 40
2.0
  1
ANGLE
 41
1.669883999999998
100
AcDbText
  0
TEXT
  5
241
330
6B
100
AcDbEntity
  8
0
 62
     3
100
AcDbText
 10
585.201317
 20
23.164035
 30
0.0
 40
2.0
  1
SCALE
 41
0.7719630000000001
100
AcDbText
  0
TEXT
  5
242
330
6B
100
AcDbEntity
  8
0
 62
     3
100
AcDbText
 10
554.6425799999998
 20
19.375606
 30
0.0
 40
3.0
  1
第
 41
0.833333
100
AcDbText
  0
TEXT
  5
243
330
6B
100
AcDbEntity
  8
0
 62
     3
100
AcDbText
 10
562.4294299999998
 20
19.375606
 30
0.0
 40
3.0
  1
三
 41
0.833333
100
AcDbText
  0
TEXT
  5
244
330
6B
100
AcDbEntity
  8
0
 62
     3
100
AcDbText
 10
570.2162799999999
 20
19.375606
 30
0.0
 40
3.0
  1
角
 41
0.833333
100
AcDbText
  0
TEXT
  5
245
330
6B
100
AcDbEntity
  8
0
 62
     3
100
AcDbText
 10
578.0031299999998
 20
19.375606
 30
0.0
 40
3.0
  1
法
 41
0.833333
100
AcDbText
  0
TEXT
  5
246
330
6B
100
AcDbEntity
  8
0
 62
     3
100
AcDbText
 10
585.064522
 20
19.664035
 30
0.0
 40
3.0
  1
尺
 41
0.833333
100
AcDbText
  0
TEXT
  5
247
330
6B
100
AcDbEntity
  8
0
 62
     3
100
AcDbText
 10
591.7975229999998
 20
19.664035
 30
0.0
 40
3.0
  1
度
 41
0.833333
100
AcDbText
  0
TEXT
  5
248
330
6B
100
AcDbEntity
  8
0
 62
     3
100
AcDbText
 10
614.3807939999998
 20
40.833335
 30
0.0
 40
3.0
  1
承認
 41
1.089472999999999
100
AcDbText
  0
TEXT
  5
249
330
6B
100
AcDbEntity
  8
0
 62
     3
100
AcDbText
 10
627.6236739999998
 20
40.77560599999999
 30
0.0
 40
3.0
  1
検図
 41
0.931761
100
AcDbText
  0
TEXT
  5
24A
330
6B
100
AcDbEntity
  8
0
 62
     3
100
AcDbText
 10
640.6240709999998
 20
40.77560599999999
 30
0.0
 40
3.0
  1
設
 41
0.833333
100
AcDbText
  0
TEXT
  5
24B
330
6B
100
AcDbEntity
  8
0
 62
     3
100
AcDbText
 10
645.1139389999998
 20
40.77560599999999
 30
0.0
 40
3.0
  1
計
 41
0.833333
100
AcDbText
  0
TEXT
  5
24C
330
6B
100
AcDbEntity
  8
0
 62
     3
100
AcDbText
 10
553.6479189999998
 20
41.064362
 30
0.0
 40
3.0
  1
品
 41
0.833333
100
AcDbText
  0
TEXT
  5
24D
330
6B
100
AcDbEntity
  8
0
 62
     3
100
AcDbText
 10
561.1835619999998
 20
41.064362
 30
0.0
 40
3.0
  1
名
 41
0.833333
100
AcDbText
  0
TEXT
  5
24E
330
6B
100
AcDbEntity
  8
0
 62
     3
100
AcDbText
 10
553.454792
 20
33.60522
 30
0.0
 40
3.0
  1
型
 41
0.833333
100
AcDbText
  0
TEXT
  5
24F
330
6B
100
AcDbEntity
  8
0
 62
     3
100
AcDbText
 10
561.0028819999999
 20
33.60522
 30
0.0
 40
3.0
  1
式
 41
0.833333
100
AcDbText
  0
LINE
  5
250
330
6B
100
AcDbEntity
  8
0
 62
     3
100
AcDbLine
 10
578.5301559999997
 20
287.609884
 30
0.0
 11
663.202493
 21
287.609884
 31
0.0
  0
LINE
  5
251
330
6B
100
AcDbEntity
  8
0
 62
     3
100
AcDbLine
 10
545.1174089999998
 20
287.609884
 30
0.0
 11
483.2024929999998
 21
287.609884
 31
0.0
  0
LINE
  5
253
330
6B
100
AcDbEntity
  8
0
 62
     7
100
AcDbLine
 10
589.7079269999998
 20
283.104495
 30
0.0
 11
589.7079269999998
 21
268.254495
 31
0.0
  0
LINE
  5
254
330
6B
100
AcDbEntity
  8
0
 62
     7
100
AcDbLine
 10
663.202493
 20
273.204495
 30
0.0
 11
579.6024929999998
 21
273.204495
 31
0.0
  0
LINE
  5
255
330
6B
100
AcDbEntity
  8
0
 62
     7
100
AcDbLine
 10
655.604968
 20
283.104495
 30
0.0
 11
655.604968
 21
268.254495
 31
0.0
  0
LINE
  5
256
330
6B
100
AcDbEntity
  8
0
 62
     7
100
AcDbLine
 10
607.313253
 20
283.104495
 30
0.0
 11
607.313253
 21
268.254495
 31
0.0
  0
LINE
  5
258
330
6B
100
AcDbEntity
  8
0
 62
     7
100
AcDbLine
 10
579.6024929999998
 20
278.154495
 30
0.0
 11
663.202493
 21
278.154495
 31
0.0
  0
TEXT
  5
259
330
6B
100
AcDbEntity
  8
0
 62
     3
100
AcDbText
 10
656.4593129999998
 20
278.8279629999999
 30
0.0
 40
3.2
  1
担当
  7
高3.2
100
AcDbText
  0
LINE
  5
25A
330
6B
100
AcDbEntity
  8
0
 62
     3
100
AcDbLine
 10
637.5031299999998
 20
26.375606
 30
0.0
 11
637.5031299999998
 21
47.37560600000001
 31
0.0
  0
LINE
  5
25B
330
6B
100
AcDbEntity
  8
0
 62
     3
100
AcDbLine
 10
611.5031299999998
 20
10.609884
 30
0.0
 11
611.5031299999998
 21
47.375606
 31
0.0
  0
LINE
  5
25C
330
6B
100
AcDbEntity
  8
0
 62
     3
100
AcDbLine
 10
594.7814549999998
 20
10.609884
 30
0.0
 11
594.7814549999998
 21
33.375606
 31
0.0
  0
LINE
  5
25E
330
6B
100
AcDbEntity
  8
0
 62
     3
100
AcDbLine
 10
650.374279
 20
26.375606
 30
0.0
 11
650.374279
 21
47.375606
 31
0.0
  0
LINE
  5
25F
330
6B
100
AcDbEntity
  8
0
 62
     3
100
AcDbLine
 10
611.5031299999998
 20
54.37560600000001
 30
0.0
 11
663.2454279999998
 21
54.37560600000001
 31
0.0
  0
TEXT
  5
262
330
6B
100
AcDbEntity
  8
0
 62
     3
100
AcDbText
 10
595.588796
 20
15.442745
 30
0.0
 40
3.2
  1
モデル名
 41
1.069126999999999
100
AcDbText
  0
LINE
  5
263
330
6B
100
AcDbEntity
  8
0
 62
     7
100
AcDbLine
 10
584.420198
 20
277.41525
 30
0.0
 11
582.5201980000001
 21
274.1243530000001
 31
0.0
  0
LINE
  5
264
330
6B
100
AcDbEntity
  8
0
 62
     7
100
AcDbLine
 10
584.420198
 20
277.41525
 30
0.0
 11
586.320198
 21
274.1243530000001
 31
0.0
  0
LINE
  5
265
330
6B
100
AcDbEntity
  8
0
 62
     7
100
AcDbLine
 10
582.5201980000001
 20
274.1243530000001
 30
0.0
 11
586.320198
 21
274.1243530000001
 31
0.0
  0
LINE
  5
266
330
6B
100
AcDbEntity
  8
0
 62
     7
100
AcDbLine
 10
584.420198
 20
272.25904
 30
0.0
 11
582.5201980000001
 21
268.968143
 31
0.0
  0
LINE
  5
267
330
6B
100
AcDbEntity
  8
0
 62
     7
100
AcDbLine
 10
584.420198
 20
272.25904
 30
0.0
 11
586.320198
 21
268.968143
 31
0.0
  0
LINE
  5
268
330
6B
100
AcDbEntity
  8
0
 62
     7
100
AcDbLine
 10
582.5201980000001
 20
268.968143
 30
0.0
 11
586.320198
 21
268.968143
 31
0.0
  0
LINE
  5
269
330
6B
100
AcDbEntity
  8
0
 62
     7
100
AcDbLine
 10
541.026614
 20
206.328787
 30
0.0
 11
536.026614
 21
206.328787
 31
0.0
  0
ARC
  5
26A
330
6B
100
AcDbEntity
  8
0
 62
     7
100
AcDbCircle
 10
538.5266139999998
 20
242.706248
 30
0.0
 40
6.25
100
AcDbArc
 50
204.483934
 51
155.516066
  0
ARC
  5
26B
330
6B
100
AcDbEntity
  8
0
 62
     7
100
AcDbCircle
 10
532.0766139999998
 20
242.706248
 30
0.0
 40
2.7
100
AcDbArc
 50
73.60677800000002
 51
286.393222
  0
CIRCLE
  5
26C
330
6B
100
AcDbEntity
  8
0
 62
     7
100
AcDbCircle
 10
532.0766139999998
 20
242.706248
 30
0.0
 40
1.0
  0
CIRCLE
  5
26D
330
6B
100
AcDbEntity
  8
0
 62
     7
100
AcDbCircle
 10
538.5266139999998
 20
242.706248
 30
0.0
 40
1.9
  0
CIRCLE
  5
26E
330
6B
100
AcDbEntity
  8
0
 62
     7
100
AcDbCircle
 10
538.5266139999998
 20
242.706248
 30
0.0
 40
2.6
  0
CIRCLE
  5
26F
330
6B
100
AcDbEntity
  8
0
 62
     7
100
AcDbCircle
 10
538.5266139999998
 20
242.706248
 30
0.0
 40
1.0
  0
LINE
  5
270
330
6B
100
AcDbEntity
  8
0
 62
     7
100
AcDbLine
 10
530.941149
 20
161.528787
 30
0.0
 11
530.941149
 21
152.028787
 31
0.0
  0
LINE
  5
271
330
6B
100
AcDbEntity
  8
0
 62
     7
100
AcDbLine
 10
532.838629
 20
171.128787
 30
0.0
 11
532.838629
 21
164.128787
 31
0.0
  0
LINE
  5
272
330
6B
100
AcDbEntity
  8
0
 62
     7
100
AcDbLine
 10
532.2266139999998
 20
152.028787
 30
0.0
 11
532.2266139999998
 21
146.028787
 31
0.0
  0
LINE
  5
273
330
6B
100
AcDbEntity
  8
0
 62
     7
100
AcDbLine
 10
535.058816
 20
132.028787
 30
0.0
 11
535.058816
 21
134.028787
 31
0.0
  0
LINE
  5
274
330
6B
100
AcDbEntity
  8
0
 62
     7
100
AcDbLine
 10
540.126614
 20
127.028787
 30
0.0
 11
540.126614
 21
122.2005
 31
0.0
  0
LINE
  5
275
330
6B
100
AcDbEntity
  8
0
 62
     7
100
AcDbLine
 10
533.6766139999999
 20
122.616962
 30
0.0
 11
533.6766139999999
 21
132.028787
 31
0.0
  0
LINE
  5
276
330
6B
100
AcDbEntity
  8
0
 62
     7
100
AcDbLine
 10
530.4766139999998
 20
122.616962
 30
0.0
 11
530.4766139999998
 21
132.028787
 31
0.0
  0
ARC
  5
277
330
6B
100
AcDbEntity
  8
0
 62
     7
100
AcDbCircle
 10
543.526614
 20
122.2005
 30
0.0
 40
3.399999999999999
100
AcDbArc
 50
180.0
 51
234.535696
  0
ARC
  5
278
330
6B
100
AcDbEntity
  8
0
 62
     7
100
AcDbCircle
 10
543.526614
 20
122.2005
 30
0.0
 40
6.599999999999998
100
AcDbArc
 50
180.0
 51
234.535696
  0
LINE
  5
279
330
6B
100
AcDbEntity
  8
0
 62
     7
100
AcDbLine
 10
541.5539489999998
 20
119.431277
 30
0.0
 11
547.0179379999998
 21
115.538986
 31
0.0
  0
LINE
  5
27A
330
6B
100
AcDbEntity
  8
0
 62
     7
100
AcDbLine
 10
539.6973230000001
 20
116.824951
 30
0.0
 11
545.1613120000001
 21
112.932659
 31
0.0
  0
ARC
  5
27B
330
6B
100
AcDbEntity
  8
0
 62
     7
100
AcDbCircle
 10
543.1886459999998
 20
110.163437
 30
0.0
 40
6.599999999999998
100
AcDbArc
 50
0.0
 51
54.53569599999998
  0
ARC
  5
27C
330
6B
100
AcDbEntity
  8
0
 62
     7
100
AcDbCircle
 10
543.1886459999998
 20
110.163437
 30
0.0
 40
3.399999999999999
100
AcDbArc
 50
0.0
 51
54.53569599999998
  0
LINE
  5
27D
330
6B
100
AcDbEntity
  8
0
 62
     7
100
AcDbLine
 10
549.788646
 20
110.163437
 30
0.0
 11
549.788646
 21
100.111455
 31
0.0
  0
LINE
  5
27E
330
6B
100
AcDbEntity
  8
0
 62
     7
100
AcDbLine
 10
546.588646
 20
110.163437
 30
0.0
 11
546.588646
 21
100.111455
 31
0.0
  0
LINE
  5
27F
330
6B
100
AcDbEntity
  8
0
 62
     7
100
AcDbLine
 10
531.6171019999997
 20
117.826976
 30
0.0
 11
524.8213549999998
 21
111.385201
 31
0.0
  0
LINE
  5
280
330
6B
100
AcDbEntity
  8
0
 62
     7
100
AcDbLine
 10
529.415653
 20
120.149393
 30
0.0
 11
522.6199059999999
 21
113.707618
 31
0.0
  0
ARC
  5
281
330
6B
100
AcDbEntity
  8
0
 62
     7
100
AcDbCircle
 10
527.0766139999998
 20
122.616962
 30
0.0
 40
3.399999999999999
100
AcDbArc
 50
313.46827
 51
0.0
  0
ARC
  5
282
330
6B
100
AcDbEntity
  8
0
 62
     7
100
AcDbCircle
 10
527.0766139999998
 20
122.616962
 30
0.0
 40
6.599999999999998
100
AcDbArc
 50
313.46827
 51
0.0
  0
ARC
  5
283
330
6B
100
AcDbEntity
  8
0
 62
     7
100
AcDbCircle
 10
527.160394
 20
108.917632
 30
0.0
 40
3.399999999999999
100
AcDbArc
 50
133.46827
 51
180.0
  0
ARC
  5
284
330
6B
100
AcDbEntity
  8
0
 62
     7
100
AcDbCircle
 10
527.160394
 20
108.917632
 30
0.0
 40
6.599999999999998
100
AcDbArc
 50
133.46827
 51
180.0
  0
LINE
  5
285
330
6B
100
AcDbEntity
  8
0
 62
     7
100
AcDbLine
 10
523.760394
 20
108.917632
 30
0.0
 11
523.760394
 21
100.111455
 31
0.0
  0
LINE
  5
286
330
6B
100
AcDbEntity
  8
0
 62
     7
100
AcDbLine
 10
520.5603940000002
 20
108.917632
 30
0.0
 11
520.5603940000002
 21
100.111455
 31
0.0
  0
LINE
  5
287
330
6B
100
AcDbEntity
  8
0
 62
     7
100
AcDbLine
 10
536.9266139999998
 20
127.028787
 30
0.0
 11
536.9266139999998
 21
122.2005
 31
0.0
  0
LINE
  5
288
330
6B
100
AcDbEntity
  8
0
 62
     7
100
AcDbLine
 10
543.6886459999998
 20
98.11145500000002
 30
0.0
 11
548.1886459999998
 21
98.11145500000002
 31
0.0
  0
LINE
  5
289
330
6B
100
AcDbEntity
  8
0
 62
     7
100
AcDbLine
 10
552.7973339999999
 20
58.11145500000001
 30
0.0
 11
552.7973339999999
 21
67.61145500000001
 31
0.0
  0
LINE
  5
28A
330
6B
100
AcDbEntity
  8
0
 62
     7
100
AcDbLine
 10
526.660394
 20
98.11145500000002
 30
0.0
 11
517.6603939999998
 21
98.11145500000002
 31
0.0
  0
LINE
  5
28B
330
6B
100
AcDbEntity
  8
0
 62
     7
100
AcDbLine
 10
517.8676679999998
 20
90.611455
 30
0.0
 11
517.8676679999998
 21
89.11145500000001
 31
0.0
  0
LINE
  5
28C
330
6B
100
AcDbEntity
  8
0
 62
     7
100
AcDbLine
 10
527.160394
 20
82.111455
 30
0.0
 11
517.1603939999998
 21
82.111455
 31
0.0
  0
LINE
  5
28D
330
6B
100
AcDbEntity
  8
0
 62
     7
100
AcDbLine
 10
527.760394
 20
88.31145500000003
 30
0.0
 11
516.5603940000002
 21
88.31145500000003
 31
0.0
  0
LINE
  5
28E
330
6B
100
AcDbEntity
  8
0
 62
     7
100
AcDbLine
 10
527.760394
 20
87.51145499999998
 30
0.0
 11
516.5603940000002
 21
87.51145499999998
 31
0.0
  0
LINE
  5
28F
330
6B
100
AcDbEntity
  8
0
 62
     7
100
AcDbLine
 10
527.760394
 20
86.01145499999999
 30
0.0
 11
516.5603940000002
 21
86.01145499999999
 31
0.0
  0
LINE
  5
290
330
6B
100
AcDbEntity
  8
0
 62
     7
100
AcDbLine
 10
527.760394
 20
85.21145500000001
 30
0.0
 11
516.5603940000002
 21
85.21145500000001
 31
0.0
  0
LINE
  5
291
330
6B
100
AcDbEntity
  8
0
 62
     7
100
AcDbLine
 10
527.760394
 20
82.911455
 30
0.0
 11
516.5603940000002
 21
82.911455
 31
0.0
  0
LINE
  5
292
330
6B
100
AcDbEntity
  8
0
 62
     7
100
AcDbLine
 10
527.760394
 20
83.711455
 30
0.0
 11
516.5603940000002
 21
83.711455
 31
0.0
  0
LINE
  5
293
330
6B
100
AcDbEntity
  8
0
 62
     7
100
AcDbLine
 10
527.160394
 20
89.11145500000001
 30
0.0
 11
527.160394
 21
88.31145500000003
 31
0.0
  0
LINE
  5
294
330
6B
100
AcDbEntity
  8
0
 62
     7
100
AcDbLine
 10
517.1603939999998
 20
89.11145500000001
 30
0.0
 11
517.1603939999998
 21
88.31145500000003
 31
0.0
  0
ARC
  5
295
330
6B
100
AcDbEntity
  8
0
 62
     7
100
AcDbCircle
 10
527.760394
 20
87.911455
 30
0.0
 40
0.4
100
AcDbArc
 50
270.0
 51
90.0
  0
ARC
  5
296
330
6B
100
AcDbEntity
  8
0
 62
     7
100
AcDbCircle
 10
516.5603940000002
 20
87.911455
 30
0.0
 40
0.4
100
AcDbArc
 50
90.0
 51
270.0
  0
ARC
  5
297
330
6B
100
AcDbEntity
  8
0
 62
     7
100
AcDbCircle
 10
516.5603940000002
 20
85.611455
 30
0.0
 40
0.4
100
AcDbArc
 50
90.0
 51
270.0
  0
ARC
  5
298
330
6B
100
AcDbEntity
  8
0
 62
     7
100
AcDbCircle
 10
516.5603940000002
 20
83.31145500000003
 30
0.0
 40
0.4
100
AcDbArc
 50
90.0
 51
270.0
  0
ARC
  5
299
330
6B
100
AcDbEntity
  8
0
 62
     7
100
AcDbCircle
 10
527.760394
 20
85.611455
 30
0.0
 40
0.4
100
AcDbArc
 50
270.0
 51
90.0
  0
ARC
  5
29A
330
6B
100
AcDbEntity
  8
0
 62
     7
100
AcDbCircle
 10
527.760394
 20
83.31145500000003
 30
0.0
 40
0.4
100
AcDbArc
 50
270.0
 51
90.0
  0
LINE
  5
29B
330
6B
100
AcDbEntity
  8
0
 62
     7
100
AcDbLine
 10
527.160394
 20
82.911455
 30
0.0
 11
527.160394
 21
82.111455
 31
0.0
  0
LINE
  5
29C
330
6B
100
AcDbEntity
  8
0
 62
     7
100
AcDbLine
 10
527.160394
 20
85.21145500000001
 30
0.0
 11
527.160394
 21
83.711455
 31
0.0
  0
LINE
  5
29D
330
6B
100
AcDbEntity
  8
0
 62
     7
100
AcDbLine
 10
527.160394
 20
87.51145499999998
 30
0.0
 11
527.160394
 21
86.01145499999999
 31
0.0
  0
LINE
  5
29E
330
6B
100
AcDbEntity
  8
0
 62
     7
100
AcDbLine
 10
517.1603939999998
 20
82.911455
 30
0.0
 11
517.1603939999998
 21
82.111455
 31
0.0
  0
LINE
  5
29F
330
6B
100
AcDbEntity
  8
0
 62
     7
100
AcDbLine
 10
517.1603939999998
 20
85.21145500000001
 30
0.0
 11
517.1603939999998
 21
83.711455
 31
0.0
  0
LINE
  5
2A0
330
6B
100
AcDbEntity
  8
0
 62
     7
100
AcDbLine
 10
517.1603939999998
 20
87.51145499999998
 30
0.0
 11
517.1603939999998
 21
86.01145499999999
 31
0.0
  0
CIRCLE
  5
2A1
330
6B
100
AcDbEntity
  8
0
 62
     7
100
AcDbCircle
 10
545.901614
 20
229.932374
 30
0.0
 40
1.25
  0
CIRCLE
  5
2A2
330
6B
100
AcDbEntity
  8
0
 62
     7
100
AcDbCircle
 10
545.901614
 20
255.480123
 30
0.0
 40
1.25
  0
CIRCLE
  5
2A3
330
6B
100
AcDbEntity
  8
0
 62
     7
100
AcDbCircle
 10
523.7766139999998
 20
242.706248
 30
0.0
 40
1.25
  0
LINE
  5
2A4
330
6B
100
AcDbEntity
  8
0
  6
CENTER
 62
     7
100
AcDbLine
 10
538.5266139999998
 20
218.706248
 30
0.0
 11
538.5266139999998
 21
266.706248
 31
0.0
  0
LINE
  5
2A5
330
6B
100
AcDbEntity
  8
0
  6
CENTER
 62
     7
100
AcDbLine
 10
514.526614
 20
242.706248
 30
0.0
 11
562.5266139999999
 21
242.706248
 31
0.0
  0
LINE
  5
2A6
330
6B
100
AcDbEntity
  8
0
 62
     7
100
AcDbLine
 10
529.4766139999998
 20
152.028787
 30
0.0
 11
544.8266139999998
 21
152.028787
 31
0.0
  0
LINE
  5
2A7
330
6B
100
AcDbEntity
  8
0
 62
     7
100
AcDbLine
 10
529.4766139999998
 20
146.028787
 30
0.0
 11
541.8016139999998
 21
146.028787
 31
0.0
  0
LINE
  5
2A8
330
6B
100
AcDbEntity
  8
0
 62
     7
100
AcDbLine
 10
529.5766139999998
 20
134.028787
 30
0.0
 11
542.8016139999998
 21
134.028787
 31
0.0
  0
LINE
  5
2A9
330
6B
100
AcDbEntity
  8
0
 62
     7
100
AcDbLine
 10
536.026614
 20
129.028787
 30
0.0
 11
541.026614
 21
129.028787
 31
0.0
  0
LINE
  5
2AA
330
6B
100
AcDbEntity
  8
0
 62
     7
100
AcDbLine
 10
534.2516139999998
 20
132.028787
 30
0.0
 11
538.5266139999998
 21
132.028787
 31
0.0
  0
LINE
  5
2AB
330
6B
100
AcDbEntity
  8
0
 62
     7
100
AcDbLine
 10
529.376614
 20
164.128787
 30
0.0
 11
544.7766139999998
 21
164.128787
 31
0.0
  0
LINE
  5
2AC
330
6B
100
AcDbEntity
  8
0
 62
     7
100
AcDbLine
 10
528.0766139999998
 20
161.528787
 30
0.0
 11
547.0266139999998
 21
161.528787
 31
0.0
  0
TEXT
  5
2AD
330
6B
100
AcDbEntity
  8
0
 62
     3
100
AcDbText
 10
586.5517769999999
 20
181.873617
 30
0.0
 40
4.5
  1
定格電圧
  7
高4.5
100
AcDbText
  0
TEXT
  5
2AE
330
6B
100
AcDbEntity
  8
0
 62
     3
100
AcDbText
 10
586.5517769999999
 20
175.873617
 30
0.0
 40
4.5
  1
消費電力
  7
高4.5
100
AcDbText
  0
TEXT
  5
2AF
330
6B
100
AcDbEntity
  8
0
 62
     3
100
AcDbText
 10
586.5517769999999
 20
163.873617
 30
0.0
 40
4.5
  1
照射角度
  7
高4.5
100
AcDbText
  0
TEXT
  5
2B0
330
6B
100
AcDbEntity
  8
0
 62
     3
100
AcDbText
 10
611.4712729999999
 20
181.873617
 30
0.0
 40
4.5
  1
AC85%%p17V
  7
高4.5
100
AcDbText
  0
TEXT
  5
2B1
330
6B
100
AcDbEntity
  8
0
 62
     3
100
AcDbText
 10
611.4712729999999
 20
175.873617
 30
0.0
 40
4.5
  1
35W
  7
高4.5
100
AcDbText
  0
TEXT
  5
2B2
330
6B
100
AcDbEntity
  8
0
 62
     3
100
AcDbText
 10
611.4712729999999
 20
163.873617
 30
0.0
 40
4.5
  1
180度
  7
高4.5
100
AcDbText
  0
TEXT
  5
2B3
330
6B
100
AcDbEntity
  8
0
 62
     3
100
AcDbText
 10
611.4712729999999
 20
157.873617
 30
0.0
 40
4.5
  1
2500時間
  7
高4.5
100
AcDbText
  0
TEXT
  5
2B4
330
6B
100
AcDbEntity
  8
0
 62
     3
100
AcDbText
 10
611.4712729999999
 20
151.873617
 30
0.0
 40
4.5
  1
23g
  7
高4.5
100
AcDbText
  0
TEXT
  5
2B5
330
6B
100
AcDbEntity
  8
0
 62
     3
100
AcDbText
 10
586.5517769999999
 20
187.873617
 30
0.0
 40
4.5
  1
型　　式
  7
高4.5
100
AcDbText
  0
TEXT
  5
2B6
330
6B
100
AcDbEntity
  8
0
 62
     3
100
AcDbText
 10
586.5517769999999
 20
157.873617
 30
0.0
 40
4.5
  1
寿　　命
  7
高4.5
100
AcDbText
  0
TEXT
  5
2B7
330
6B
100
AcDbEntity
  8
0
 62
     3
100
AcDbText
 10
586.5517769999999
 20
151.873617
 30
0.0
 40
4.5
  1
質　　量
  7
高4.5
100
AcDbText
  0
TEXT
  5
2B8
330
6B
100
AcDbEntity
  8
0
 62
     3
100
AcDbText
 10
639.7981007447292
 20
48.46266599999999
 30
0.0
 40
4.5
  1
53322
  7
高4.5
100
AcDbText
  0
LINE
  5
2BE
330
6B
100
AcDbEntity
  8
0
 62
     7
100
AcDbLine
 10
530.704407
 20
138.3051449999999
 30
0.0
 11
519.3479940000002
 21
143.813247
 31
0.0
  0
LINE
  5
2BF
330
6B
100
AcDbEntity
  8
0
 62
     7
100
AcDbLine
 10
519.3479940000002
 20
143.813247
 30
0.0
 11
500.097994
 21
143.813247
 31
0.0
  0
TEXT
  5
2C0
330
6B
100
AcDbEntity
  8
0
 62
     4
100
AcDbText
 10
502.847994
 20
144.813247
 30
0.0
 40
3.2
  1
ゴムカバー
 41
0.716146
100
AcDbText
  0
LINE
  5
2C6
330
6B
100
AcDbEntity
  8
0
 62
     7
100
AcDbLine
 10
556.401295
 20
70.297984
 30
0.0
 11
567.36297
 21
80.66095500000001
 31
0.0
  0
LINE
  5
2C7
330
6B
100
AcDbEntity
  8
0
 62
     7
100
AcDbLine
 10
567.36297
 20
80.66095500000001
 30
0.0
 11
592.11297
 21
80.66095500000001
 31
0.0
  0
TEXT
  5
2C8
330
6B
100
AcDbEntity
  8
0
 62
     4
100
AcDbText
 10
570.11297
 20
81.660955
 30
0.0
 40
3.2
  1
AMP防水1P
 41
0.716146
100
AcDbText
  0
LINE
  5
2CE
330
6B
100
AcDbEntity
  8
0
 62
     7
100
AcDbLine
 10
522.405607
 20
72.111455
 30
0.0
 11
515.7237
 21
61.536503
 31
0.0
  0
LINE
  5
2CF
330
6B
100
AcDbEntity
  8
0
 62
     7
100
AcDbLine
 10
515.7237
 20
61.536503
 30
0.0
 11
490.9736999999998
 21
61.536503
 31
0.0
  0
TEXT
  5
2D0
330
6B
100
AcDbEntity
  8
0
 62
     4
100
AcDbText
 10
493.7237
 20
62.536503
 30
0.0
 40
3.2
  1
AMP防水1P
 41
0.716146
100
AcDbText
  0
TEXT
  5
2D1
330
6B
100
AcDbEntity
  8
0
 62
     3
100
AcDbText
 10
598.2907279999998
 20
20.476523
 30
0.0
 40
3.2
  1
1/1
  7
高3.2
100
AcDbText
  0
TEXT
  5
2D2
330
6B
100
AcDbEntity
  8
0
 62
     3
100
AcDbText
 10
567.3242059999997
 20
27.985261
 30
0.0
 40
3.2
  1
-
  7
高3.2
100
AcDbText
  0
TEXT
  5
2D3
330
6B
100
AcDbEntity
  8
0
 62
     3
100
AcDbText
 10
597.0205349999998
 20
27.955375
 30
0.0
 40
3.2
  1
-
  7
高3.2
100
AcDbText
  0
TEXT
  5
2D4
330
6B
100
AcDbEntity
  8
0
 62
     3
100
AcDbText
 10
566.1916719999998
 20
41.43810199999999
 30
0.0
 40
4.5
  1
HIDL-35X用交換球
 41
0.8
  7
高4.5
100
AcDbText
  0
TEXT
  5
2D5
330
6B
100
AcDbEntity
  8
0
 62
     3
100
AcDbText
 10
628.0666389999999
 20
20.676495
 30
0.0
 40
3.2
  1
2010.02.17
  7
高3.2
100
AcDbText
  0
TEXT
  5
2D6
330
6B
100
AcDbEntity
  8
0
 62
     3
100
AcDbText
 10
611.4712729999999
 20
187.873617
 30
0.0
 40
4.5
  1
HID-35W
  7
高4.5
100
AcDbText
  0
LINE
  5
2D7
330
6B
100
AcDbEntity
  8
0
 62
     3
100
AcDbLine
 10
584.946634
 20
193.112455
 30
0.0
 11
651.565692
 21
193.112455
 31
0.0
  0
LINE
  5
2D8
330
6B
100
AcDbEntity
  8
0
 62
     3
100
AcDbLine
 10
584.946634
 20
151.112455
 30
0.0
 11
651.565692
 21
151.112455
 31
0.0
  0
LINE
  5
2D9
330
6B
100
AcDbEntity
  8
0
 62
     7
100
AcDbLine
 10
584.946634
 20
187.112455
 30
0.0
 11
651.565692
 21
187.112455
 31
0.0
  0
LINE
  5
2DA
330
6B
100
AcDbEntity
  8
0
 62
     7
100
AcDbLine
 10
584.946634
 20
181.112455
 30
0.0
 11
651.565692
 21
181.112455
 31
0.0
  0
LINE
  5
2DB
330
6B
100
AcDbEntity
  8
0
 62
     7
100
AcDbLine
 10
584.946634
 20
175.112455
 30
0.0
 11
651.565692
 21
175.112455
 31
0.0
  0
LINE
  5
2DC
330
6B
100
AcDbEntity
  8
0
 62
     7
100
AcDbLine
 10
584.946634
 20
163.112455
 30
0.0
 11
651.565692
 21
163.112455
 31
0.0
  0
LINE
  5
2DD
330
6B
100
AcDbEntity
  8
0
 62
     7
100
AcDbLine
 10
584.946634
 20
157.112455
 30
0.0
 11
651.565692
 21
157.112455
 31
0.0
  0
TEXT
  5
2DE
330
6B
100
AcDbEntity
  8
0
 62
     3
100
AcDbText
 10
617.0094611334491
 20
48.113928
 30
0.0
 40
4.5
  1
コード
  7
高4.5
100
AcDbText
  0
LINE
  5
2DF
330
6B
100
AcDbEntity
  8
0
 62
     7
100
AcDbLine
 10
584.946634
 20
169.112455
 30
0.0
 11
651.565692
 21
169.112455
 31
0.0
  0
TEXT
  5
2E0
330
6B
100
AcDbEntity
  8
0
 62
     3
100
AcDbText
 10
586.5517769999999
 20
169.873617
 30
0.0
 40
4.5
  1
色温度
  7
高4.5
100
AcDbText
  0
TEXT
  5
2E1
330
6B
100
AcDbEntity
  8
0
 62
     3
100
AcDbText
 10
611.4712729999999
 20
169.873617
 30
0.0
 40
4.5
  1
4300K
  7
高4.5
100
AcDbText
  0
LINE
  5
2E2
330
6B
100
AcDbEntity
  8
0
 62
     3
100
AcDbLine
 10
584.946634
 20
151.112455
 30
0.0
 11
584.946634
 21
193.112455
 31
0.0
  0
LINE
  5
2E3
330
6B
100
AcDbEntity
  8
0
 62
     3
100
AcDbLine
 10
651.565692
 20
151.112455
 30
0.0
 11
651.565692
 21
193.112455
 31
0.0
  0
LINE
  5
2E4
330
6B
100
AcDbEntity
  8
0
 62
     7
100
AcDbLine
 10
609.8661299999998
 20
151.112455
 30
0.0
 11
609.8661299999998
 21
193.112455
 31
0.0
  0
TEXT
  5
2E5
330
6B
100
AcDbEntity
  8
0
 62
     3
100
AcDbText
 10
572.4229908517683
 20
34.164592
 30
0.0
 40
4.5
  1
HID-35W
  7
高4.5
100
AcDbText
  0
TEXT
  5
2E6
330
6B
100
AcDbEntity
  8
0
 62
     3
100
AcDbText
 10
615.7709476411416
 20
11.44985
 30
0.0
 40
6.299999999999998
  1
HID-35W
  7
高6.3
100
AcDbText
  0
TEXT
  5
51B
330
6B
100
AcDbEntity
  8
0
  6
Continuous
 62
     3
100
AcDbText
 10
600.1900862320906
 20
196.0499741182808
 30
0.0
 40
4.5
  1
主　　仕　　様
  7
高4.5
100
AcDbText
  0
LINE
  5
51C
330
6B
100
AcDbEntity
  8
0
  6
Continuous
100
AcDbLine
 10
599.977989518758
 20
195.2389458815587
 30
0.0
 11
637.2032017096906
 21
195.2389458815587
 31
0.0
  0
LINE
  5
5A6
330
6B
100
AcDbEntity
  8
0
 62
     3
100
AcDbLine
 10
611.5031299999998
 20
47.375606
 30
0.0
 11
611.5031299999998
 21
54.37560600000001
 31
0.0
  0
LINE
  5
5A9
330
6B
100
AcDbEntity
  8
0
 62
     3
100
AcDbLine
 10
637.5031299999998
 20
47.37560600000001
 30
0.0
 11
637.5031299999998
 21
54.37560600000001
 31
0.0
  0
LINE
  5
654
330
6B
100
AcDbEntity
  8
0
 62
     7
100
AcDbLine
 10
521.7903169999998
 20
70.13443599999999
 30
0.0
 11
522.405607
 21
72.111455
 31
0.0
  0
LINE
  5
655
330
6B
100
AcDbEntity
  8
0
 62
     7
100
AcDbLine
 10
522.405607
 20
72.111455
 30
0.0
 11
520.8842409999999
 21
70.706951
 31
0.0
  0
LINE
  5
656
330
6B
100
AcDbEntity
  8
0
 62
     7
100
AcDbLine
 10
557.4864879999998
 20
72.061374
 30
0.0
 11
556.401295
 21
70.297984
 31
0.0
  0
LINE
  5
657
330
6B
100
AcDbEntity
  8
0
 62
     7
100
AcDbLine
 10
556.401295
 20
70.297984
 30
0.0
 11
558.222795
 21
71.28252899999998
 31
0.0
  0
LINE
  5
658
330
6B
100
AcDbEntity
  8
0
 62
     7
100
AcDbLine
 10
528.6710349999999
 20
138.695768
 30
0.0
 11
530.704407
 21
138.3051449999999
 31
0.0
  0
LINE
  5
659
330
6B
100
AcDbEntity
  8
0
 62
     7
100
AcDbLine
 10
530.704407
 20
138.3051449999999
 30
0.0
 11
529.138766
 21
139.66012
 31
0.0
  0
LINE
  5
65A
330
6B
100
AcDbEntity
  8
0
 62
     2
100
AcDbLine
 10
559.025461
 20
288.067767
 30
0.0
 11
559.006833
 21
288.187035
 31
0.0
  0
LINE
  5
65B
330
6B
100
AcDbEntity
  8
0
 62
     2
100
AcDbLine
 10
559.006833
 20
288.187035
 30
0.0
 11
558.984462
 21
288.301239
 31
0.0
  0
LINE
  5
65C
330
6B
100
AcDbEntity
  8
0
 62
     2
100
AcDbLine
 10
558.984462
 20
288.301239
 30
0.0
 11
558.95852
 21
288.409498
 31
0.0
  0
LINE
  5
65D
330
6B
100
AcDbEntity
  8
0
 62
     2
100
AcDbLine
 10
558.95852
 20
288.409498
 30
0.0
 11
558.9292079999998
 21
288.510975
 31
0.0
  0
LINE
  5
65E
330
6B
100
AcDbEntity
  8
0
 62
     2
100
AcDbLine
 10
558.9292079999998
 20
288.510975
 30
0.0
 11
558.8967519999998
 21
288.604885
 31
0.0
  0
LINE
  5
65F
330
6B
100
AcDbEntity
  8
0
 62
     2
100
AcDbLine
 10
558.8967519999998
 20
288.604885
 30
0.0
 11
558.861404
 21
288.690502
 31
0.0
  0
LINE
  5
660
330
6B
100
AcDbEntity
  8
0
 62
     2
100
AcDbLine
 10
558.861404
 20
288.690502
 30
0.0
 11
558.823436
 21
288.767164
 31
0.0
  0
LINE
  5
661
330
6B
100
AcDbEntity
  8
0
 62
     2
100
AcDbLine
 10
558.823436
 20
288.767164
 30
0.0
 11
558.7831409999998
 21
288.834279
 31
0.0
  0
LINE
  5
662
330
6B
100
AcDbEntity
  8
0
 62
     2
100
AcDbLine
 10
558.7831409999998
 20
288.834279
 30
0.0
 11
558.7408329999998
 21
288.891329
 31
0.0
  0
LINE
  5
663
330
6B
100
AcDbEntity
  8
0
 62
     2
100
AcDbLine
 10
558.7408329999998
 20
288.891329
 30
0.0
 11
558.6968360000001
 21
288.937872
 31
0.0
  0
LINE
  5
664
330
6B
100
AcDbEntity
  8
0
 62
     2
100
AcDbLine
 10
558.6968360000001
 20
288.937872
 30
0.0
 11
558.6514919999998
 21
288.973548
 31
0.0
  0
LINE
  5
665
330
6B
100
AcDbEntity
  8
0
 62
     2
100
AcDbLine
 10
558.6514919999998
 20
288.973548
 30
0.0
 11
558.6051509999998
 21
288.998081
 31
0.0
  0
LINE
  5
666
330
6B
100
AcDbEntity
  8
0
 62
     2
100
AcDbLine
 10
558.6051509999998
 20
288.998081
 30
0.0
 11
558.558171
 21
289.011283
 31
0.0
  0
LINE
  5
667
330
6B
100
AcDbEntity
  8
0
 62
     2
100
AcDbLine
 10
558.558171
 20
289.011283
 30
0.0
 11
558.510915
 21
289.013051
 31
0.0
  0
LINE
  5
668
330
6B
100
AcDbEntity
  8
0
 62
     2
100
AcDbLine
 10
558.510915
 20
289.013051
 30
0.0
 11
558.463749
 21
289.003371
 31
0.0
  0
LINE
  5
669
330
6B
100
AcDbEntity
  8
0
 62
     2
100
AcDbLine
 10
558.463749
 20
289.003371
 30
0.0
 11
558.417037
 21
288.982319
 31
0.0
  0
LINE
  5
66A
330
6B
100
AcDbEntity
  8
0
 62
     2
100
AcDbLine
 10
558.417037
 20
288.982319
 30
0.0
 11
558.3711400000002
 21
288.950056
 31
0.0
  0
LINE
  5
66B
330
6B
100
AcDbEntity
  8
0
 62
     2
100
AcDbLine
 10
558.3711400000002
 20
288.950056
 30
0.0
 11
558.3264129999998
 21
288.906832
 31
0.0
  0
LINE
  5
66C
330
6B
100
AcDbEntity
  8
0
 62
     2
100
AcDbLine
 10
558.3264129999998
 20
288.906832
 30
0.0
 11
558.2832019999998
 21
288.852982
 31
0.0
  0
LINE
  5
66D
330
6B
100
AcDbEntity
  8
0
 62
     2
100
AcDbLine
 10
558.2832019999998
 20
288.852982
 30
0.0
 11
558.24184
 21
288.788922
 31
0.0
  0
LINE
  5
66E
330
6B
100
AcDbEntity
  8
0
 62
     2
100
AcDbLine
 10
558.24184
 20
288.788922
 30
0.0
 11
558.202648
 21
288.715146
 31
0.0
  0
LINE
  5
66F
330
6B
100
AcDbEntity
  8
0
 62
     2
100
AcDbLine
 10
558.202648
 20
288.715146
 30
0.0
 11
558.165928
 21
288.632225
 31
0.0
  0
LINE
  5
670
330
6B
100
AcDbEntity
  8
0
 62
     2
100
AcDbLine
 10
558.165928
 20
288.632225
 30
0.0
 11
558.1319639999998
 21
288.5408
 31
0.0
  0
LINE
  5
671
330
6B
100
AcDbEntity
  8
0
 62
     2
100
AcDbLine
 10
558.1319639999998
 20
288.5408
 30
0.0
 11
558.101019
 21
288.441578
 31
0.0
  0
LINE
  5
672
330
6B
100
AcDbEntity
  8
0
 62
     2
100
AcDbLine
 10
558.101019
 20
288.441578
 30
0.0
 11
558.0733309999998
 21
288.335325
 31
0.0
  0
LINE
  5
673
330
6B
100
AcDbEntity
  8
0
 62
     2
100
AcDbLine
 10
558.0733309999998
 20
288.335325
 30
0.0
 11
558.049116
 21
288.222863
 31
0.0
  0
LINE
  5
674
330
6B
100
AcDbEntity
  8
0
 62
     2
100
AcDbLine
 10
558.049116
 20
288.222863
 30
0.0
 11
558.0285589999999
 21
288.105061
 31
0.0
  0
LINE
  5
675
330
6B
100
AcDbEntity
  8
0
 62
     2
100
AcDbLine
 10
558.0285589999999
 20
288.105061
 30
0.0
 11
558.01182
 21
287.98283
 31
0.0
  0
LINE
  5
676
330
6B
100
AcDbEntity
  8
0
 62
     2
100
AcDbLine
 10
558.01182
 20
287.98283
 30
0.0
 11
557.9990289999998
 21
287.857114
 31
0.0
  0
LINE
  5
677
330
6B
100
AcDbEntity
  8
0
 62
     2
100
AcDbLine
 10
557.9990289999998
 20
287.857114
 30
0.0
 11
557.9902839999999
 21
287.728885
 31
0.0
  0
LINE
  5
678
330
6B
100
AcDbEntity
  8
0
 62
     2
100
AcDbLine
 10
557.9902839999999
 20
287.728885
 30
0.0
 11
557.9856519999998
 21
287.599135
 31
0.0
  0
LINE
  5
679
330
6B
100
AcDbEntity
  8
0
 62
     2
100
AcDbLine
 10
557.9856519999998
 20
287.599135
 30
0.0
 11
557.98517
 21
287.468866
 31
0.0
  0
LINE
  5
67A
330
6B
100
AcDbEntity
  8
0
 62
     2
100
AcDbLine
 10
557.98517
 20
287.468866
 30
0.0
 11
557.9888409999998
 21
287.339085
 31
0.0
  0
LINE
  5
67B
330
6B
100
AcDbEntity
  8
0
 62
     2
100
AcDbLine
 10
557.9888409999998
 20
287.339085
 30
0.0
 11
557.996637
 21
287.210795
 31
0.0
  0
LINE
  5
67C
330
6B
100
AcDbEntity
  8
0
 62
     2
100
AcDbLine
 10
557.996637
 20
287.210795
 30
0.0
 11
558.008498
 21
287.084988
 31
0.0
  0
LINE
  5
67D
330
6B
100
AcDbEntity
  8
0
 62
     2
100
AcDbLine
 10
558.008498
 20
287.084988
 30
0.0
 11
558.0243320000001
 21
286.962636
 31
0.0
  0
LINE
  5
67E
330
6B
100
AcDbEntity
  8
0
 62
     2
100
AcDbLine
 10
558.0243320000001
 20
286.962636
 30
0.0
 11
558.0440160000001
 21
286.844685
 31
0.0
  0
LINE
  5
67F
330
6B
100
AcDbEntity
  8
0
 62
     2
100
AcDbLine
 10
558.0440160000001
 20
286.844685
 30
0.0
 11
558.067399
 21
286.732047
 31
0.0
  0
LINE
  5
680
330
6B
100
AcDbEntity
  8
0
 62
     2
100
AcDbLine
 10
558.067399
 20
286.732047
 30
0.0
 11
558.0942989999998
 21
286.625592
 31
0.0
  0
LINE
  5
681
330
6B
100
AcDbEntity
  8
0
 62
     2
100
AcDbLine
 10
558.0942989999998
 20
286.625592
 30
0.0
 11
558.12451
 21
286.526144
 31
0.0
  0
LINE
  5
682
330
6B
100
AcDbEntity
  8
0
 62
     2
100
AcDbLine
 10
558.12451
 20
286.526144
 30
0.0
 11
558.1577959999998
 21
286.43447
 31
0.0
  0
LINE
  5
683
330
6B
100
AcDbEntity
  8
0
 62
     2
100
AcDbLine
 10
558.1577959999998
 20
286.43447
 30
0.0
 11
558.193902
 21
286.35128
 31
0.0
  0
LINE
  5
684
330
6B
100
AcDbEntity
  8
0
 62
     2
100
AcDbLine
 10
558.193902
 20
286.35128
 30
0.0
 11
558.2325469999998
 21
286.277216
 31
0.0
  0
LINE
  5
685
330
6B
100
AcDbEntity
  8
0
 62
     2
100
AcDbLine
 10
558.2325469999998
 20
286.277216
 30
0.0
 11
558.273433
 21
286.212851
 31
0.0
  0
LINE
  5
686
330
6B
100
AcDbEntity
  8
0
 62
     2
100
AcDbLine
 10
558.273433
 20
286.212851
 30
0.0
 11
558.3162449999998
 21
286.158683
 31
0.0
  0
LINE
  5
687
330
6B
100
AcDbEntity
  8
0
 62
     2
100
AcDbLine
 10
558.3162449999998
 20
286.158683
 30
0.0
 11
558.360651
 21
286.115129
 31
0.0
  0
LINE
  5
688
330
6B
100
AcDbEntity
  8
0
 62
     2
100
AcDbLine
 10
558.360651
 20
286.115129
 30
0.0
 11
558.4063079999999
 21
286.082528
 31
0.0
  0
LINE
  5
689
330
6B
100
AcDbEntity
  8
0
 62
     2
100
AcDbLine
 10
558.4063079999999
 20
286.082528
 30
0.0
 11
558.452863
 21
286.06113
 31
0.0
  0
LINE
  5
68A
330
6B
100
AcDbEntity
  8
0
 62
     2
100
AcDbLine
 10
558.452863
 20
286.06113
 30
0.0
 11
558.4999559999999
 21
286.051101
 31
0.0
  0
LINE
  5
68B
330
6B
100
AcDbEntity
  8
0
 62
     2
100
AcDbLine
 10
558.4999559999999
 20
286.051101
 30
0.0
 11
558.547223
 21
286.05252
 31
0.0
  0
LINE
  5
68C
330
6B
100
AcDbEntity
  8
0
 62
     2
100
AcDbLine
 10
558.547223
 20
286.05252
 30
0.0
 11
558.5942999999998
 21
286.065373
 31
0.0
  0
LINE
  5
68D
330
6B
100
AcDbEntity
  8
0
 62
     2
100
AcDbLine
 10
558.5942999999998
 20
286.065373
 30
0.0
 11
558.640821
 21
286.089564
 31
0.0
  0
LINE
  5
68E
330
6B
100
AcDbEntity
  8
0
 62
     2
100
AcDbLine
 10
558.640821
 20
286.089564
 30
0.0
 11
558.6864279999998
 21
286.124903
 31
0.0
  0
LINE
  5
68F
330
6B
100
AcDbEntity
  8
0
 62
     2
100
AcDbLine
 10
558.6864279999998
 20
286.124903
 30
0.0
 11
558.730767
 21
286.171119
 31
0.0
  0
LINE
  5
690
330
6B
100
AcDbEntity
  8
0
 62
     2
100
AcDbLine
 10
558.730767
 20
286.171119
 30
0.0
 11
558.773497
 21
286.227854
 31
0.0
  0
LINE
  5
691
330
6B
100
AcDbEntity
  8
0
 62
     2
100
AcDbLine
 10
558.773497
 20
286.227854
 30
0.0
 11
558.814287
 21
286.294669
 31
0.0
  0
LINE
  5
692
330
6B
100
AcDbEntity
  8
0
 62
     2
100
AcDbLine
 10
558.814287
 20
286.294669
 30
0.0
 11
558.8528219999998
 21
286.371048
 31
0.0
  0
LINE
  5
693
330
6B
100
AcDbEntity
  8
0
 62
     2
100
AcDbLine
 10
558.8528219999998
 20
286.371048
 30
0.0
 11
558.888803
 21
286.456401
 31
0.0
  0
LINE
  5
694
330
6B
100
AcDbEntity
  8
0
 62
     2
100
AcDbLine
 10
558.888803
 20
286.456401
 30
0.0
 11
558.921953
 21
286.550068
 31
0.0
  0
LINE
  5
695
330
6B
100
AcDbEntity
  8
0
 62
     2
100
AcDbLine
 10
558.921953
 20
286.550068
 30
0.0
 11
558.9520150000002
 21
286.651325
 31
0.0
  0
LINE
  5
696
330
6B
100
AcDbEntity
  8
0
 62
     2
100
AcDbLine
 10
558.9520150000002
 20
286.651325
 30
0.0
 11
558.9787569999998
 21
286.759389
 31
0.0
  0
LINE
  5
697
330
6B
100
AcDbEntity
  8
0
 62
     2
100
AcDbLine
 10
558.9787569999998
 20
286.759389
 30
0.0
 11
559.001973
 21
286.873425
 31
0.0
  0
LINE
  5
698
330
6B
100
AcDbEntity
  8
0
 62
     2
100
AcDbLine
 10
559.001973
 20
286.873425
 30
0.0
 11
559.0214829999998
 21
286.992552
 31
0.0
  0
LINE
  5
699
330
6B
100
AcDbEntity
  8
0
100
AcDbLine
 10
518.1603939999998
 20
100.111455
 30
0.0
 11
505.8732899999999
 21
100.111455
 31
0.0
  0
LINE
  5
69A
330
6B
100
AcDbEntity
  8
0
100
AcDbLine
 10
529.3266139999998
 20
132.028787
 30
0.0
 11
505.87329
 21
132.028787
 31
0.0
  0
LINE
  5
69B
330
6B
100
AcDbEntity
  8
0
100
AcDbLine
 10
507.12329
 20
102.611455
 30
0.0
 11
507.12329
 21
129.528787
 31
0.0
  0
LINE
  5
69F
330
6B
100
AcDbEntity
  8
0
100
AcDbLine
 10
552.1886459999998
 20
100.111455
 30
0.0
 11
565.0305139999998
 21
100.111455
 31
0.0
  0
LINE
  5
6A0
330
6B
100
AcDbEntity
  8
0
100
AcDbLine
 10
541.276614
 20
127.028787
 30
0.0
 11
565.0305139999998
 21
127.028787
 31
0.0
  0
LINE
  5
6A1
330
6B
100
AcDbEntity
  8
0
100
AcDbLine
 10
563.7805139999998
 20
102.611455
 30
0.0
 11
563.7805139999998
 21
124.528787
 31
0.0
  0
LINE
  5
6A5
330
6B
100
AcDbEntity
  8
0
100
AcDbLine
 10
541.276614
 20
127.028787
 30
0.0
 11
565.0305139999998
 21
127.028787
 31
0.0
  0
LINE
  5
6A6
330
6B
100
AcDbEntity
  8
0
100
AcDbLine
 10
538.2766139999999
 20
214.128787
 30
0.0
 11
565.0305139999998
 21
214.128787
 31
0.0
  0
LINE
  5
6A7
330
6B
100
AcDbEntity
  8
0
100
AcDbLine
 10
563.7805139999998
 20
129.528787
 30
0.0
 11
563.7805139999998
 21
211.628787
 31
0.0
  0
LINE
  5
6AB
330
6B
100
AcDbEntity
  8
0
100
AcDbLine
 10
554.7766139999999
 20
164.128787
 30
0.0
 11
557.9056229999999
 21
164.128787
 31
0.0
  0
LINE
  5
6AC
330
6B
100
AcDbEntity
  8
0
100
AcDbLine
 10
538.2766139999999
 20
214.128787
 30
0.0
 11
557.9056229999999
 21
214.128787
 31
0.0
  0
LINE
  5
6AD
330
6B
100
AcDbEntity
  8
0
100
AcDbLine
 10
556.6556229999998
 20
166.628787
 30
0.0
 11
556.6556229999998
 21
211.628787
 31
0.0
  0
LINE
  5
6B1
330
6B
100
AcDbEntity
  8
0
100
AcDbLine
 10
538.2766139999999
 20
226.706248
 30
0.0
 11
504.0931269999998
 21
226.706248
 31
0.0
  0
LINE
  5
6B2
330
6B
100
AcDbEntity
  8
0
100
AcDbLine
 10
538.2766139999999
 20
258.706248
 30
0.0
 11
504.0931269999998
 21
258.706248
 31
0.0
  0
LINE
  5
6B3
330
6B
100
AcDbEntity
  8
0
100
AcDbLine
 10
505.3431269999999
 20
229.206248
 30
0.0
 11
505.3431269999999
 21
256.206248
 31
0.0
  0
TEXT
  5
6B7
330
6B
100
AcDbEntity
  8
0
  6
Continuous
 62
     4
100
AcDbText
 10
506.49829
 20
111.0701210000001
 30
0.0
 40
3.0
  1
(100)
 50
90.0
100
AcDbText
  0
LINE
  5
6B8
330
6B
100
AcDbEntity
  8
0
  6
ByBlock
 62
     0
370
    -2
100
AcDbLine
 10
506.4534175
 20
129.528787
 30
0.0
 11
507.12329
 21
132.028787
 31
0.0
  0
LINE
  5
6B9
330
6B
100
AcDbEntity
  8
0
  6
ByBlock
 62
     0
370
    -2
100
AcDbLine
 10
507.12329
 20
132.028787
 30
0.0
 11
507.7931625
 21
129.528787
 31
0.0
  0
LINE
  5
6BA
330
6B
100
AcDbEntity
  8
0
  6
ByBlock
 62
     0
370
    -2
100
AcDbLine
 10
507.12329
 20
132.028787
 30
0.0
 11
507.12329
 21
129.528787
 31
0.0
  0
LINE
  5
6BB
330
6B
100
AcDbEntity
  8
0
  6
ByBlock
 62
     0
370
    -2
100
AcDbLine
 10
507.7931624999999
 20
102.611455
 30
0.0
 11
507.12329
 21
100.111455
 31
0.0
  0
LINE
  5
6BC
330
6B
100
AcDbEntity
  8
0
  6
ByBlock
 62
     0
370
    -2
100
AcDbLine
 10
507.12329
 20
100.111455
 30
0.0
 11
506.4534175
 21
102.611455
 31
0.0
  0
LINE
  5
6BD
330
6B
100
AcDbEntity
  8
0
  6
ByBlock
 62
     0
370
    -2
100
AcDbLine
 10
507.12329
 20
100.111455
 30
0.0
 11
507.12329
 21
102.611455
 31
0.0
  0
TEXT
  5
6BE
330
6B
100
AcDbEntity
  8
0
  6
Continuous
 62
     4
100
AcDbText
 10
563.1555139999997
 20
109.0701210000001
 30
0.0
 40
3.0
  1
(93)
 50
90.0
100
AcDbText
  0
LINE
  5
6BF
330
6B
100
AcDbEntity
  8
0
  6
ByBlock
 62
     0
370
    -2
100
AcDbLine
 10
563.1106414999997
 20
124.528787
 30
0.0
 11
563.7805139999998
 21
127.028787
 31
0.0
  0
LINE
  5
6C0
330
6B
100
AcDbEntity
  8
0
  6
ByBlock
 62
     0
370
    -2
100
AcDbLine
 10
563.7805139999998
 20
127.028787
 30
0.0
 11
564.4503864999998
 21
124.528787
 31
0.0
  0
LINE
  5
6C1
330
6B
100
AcDbEntity
  8
0
  6
ByBlock
 62
     0
370
    -2
100
AcDbLine
 10
563.7805139999998
 20
127.028787
 30
0.0
 11
563.7805139999998
 21
124.528787
 31
0.0
  0
LINE
  5
6C2
330
6B
100
AcDbEntity
  8
0
  6
ByBlock
 62
     0
370
    -2
100
AcDbLine
 10
564.4503864999998
 20
102.611455
 30
0.0
 11
563.7805139999998
 21
100.111455
 31
0.0
  0
LINE
  5
6C3
330
6B
100
AcDbEntity
  8
0
  6
ByBlock
 62
     0
370
    -2
100
AcDbLine
 10
563.7805139999998
 20
100.111455
 30
0.0
 11
563.1106414999997
 21
102.611455
 31
0.0
  0
LINE
  5
6C4
330
6B
100
AcDbEntity
  8
0
  6
ByBlock
 62
     0
370
    -2
100
AcDbLine
 10
563.7805139999998
 20
100.111455
 30
0.0
 11
563.7805139999998
 21
102.611455
 31
0.0
  0
TEXT
  5
6C5
330
6B
100
AcDbEntity
  8
0
  6
Continuous
 62
     4
100
AcDbText
 10
563.1555139999997
 20
168.0787870000001
 30
0.0
 40
3.0
  1
87
 50
90.0
100
AcDbText
  0
LINE
  5
6C6
330
6B
100
AcDbEntity
  8
0
  6
ByBlock
 62
     0
370
    -2
100
AcDbLine
 10
563.1106414999997
 20
211.628787
 30
0.0
 11
563.7805139999998
 21
214.128787
 31
0.0
  0
LINE
  5
6C7
330
6B
100
AcDbEntity
  8
0
  6
ByBlock
 62
     0
370
    -2
100
AcDbLine
 10
563.7805139999998
 20
214.128787
 30
0.0
 11
564.4503864999998
 21
211.628787
 31
0.0
  0
LINE
  5
6C8
330
6B
100
AcDbEntity
  8
0
  6
ByBlock
 62
     0
370
    -2
100
AcDbLine
 10
563.7805139999998
 20
214.128787
 30
0.0
 11
563.7805139999998
 21
211.628787
 31
0.0
  0
LINE
  5
6C9
330
6B
100
AcDbEntity
  8
0
  6
ByBlock
 62
     0
370
    -2
100
AcDbLine
 10
564.4503864999998
 20
129.528787
 30
0.0
 11
563.7805139999998
 21
127.028787
 31
0.0
  0
LINE
  5
6CA
330
6B
100
AcDbEntity
  8
0
  6
ByBlock
 62
     0
370
    -2
100
AcDbLine
 10
563.7805139999998
 20
127.028787
 30
0.0
 11
563.1106414999997
 21
129.528787
 31
0.0
  0
LINE
  5
6CB
330
6B
100
AcDbEntity
  8
0
  6
ByBlock
 62
     0
370
    -2
100
AcDbLine
 10
563.7805139999998
 20
127.028787
 30
0.0
 11
563.7805139999998
 21
129.528787
 31
0.0
  0
TEXT
  5
6CC
330
6B
100
AcDbEntity
  8
0
  6
Continuous
 62
     4
100
AcDbText
 10
556.0306229999999
 20
186.8787870000001
 30
0.0
 40
3.0
  1
50
 50
90.0
100
AcDbText
  0
LINE
  5
6CD
330
6B
100
AcDbEntity
  8
0
  6
ByBlock
 62
     0
370
    -2
100
AcDbLine
 10
555.9857504999999
 20
211.628787
 30
0.0
 11
556.6556229999998
 21
214.128787
 31
0.0
  0
LINE
  5
6CE
330
6B
100
AcDbEntity
  8
0
  6
ByBlock
 62
     0
370
    -2
100
AcDbLine
 10
556.6556229999998
 20
214.128787
 30
0.0
 11
557.3254954999998
 21
211.628787
 31
0.0
  0
LINE
  5
6CF
330
6B
100
AcDbEntity
  8
0
  6
ByBlock
 62
     0
370
    -2
100
AcDbLine
 10
556.6556229999998
 20
214.128787
 30
0.0
 11
556.6556229999998
 21
211.628787
 31
0.0
  0
LINE
  5
6D0
330
6B
100
AcDbEntity
  8
0
  6
ByBlock
 62
     0
370
    -2
100
AcDbLine
 10
557.3254954999998
 20
166.628787
 30
0.0
 11
556.6556229999998
 21
164.128787
 31
0.0
  0
LINE
  5
6D1
330
6B
100
AcDbEntity
  8
0
  6
ByBlock
 62
     0
370
    -2
100
AcDbLine
 10
556.6556229999998
 20
164.128787
 30
0.0
 11
555.9857504999999
 21
166.628787
 31
0.0
  0
LINE
  5
6D2
330
6B
100
AcDbEntity
  8
0
  6
ByBlock
 62
     0
370
    -2
100
AcDbLine
 10
556.6556229999998
 20
164.128787
 30
0.0
 11
556.6556229999998
 21
166.628787
 31
0.0
  0
TEXT
  5
6D3
330
6B
100
AcDbEntity
  8
0
  6
Continuous
 62
     4
100
AcDbText
 10
504.7181269999998
 20
238.7062480000001
 30
0.0
 40
3.0
  1
\U+220532
 50
90.0
100
AcDbText
  0
LINE
  5
6D4
330
6B
100
AcDbEntity
  8
0
  6
ByBlock
 62
     0
370
    -2
100
AcDbLine
 10
504.6732544999998
 20
256.206248
 30
0.0
 11
505.3431269999999
 21
258.706248
 31
0.0
  0
LINE
  5
6D5
330
6B
100
AcDbEntity
  8
0
  6
ByBlock
 62
     0
370
    -2
100
AcDbLine
 10
505.3431269999999
 20
258.706248
 30
0.0
 11
506.0129994999998
 21
256.206248
 31
0.0
  0
LINE
  5
6D6
330
6B
100
AcDbEntity
  8
0
  6
ByBlock
 62
     0
370
    -2
100
AcDbLine
 10
505.3431269999999
 20
258.706248
 30
0.0
 11
505.3431269999999
 21
256.206248
 31
0.0
  0
LINE
  5
6D7
330
6B
100
AcDbEntity
  8
0
  6
ByBlock
 62
     0
370
    -2
100
AcDbLine
 10
506.0129994999998
 20
229.206248
 30
0.0
 11
505.3431269999999
 21
226.706248
 31
0.0
  0
LINE
  5
6D8
330
6B
100
AcDbEntity
  8
0
  6
ByBlock
 62
     0
370
    -2
100
AcDbLine
 10
505.3431269999999
 20
226.706248
 30
0.0
 11
504.6732544999998
 21
229.206248
 31
0.0
  0
LINE
  5
6D9
330
6B
100
AcDbEntity
  8
0
  6
ByBlock
 62
     0
370
    -2
100
AcDbLine
 10
505.3431269999999
 20
226.706248
 30
0.0
 11
505.3431269999999
 21
229.206248
 31
0.0
  0
ENDSEC
  0
SECTION
  2
OBJECTS
  0
DICTIONARY
  5
C
330
0
100
AcDbDictionary
281
     1
  3
ACAD_2007HEADERVARS_RT
350
6DD
  3
ACAD_COLOR
350
62
  3
ACAD_GROUP
350
D
  3
ACAD_LAYOUT
350
61
  3
ACAD_MATERIAL
350
10
  3
ACAD_MLEADERSTYLE
350
65
  3
ACAD_MLINESTYLE
350
5E
  3
ACAD_PLOTSETTINGS
350
60
  3
ACAD_PLOTSTYLENAME
350
E
  3
ACAD_SCALELIST
350
42
  3
ACAD_TABLESTYLE
350
63
  3
ACAD_VISUALSTYLE
350
29
  3
ACDB_RECOMPOSE_DATA
350
6DB
  3
AcDbVariableDictionary
350
527
  3
DWGPROPS
350
6DC
  0
DICTIONARY
  5
38D
330
2
100
AcDbDictionary
280
     1
281
     1
  3
ACAD_LAYERSTATES
360
38E
  0
DICTIONARY
  5
523
330
54
100
AcDbDictionary
280
     1
281
     1
  3
ADSK_XREC_LAYER_RECONCILED
360
524
  0
DICTIONARY
  5
5A7
330
6B
100
AcDbDictionary
280
     1
281
     1
  3
ACAD_SORTENTS
360
5A8
  0
DICTIONARY
  5
6DD
102
{ACAD_REACTORS
330
C
102
}
330
C
100
AcDbDictionary
281
     1
  3
DIMARCSYM
350
6DF
  3
DIMFXL
350
6DE
  3
DIMJOGANG
350
6E0
  0
DICTIONARY
  5
62
102
{ACAD_REACTORS
330
C
102
}
330
C
100
AcDbDictionary
281
     1
  0
DICTIONARY
  5
D
102
{ACAD_REACTORS
330
C
102
}
330
C
100
AcDbDictionary
281
     1
  0
DICTIONARY
  5
61
102
{ACAD_REACTORS
330
C
102
}
330
C
100
AcDbDictionary
281
     1
  3
Model
350
6E
  3
レイアウト1
350
6A
  0
DICTIONARY
  5
10
102
{ACAD_REACTORS
330
C
102
}
330
C
100
AcDbDictionary
281
     1
  3
ByBlock
350
19
  3
ByLayer
350
11
  3
Global
350
21
  0
DICTIONARY
  5
65
102
{ACAD_REACTORS
330
C
102
}
330
C
100
AcDbDictionary
281
     1
  3
Standard
350
66
  0
DICTIONARY
  5
5E
102
{ACAD_REACTORS
330
C
102
}
330
C
100
AcDbDictionary
281
     1
  3
Standard
350
5F
  0
DICTIONARY
  5
60
102
{ACAD_REACTORS
330
C
102
}
330
C
100
AcDbDictionary
281
     1
  0
ACDBDICTIONARYWDFLT
  5
E
102
{ACAD_REACTORS
330
C
102
}
330
C
100
AcDbDictionary
281
     1
  3
Normal
350
F
100
AcDbDictionaryWithDefault
340
F
  0
DICTIONARY
  5
42
102
{ACAD_REACTORS
330
C
102
}
330
C
100
AcDbDictionary
281
     1
  3
A0
350
43
  3
A1
350
44
  3
A2
350
45
  3
A3
350
46
  3
A4
350
47
  3
A5
350
48
  3
A6
350
49
  3
A7
350
4A
  3
A8
350
4B
  3
A9
350
4C
  3
B0
350
4D
  3
B1
350
4E
  3
B2
350
4F
  3
B3
350
50
  3
B4
350
51
  3
B5
350
52
  3
B6
350
53
  0
DICTIONARY
  5
63
102
{ACAD_REACTORS
330
C
102
}
330
C
100
AcDbDictionary
281
     1
  3
Standard
350
64
  0
DICTIONARY
  5
29
102
{ACAD_REACTORS
330
C
102
}
330
C
100
AcDbDictionary
281
     1
  3
2dWireframe
350
2F
  3
3dWireframe
350
38C
  3
Basic
350
2E
  3
Brighten
350
35
  3
ColorChange
350
39
  3
Conceptual
350
32
  3
Dim
350
34
  3
EdgeColorOff
350
41
  3
Facepattern
350
38
  3
Flat
350
2A
  3
FlatWithEdges
350
2B
  3
Gouraud
350
2C
  3
GouraudWithEdges
350
2D
  3
Hidden
350
31
  3
JitterOff
350
3F
  3
Linepattern
350
37
  3
OverhangOff
350
40
  3
Realistic
350
33
  3
Shaded
350
3E
  3
Shaded with edges
350
3D
  3
Shades of Gray
350
3A
  3
Sketchy
350
3B
  3
Thicken
350
36
  3
Wireframe
350
30
  3
X-Ray
350
3C
  0
XRECORD
  5
6DB
102
{ACAD_REACTORS
330
C
102
}
330
C
100
AcDbXrecord
280
     1
 90
        1
330
64
  0
DICTIONARY
  5
527
102
{ACAD_REACTORS
330
C
102
}
330
C
100
AcDbDictionary
281
     1
  3
CANNOSCALE
350
52A
  3
CMLEADERSTYLE
350
529
  3
CTABLESTYLE
350
528
  3
DIMASSOC
350
52D
  3
INDEXCTL
350
52C
  3
SORTENTS
350
52B
  3
XCLIPFRAME
350
5AA
  0
XRECORD
  5
6DC
102
{ACAD_REACTORS
330
C
102
}
330
C
100
AcDbXrecord
280
     1
  1
DWGPROPS COOKIE
  2

  3

  4

  6

  7

  8
imamura
  9

300
=
301
=
302
=
303
=
304
=
305
=
306
=
307
=
308
=
309
=
 40
0.0116730902777778
 41
2456071.748097141
 42
2456850.821295313
  1

 90
        0
  0
DICTIONARY
  5
38E
102
{ACAD_REACTORS
330
38D
102
}
330
38D
100
AcDbDictionary
281
     1
  0
XRECORD
  5
524
102
{ACAD_REACTORS
330
523
102
}
330
523
100
AcDbXrecord
280
     1
290
     1
  0
SORTENTSTABLE
  5
5A8
102
{ACAD_REACTORS
330
5A7
102
}
330
5A7
100
AcDbSortentsTable
330
6B
331
2D8
  5
6C9
331
1F8
  5
28D
331
690
  5
271
331
D9
  5
11A
331
202
  5
297
331
EA
  5
12B
331
6A1
  5
104
331
213
  5
2A8
331
FB
  5
13C
331
65B
  5
237
331
51C
  5
6D9
331
6C3
  5
106
331
10C
  5
14F
331
246
  5
2DA
331
12E
  5
171
331
11D
  5
160
331
6D4
  5
E1
331
268
  5
662
331
283
  5
67D
331
16B
  5
1EE
331
15A
  5
19B
331
13F
  5
182
331
294
  5
68E
331
17C
  5
1FF
331
2A5
  5
69F
331
18D
  5
210
331
2B6
  5
6B0
331
19E
  5
228
331
2C7
  5
6BB
331
1E7
  5
27C
331
66E
  5
24A
331
67F
  5
25E
331
6B2
  5
D6
331
2C8
  5
6BC
331
1E8
  5
27D
331
2D9
  5
6CA
331
1F9
  5
28E
331
680
  5
25F
331
691
  5
272
331
203
  5
298
331
EB
  5
12C
331
DA
  5
11B
331
214
  5
2A9
331
FC
  5
13D
331
65C
  5
238
331
10D
  5
150
331
6C4
  5
107
331
247
  5
2DB
331
12F
  5
172
331
11E
  5
161
331
6D5
  5
E2
331
269
  5
663
331
258
  5
5A9
331
284
  5
67E
331
16C
  5
1EF
331
15B
  5
19C
331
140
  5
183
331
295
  5
68F
331
17D
  5
200
331
2A6
  5
6A0
331
18E
  5
211
331
2B7
  5
6B1
331
19F
  5
22E
331
66F
  5
24B
331
6B3
  5
D7
331
2B8
  5
6B2
331
1A0
  5
22F
331
1E9
  5
27E
331
670
  5
24C
331
2DA
  5
6CB
331
1FA
  5
28F
331
681
  5
262
331
692
  5
273
331
204
  5
299
331
EC
  5
12D
331
DB
  5
11C
331
215
  5
2AA
331
FD
  5
13E
331
65D
  5
239
331
10E
  5
151
331
6C5
  5
101
331
237
  5
2C1
331
11F
  5
162
331
6D6
  5
E3
331
248
  5
2DC
331
26A
  5
664
331
5A9
  5
656
331
259
  5
654
331
141
  5
184
331
130
  5
173
331
285
  5
67F
331
16D
  5
1F0
331
15C
  5
19D
331
296
  5
690
331
17E
  5
201
331
2A7
  5
6A1
331
18F
  5
212
331
2A8
  5
6A2
331
190
  5
213
331
660
  5
23C
331
1EA
  5
27F
331
671
  5
24D
331
1A1
  5
230
331
2DB
  5
6CC
331
1FB
  5
290
331
682
  5
263
331
693
  5
274
331
205
  5
29A
331
ED
  5
12E
331
DC
  5
11D
331
216
  5
2AB
331
FE
  5
13F
331
10F
  5
152
331
6C6
  5
FE
331
238
  5
2C6
331
120
  5
163
331
249
  5
2DD
331
131
  5
174
331
6D7
  5
DB
331
26B
  5
665
331
25A
  5
655
331
142
  5
185
331
286
  5
680
331
16E
  5
1F1
331
15D
  5
19E
331
297
  5
691
331
17F
  5
202
331
65E
  5
23A
331
298
  5
692
331
180
  5
203
331
2A9
  5
6A3
331
191
  5
214
331
661
  5
23D
331
1EB
  5
280
331
672
  5
24E
331
1A2
  5
231
331
2DC
  5
6CD
331
1FC
  5
291
331
683
  5
264
331
694
  5
275
331
DD
  5
11E
331
206
  5
29B
331
EE
  5
12F
331
6A5
  5
F8
331
217
  5
2AC
331
FF
  5
140
331
65F
  5
23B
331
228
  5
2B6
331
110
  5
153
331
239
  5
2C8
331
121
  5
164
331
24A
  5
2DE
331
132
  5
175
331
26C
  5
666
331
25B
  5
657
331
143
  5
186
331
287
  5
681
331
16F
  5
1F2
331
15E
  5
19F
331
6C7
  5
FF
331
288
  5
682
331
170
  5
1F3
331
299
  5
693
331
181
  5
204
331
2AA
  5
6A4
331
192
  5
215
331
1EC
  5
281
331
673
  5
24F
331
662
  5
23E
331
2DD
  5
6CE
331
1FD
  5
292
331
684
  5
265
331
695
  5
276
331
DE
  5
11F
331
207
  5
29C
331
EF
  5
130
331
6A6
  5
F9
331
218
  5
2AD
331
100
  5
141
331
6B7
  5
115
331
23A
  5
2C9
331
122
  5
165
331
111
  5
154
331
6C8
  5
100
331
24B
  5
2DF
331
133
  5
176
331
26D
  5
667
331
25C
  5
659
331
144
  5
187
331
15F
  5
1A0
331
278
  5
672
331
160
  5
1A1
331
289
  5
683
331
171
  5
1F4
331
29A
  5
694
331
182
  5
205
331
2AB
  5
6A5
331
193
  5
216
331
1ED
  5
282
331
674
  5
250
331
663
  5
23F
331
2DE
  5
6CF
331
1FE
  5
293
331
685
  5
266
331
696
  5
277
331
DF
  5
120
331
208
  5
29D
331
F0
  5
131
331
6A7
  5
FA
331
219
  5
2AE
331
101
  5
142
331
6B8
  5
112
331
23B
  5
2CE
331
123
  5
166
331
112
  5
155
331
6C9
  5
FB
331
24C
  5
2E0
331
134
  5
177
331
26E
  5
668
331
145
  5
188
331
279
  5
673
331
161
  5
1A2
331
150
  5
191
331
28A
  5
684
331
172
  5
1F5
331
29B
  5
695
331
183
  5
206
331
2AC
  5
6A6
331
194
  5
217
331
2CE
  5
6BF
331
1EE
  5
283
331
675
  5
251
331
664
  5
240
331
2DF
  5
6D0
331
1FF
  5
294
331
686
  5
267
331
697
  5
278
331
209
  5
29E
331
F1
  5
132
331
E0
  5
121
331
21A
  5
2AF
331
102
  5
143
331
6B9
  5
113
331
23C
  5
2D0
331
124
  5
167
331
113
  5
156
331
6CA
  5
FC
331
24D
  5
2E1
331
135
  5
178
331
26F
  5
669
331
25E
  5
65A
331
146
  5
189
331
270
  5
66A
331
27A
  5
674
331
162
  5
1E5
331
151
  5
192
331
28B
  5
685
331
173
  5
1F6
331
29C
  5
696
331
184
  5
207
331
2AD
  5
6A7
331
195
  5
218
331
2BE
  5
6B5
331
665
  5
241
331
2CF
  5
6C0
331
1EF
  5
284
331
676
  5
253
331
2E0
  5
6D1
331
687
  5
268
331
698
  5
279
331
20A
  5
29F
331
F2
  5
133
331
E1
  5
122
331
21B
  5
2B0
331
103
  5
144
331
6BA
  5
114
331
23D
  5
2D1
331
125
  5
168
331
114
  5
157
331
6CB
  5
FD
331
24E
  5
2E2
331
136
  5
179
331
25F
  5
65B
331
147
  5
18A
331
271
  5
66B
331
148
  5
18B
331
27B
  5
675
331
163
  5
1E6
331
152
  5
193
331
28C
  5
686
331
174
  5
1F7
331
29D
  5
697
331
185
  5
208
331
2AE
  5
6A8
331
196
  5
219
331
2BF
  5
6B6
331
666
  5
242
331
2D0
  5
6C1
331
1F0
  5
285
331
677
  5
254
331
2E1
  5
6D2
331
688
  5
269
331
20B
  5
2A0
331
F3
  5
134
331
E2
  5
123
331
699
  5
10C
331
21C
  5
2B1
331
104
  5
145
331
6BB
  5
10F
331
23E
  5
2D2
331
126
  5
169
331
115
  5
158
331
6CC
  5
F7
331
24F
  5
2E3
331
137
  5
17A
331
272
  5
66C
331
250
  5
2E4
331
138
  5
17B
331
27C
  5
676
331
164
  5
1E7
331
153
  5
194
331
28D
  5
687
331
175
  5
1F8
331
D5
  5
116
331
29E
  5
698
331
186
  5
209
331
2AF
  5
6A9
331
197
  5
21A
331
2C0
  5
6B7
331
667
  5
243
331
2D1
  5
6C2
331
1F1
  5
286
331
678
  5
255
331
2E2
  5
6D3
331
689
  5
26A
331
E3
  5
124
331
69A
  5
10D
331
654
  5
6BD
331
20C
  5
2A1
331
F4
  5
135
331
6AB
  5
E8
331
21D
  5
2B2
331
105
  5
146
331
6BC
  5
110
331
22E
  5
2B7
331
116
  5
159
331
6CD
  5
F4
331
23F
  5
2D3
331
127
  5
16A
331
240
  5
2D4
331
128
  5
16B
331
273
  5
66D
331
262
  5
65C
331
251
  5
2E5
331
139
  5
17C
331
6D8
  5
DC
331
27D
  5
677
331
165
  5
1E8
331
154
  5
195
331
28E
  5
688
331
176
  5
1F9
331
D6
  5
117
331
29F
  5
699
331
187
  5
20A
331
2B0
  5
6AA
331
198
  5
21B
331
2D2
  5
6C3
331
1F2
  5
287
331
679
  5
256
331
668
  5
244
331
2E3
  5
6D4
331
68A
  5
26B
331
E4
  5
125
331
69B
  5
10E
331
655
  5
6BE
331
20D
  5
2A2
331
F5
  5
136
331
6AC
  5
E9
331
21E
  5
2B3
331
106
  5
147
331
6BD
  5
111
331
22F
  5
2B8
331
117
  5
15A
331
6CE
  5
F5
331
230
  5
2B9
331
118
  5
15B
331
241
  5
2D5
331
129
  5
16C
331
274
  5
66E
331
263
  5
65D
331
14B
  5
18C
331
13A
  5
17D
331
6D9
  5
DD
331
27E
  5
678
331
166
  5
1E9
331
155
  5
196
331
28F
  5
689
331
177
  5
1FA
331
D7
  5
118
331
2A0
  5
69A
331
188
  5
20B
331
2B1
  5
6AB
331
199
  5
21C
331
2D3
  5
6C4
331
1F3
  5
288
331
67A
  5
258
331
669
  5
245
331
2E4
  5
6D5
331
68B
  5
26C
331
E5
  5
126
331
656
  5
6B8
331
20E
  5
2A3
331
F6
  5
137
331
6AD
  5
ED
331
107
  5
148
331
6BE
  5
10B
331
6CF
  5
F6
331
220
  5
2B4
331
108
  5
14B
331
231
  5
2BE
331
119
  5
15C
331
6D0
  5
EE
331
242
  5
2D6
331
12A
  5
16D
331
253
  5
2E6
331
13B
  5
17E
331
275
  5
66F
331
264
  5
65E
331
14C
  5
18D
331
27F
  5
679
331
167
  5
1EA
331
156
  5
197
331
290
  5
68A
331
178
  5
1FB
331
2A1
  5
69B
331
189
  5
20C
331
2B2
  5
6AC
331
19A
  5
21D
331
2D4
  5
6C5
331
1F4
  5
289
331
67B
  5
259
331
66A
  5
246
331
2E5
  5
6D6
331
68C
  5
26D
331
657
  5
6B9
331
20F
  5
2A4
331
F7
  5
138
331
E6
  5
127
331
6BF
  5
108
331
658
  5
6B3
331
210
  5
2A5
331
F8
  5
139
331
109
  5
14C
331
6C0
  5
109
331
232
  5
2C0
331
11A
  5
15D
331
6D1
  5
EF
331
243
  5
2D7
331
12B
  5
16E
331
254
  5
51B
331
13C
  5
17F
331
276
  5
670
331
265
  5
65F
331
280
  5
67A
331
168
  5
1EB
331
157
  5
198
331
14D
  5
18E
331
291
  5
68B
331
179
  5
1FC
331
2A2
  5
69C
331
18A
  5
20D
331
2B3
  5
6AD
331
19B
  5
21E
331
2D5
  5
6C6
331
1F5
  5
28A
331
67C
  5
25A
331
66B
  5
247
331
2E6
  5
6D7
331
68D
  5
26E
331
E7
  5
128
331
200
  5
295
331
E8
  5
129
331
659
  5
6B4
331
211
  5
2A6
331
F9
  5
13A
331
222
  5
2B5
331
10A
  5
14D
331
6C1
  5
10A
331
244
  5
2D8
331
12C
  5
16F
331
11B
  5
15E
331
6D2
  5
F3
331
255
  5
51C
331
13D
  5
180
331
277
  5
671
331
266
  5
660
331
14E
  5
18F
331
281
  5
67B
331
169
  5
1EC
331
292
  5
68C
331
17A
  5
1FD
331
2A3
  5
69D
331
18B
  5
20E
331
2B4
  5
6AE
331
19C
  5
220
331
1E5
  5
27A
331
66C
  5
248
331
2D6
  5
6C7
331
1F6
  5
28B
331
67D
  5
25B
331
68E
  5
26F
331
69F
  5
102
331
158
  5
199
331
D8
  5
119
331
201
  5
296
331
E9
  5
12A
331
6A0
  5
103
331
212
  5
2A7
331
FA
  5
13B
331
65A
  5
232
331
51B
  5
6D8
331
6C2
  5
105
331
10B
  5
14E
331
245
  5
2D9
331
12D
  5
170
331
11C
  5
15F
331
6D3
  5
E7
331
5A6
  5
658
331
256
  5
5A6
331
13E
  5
181
331
267
  5
661
331
282
  5
67C
331
16A
  5
1ED
331
159
  5
19A
331
14F
  5
190
331
293
  5
68D
331
17B
  5
1FE
331
2A4
  5
69E
331
18C
  5
20F
331
2B5
  5
6AF
331
19D
  5
222
331
2C6
  5
6BA
331
1E6
  5
27B
331
66D
  5
249
331
2D7
  5
6C8
331
1F7
  5
28C
331
68F
  5
270
331
67E
  5
25C
331
6B1
  5
D5
  0
XRECORD
  5
6DF
102
{ACAD_REACTORS
330
6DD
102
}
330
6DD
100
AcDbXrecord
280
     1
 70
     2
  0
XRECORD
  5
6DE
102
{ACAD_REACTORS
330
6DD
102
}
330
6DD
100
AcDbXrecord
280
     1
 40
1.25
  0
XRECORD
  5
6E0
102
{ACAD_REACTORS
330
6DD
102
}
330
6DD
100
AcDbXrecord
280
     1
 40
1.570796326794896
  0
LAYOUT
  5
6E
102
{ACAD_XDICTIONARY
360
714
102
}
102
{ACAD_REACTORS
330
61
102
}
330
61
100
AcDbPlotSettings
  1

  2
FX DP 205
  4

  6

 40
0.0
 41
0.0
 42
0.0
 43
0.0
 44
0.0
 45
0.0
 46
0.0
 47
0.0
 48
0.0
 49
0.0
140
0.0
141
0.0
142
1.0
143
1.0
 70
  1712
 72
     0
 73
     0
 74
     0
  7

 75
     0
147
1.0
148
0.0
149
0.0
100
AcDbLayout
  1
Model
 70
     1
 71
     0
 10
0.0
 20
0.0
 11
12.0
 21
9.0
 12
0.0
 22
0.0
 32
0.0
 14
0.0
 24
0.0
 34
0.0
 15
0.0
 25
0.0
 35
0.0
146
0.0
 13
0.0
 23
0.0
 33
0.0
 16
1.0
 26
0.0
 36
0.0
 17
0.0
 27
1.0
 37
0.0
 76
     0
330
6B
331
8B
  0
LAYOUT
  5
6A
102
{ACAD_XDICTIONARY
360
712
102
}
102
{ACAD_REACTORS
330
61
102
}
330
61
100
AcDbPlotSettings
  1

  2
FX DP 205
  4

  6

 40
0.0
 41
0.0
 42
0.0
 43
0.0
 44
0.0
 45
0.0
 46
0.0
 47
0.0
 48
0.0
 49
0.0
140
0.0
141
0.0
142
1.0
143
1.0
 70
   688
 72
     0
 73
     0
 74
     5
  7

 75
    16
147
1.0
148
0.0
149
0.0
100
AcDbLayout
  1
レイアウト1
 70
     1
 71
     1
 10
0.0
 20
0.0
 11
12.0
 21
9.0
 12
0.0
 22
0.0
 32
0.0
 14
1.000000000000000E+20
 24
1.000000000000000E+20
 34
1.000000000000000E+20
 15
-1.000000000000000E+20
 25
-1.000000000000000E+20
 35
-1.000000000000000E+20
146
0.0
 13
0.0
 23
0.0
 33
0.0
 16
1.0
 26
0.0
 36
0.0
 17
0.0
 27
1.0
 37
0.0
 76
     0
330
67
  0
MATERIAL
  5
19
102
{ACAD_XDICTIONARY
360
1A
102
}
102
{ACAD_REACTORS
330
10
102
}
330
10
100
AcDbMaterial
  1
ByBlock
 72
     0
 43
0.0208333333333333
 43
0.0
 43
0.0
 43
0.0
 43
0.0
 43
0.0208333333333333
 43
0.0
 43
0.0
 43
0.0
 43
0.0
 43
1.0
 43
0.0
 43
0.0
 43
0.0
 43
0.0
 43
1.0
 77
     0
 47
0.0208333333333333
 47
0.0
 47
0.0
 47
0.0
 47
0.0
 47
0.0208333333333333
 47
0.0
 47
0.0
 47
0.0
 47
0.0
 47
1.0
 47
0.0
 47
0.0
 47
0.0
 47
0.0
 47
1.0
171
     0
 49
0.0208333333333333
 49
0.0
 49
0.0
 49
0.0
 49
0.0
 49
0.0208333333333333
 49
0.0
 49
0.0
 49
0.0
 49
0.0
 49
1.0
 49
0.0
 49
0.0
 49
0.0
 49
0.0
 49
1.0
175
     0
142
0.0208333333333333
142
0.0
142
0.0
142
0.0
142
0.0
142
0.0208333333333333
142
0.0
142
0.0
142
0.0
142
0.0
142
1.0
142
0.0
142
0.0
142
0.0
142
0.0
142
1.0
179
     0
144
0.0208333333333333
144
0.0
144
0.0
144
0.0
144
0.0
144
0.0208333333333333
144
0.0
144
0.0
144
0.0
144
0.0
144
1.0
144
0.0
144
0.0
144
0.0
144
0.0
144
1.0
147
0.0208333333333333
147
0.0
147
0.0
147
0.0
147
0.0
147
0.0208333333333333
147
0.0
147
0.0
147
0.0
147
0.0
147
1.0
147
0.0
147
0.0
147
0.0
147
0.0
147
1.0
  0
MATERIAL
  5
11
102
{ACAD_XDICTIONARY
360
12
102
}
102
{ACAD_REACTORS
330
10
102
}
330
10
100
AcDbMaterial
  1
ByLayer
 72
     0
 43
0.0208333333333333
 43
0.0
 43
0.0
 43
0.0
 43
0.0
 43
0.0208333333333333
 43
0.0
 43
0.0
 43
0.0
 43
0.0
 43
1.0
 43
0.0
 43
0.0
 43
0.0
 43
0.0
 43
1.0
 77
     0
 47
0.0208333333333333
 47
0.0
 47
0.0
 47
0.0
 47
0.0
 47
0.0208333333333333
 47
0.0
 47
0.0
 47
0.0
 47
0.0
 47
1.0
 47
0.0
 47
0.0
 47
0.0
 47
0.0
 47
1.0
171
     0
 49
0.0208333333333333
 49
0.0
 49
0.0
 49
0.0
 49
0.0
 49
0.0208333333333333
 49
0.0
 49
0.0
 49
0.0
 49
0.0
 49
1.0
 49
0.0
 49
0.0
 49
0.0
 49
0.0
 49
1.0
175
     0
142
0.0208333333333333
142
0.0
142
0.0
142
0.0
142
0.0
142
0.0208333333333333
142
0.0
142
0.0
142
0.0
142
0.0
142
1.0
142
0.0
142
0.0
142
0.0
142
0.0
142
1.0
179
     0
144
0.0208333333333333
144
0.0
144
0.0
144
0.0
144
0.0
144
0.0208333333333333
144
0.0
144
0.0
144
0.0
144
0.0
144
1.0
144
0.0
144
0.0
144
0.0
144
0.0
144
1.0
147
0.0208333333333333
147
0.0
147
0.0
147
0.0
147
0.0
147
0.0208333333333333
147
0.0
147
0.0
147
0.0
147
0.0
147
1.0
147
0.0
147
0.0
147
0.0
147
0.0
147
1.0
  0
MATERIAL
  5
21
102
{ACAD_XDICTIONARY
360
22
102
}
102
{ACAD_REACTORS
330
10
102
}
330
10
100
AcDbMaterial
  1
Global
 72
     0
 43
0.0208333333333333
 43
0.0
 43
0.0
 43
0.0
 43
0.0
 43
0.0208333333333333
 43
0.0
 43
0.0
 43
0.0
 43
0.0
 43
1.0
 43
0.0
 43
0.0
 43
0.0
 43
0.0
 43
1.0
 77
     0
 47
0.0208333333333333
 47
0.0
 47
0.0
 47
0.0
 47
0.0
 47
0.0208333333333333
 47
0.0
 47
0.0
 47
0.0
 47
0.0
 47
1.0
 47
0.0
 47
0.0
 47
0.0
 47
0.0
 47
1.0
171
     0
 49
0.0208333333333333
 49
0.0
 49
0.0
 49
0.0
 49
0.0
 49
0.0208333333333333
 49
0.0
 49
0.0
 49
0.0
 49
0.0
 49
1.0
 49
0.0
 49
0.0
 49
0.0
 49
0.0
 49
1.0
175
     0
142
0.0208333333333333
142
0.0
142
0.0
142
0.0
142
0.0
142
0.0208333333333333
142
0.0
142
0.0
142
0.0
142
0.0
142
1.0
142
0.0
142
0.0
142
0.0
142
0.0
142
1.0
179
     0
144
0.0208333333333333
144
0.0
144
0.0
144
0.0
144
0.0
144
0.0208333333333333
144
0.0
144
0.0
144
0.0
144
0.0
144
1.0
144
0.0
144
0.0
144
0.0
144
0.0
144
1.0
147
0.0208333333333333
147
0.0
147
0.0
147
0.0
147
0.0
147
0.0208333333333333
147
0.0
147
0.0
147
0.0
147
0.0
147
1.0
147
0.0
147
0.0
147
0.0
147
0.0
147
1.0
  0
MLEADERSTYLE
  5
66
102
{ACAD_REACTORS
330
65
102
}
330
65
100
AcDbMLeaderStyle
170
     2
171
     1
172
     0
 90
        2
 40
0.0
 41
0.0
173
     1
 91
-1056964608
340
5A
 92
       -2
290
     1
 42
0.09
291
     1
 43
0.36
  3
Standard
 44
0.18
300

342
55
174
     1
178
     6
175
     1
176
     0
 93
-1056964608
 45
0.18
292
     0
297
     0
 46
0.18
 94
-1056964608
 47
1.0
 49
1.0
140
1.0
293
     1
141
0.0
294
     1
177
     0
142
1.0
295
     0
296
     0
143
0.125
1001
ACAD_MLEADERVER
1070
     2
  0
MLINESTYLE
  5
5F
102
{ACAD_REACTORS
330
5E
102
}
330
5E
100
AcDbMlineStyle
  2
STANDARD
 70
     0
  3

 62
   256
 51
90.0
 52
90.0
 71
     2
 49
0.5
 62
   256
  6
BYLAYER
 49
-0.5
 62
   256
  6
BYLAYER
  0
ACDBPLACEHOLDER
  5
F
102
{ACAD_REACTORS
330
E
102
}
330
E
  0
SCALE
  5
43
102
{ACAD_REACTORS
330
42
102
}
330
42
100
AcDbScale
 70
     0
300
1:1
140
1.0
141
1.0
290
     1
  0
SCALE
  5
44
102
{ACAD_REACTORS
330
42
102
}
330
42
100
AcDbScale
 70
     0
300
1/128" = 1'-0"
140
0.0078125
141
12.0
290
     0
  0
SCALE
  5
45
102
{ACAD_REACTORS
330
42
102
}
330
42
100
AcDbScale
 70
     0
300
1/64" = 1'-0"
140
0.015625
141
12.0
290
     0
  0
SCALE
  5
46
102
{ACAD_REACTORS
330
42
102
}
330
42
100
AcDbScale
 70
     0
300
1/32" = 1'-0"
140
0.03125
141
12.0
290
     0
  0
SCALE
  5
47
102
{ACAD_REACTORS
330
42
102
}
330
42
100
AcDbScale
 70
     0
300
1/16" = 1'-0"
140
0.0625
141
12.0
290
     0
  0
SCALE
  5
48
102
{ACAD_REACTORS
330
42
102
}
330
42
100
AcDbScale
 70
     0
300
3/32" = 1'-0"
140
0.09375
141
12.0
290
     0
  0
SCALE
  5
49
102
{ACAD_REACTORS
330
42
102
}
330
42
100
AcDbScale
 70
     0
300
1/8" = 1'-0"
140
0.125
141
12.0
290
     0
  0
SCALE
  5
4A
102
{ACAD_REACTORS
330
42
102
}
330
42
100
AcDbScale
 70
     0
300
3/16" = 1'-0"
140
0.1875
141
12.0
290
     0
  0
SCALE
  5
4B
102
{ACAD_REACTORS
330
42
102
}
330
42
100
AcDbScale
 70
     0
300
1/4" = 1'-0"
140
0.25
141
12.0
290
     0
  0
SCALE
  5
4C
102
{ACAD_REACTORS
330
42
102
}
330
42
100
AcDbScale
 70
     0
300
3/8" = 1'-0"
140
0.375
141
12.0
290
     0
  0
SCALE
  5
4D
102
{ACAD_REACTORS
330
42
102
}
330
42
100
AcDbScale
 70
     0
300
1/2" = 1'-0"
140
0.5
141
12.0
290
     0
  0
SCALE
  5
4E
102
{ACAD_REACTORS
330
42
102
}
330
42
100
AcDbScale
 70
     0
300
3/4" = 1'-0"
140
0.75
141
12.0
290
     0
  0
SCALE
  5
4F
102
{ACAD_REACTORS
330
42
102
}
330
42
100
AcDbScale
 70
     0
300
1" = 1'-0"
140
1.0
141
12.0
290
     0
  0
SCALE
  5
50
102
{ACAD_REACTORS
330
42
102
}
330
42
100
AcDbScale
 70
     0
300
1-1/2" = 1'-0"
140
1.5
141
12.0
290
     0
  0
SCALE
  5
51
102
{ACAD_REACTORS
330
42
102
}
330
42
100
AcDbScale
 70
     0
300
3" = 1'-0"
140
3.0
141
12.0
290
     0
  0
SCALE
  5
52
102
{ACAD_REACTORS
330
42
102
}
330
42
100
AcDbScale
 70
     0
300
6" = 1'-0"
140
6.0
141
12.0
290
     0
  0
SCALE
  5
53
102
{ACAD_REACTORS
330
42
102
}
330
42
100
AcDbScale
 70
     0
300
1'-0" = 1'-0"
140
12.0
141
12.0
290
     0
  0
TABLESTYLE
  5
64
102
{ACAD_XDICTIONARY
360
52F
102
}
102
{ACAD_REACTORS
330
63
102
}
330
63
100
AcDbTableStyle
  3
Standard
 70
     0
 71
     0
 40
0.06
 41
0.06
280
     0
281
     0
  7
STANDARD
140
0.18
170
     2
 62
     0
 63
     7
283
     0
274
    -2
284
     1
 64
     0
275
    -2
285
     1
 65
     0
276
    -2
286
     1
 66
     0
277
    -2
287
     1
 67
     0
278
    -2
288
     1
 68
     0
279
    -2
289
     1
 69
     0
  7
STANDARD
140
0.25
170
     5
 62
     0
 63
     7
283
     0
274
    -2
284
     1
 64
     0
275
    -2
285
     1
 65
     0
276
    -2
286
     1
 66
     0
277
    -2
287
     1
 67
     0
278
    -2
288
     1
 68
     0
279
    -2
289
     1
 69
     0
  7
STANDARD
140
0.18
170
     5
 62
     0
 63
     7
283
     0
274
    -2
284
     1
 64
     0
275
    -2
285
     1
 65
     0
276
    -2
286
     1
 66
     0
277
    -2
287
     1
 67
     0
278
    -2
288
     1
 68
     0
279
    -2
289
     1
 69
     0
  0
VISUALSTYLE
  5
2F
102
{ACAD_XDICTIONARY
360
6EB
102
}
102
{ACAD_REACTORS
330
29
102
}
330
29
100
AcDbVisualStyle
  2

 70
     4
 71
     0
 72
     2
 73
     0
 90
        0
 40
-0.6
 41
-30.0
 62
     5
 63
     7
 74
     1
 91
        4
 64
     7
 65
   257
 75
     1
175
     1
 42
1.0
 92
        0
 66
   257
 43
1.0
 76
     1
 77
     6
 78
     2
 67
     7
 79
     5
170
     0
171
     0
290
     0
174
     0
 93
        1
 44
0.0
173
     0
291
     0
 45
0.0
1001
ACAD
1000
AcDbSavedByObjectVersion
1070
     0
  0
VISUALSTYLE
  5
38C
102
{ACAD_XDICTIONARY
360
716
102
}
102
{ACAD_REACTORS
330
29
102
}
330
29
100
AcDbVisualStyle
  2

 70
     5
 71
     0
 72
     2
 73
     1
 90
        0
 40
-0.6
 41
-30.0
 62
     5
 63
     7
 74
     1
 91
        4
 64
     7
 65
   257
 75
     1
175
     1
 42
1.0
 92
        0
 66
   257
 43
1.0
 76
     1
 77
     6
 78
     2
 67
     7
 79
     5
170
     0
171
     0
290
     0
174
     0
 93
        1
 44
0.0
173
     0
291
     0
 45
0.0
1001
ACAD
1000
AcDbSavedByObjectVersion
1070
     0
  0
VISUALSTYLE
  5
2E
102
{ACAD_XDICTIONARY
360
6E9
102
}
102
{ACAD_REACTORS
330
29
102
}
330
29
100
AcDbVisualStyle
  2

 70
     7
 71
     1
 72
     0
 73
     1
 90
        0
 40
-0.6
 41
-30.0
 62
     5
 63
     7
 74
     0
 91
        4
 64
     7
 65
   257
 75
     1
175
     1
 42
1.0
 92
        8
 66
     7
 43
1.0
 76
     1
 77
     6
 78
     2
 67
     7
 79
     5
170
     0
171
     0
290
     0
174
     0
 93
        1
 44
0.0
173
     0
291
     1
 45
0.0
1001
ACAD
1000
AcDbSavedByObjectVersion
1070
     0
  0
VISUALSTYLE
  5
35
102
{ACAD_XDICTIONARY
360
6F7
102
}
102
{ACAD_REACTORS
330
29
102
}
330
29
100
AcDbVisualStyle
  2

 70
    12
 71
     2
 72
     2
 73
     0
 90
        0
 40
-0.6
 41
-30.0
 62
     5
 63
     7
 74
     1
 91
        4
 64
     7
 65
   257
 75
     1
175
     1
 42
1.0
 92
        8
 66
     7
 43
1.0
 76
     1
 77
     6
 78
     2
 67
     7
 79
     5
170
     0
171
     0
290
     0
174
     0
 93
        1
 44
50.0
173
     0
291
     1
 45
0.0
1001
ACAD
1000
AcDbSavedByObjectVersion
1070
     0
  0
VISUALSTYLE
  5
39
102
{ACAD_XDICTIONARY
360
6FF
102
}
102
{ACAD_REACTORS
330
29
102
}
330
29
100
AcDbVisualStyle
  2

 70
    16
 71
     2
 72
     2
 73
     3
 90
        0
 40
-0.6
 41
-30.0
 62
     5
 63
     8
 74
     1
 91
        4
 64
     7
 65
   257
 75
     1
175
     1
 42
1.0
 92
        8
 66
     8
 43
1.0
 76
     1
 77
     6
 78
     2
 67
     7
 79
     5
170
     0
171
     0
290
     0
174
     0
 93
        1
 44
0.0
173
     0
291
     1
 45
0.0
1001
ACAD
1000
AcDbSavedByObjectVersion
1070
     0
  0
VISUALSTYLE
  5
32
102
{ACAD_XDICTIONARY
360
6F1
102
}
102
{ACAD_REACTORS
330
29
102
}
330
29
100
AcDbVisualStyle
  2

 70
     9
 71
     3
 72
     2
 73
     0
 90
        0
 40
-0.6
 41
-30.0
 62
     5
 63
     7
 74
     2
 91
        2
 64
     7
 65
   257
 75
     1
175
     1
 42
179.0
 92
        8
 66
     7
 43
1.0
 76
     1
 77
     6
 78
     2
 67
     7
 79
     3
170
     0
171
     0
290
     0
174
     0
 93
        1
 44
0.0
173
     0
291
     0
 45
0.0
1001
ACAD
1000
AcDbSavedByObjectVersion
1070
     0
  0
VISUALSTYLE
  5
34
102
{ACAD_XDICTIONARY
360
6F5
102
}
102
{ACAD_REACTORS
330
29
102
}
330
29
100
AcDbVisualStyle
  2

 70
    11
 71
     2
 72
     2
 73
     0
 90
        0
 40
-0.6
 41
-30.0
 62
     5
 63
     7
 74
     1
 91
        4
 64
     7
 65
   257
 75
     1
175
     1
 42
1.0
 92
        8
 66
     7
 43
1.0
 76
     1
 77
     6
 78
     2
 67
     7
 79
     5
170
     0
171
     0
290
     0
174
     0
 93
        1
 44
-50.0
173
     0
291
     1
 45
0.0
1001
ACAD
1000
AcDbSavedByObjectVersion
1070
     0
  0
VISUALSTYLE
  5
41
102
{ACAD_XDICTIONARY
360
70F
102
}
102
{ACAD_REACTORS
330
29
102
}
330
29
100
AcDbVisualStyle
  2

 70
    22
 71
     2
 72
     2
 73
     0
 90
        0
 40
-0.6
 41
-30.0
 62
     5
 63
     7
 74
     1
 91
        4
 64
     7
 65
   257
 75
     1
175
     1
 42
1.0
 92
        8
 66
     7
 43
1.0
 76
     1
 77
     6
 78
     2
 67
     7
 79
     5
170
     0
171
     0
290
     0
174
     0
 93
        1
 44
0.0
173
     0
291
     1
 45
0.0
1001
ACAD
1000
AcDbSavedByObjectVersion
1070
     0
  0
VISUALSTYLE
  5
38
102
{ACAD_XDICTIONARY
360
6FD
102
}
102
{ACAD_REACTORS
330
29
102
}
330
29
100
AcDbVisualStyle
  2

 70
    15
 71
     2
 72
     2
 73
     0
 90
        0
 40
-0.6
 41
-30.0
 62
     5
 63
     7
 74
     1
 91
        4
 64
     7
 65
   257
 75
     1
175
     1
 42
1.0
 92
        8
 66
     7
 43
1.0
 76
     1
 77
     6
 78
     2
 67
     7
 79
     5
170
     0
171
     0
290
     0
174
     0
 93
        1
 44
0.0
173
     0
291
     1
 45
0.0
1001
ACAD
1000
AcDbSavedByObjectVersion
1070
     0
  0
VISUALSTYLE
  5
2A
102
{ACAD_XDICTIONARY
360
6E1
102
}
102
{ACAD_REACTORS
330
29
102
}
330
29
100
AcDbVisualStyle
  2

 70
     0
 71
     2
 72
     1
 73
     1
 90
        2
 40
-0.6
 41
30.0
 62
     5
 63
     7
 74
     0
 91
        0
 64
     7
 65
   257
 75
     1
175
     1
 42
1.0
 92
        8
 66
     7
 43
1.0
 76
     1
 77
     6
 78
     2
 67
     7
 79
     5
170
     0
171
     0
290
     0
174
     0
 93
       13
 44
0.0
173
     0
291
     1
 45
0.0
1001
ACAD
1000
AcDbSavedByObjectVersion
1070
     0
  0
VISUALSTYLE
  5
2B
102
{ACAD_XDICTIONARY
360
6E3
102
}
102
{ACAD_REACTORS
330
29
102
}
330
29
100
AcDbVisualStyle
  2

 70
     1
 71
     2
 72
     1
 73
     1
 90
        2
 40
-0.6
 41
30.0
 62
     5
 63
     7
 74
     1
 91
        0
 64
     7
 65
   257
 75
     1
175
     1
 42
1.0
 92
        0
 66
   257
 43
1.0
 76
     1
 77
     6
 78
     2
 67
     7
 79
     5
170
     0
171
     0
290
     0
174
     0
 93
       13
 44
0.0
173
     0
291
     1
 45
0.0
1001
ACAD
1000
AcDbSavedByObjectVersion
1070
     0
  0
VISUALSTYLE
  5
2C
102
{ACAD_XDICTIONARY
360
6E5
102
}
102
{ACAD_REACTORS
330
29
102
}
330
29
100
AcDbVisualStyle
  2

 70
     2
 71
     2
 72
     2
 73
     1
 90
        2
 40
-0.6
 41
30.0
 62
     5
 63
     7
 74
     0
 91
        0
 64
     7
 65
   257
 75
     1
175
     1
 42
1.0
 92
        0
 66
     7
 43
1.0
 76
     1
 77
     6
 78
     2
 67
     7
 79
     5
170
     0
171
     0
290
     0
174
     0
 93
       13
 44
0.0
173
     0
291
     1
 45
0.0
1001
ACAD
1000
AcDbSavedByObjectVersion
1070
     0
  0
VISUALSTYLE
  5
2D
102
{ACAD_XDICTIONARY
360
6E7
102
}
102
{ACAD_REACTORS
330
29
102
}
330
29
100
AcDbVisualStyle
  2

 70
     3
 71
     2
 72
     2
 73
     1
 90
        2
 40
-0.6
 41
30.0
 62
     5
 63
     7
 74
     1
 91
        0
 64
     7
 65
   257
 75
     1
175
     1
 42
1.0
 92
        0
 66
   257
 43
1.0
 76
     1
 77
     6
 78
     2
 67
     7
 79
     5
170
     0
171
     0
290
     0
174
     0
 93
       13
 44
0.0
173
     0
291
     1
 45
0.0
1001
ACAD
1000
AcDbSavedByObjectVersion
1070
     0
  0
VISUALSTYLE
  5
31
102
{ACAD_XDICTIONARY
360
6EF
102
}
102
{ACAD_REACTORS
330
29
102
}
330
29
100
AcDbVisualStyle
  2

 70
     6
 71
     1
 72
     2
 73
     2
 90
        0
 40
-0.6
 41
-30.0
 62
     5
 63
     7
 74
     2
 91
        2
 64
     7
 65
   257
 75
     2
175
     1
 42
40.0
 92
        0
 66
   257
 43
1.0
 76
     1
 77
     6
 78
     2
 67
     7
 79
     3
170
     0
171
     0
290
     0
174
     0
 93
        1
 44
0.0
173
     0
291
     0
 45
0.0
1001
ACAD
1000
AcDbSavedByObjectVersion
1070
     0
  0
VISUALSTYLE
  5
3F
102
{ACAD_XDICTIONARY
360
70B
102
}
102
{ACAD_REACTORS
330
29
102
}
330
29
100
AcDbVisualStyle
  2

 70
    20
 71
     2
 72
     2
 73
     0
 90
        0
 40
-0.6
 41
-30.0
 62
     5
 63
     7
 74
     1
 91
        4
 64
     7
 65
   257
 75
     1
175
     1
 42
1.0
 92
       10
 66
     7
 43
1.0
 76
     1
 77
     6
 78
     2
 67
     7
 79
     5
170
     0
171
     0
290
     0
174
     0
 93
        1
 44
0.0
173
     0
291
     1
 45
0.0
1001
ACAD
1000
AcDbSavedByObjectVersion
1070
     0
  0
VISUALSTYLE
  5
37
102
{ACAD_XDICTIONARY
360
6FB
102
}
102
{ACAD_REACTORS
330
29
102
}
330
29
100
AcDbVisualStyle
  2

 70
    14
 71
     2
 72
     2
 73
     0
 90
        0
 40
-0.6
 41
-30.0
 62
     5
 63
     7
 74
     1
 91
        4
 64
     7
 65
   257
 75
     7
175
     7
 42
1.0
 92
        8
 66
     7
 43
1.0
 76
     1
 77
     6
 78
     2
 67
     7
 79
     5
170
     0
171
     0
290
     0
174
     0
 93
        1
 44
0.0
173
     0
291
     1
 45
0.0
1001
ACAD
1000
AcDbSavedByObjectVersion
1070
     0
  0
VISUALSTYLE
  5
40
102
{ACAD_XDICTIONARY
360
70D
102
}
102
{ACAD_REACTORS
330
29
102
}
330
29
100
AcDbVisualStyle
  2

 70
    21
 71
     2
 72
     2
 73
     0
 90
        0
 40
-0.6
 41
-30.0
 62
     5
 63
     7
 74
     1
 91
        4
 64
     7
 65
   257
 75
     1
175
     1
 42
1.0
 92
        9
 66
     7
 43
1.0
 76
     1
 77
     6
 78
     2
 67
     7
 79
     5
170
     0
171
     0
290
     0
174
     0
 93
        1
 44
0.0
173
     0
291
     1
 45
0.0
1001
ACAD
1000
AcDbSavedByObjectVersion
1070
     0
  0
VISUALSTYLE
  5
33
102
{ACAD_XDICTIONARY
360
6F3
102
}
102
{ACAD_REACTORS
330
29
102
}
330
29
100
AcDbVisualStyle
  2

 70
     8
 71
     2
 72
     3
 73
     0
 90
        2
 40
-0.6
 41
30.0
 62
     5
 63
     7
 74
     0
 91
        0
 64
     7
 65
   257
 75
     1
175
     1
 42
1.0
 92
        8
 66
   257
 43
1.0
 76
     1
 77
     6
 78
     2
 67
     7
 79
     3
170
     0
171
     0
290
     0
174
     0
 93
       13
 44
0.0
173
     0
291
     0
 45
0.0
1001
ACAD
1000
AcDbSavedByObjectVersion
1070
     0
  0
VISUALSTYLE
  5
3E
102
{ACAD_XDICTIONARY
360
709
102
}
102
{ACAD_REACTORS
330
29
102
}
330
29
100
AcDbVisualStyle
  2

 70
    27
 71
     2
 72
     2
 73
     1
 90
        2
 40
-0.6
 41
30.0
 62
     5
 63
     7
 74
     0
 91
        4
 64
     7
 65
   257
 75
     1
175
     1
 42
1.0
 92
        8
 66
   257
 43
1.0
 76
     1
 77
     6
 78
     2
 67
     8
 79
     3
170
     0
171
     0
290
     0
174
     0
 93
        5
 44
0.0
173
     0
291
     0
 45
0.0
1001
ACAD
1000
AcDbSavedByObjectVersion
1070
     0
  0
VISUALSTYLE
  5
3D
102
{ACAD_XDICTIONARY
360
707
102
}
102
{ACAD_REACTORS
330
29
102
}
330
29
100
AcDbVisualStyle
  2

 70
    26
 71
     2
 72
     2
 73
     1
 90
        2
 40
-0.6
 41
30.0
 62
     5
 63
     7
 74
     1
 91
       10
 64
     7
 65
   257
 75
     2
175
     1
 42
1.0
 92
        8
 66
   257
 43
1.0
 76
     1
 77
     6
 78
     2
 67
     7
 79
     3
170
     0
171
     0
290
     0
174
     0
 93
        5
 44
0.0
173
     0
291
     0
 45
0.0
1001
ACAD
1000
AcDbSavedByObjectVersion
1070
     0
  0
VISUALSTYLE
  5
3A
102
{ACAD_XDICTIONARY
360
701
102
}
102
{ACAD_REACTORS
330
29
102
}
330
29
100
AcDbVisualStyle
  2

 70
    23
 71
     2
 72
     2
 73
     3
 90
        0
 40
-0.6
 41
-30.0
 62
     5
 63
     7
 74
     2
 91
        2
 64
     7
 65
     7
 75
     1
175
     1
 42
40.0
 92
        8
 66
     7
 43
1.0
 76
     1
 77
     6
 78
     2
 67
     7
 79
     3
170
     0
171
     0
290
     0
174
     0
 93
        1
 44
0.0
173
     0
291
     0
 45
0.0
1001
ACAD
1000
AcDbSavedByObjectVersion
1070
     0
  0
VISUALSTYLE
  5
3B
102
{ACAD_XDICTIONARY
360
703
102
}
102
{ACAD_REACTORS
330
29
102
}
330
29
100
AcDbVisualStyle
  2

 70
    24
 71
     1
 72
     2
 73
     2
 90
        0
 40
-0.6
 41
-30.0
 62
     5
 63
     7
 74
     2
 91
        2
 64
     7
 65
     7
 75
     1
175
     1
 42
40.0
 92
       11
 66
     7
 43
1.0
 76
     1
 77
     6
 78
     2
 67
     7
 79
     6
170
     0
171
     0
290
     0
174
     0
 93
        1
 44
0.0
173
     0
291
     0
 45
0.0
1001
ACAD
1000
AcDbSavedByObjectVersion
1070
     0
  0
VISUALSTYLE
  5
36
102
{ACAD_XDICTIONARY
360
6F9
102
}
102
{ACAD_REACTORS
330
29
102
}
330
29
100
AcDbVisualStyle
  2

 70
    13
 71
     2
 72
     2
 73
     0
 90
        0
 40
-0.6
 41
-30.0
 62
     5
 63
     7
 74
     1
 91
        4
 64
     7
 65
   257
 75
     1
175
     1
 42
1.0
 92
       12
 66
     7
 43
1.0
 76
     1
 77
     6
 78
     2
 67
     7
 79
     5
170
     0
171
     0
290
     0
174
     0
 93
        1
 44
0.0
173
     0
291
     1
 45
0.0
1001
ACAD
1000
AcDbSavedByObjectVersion
1070
     0
  0
VISUALSTYLE
  5
30
102
{ACAD_XDICTIONARY
360
6ED
102
}
102
{ACAD_REACTORS
330
29
102
}
330
29
100
AcDbVisualStyle
  2

 70
     5
 71
     0
 72
     2
 73
     0
 90
        0
 40
-0.6
 41
-30.0
 62
     5
 63
     7
 74
     1
 91
        4
 64
     7
 65
   257
 75
     1
175
     1
 42
1.0
 92
        0
 66
   257
 43
1.0
 76
     1
 77
     6
 78
     2
 67
     7
 79
     3
170
     0
171
     0
290
     0
174
     0
 93
        1
 44
0.0
173
     0
291
     0
 45
0.0
1001
ACAD
1000
AcDbSavedByObjectVersion
1070
     0
  0
VISUALSTYLE
  5
3C
102
{ACAD_XDICTIONARY
360
705
102
}
102
{ACAD_REACTORS
330
29
102
}
330
29
100
AcDbVisualStyle
  2

 70
    25
 71
     2
 72
     2
 73
     1
 90
        1
 40
0.5
 41
-30.0
 62
     5
 63
     7
 74
     1
 91
        0
 64
     7
 65
   257
 75
     1
175
     1
 42
1.0
 92
        8
 66
     7
 43
1.0
 76
     1
 77
     6
 78
     2
 67
     7
 79
     3
170
     0
171
     0
290
     0
174
     0
 93
       13
 44
0.0
173
     0
291
     0
 45
0.0
1001
ACAD
1000
AcDbSavedByObjectVersion
1070
     0
  0
DICTIONARYVAR
  5
52A
102
{ACAD_REACTORS
330
527
102
}
330
527
100
DictionaryVariables
280
     0
  1
1:1
  0
DICTIONARYVAR
  5
529
102
{ACAD_REACTORS
330
527
102
}
330
527
100
DictionaryVariables
280
     0
  1
STANDARD
  0
DICTIONARYVAR
  5
528
102
{ACAD_REACTORS
330
527
102
}
330
527
100
DictionaryVariables
280
     0
  1
STANDARD
  0
DICTIONARYVAR
  5
52D
102
{ACAD_REACTORS
330
527
102
}
330
527
100
DictionaryVariables
280
     0
  1
1
  0
DICTIONARYVAR
  5
52C
102
{ACAD_REACTORS
330
527
102
}
330
527
100
DictionaryVariables
280
     0
  1
0
  0
DICTIONARYVAR
  5
52B
102
{ACAD_REACTORS
330
527
102
}
330
527
100
DictionaryVariables
280
     0
  1
127
  0
DICTIONARYVAR
  5
5AA
102
{ACAD_REACTORS
330
527
102
}
330
527
100
DictionaryVariables
280
     0
  1
2
  0
DICTIONARY
  5
714
330
6E
100
AcDbDictionary
280
     1
281
     1
  3
ACAD_XREC_ROUNDTRIP
360
715
  0
DICTIONARY
  5
712
330
6A
100
AcDbDictionary
280
     1
281
     1
  3
ACAD_XREC_ROUNDTRIP
360
713
  0
DICTIONARY
  5
1A
330
19
100
AcDbDictionary
280
     1
281
     1
  3
ACAD_XREC_ROUNDTRIP
360
538
  3
BUMPTILE
360
1C
  3
DIFFUSETILE
360
1B
  3
OPACITYTILE
360
1F
  3
REFLECTIONTILE
360
1E
  3
REFRACTIONTILE
360
20
  3
SPECULARTILE
360
1D
  0
DICTIONARY
  5
12
330
11
100
AcDbDictionary
280
     1
281
     1
  3
ACAD_XREC_ROUNDTRIP
360
537
  3
BUMPTILE
360
14
  3
DIFFUSETILE
360
13
  3
OPACITYTILE
360
17
  3
REFLECTIONTILE
360
16
  3
REFRACTIONTILE
360
18
  3
SPECULARTILE
360
15
  0
DICTIONARY
  5
22
330
21
100
AcDbDictionary
280
     1
281
     1
  3
ACAD_XREC_ROUNDTRIP
360
539
  3
BUMPTILE
360
24
  3
DIFFUSETILE
360
23
  3
OPACITYTILE
360
27
  3
REFLECTIONTILE
360
26
  3
REFRACTIONTILE
360
28
  3
SPECULARTILE
360
25
  0
DICTIONARY
  5
52F
330
64
100
AcDbDictionary
280
     1
281
     1
  3
ACAD_ROUNDTRIP_2008_TABLESTYLE_CELLSTYLEMAP
360
6DA
  3
ACAD_XREC_ROUNDTRIP
360
711
  0
DICTIONARY
  5
6EB
330
2F
100
AcDbDictionary
280
     1
281
     1
  3
ACAD_XREC_ROUNDTRIP
360
6EC
  0
DICTIONARY
  5
716
330
38C
100
AcDbDictionary
280
     1
281
     1
  3
ACAD_XREC_ROUNDTRIP
360
717
  0
DICTIONARY
  5
6E9
330
2E
100
AcDbDictionary
280
     1
281
     1
  3
ACAD_XREC_ROUNDTRIP
360
6EA
  0
DICTIONARY
  5
6F7
330
35
100
AcDbDictionary
280
     1
281
     1
  3
ACAD_XREC_ROUNDTRIP
360
6F8
  0
DICTIONARY
  5
6FF
330
39
100
AcDbDictionary
280
     1
281
     1
  3
ACAD_XREC_ROUNDTRIP
360
700
  0
DICTIONARY
  5
6F1
330
32
100
AcDbDictionary
280
     1
281
     1
  3
ACAD_XREC_ROUNDTRIP
360
6F2
  0
DICTIONARY
  5
6F5
330
34
100
AcDbDictionary
280
     1
281
     1
  3
ACAD_XREC_ROUNDTRIP
360
6F6
  0
DICTIONARY
  5
70F
330
41
100
AcDbDictionary
280
     1
281
     1
  3
ACAD_XREC_ROUNDTRIP
360
710
  0
DICTIONARY
  5
6FD
330
38
100
AcDbDictionary
280
     1
281
     1
  3
ACAD_XREC_ROUNDTRIP
360
6FE
  0
DICTIONARY
  5
6E1
330
2A
100
AcDbDictionary
280
     1
281
     1
  3
ACAD_XREC_ROUNDTRIP
360
6E2
  0
DICTIONARY
  5
6E3
330
2B
100
AcDbDictionary
280
     1
281
     1
  3
ACAD_XREC_ROUNDTRIP
360
6E4
  0
DICTIONARY
  5
6E5
330
2C
100
AcDbDictionary
280
     1
281
     1
  3
ACAD_XREC_ROUNDTRIP
360
6E6
  0
DICTIONARY
  5
6E7
330
2D
100
AcDbDictionary
280
     1
281
     1
  3
ACAD_XREC_ROUNDTRIP
360
6E8
  0
DICTIONARY
  5
6EF
330
31
100
AcDbDictionary
280
     1
281
     1
  3
ACAD_XREC_ROUNDTRIP
360
6F0
  0
DICTIONARY
  5
70B
330
3F
100
AcDbDictionary
280
     1
281
     1
  3
ACAD_XREC_ROUNDTRIP
360
70C
  0
DICTIONARY
  5
6FB
330
37
100
AcDbDictionary
280
     1
281
     1
  3
ACAD_XREC_ROUNDTRIP
360
6FC
  0
DICTIONARY
  5
70D
330
40
100
AcDbDictionary
280
     1
281
     1
  3
ACAD_XREC_ROUNDTRIP
360
70E
  0
DICTIONARY
  5
6F3
330
33
100
AcDbDictionary
280
     1
281
     1
  3
ACAD_XREC_ROUNDTRIP
360
6F4
  0
DICTIONARY
  5
709
330
3E
100
AcDbDictionary
280
     1
281
     1
  3
ACAD_XREC_ROUNDTRIP
360
70A
  0
DICTIONARY
  5
707
330
3D
100
AcDbDictionary
280
     1
281
     1
  3
ACAD_XREC_ROUNDTRIP
360
708
  0
DICTIONARY
  5
701
330
3A
100
AcDbDictionary
280
     1
281
     1
  3
ACAD_XREC_ROUNDTRIP
360
702
  0
DICTIONARY
  5
703
330
3B
100
AcDbDictionary
280
     1
281
     1
  3
ACAD_XREC_ROUNDTRIP
360
704
  0
DICTIONARY
  5
6F9
330
36
100
AcDbDictionary
280
     1
281
     1
  3
ACAD_XREC_ROUNDTRIP
360
6FA
  0
DICTIONARY
  5
6ED
330
30
100
AcDbDictionary
280
     1
281
     1
  3
ACAD_XREC_ROUNDTRIP
360
6EE
  0
DICTIONARY
  5
705
330
3C
100
AcDbDictionary
280
     1
281
     1
  3
ACAD_XREC_ROUNDTRIP
360
706
  0
XRECORD
  5
715
102
{ACAD_REACTORS
330
714
102
}
330
714
100
AcDbXrecord
280
     1
102
SHADEPLOT
 70
     0
102
SHADEPLOTRESLEVEL
 70
     2
102
SHADEPLOTCUSTOMDPI
 70
   300
  0
XRECORD
  5
713
102
{ACAD_REACTORS
330
712
102
}
330
712
100
AcDbXrecord
280
     1
102
SHADEPLOT
 70
     0
102
SHADEPLOTRESLEVEL
 70
     2
102
SHADEPLOTCUSTOMDPI
 70
   300
  0
XRECORD
  5
538
102
{ACAD_REACTORS
330
1A
102
}
330
1A
100
AcDbXrecord
280
     1
102
MATERIAL
148
0.0
149
0.0
149
0.0
 93
        0
 94
      127
282
     0
 72
     0
 77
     0
171
     0
175
     0
179
     0
273
     0
  0
XRECORD
  5
1C
102
{ACAD_REACTORS
330
1A
102
}
330
1A
100
AcDbXrecord
280
     1
270
     1
271
     1
  0
XRECORD
  5
1B
102
{ACAD_REACTORS
330
1A
102
}
330
1A
100
AcDbXrecord
280
     1
270
     1
271
     1
  0
XRECORD
  5
1F
102
{ACAD_REACTORS
330
1A
102
}
330
1A
100
AcDbXrecord
280
     1
270
     1
271
     1
  0
XRECORD
  5
1E
102
{ACAD_REACTORS
330
1A
102
}
330
1A
100
AcDbXrecord
280
     1
270
     1
271
     1
  0
XRECORD
  5
20
102
{ACAD_REACTORS
330
1A
102
}
330
1A
100
AcDbXrecord
280
     1
270
     1
271
     1
  0
XRECORD
  5
1D
102
{ACAD_REACTORS
330
1A
102
}
330
1A
100
AcDbXrecord
280
     1
270
     1
271
     1
  0
XRECORD
  5
537
102
{ACAD_REACTORS
330
12
102
}
330
12
100
AcDbXrecord
280
     1
102
MATERIAL
148
0.0
149
0.0
149
0.0
 93
        0
 94
      127
282
     0
 72
     0
 77
     0
171
     0
175
     0
179
     0
273
     0
  0
XRECORD
  5
14
102
{ACAD_REACTORS
330
12
102
}
330
12
100
AcDbXrecord
280
     1
270
     1
271
     1
  0
XRECORD
  5
13
102
{ACAD_REACTORS
330
12
102
}
330
12
100
AcDbXrecord
280
     1
270
     1
271
     1
  0
XRECORD
  5
17
102
{ACAD_REACTORS
330
12
102
}
330
12
100
AcDbXrecord
280
     1
270
     1
271
     1
  0
XRECORD
  5
16
102
{ACAD_REACTORS
330
12
102
}
330
12
100
AcDbXrecord
280
     1
270
     1
271
     1
  0
XRECORD
  5
18
102
{ACAD_REACTORS
330
12
102
}
330
12
100
AcDbXrecord
280
     1
270
     1
271
     1
  0
XRECORD
  5
15
102
{ACAD_REACTORS
330
12
102
}
330
12
100
AcDbXrecord
280
     1
270
     1
271
     1
  0
XRECORD
  5
539
102
{ACAD_REACTORS
330
22
102
}
330
22
100
AcDbXrecord
280
     1
102
MATERIAL
148
0.0
149
0.0
149
0.0
 93
        0
 94
      127
282
     0
 72
     0
 77
     0
171
     0
175
     0
179
     0
273
     0
  0
XRECORD
  5
24
102
{ACAD_REACTORS
330
22
102
}
330
22
100
AcDbXrecord
280
     1
270
     1
271
     1
  0
XRECORD
  5
23
102
{ACAD_REACTORS
330
22
102
}
330
22
100
AcDbXrecord
280
     1
270
     1
271
     1
  0
XRECORD
  5
27
102
{ACAD_REACTORS
330
22
102
}
330
22
100
AcDbXrecord
280
     1
270
     1
271
     1
  0
XRECORD
  5
26
102
{ACAD_REACTORS
330
22
102
}
330
22
100
AcDbXrecord
280
     1
270
     1
271
     1
  0
XRECORD
  5
28
102
{ACAD_REACTORS
330
22
102
}
330
22
100
AcDbXrecord
280
     1
270
     1
271
     1
  0
XRECORD
  5
25
102
{ACAD_REACTORS
330
22
102
}
330
22
100
AcDbXrecord
280
     1
270
     1
271
     1
  0
CELLSTYLEMAP
  5
6DA
102
{ACAD_REACTORS
330
52F
102
}
330
52F
100
AcDbCellStyleMap
 90
        3
300
CELLSTYLE
  1
TABLEFORMAT_BEGIN
 90
        5
170
     1
 91
        0
 92
    32768
 62
   257
 93
        1
300
CONTENTFORMAT
  1
CONTENTFORMAT_BEGIN
 90
        0
 91
        0
 92
      512
 93
        0
300

 40
0.0
140
1.0
 94
        5
 62
     0
340
55
144
0.25
309
CONTENTFORMAT_END
171
     1
301
MARGIN
  1
CELLMARGIN_BEGIN
 40
0.06
 40
0.06
 40
0.06
 40
0.06
 40
0.18
 40
0.18
309
CELLMARGIN_END
 94
        6
 95
        1
302
GRIDFORMAT
  1
GRIDFORMAT_BEGIN
 90
        0
 91
        1
 62
     0
 92
       -2
340
0
 93
        0
 40
0.045
309
GRIDFORMAT_END
 95
        2
302
GRIDFORMAT
  1
GRIDFORMAT_BEGIN
 90
        0
 91
        1
 62
     0
 92
       -2
340
0
 93
        0
 40
0.045
309
GRIDFORMAT_END
 95
        4
302
GRIDFORMAT
  1
GRIDFORMAT_BEGIN
 90
        0
 91
        1
 62
     0
 92
       -2
340
0
 93
        0
 40
0.045
309
GRIDFORMAT_END
 95
        8
302
GRIDFORMAT
  1
GRIDFORMAT_BEGIN
 90
        0
 91
        1
 62
     0
 92
       -2
340
0
 93
        0
 40
0.045
309
GRIDFORMAT_END
 95
       16
302
GRIDFORMAT
  1
GRIDFORMAT_BEGIN
 90
        0
 91
        1
 62
     0
 92
       -2
340
0
 93
        0
 40
0.045
309
GRIDFORMAT_END
 95
       32
302
GRIDFORMAT
  1
GRIDFORMAT_BEGIN
 90
        0
 91
        1
 62
     0
 92
       -2
340
0
 93
        0
 40
0.045
309
GRIDFORMAT_END
309
TABLEFORMAT_END
  1
CELLSTYLE_BEGIN
 90
        1
 91
        1
300
_TITLE
309
CELLSTYLE_END
300
CELLSTYLE
  1
TABLEFORMAT_BEGIN
 90
        5
170
     1
 91
        0
 92
        0
 62
   257
 93
        1
300
CONTENTFORMAT
  1
CONTENTFORMAT_BEGIN
 90
        0
 91
        0
 92
      512
 93
        0
300

 40
0.0
140
1.0
 94
        5
 62
     0
340
55
144
0.18
309
CONTENTFORMAT_END
171
     1
301
MARGIN
  1
CELLMARGIN_BEGIN
 40
0.06
 40
0.06
 40
0.06
 40
0.06
 40
0.18
 40
0.18
309
CELLMARGIN_END
 94
        6
 95
        1
302
GRIDFORMAT
  1
GRIDFORMAT_BEGIN
 90
        0
 91
        1
 62
     0
 92
       -2
340
0
 93
        0
 40
0.045
309
GRIDFORMAT_END
 95
        2
302
GRIDFORMAT
  1
GRIDFORMAT_BEGIN
 90
        0
 91
        1
 62
     0
 92
       -2
340
0
 93
        0
 40
0.045
309
GRIDFORMAT_END
 95
        4
302
GRIDFORMAT
  1
GRIDFORMAT_BEGIN
 90
        0
 91
        1
 62
     0
 92
       -2
340
0
 93
        0
 40
0.045
309
GRIDFORMAT_END
 95
        8
302
GRIDFORMAT
  1
GRIDFORMAT_BEGIN
 90
        0
 91
        1
 62
     0
 92
       -2
340
0
 93
        0
 40
0.045
309
GRIDFORMAT_END
 95
       16
302
GRIDFORMAT
  1
GRIDFORMAT_BEGIN
 90
        0
 91
        1
 62
     0
 92
       -2
340
0
 93
        0
 40
0.045
309
GRIDFORMAT_END
 95
       32
302
GRIDFORMAT
  1
GRIDFORMAT_BEGIN
 90
        0
 91
        1
 62
     0
 92
       -2
340
0
 93
        0
 40
0.045
309
GRIDFORMAT_END
309
TABLEFORMAT_END
  1
CELLSTYLE_BEGIN
 90
        2
 91
        1
300
_HEADER
309
CELLSTYLE_END
300
CELLSTYLE
  1
TABLEFORMAT_BEGIN
 90
        5
170
     1
 91
        0
 92
        0
 62
   257
 93
        1
300
CONTENTFORMAT
  1
CONTENTFORMAT_BEGIN
 90
        0
 91
        0
 92
      512
 93
        0
300

 40
0.0
140
1.0
 94
        2
 62
     0
340
55
144
0.18
309
CONTENTFORMAT_END
171
     1
301
MARGIN
  1
CELLMARGIN_BEGIN
 40
0.06
 40
0.06
 40
0.06
 40
0.06
 40
0.18
 40
0.18
309
CELLMARGIN_END
 94
        6
 95
        1
302
GRIDFORMAT
  1
GRIDFORMAT_BEGIN
 90
        0
 91
        1
 62
     0
 92
       -2
340
0
 93
        0
 40
0.045
309
GRIDFORMAT_END
 95
        2
302
GRIDFORMAT
  1
GRIDFORMAT_BEGIN
 90
        0
 91
        1
 62
     0
 92
       -2
340
0
 93
        0
 40
0.045
309
GRIDFORMAT_END
 95
        4
302
GRIDFORMAT
  1
GRIDFORMAT_BEGIN
 90
        0
 91
        1
 62
     0
 92
       -2
340
0
 93
        0
 40
0.045
309
GRIDFORMAT_END
 95
        8
302
GRIDFORMAT
  1
GRIDFORMAT_BEGIN
 90
        0
 91
        1
 62
     0
 92
       -2
340
0
 93
        0
 40
0.045
309
GRIDFORMAT_END
 95
       16
302
GRIDFORMAT
  1
GRIDFORMAT_BEGIN
 90
        0
 91
        1
 62
     0
 92
       -2
340
0
 93
        0
 40
0.045
309
GRIDFORMAT_END
 95
       32
302
GRIDFORMAT
  1
GRIDFORMAT_BEGIN
 90
        0
 91
        1
 62
     0
 92
       -2
340
0
 93
        0
 40
0.045
309
GRIDFORMAT_END
309
TABLEFORMAT_END
  1
CELLSTYLE_BEGIN
 90
        3
 91
        2
300
_DATA
309
CELLSTYLE_END
  0
XRECORD
  5
711
102
{ACAD_REACTORS
330
52F
102
}
330
52F
100
AcDbXrecord
280
     1
102
ACAD_ROUNDTRIP_PRE2007_TABLESTYLE
 90
      512
 91
        0
  1

 92
      512
 93
        0
  2

 94
      512
 95
        0
  3

  0
XRECORD
  5
6EC
102
{ACAD_REACTORS
330
6EB
102
}
330
6EB
100
AcDbXrecord
280
     1
102
RTVSPropertyOp0
 70
     1
102
RTVSPropertyOp1
 70
     1
102
RTVSPropertyOp2
 70
     1
102
RTVSPropertyOp3
 70
     1
102
RTVSPropertyOp4
 70
     1
102
RTVSPropertyOp5
 70
     1
102
RTVSPropertyOp6
 70
     1
102
RTVSPropertyOp7
 70
     1
102
RTVSPropertyOp8
 70
     1
102
RTVSPropertyOp9
 70
     1
102
RTVSPropertyOp10
 70
     1
102
RTVSPropertyOp11
 70
     1
102
RTVSPropertyOp12
 70
     1
102
RTVSPropertyOp13
 70
     1
102
RTVSPropertyOp14
 70
     1
102
RTVSPropertyOp15
 70
     1
102
RTVSPropertyOp16
 70
     1
102
RTVSPropertyOp17
 70
     1
102
RTVSPropertyOp18
 70
     1
102
RTVSPropertyOp19
 70
     1
102
RTVSPropertyOp20
 70
     1
102
RTVSPropertyOp21
 70
     1
102
RTVSPropertyOp22
 70
     1
102
RTVSPropertyOp23
 70
     1
102
RTVSPropertyOp24
 70
     1
102
RTVSPropertyOp25
 70
     1
102
RTVSPropertyOp26
 70
     1
102
RTVSPropertyOp27
 70
     1
102
RTVSPropertyOp28
 70
     1
102
RTVSPropertyOp29
 70
     1
102
RTVSPropertyOp30
 70
     1
102
RTVSPropertyOp31
 70
     1
102
RTVSPropertyOp32
 70
     1
  0
XRECORD
  5
717
102
{ACAD_REACTORS
330
716
102
}
330
716
100
AcDbXrecord
280
     1
102
RTVSPropertyOp0
 70
     1
102
RTVSPropertyOp1
 70
     1
102
RTVSPropertyOp2
 70
     1
102
RTVSPropertyOp3
 70
     1
102
RTVSPropertyOp4
 70
     1
102
RTVSPropertyOp5
 70
     1
102
RTVSPropertyOp6
 70
     1
102
RTVSPropertyOp7
 70
     1
102
RTVSPropertyOp8
 70
     1
102
RTVSPropertyOp9
 70
     1
102
RTVSPropertyOp10
 70
     1
102
RTVSPropertyOp11
 70
     1
102
RTVSPropertyOp12
 70
     1
102
RTVSPropertyOp13
 70
     1
102
RTVSPropertyOp14
 70
     1
102
RTVSPropertyOp15
 70
     1
102
RTVSPropertyOp16
 70
     1
102
RTVSPropertyOp17
 70
     1
102
RTVSPropertyOp18
 70
     1
102
RTVSPropertyOp19
 70
     1
102
RTVSPropertyOp20
 70
     1
102
RTVSPropertyOp21
 70
     1
102
RTVSPropertyOp22
 70
     1
102
RTVSPropertyOp23
 70
     1
102
RTVSPropertyOp24
 70
     1
102
RTVSPropertyOp25
 70
     1
102
RTVSPropertyOp26
 70
     1
102
RTVSPropertyOp27
 70
     1
102
RTVSPropertyOp28
 70
     1
102
RTVSPropertyOp29
 70
     1
102
RTVSPropertyOp30
 70
     1
102
RTVSPropertyOp31
 70
     1
102
RTVSPropertyOp32
 70
     1
  0
XRECORD
  5
6EA
102
{ACAD_REACTORS
330
6E9
102
}
330
6E9
100
AcDbXrecord
280
     1
102
RTVSPropertyOp0
 70
     1
102
RTVSPropertyOp1
 70
     1
102
RTVSPropertyOp2
 70
     1
102
RTVSPropertyOp3
 70
     1
102
RTVSPropertyOp4
 70
     1
102
RTVSPropertyOp5
 70
     1
102
RTVSPropertyOp6
 70
     1
102
RTVSPropertyOp7
 70
     1
102
RTVSPropertyOp8
 70
     1
102
RTVSPropertyOp9
 70
     1
102
RTVSPropertyOp10
 70
     1
102
RTVSPropertyOp11
 70
     1
102
RTVSPropertyOp12
 70
     1
102
RTVSPropertyOp13
 70
     1
102
RTVSPropertyOp14
 70
     1
102
RTVSPropertyOp15
 70
     1
102
RTVSPropertyOp16
 70
     1
102
RTVSPropertyOp17
 70
     1
102
RTVSPropertyOp18
 70
     1
102
RTVSPropertyOp19
 70
     1
102
RTVSPropertyOp20
 70
     1
102
RTVSPropertyOp21
 70
     1
102
RTVSPropertyOp22
 70
     1
102
RTVSPropertyOp23
 70
     1
102
RTVSPropertyOp24
 70
     1
102
RTVSPropertyOp25
 70
     1
102
RTVSPropertyOp26
 70
     1
102
RTVSPropertyOp27
 70
     1
102
RTVSPropertyOp28
 70
     1
102
RTVSPropertyOp29
 70
     1
102
RTVSPropertyOp30
 70
     1
102
RTVSPropertyOp31
 70
     1
102
RTVSPropertyOp32
 70
     1
  0
XRECORD
  5
6F8
102
{ACAD_REACTORS
330
6F7
102
}
330
6F7
100
AcDbXrecord
280
     1
102
RTVSPropertyOp0
 70
     1
102
RTVSPropertyOp1
 70
     1
102
RTVSPropertyOp2
 70
     1
102
RTVSPropertyOp3
 70
     1
102
RTVSPropertyOp4
 70
     1
102
RTVSPropertyOp5
 70
     1
102
RTVSPropertyOp6
 70
     1
102
RTVSPropertyOp7
 70
     1
102
RTVSPropertyOp8
 70
     1
102
RTVSPropertyOp9
 70
     1
102
RTVSPropertyOp10
 70
     1
102
RTVSPropertyOp11
 70
     1
102
RTVSPropertyOp12
 70
     1
102
RTVSPropertyOp13
 70
     1
102
RTVSPropertyOp14
 70
     1
102
RTVSPropertyOp15
 70
     1
102
RTVSPropertyOp16
 70
     1
102
RTVSPropertyOp17
 70
     1
102
RTVSPropertyOp18
 70
     1
102
RTVSPropertyOp19
 70
     1
102
RTVSPropertyOp20
 70
     1
102
RTVSPropertyOp21
 70
     1
102
RTVSPropertyOp22
 70
     1
102
RTVSPropertyOp23
 70
     1
102
RTVSPropertyOp24
 70
     1
102
RTVSPropertyOp25
 70
     1
102
RTVSPropertyOp26
 70
     1
102
RTVSPropertyOp27
 70
     1
102
RTVSPropertyOp28
 70
     1
102
RTVSPropertyOp29
 70
     1
102
RTVSPropertyOp30
 70
     1
102
RTVSPropertyOp31
 70
     1
102
RTVSPropertyOp32
 70
     1
  0
XRECORD
  5
700
102
{ACAD_REACTORS
330
6FF
102
}
330
6FF
100
AcDbXrecord
280
     1
102
RTVSPropertyOp0
 70
     1
102
RTVSPropertyOp1
 70
     1
102
RTVSPropertyOp2
 70
     1
102
RTVSPropertyOp3
 70
     1
102
RTVSPropertyOp4
 70
     1
102
RTVSPropertyOp5
 70
     1
102
RTVSPropertyOp6
 70
     1
102
RTVSPropertyOp7
 70
     1
102
RTVSPropertyOp8
 70
     1
102
RTVSPropertyOp9
 70
     1
102
RTVSPropertyOp10
 70
     1
102
RTVSPropertyOp11
 70
     1
102
RTVSPropertyOp12
 70
     1
102
RTVSPropertyOp13
 70
     1
102
RTVSPropertyOp14
 70
     1
102
RTVSPropertyOp15
 70
     1
102
RTVSPropertyOp16
 70
     1
102
RTVSPropertyOp17
 70
     1
102
RTVSPropertyOp18
 70
     1
102
RTVSPropertyOp19
 70
     1
102
RTVSPropertyOp20
 70
     1
102
RTVSPropertyOp21
 70
     1
102
RTVSPropertyOp22
 70
     1
102
RTVSPropertyOp23
 70
     1
102
RTVSPropertyOp24
 70
     1
102
RTVSPropertyOp25
 70
     1
102
RTVSPropertyOp26
 70
     1
102
RTVSPropertyOp27
 70
     1
102
RTVSPropertyOp28
 70
     1
102
RTVSPropertyOp29
 70
     1
102
RTVSPropertyOp30
 70
     1
102
RTVSPropertyOp31
 70
     1
102
RTVSPropertyOp32
 70
     1
  0
XRECORD
  5
6F2
102
{ACAD_REACTORS
330
6F1
102
}
330
6F1
100
AcDbXrecord
280
     1
102
RTVSPropertyOp0
 70
     1
102
RTVSPropertyOp1
 70
     1
102
RTVSPropertyOp2
 70
     1
102
RTVSPropertyOp3
 70
     1
102
RTVSPropertyOp4
 70
     1
102
RTVSPropertyOp5
 70
     1
102
RTVSPropertyOp6
 70
     1
102
RTVSPropertyOp7
 70
     1
102
RTVSPropertyOp8
 70
     1
102
RTVSPropertyOp9
 70
     1
102
RTVSPropertyOp10
 70
     1
102
RTVSPropertyOp11
 70
     1
102
RTVSPropertyOp12
 70
     1
102
RTVSPropertyOp13
 70
     1
102
RTVSPropertyOp14
 70
     1
102
RTVSPropertyOp15
 70
     1
102
RTVSPropertyOp16
 70
     1
102
RTVSPropertyOp17
 70
     1
102
RTVSPropertyOp18
 70
     1
102
RTVSPropertyOp19
 70
     1
102
RTVSPropertyOp20
 70
     1
102
RTVSPropertyOp21
 70
     1
102
RTVSPropertyOp22
 70
     1
102
RTVSPropertyOp23
 70
     1
102
RTVSPropertyOp24
 70
     1
102
RTVSPropertyOp25
 70
     1
102
RTVSPropertyOp26
 70
     1
102
RTVSPropertyOp27
 70
     1
102
RTVSPropertyOp28
 70
     1
102
RTVSPropertyOp29
 70
     1
102
RTVSPropertyOp30
 70
     1
102
RTVSPropertyOp31
 70
     1
102
RTVSPropertyOp32
 70
     1
  0
XRECORD
  5
6F6
102
{ACAD_REACTORS
330
6F5
102
}
330
6F5
100
AcDbXrecord
280
     1
102
RTVSPropertyOp0
 70
     1
102
RTVSPropertyOp1
 70
     1
102
RTVSPropertyOp2
 70
     1
102
RTVSPropertyOp3
 70
     1
102
RTVSPropertyOp4
 70
     1
102
RTVSPropertyOp5
 70
     1
102
RTVSPropertyOp6
 70
     1
102
RTVSPropertyOp7
 70
     1
102
RTVSPropertyOp8
 70
     1
102
RTVSPropertyOp9
 70
     1
102
RTVSPropertyOp10
 70
     1
102
RTVSPropertyOp11
 70
     1
102
RTVSPropertyOp12
 70
     1
102
RTVSPropertyOp13
 70
     1
102
RTVSPropertyOp14
 70
     1
102
RTVSPropertyOp15
 70
     1
102
RTVSPropertyOp16
 70
     1
102
RTVSPropertyOp17
 70
     1
102
RTVSPropertyOp18
 70
     1
102
RTVSPropertyOp19
 70
     1
102
RTVSPropertyOp20
 70
     1
102
RTVSPropertyOp21
 70
     1
102
RTVSPropertyOp22
 70
     1
102
RTVSPropertyOp23
 70
     1
102
RTVSPropertyOp24
 70
     1
102
RTVSPropertyOp25
 70
     1
102
RTVSPropertyOp26
 70
     1
102
RTVSPropertyOp27
 70
     1
102
RTVSPropertyOp28
 70
     1
102
RTVSPropertyOp29
 70
     1
102
RTVSPropertyOp30
 70
     1
102
RTVSPropertyOp31
 70
     1
102
RTVSPropertyOp32
 70
     1
  0
XRECORD
  5
710
102
{ACAD_REACTORS
330
70F
102
}
330
70F
100
AcDbXrecord
280
     1
102
RTVSPropertyOp0
 70
     0
102
RTVSPropertyOp1
 70
     0
102
RTVSPropertyOp2
 70
     0
102
RTVSPropertyOp3
 70
     0
102
RTVSPropertyOp4
 70
     0
102
RTVSPropertyOp5
 70
     0
102
RTVSPropertyOp6
 70
     0
102
RTVSPropertyOp7
 70
     0
102
RTVSPropertyOp8
 70
     0
102
RTVSPropertyOp9
 70
     0
102
RTVSPropertyOp10
 70
     0
102
RTVSPropertyOp11
 70
     0
102
RTVSPropertyOp12
 70
     0
102
RTVSPropertyOp13
 70
     0
102
RTVSPropertyOp14
 70
     2
102
RTVSPropertyOp15
 70
     0
102
RTVSPropertyOp16
 70
     0
102
RTVSPropertyOp17
 70
     0
102
RTVSPropertyOp18
 70
     0
102
RTVSPropertyOp19
 70
     0
102
RTVSPropertyOp20
 70
     0
102
RTVSPropertyOp21
 70
     0
102
RTVSPropertyOp22
 70
     0
102
RTVSPropertyOp23
 70
     0
102
RTVSPropertyOp24
 70
     0
102
RTVSPropertyOp25
 70
     0
102
RTVSPropertyOp26
 70
     0
102
RTVSPropertyOp27
 70
     0
102
RTVSPropertyOp28
 70
     0
102
RTVSPropertyOp29
 70
     0
102
RTVSPropertyOp30
 70
     0
102
RTVSPropertyOp31
 70
     0
102
RTVSPropertyOp32
 70
     0
  0
XRECORD
  5
6FE
102
{ACAD_REACTORS
330
6FD
102
}
330
6FD
100
AcDbXrecord
280
     1
102
RTVSPropertyOp0
 70
     1
102
RTVSPropertyOp1
 70
     1
102
RTVSPropertyOp2
 70
     1
102
RTVSPropertyOp3
 70
     1
102
RTVSPropertyOp4
 70
     1
102
RTVSPropertyOp5
 70
     1
102
RTVSPropertyOp6
 70
     1
102
RTVSPropertyOp7
 70
     1
102
RTVSPropertyOp8
 70
     1
102
RTVSPropertyOp9
 70
     1
102
RTVSPropertyOp10
 70
     1
102
RTVSPropertyOp11
 70
     1
102
RTVSPropertyOp12
 70
     1
102
RTVSPropertyOp13
 70
     1
102
RTVSPropertyOp14
 70
     1
102
RTVSPropertyOp15
 70
     1
102
RTVSPropertyOp16
 70
     1
102
RTVSPropertyOp17
 70
     1
102
RTVSPropertyOp18
 70
     1
102
RTVSPropertyOp19
 70
     1
102
RTVSPropertyOp20
 70
     1
102
RTVSPropertyOp21
 70
     1
102
RTVSPropertyOp22
 70
     1
102
RTVSPropertyOp23
 70
     1
102
RTVSPropertyOp24
 70
     1
102
RTVSPropertyOp25
 70
     1
102
RTVSPropertyOp26
 70
     1
102
RTVSPropertyOp27
 70
     1
102
RTVSPropertyOp28
 70
     1
102
RTVSPropertyOp29
 70
     1
102
RTVSPropertyOp30
 70
     1
102
RTVSPropertyOp31
 70
     1
102
RTVSPropertyOp32
 70
     1
  0
XRECORD
  5
6E2
102
{ACAD_REACTORS
330
6E1
102
}
330
6E1
100
AcDbXrecord
280
     1
102
RTVSPropertyOp0
 70
     1
102
RTVSPropertyOp1
 70
     1
102
RTVSPropertyOp2
 70
     1
102
RTVSPropertyOp3
 70
     1
102
RTVSPropertyOp4
 70
     1
102
RTVSPropertyOp5
 70
     1
102
RTVSPropertyOp6
 70
     1
102
RTVSPropertyOp7
 70
     1
102
RTVSPropertyOp8
 70
     1
102
RTVSPropertyOp9
 70
     1
102
RTVSPropertyOp10
 70
     1
102
RTVSPropertyOp11
 70
     1
102
RTVSPropertyOp12
 70
     1
102
RTVSPropertyOp13
 70
     1
102
RTVSPropertyOp14
 70
     1
102
RTVSPropertyOp15
 70
     1
102
RTVSPropertyOp16
 70
     1
102
RTVSPropertyOp17
 70
     1
102
RTVSPropertyOp18
 70
     1
102
RTVSPropertyOp19
 70
     1
102
RTVSPropertyOp20
 70
     1
102
RTVSPropertyOp21
 70
     1
102
RTVSPropertyOp22
 70
     1
102
RTVSPropertyOp23
 70
     1
102
RTVSPropertyOp24
 70
     1
102
RTVSPropertyOp25
 70
     1
102
RTVSPropertyOp26
 70
     1
102
RTVSPropertyOp27
 70
     1
102
RTVSPropertyOp28
 70
     1
102
RTVSPropertyOp29
 70
     1
102
RTVSPropertyOp30
 70
     1
102
RTVSPropertyOp31
 70
     1
102
RTVSPropertyOp32
 70
     1
  0
XRECORD
  5
6E4
102
{ACAD_REACTORS
330
6E3
102
}
330
6E3
100
AcDbXrecord
280
     1
102
RTVSPropertyOp0
 70
     1
102
RTVSPropertyOp1
 70
     1
102
RTVSPropertyOp2
 70
     1
102
RTVSPropertyOp3
 70
     1
102
RTVSPropertyOp4
 70
     1
102
RTVSPropertyOp5
 70
     1
102
RTVSPropertyOp6
 70
     1
102
RTVSPropertyOp7
 70
     1
102
RTVSPropertyOp8
 70
     1
102
RTVSPropertyOp9
 70
     1
102
RTVSPropertyOp10
 70
     1
102
RTVSPropertyOp11
 70
     1
102
RTVSPropertyOp12
 70
     1
102
RTVSPropertyOp13
 70
     1
102
RTVSPropertyOp14
 70
     1
102
RTVSPropertyOp15
 70
     1
102
RTVSPropertyOp16
 70
     1
102
RTVSPropertyOp17
 70
     1
102
RTVSPropertyOp18
 70
     1
102
RTVSPropertyOp19
 70
     1
102
RTVSPropertyOp20
 70
     1
102
RTVSPropertyOp21
 70
     1
102
RTVSPropertyOp22
 70
     1
102
RTVSPropertyOp23
 70
     1
102
RTVSPropertyOp24
 70
     1
102
RTVSPropertyOp25
 70
     1
102
RTVSPropertyOp26
 70
     1
102
RTVSPropertyOp27
 70
     1
102
RTVSPropertyOp28
 70
     1
102
RTVSPropertyOp29
 70
     1
102
RTVSPropertyOp30
 70
     1
102
RTVSPropertyOp31
 70
     1
102
RTVSPropertyOp32
 70
     1
  0
XRECORD
  5
6E6
102
{ACAD_REACTORS
330
6E5
102
}
330
6E5
100
AcDbXrecord
280
     1
102
RTVSPropertyOp0
 70
     1
102
RTVSPropertyOp1
 70
     1
102
RTVSPropertyOp2
 70
     1
102
RTVSPropertyOp3
 70
     1
102
RTVSPropertyOp4
 70
     1
102
RTVSPropertyOp5
 70
     1
102
RTVSPropertyOp6
 70
     1
102
RTVSPropertyOp7
 70
     1
102
RTVSPropertyOp8
 70
     1
102
RTVSPropertyOp9
 70
     1
102
RTVSPropertyOp10
 70
     1
102
RTVSPropertyOp11
 70
     1
102
RTVSPropertyOp12
 70
     1
102
RTVSPropertyOp13
 70
     1
102
RTVSPropertyOp14
 70
     1
102
RTVSPropertyOp15
 70
     1
102
RTVSPropertyOp16
 70
     1
102
RTVSPropertyOp17
 70
     1
102
RTVSPropertyOp18
 70
     1
102
RTVSPropertyOp19
 70
     1
102
RTVSPropertyOp20
 70
     1
102
RTVSPropertyOp21
 70
     1
102
RTVSPropertyOp22
 70
     1
102
RTVSPropertyOp23
 70
     1
102
RTVSPropertyOp24
 70
     1
102
RTVSPropertyOp25
 70
     1
102
RTVSPropertyOp26
 70
     1
102
RTVSPropertyOp27
 70
     1
102
RTVSPropertyOp28
 70
     1
102
RTVSPropertyOp29
 70
     1
102
RTVSPropertyOp30
 70
     1
102
RTVSPropertyOp31
 70
     1
102
RTVSPropertyOp32
 70
     1
  0
XRECORD
  5
6E8
102
{ACAD_REACTORS
330
6E7
102
}
330
6E7
100
AcDbXrecord
280
     1
102
RTVSPropertyOp0
 70
     1
102
RTVSPropertyOp1
 70
     1
102
RTVSPropertyOp2
 70
     1
102
RTVSPropertyOp3
 70
     1
102
RTVSPropertyOp4
 70
     1
102
RTVSPropertyOp5
 70
     1
102
RTVSPropertyOp6
 70
     1
102
RTVSPropertyOp7
 70
     1
102
RTVSPropertyOp8
 70
     1
102
RTVSPropertyOp9
 70
     1
102
RTVSPropertyOp10
 70
     1
102
RTVSPropertyOp11
 70
     1
102
RTVSPropertyOp12
 70
     1
102
RTVSPropertyOp13
 70
     1
102
RTVSPropertyOp14
 70
     1
102
RTVSPropertyOp15
 70
     1
102
RTVSPropertyOp16
 70
     1
102
RTVSPropertyOp17
 70
     1
102
RTVSPropertyOp18
 70
     1
102
RTVSPropertyOp19
 70
     1
102
RTVSPropertyOp20
 70
     1
102
RTVSPropertyOp21
 70
     1
102
RTVSPropertyOp22
 70
     1
102
RTVSPropertyOp23
 70
     1
102
RTVSPropertyOp24
 70
     1
102
RTVSPropertyOp25
 70
     1
102
RTVSPropertyOp26
 70
     1
102
RTVSPropertyOp27
 70
     1
102
RTVSPropertyOp28
 70
     1
102
RTVSPropertyOp29
 70
     1
102
RTVSPropertyOp30
 70
     1
102
RTVSPropertyOp31
 70
     1
102
RTVSPropertyOp32
 70
     1
  0
XRECORD
  5
6F0
102
{ACAD_REACTORS
330
6EF
102
}
330
6EF
100
AcDbXrecord
280
     1
102
RTVSPropertyOp0
 70
     1
102
RTVSPropertyOp1
 70
     1
102
RTVSPropertyOp2
 70
     1
102
RTVSPropertyOp3
 70
     1
102
RTVSPropertyOp4
 70
     1
102
RTVSPropertyOp5
 70
     1
102
RTVSPropertyOp6
 70
     1
102
RTVSPropertyOp7
 70
     1
102
RTVSPropertyOp8
 70
     1
102
RTVSPropertyOp9
 70
     1
102
RTVSPropertyOp10
 70
     1
102
RTVSPropertyOp11
 70
     1
102
RTVSPropertyOp12
 70
     1
102
RTVSPropertyOp13
 70
     1
102
RTVSPropertyOp14
 70
     1
102
RTVSPropertyOp15
 70
     1
102
RTVSPropertyOp16
 70
     1
102
RTVSPropertyOp17
 70
     1
102
RTVSPropertyOp18
 70
     1
102
RTVSPropertyOp19
 70
     1
102
RTVSPropertyOp20
 70
     1
102
RTVSPropertyOp21
 70
     1
102
RTVSPropertyOp22
 70
     1
102
RTVSPropertyOp23
 70
     1
102
RTVSPropertyOp24
 70
     1
102
RTVSPropertyOp25
 70
     1
102
RTVSPropertyOp26
 70
     1
102
RTVSPropertyOp27
 70
     1
102
RTVSPropertyOp28
 70
     1
102
RTVSPropertyOp29
 70
     1
102
RTVSPropertyOp30
 70
     1
102
RTVSPropertyOp31
 70
     1
102
RTVSPropertyOp32
 70
     1
  0
XRECORD
  5
70C
102
{ACAD_REACTORS
330
70B
102
}
330
70B
100
AcDbXrecord
280
     1
102
RTVSPropertyOp0
 70
     0
102
RTVSPropertyOp1
 70
     0
102
RTVSPropertyOp2
 70
     0
102
RTVSPropertyOp3
 70
     0
102
RTVSPropertyOp4
 70
     0
102
RTVSPropertyOp5
 70
     0
102
RTVSPropertyOp6
 70
     0
102
RTVSPropertyOp7
 70
     0
102
RTVSPropertyOp8
 70
     0
102
RTVSPropertyOp9
 70
     0
102
RTVSPropertyOp10
 70
     0
102
RTVSPropertyOp11
 70
     0
102
RTVSPropertyOp12
 70
     0
102
RTVSPropertyOp13
 70
     0
102
RTVSPropertyOp14
 70
     2
102
RTVSPropertyOp15
 70
     0
102
RTVSPropertyOp16
 70
     0
102
RTVSPropertyOp17
 70
     0
102
RTVSPropertyOp18
 70
     0
102
RTVSPropertyOp19
 70
     0
102
RTVSPropertyOp20
 70
     0
102
RTVSPropertyOp21
 70
     0
102
RTVSPropertyOp22
 70
     0
102
RTVSPropertyOp23
 70
     0
102
RTVSPropertyOp24
 70
     0
102
RTVSPropertyOp25
 70
     0
102
RTVSPropertyOp26
 70
     0
102
RTVSPropertyOp27
 70
     0
102
RTVSPropertyOp28
 70
     0
102
RTVSPropertyOp29
 70
     0
102
RTVSPropertyOp30
 70
     0
102
RTVSPropertyOp31
 70
     0
102
RTVSPropertyOp32
 70
     0
  0
XRECORD
  5
6FC
102
{ACAD_REACTORS
330
6FB
102
}
330
6FB
100
AcDbXrecord
280
     1
102
RTVSPropertyOp0
 70
     1
102
RTVSPropertyOp1
 70
     1
102
RTVSPropertyOp2
 70
     1
102
RTVSPropertyOp3
 70
     1
102
RTVSPropertyOp4
 70
     1
102
RTVSPropertyOp5
 70
     1
102
RTVSPropertyOp6
 70
     1
102
RTVSPropertyOp7
 70
     1
102
RTVSPropertyOp8
 70
     1
102
RTVSPropertyOp9
 70
     1
102
RTVSPropertyOp10
 70
     1
102
RTVSPropertyOp11
 70
     1
102
RTVSPropertyOp12
 70
     1
102
RTVSPropertyOp13
 70
     1
102
RTVSPropertyOp14
 70
     1
102
RTVSPropertyOp15
 70
     1
102
RTVSPropertyOp16
 70
     1
102
RTVSPropertyOp17
 70
     1
102
RTVSPropertyOp18
 70
     1
102
RTVSPropertyOp19
 70
     1
102
RTVSPropertyOp20
 70
     1
102
RTVSPropertyOp21
 70
     1
102
RTVSPropertyOp22
 70
     1
102
RTVSPropertyOp23
 70
     1
102
RTVSPropertyOp24
 70
     1
102
RTVSPropertyOp25
 70
     1
102
RTVSPropertyOp26
 70
     1
102
RTVSPropertyOp27
 70
     1
102
RTVSPropertyOp28
 70
     1
102
RTVSPropertyOp29
 70
     1
102
RTVSPropertyOp30
 70
     1
102
RTVSPropertyOp31
 70
     1
102
RTVSPropertyOp32
 70
     1
  0
XRECORD
  5
70E
102
{ACAD_REACTORS
330
70D
102
}
330
70D
100
AcDbXrecord
280
     1
102
RTVSPropertyOp0
 70
     0
102
RTVSPropertyOp1
 70
     0
102
RTVSPropertyOp2
 70
     0
102
RTVSPropertyOp3
 70
     0
102
RTVSPropertyOp4
 70
     0
102
RTVSPropertyOp5
 70
     0
102
RTVSPropertyOp6
 70
     0
102
RTVSPropertyOp7
 70
     0
102
RTVSPropertyOp8
 70
     0
102
RTVSPropertyOp9
 70
     0
102
RTVSPropertyOp10
 70
     0
102
RTVSPropertyOp11
 70
     0
102
RTVSPropertyOp12
 70
     0
102
RTVSPropertyOp13
 70
     0
102
RTVSPropertyOp14
 70
     2
102
RTVSPropertyOp15
 70
     0
102
RTVSPropertyOp16
 70
     0
102
RTVSPropertyOp17
 70
     0
102
RTVSPropertyOp18
 70
     0
102
RTVSPropertyOp19
 70
     0
102
RTVSPropertyOp20
 70
     0
102
RTVSPropertyOp21
 70
     0
102
RTVSPropertyOp22
 70
     0
102
RTVSPropertyOp23
 70
     0
102
RTVSPropertyOp24
 70
     0
102
RTVSPropertyOp25
 70
     0
102
RTVSPropertyOp26
 70
     0
102
RTVSPropertyOp27
 70
     0
102
RTVSPropertyOp28
 70
     0
102
RTVSPropertyOp29
 70
     0
102
RTVSPropertyOp30
 70
     0
102
RTVSPropertyOp31
 70
     0
102
RTVSPropertyOp32
 70
     0
  0
XRECORD
  5
6F4
102
{ACAD_REACTORS
330
6F3
102
}
330
6F3
100
AcDbXrecord
280
     1
102
RTVSPropertyOp0
 70
     1
102
RTVSPropertyOp1
 70
     1
102
RTVSPropertyOp2
 70
     1
102
RTVSPropertyOp3
 70
     1
102
RTVSPropertyOp4
 70
     1
102
RTVSPropertyOp5
 70
     1
102
RTVSPropertyOp6
 70
     1
102
RTVSPropertyOp7
 70
     1
102
RTVSPropertyOp8
 70
     1
102
RTVSPropertyOp9
 70
     1
102
RTVSPropertyOp10
 70
     1
102
RTVSPropertyOp11
 70
     1
102
RTVSPropertyOp12
 70
     1
102
RTVSPropertyOp13
 70
     1
102
RTVSPropertyOp14
 70
     1
102
RTVSPropertyOp15
 70
     1
102
RTVSPropertyOp16
 70
     1
102
RTVSPropertyOp17
 70
     1
102
RTVSPropertyOp18
 70
     1
102
RTVSPropertyOp19
 70
     1
102
RTVSPropertyOp20
 70
     1
102
RTVSPropertyOp21
 70
     1
102
RTVSPropertyOp22
 70
     1
102
RTVSPropertyOp23
 70
     1
102
RTVSPropertyOp24
 70
     1
102
RTVSPropertyOp25
 70
     1
102
RTVSPropertyOp26
 70
     1
102
RTVSPropertyOp27
 70
     1
102
RTVSPropertyOp28
 70
     1
102
RTVSPropertyOp29
 70
     1
102
RTVSPropertyOp30
 70
     1
102
RTVSPropertyOp31
 70
     1
102
RTVSPropertyOp32
 70
     1
  0
XRECORD
  5
70A
102
{ACAD_REACTORS
330
709
102
}
330
709
100
AcDbXrecord
280
     1
102
RTVSPropertyOp0
 70
     1
102
RTVSPropertyOp1
 70
     1
102
RTVSPropertyOp2
 70
     1
102
RTVSPropertyOp3
 70
     1
102
RTVSPropertyOp4
 70
     1
102
RTVSPropertyOp5
 70
     1
102
RTVSPropertyOp6
 70
     1
102
RTVSPropertyOp7
 70
     1
102
RTVSPropertyOp8
 70
     1
102
RTVSPropertyOp9
 70
     1
102
RTVSPropertyOp10
 70
     1
102
RTVSPropertyOp11
 70
     1
102
RTVSPropertyOp12
 70
     1
102
RTVSPropertyOp13
 70
     1
102
RTVSPropertyOp14
 70
     1
102
RTVSPropertyOp15
 70
     1
102
RTVSPropertyOp16
 70
     1
102
RTVSPropertyOp17
 70
     1
102
RTVSPropertyOp18
 70
     1
102
RTVSPropertyOp19
 70
     1
102
RTVSPropertyOp20
 70
     1
102
RTVSPropertyOp21
 70
     1
102
RTVSPropertyOp22
 70
     1
102
RTVSPropertyOp23
 70
     1
102
RTVSPropertyOp24
 70
     1
102
RTVSPropertyOp25
 70
     1
102
RTVSPropertyOp26
 70
     1
102
RTVSPropertyOp27
 70
     1
102
RTVSPropertyOp28
 70
     1
102
RTVSPropertyOp29
 70
     1
102
RTVSPropertyOp30
 70
     1
102
RTVSPropertyOp31
 70
     1
102
RTVSPropertyOp32
 70
     1
  0
XRECORD
  5
708
102
{ACAD_REACTORS
330
707
102
}
330
707
100
AcDbXrecord
280
     1
102
RTVSPropertyOp0
 70
     1
102
RTVSPropertyOp1
 70
     1
102
RTVSPropertyOp2
 70
     1
102
RTVSPropertyOp3
 70
     1
102
RTVSPropertyOp4
 70
     1
102
RTVSPropertyOp5
 70
     1
102
RTVSPropertyOp6
 70
     1
102
RTVSPropertyOp7
 70
     1
102
RTVSPropertyOp8
 70
     1
102
RTVSPropertyOp9
 70
     1
102
RTVSPropertyOp10
 70
     1
102
RTVSPropertyOp11
 70
     1
102
RTVSPropertyOp12
 70
     1
102
RTVSPropertyOp13
 70
     1
102
RTVSPropertyOp14
 70
     1
102
RTVSPropertyOp15
 70
     1
102
RTVSPropertyOp16
 70
     1
102
RTVSPropertyOp17
 70
     1
102
RTVSPropertyOp18
 70
     1
102
RTVSPropertyOp19
 70
     1
102
RTVSPropertyOp20
 70
     1
102
RTVSPropertyOp21
 70
     1
102
RTVSPropertyOp22
 70
     1
102
RTVSPropertyOp23
 70
     1
102
RTVSPropertyOp24
 70
     1
102
RTVSPropertyOp25
 70
     1
102
RTVSPropertyOp26
 70
     1
102
RTVSPropertyOp27
 70
     1
102
RTVSPropertyOp28
 70
     1
102
RTVSPropertyOp29
 70
     1
102
RTVSPropertyOp30
 70
     1
102
RTVSPropertyOp31
 70
     1
102
RTVSPropertyOp32
 70
     1
  0
XRECORD
  5
702
102
{ACAD_REACTORS
330
701
102
}
330
701
100
AcDbXrecord
280
     1
102
RTVSPropertyOp0
 70
     1
102
RTVSPropertyOp1
 70
     1
102
RTVSPropertyOp2
 70
     1
102
RTVSPropertyOp3
 70
     1
102
RTVSPropertyOp4
 70
     1
102
RTVSPropertyOp5
 70
     1
102
RTVSPropertyOp6
 70
     1
102
RTVSPropertyOp7
 70
     1
102
RTVSPropertyOp8
 70
     1
102
RTVSPropertyOp9
 70
     1
102
RTVSPropertyOp10
 70
     1
102
RTVSPropertyOp11
 70
     1
102
RTVSPropertyOp12
 70
     1
102
RTVSPropertyOp13
 70
     1
102
RTVSPropertyOp14
 70
     1
102
RTVSPropertyOp15
 70
     1
102
RTVSPropertyOp16
 70
     1
102
RTVSPropertyOp17
 70
     1
102
RTVSPropertyOp18
 70
     1
102
RTVSPropertyOp19
 70
     1
102
RTVSPropertyOp20
 70
     1
102
RTVSPropertyOp21
 70
     1
102
RTVSPropertyOp22
 70
     1
102
RTVSPropertyOp23
 70
     1
102
RTVSPropertyOp24
 70
     1
102
RTVSPropertyOp25
 70
     1
102
RTVSPropertyOp26
 70
     1
102
RTVSPropertyOp27
 70
     1
102
RTVSPropertyOp28
 70
     1
102
RTVSPropertyOp29
 70
     1
102
RTVSPropertyOp30
 70
     1
102
RTVSPropertyOp31
 70
     1
102
RTVSPropertyOp32
 70
     1
  0
XRECORD
  5
704
102
{ACAD_REACTORS
330
703
102
}
330
703
100
AcDbXrecord
280
     1
102
RTVSPropertyOp0
 70
     1
102
RTVSPropertyOp1
 70
     1
102
RTVSPropertyOp2
 70
     1
102
RTVSPropertyOp3
 70
     1
102
RTVSPropertyOp4
 70
     1
102
RTVSPropertyOp5
 70
     1
102
RTVSPropertyOp6
 70
     1
102
RTVSPropertyOp7
 70
     1
102
RTVSPropertyOp8
 70
     1
102
RTVSPropertyOp9
 70
     1
102
RTVSPropertyOp10
 70
     1
102
RTVSPropertyOp11
 70
     1
102
RTVSPropertyOp12
 70
     1
102
RTVSPropertyOp13
 70
     1
102
RTVSPropertyOp14
 70
     1
102
RTVSPropertyOp15
 70
     1
102
RTVSPropertyOp16
 70
     1
102
RTVSPropertyOp17
 70
     1
102
RTVSPropertyOp18
 70
     1
102
RTVSPropertyOp19
 70
     1
102
RTVSPropertyOp20
 70
     1
102
RTVSPropertyOp21
 70
     1
102
RTVSPropertyOp22
 70
     1
102
RTVSPropertyOp23
 70
     1
102
RTVSPropertyOp24
 70
     1
102
RTVSPropertyOp25
 70
     1
102
RTVSPropertyOp26
 70
     1
102
RTVSPropertyOp27
 70
     1
102
RTVSPropertyOp28
 70
     1
102
RTVSPropertyOp29
 70
     1
102
RTVSPropertyOp30
 70
     1
102
RTVSPropertyOp31
 70
     1
102
RTVSPropertyOp32
 70
     1
  0
XRECORD
  5
6FA
102
{ACAD_REACTORS
330
6F9
102
}
330
6F9
100
AcDbXrecord
280
     1
102
RTVSPropertyOp0
 70
     1
102
RTVSPropertyOp1
 70
     1
102
RTVSPropertyOp2
 70
     1
102
RTVSPropertyOp3
 70
     1
102
RTVSPropertyOp4
 70
     1
102
RTVSPropertyOp5
 70
     1
102
RTVSPropertyOp6
 70
     1
102
RTVSPropertyOp7
 70
     1
102
RTVSPropertyOp8
 70
     1
102
RTVSPropertyOp9
 70
     1
102
RTVSPropertyOp10
 70
     1
102
RTVSPropertyOp11
 70
     1
102
RTVSPropertyOp12
 70
     1
102
RTVSPropertyOp13
 70
     1
102
RTVSPropertyOp14
 70
     1
102
RTVSPropertyOp15
 70
     1
102
RTVSPropertyOp16
 70
     1
102
RTVSPropertyOp17
 70
     1
102
RTVSPropertyOp18
 70
     1
102
RTVSPropertyOp19
 70
     1
102
RTVSPropertyOp20
 70
     1
102
RTVSPropertyOp21
 70
     1
102
RTVSPropertyOp22
 70
     1
102
RTVSPropertyOp23
 70
     1
102
RTVSPropertyOp24
 70
     1
102
RTVSPropertyOp25
 70
     1
102
RTVSPropertyOp26
 70
     1
102
RTVSPropertyOp27
 70
     1
102
RTVSPropertyOp28
 70
     1
102
RTVSPropertyOp29
 70
     1
102
RTVSPropertyOp30
 70
     1
102
RTVSPropertyOp31
 70
     1
102
RTVSPropertyOp32
 70
     1
  0
XRECORD
  5
6EE
102
{ACAD_REACTORS
330
6ED
102
}
330
6ED
100
AcDbXrecord
280
     1
102
RTVSPropertyOp0
 70
     1
102
RTVSPropertyOp1
 70
     1
102
RTVSPropertyOp2
 70
     1
102
RTVSPropertyOp3
 70
     1
102
RTVSPropertyOp4
 70
     1
102
RTVSPropertyOp5
 70
     1
102
RTVSPropertyOp6
 70
     1
102
RTVSPropertyOp7
 70
     1
102
RTVSPropertyOp8
 70
     1
102
RTVSPropertyOp9
 70
     1
102
RTVSPropertyOp10
 70
     1
102
RTVSPropertyOp11
 70
     1
102
RTVSPropertyOp12
 70
     1
102
RTVSPropertyOp13
 70
     1
102
RTVSPropertyOp14
 70
     1
102
RTVSPropertyOp15
 70
     1
102
RTVSPropertyOp16
 70
     1
102
RTVSPropertyOp17
 70
     1
102
RTVSPropertyOp18
 70
     1
102
RTVSPropertyOp19
 70
     1
102
RTVSPropertyOp20
 70
     1
102
RTVSPropertyOp21
 70
     1
102
RTVSPropertyOp22
 70
     1
102
RTVSPropertyOp23
 70
     1
102
RTVSPropertyOp24
 70
     1
102
RTVSPropertyOp25
 70
     1
102
RTVSPropertyOp26
 70
     1
102
RTVSPropertyOp27
 70
     1
102
RTVSPropertyOp28
 70
     1
102
RTVSPropertyOp29
 70
     1
102
RTVSPropertyOp30
 70
     1
102
RTVSPropertyOp31
 70
     1
102
RTVSPropertyOp32
 70
     1
  0
XRECORD
  5
706
102
{ACAD_REACTORS
330
705
102
}
330
705
100
AcDbXrecord
280
     1
102
RTVSPropertyOp0
 70
     1
102
RTVSPropertyOp1
 70
     1
102
RTVSPropertyOp2
 70
     1
102
RTVSPropertyOp3
 70
     1
102
RTVSPropertyOp4
 70
     1
102
RTVSPropertyOp5
 70
     1
102
RTVSPropertyOp6
 70
     1
102
RTVSPropertyOp7
 70
     1
102
RTVSPropertyOp8
 70
     1
102
RTVSPropertyOp9
 70
     1
102
RTVSPropertyOp10
 70
     1
102
RTVSPropertyOp11
 70
     1
102
RTVSPropertyOp12
 70
     1
102
RTVSPropertyOp13
 70
     1
102
RTVSPropertyOp14
 70
     1
102
RTVSPropertyOp15
 70
     1
102
RTVSPropertyOp16
 70
     1
102
RTVSPropertyOp17
 70
     1
102
RTVSPropertyOp18
 70
     1
102
RTVSPropertyOp19
 70
     1
102
RTVSPropertyOp20
 70
     1
102
RTVSPropertyOp21
 70
     1
102
RTVSPropertyOp22
 70
     1
102
RTVSPropertyOp23
 70
     1
102
RTVSPropertyOp24
 70
     1
102
RTVSPropertyOp25
 70
     1
102
RTVSPropertyOp26
 70
     1
102
RTVSPropertyOp27
 70
     1
102
RTVSPropertyOp28
 70
     1
102
RTVSPropertyOp29
 70
     1
102
RTVSPropertyOp30
 70
     1
102
RTVSPropertyOp31
 70
     1
102
RTVSPropertyOp32
 70
     1
  0
ENDSEC
  0
EOF
