  0
SECTION
  2
HEADER
  9
$ACADVER
  1
AC1015
  9
$ACADMAINTVER
 70
    20
  9
$DWGCODEPAGE
  3
ANSI_932
  9
$INSBASE
 10
0.0
 20
0.0
 30
0.0
  9
$EXTMIN
 10
-234.613077
 20
-112.46397
 30
0.0
  9
$EXTMAX
 10
305.4190551499995
 20
164.6698272562372
 30
0.0
  9
$LIMMIN
 10
-234.614083
 20
-112.464974
  9
$LIMMAX
 10
170.413781
 20
164.537026
  9
$ORTHOMODE
 70
     1
  9
$REGENMODE
 70
     1
  9
$FILLMODE
 70
     1
  9
$QTEXTMODE
 70
     0
  9
$MIRRTEXT
 70
     0
  9
$LTSCALE
 40
6.750430999999997
  9
$ATTMODE
 70
     1
  9
$TEXTSIZE
 40
3.2
  9
$TRACEWID
 40
0.05
  9
$TEXTSTYLE
  7
高3.2
  9
$CLAYER
  8
0
  9
$CELTYPE
  6
ByLayer
  9
$CECOLOR
 62
   256
  9
$CELTSCALE
 40
1.0
  9
$DISPSILH
 70
     0
  9
$DIMSCALE
 40
1.0
  9
$DIMASZ
 40
2.5
  9
$DIMEXO
 40
0.25
  9
$DIMDLI
 40
0.2
  9
$DIMRND
 40
0.0
  9
$DIMDLE
 40
0.0
  9
$DIMEXE
 40
1.25
  9
$DIMTP
 40
0.0
  9
$DIMTM
 40
0.0
  9
$DIMTXT
 40
3.0
  9
$DIMCEN
 40
0.0
  9
$DIMTSZ
 40
0.0
  9
$DIMTOL
 70
     0
  9
$DIMLIM
 70
     0
  9
$DIMTIH
 70
     0
  9
$DIMTOH
 70
     0
  9
$DIMSE1
 70
     0
  9
$DIMSE2
 70
     0
  9
$DIMTAD
 70
     3
  9
$DIMZIN
 70
     8
  9
$DIMBLK
  1
Open30
  9
$DIMASO
 70
     1
  9
$DIMSHO
 70
     1
  9
$DIMPOST
  1

  9
$DIMAPOST
  1

  9
$DIMALT
 70
     0
  9
$DIMALTD
 70
     3
  9
$DIMALTF
 40
0.03937007874016
  9
$DIMLFAC
 40
1.0
  9
$DIMTOFL
 70
     1
  9
$DIMTVP
 40
0.0
  9
$DIMTIX
 70
     0
  9
$DIMSOXD
 70
     0
  9
$DIMSAH
 70
     0
  9
$DIMBLK1
  1

  9
$DIMBLK2
  1

  9
$DIMSTYLE
  2
FREE
  9
$DIMCLRD
 70
     0
  9
$DIMCLRE
 70
     0
  9
$DIMCLRT
 70
     4
  9
$DIMTFAC
 40
1.0
  9
$DIMGAP
 40
0.625
  9
$DIMJUST
 70
     0
  9
$DIMSD1
 70
     0
  9
$DIMSD2
 70
     0
  9
$DIMTOLJ
 70
     0
  9
$DIMTZIN
 70
     8
  9
$DIMALTZ
 70
     0
  9
$DIMALTTZ
 70
     0
  9
$DIMUPT
 70
     1
  9
$DIMDEC
 70
     2
  9
$DIMTDEC
 70
     2
  9
$DIMALTU
 70
     2
  9
$DIMALTTD
 70
     3
  9
$DIMTXSTY
  7
STANDARD
  9
$DIMAUNIT
 70
     0
  9
$DIMADEC
 70
     1
  9
$DIMALTRND
 40
0.0
  9
$DIMAZIN
 70
     2
  9
$DIMDSEP
 70
    46
  9
$DIMATFIT
 70
     0
  9
$DIMFRAC
 70
     0
  9
$DIMLDRBLK
  1
Open30
  9
$DIMLUNIT
 70
     2
  9
$DIMLWD
 70
    -2
  9
$DIMLWE
 70
    -2
  9
$DIMTMOVE
 70
     0
  9
$LUNITS
 70
     2
  9
$LUPREC
 70
     4
  9
$SKETCHINC
 40
0.1
  9
$FILLETRAD
 40
10.0
  9
$AUNITS
 70
     0
  9
$AUPREC
 70
     0
  9
$MENU
  1
.
  9
$ELEVATION
 40
0.0
  9
$PELEVATION
 40
0.0
  9
$THICKNESS
 40
0.0
  9
$LIMCHECK
 70
     0
  9
$CHAMFERA
 40
0.0
  9
$CHAMFERB
 40
0.0
  9
$CHAMFERC
 40
0.0
  9
$CHAMFERD
 40
0.0
  9
$SKPOLY
 70
     0
  9
$TDCREATE
 40
2455469.458989433
  9
$TDUCREATE
 40
2455469.083989433
  9
$TDUPDATE
 40
2460251.677655243
  9
$TDUUPDATE
 40
2460251.302655243
  9
$TDINDWG
 40
0.1949331713
  9
$TDUSRTIMER
 40
0.1949281366
  9
$USRTIMER
 70
     1
  9
$ANGBASE
 50
0.0
  9
$ANGDIR
 70
     0
  9
$PDMODE
 70
     0
  9
$PDSIZE
 40
0.0
  9
$PLINEWID
 40
0.0
  9
$SPLFRAME
 70
     0
  9
$SPLINETYPE
 70
     6
  9
$SPLINESEGS
 70
     8
  9
$HANDSEED
  5
106E
  9
$SURFTAB1
 70
     6
  9
$SURFTAB2
 70
     6
  9
$SURFTYPE
 70
     6
  9
$SURFU
 70
     6
  9
$SURFV
 70
     6
  9
$UCSBASE
  2

  9
$UCSNAME
  2

  9
$UCSORG
 10
0.0
 20
0.0
 30
0.0
  9
$UCSXDIR
 10
1.0
 20
0.0
 30
0.0
  9
$UCSYDIR
 10
0.0
 20
1.0
 30
0.0
  9
$UCSORTHOREF
  2

  9
$UCSORTHOVIEW
 70
     0
  9
$UCSORGTOP
 10
0.0
 20
0.0
 30
0.0
  9
$UCSORGBOTTOM
 10
0.0
 20
0.0
 30
0.0
  9
$UCSORGLEFT
 10
0.0
 20
0.0
 30
0.0
  9
$UCSORGRIGHT
 10
0.0
 20
0.0
 30
0.0
  9
$UCSORGFRONT
 10
0.0
 20
0.0
 30
0.0
  9
$UCSORGBACK
 10
0.0
 20
0.0
 30
0.0
  9
$PUCSBASE
  2

  9
$PUCSNAME
  2

  9
$PUCSORG
 10
0.0
 20
0.0
 30
0.0
  9
$PUCSXDIR
 10
1.0
 20
0.0
 30
0.0
  9
$PUCSYDIR
 10
0.0
 20
1.0
 30
0.0
  9
$PUCSORTHOREF
  2

  9
$PUCSORTHOVIEW
 70
     0
  9
$PUCSORGTOP
 10
0.0
 20
0.0
 30
0.0
  9
$PUCSORGBOTTOM
 10
0.0
 20
0.0
 30
0.0
  9
$PUCSORGLEFT
 10
0.0
 20
0.0
 30
0.0
  9
$PUCSORGRIGHT
 10
0.0
 20
0.0
 30
0.0
  9
$PUCSORGFRONT
 10
0.0
 20
0.0
 30
0.0
  9
$PUCSORGBACK
 10
0.0
 20
0.0
 30
0.0
  9
$USERI1
 70
     0
  9
$USERI2
 70
     0
  9
$USERI3
 70
     0
  9
$USERI4
 70
     0
  9
$USERI5
 70
     0
  9
$USERR1
 40
0.0
  9
$USERR2
 40
0.0
  9
$USERR3
 40
0.0
  9
$USERR4
 40
0.0
  9
$USERR5
 40
0.0
  9
$WORLDVIEW
 70
     1
  9
$SHADEDGE
 70
     3
  9
$SHADEDIF
 70
    70
  9
$TILEMODE
 70
     1
  9
$MAXACTVP
 70
    64
  9
$PINSBASE
 10
0.0
 20
0.0
 30
0.0
  9
$PLIMCHECK
 70
     0
  9
$PEXTMIN
 10
1.000000000000000E+20
 20
1.000000000000000E+20
 30
1.000000000000000E+20
  9
$PEXTMAX
 10
-1.000000000000000E+20
 20
-1.000000000000000E+20
 30
-1.000000000000000E+20
  9
$PLIMMIN
 10
0.0
 20
0.0
  9
$PLIMMAX
 10
12.0
 20
9.0
  9
$UNITMODE
 70
     0
  9
$VISRETAIN
 70
     1
  9
$PLINEGEN
 70
     0
  9
$PSLTSCALE
 70
     1
  9
$TREEDEPTH
 70
  3020
  9
$CMLSTYLE
  2
Standard
  9
$CMLJUST
 70
     0
  9
$CMLSCALE
 40
1.0
  9
$PROXYGRAPHICS
 70
     1
  9
$MEASUREMENT
 70
     0
  9
$CELWEIGHT
370
    -1
  9
$ENDCAPS
280
     0
  9
$JOINSTYLE
280
     0
  9
$LWDISPLAY
290
     0
  9
$INSUNITS
 70
     0
  9
$HYPERLINKBASE
  1

  9
$STYLESHEET
  1

  9
$XEDIT
290
     1
  9
$CEPSNTYPE
380
     0
  9
$PSTYLEMODE
290
     1
  9
$FINGERPRINTGUID
  2
{F861EE3C-7200-4A60-9EA9-B14C4F96ED2B}
  9
$VERSIONGUID
  2
{7625F81E-86D8-41D1-9429-03BBA8E44888}
  9
$EXTNAMES
290
     1
  9
$PSVPSCALE
 40
0.0
  9
$OLESTARTUP
290
     0
  0
ENDSEC
  0
SECTION
  2
CLASSES
  0
CLASS
  1
ACDBDICTIONARYWDFLT
  2
AcDbDictionaryWithDefault
  3
ObjectDBX Classes
 90
        0
280
     0
281
     0
  0
CLASS
  1
MATERIAL
  2
AcDbMaterial
  3
ObjectDBX Classes
 90
     1153
280
     0
281
     0
  0
CLASS
  1
VISUALSTYLE
  2
AcDbVisualStyle
  3
ObjectDBX Classes
 90
     4095
280
     0
281
     0
  0
CLASS
  1
TABLESTYLE
  2
AcDbTableStyle
  3
ObjectDBX Classes
 90
     4095
280
     0
281
     0
  0
CLASS
  1
SORTENTSTABLE
  2
AcDbSortentsTable
  3
ObjectDBX Classes
 90
        0
280
     0
281
     0
  0
CLASS
  1
DICTIONARYVAR
  2
AcDbDictionaryVar
  3
ObjectDBX Classes
 90
        0
280
     0
281
     0
  0
CLASS
  1
ACDBPLACEHOLDER
  2
AcDbPlaceHolder
  3
ObjectDBX Classes
 90
        0
280
     0
281
     0
  0
CLASS
  1
LAYOUT
  2
AcDbLayout
  3
ObjectDBX Classes
 90
        0
280
     0
281
     0
  0
CLASS
  1
SCALE
  2
AcDbScale
  3
ObjectDBX Classes
 90
     1153
280
     0
281
     0
  0
CLASS
  1
MLEADERSTYLE
  2
AcDbMLeaderStyle
  3
ACDB_MLEADERSTYLE_CLASS
 90
     4095
280
     0
281
     0
  0
CLASS
  1
CELLSTYLEMAP
  2
AcDbCellStyleMap
  3
ObjectDBX Classes
 90
     1152
280
     0
281
     0
  0
CLASS
  1
AEC_REFEDIT_STATUS_TRACKER
  2
AecDbRefEditStatusTracker
  3
AecArchBase60|Product Desc: Autodesk Architectural Desktop 2007 |Company: Autodesk,Inc. |WEB Address: www.autodesk.com
 90
      129
280
     0
281
     0
  0
CLASS
  1
NPOCOLLECTION
  2
AcDbImpNonPersistentObjectsCollection
  3
ObjectDBX Classes
 90
     1153
280
     0
281
     0
  0
ENDSEC
  0
SECTION
  2
TABLES
  0
TABLE
  2
VPORT
  5
8
330
0
100
AcDbSymbolTable
 70
     1
  0
VPORT
  5
56
330
8
100
AcDbSymbolTableRecord
100
AcDbViewportTableRecord
  2
*Active
 70
     0
 10
0.0
 20
0.0
 11
1.0
 21
1.0
 12
-43.2283993510872
 22
4.815979713189904
 13
0.0
 23
0.0
 14
1.0
 24
1.0
 15
0.0
 25
0.0
 16
0.0
 26
0.0
 36
1.0
 17
0.0
 27
0.0
 37
0.0
 40
690.1014490357153
 41
1.530324400564174
 42
50.0
 43
0.0
 44
0.0
 50
0.0
 51
0.0
 71
     0
 72
  1000
 73
     1
 74
     1
 75
     0
 76
     0
 77
     0
 78
     0
281
     0
 65
     1
110
0.0
120
0.0
130
0.0
111
1.0
121
0.0
131
0.0
112
0.0
122
1.0
132
0.0
 79
     0
146
0.0
  0
ENDTAB
  0
TABLE
  2
LTYPE
  5
5
330
0
100
AcDbSymbolTable
 70
     2
  0
LTYPE
  5
28
330
5
100
AcDbSymbolTableRecord
100
AcDbLinetypeTableRecord
  2
ByBlock
 70
     0
  3

 72
    65
 73
     0
 40
0.0
  0
LTYPE
  5
29
330
5
100
AcDbSymbolTableRecord
100
AcDbLinetypeTableRecord
  2
ByLayer
 70
     0
  3

 72
    65
 73
     0
 40
0.0
  0
LTYPE
  5
2A
330
5
100
AcDbSymbolTableRecord
100
AcDbLinetypeTableRecord
  2
CONTINUOUS
 70
     0
  3
Solid-line
 72
    65
 73
     0
 40
0.0
  0
ENDTAB
  0
TABLE
  2
LAYER
  5
2
102
{ACAD_XDICTIONARY
360
47B
102
}
330
0
100
AcDbSymbolTable
 70
     2
  0
LAYER
  5
25
102
{ACAD_XDICTIONARY
360
8AB
102
}
330
2
100
AcDbSymbolTableRecord
100
AcDbLayerTableRecord
  2
0
 70
     0
 62
     7
  6
CONTINUOUS
370
    -3
390
F
  0
LAYER
  5
46D
330
2
100
AcDbSymbolTableRecord
100
AcDbLayerTableRecord
  2
Defpoints
 70
     0
 62
     7
  6
CONTINUOUS
290
     0
370
    -3
390
F
  0
ENDTAB
  0
TABLE
  2
STYLE
  5
3
330
0
100
AcDbSymbolTable
 70
     6
  0
STYLE
  5
26
330
3
100
AcDbSymbolTableRecord
100
AcDbTextStyleTableRecord
  2
STANDARD
 70
     0
 40
0.0
 41
1.0
 50
0.0
 71
     0
 42
0.2
  3
TXT
  4
BIGFONT
  0
STYLE
  5
46E
330
3
100
AcDbSymbolTableRecord
100
AcDbTextStyleTableRecord
  2
高3.2
 70
     0
 40
3.2
 41
1.0
 50
0.0
 71
     0
 42
3.2
  3
txt.shx
  4
bigfont.shx
  0
STYLE
  5
46F
330
3
100
AcDbSymbolTableRecord
100
AcDbTextStyleTableRecord
  2
高6.3
 70
     0
 40
6.299999999999998
 41
1.0
 50
0.0
 71
     0
 42
6.299999999999998
  3
txt.shx
  4
bigfont.shx
  0
STYLE
  5
471
330
3
100
AcDbSymbolTableRecord
100
AcDbTextStyleTableRecord
  2
高4.5
 70
     0
 40
4.5
 41
1.0
 50
0.0
 71
     0
 42
6.299999999999998
  3
txt.shx
  4
bigfont.shx
  0
STYLE
  5
6FB
330
3
100
AcDbSymbolTableRecord
100
AcDbTextStyleTableRecord
  2
高2
 70
     0
 40
2.0
 41
1.0
 50
0.0
 71
     0
 42
2.0
  3
txt.shx
  4
bigfont.shx
  0
STYLE
  5
E55
330
3
100
AcDbSymbolTableRecord
100
AcDbTextStyleTableRecord
  2
高2.5
 70
     0
 40
2.5
 41
1.0
 50
0.0
 71
     0
 42
0.2
  3
txt.shx
  4
bigfont.shx
  0
ENDTAB
  0
TABLE
  2
VIEW
  5
6
330
0
100
AcDbSymbolTable
 70
     0
  0
ENDTAB
  0
TABLE
  2
UCS
  5
7
330
0
100
AcDbSymbolTable
 70
     0
  0
ENDTAB
  0
TABLE
  2
APPID
  5
9
330
0
100
AcDbSymbolTable
 70
    10
  0
APPID
  5
27
330
9
100
AcDbSymbolTableRecord
100
AcDbRegAppTableRecord
  2
ACAD
 70
     0
  0
APPID
  5
47A
330
9
100
AcDbSymbolTableRecord
100
AcDbRegAppTableRecord
  2
ACAD_DSTYLE_DIMJOGGED_JOGANGLE_SYMBOL
 70
     0
  0
APPID
  5
5EE
330
9
100
AcDbSymbolTableRecord
100
AcDbRegAppTableRecord
  2
ACAD_DSTYLE_DIMARC_LENGTH_SYMBOL
 70
     0
  0
APPID
  5
5EF
330
9
100
AcDbSymbolTableRecord
100
AcDbRegAppTableRecord
  2
ACAD_DSTYLE_DIMEXT_LENGTH
 70
     0
  0
APPID
  5
6FE
330
9
100
AcDbSymbolTableRecord
100
AcDbRegAppTableRecord
  2
ACAD_DSTYLE_DIMJAG
 70
     0
  0
APPID
  5
6FF
330
9
100
AcDbSymbolTableRecord
100
AcDbRegAppTableRecord
  2
ACAD_DSTYLE_DIMBREAK
 70
     0
  0
APPID
  5
700
330
9
100
AcDbSymbolTableRecord
100
AcDbRegAppTableRecord
  2
ACAD_DSTYLE_DIMTALN
 70
     0
  0
APPID
  5
83F
330
9
100
AcDbSymbolTableRecord
100
AcDbRegAppTableRecord
  2
ACAD_EXEMPT_FROM_CAD_STANDARDS
 70
     0
  0
APPID
  5
934
330
9
100
AcDbSymbolTableRecord
100
AcDbRegAppTableRecord
  2
ACAD_PSEXT
 70
     0
  0
APPID
  5
97E
330
9
100
AcDbSymbolTableRecord
100
AcDbRegAppTableRecord
  2
ACAD_MLEADERVER
 70
     0
  0
ENDTAB
  0
TABLE
  2
DIMSTYLE
  5
A
330
0
100
AcDbSymbolTable
 70
    12
100
AcDbDimStyleTable
 71
     2
340
BCD
340
476
  0
DIMSTYLE
105
3F5
330
A
100
AcDbSymbolTableRecord
100
AcDbDimStyleTableRecord
  2
Standard
 70
     0
340
26
  0
DIMSTYLE
105
476
330
A
100
AcDbSymbolTableRecord
100
AcDbDimStyleTableRecord
  2
1／2
 70
     0
 41
2.5
 42
0.25
 43
0.2
 44
1.25
 73
     0
 74
     0
 77
     3
 78
     8
 79
     2
140
3.0
141
0.0
143
0.03937007874016
144
2.0
147
0.625
171
     3
172
     1
178
     4
179
     1
271
     2
272
     2
274
     3
283
     0
284
     8
288
     1
289
     0
340
26
341
3F7
342
3F7
1001
ACAD_DSTYLE_DIMARC_LENGTH_SYMBOL
1070
   379
1070
     2
1001
ACAD_DSTYLE_DIMEXT_LENGTH
1070
   378
1040
1.25
1001
ACAD_DSTYLE_DIMJOGGED_JOGANGLE_SYMBOL
1070
   384
1040
1.570796326794896
  0
DIMSTYLE
105
BCD
330
A
100
AcDbSymbolTableRecord
100
AcDbDimStyleTableRecord
  2
1：1
 70
     0
 41
2.5
 42
0.25
 43
0.2
 44
1.25
 73
     0
 74
     0
 77
     3
 78
     8
 79
     2
140
3.0
141
0.0
143
0.03937007874016
147
0.625
171
     3
172
     1
178
     4
179
     1
271
     2
272
     2
274
     3
283
     0
284
     8
288
     1
289
     0
340
26
341
3F7
342
3F7
1001
ACAD_DSTYLE_DIMARC_LENGTH_SYMBOL
1070
   379
1070
     2
1001
ACAD_DSTYLE_DIMEXT_LENGTH
1070
   378
1040
1.25
1001
ACAD_DSTYLE_DIMJOGGED_JOGANGLE_SYMBOL
1070
   384
1040
1.570796326794896
  0
DIMSTYLE
105
BCE
330
A
100
AcDbSymbolTableRecord
100
AcDbDimStyleTableRecord
  2
2：1
 70
     0
 41
2.5
 42
0.25
 43
0.2
 44
1.25
 73
     0
 74
     0
 77
     3
 78
     8
 79
     2
140
3.0
141
0.0
143
0.03937007874016
144
0.5
147
0.625
171
     3
172
     1
178
     4
179
     1
271
     2
272
     2
274
     3
283
     0
284
     8
288
     1
289
     0
340
26
341
3F7
342
3F7
1001
ACAD_DSTYLE_DIMARC_LENGTH_SYMBOL
1070
   379
1070
     2
1001
ACAD_DSTYLE_DIMEXT_LENGTH
1070
   378
1040
1.25
1001
ACAD_DSTYLE_DIMJOGGED_JOGANGLE_SYMBOL
1070
   384
1040
1.570796326794896
  0
DIMSTYLE
105
BCF
330
A
100
AcDbSymbolTableRecord
100
AcDbDimStyleTableRecord
  2
5：1
 70
     0
 41
2.5
 42
0.25
 43
0.2
 44
1.25
 73
     0
 74
     0
 77
     3
 78
     8
 79
     2
140
3.0
141
0.0
143
0.03937007874016
144
0.2
147
0.625
171
     3
172
     1
178
     4
179
     1
271
     2
272
     2
274
     3
283
     0
284
     8
288
     1
289
     0
340
26
341
3F7
342
3F7
1001
ACAD_DSTYLE_DIMARC_LENGTH_SYMBOL
1070
   379
1070
     2
1001
ACAD_DSTYLE_DIMEXT_LENGTH
1070
   378
1040
1.25
1001
ACAD_DSTYLE_DIMJOGGED_JOGANGLE_SYMBOL
1070
   384
1040
1.570796326794896
  0
DIMSTYLE
105
BD0
330
A
100
AcDbSymbolTableRecord
100
AcDbDimStyleTableRecord
  2
10：1
 70
     0
 41
2.5
 42
0.25
 43
0.2
 44
1.25
 73
     0
 74
     0
 77
     3
 78
     8
 79
     2
140
3.0
141
0.0
143
0.03937007874016
144
0.1
147
0.625
171
     3
172
     1
178
     4
179
     1
271
     2
272
     2
274
     3
283
     0
284
     8
288
     1
289
     0
340
26
341
3F7
342
3F7
1001
ACAD_DSTYLE_DIMARC_LENGTH_SYMBOL
1070
   379
1070
     2
1001
ACAD_DSTYLE_DIMEXT_LENGTH
1070
   378
1040
1.25
1001
ACAD_DSTYLE_DIMJOGGED_JOGANGLE_SYMBOL
1070
   384
1040
1.570796326794896
  0
DIMSTYLE
105
BD1
330
A
100
AcDbSymbolTableRecord
100
AcDbDimStyleTableRecord
  2
1／5
 70
     0
 41
2.5
 42
0.25
 43
0.2
 44
1.25
 73
     0
 74
     0
 77
     3
 78
     8
 79
     2
140
3.0
141
0.0
143
0.03937007874016
144
5.0
147
0.625
171
     3
172
     1
178
     4
179
     1
271
     2
272
     2
274
     3
283
     0
284
     8
288
     1
289
     0
340
26
341
3F7
342
3F7
1001
ACAD_DSTYLE_DIMARC_LENGTH_SYMBOL
1070
   379
1070
     2
1001
ACAD_DSTYLE_DIMEXT_LENGTH
1070
   378
1040
1.25
1001
ACAD_DSTYLE_DIMJOGGED_JOGANGLE_SYMBOL
1070
   384
1040
1.570796326794896
  0
DIMSTYLE
105
E56
102
{ACAD_REACTORS
330
E60
102
}
330
A
100
AcDbSymbolTableRecord
100
AcDbDimStyleTableRecord
  2
1／10
 70
     0
 41
2.5
 42
0.25
 43
0.2
 44
1.25
 73
     0
 74
     0
 77
     3
 78
     8
 79
     2
140
3.0
141
0.0
143
0.03937007874016
144
10.0
147
0.625
171
     3
172
     1
178
     4
179
     1
271
     2
272
     2
274
     3
283
     0
284
     8
288
     1
289
     0
340
26
341
3F7
342
3F7
1001
ACAD_DSTYLE_DIMARC_LENGTH_SYMBOL
1070
   379
1070
     2
1001
ACAD_DSTYLE_DIMEXT_LENGTH
1070
   378
1040
1.25
1001
ACAD_DSTYLE_DIMJOGGED_JOGANGLE_SYMBOL
1070
   384
1040
1.570796326794896
  0
DIMSTYLE
105
E57
102
{ACAD_REACTORS
330
E64
102
}
330
A
100
AcDbSymbolTableRecord
100
AcDbDimStyleTableRecord
  2
1／4
 70
     0
 41
2.5
 42
0.25
 43
0.2
 44
1.25
 73
     0
 74
     0
 77
     3
 78
     8
 79
     2
140
3.0
141
0.0
143
0.03937007874016
144
4.0
147
0.625
171
     3
172
     1
178
     4
179
     1
271
     2
272
     2
274
     3
283
     0
284
     8
288
     1
289
     0
340
26
341
3F7
342
3F7
1001
ACAD_DSTYLE_DIMARC_LENGTH_SYMBOL
1070
   379
1070
     2
1001
ACAD_DSTYLE_DIMEXT_LENGTH
1070
   378
1040
1.25
1001
ACAD_DSTYLE_DIMJOGGED_JOGANGLE_SYMBOL
1070
   384
1040
1.570796326794896
  0
DIMSTYLE
105
E58
102
{ACAD_REACTORS
330
E65
102
}
330
A
100
AcDbSymbolTableRecord
100
AcDbDimStyleTableRecord
  2
1／3
 70
     0
 41
2.5
 42
0.25
 43
0.2
 44
1.25
 73
     0
 74
     0
 77
     3
 78
     8
 79
     2
140
3.0
141
0.0
143
0.03937007874016
144
3.0
147
0.625
171
     3
172
     1
178
     4
179
     1
271
     2
272
     2
274
     3
283
     0
284
     8
288
     1
289
     0
340
26
341
3F7
342
3F7
1001
ACAD_DSTYLE_DIMARC_LENGTH_SYMBOL
1070
   379
1070
     2
1001
ACAD_DSTYLE_DIMEXT_LENGTH
1070
   378
1040
1.25
1001
ACAD_DSTYLE_DIMJOGGED_JOGANGLE_SYMBOL
1070
   384
1040
1.570796326794896
  0
DIMSTYLE
105
E59
102
{ACAD_REACTORS
330
E66
102
}
330
A
100
AcDbSymbolTableRecord
100
AcDbDimStyleTableRecord
  2
FREE
 70
     0
 41
2.5
 42
0.25
 43
0.2
 44
1.25
 73
     0
 74
     0
 77
     3
 78
     8
 79
     2
140
3.0
141
0.0
143
0.03937007874016
147
0.625
171
     3
172
     1
178
     4
179
     1
271
     2
272
     2
274
     3
283
     0
284
     8
288
     1
289
     0
340
26
341
3F7
342
3F7
1001
ACAD_DSTYLE_DIMBREAK
1070
   391
1040
3.75
1001
ACAD_DSTYLE_DIMJAG
1070
   388
1040
1.5
1001
ACAD_DSTYLE_DIMTALN
1070
   392
1070
     0
1001
ACAD_DSTYLE_DIMARC_LENGTH_SYMBOL
1070
   379
1070
     2
1001
ACAD_DSTYLE_DIMEXT_LENGTH
1070
   378
1040
1.25
1001
ACAD_DSTYLE_DIMJOGGED_JOGANGLE_SYMBOL
1070
   384
1040
1.570796326794896
  0
ENDTAB
  0
TABLE
  2
BLOCK_RECORD
  5
1
330
0
100
AcDbSymbolTable
 70
    32
  0
BLOCK_RECORD
  5
36
102
{ACAD_XDICTIONARY
360
5C7
102
}
330
1
100
AcDbSymbolTableRecord
100
AcDbBlockTableRecord
  2
*Model_Space
340
39
  0
BLOCK_RECORD
  5
32
330
1
100
AcDbSymbolTableRecord
100
AcDbBlockTableRecord
  2
*Paper_Space
340
35
  0
BLOCK_RECORD
  5
3F7
330
1
100
AcDbSymbolTableRecord
100
AcDbBlockTableRecord
  2
_Open30
340
0
102
{BLKREFS
331
BAB
331
BAC
331
BB4
331
BB5
331
BBD
331
BBE
331
BC6
331
BC7
331
D21
331
D22
331
D37
331
D38
331
D6A
331
D6B
331
DEE
331
DEF
331
DFC
331
DFD
331
E0A
331
E0B
331
E18
331
E19
331
E26
331
E27
331
E34
331
E35
331
E42
331
E43
331
E4E
331
E4F
331
DD2
331
DD3
331
DE0
331
DE1
331
F05
331
F06
331
F10
331
F11
331
F1B
331
F1C
331
F26
331
F27
331
F31
331
F32
331
F3C
331
F3D
331
F47
331
F48
331
F52
331
F53
331
F5D
331
F5E
331
F66
331
F67
102
}
  0
BLOCK_RECORD
  5
559
330
1
100
AcDbSymbolTableRecord
100
AcDbBlockTableRecord
  2
*D1
340
0
  0
BLOCK_RECORD
  5
56F
330
1
100
AcDbSymbolTableRecord
100
AcDbBlockTableRecord
  2
*D2
340
0
  0
BLOCK_RECORD
  5
57A
330
1
100
AcDbSymbolTableRecord
100
AcDbBlockTableRecord
  2
*D3
340
0
  0
BLOCK_RECORD
  5
585
330
1
100
AcDbSymbolTableRecord
100
AcDbBlockTableRecord
  2
*D4
340
0
  0
BLOCK_RECORD
  5
858
330
1
100
AcDbSymbolTableRecord
100
AcDbBlockTableRecord
  2
_DotSmall
340
0
  0
BLOCK_RECORD
  5
D12
330
1
100
AcDbSymbolTableRecord
100
AcDbBlockTableRecord
  2
*D7
340
0
  0
BLOCK_RECORD
  5
D28
330
1
100
AcDbSymbolTableRecord
100
AcDbBlockTableRecord
  2
*D8
340
0
  0
BLOCK_RECORD
  5
D57
330
1
100
AcDbSymbolTableRecord
100
AcDbBlockTableRecord
  2
*D10
340
0
  0
BLOCK_RECORD
  5
DCB
330
1
100
AcDbSymbolTableRecord
100
AcDbBlockTableRecord
  2
*D11
340
0
  0
BLOCK_RECORD
  5
DD9
330
1
100
AcDbSymbolTableRecord
100
AcDbBlockTableRecord
  2
*D12
340
0
  0
BLOCK_RECORD
  5
DE7
330
1
100
AcDbSymbolTableRecord
100
AcDbBlockTableRecord
  2
*D13
340
0
  0
BLOCK_RECORD
  5
DF5
330
1
100
AcDbSymbolTableRecord
100
AcDbBlockTableRecord
  2
*D14
340
0
  0
BLOCK_RECORD
  5
E03
330
1
100
AcDbSymbolTableRecord
100
AcDbBlockTableRecord
  2
*D15
340
0
  0
BLOCK_RECORD
  5
E11
330
1
100
AcDbSymbolTableRecord
100
AcDbBlockTableRecord
  2
*D16
340
0
  0
BLOCK_RECORD
  5
E1F
330
1
100
AcDbSymbolTableRecord
100
AcDbBlockTableRecord
  2
*D17
340
0
  0
BLOCK_RECORD
  5
E2D
330
1
100
AcDbSymbolTableRecord
100
AcDbBlockTableRecord
  2
*D18
340
0
  0
BLOCK_RECORD
  5
E3B
330
1
100
AcDbSymbolTableRecord
100
AcDbBlockTableRecord
  2
*D19
340
0
  0
BLOCK_RECORD
  5
E49
330
1
100
AcDbSymbolTableRecord
100
AcDbBlockTableRecord
  2
*D20
340
0
  0
BLOCK_RECORD
  5
E76
330
1
100
AcDbSymbolTableRecord
100
AcDbBlockTableRecord
  2
*D22
340
0
  0
BLOCK_RECORD
  5
E84
330
1
100
AcDbSymbolTableRecord
100
AcDbBlockTableRecord
  2
*D23
340
0
  0
BLOCK_RECORD
  5
E92
330
1
100
AcDbSymbolTableRecord
100
AcDbBlockTableRecord
  2
*D24
340
0
  0
BLOCK_RECORD
  5
EA0
330
1
100
AcDbSymbolTableRecord
100
AcDbBlockTableRecord
  2
*D25
340
0
  0
BLOCK_RECORD
  5
EAE
330
1
100
AcDbSymbolTableRecord
100
AcDbBlockTableRecord
  2
*D26
340
0
  0
BLOCK_RECORD
  5
EBC
330
1
100
AcDbSymbolTableRecord
100
AcDbBlockTableRecord
  2
*D27
340
0
  0
BLOCK_RECORD
  5
ECA
330
1
100
AcDbSymbolTableRecord
100
AcDbBlockTableRecord
  2
*D28
340
0
  0
BLOCK_RECORD
  5
ED8
330
1
100
AcDbSymbolTableRecord
100
AcDbBlockTableRecord
  2
*D29
340
0
  0
BLOCK_RECORD
  5
EE6
330
1
100
AcDbSymbolTableRecord
100
AcDbBlockTableRecord
  2
*D30
340
0
  0
BLOCK_RECORD
  5
EF4
330
1
100
AcDbSymbolTableRecord
100
AcDbBlockTableRecord
  2
*D31
340
0
  0
ENDTAB
  0
ENDSEC
  0
SECTION
  2
BLOCKS
  0
BLOCK
  5
37
330
36
100
AcDbEntity
  8
0
100
AcDbBlockBegin
  2
*Model_Space
 70
     0
 10
0.0
 20
0.0
 30
0.0
  3
*Model_Space
  1

  0
ENDBLK
  5
38
330
36
100
AcDbEntity
  8
0
100
AcDbBlockEnd
  0
BLOCK
  5
33
330
32
100
AcDbEntity
 67
     1
  8
0
100
AcDbBlockBegin
  2
*Paper_Space
 70
     0
 10
0.0
 20
0.0
 30
0.0
  3
*Paper_Space
  1

  0
ENDBLK
  5
34
330
32
100
AcDbEntity
 67
     1
  8
0
100
AcDbBlockEnd
  0
BLOCK
  5
3F8
330
3F7
100
AcDbEntity
  8
0
100
AcDbBlockBegin
  2
_Open30
 70
     0
 10
0.0
 20
0.0
 30
0.0
  3
_Open30
  1

  0
LINE
  5
3F9
330
3F7
100
AcDbEntity
  8
0
  6
ByBlock
 62
     0
370
    -2
100
AcDbLine
 10
-1.0
 20
0.267949
 30
0.0
 11
0.0
 21
0.0
 31
0.0
  0
LINE
  5
3FA
330
3F7
100
AcDbEntity
  8
0
  6
ByBlock
 62
     0
370
    -2
100
AcDbLine
 10
0.0
 20
0.0
 30
0.0
 11
-1.0
 21
-0.267949
 31
0.0
  0
LINE
  5
3FB
330
3F7
100
AcDbEntity
  8
0
  6
ByBlock
 62
     0
370
    -2
100
AcDbLine
 10
0.0
 20
0.0
 30
0.0
 11
-1.0
 21
0.0
 31
0.0
  0
ENDBLK
  5
3FC
330
3F7
100
AcDbEntity
  8
0
100
AcDbBlockEnd
  0
BLOCK
  5
563
330
559
100
AcDbEntity
  8
0
100
AcDbBlockBegin
  2
*D1
 70
     1
 10
0.0
 20
0.0
 30
0.0
  3
*D1
  1

  0
LINE
  5
BA8
330
559
100
AcDbEntity
  8
0
 62
     0
370
    -2
100
AcDbLine
 10
-168.943691
 20
33.05143599999999
 30
0.0
 11
-168.943691
 21
13.994902
 31
0.0
  0
LINE
  5
BA9
330
559
100
AcDbEntity
  8
0
 62
     0
370
    -2
100
AcDbLine
 10
-88.943691
 20
28.051436
 30
0.0
 11
-88.943691
 21
13.994902
 31
0.0
  0
LINE
  5
BAA
330
559
100
AcDbEntity
  8
0
 62
     0
370
    -2
100
AcDbLine
 10
-166.443691
 20
15.244902
 30
0.0
 11
-91.443691
 21
15.244902
 31
0.0
  0
INSERT
  5
BAB
330
559
100
AcDbEntity
  8
0
 62
     0
370
    -2
100
AcDbBlockReference
  2
_Open30
 10
-168.943691
 20
15.244902
 30
0.0
 41
2.5
 42
2.5
 43
2.5
 50
180.0
  0
INSERT
  5
BAC
330
559
100
AcDbEntity
  8
0
 62
     0
370
    -2
100
AcDbBlockReference
  2
_Open30
 10
-88.943691
 20
15.244902
 30
0.0
 41
2.5
 42
2.5
 43
2.5
  0
MTEXT
  5
BAD
330
559
100
AcDbEntity
  8
0
 62
     4
100
AcDbMText
 10
-128.943691
 20
17.369902
 30
0.0
 40
3.0
 41
0.0
 71
     5
 72
     1
  1
160
 73
     1
 44
1.0
1001
ACAD
1000
MTEXTBEGIN
1070
    73
1070
     1
1070
    44
1040
1.0
1070
    74
1070
     0
1000
MTEXTEND
  0
POINT
  5
BAE
330
559
100
AcDbEntity
  8
Defpoints
 62
     0
100
AcDbPoint
 10
-168.943691
 20
33.30143599999999
 30
0.0
  0
POINT
  5
BAF
330
559
100
AcDbEntity
  8
Defpoints
 62
     0
100
AcDbPoint
 10
-88.943691
 20
28.301436
 30
0.0
  0
POINT
  5
BB0
330
559
100
AcDbEntity
  8
Defpoints
 62
     0
100
AcDbPoint
 10
-88.943691
 20
15.244902
 30
0.0
  0
ENDBLK
  5
564
330
559
100
AcDbEntity
  8
0
100
AcDbBlockEnd
  0
BLOCK
  5
578
330
56F
100
AcDbEntity
  8
0
100
AcDbBlockBegin
  2
*D2
 70
     1
 10
0.0
 20
0.0
 30
0.0
  3
*D2
  1

  0
LINE
  5
BC3
330
56F
100
AcDbEntity
  8
0
 62
     0
370
    -2
100
AcDbLine
 10
-45.70118299999999
 20
30.551436
 30
0.0
 11
-45.70118299999999
 21
13.994902
 31
0.0
  0
LINE
  5
BC4
330
56F
100
AcDbEntity
  8
0
 62
     0
370
    -2
100
AcDbLine
 10
84.29881700000001
 20
69.05143599999999
 30
0.0
 11
84.29881700000001
 21
13.994902
 31
0.0
  0
LINE
  5
BC5
330
56F
100
AcDbEntity
  8
0
 62
     0
370
    -2
100
AcDbLine
 10
-43.20118299999999
 20
15.244902
 30
0.0
 11
81.79881700000001
 21
15.244902
 31
0.0
  0
INSERT
  5
BC6
330
56F
100
AcDbEntity
  8
0
 62
     0
370
    -2
100
AcDbBlockReference
  2
_Open30
 10
-45.70118299999999
 20
15.244902
 30
0.0
 41
2.5
 42
2.5
 43
2.5
 50
180.0
  0
INSERT
  5
BC7
330
56F
100
AcDbEntity
  8
0
 62
     0
370
    -2
100
AcDbBlockReference
  2
_Open30
 10
84.29881700000001
 20
15.244902
 30
0.0
 41
2.5
 42
2.5
 43
2.5
  0
MTEXT
  5
BC8
330
56F
100
AcDbEntity
  8
0
 62
     4
100
AcDbMText
 10
19.29881700000001
 20
17.369902
 30
0.0
 40
3.0
 41
0.0
 71
     5
 72
     1
  1
273
 73
     1
 44
1.0
1001
ACAD
1000
MTEXTBEGIN
1070
    73
1070
     1
1070
    44
1040
1.0
1070
    74
1070
     0
1000
MTEXTEND
  0
POINT
  5
BC9
330
56F
100
AcDbEntity
  8
Defpoints
 62
     0
100
AcDbPoint
 10
-45.70118299999999
 20
30.801436
 30
0.0
  0
POINT
  5
BCA
330
56F
100
AcDbEntity
  8
Defpoints
 62
     0
100
AcDbPoint
 10
84.29881700000001
 20
69.301436
 30
0.0
  0
POINT
  5
BCB
330
56F
100
AcDbEntity
  8
Defpoints
 62
     0
100
AcDbPoint
 10
84.29881700000001
 20
15.244902
 30
0.0
  0
ENDBLK
  5
579
330
56F
100
AcDbEntity
  8
0
100
AcDbBlockEnd
  0
BLOCK
  5
583
330
57A
100
AcDbEntity
  8
0
100
AcDbBlockBegin
  2
*D3
 70
     1
 10
0.0
 20
0.0
 30
0.0
  3
*D3
  1

  0
LINE
  5
BBA
330
57A
100
AcDbEntity
  8
0
 62
     0
370
    -2
100
AcDbLine
 10
-43.45118299999999
 20
28.301436
 30
0.0
 11
-56.69630600000002
 21
28.301436
 31
0.0
  0
LINE
  5
BBB
330
57A
100
AcDbEntity
  8
0
 62
     0
370
    -2
100
AcDbLine
 10
-45.95118299999999
 20
108.301436
 30
0.0
 11
-56.69630600000001
 21
108.301436
 31
0.0
  0
LINE
  5
BBC
330
57A
100
AcDbEntity
  8
0
 62
     0
370
    -2
100
AcDbLine
 10
-55.44630600000002
 20
30.801436
 30
0.0
 11
-55.44630600000001
 21
105.801436
 31
0.0
  0
INSERT
  5
BBD
330
57A
100
AcDbEntity
  8
0
 62
     0
370
    -2
100
AcDbBlockReference
  2
_Open30
 10
-55.44630600000002
 20
28.301436
 30
0.0
 41
2.5
 42
2.5
 43
2.5
 50
270.0
  0
INSERT
  5
BBE
330
57A
100
AcDbEntity
  8
0
 62
     0
370
    -2
100
AcDbBlockReference
  2
_Open30
 10
-55.44630600000001
 20
108.301436
 30
0.0
 41
2.5
 42
2.5
 43
2.5
 50
90.0
  0
MTEXT
  5
BBF
330
57A
100
AcDbEntity
  8
0
 62
     4
100
AcDbMText
 10
-57.57130600000002
 20
68.30143599999999
 30
0.0
 40
3.0
 41
0.0
 71
     5
 72
     1
  1
170
 11
0.0000000000000001
 21
1.0
 31
0.0
 73
     1
 44
1.0
1001
ACAD
1000
MTEXTBEGIN
1070
    73
1070
     1
1070
    44
1040
1.0
1070
    74
1070
     0
1000
MTEXTEND
  0
POINT
  5
BC0
330
57A
100
AcDbEntity
  8
Defpoints
 62
     0
100
AcDbPoint
 10
-43.20118299999999
 20
28.301436
 30
0.0
  0
POINT
  5
BC1
330
57A
100
AcDbEntity
  8
Defpoints
 62
     0
100
AcDbPoint
 10
-45.70118299999999
 20
108.301436
 30
0.0
  0
POINT
  5
BC2
330
57A
100
AcDbEntity
  8
Defpoints
 62
     0
100
AcDbPoint
 10
-55.44630600000001
 20
108.301436
 30
0.0
  0
ENDBLK
  5
584
330
57A
100
AcDbEntity
  8
0
100
AcDbBlockEnd
  0
BLOCK
  5
58E
330
585
100
AcDbEntity
  8
0
100
AcDbBlockBegin
  2
*D4
 70
     1
 10
0.0
 20
0.0
 30
0.0
  3
*D4
  1

  0
LINE
  5
BB1
330
585
100
AcDbEntity
  8
0
 62
     0
370
    -2
100
AcDbLine
 10
-99.943691
 20
22.301436
 30
0.0
 11
-77.12377900000001
 21
22.30143599999999
 31
0.0
  0
LINE
  5
BB2
330
585
100
AcDbEntity
  8
0
 62
     0
370
    -2
100
AcDbLine
 10
-128.693691
 20
128.301436
 30
0.0
 11
-77.12377899999999
 21
128.301436
 31
0.0
  0
LINE
  5
BB3
330
585
100
AcDbEntity
  8
0
 62
     0
370
    -2
100
AcDbLine
 10
-78.37377900000001
 20
24.801436
 30
0.0
 11
-78.37377899999999
 21
125.801436
 31
0.0
  0
INSERT
  5
BB4
330
585
100
AcDbEntity
  8
0
 62
     0
370
    -2
100
AcDbBlockReference
  2
_Open30
 10
-78.37377900000001
 20
22.30143599999999
 30
0.0
 41
2.5
 42
2.5
 43
2.5
 50
270.0
  0
INSERT
  5
BB5
330
585
100
AcDbEntity
  8
0
 62
     0
370
    -2
100
AcDbBlockReference
  2
_Open30
 10
-78.37377899999999
 20
128.301436
 30
0.0
 41
2.5
 42
2.5
 43
2.5
 50
90.0
  0
MTEXT
  5
BB6
330
585
100
AcDbEntity
  8
0
 62
     4
100
AcDbMText
 10
-80.49877900000002
 20
75.30143599999998
 30
0.0
 40
3.0
 41
0.0
 71
     5
 72
     1
  1
220
 11
0.0000000000000001
 21
1.0
 31
0.0
 73
     1
 44
1.0
1001
ACAD
1000
MTEXTBEGIN
1070
    73
1070
     1
1070
    44
1040
1.0
1070
    74
1070
     0
1000
MTEXTEND
  0
POINT
  5
BB7
330
585
100
AcDbEntity
  8
Defpoints
 62
     0
100
AcDbPoint
 10
-100.193691
 20
22.301436
 30
0.0
  0
POINT
  5
BB8
330
585
100
AcDbEntity
  8
Defpoints
 62
     0
100
AcDbPoint
 10
-128.943691
 20
128.301436
 30
0.0
  0
POINT
  5
BB9
330
585
100
AcDbEntity
  8
Defpoints
 62
     0
100
AcDbPoint
 10
-78.37377899999999
 20
128.301436
 30
0.0
  0
ENDBLK
  5
58F
330
585
100
AcDbEntity
  8
0
100
AcDbBlockEnd
  0
BLOCK
  5
85A
330
858
100
AcDbEntity
  8
0
100
AcDbBlockBegin
  2
_DotSmall
 70
     0
 10
0.0
 20
0.0
 30
0.0
  3
_DotSmall
  1

  0
LWPOLYLINE
  5
859
330
858
100
AcDbEntity
  8
0
  6
ByBlock
 62
     0
100
AcDbPolyline
 90
        2
 70
     1
 43
0.5
 10
-0.0625
 20
0.0
 42
1.0
 10
0.0625
 20
0.0
 42
1.0
  0
ENDBLK
  5
85B
330
858
100
AcDbEntity
  8
0
100
AcDbBlockEnd
  0
BLOCK
  5
D13
330
D12
100
AcDbEntity
  8
0
100
AcDbBlockBegin
  2
*D7
 70
     1
 10
0.0
 20
0.0
 30
0.0
  3
*D7
  1

  0
LINE
  5
D1E
330
D12
100
AcDbEntity
  8
0
 62
     0
370
    -2
100
AcDbLine
 10
-76.87377899999998
 20
128.301436
 30
0.0
 11
-68.97114900116182
 21
128.301436
 31
0.0
  0
LINE
  5
D1F
330
D12
100
AcDbEntity
  8
0
 62
     0
370
    -2
100
AcDbLine
 10
-76.873779
 20
22.30143599999999
 30
0.0
 11
-68.97114900116185
 21
22.30143599999999
 31
0.0
  0
LINE
  5
D20
330
D12
100
AcDbEntity
  8
0
 62
     0
370
    -2
100
AcDbLine
 10
-70.22114900116182
 20
125.801436
 30
0.0
 11
-70.22114900116185
 21
24.80143599999999
 31
0.0
  0
INSERT
  5
D21
330
D12
100
AcDbEntity
  8
0
 62
     0
370
    -2
100
AcDbBlockReference
  2
_Open30
 10
-70.22114900116182
 20
128.301436
 30
0.0
 41
2.5
 42
2.5
 43
2.5
 50
90.0
  0
INSERT
  5
D22
330
D12
100
AcDbEntity
  8
0
 62
     0
370
    -2
100
AcDbBlockReference
  2
_Open30
 10
-70.22114900116185
 20
22.30143599999999
 30
0.0
 41
2.5
 42
2.5
 43
2.5
 50
270.0
  0
MTEXT
  5
D23
330
D12
100
AcDbEntity
  8
0
 62
     4
100
AcDbMText
 10
-72.34614900116184
 20
43.05385353050906
 30
0.0
 40
3.0
 41
0.0
 71
     5
 72
     1
  1
106
 11
0.0000000000000001
 21
1.0
 31
0.0
 73
     1
 44
1.0
1001
ACAD
1000
MTEXTBEGIN
1070
    73
1070
     1
1070
    44
1040
1.0
1070
    74
1070
     0
1000
MTEXTEND
  0
POINT
  5
D24
330
D12
100
AcDbEntity
  8
Defpoints
 62
     0
100
AcDbPoint
 10
-77.12377899999999
 20
128.301436
 30
0.0
  0
POINT
  5
D25
330
D12
100
AcDbEntity
  8
Defpoints
 62
     0
100
AcDbPoint
 10
-77.12377899999999
 20
22.30143599999999
 30
0.0
  0
POINT
  5
D26
330
D12
100
AcDbEntity
  8
Defpoints
 62
     0
100
AcDbPoint
 10
-70.22114900116185
 20
22.30143599999999
 30
0.0
  0
ENDBLK
  5
D14
330
D12
100
AcDbEntity
  8
0
100
AcDbBlockEnd
  0
BLOCK
  5
D29
330
D28
100
AcDbEntity
  8
0
100
AcDbBlockBegin
  2
*D8
 70
     1
 10
0.0
 20
0.0
 30
0.0
  3
*D8
  1

  0
LINE
  5
D34
330
D28
100
AcDbEntity
  8
0
 62
     0
370
    -2
100
AcDbLine
 10
-56.946306
 20
108.301436
 30
0.0
 11
-63.11706583092608
 21
108.301436
 31
0.0
  0
LINE
  5
D35
330
D28
100
AcDbEntity
  8
0
 62
     0
370
    -2
100
AcDbLine
 10
-56.94630600000003
 20
28.301436
 30
0.0
 11
-63.11706583092608
 21
28.301436
 31
0.0
  0
LINE
  5
D36
330
D28
100
AcDbEntity
  8
0
 62
     0
370
    -2
100
AcDbLine
 10
-61.86706583092608
 20
105.801436
 30
0.0
 11
-61.86706583092608
 21
30.801436
 31
0.0
  0
INSERT
  5
D37
330
D28
100
AcDbEntity
  8
0
 62
     0
370
    -2
100
AcDbBlockReference
  2
_Open30
 10
-61.86706583092608
 20
108.301436
 30
0.0
 41
2.5
 42
2.5
 43
2.5
 50
90.0
  0
INSERT
  5
D38
330
D28
100
AcDbEntity
  8
0
 62
     0
370
    -2
100
AcDbBlockReference
  2
_Open30
 10
-61.86706583092608
 20
28.301436
 30
0.0
 41
2.5
 42
2.5
 43
2.5
 50
270.0
  0
MTEXT
  5
D39
330
D28
100
AcDbEntity
  8
0
 62
     4
100
AcDbMText
 10
-63.9920658309261
 20
47.38348668314642
 30
0.0
 40
3.0
 41
0.0
 71
     5
 72
     1
  1
80
 11
0.0000000000000001
 21
1.0
 31
0.0
 73
     1
 44
1.0
1001
ACAD
1000
MTEXTBEGIN
1070
    73
1070
     1
1070
    44
1040
1.0
1070
    74
1070
     0
1000
MTEXTEND
  0
POINT
  5
D3A
330
D28
100
AcDbEntity
  8
Defpoints
 62
     0
100
AcDbPoint
 10
-56.69630600000001
 20
108.301436
 30
0.0
  0
POINT
  5
D3B
330
D28
100
AcDbEntity
  8
Defpoints
 62
     0
100
AcDbPoint
 10
-56.69630600000003
 20
28.301436
 30
0.0
  0
POINT
  5
D3C
330
D28
100
AcDbEntity
  8
Defpoints
 62
     0
100
AcDbPoint
 10
-61.86706583092608
 20
28.301436
 30
0.0
  0
ENDBLK
  5
D2A
330
D28
100
AcDbEntity
  8
0
100
AcDbBlockEnd
  0
BLOCK
  5
D58
330
D57
100
AcDbEntity
  8
0
100
AcDbBlockBegin
  2
*D10
 70
     1
 10
0.0
 20
0.0
 30
0.0
  3
*D10
  1

  0
LINE
  5
D65
330
D57
100
AcDbEntity
  8
0
 62
     0
370
    -2
100
AcDbLine
 10
130.2990206084027
 20
36.59780159164777
 30
0.0
 11
130.2990206084027
 21
32.88589931395177
 31
0.0
  0
LINE
  5
D66
330
D57
100
AcDbEntity
  8
0
 62
     0
370
    -2
100
AcDbLine
 10
127.5740206084027
 20
36.59780159164777
 30
0.0
 11
127.5740206084027
 21
32.88589931395177
 31
0.0
  0
LINE
  5
D67
330
D57
100
AcDbEntity
  8
0
 62
     0
370
    -2
100
AcDbLine
 10
132.7990206084027
 20
34.13589931395177
 30
0.0
 11
135.2990206084027
 21
34.13589931395177
 31
0.0
  0
LINE
  5
D68
330
D57
100
AcDbEntity
  8
0
 62
     0
370
    -2
100
AcDbLine
 10
125.0740206084028
 20
34.13589931395177
 30
0.0
 11
109.3240206084028
 21
34.13589931395177
 31
0.0
  0
LINE
  5
D69
330
D57
100
AcDbEntity
  8
0
 62
     0
370
    -2
100
AcDbLine
 10
130.2990206084027
 20
34.13589931395177
 30
0.0
 11
127.5740206084027
 21
34.13589931395177
 31
0.0
  0
INSERT
  5
D6A
330
D57
100
AcDbEntity
  8
0
 62
     0
370
    -2
100
AcDbBlockReference
  2
_Open30
 10
130.2990206084027
 20
34.13589931395177
 30
0.0
 41
2.5
 42
2.5
 43
2.5
 50
180.0
  0
INSERT
  5
D6B
330
D57
100
AcDbEntity
  8
0
 62
     0
370
    -2
100
AcDbBlockReference
  2
_Open30
 10
127.5740206084027
 20
34.13589931395177
 30
0.0
 41
2.5
 42
2.5
 43
2.5
  0
MTEXT
  5
D6C
330
D57
100
AcDbEntity
  8
0
 62
     4
100
AcDbMText
 10
115.9490206084027
 20
36.26089931395177
 30
0.0
 40
3.0
 41
0.0
 71
     5
 72
     1
  1
2.725
 73
     1
 44
1.0
1001
ACAD
1000
MTEXTBEGIN
1070
    73
1070
     1
1070
    44
1040
1.0
1070
    74
1070
     0
1000
MTEXTEND
  0
POINT
  5
D6D
330
D57
100
AcDbEntity
  8
Defpoints
 62
     0
100
AcDbPoint
 10
130.2990206084027
 20
36.84780159164777
 30
0.0
  0
POINT
  5
D6E
330
D57
100
AcDbEntity
  8
Defpoints
 62
     0
100
AcDbPoint
 10
127.5740206084027
 20
36.84780159164777
 30
0.0
  0
POINT
  5
D6F
330
D57
100
AcDbEntity
  8
Defpoints
 62
     0
100
AcDbPoint
 10
127.5740206084027
 20
34.13589931395177
 30
0.0
  0
ENDBLK
  5
D59
330
D57
100
AcDbEntity
  8
0
100
AcDbBlockEnd
  0
BLOCK
  5
DCC
330
DCB
100
AcDbEntity
  8
0
100
AcDbBlockBegin
  2
*D11
 70
     1
 10
0.0
 20
0.0
 30
0.0
  3
*D11
  1

  0
LINE
  5
DCD
330
DCB
100
AcDbEntity
  8
0
 62
     0
370
    -2
100
AcDbLine
 10
-178.2339678749101
 20
-812.0370112307897
 30
0.0
 11
-178.2339678749101
 21
-814.9466426527986
 31
0.0
  0
LINE
  5
DCE
330
DCB
100
AcDbEntity
  8
0
 62
     0
370
    -2
100
AcDbLine
 10
-180.6911549290304
 20
-812.0370112307897
 30
0.0
 11
-180.6911549290304
 21
-814.9466426527986
 31
0.0
  0
LINE
  5
DCF
330
DCB
100
AcDbEntity
  8
0
 62
     0
370
    -2
100
AcDbLine
 10
-175.7339678749101
 20
-813.6966426527985
 30
0.0
 11
-173.2339678749101
 21
-813.6966426527985
 31
0.0
  0
LINE
  5
DD0
330
DCB
100
AcDbEntity
  8
0
 62
     0
370
    -2
100
AcDbLine
 10
-183.1911549290304
 20
-813.6966426527985
 30
0.0
 11
-195.9411549290304
 21
-813.6966426527985
 31
0.0
  0
LINE
  5
DD1
330
DCB
100
AcDbEntity
  8
0
 62
     0
370
    -2
100
AcDbLine
 10
-178.2339678749101
 20
-813.6966426527985
 30
0.0
 11
-180.6911549290304
 21
-813.6966426527985
 31
0.0
  0
INSERT
  5
DD2
330
DCB
100
AcDbEntity
  8
0
 62
     0
370
    -2
100
AcDbBlockReference
  2
_Open30
 10
-178.2339678749101
 20
-813.6966426527985
 30
0.0
 41
2.5
 42
2.5
 43
2.5
 50
180.0
  0
INSERT
  5
DD3
330
DCB
100
AcDbEntity
  8
0
 62
     0
370
    -2
100
AcDbBlockReference
  2
_Open30
 10
-180.6911549290304
 20
-813.6966426527985
 30
0.0
 41
2.5
 42
2.5
 43
2.5
  0
MTEXT
  5
DD4
330
DCB
100
AcDbEntity
  8
0
 62
     4
100
AcDbMText
 10
-190.8161549290304
 20
-811.5716426527985
 30
0.0
 40
3.0
 41
0.0
 71
     5
 72
     1
  1
2.46
 73
     1
 44
1.0
1001
ACAD
1000
MTEXTBEGIN
1070
    73
1070
     1
1070
    44
1040
1.0
1070
    74
1070
     0
1000
MTEXTEND
  0
POINT
  5
DD5
330
DCB
100
AcDbEntity
  8
Defpoints
 62
     0
100
AcDbPoint
 10
-178.2339678749101
 20
-811.7870112307898
 30
0.0
  0
POINT
  5
DD6
330
DCB
100
AcDbEntity
  8
Defpoints
 62
     0
100
AcDbPoint
 10
-180.6911549290304
 20
-811.7870112307898
 30
0.0
  0
POINT
  5
DD7
330
DCB
100
AcDbEntity
  8
Defpoints
 62
     0
100
AcDbPoint
 10
-180.6911549290304
 20
-813.6966426527985
 30
0.0
  0
ENDBLK
  5
DD8
330
DCB
100
AcDbEntity
  8
0
100
AcDbBlockEnd
  0
BLOCK
  5
DDA
330
DD9
100
AcDbEntity
  8
0
100
AcDbBlockBegin
  2
*D12
 70
     1
 10
0.0
 20
0.0
 30
0.0
  3
*D12
  1

  0
LINE
  5
DDB
330
DD9
100
AcDbEntity
  8
0
 62
     0
370
    -2
100
AcDbLine
 10
-176.5958429688369
 20
-817.4931008035521
 30
0.0
 11
-176.5958429688369
 21
-820.0389928730155
 31
0.0
  0
LINE
  5
DDC
330
DD9
100
AcDbEntity
  8
0
 62
     0
370
    -2
100
AcDbLine
 10
-179.6900787669798
 20
-817.4931008035521
 30
0.0
 11
-179.6900787669798
 21
-820.0389928730155
 31
0.0
  0
LINE
  5
DDD
330
DD9
100
AcDbEntity
  8
0
 62
     0
370
    -2
100
AcDbLine
 10
-174.0958429688369
 20
-818.7889928730154
 30
0.0
 11
-171.5958429688369
 21
-818.7889928730154
 31
0.0
  0
LINE
  5
DDE
330
DD9
100
AcDbEntity
  8
0
 62
     0
370
    -2
100
AcDbLine
 10
-182.1900787669798
 20
-818.7889928730154
 30
0.0
 11
-196.0234121003131
 21
-818.7889928730154
 31
0.0
  0
LINE
  5
DDF
330
DD9
100
AcDbEntity
  8
0
 62
     0
370
    -2
100
AcDbLine
 10
-176.5958429688369
 20
-818.7889928730154
 30
0.0
 11
-179.6900787669798
 21
-818.7889928730154
 31
0.0
  0
INSERT
  5
DE0
330
DD9
100
AcDbEntity
  8
0
 62
     0
370
    -2
100
AcDbBlockReference
  2
_Open30
 10
-176.5958429688369
 20
-818.7889928730154
 30
0.0
 41
2.5
 42
2.5
 43
2.5
 50
180.0
  0
INSERT
  5
DE1
330
DD9
100
AcDbEntity
  8
0
 62
     0
370
    -2
100
AcDbBlockReference
  2
_Open30
 10
-179.6900787669798
 20
-818.7889928730154
 30
0.0
 41
2.5
 42
2.5
 43
2.5
  0
MTEXT
  5
DE2
330
DD9
100
AcDbEntity
  8
0
 62
     4
100
AcDbMText
 10
-190.8150787669798
 20
-816.9139928730155
 30
0.0
 40
2.5
 41
0.0
 71
     5
 72
     1
  1
15.47
  7
高2.5
 73
     1
 44
1.0
1001
ACAD
1000
MTEXTBEGIN
1070
    73
1070
     1
1070
    44
1040
1.0
1070
    74
1070
     0
1000
MTEXTEND
  0
POINT
  5
DE3
330
DD9
100
AcDbEntity
  8
Defpoints
 62
     0
100
AcDbPoint
 10
-176.5958429688369
 20
-817.2431008035522
 30
0.0
  0
POINT
  5
DE4
330
DD9
100
AcDbEntity
  8
Defpoints
 62
     0
100
AcDbPoint
 10
-179.6900787669798
 20
-817.2431008035522
 30
0.0
  0
POINT
  5
DE5
330
DD9
100
AcDbEntity
  8
Defpoints
 62
     0
100
AcDbPoint
 10
-179.6900787669798
 20
-818.7889928730154
 30
0.0
  0
ENDBLK
  5
DE6
330
DD9
100
AcDbEntity
  8
0
100
AcDbBlockEnd
  0
BLOCK
  5
DE8
330
DE7
100
AcDbEntity
  8
0
100
AcDbBlockBegin
  2
*D13
 70
     1
 10
0.0
 20
0.0
 30
0.0
  3
*D13
  1

  0
LINE
  5
DE9
330
DE7
100
AcDbEntity
  8
0
 62
     0
370
    -2
100
AcDbLine
 10
-174.8667113607514
 20
-822.9491905193986
 30
0.0
 11
-174.8667113607514
 21
-825.2222781817659
 31
0.0
  0
LINE
  5
DEA
330
DE7
100
AcDbEntity
  8
0
 62
     0
370
    -2
100
AcDbLine
 10
-178.8710163139432
 20
-822.9491905193986
 30
0.0
 11
-178.8710163139432
 21
-825.2222781817659
 31
0.0
  0
LINE
  5
DEB
330
DE7
100
AcDbEntity
  8
0
 62
     0
370
    -2
100
AcDbLine
 10
-172.3667113607514
 20
-823.9722781817658
 30
0.0
 11
-169.8667113607514
 21
-823.9722781817658
 31
0.0
  0
LINE
  5
DEC
330
DE7
100
AcDbEntity
  8
0
 62
     0
370
    -2
100
AcDbLine
 10
-181.3710163139432
 20
-823.9722781817658
 30
0.0
 11
-193.1210163139432
 21
-823.9722781817658
 31
0.0
  0
LINE
  5
DED
330
DE7
100
AcDbEntity
  8
0
 62
     0
370
    -2
100
AcDbLine
 10
-174.8667113607514
 20
-823.9722781817658
 30
0.0
 11
-178.8710163139432
 21
-823.9722781817658
 31
0.0
  0
INSERT
  5
DEE
330
DE7
100
AcDbEntity
  8
0
 62
     0
370
    -2
100
AcDbBlockReference
  2
_Open30
 10
-174.8667113607514
 20
-823.9722781817658
 30
0.0
 41
2.5
 42
2.5
 43
2.5
 50
180.0
  0
INSERT
  5
DEF
330
DE7
100
AcDbEntity
  8
0
 62
     0
370
    -2
100
AcDbBlockReference
  2
_Open30
 10
-178.8710163139432
 20
-823.9722781817658
 30
0.0
 41
2.5
 42
2.5
 43
2.5
  0
MTEXT
  5
DF0
330
DE7
100
AcDbEntity
  8
0
 62
     4
100
AcDbMText
 10
-188.4960163139432
 20
-821.7472781817658
 30
0.0
 40
3.2
 41
0.0
 71
     5
 72
     1
  1
8.01
  7
高3.2
 73
     1
 44
1.0
1001
ACAD
1000
MTEXTBEGIN
1070
    73
1070
     1
1070
    44
1040
1.0
1070
    74
1070
     0
1000
MTEXTEND
  0
POINT
  5
DF1
330
DE7
100
AcDbEntity
  8
Defpoints
 62
     0
100
AcDbPoint
 10
-174.8667113607514
 20
-822.6991905193985
 30
0.0
  0
POINT
  5
DF2
330
DE7
100
AcDbEntity
  8
Defpoints
 62
     0
100
AcDbPoint
 10
-178.8710163139432
 20
-822.6991905193985
 30
0.0
  0
POINT
  5
DF3
330
DE7
100
AcDbEntity
  8
Defpoints
 62
     0
100
AcDbPoint
 10
-178.8710163139432
 20
-823.9722781817658
 30
0.0
  0
ENDBLK
  5
DF4
330
DE7
100
AcDbEntity
  8
0
100
AcDbBlockEnd
  0
BLOCK
  5
DF6
330
DF5
100
AcDbEntity
  8
0
100
AcDbBlockBegin
  2
*D14
 70
     1
 10
0.0
 20
0.0
 30
0.0
  3
*D14
  1

  0
LINE
  5
DF7
330
DF5
100
AcDbEntity
  8
0
 62
     0
370
    -2
100
AcDbLine
 10
-174.9577180627637
 20
-828.2234104874302
 30
0.0
 11
-174.9577180627637
 21
-830.0418239948866
 31
0.0
  0
LINE
  5
DF8
330
DF5
100
AcDbEntity
  8
0
 62
     0
370
    -2
100
AcDbLine
 10
-179.6900787669798
 20
-828.2234104874302
 30
0.0
 11
-179.6900787669798
 21
-830.0418239948866
 31
0.0
  0
LINE
  5
DF9
330
DF5
100
AcDbEntity
  8
0
 62
     0
370
    -2
100
AcDbLine
 10
-172.4577180627637
 20
-828.7918239948865
 30
0.0
 11
-169.9577180627637
 21
-828.7918239948865
 31
0.0
  0
LINE
  5
DFA
330
DF5
100
AcDbEntity
  8
0
 62
     0
370
    -2
100
AcDbLine
 10
-182.1900787669798
 20
-828.7918239948865
 30
0.0
 11
-203.9400787669798
 21
-828.7918239948865
 31
0.0
  0
LINE
  5
DFB
330
DF5
100
AcDbEntity
  8
0
 62
     0
370
    -2
100
AcDbLine
 10
-174.9577180627637
 20
-828.7918239948865
 30
0.0
 11
-179.6900787669798
 21
-828.7918239948865
 31
0.0
  0
INSERT
  5
DFC
330
DF5
100
AcDbEntity
  8
0
 62
     0
370
    -2
100
AcDbBlockReference
  2
_Open30
 10
-174.9577180627637
 20
-828.7918239948865
 30
0.0
 41
2.5
 42
2.5
 43
2.5
 50
180.0
  0
INSERT
  5
DFD
330
DF5
100
AcDbEntity
  8
0
 62
     0
370
    -2
100
AcDbBlockReference
  2
_Open30
 10
-179.6900787669798
 20
-828.7918239948865
 30
0.0
 41
2.5
 42
2.5
 43
2.5
  0
MTEXT
  5
DFE
330
DF5
100
AcDbEntity
  8
0
 62
     4
100
AcDbMText
 10
-194.3150787669798
 20
-825.9168239948866
 30
0.0
 40
4.5
 41
0.0
 71
     5
 72
     1
  1
47.32
  7
高4.5
 73
     1
 44
1.0
1001
ACAD
1000
MTEXTBEGIN
1070
    73
1070
     1
1070
    44
1040
1.0
1070
    74
1070
     0
1000
MTEXTEND
  0
POINT
  5
DFF
330
DF5
100
AcDbEntity
  8
Defpoints
 62
     0
100
AcDbPoint
 10
-174.9577180627637
 20
-827.9734104874302
 30
0.0
  0
POINT
  5
E00
330
DF5
100
AcDbEntity
  8
Defpoints
 62
     0
100
AcDbPoint
 10
-179.6900787669798
 20
-827.9734104874302
 30
0.0
  0
POINT
  5
E01
330
DF5
100
AcDbEntity
  8
Defpoints
 62
     0
100
AcDbPoint
 10
-179.6900787669798
 20
-828.7918239948865
 30
0.0
  0
ENDBLK
  5
E02
330
DF5
100
AcDbEntity
  8
0
100
AcDbBlockEnd
  0
BLOCK
  5
E04
330
E03
100
AcDbEntity
  8
0
100
AcDbBlockBegin
  2
*D15
 70
     1
 10
0.0
 20
0.0
 30
0.0
  3
*D15
  1

  0
LINE
  5
E05
330
E03
100
AcDbEntity
  8
0
 62
     0
370
    -2
100
AcDbLine
 10
-153.4800817947562
 20
-812.0370112307897
 30
0.0
 11
-153.4800817947562
 21
-814.9466426527986
 31
0.0
  0
LINE
  5
E06
330
E03
100
AcDbEntity
  8
0
 62
     0
370
    -2
100
AcDbLine
 10
-155.9372688488765
 20
-812.0370112307897
 30
0.0
 11
-155.9372688488765
 21
-814.9466426527986
 31
0.0
  0
LINE
  5
E07
330
E03
100
AcDbEntity
  8
0
 62
     0
370
    -2
100
AcDbLine
 10
-150.9800817947562
 20
-813.6966426527985
 30
0.0
 11
-148.4800817947562
 21
-813.6966426527985
 31
0.0
  0
LINE
  5
E08
330
E03
100
AcDbEntity
  8
0
 62
     0
370
    -2
100
AcDbLine
 10
-158.4372688488765
 20
-813.6966426527985
 30
0.0
 11
-180.0372688488765
 21
-813.6966426527985
 31
0.0
  0
LINE
  5
E09
330
E03
100
AcDbEntity
  8
0
 62
     0
370
    -2
100
AcDbLine
 10
-153.4800817947562
 20
-813.6966426527985
 30
0.0
 11
-155.9372688488765
 21
-813.6966426527985
 31
0.0
  0
INSERT
  5
E0A
330
E03
100
AcDbEntity
  8
0
 62
     0
370
    -2
100
AcDbBlockReference
  2
_Open30
 10
-153.4800817947562
 20
-813.6966426527985
 30
0.0
 41
2.5
 42
2.5
 43
2.5
 50
180.0
  0
INSERT
  5
E0B
330
E03
100
AcDbEntity
  8
0
 62
     0
370
    -2
100
AcDbBlockReference
  2
_Open30
 10
-155.9372688488765
 20
-813.6966426527985
 30
0.0
 41
2.5
 42
2.5
 43
2.5
  0
MTEXT
  5
E0C
330
E03
100
AcDbEntity
  8
0
 62
     4
100
AcDbMText
 10
-170.4872688488765
 20
-809.9216426527986
 30
0.0
 40
6.299999999999999
 41
0.0
 71
     5
 72
     1
  1
0.25
  7
高6.3
 73
     1
 44
1.0
1001
ACAD
1000
MTEXTBEGIN
1070
    73
1070
     1
1070
    44
1040
1.0
1070
    74
1070
     0
1000
MTEXTEND
  0
POINT
  5
E0D
330
E03
100
AcDbEntity
  8
Defpoints
 62
     0
100
AcDbPoint
 10
-153.4800817947562
 20
-811.7870112307898
 30
0.0
  0
POINT
  5
E0E
330
E03
100
AcDbEntity
  8
Defpoints
 62
     0
100
AcDbPoint
 10
-155.9372688488765
 20
-811.7870112307898
 30
0.0
  0
POINT
  5
E0F
330
E03
100
AcDbEntity
  8
Defpoints
 62
     0
100
AcDbPoint
 10
-155.9372688488765
 20
-813.6966426527985
 30
0.0
  0
ENDBLK
  5
E10
330
E03
100
AcDbEntity
  8
0
100
AcDbBlockEnd
  0
BLOCK
  5
E12
330
E11
100
AcDbEntity
  8
0
100
AcDbBlockBegin
  2
*D16
 70
     1
 10
0.0
 20
0.0
 30
0.0
  3
*D16
  1

  0
LINE
  5
E13
330
E11
100
AcDbEntity
  8
0
 62
     0
370
    -2
100
AcDbLine
 10
-151.841956888683
 20
-817.4931008035521
 30
0.0
 11
-151.841956888683
 21
-820.0389928730155
 31
0.0
  0
LINE
  5
E14
330
E11
100
AcDbEntity
  8
0
 62
     0
370
    -2
100
AcDbLine
 10
-154.9361926868259
 20
-817.4931008035521
 30
0.0
 11
-154.9361926868259
 21
-820.0389928730155
 31
0.0
  0
LINE
  5
E15
330
E11
100
AcDbEntity
  8
0
 62
     0
370
    -2
100
AcDbLine
 10
-149.341956888683
 20
-818.7889928730154
 30
0.0
 11
-146.841956888683
 21
-818.7889928730154
 31
0.0
  0
LINE
  5
E16
330
E11
100
AcDbEntity
  8
0
 62
     0
370
    -2
100
AcDbLine
 10
-157.4361926868259
 20
-818.7889928730154
 30
0.0
 11
-169.4361926868259
 21
-818.7889928730154
 31
0.0
  0
LINE
  5
E17
330
E11
100
AcDbEntity
  8
0
 62
     0
370
    -2
100
AcDbLine
 10
-151.841956888683
 20
-818.7889928730154
 30
0.0
 11
-154.9361926868259
 21
-818.7889928730154
 31
0.0
  0
INSERT
  5
E18
330
E11
100
AcDbEntity
  8
0
 62
     0
370
    -2
100
AcDbBlockReference
  2
_Open30
 10
-151.841956888683
 20
-818.7889928730154
 30
0.0
 41
2.5
 42
2.5
 43
2.5
 50
180.0
  0
INSERT
  5
E19
330
E11
100
AcDbEntity
  8
0
 62
     0
370
    -2
100
AcDbBlockReference
  2
_Open30
 10
-154.9361926868259
 20
-818.7889928730154
 30
0.0
 41
2.5
 42
2.5
 43
2.5
  0
MTEXT
  5
E1A
330
E11
100
AcDbEntity
  8
0
 62
     4
100
AcDbMText
 10
-164.8111926868259
 20
-816.6639928730154
 30
0.0
 40
3.0
 41
0.0
 71
     5
 72
     1
  1
1.55
 73
     1
 44
1.0
1001
ACAD
1000
MTEXTBEGIN
1070
    73
1070
     1
1070
    44
1040
1.0
1070
    74
1070
     0
1000
MTEXTEND
  0
POINT
  5
E1B
330
E11
100
AcDbEntity
  8
Defpoints
 62
     0
100
AcDbPoint
 10
-151.841956888683
 20
-817.2431008035522
 30
0.0
  0
POINT
  5
E1C
330
E11
100
AcDbEntity
  8
Defpoints
 62
     0
100
AcDbPoint
 10
-154.9361926868259
 20
-817.2431008035522
 30
0.0
  0
POINT
  5
E1D
330
E11
100
AcDbEntity
  8
Defpoints
 62
     0
100
AcDbPoint
 10
-154.9361926868259
 20
-818.7889928730154
 30
0.0
  0
ENDBLK
  5
E1E
330
E11
100
AcDbEntity
  8
0
100
AcDbBlockEnd
  0
BLOCK
  5
E20
330
E1F
100
AcDbEntity
  8
0
100
AcDbBlockBegin
  2
*D17
 70
     1
 10
0.0
 20
0.0
 30
0.0
  3
*D17
  1

  0
LINE
  5
E21
330
E1F
100
AcDbEntity
  8
0
 62
     0
370
    -2
100
AcDbLine
 10
-150.1128252805975
 20
-822.9491905193986
 30
0.0
 11
-150.1128252805975
 21
-825.2222781817659
 31
0.0
  0
LINE
  5
E22
330
E1F
100
AcDbEntity
  8
0
 62
     0
370
    -2
100
AcDbLine
 10
-154.1171302337894
 20
-822.9491905193986
 30
0.0
 11
-154.1171302337894
 21
-825.2222781817659
 31
0.0
  0
LINE
  5
E23
330
E1F
100
AcDbEntity
  8
0
 62
     0
370
    -2
100
AcDbLine
 10
-147.6128252805976
 20
-823.9722781817658
 30
0.0
 11
-145.1128252805975
 21
-823.9722781817658
 31
0.0
  0
LINE
  5
E24
330
E1F
100
AcDbEntity
  8
0
 62
     0
370
    -2
100
AcDbLine
 10
-156.6171302337894
 20
-823.9722781817658
 30
0.0
 11
-164.9504635671227
 21
-823.9722781817658
 31
0.0
  0
LINE
  5
E25
330
E1F
100
AcDbEntity
  8
0
 62
     0
370
    -2
100
AcDbLine
 10
-150.1128252805975
 20
-823.9722781817658
 30
0.0
 11
-154.1171302337894
 21
-823.9722781817658
 31
0.0
  0
INSERT
  5
E26
330
E1F
100
AcDbEntity
  8
0
 62
     0
370
    -2
100
AcDbBlockReference
  2
_Open30
 10
-150.1128252805975
 20
-823.9722781817658
 30
0.0
 41
2.5
 42
2.5
 43
2.5
 50
180.0
  0
INSERT
  5
E27
330
E1F
100
AcDbEntity
  8
0
 62
     0
370
    -2
100
AcDbBlockReference
  2
_Open30
 10
-154.1171302337894
 20
-823.9722781817658
 30
0.0
 41
2.5
 42
2.5
 43
2.5
  0
MTEXT
  5
E28
330
E1F
100
AcDbEntity
  8
0
 62
     4
100
AcDbMText
 10
-162.4921302337894
 20
-822.3472781817658
 30
0.0
 40
2.0
 41
0.0
 71
     5
 72
     1
  1
0.8
  7
高2
 73
     1
 44
1.0
1001
ACAD
1000
MTEXTBEGIN
1070
    73
1070
     1
1070
    44
1040
1.0
1070
    74
1070
     0
1000
MTEXTEND
  0
POINT
  5
E29
330
E1F
100
AcDbEntity
  8
Defpoints
 62
     0
100
AcDbPoint
 10
-150.1128252805975
 20
-822.6991905193985
 30
0.0
  0
POINT
  5
E2A
330
E1F
100
AcDbEntity
  8
Defpoints
 62
     0
100
AcDbPoint
 10
-154.1171302337894
 20
-822.6991905193985
 30
0.0
  0
POINT
  5
E2B
330
E1F
100
AcDbEntity
  8
Defpoints
 62
     0
100
AcDbPoint
 10
-154.1171302337894
 20
-823.9722781817658
 30
0.0
  0
ENDBLK
  5
E2C
330
E1F
100
AcDbEntity
  8
0
100
AcDbBlockEnd
  0
BLOCK
  5
E2E
330
E2D
100
AcDbEntity
  8
0
100
AcDbBlockBegin
  2
*D18
 70
     1
 10
0.0
 20
0.0
 30
0.0
  3
*D18
  1

  0
LINE
  5
E2F
330
E2D
100
AcDbEntity
  8
0
 62
     0
370
    -2
100
AcDbLine
 10
-150.2038319826098
 20
-828.2234104874302
 30
0.0
 11
-150.2038319826098
 21
-830.0418239948866
 31
0.0
  0
LINE
  5
E30
330
E2D
100
AcDbEntity
  8
0
 62
     0
370
    -2
100
AcDbLine
 10
-154.9361926868259
 20
-828.2234104874302
 30
0.0
 11
-154.9361926868259
 21
-830.0418239948866
 31
0.0
  0
LINE
  5
E31
330
E2D
100
AcDbEntity
  8
0
 62
     0
370
    -2
100
AcDbLine
 10
-147.7038319826099
 20
-828.7918239948865
 30
0.0
 11
-145.2038319826098
 21
-828.7918239948865
 31
0.0
  0
LINE
  5
E32
330
E2D
100
AcDbEntity
  8
0
 62
     0
370
    -2
100
AcDbLine
 10
-157.4361926868259
 20
-828.7918239948865
 30
0.0
 11
-172.1861926868259
 21
-828.7918239948865
 31
0.0
  0
LINE
  5
E33
330
E2D
100
AcDbEntity
  8
0
 62
     0
370
    -2
100
AcDbLine
 10
-150.2038319826098
 20
-828.7918239948865
 30
0.0
 11
-154.9361926868259
 21
-828.7918239948865
 31
0.0
  0
INSERT
  5
E34
330
E2D
100
AcDbEntity
  8
0
 62
     0
370
    -2
100
AcDbBlockReference
  2
_Open30
 10
-150.2038319826098
 20
-828.7918239948865
 30
0.0
 41
2.5
 42
2.5
 43
2.5
 50
180.0
  0
INSERT
  5
E35
330
E2D
100
AcDbEntity
  8
0
 62
     0
370
    -2
100
AcDbBlockReference
  2
_Open30
 10
-154.9361926868259
 20
-828.7918239948865
 30
0.0
 41
2.5
 42
2.5
 43
2.5
  0
MTEXT
  5
E36
330
E2D
100
AcDbEntity
  8
0
 62
     4
100
AcDbMText
 10
-166.0611926868259
 20
-826.6668239948867
 30
0.0
 40
3.0
 41
0.0
 71
     5
 72
     1
  1
18.93
 73
     1
 44
1.0
1001
ACAD
1000
MTEXTBEGIN
1070
    73
1070
     1
1070
    44
1040
1.0
1070
    74
1070
     0
1000
MTEXTEND
  0
POINT
  5
E37
330
E2D
100
AcDbEntity
  8
Defpoints
 62
     0
100
AcDbPoint
 10
-150.2038319826098
 20
-827.9734104874302
 30
0.0
  0
POINT
  5
E38
330
E2D
100
AcDbEntity
  8
Defpoints
 62
     0
100
AcDbPoint
 10
-154.9361926868259
 20
-827.9734104874302
 30
0.0
  0
POINT
  5
E39
330
E2D
100
AcDbEntity
  8
Defpoints
 62
     0
100
AcDbPoint
 10
-154.9361926868259
 20
-828.7918239948865
 30
0.0
  0
ENDBLK
  5
E3A
330
E2D
100
AcDbEntity
  8
0
100
AcDbBlockEnd
  0
BLOCK
  5
E3C
330
E3B
100
AcDbEntity
  8
0
100
AcDbBlockBegin
  2
*D19
 70
     1
 10
0.0
 20
0.0
 30
0.0
  3
*D19
  1

  0
LINE
  5
E3D
330
E3B
100
AcDbEntity
  8
0
 62
     0
370
    -2
100
AcDbLine
 10
-153.0082588337482
 20
-833.2792506940199
 30
0.0
 11
-153.0082588337482
 21
-835.5891717708955
 31
0.0
  0
LINE
  5
E3E
330
E3B
100
AcDbEntity
  8
0
 62
     0
370
    -2
100
AcDbLine
 10
-157.5969340358961
 20
-833.2792506940199
 30
0.0
 11
-157.5969340358961
 21
-835.5891717708955
 31
0.0
  0
LINE
  5
E3F
330
E3B
100
AcDbEntity
  8
0
 62
     0
370
    -2
100
AcDbLine
 10
-150.5082588337482
 20
-834.3391717708955
 30
0.0
 11
-148.0082588337482
 21
-834.3391717708955
 31
0.0
  0
LINE
  5
E40
330
E3B
100
AcDbEntity
  8
0
 62
     0
370
    -2
100
AcDbLine
 10
-160.0969340358961
 20
-834.3391717708955
 30
0.0
 11
-174.8469340358961
 21
-834.3391717708955
 31
0.0
  0
LINE
  5
E41
330
E3B
100
AcDbEntity
  8
0
 62
     0
370
    -2
100
AcDbLine
 10
-153.0082588337482
 20
-834.3391717708955
 30
0.0
 11
-157.5969340358961
 21
-834.3391717708955
 31
0.0
  0
INSERT
  5
E42
330
E3B
100
AcDbEntity
  8
0
 62
     0
370
    -2
100
AcDbBlockReference
  2
_Open30
 10
-153.0082588337482
 20
-834.3391717708955
 30
0.0
 41
2.5
 42
2.5
 43
2.5
 50
180.0
  0
INSERT
  5
E43
330
E3B
100
AcDbEntity
  8
0
 62
     0
370
    -2
100
AcDbBlockReference
  2
_Open30
 10
-157.5969340358961
 20
-834.3391717708955
 30
0.0
 41
2.5
 42
2.5
 43
2.5
  0
MTEXT
  5
E44
330
E3B
100
AcDbEntity
  8
0
 62
     4
100
AcDbMText
 10
-168.7219340358961
 20
-832.2141717708955
 30
0.0
 40
3.0
 41
0.0
 71
     5
 72
     1
  1
13.77
 73
     1
 44
1.0
1001
ACAD
1000
MTEXTBEGIN
1070
    73
1070
     1
1070
    44
1040
1.0
1070
    74
1070
     0
1000
MTEXTEND
  0
POINT
  5
E45
330
E3B
100
AcDbEntity
  8
Defpoints
 62
     0
100
AcDbPoint
 10
-153.0082588337482
 20
-833.02925069402
 30
0.0
  0
POINT
  5
E46
330
E3B
100
AcDbEntity
  8
Defpoints
 62
     0
100
AcDbPoint
 10
-157.5969340358961
 20
-833.02925069402
 30
0.0
  0
POINT
  5
E47
330
E3B
100
AcDbEntity
  8
Defpoints
 62
     0
100
AcDbPoint
 10
-157.5969340358961
 20
-834.3391717708955
 30
0.0
  0
ENDBLK
  5
E48
330
E3B
100
AcDbEntity
  8
0
100
AcDbBlockEnd
  0
BLOCK
  5
E4A
330
E49
100
AcDbEntity
  8
0
100
AcDbBlockBegin
  2
*D20
 70
     1
 10
0.0
 20
0.0
 30
0.0
  3
*D20
  1

  0
LINE
  5
E4B
330
E49
100
AcDbEntity
  8
0
 62
     0
370
    -2
100
AcDbLine
 10
-160.1045416668985
 20
-802.3497593757456
 30
0.0
 11
-160.1045416668985
 21
-794.9532258978079
 31
0.0
  0
LINE
  5
E4C
330
E49
100
AcDbEntity
  8
0
 62
     0
370
    -2
100
AcDbLine
 10
-170.0430160363885
 20
-802.3497593757456
 30
0.0
 11
-170.0430160363885
 21
-794.9532258978079
 31
0.0
  0
LINE
  5
E4D
330
E49
100
AcDbEntity
  8
0
 62
     0
370
    -2
100
AcDbLine
 10
-162.6045416668985
 20
-796.2032258978078
 30
0.0
 11
-167.5430160363885
 21
-796.2032258978078
 31
0.0
  0
INSERT
  5
E4E
330
E49
100
AcDbEntity
  8
0
 62
     0
370
    -2
100
AcDbBlockReference
  2
_Open30
 10
-160.1045416668985
 20
-796.2032258978078
 30
0.0
 41
2.5
 42
2.5
 43
2.5
  0
INSERT
  5
E4F
330
E49
100
AcDbEntity
  8
0
 62
     0
370
    -2
100
AcDbBlockReference
  2
_Open30
 10
-170.0430160363885
 20
-796.2032258978078
 30
0.0
 41
2.5
 42
2.5
 43
2.5
 50
180.0
  0
MTEXT
  5
E50
330
E49
100
AcDbEntity
  8
0
 62
     4
100
AcDbMText
 10
-165.0737788516435
 20
-793.1282258978078
 30
0.0
 40
3.0
 41
0.0
 71
     5
 72
     1
  1
9.94\H0.7X;\S+0^ -0.02;
 73
     1
 44
1.0
1001
ACAD
1000
MTEXTBEGIN
1070
    73
1070
     1
1070
    44
1040
1.0
1070
    74
1070
     0
1000
MTEXTEND
  0
POINT
  5
E51
330
E49
100
AcDbEntity
  8
Defpoints
 62
     0
100
AcDbPoint
 10
-160.1045416668985
 20
-802.5997593757455
 30
0.0
  0
POINT
  5
E52
330
E49
100
AcDbEntity
  8
Defpoints
 62
     0
100
AcDbPoint
 10
-170.0430160363885
 20
-802.5997593757455
 30
0.0
  0
POINT
  5
E53
330
E49
100
AcDbEntity
  8
Defpoints
 62
     0
100
AcDbPoint
 10
-170.0430160363885
 20
-796.2032258978078
 30
0.0
  0
ENDBLK
  5
E54
330
E49
100
AcDbEntity
  8
0
100
AcDbBlockEnd
  0
BLOCK
  5
E77
330
E76
100
AcDbEntity
  8
0
100
AcDbBlockBegin
  2
*D22
 70
     1
 10
0.0
 20
0.0
 30
0.0
  3
*D22
  1

  0
LINE
  5
F00
330
E76
100
AcDbEntity
  8
0
 62
     0
370
    -2
100
AcDbLine
 10
272.297912555687
 20
50.39630626340192
 30
0.0
 11
272.297912555687
 21
47.4866748413931
 31
0.0
  0
LINE
  5
F01
330
E76
100
AcDbEntity
  8
0
 62
     0
370
    -2
100
AcDbLine
 10
269.8407255015667
 20
50.39630626340192
 30
0.0
 11
269.8407255015667
 21
47.4866748413931
 31
0.0
  0
LINE
  5
F02
330
E76
100
AcDbEntity
  8
0
 62
     0
370
    -2
100
AcDbLine
 10
274.797912555687
 20
48.7366748413931
 30
0.0
 11
277.297912555687
 21
48.7366748413931
 31
0.0
  0
LINE
  5
F03
330
E76
100
AcDbEntity
  8
0
 62
     0
370
    -2
100
AcDbLine
 10
267.3407255015667
 20
48.7366748413931
 30
0.0
 11
254.5907255015667
 21
48.7366748413931
 31
0.0
  0
LINE
  5
F04
330
E76
100
AcDbEntity
  8
0
 62
     0
370
    -2
100
AcDbLine
 10
272.297912555687
 20
48.7366748413931
 30
0.0
 11
269.8407255015667
 21
48.7366748413931
 31
0.0
  0
INSERT
  5
F05
330
E76
100
AcDbEntity
  8
0
 62
     0
370
    -2
100
AcDbBlockReference
  2
_Open30
 10
272.297912555687
 20
48.7366748413931
 30
0.0
 41
2.5
 42
2.5
 43
2.5
 50
180.0
  0
INSERT
  5
F06
330
E76
100
AcDbEntity
  8
0
 62
     0
370
    -2
100
AcDbBlockReference
  2
_Open30
 10
269.8407255015667
 20
48.7366748413931
 30
0.0
 41
2.5
 42
2.5
 43
2.5
  0
MTEXT
  5
F07
330
E76
100
AcDbEntity
  8
0
 62
     4
100
AcDbMText
 10
259.7157255015667
 20
50.86167484139309
 30
0.0
 40
3.0
 41
0.0
 71
     5
 72
     1
  1
2.46
 73
     1
 44
1.0
1001
ACAD
1000
MTEXTBEGIN
1070
    73
1070
     1
1070
    44
1040
1.0
1070
    74
1070
     0
1000
MTEXTEND
  0
POINT
  5
F08
330
E76
100
AcDbEntity
  8
Defpoints
 62
     0
100
AcDbPoint
 10
272.297912555687
 20
50.64630626340193
 30
0.0
  0
POINT
  5
F09
330
E76
100
AcDbEntity
  8
Defpoints
 62
     0
100
AcDbPoint
 10
269.8407255015667
 20
50.64630626340193
 30
0.0
  0
POINT
  5
F0A
330
E76
100
AcDbEntity
  8
Defpoints
 62
     0
100
AcDbPoint
 10
269.8407255015667
 20
48.7366748413931
 30
0.0
  0
ENDBLK
  5
E78
330
E76
100
AcDbEntity
  8
0
100
AcDbBlockEnd
  0
BLOCK
  5
E85
330
E84
100
AcDbEntity
  8
0
100
AcDbBlockBegin
  2
*D23
 70
     1
 10
0.0
 20
0.0
 30
0.0
  3
*D23
  1

  0
LINE
  5
F0B
330
E84
100
AcDbEntity
  8
0
 62
     0
370
    -2
100
AcDbLine
 10
273.9360374617602
 20
44.94021669063954
 30
0.0
 11
273.9360374617602
 21
42.39432462117622
 31
0.0
  0
LINE
  5
F0C
330
E84
100
AcDbEntity
  8
0
 62
     0
370
    -2
100
AcDbLine
 10
270.8418016636173
 20
44.94021669063954
 30
0.0
 11
270.8418016636173
 21
42.39432462117622
 31
0.0
  0
LINE
  5
F0D
330
E84
100
AcDbEntity
  8
0
 62
     0
370
    -2
100
AcDbLine
 10
276.4360374617602
 20
43.64432462117622
 30
0.0
 11
278.9360374617602
 21
43.64432462117622
 31
0.0
  0
LINE
  5
F0E
330
E84
100
AcDbEntity
  8
0
 62
     0
370
    -2
100
AcDbLine
 10
268.3418016636173
 20
43.64432462117622
 30
0.0
 11
254.5084683302839
 21
43.64432462117622
 31
0.0
  0
LINE
  5
F0F
330
E84
100
AcDbEntity
  8
0
 62
     0
370
    -2
100
AcDbLine
 10
273.9360374617602
 20
43.64432462117622
 30
0.0
 11
270.8418016636173
 21
43.64432462117622
 31
0.0
  0
INSERT
  5
F10
330
E84
100
AcDbEntity
  8
0
 62
     0
370
    -2
100
AcDbBlockReference
  2
_Open30
 10
273.9360374617602
 20
43.64432462117622
 30
0.0
 41
2.5
 42
2.5
 43
2.5
 50
180.0
  0
INSERT
  5
F11
330
E84
100
AcDbEntity
  8
0
 62
     0
370
    -2
100
AcDbBlockReference
  2
_Open30
 10
270.8418016636173
 20
43.64432462117622
 30
0.0
 41
2.5
 42
2.5
 43
2.5
  0
MTEXT
  5
F12
330
E84
100
AcDbEntity
  8
0
 62
     4
100
AcDbMText
 10
259.7168016636173
 20
45.51932462117622
 30
0.0
 40
2.5
 41
0.0
 71
     5
 72
     1
  1
15.47
  7
高2.5
 73
     1
 44
1.0
1001
ACAD
1000
MTEXTBEGIN
1070
    73
1070
     1
1070
    44
1040
1.0
1070
    74
1070
     0
1000
MTEXTEND
  0
POINT
  5
F13
330
E84
100
AcDbEntity
  8
Defpoints
 62
     0
100
AcDbPoint
 10
273.9360374617602
 20
45.19021669063954
 30
0.0
  0
POINT
  5
F14
330
E84
100
AcDbEntity
  8
Defpoints
 62
     0
100
AcDbPoint
 10
270.8418016636173
 20
45.19021669063954
 30
0.0
  0
POINT
  5
F15
330
E84
100
AcDbEntity
  8
Defpoints
 62
     0
100
AcDbPoint
 10
270.8418016636173
 20
43.64432462117622
 30
0.0
  0
ENDBLK
  5
E86
330
E84
100
AcDbEntity
  8
0
100
AcDbBlockEnd
  0
BLOCK
  5
E93
330
E92
100
AcDbEntity
  8
0
100
AcDbBlockBegin
  2
*D24
 70
     1
 10
0.0
 20
0.0
 30
0.0
  3
*D24
  1

  0
LINE
  5
F16
330
E92
100
AcDbEntity
  8
0
 62
     0
370
    -2
100
AcDbLine
 10
275.6651690698457
 20
39.48412697479307
 30
0.0
 11
275.6651690698457
 21
37.21103931242578
 31
0.0
  0
LINE
  5
F17
330
E92
100
AcDbEntity
  8
0
 62
     0
370
    -2
100
AcDbLine
 10
271.6608641166538
 20
39.48412697479307
 30
0.0
 11
271.6608641166538
 21
37.21103931242578
 31
0.0
  0
LINE
  5
F18
330
E92
100
AcDbEntity
  8
0
 62
     0
370
    -2
100
AcDbLine
 10
278.1651690698457
 20
38.46103931242578
 30
0.0
 11
280.6651690698457
 21
38.46103931242578
 31
0.0
  0
LINE
  5
F19
330
E92
100
AcDbEntity
  8
0
 62
     0
370
    -2
100
AcDbLine
 10
269.1608641166538
 20
38.46103931242578
 30
0.0
 11
257.4108641166538
 21
38.46103931242578
 31
0.0
  0
LINE
  5
F1A
330
E92
100
AcDbEntity
  8
0
 62
     0
370
    -2
100
AcDbLine
 10
275.6651690698457
 20
38.46103931242578
 30
0.0
 11
271.6608641166538
 21
38.46103931242578
 31
0.0
  0
INSERT
  5
F1B
330
E92
100
AcDbEntity
  8
0
 62
     0
370
    -2
100
AcDbBlockReference
  2
_Open30
 10
275.6651690698457
 20
38.46103931242578
 30
0.0
 41
2.5
 42
2.5
 43
2.5
 50
180.0
  0
INSERT
  5
F1C
330
E92
100
AcDbEntity
  8
0
 62
     0
370
    -2
100
AcDbBlockReference
  2
_Open30
 10
271.6608641166538
 20
38.46103931242578
 30
0.0
 41
2.5
 42
2.5
 43
2.5
  0
MTEXT
  5
F1D
330
E92
100
AcDbEntity
  8
0
 62
     4
100
AcDbMText
 10
262.0358641166538
 20
40.68603931242578
 30
0.0
 40
3.2
 41
0.0
 71
     5
 72
     1
  1
8.01
  7
高3.2
 73
     1
 44
1.0
1001
ACAD
1000
MTEXTBEGIN
1070
    73
1070
     1
1070
    44
1040
1.0
1070
    74
1070
     0
1000
MTEXTEND
  0
POINT
  5
F1E
330
E92
100
AcDbEntity
  8
Defpoints
 62
     0
100
AcDbPoint
 10
275.6651690698457
 20
39.73412697479307
 30
0.0
  0
POINT
  5
F1F
330
E92
100
AcDbEntity
  8
Defpoints
 62
     0
100
AcDbPoint
 10
271.6608641166538
 20
39.73412697479307
 30
0.0
  0
POINT
  5
F20
330
E92
100
AcDbEntity
  8
Defpoints
 62
     0
100
AcDbPoint
 10
271.6608641166538
 20
38.46103931242578
 30
0.0
  0
ENDBLK
  5
E94
330
E92
100
AcDbEntity
  8
0
100
AcDbBlockEnd
  0
BLOCK
  5
EA1
330
EA0
100
AcDbEntity
  8
0
100
AcDbBlockBegin
  2
*D25
 70
     1
 10
0.0
 20
0.0
 30
0.0
  3
*D25
  1

  0
LINE
  5
F21
330
EA0
100
AcDbEntity
  8
0
 62
     0
370
    -2
100
AcDbLine
 10
275.5741623678334
 20
34.20990700676146
 30
0.0
 11
275.5741623678334
 21
32.39149349930506
 31
0.0
  0
LINE
  5
F22
330
EA0
100
AcDbEntity
  8
0
 62
     0
370
    -2
100
AcDbLine
 10
270.8418016636173
 20
34.20990700676146
 30
0.0
 11
270.8418016636173
 21
32.39149349930506
 31
0.0
  0
LINE
  5
F23
330
EA0
100
AcDbEntity
  8
0
 62
     0
370
    -2
100
AcDbLine
 10
278.0741623678334
 20
33.64149349930506
 30
0.0
 11
280.5741623678334
 21
33.64149349930506
 31
0.0
  0
LINE
  5
F24
330
EA0
100
AcDbEntity
  8
0
 62
     0
370
    -2
100
AcDbLine
 10
268.3418016636173
 20
33.64149349930506
 30
0.0
 11
246.5918016636173
 21
33.64149349930506
 31
0.0
  0
LINE
  5
F25
330
EA0
100
AcDbEntity
  8
0
 62
     0
370
    -2
100
AcDbLine
 10
275.5741623678334
 20
33.64149349930506
 30
0.0
 11
270.8418016636173
 21
33.64149349930506
 31
0.0
  0
INSERT
  5
F26
330
EA0
100
AcDbEntity
  8
0
 62
     0
370
    -2
100
AcDbBlockReference
  2
_Open30
 10
275.5741623678334
 20
33.64149349930506
 30
0.0
 41
2.5
 42
2.5
 43
2.5
 50
180.0
  0
INSERT
  5
F27
330
EA0
100
AcDbEntity
  8
0
 62
     0
370
    -2
100
AcDbBlockReference
  2
_Open30
 10
270.8418016636173
 20
33.64149349930506
 30
0.0
 41
2.5
 42
2.5
 43
2.5
  0
MTEXT
  5
F28
330
EA0
100
AcDbEntity
  8
0
 62
     4
100
AcDbMText
 10
256.2168016636173
 20
36.51649349930506
 30
0.0
 40
4.5
 41
0.0
 71
     5
 72
     1
  1
47.32
  7
高4.5
 73
     1
 44
1.0
1001
ACAD
1000
MTEXTBEGIN
1070
    73
1070
     1
1070
    44
1040
1.0
1070
    74
1070
     0
1000
MTEXTEND
  0
POINT
  5
F29
330
EA0
100
AcDbEntity
  8
Defpoints
 62
     0
100
AcDbPoint
 10
275.5741623678334
 20
34.45990700676146
 30
0.0
  0
POINT
  5
F2A
330
EA0
100
AcDbEntity
  8
Defpoints
 62
     0
100
AcDbPoint
 10
270.8418016636173
 20
34.45990700676146
 30
0.0
  0
POINT
  5
F2B
330
EA0
100
AcDbEntity
  8
Defpoints
 62
     0
100
AcDbPoint
 10
270.8418016636173
 20
33.64149349930506
 30
0.0
  0
ENDBLK
  5
EA2
330
EA0
100
AcDbEntity
  8
0
100
AcDbBlockEnd
  0
BLOCK
  5
EAF
330
EAE
100
AcDbEntity
  8
0
100
AcDbBlockBegin
  2
*D26
 70
     1
 10
0.0
 20
0.0
 30
0.0
  3
*D26
  1

  0
LINE
  5
F2C
330
EAE
100
AcDbEntity
  8
0
 62
     0
370
    -2
100
AcDbLine
 10
297.0517986358408
 20
50.39630626340192
 30
0.0
 11
297.0517986358408
 21
47.4866748413931
 31
0.0
  0
LINE
  5
F2D
330
EAE
100
AcDbEntity
  8
0
 62
     0
370
    -2
100
AcDbLine
 10
294.5946115817205
 20
50.39630626340192
 30
0.0
 11
294.5946115817205
 21
47.4866748413931
 31
0.0
  0
LINE
  5
F2E
330
EAE
100
AcDbEntity
  8
0
 62
     0
370
    -2
100
AcDbLine
 10
299.5517986358408
 20
48.7366748413931
 30
0.0
 11
302.0517986358409
 21
48.7366748413931
 31
0.0
  0
LINE
  5
F2F
330
EAE
100
AcDbEntity
  8
0
 62
     0
370
    -2
100
AcDbLine
 10
292.0946115817205
 20
48.7366748413931
 30
0.0
 11
270.4946115817206
 21
48.7366748413931
 31
0.0
  0
LINE
  5
F30
330
EAE
100
AcDbEntity
  8
0
 62
     0
370
    -2
100
AcDbLine
 10
297.0517986358408
 20
48.7366748413931
 30
0.0
 11
294.5946115817205
 21
48.7366748413931
 31
0.0
  0
INSERT
  5
F31
330
EAE
100
AcDbEntity
  8
0
 62
     0
370
    -2
100
AcDbBlockReference
  2
_Open30
 10
297.0517986358408
 20
48.7366748413931
 30
0.0
 41
2.5
 42
2.5
 43
2.5
 50
180.0
  0
INSERT
  5
F32
330
EAE
100
AcDbEntity
  8
0
 62
     0
370
    -2
100
AcDbBlockReference
  2
_Open30
 10
294.5946115817205
 20
48.7366748413931
 30
0.0
 41
2.5
 42
2.5
 43
2.5
  0
MTEXT
  5
F33
330
EAE
100
AcDbEntity
  8
0
 62
     4
100
AcDbMText
 10
280.0446115817205
 20
52.51167484139309
 30
0.0
 40
6.299999999999998
 41
0.0
 71
     5
 72
     1
  1
0.25
  7
高6.3
 73
     1
 44
1.0
1001
ACAD
1000
MTEXTBEGIN
1070
    73
1070
     1
1070
    44
1040
1.0
1070
    74
1070
     0
1000
MTEXTEND
  0
POINT
  5
F34
330
EAE
100
AcDbEntity
  8
Defpoints
 62
     0
100
AcDbPoint
 10
297.0517986358408
 20
50.64630626340193
 30
0.0
  0
POINT
  5
F35
330
EAE
100
AcDbEntity
  8
Defpoints
 62
     0
100
AcDbPoint
 10
294.5946115817205
 20
50.64630626340193
 30
0.0
  0
POINT
  5
F36
330
EAE
100
AcDbEntity
  8
Defpoints
 62
     0
100
AcDbPoint
 10
294.5946115817205
 20
48.7366748413931
 30
0.0
  0
ENDBLK
  5
EB0
330
EAE
100
AcDbEntity
  8
0
100
AcDbBlockEnd
  0
BLOCK
  5
EBD
330
EBC
100
AcDbEntity
  8
0
100
AcDbBlockBegin
  2
*D27
 70
     1
 10
0.0
 20
0.0
 30
0.0
  3
*D27
  1

  0
LINE
  5
F37
330
EBC
100
AcDbEntity
  8
0
 62
     0
370
    -2
100
AcDbLine
 10
298.689923541914
 20
44.94021669063954
 30
0.0
 11
298.689923541914
 21
42.39432462117622
 31
0.0
  0
LINE
  5
F38
330
EBC
100
AcDbEntity
  8
0
 62
     0
370
    -2
100
AcDbLine
 10
295.5956877437711
 20
44.94021669063954
 30
0.0
 11
295.5956877437711
 21
42.39432462117622
 31
0.0
  0
LINE
  5
F39
330
EBC
100
AcDbEntity
  8
0
 62
     0
370
    -2
100
AcDbLine
 10
301.189923541914
 20
43.64432462117622
 30
0.0
 11
303.689923541914
 21
43.64432462117622
 31
0.0
  0
LINE
  5
F3A
330
EBC
100
AcDbEntity
  8
0
 62
     0
370
    -2
100
AcDbLine
 10
293.0956877437711
 20
43.64432462117622
 30
0.0
 11
281.0956877437711
 21
43.64432462117622
 31
0.0
  0
LINE
  5
F3B
330
EBC
100
AcDbEntity
  8
0
 62
     0
370
    -2
100
AcDbLine
 10
298.689923541914
 20
43.64432462117622
 30
0.0
 11
295.5956877437711
 21
43.64432462117622
 31
0.0
  0
INSERT
  5
F3C
330
EBC
100
AcDbEntity
  8
0
 62
     0
370
    -2
100
AcDbBlockReference
  2
_Open30
 10
298.689923541914
 20
43.64432462117622
 30
0.0
 41
2.5
 42
2.5
 43
2.5
 50
180.0
  0
INSERT
  5
F3D
330
EBC
100
AcDbEntity
  8
0
 62
     0
370
    -2
100
AcDbBlockReference
  2
_Open30
 10
295.5956877437711
 20
43.64432462117622
 30
0.0
 41
2.5
 42
2.5
 43
2.5
  0
MTEXT
  5
F3E
330
EBC
100
AcDbEntity
  8
0
 62
     4
100
AcDbMText
 10
285.7206877437711
 20
45.76932462117622
 30
0.0
 40
3.0
 41
0.0
 71
     5
 72
     1
  1
1.55
 73
     1
 44
1.0
1001
ACAD
1000
MTEXTBEGIN
1070
    73
1070
     1
1070
    44
1040
1.0
1070
    74
1070
     0
1000
MTEXTEND
  0
POINT
  5
F3F
330
EBC
100
AcDbEntity
  8
Defpoints
 62
     0
100
AcDbPoint
 10
298.689923541914
 20
45.19021669063954
 30
0.0
  0
POINT
  5
F40
330
EBC
100
AcDbEntity
  8
Defpoints
 62
     0
100
AcDbPoint
 10
295.5956877437711
 20
45.19021669063954
 30
0.0
  0
POINT
  5
F41
330
EBC
100
AcDbEntity
  8
Defpoints
 62
     0
100
AcDbPoint
 10
295.5956877437711
 20
43.64432462117622
 30
0.0
  0
ENDBLK
  5
EBE
330
EBC
100
AcDbEntity
  8
0
100
AcDbBlockEnd
  0
BLOCK
  5
ECB
330
ECA
100
AcDbEntity
  8
0
100
AcDbBlockBegin
  2
*D28
 70
     1
 10
0.0
 20
0.0
 30
0.0
  3
*D28
  1

  0
LINE
  5
F42
330
ECA
100
AcDbEntity
  8
0
 62
     0
370
    -2
100
AcDbLine
 10
300.4190551499995
 20
39.48412697479307
 30
0.0
 11
300.4190551499995
 21
37.21103931242578
 31
0.0
  0
LINE
  5
F43
330
ECA
100
AcDbEntity
  8
0
 62
     0
370
    -2
100
AcDbLine
 10
296.4147501968077
 20
39.48412697479307
 30
0.0
 11
296.4147501968077
 21
37.21103931242578
 31
0.0
  0
LINE
  5
F44
330
ECA
100
AcDbEntity
  8
0
 62
     0
370
    -2
100
AcDbLine
 10
302.9190551499995
 20
38.46103931242578
 30
0.0
 11
305.4190551499995
 21
38.46103931242578
 31
0.0
  0
LINE
  5
F45
330
ECA
100
AcDbEntity
  8
0
 62
     0
370
    -2
100
AcDbLine
 10
293.9147501968077
 20
38.46103931242578
 30
0.0
 11
285.5814168634743
 21
38.46103931242578
 31
0.0
  0
LINE
  5
F46
330
ECA
100
AcDbEntity
  8
0
 62
     0
370
    -2
100
AcDbLine
 10
300.4190551499995
 20
38.46103931242578
 30
0.0
 11
296.4147501968077
 21
38.46103931242578
 31
0.0
  0
INSERT
  5
F47
330
ECA
100
AcDbEntity
  8
0
 62
     0
370
    -2
100
AcDbBlockReference
  2
_Open30
 10
300.4190551499995
 20
38.46103931242578
 30
0.0
 41
2.5
 42
2.5
 43
2.5
 50
180.0
  0
INSERT
  5
F48
330
ECA
100
AcDbEntity
  8
0
 62
     0
370
    -2
100
AcDbBlockReference
  2
_Open30
 10
296.4147501968077
 20
38.46103931242578
 30
0.0
 41
2.5
 42
2.5
 43
2.5
  0
MTEXT
  5
F49
330
ECA
100
AcDbEntity
  8
0
 62
     4
100
AcDbMText
 10
288.0397501968077
 20
40.08603931242578
 30
0.0
 40
2.0
 41
0.0
 71
     5
 72
     1
  1
0.8
  7
高2
 73
     1
 44
1.0
1001
ACAD
1000
MTEXTBEGIN
1070
    73
1070
     1
1070
    44
1040
1.0
1070
    74
1070
     0
1000
MTEXTEND
  0
POINT
  5
F4A
330
ECA
100
AcDbEntity
  8
Defpoints
 62
     0
100
AcDbPoint
 10
300.4190551499995
 20
39.73412697479307
 30
0.0
  0
POINT
  5
F4B
330
ECA
100
AcDbEntity
  8
Defpoints
 62
     0
100
AcDbPoint
 10
296.4147501968077
 20
39.73412697479307
 30
0.0
  0
POINT
  5
F4C
330
ECA
100
AcDbEntity
  8
Defpoints
 62
     0
100
AcDbPoint
 10
296.4147501968077
 20
38.46103931242578
 30
0.0
  0
ENDBLK
  5
ECC
330
ECA
100
AcDbEntity
  8
0
100
AcDbBlockEnd
  0
BLOCK
  5
ED9
330
ED8
100
AcDbEntity
  8
0
100
AcDbBlockBegin
  2
*D29
 70
     1
 10
0.0
 20
0.0
 30
0.0
  3
*D29
  1

  0
LINE
  5
F4D
330
ED8
100
AcDbEntity
  8
0
 62
     0
370
    -2
100
AcDbLine
 10
300.3280484479872
 20
34.20990700676146
 30
0.0
 11
300.3280484479872
 21
32.39149349930506
 31
0.0
  0
LINE
  5
F4E
330
ED8
100
AcDbEntity
  8
0
 62
     0
370
    -2
100
AcDbLine
 10
295.5956877437711
 20
34.20990700676146
 30
0.0
 11
295.5956877437711
 21
32.39149349930506
 31
0.0
  0
LINE
  5
F4F
330
ED8
100
AcDbEntity
  8
0
 62
     0
370
    -2
100
AcDbLine
 10
302.8280484479872
 20
33.64149349930506
 30
0.0
 11
305.3280484479872
 21
33.64149349930506
 31
0.0
  0
LINE
  5
F50
330
ED8
100
AcDbEntity
  8
0
 62
     0
370
    -2
100
AcDbLine
 10
293.0956877437711
 20
33.64149349930506
 30
0.0
 11
278.3456877437711
 21
33.64149349930506
 31
0.0
  0
LINE
  5
F51
330
ED8
100
AcDbEntity
  8
0
 62
     0
370
    -2
100
AcDbLine
 10
300.3280484479872
 20
33.64149349930506
 30
0.0
 11
295.5956877437711
 21
33.64149349930506
 31
0.0
  0
INSERT
  5
F52
330
ED8
100
AcDbEntity
  8
0
 62
     0
370
    -2
100
AcDbBlockReference
  2
_Open30
 10
300.3280484479872
 20
33.64149349930506
 30
0.0
 41
2.5
 42
2.5
 43
2.5
 50
180.0
  0
INSERT
  5
F53
330
ED8
100
AcDbEntity
  8
0
 62
     0
370
    -2
100
AcDbBlockReference
  2
_Open30
 10
295.5956877437711
 20
33.64149349930506
 30
0.0
 41
2.5
 42
2.5
 43
2.5
  0
MTEXT
  5
F54
330
ED8
100
AcDbEntity
  8
0
 62
     4
100
AcDbMText
 10
284.4706877437711
 20
35.76649349930506
 30
0.0
 40
3.0
 41
0.0
 71
     5
 72
     1
  1
18.93
 73
     1
 44
1.0
1001
ACAD
1000
MTEXTBEGIN
1070
    73
1070
     1
1070
    44
1040
1.0
1070
    74
1070
     0
1000
MTEXTEND
  0
POINT
  5
F55
330
ED8
100
AcDbEntity
  8
Defpoints
 62
     0
100
AcDbPoint
 10
300.3280484479872
 20
34.45990700676146
 30
0.0
  0
POINT
  5
F56
330
ED8
100
AcDbEntity
  8
Defpoints
 62
     0
100
AcDbPoint
 10
295.5956877437711
 20
34.45990700676146
 30
0.0
  0
POINT
  5
F57
330
ED8
100
AcDbEntity
  8
Defpoints
 62
     0
100
AcDbPoint
 10
295.5956877437711
 20
33.64149349930506
 30
0.0
  0
ENDBLK
  5
EDA
330
ED8
100
AcDbEntity
  8
0
100
AcDbBlockEnd
  0
BLOCK
  5
EE7
330
EE6
100
AcDbEntity
  8
0
100
AcDbBlockBegin
  2
*D30
 70
     1
 10
0.0
 20
0.0
 30
0.0
  3
*D30
  1

  0
LINE
  5
F58
330
EE6
100
AcDbEntity
  8
0
 62
     0
370
    -2
100
AcDbLine
 10
297.5236215968489
 20
29.15406680017168
 30
0.0
 11
297.5236215968489
 21
26.84414572329615
 31
0.0
  0
LINE
  5
F59
330
EE6
100
AcDbEntity
  8
0
 62
     0
370
    -2
100
AcDbLine
 10
292.934946394701
 20
29.15406680017168
 30
0.0
 11
292.934946394701
 21
26.84414572329615
 31
0.0
  0
LINE
  5
F5A
330
EE6
100
AcDbEntity
  8
0
 62
     0
370
    -2
100
AcDbLine
 10
300.0236215968489
 20
28.09414572329615
 30
0.0
 11
302.5236215968489
 21
28.09414572329615
 31
0.0
  0
LINE
  5
F5B
330
EE6
100
AcDbEntity
  8
0
 62
     0
370
    -2
100
AcDbLine
 10
290.434946394701
 20
28.09414572329615
 30
0.0
 11
275.684946394701
 21
28.09414572329615
 31
0.0
  0
LINE
  5
F5C
330
EE6
100
AcDbEntity
  8
0
 62
     0
370
    -2
100
AcDbLine
 10
297.5236215968489
 20
28.09414572329615
 30
0.0
 11
292.934946394701
 21
28.09414572329615
 31
0.0
  0
INSERT
  5
F5D
330
EE6
100
AcDbEntity
  8
0
 62
     0
370
    -2
100
AcDbBlockReference
  2
_Open30
 10
297.5236215968489
 20
28.09414572329615
 30
0.0
 41
2.5
 42
2.5
 43
2.5
 50
180.0
  0
INSERT
  5
F5E
330
EE6
100
AcDbEntity
  8
0
 62
     0
370
    -2
100
AcDbBlockReference
  2
_Open30
 10
292.934946394701
 20
28.09414572329615
 30
0.0
 41
2.5
 42
2.5
 43
2.5
  0
MTEXT
  5
F5F
330
EE6
100
AcDbEntity
  8
0
 62
     4
100
AcDbMText
 10
281.809946394701
 20
30.21914572329615
 30
0.0
 40
3.0
 41
0.0
 71
     5
 72
     1
  1
13.77
 73
     1
 44
1.0
1001
ACAD
1000
MTEXTBEGIN
1070
    73
1070
     1
1070
    44
1040
1.0
1070
    74
1070
     0
1000
MTEXTEND
  0
POINT
  5
F60
330
EE6
100
AcDbEntity
  8
Defpoints
 62
     0
100
AcDbPoint
 10
297.5236215968489
 20
29.40406680017168
 30
0.0
  0
POINT
  5
F61
330
EE6
100
AcDbEntity
  8
Defpoints
 62
     0
100
AcDbPoint
 10
292.934946394701
 20
29.40406680017168
 30
0.0
  0
POINT
  5
F62
330
EE6
100
AcDbEntity
  8
Defpoints
 62
     0
100
AcDbPoint
 10
292.934946394701
 20
28.09414572329615
 30
0.0
  0
ENDBLK
  5
EE8
330
EE6
100
AcDbEntity
  8
0
100
AcDbBlockEnd
  0
BLOCK
  5
EF5
330
EF4
100
AcDbEntity
  8
0
100
AcDbBlockBegin
  2
*D31
 70
     1
 10
0.0
 20
0.0
 30
0.0
  3
*D31
  1

  0
LINE
  5
F63
330
EF4
100
AcDbEntity
  8
0
 62
     0
370
    -2
100
AcDbLine
 10
290.4273387636986
 20
60.08355811844603
 30
0.0
 11
290.4273387636986
 21
67.48009159638377
 31
0.0
  0
LINE
  5
F64
330
EF4
100
AcDbEntity
  8
0
 62
     0
370
    -2
100
AcDbLine
 10
280.4888643942086
 20
60.08355811844603
 30
0.0
 11
280.4888643942086
 21
67.48009159638377
 31
0.0
  0
LINE
  5
F65
330
EF4
100
AcDbEntity
  8
0
 62
     0
370
    -2
100
AcDbLine
 10
287.9273387636986
 20
66.23009159638377
 30
0.0
 11
282.9888643942086
 21
66.23009159638377
 31
0.0
  0
INSERT
  5
F66
330
EF4
100
AcDbEntity
  8
0
 62
     0
370
    -2
100
AcDbBlockReference
  2
_Open30
 10
290.4273387636986
 20
66.23009159638377
 30
0.0
 41
2.5
 42
2.5
 43
2.5
  0
INSERT
  5
F67
330
EF4
100
AcDbEntity
  8
0
 62
     0
370
    -2
100
AcDbBlockReference
  2
_Open30
 10
280.4888643942086
 20
66.23009159638377
 30
0.0
 41
2.5
 42
2.5
 43
2.5
 50
180.0
  0
MTEXT
  5
F68
330
EF4
100
AcDbEntity
  8
0
 62
     4
100
AcDbMText
 10
285.4581015789536
 20
69.30509159638377
 30
0.0
 40
3.0
 41
0.0
 71
     5
 72
     1
  1
9.94\H0.7X;\S+0^ -0.02;
 73
     1
 44
1.0
1001
ACAD
1000
MTEXTBEGIN
1070
    73
1070
     1
1070
    44
1040
1.0
1070
    74
1070
     0
1000
MTEXTEND
  0
POINT
  5
F69
330
EF4
100
AcDbEntity
  8
Defpoints
 62
     0
100
AcDbPoint
 10
290.4273387636986
 20
59.83355811844603
 30
0.0
  0
POINT
  5
F6A
330
EF4
100
AcDbEntity
  8
Defpoints
 62
     0
100
AcDbPoint
 10
280.4888643942086
 20
59.83355811844603
 30
0.0
  0
POINT
  5
F6B
330
EF4
100
AcDbEntity
  8
Defpoints
 62
     0
100
AcDbPoint
 10
280.4888643942086
 20
66.23009159638377
 30
0.0
  0
ENDBLK
  5
EF6
330
EF4
100
AcDbEntity
  8
0
100
AcDbBlockEnd
  0
ENDSEC
  0
SECTION
  2
ENTITIES
  0
LINE
  5
93
330
36
100
AcDbEntity
  8
0
 62
     3
100
AcDbLine
 10
71.798817
 20
28.301436
 30
0.0
 11
70.798817
 21
22.301436
 31
0.0
  0
TEXT
  5
94
330
36
100
AcDbEntity
  8
0
 62
     3
100
AcDbText
 10
105.071429
 20
-101.443612
 30
0.0
 40
3.2
  1
FREE
  7
高3.2
100
AcDbText
  0
CIRCLE
  5
95
330
36
100
AcDbEntity
  8
0
 62
     3
100
AcDbCircle
 10
12.317458
 20
-26.908461
 30
0.0
 40
8.96
  0
LINE
  5
97
330
36
100
AcDbEntity
  8
0
 62
     3
100
AcDbLine
 10
84.29881700000001
 20
108.301436
 30
0.0
 11
-45.70118299999999
 21
108.301436
 31
0.0
  0
LINE
  5
98
330
36
100
AcDbEntity
  8
0
 62
     3
100
AcDbLine
 10
-88.943691
 20
28.301436
 30
0.0
 11
-168.943691
 21
28.301436
 31
0.0
  0
LINE
  5
99
330
36
100
AcDbEntity
  8
0
 62
     3
100
AcDbLine
 10
-106.943691
 20
28.301436
 30
0.0
 11
-105.943691
 21
22.301436
 31
0.0
  0
LINE
  5
9A
330
36
100
AcDbEntity
  8
0
 62
     3
100
AcDbLine
 10
-105.943691
 20
22.301436
 30
0.0
 11
-97.943691
 21
22.301436
 31
0.0
  0
LINE
  5
9B
330
36
100
AcDbEntity
  8
0
 62
     3
100
AcDbLine
 10
-150.943691
 20
28.301436
 30
0.0
 11
-151.943691
 21
22.301436
 31
0.0
  0
LINE
  5
9C
330
36
100
AcDbEntity
  8
0
 62
     3
100
AcDbLine
 10
-151.943691
 20
22.301436
 30
0.0
 11
-159.943691
 21
22.301436
 31
0.0
  0
LINE
  5
9D
330
36
100
AcDbEntity
  8
0
 62
     3
100
AcDbLine
 10
-96.94369100000001
 20
28.301436
 30
0.0
 11
-97.943691
 21
22.301436
 31
0.0
  0
LINE
  5
9E
330
36
100
AcDbEntity
  8
0
 62
     3
100
AcDbLine
 10
-160.943691
 20
28.301436
 30
0.0
 11
-159.943691
 21
22.301436
 31
0.0
  0
LINE
  5
9F
330
36
100
AcDbEntity
  8
0
 62
     3
100
AcDbLine
 10
-33.201183
 20
28.301436
 30
0.0
 11
-32.201183
 21
22.301436
 31
0.0
  0
LINE
  5
A0
330
36
100
AcDbEntity
  8
0
 62
     3
100
AcDbLine
 10
-32.201183
 20
22.301436
 30
0.0
 11
-24.201183
 21
22.301436
 31
0.0
  0
LINE
  5
A1
330
36
100
AcDbEntity
  8
0
 62
     3
100
AcDbLine
 10
-23.201183
 20
28.301436
 30
0.0
 11
-24.201183
 21
22.301436
 31
0.0
  0
LINE
  5
A2
330
36
100
AcDbEntity
  8
0
 62
     3
100
AcDbLine
 10
-43.20118299999999
 20
28.301436
 30
0.0
 11
82.29881699999998
 21
28.301436
 31
0.0
  0
LINE
  5
A3
330
36
100
AcDbEntity
  8
0
 62
     3
100
AcDbLine
 10
61.79881700000001
 20
28.301436
 30
0.0
 11
62.798817
 21
22.301436
 31
0.0
  0
LINE
  5
A4
330
36
100
AcDbEntity
  8
0
 62
     3
100
AcDbLine
 10
70.798817
 20
22.301436
 30
0.0
 11
62.798817
 21
22.301436
 31
0.0
  0
LINE
  5
A5
330
36
100
AcDbEntity
  8
0
 62
     3
100
AcDbLine
 10
-168.943691
 20
107.501436
 30
0.0
 11
-168.943691
 21
28.301436
 31
0.0
  0
LINE
  5
A6
330
36
100
AcDbEntity
  8
0
 62
     3
100
AcDbLine
 10
-94.743691
 20
113.301436
 30
0.0
 11
-163.143691
 21
113.301436
 31
0.0
  0
LINE
  5
A7
330
36
100
AcDbEntity
  8
0
 62
     3
100
AcDbLine
 10
-88.943691
 20
107.501436
 30
0.0
 11
-88.943691
 21
28.301436
 31
0.0
  0
LINE
  5
AD
330
36
100
AcDbEntity
  8
0
 62
     3
100
AcDbLine
 10
156.356525
 20
-16.078697
 30
0.0
 11
156.356525
 21
-49.34269699999997
 31
0.0
  0
TEXT
  5
AE
330
36
100
AcDbEntity
  8
0
 62
     3
100
AcDbText
 10
133.53143
 20
-101.498425
 30
0.0
 40
3.2
  1
1998.12.2
  7
高3.2
100
AcDbText
  0
LINE
  5
AF
330
36
100
AcDbEntity
  8
0
 62
     7
100
AcDbLine
 10
13.306038
 20
-5.421777124955609
 30
0.0
 11
39.77739082797052
 21
-5.421777124955609
 31
0.0
  0
TEXT
  5
B0
330
36
100
AcDbEntity
  8
0
 62
     3
100
AcDbText
 10
125.1920032651606
 20
-111.509952
 30
0.0
 40
6.299999999999998
  1
F-200D
  7
高6.3
100
AcDbText
  0
ARC
  5
B1
330
36
100
AcDbEntity
  8
0
 62
     3
100
AcDbCircle
 10
82.29881699999998
 20
30.301436
 30
0.0
 40
2.0
100
AcDbArc
 50
270.0
 51
0.0
  0
LINE
  5
B2
330
36
100
AcDbEntity
  8
0
 62
     3
100
AcDbLine
 10
84.29881700000001
 20
30.301436
 30
0.0
 11
84.29881700000001
 21
108.301436
 31
0.0
  0
LINE
  5
B3
330
36
100
AcDbEntity
  8
0
100
AcDbLine
 10
102.37986
 20
-14.313755
 30
0.0
 11
139.0198373945222
 21
-14.313755
 31
0.0
  0
LINE
  5
B4
330
36
100
AcDbEntity
  8
0
100
AcDbLine
 10
101.7922097226887
 20
-16.078697
 30
0.0
 11
101.7922097226887
 21
-49.34269699999997
 31
0.0
  0
LINE
  5
B5
330
36
100
AcDbEntity
  8
0
100
AcDbLine
 10
12.317458
 20
-20.764461
 30
0.0
 11
12.317458
 21
-14.136576
 31
0.0
  0
LINE
  5
B6
330
36
100
AcDbEntity
  8
0
100
AcDbLine
 10
53.90354399999999
 20
-26.908461
 30
0.0
 11
18.461458
 21
-26.908461
 31
0.0
  0
LINE
  5
B7
330
36
100
AcDbEntity
  8
0
100
AcDbLine
 10
16.797458
 20
-29.340461
 30
0.0
 11
18.461458
 21
-29.340461
 31
0.0
  0
LINE
  5
B8
330
36
100
AcDbEntity
  8
0
100
AcDbLine
 10
18.461458
 20
-24.476461
 30
0.0
 11
18.461458
 21
-29.340461
 31
0.0
  0
LINE
  5
B9
330
36
100
AcDbEntity
  8
0
100
AcDbLine
 10
16.797458
 20
-24.476461
 30
0.0
 11
18.461458
 21
-24.476461
 31
0.0
  0
LINE
  5
BA
330
36
100
AcDbEntity
  8
0
100
AcDbLine
 10
16.797458
 20
-24.476461
 30
0.0
 11
16.797458
 21
-29.340461
 31
0.0
  0
LINE
  5
BB
330
36
100
AcDbEntity
  8
0
100
AcDbLine
 10
9.885457999999999
 20
-22.428461
 30
0.0
 11
14.749458
 21
-22.428461
 31
0.0
  0
LINE
  5
BC
330
36
100
AcDbEntity
  8
0
100
AcDbLine
 10
14.749458
 20
-20.636461
 30
0.0
 11
14.749458
 21
-22.428461
 31
0.0
  0
LINE
  5
BD
330
36
100
AcDbEntity
  8
0
100
AcDbLine
 10
9.885457999999999
 20
-20.636461
 30
0.0
 11
14.749458
 21
-20.636461
 31
0.0
  0
LINE
  5
BE
330
36
100
AcDbEntity
  8
0
100
AcDbLine
 10
9.885457999999999
 20
-20.636461
 30
0.0
 11
9.885457999999999
 21
-22.428461
 31
0.0
  0
LINE
  5
BF
330
36
100
AcDbEntity
  8
0
100
AcDbLine
 10
7.837457999999998
 20
-24.476461
 30
0.0
 11
7.837457999999998
 21
-29.340461
 31
0.0
  0
LINE
  5
C0
330
36
100
AcDbEntity
  8
0
100
AcDbLine
 10
6.173458
 20
-24.476461
 30
0.0
 11
7.837457999999998
 21
-24.476461
 31
0.0
  0
LINE
  5
C1
330
36
100
AcDbEntity
  8
0
100
AcDbLine
 10
6.173458
 20
-24.476461
 30
0.0
 11
6.173458
 21
-29.340461
 31
0.0
  0
LINE
  5
C2
330
36
100
AcDbEntity
  8
0
100
AcDbLine
 10
6.173458
 20
-29.340461
 30
0.0
 11
7.837457999999998
 21
-29.340461
 31
0.0
  0
LINE
  5
C3
330
36
100
AcDbEntity
  8
0
100
AcDbLine
 10
11.485458
 20
-29.340461
 30
0.0
 11
13.149458
 21
-29.340461
 31
0.0
  0
LINE
  5
C4
330
36
100
AcDbEntity
  8
0
100
AcDbLine
 10
13.149458
 20
-29.340461
 30
0.0
 11
13.149458
 21
-34.204461
 31
0.0
  0
LINE
  5
C5
330
36
100
AcDbEntity
  8
0
100
AcDbLine
 10
11.485458
 20
-29.340461
 30
0.0
 11
11.485458
 21
-34.204461
 31
0.0
  0
LINE
  5
C6
330
36
100
AcDbEntity
  8
0
100
AcDbLine
 10
11.549458
 20
-34.204461
 30
0.0
 11
13.149458
 21
-34.204461
 31
0.0
  0
CIRCLE
  5
ED
330
36
100
AcDbEntity
  8
0
100
AcDbCircle
 10
61.29881700000001
 20
33.30143599999999
 30
0.0
 40
2.0
  0
CIRCLE
  5
EE
330
36
100
AcDbEntity
  8
0
100
AcDbCircle
 10
-18.701183
 20
33.30143599999999
 30
0.0
 40
2.0
  0
LINE
  5
EF
330
36
100
AcDbEntity
  8
0
100
AcDbLine
 10
-89.743691
 20
107.501436
 30
0.0
 11
-89.743691
 21
28.301436
 31
0.0
  0
LINE
  5
F0
330
36
100
AcDbEntity
  8
0
100
AcDbLine
 10
-163.143691
 20
112.501436
 30
0.0
 11
-94.743691
 21
112.501436
 31
0.0
  0
LINE
  5
F1
330
36
100
AcDbEntity
  8
0
100
AcDbLine
 10
-168.143691
 20
107.501436
 30
0.0
 11
-168.143691
 21
28.301436
 31
0.0
  0
LINE
  5
F2
330
36
100
AcDbEntity
  8
0
100
AcDbLine
 10
-138.830405
 20
31.706085
 30
0.0
 11
-138.830405
 21
29.813733
 31
0.0
  0
LINE
  5
F3
330
36
100
AcDbEntity
  8
0
100
AcDbLine
 10
-138.830405
 20
29.813733
 30
0.0
 11
-137.656002
 21
31.594409
 31
0.0
  0
LINE
  5
F4
330
36
100
AcDbEntity
  8
0
100
AcDbLine
 10
-138.830405
 20
31.706085
 30
0.0
 11
-139.986742
 21
29.964954
 31
0.0
  0
LINE
  5
F7
330
36
100
AcDbEntity
  8
0
 62
     3
100
AcDbLine
 10
144.687559
 20
-95.798248
 30
0.0
 11
144.687559
 21
-72.798248
 31
0.0
  0
LINE
  5
F9
330
36
100
AcDbEntity
  8
0
 62
     3
100
AcDbLine
 10
91.63394999999999
 20
-102.798248
 30
0.0
 11
91.63394999999999
 21
-88.79824799999999
 31
0.0
  0
TEXT
  5
FB
330
36
100
AcDbEntity
  8
0
 62
     3
100
AcDbText
 10
120.697877
 20
-76.59313199999998
 30
0.0
 40
2.0
  1
A
 41
0.7
100
AcDbText
  0
TEXT
  5
FC
330
36
100
AcDbEntity
  8
0
 62
     3
100
AcDbText
 10
123.233164
 20
-76.59313199999998
 30
0.0
 40
2.0
  1
P
 41
0.7
100
AcDbText
  0
TEXT
  5
FD
330
36
100
AcDbEntity
  8
0
 62
     3
100
AcDbText
 10
125.76845
 20
-76.59313199999998
 30
0.0
 40
2.0
  1
P
 41
0.7
100
AcDbText
  0
TEXT
  5
FE
330
36
100
AcDbEntity
  8
0
 62
     3
100
AcDbText
 10
128.303736
 20
-76.59313199999998
 30
0.0
 40
2.0
  1
D
 41
0.7
100
AcDbText
  0
TEXT
  5
FF
330
36
100
AcDbEntity
  8
0
 62
     3
100
AcDbText
 10
133.672419
 20
-76.59313199999998
 30
0.0
 40
2.0
  1
C
 41
0.7
100
AcDbText
  0
TEXT
  5
100
330
36
100
AcDbEntity
  8
0
 62
     3
100
AcDbText
 10
136.207705
 20
-76.59313199999998
 30
0.0
 40
2.0
  1
H
 41
0.7
100
AcDbText
  0
TEXT
  5
101
330
36
100
AcDbEntity
  8
0
 62
     3
100
AcDbText
 10
138.742992
 20
-76.59313199999998
 30
0.0
 40
2.0
  1
C
 41
0.7
100
AcDbText
  0
TEXT
  5
102
330
36
100
AcDbEntity
  8
0
 62
     3
100
AcDbText
 10
141.278278
 20
-76.59313199999998
 30
0.0
 40
2.0
  1
K
 41
0.7
100
AcDbText
  0
TEXT
  5
103
330
36
100
AcDbEntity
  8
0
 62
     3
100
AcDbText
 10
146.952244
 20
-76.59313199999998
 30
0.0
 40
2.0
  1
DESN
 41
1.216762999999998
100
AcDbText
  0
TEXT
  5
104
330
36
100
AcDbEntity
  8
0
 62
     3
100
AcDbText
 10
61.945886
 20
-105.939629
 30
0.0
 40
2.0
  1
NICHIDO IND.CO.LTD
 41
1.274876
100
AcDbText
  0
LINE
  5
105
330
36
100
AcDbEntity
  8
0
 62
     3
100
AcDbLine
 10
72.328915
 20
-72.798248
 30
0.0
 11
72.328915
 21
-95.798248
 31
0.0
  0
LINE
  5
106
330
36
100
AcDbEntity
  8
0
 62
     3
100
AcDbLine
 10
118.687559
 20
-72.79824799999999
 30
0.0
 11
118.687559
 21
-112.46397
 31
0.0
  0
LINE
  5
10B
330
36
100
AcDbEntity
  8
0
 62
     3
100
AcDbLine
 10
131.687559
 20
-72.798248
 30
0.0
 11
131.687559
 21
-102.798248
 31
0.0
  0
TEXT
  5
10C
330
36
100
AcDbEntity
  8
0
 62
     3
100
AcDbText
 10
119.800004
 20
-101.933561
 30
0.0
 40
3.2
  1
作成日
 41
1.017225999999997
100
AcDbText
  0
LINE
  5
10D
330
36
100
AcDbEntity
  8
0
 62
     3
100
AcDbLine
 10
170.386923
 20
-72.798248
 30
0.0
 11
59.08348
 21
-72.798248
 31
0.0
  0
LINE
  5
10E
330
36
100
AcDbEntity
  8
0
 62
     3
100
AcDbLine
 10
157.687559
 20
-95.798248
 30
0.0
 11
157.687559
 21
-72.798248
 31
0.0
  0
TEXT
  5
10F
330
36
100
AcDbEntity
  8
0
 62
     3
100
AcDbText
 10
161.011363
 20
-76.507313
 30
0.0
 40
1.8
  1
D
 41
0.666667
100
AcDbText
  0
TEXT
  5
110
330
36
100
AcDbEntity
  8
0
 62
     3
100
AcDbText
 10
163.827991
 20
-76.507313
 30
0.0
 40
1.8
  1
E
 41
0.666667
100
AcDbText
  0
TEXT
  5
111
330
36
100
AcDbEntity
  8
0
 62
     3
100
AcDbText
 10
166.644619
 20
-76.507313
 30
0.0
 40
1.8
  1
F
 41
0.666667
100
AcDbText
  0
TEXT
  5
112
330
36
100
AcDbEntity
  8
0
 62
     3
100
AcDbText
 10
161.011363
 20
-80.499866
 30
0.0
 40
3.2
  1
製図
 41
1.076369
100
AcDbText
  0
LINE
  5
113
330
36
100
AcDbEntity
  8
0
 62
     3
100
AcDbLine
 10
59.08348
 20
-72.798248
 30
0.0
 11
59.08348
 21
-112.46397
 31
0.0
  0
TEXT
  5
114
330
36
100
AcDbEntity
  8
0
 62
     3
100
AcDbText
 10
60.460133
 20
-112.131505
 30
0.0
 40
5.0
  1
日動工業株式会社
 41
0.833333
100
AcDbText
  0
LINE
  5
115
330
36
100
AcDbEntity
  8
0
 62
     3
100
AcDbLine
 10
101.965884
 20
-88.79824799999999
 30
0.0
 11
101.965884
 21
-112.46397
 31
0.0
  0
LINE
  5
116
330
36
100
AcDbEntity
  8
0
 62
     3
100
AcDbLine
 10
101.965884
 20
-107.631109
 30
0.0
 11
118.687559
 21
-107.631109
 31
0.0
  0
TEXT
  5
117
330
36
100
AcDbEntity
  8
0
 62
     3
100
AcDbText
 10
102.552486
 20
-106.814678
 30
0.0
 40
3.2
  1
出図コード
 41
0.8356860000000001
100
AcDbText
  0
LINE
  5
119
330
36
100
AcDbEntity
  8
0
 62
     3
100
AcDbLine
 10
59.08348000000001
 20
-102.798248
 30
0.0
 11
170.386923
 21
-102.798248
 31
0.0
  0
LINE
  5
11B
330
36
100
AcDbEntity
  8
0
 62
     3
100
AcDbLine
 10
59.08348
 20
-81.798248
 30
0.0
 11
170.386923
 21
-81.798248
 31
0.0
  0
LINE
  5
121
330
36
100
AcDbEntity
  8
0
 62
     3
100
AcDbLine
 10
59.08348000000001
 20
-88.79824799999999
 30
0.0
 11
118.687559
 21
-88.79824799999999
 31
0.0
  0
LINE
  5
127
330
36
100
AcDbEntity
  8
0
 62
     3
100
AcDbLine
 10
59.08348000000001
 20
-95.798248
 30
0.0
 11
170.386923
 21
-95.798248
 31
0.0
  0
TEXT
  5
128
330
36
100
AcDbEntity
  8
0
 62
     3
100
AcDbText
 10
102.419938
 20
-112.0164606115224
 30
0.0
 40
3.2
  1
ZK-A3X
 41
0.8112849999999999
100
AcDbText
  0
TEXT
  5
129
330
36
100
AcDbEntity
  8
0
 62
     3
100
AcDbText
 10
60.900877
 20
-76.62872199999998
 30
0.0
 40
2.0
  1
CONPONENTS
 41
0.5331600000000001
100
AcDbText
  0
TEXT
  5
12A
330
36
100
AcDbEntity
  8
0
 62
     3
100
AcDbText
 10
60.551151
 20
-95.56089900000001
 30
0.0
 40
3.0
  1
材
 41
0.833333
100
AcDbText
  0
TEXT
  5
12B
330
36
100
AcDbEntity
  8
0
 62
     3
100
AcDbText
 10
68.086793
 20
-95.56089900000001
 30
0.0
 40
3.0
  1
質
 41
0.833333
100
AcDbText
  0
TEXT
  5
12C
330
36
100
AcDbEntity
  8
0
 62
     3
100
AcDbText
 10
60.639221
 20
-84.936374
 30
0.0
 40
2.0
  1
MODEL
 41
1.031072999999999
100
AcDbText
  0
TEXT
  5
12D
330
36
100
AcDbEntity
  8
0
 62
     3
100
AcDbText
 10
60.551151
 20
-91.87859000000001
 30
0.0
 40
2.0
  1
MATERIAL
 41
0.659278
100
AcDbText
  0
TEXT
  5
12E
330
36
100
AcDbEntity
  8
0
 62
     3
100
AcDbText
 10
91.85843099999999
 20
-95.56089900000001
 30
0.0
 40
3.0
  1
備
 41
0.833333
100
AcDbText
  0
TEXT
  5
12F
330
36
100
AcDbEntity
  8
0
 62
     3
100
AcDbText
 10
98.59143299999999
 20
-95.56089900000001
 30
0.0
 40
3.0
  1
考
 41
0.833333
100
AcDbText
  0
TEXT
  5
130
330
36
100
AcDbEntity
  8
0
 62
     3
100
AcDbText
 10
92.1249510963644
 20
-91.87859000000001
 30
0.0
 40
2.0
  1
REMARKS
 41
0.675794
100
AcDbText
  0
TEXT
  5
131
330
36
100
AcDbEntity
  8
0
 62
     3
100
AcDbText
 10
62.14088
 20
-98.798711
 30
0.0
 40
2.0
  1
3AD
 41
1.42614
100
AcDbText
  0
TEXT
  5
132
330
36
100
AcDbEntity
  8
0
 62
     3
100
AcDbText
 10
71.451859
 20
-98.632977
 30
0.0
 40
2.0
  1
ANGLE
 41
1.669883999999995
100
AcDbText
  0
TEXT
  5
133
330
36
100
AcDbEntity
  8
0
 62
     3
100
AcDbText
 10
92.38574599999999
 20
-99.00981800000003
 30
0.0
 40
2.0
  1
SCALE
 41
0.7719630000000001
100
AcDbText
  0
TEXT
  5
134
330
36
100
AcDbEntity
  8
0
 62
     3
100
AcDbText
 10
61.827009
 20
-102.798248
 30
0.0
 40
3.0
  1
第
 41
0.833333
100
AcDbText
  0
TEXT
  5
135
330
36
100
AcDbEntity
  8
0
 62
     3
100
AcDbText
 10
69.61385899999999
 20
-102.798248
 30
0.0
 40
3.0
  1
三
 41
0.833333
100
AcDbText
  0
TEXT
  5
136
330
36
100
AcDbEntity
  8
0
 62
     3
100
AcDbText
 10
77.40070899999998
 20
-102.798248
 30
0.0
 40
3.0
  1
角
 41
0.833333
100
AcDbText
  0
TEXT
  5
137
330
36
100
AcDbEntity
  8
0
 62
     3
100
AcDbText
 10
85.187559
 20
-102.798248
 30
0.0
 40
3.0
  1
法
 41
0.833333
100
AcDbText
  0
TEXT
  5
138
330
36
100
AcDbEntity
  8
0
 62
     3
100
AcDbText
 10
92.24895100000001
 20
-102.509818
 30
0.0
 40
3.0
  1
尺
 41
0.833333
100
AcDbText
  0
TEXT
  5
139
330
36
100
AcDbEntity
  8
0
 62
     3
100
AcDbText
 10
98.98195300000001
 20
-102.509818
 30
0.0
 40
3.0
  1
度
 41
0.833333
100
AcDbText
  0
TEXT
  5
13A
330
36
100
AcDbEntity
  8
0
 62
     3
100
AcDbText
 10
121.565224
 20
-80.34051899999999
 30
0.0
 40
3.0
  1
承認
 41
1.089472999999999
100
AcDbText
  0
TEXT
  5
13B
330
36
100
AcDbEntity
  8
0
 62
     3
100
AcDbText
 10
134.808104
 20
-80.39824799999998
 30
0.0
 40
3.0
  1
検図
 41
0.931761
100
AcDbText
  0
TEXT
  5
13C
330
36
100
AcDbEntity
  8
0
 62
     3
100
AcDbText
 10
147.808501
 20
-80.39824799999998
 30
0.0
 40
3.0
  1
設
 41
0.833333
100
AcDbText
  0
TEXT
  5
13D
330
36
100
AcDbEntity
  8
0
 62
     3
100
AcDbText
 10
152.298369
 20
-80.39824799999998
 30
0.0
 40
3.0
  1
計
 41
0.833333
100
AcDbText
  0
TEXT
  5
13E
330
36
100
AcDbEntity
  8
0
 62
     3
100
AcDbText
 10
60.970984
 20
-80.22569500000001
 30
0.0
 40
3.0
  1
品
 41
0.833333
100
AcDbText
  0
TEXT
  5
13F
330
36
100
AcDbEntity
  8
0
 62
     3
100
AcDbText
 10
68.50662599999999
 20
-80.22569500000001
 30
0.0
 40
3.0
  1
名
 41
0.833333
100
AcDbText
  0
TEXT
  5
140
330
36
100
AcDbEntity
  8
0
 62
     3
100
AcDbText
 10
60.639221
 20
-88.45245153700755
 30
0.0
 40
3.0
  1
型
 41
0.833333
100
AcDbText
  0
TEXT
  5
141
330
36
100
AcDbEntity
  8
0
 62
     3
100
AcDbText
 10
68.18731200000001
 20
-88.45245153700755
 30
0.0
 40
3.0
  1
式
 41
0.833333
100
AcDbText
  0
LINE
  5
142
330
36
100
AcDbEntity
  8
0
 62
     3
100
AcDbLine
 10
-232.015001
 20
26.03603
 30
0.0
 11
-234.613077
 21
24.53603
 31
0.0
  0
LINE
  5
143
330
36
100
AcDbEntity
  8
0
 62
     3
100
AcDbLine
 10
-232.015001
 20
26.03603
 30
0.0
 11
-234.613077
 21
27.53603
 31
0.0
  0
LINE
  5
144
330
36
100
AcDbEntity
  8
0
 62
     3
100
AcDbLine
 10
-234.613077
 20
24.53603
 30
0.0
 11
-234.613077
 21
27.53603
 31
0.0
  0
LINE
  5
145
330
36
100
AcDbEntity
  8
0
 62
     3
100
AcDbLine
 10
-45.70118299999999
 20
30.801436
 30
0.0
 11
-45.70118299999999
 21
108.301436
 31
0.0
  0
ARC
  5
146
330
36
100
AcDbEntity
  8
0
 62
     3
100
AcDbCircle
 10
-43.20118299999999
 20
30.801436
 30
0.0
 40
2.5
100
AcDbArc
 50
180.0
 51
270.0
  0
LINE
  5
147
330
36
100
AcDbEntity
  8
0
 62
     3
100
AcDbLine
 10
-125.943691
 20
83.75143599999999
 30
0.0
 11
-127.318691
 21
83.75143599999999
 31
0.0
  0
LINE
  5
148
330
36
100
AcDbEntity
  8
0
 62
     3
100
AcDbLine
 10
-130.568691
 20
83.75143599999999
 30
0.0
 11
-131.943691
 21
83.75143599999999
 31
0.0
  0
TEXT
  5
149
330
36
100
AcDbEntity
  8
0
 62
     3
100
AcDbText
 10
-122.875637
 20
106.228186
 30
0.0
 40
3.839999999999998
  1
TORAPACK
100
AcDbText
  0
TEXT
  5
14A
330
36
100
AcDbEntity
  8
0
 62
     3
100
AcDbText
 10
-135.4337846770638
 20
45.30143599999997
 30
0.0
 40
3.839999999999998
  1
AC出力
 41
0.833333
100
AcDbText
  0
TEXT
  5
14B
330
36
100
AcDbEntity
  8
0
 62
     3
100
AcDbText
 10
-114.433232
 20
56.199721
 30
0.0
 40
3.839999999999998
  1
115V
 41
1.090908999999999
100
AcDbText
  0
TEXT
  5
14C
330
36
100
AcDbEntity
  8
0
 62
     3
100
AcDbText
 10
-158.274151
 20
56.199721
 30
0.0
 40
3.839999999999998
  1
100V
 41
1.090908999999999
100
AcDbText
  0
CIRCLE
  5
153
330
36
100
AcDbEntity
  8
0
100
AcDbCircle
 10
-183.0852
 20
108.8801448484546
 30
0.0
 40
5.0
  0
TEXT
  5
154
330
36
100
AcDbEntity
  8
0
 62
     4
100
AcDbText
 10
-185.3796326991396
 20
106.7363843365479
 30
0.0
 40
4.5
  1
11
  7
高4.5
100
AcDbText
  0
ARC
  5
155
330
36
100
AcDbEntity
  8
0
 62
     3
100
AcDbCircle
 10
-163.143691
 20
107.501436
 30
0.0
 40
5.799999999999998
100
AcDbArc
 50
90.0
 51
180.0
  0
ARC
  5
156
330
36
100
AcDbEntity
  8
0
 62
     3
100
AcDbCircle
 10
-94.743691
 20
107.501436
 30
0.0
 40
5.799999999999998
100
AcDbArc
 50
0.0
 51
90.0
  0
LINE
  5
157
330
36
100
AcDbEntity
  8
0
 62
     3
100
AcDbLine
 10
-125.943691
 20
71.251436
 30
0.0
 11
-131.943691
 21
71.251436
 31
0.0
  0
LINE
  5
188
330
36
100
AcDbEntity
  8
0
100
AcDbLine
 10
37.798817
 20
100.676436
 30
0.0
 11
37.798817
 21
89.426436
 31
0.0
  0
LINE
  5
189
330
36
100
AcDbEntity
  8
0
100
AcDbLine
 10
39.048817
 20
100.676436
 30
0.0
 11
39.048817
 21
89.426436
 31
0.0
  0
ARC
  5
18A
330
36
100
AcDbEntity
  8
0
100
AcDbCircle
 10
38.423817
 20
100.676436
 30
0.0
 40
0.625
100
AcDbArc
 50
0.0
 51
180.0
  0
ARC
  5
18B
330
36
100
AcDbEntity
  8
0
100
AcDbCircle
 10
38.423817
 20
89.426436
 30
0.0
 40
0.625
100
AcDbArc
 50
180.0
 51
0.0
  0
LINE
  5
18C
330
36
100
AcDbEntity
  8
0
100
AcDbLine
 10
41.798817
 20
100.676436
 30
0.0
 11
41.798817
 21
89.426436
 31
0.0
  0
LINE
  5
18D
330
36
100
AcDbEntity
  8
0
100
AcDbLine
 10
40.548817
 20
100.676436
 30
0.0
 11
40.548817
 21
89.426436
 31
0.0
  0
ARC
  5
18E
330
36
100
AcDbEntity
  8
0
100
AcDbCircle
 10
41.173817
 20
100.676436
 30
0.0
 40
0.625
100
AcDbArc
 50
0.0
 51
180.0
  0
ARC
  5
18F
330
36
100
AcDbEntity
  8
0
100
AcDbCircle
 10
41.173817
 20
89.426436
 30
0.0
 40
0.625
100
AcDbArc
 50
180.0
 51
0.0
  0
LINE
  5
190
330
36
100
AcDbEntity
  8
0
100
AcDbLine
 10
43.298817
 20
100.676436
 30
0.0
 11
43.298817
 21
89.426436
 31
0.0
  0
LINE
  5
191
330
36
100
AcDbEntity
  8
0
100
AcDbLine
 10
44.548817
 20
100.676436
 30
0.0
 11
44.548817
 21
89.426436
 31
0.0
  0
ARC
  5
192
330
36
100
AcDbEntity
  8
0
100
AcDbCircle
 10
43.923817
 20
100.676436
 30
0.0
 40
0.625
100
AcDbArc
 50
0.0
 51
180.0
  0
ARC
  5
193
330
36
100
AcDbEntity
  8
0
100
AcDbCircle
 10
43.923817
 20
89.426436
 30
0.0
 40
0.625
100
AcDbArc
 50
180.0
 51
0.0
  0
LINE
  5
194
330
36
100
AcDbEntity
  8
0
100
AcDbLine
 10
47.29881699999999
 20
100.676436
 30
0.0
 11
47.29881699999999
 21
89.426436
 31
0.0
  0
LINE
  5
195
330
36
100
AcDbEntity
  8
0
100
AcDbLine
 10
46.04881699999999
 20
100.676436
 30
0.0
 11
46.04881699999999
 21
89.426436
 31
0.0
  0
ARC
  5
196
330
36
100
AcDbEntity
  8
0
100
AcDbCircle
 10
46.67381699999999
 20
100.676436
 30
0.0
 40
0.625
100
AcDbArc
 50
0.0
 51
180.0
  0
ARC
  5
197
330
36
100
AcDbEntity
  8
0
100
AcDbCircle
 10
46.67381699999999
 20
89.426436
 30
0.0
 40
0.625
100
AcDbArc
 50
180.0
 51
0.0
  0
LINE
  5
198
330
36
100
AcDbEntity
  8
0
100
AcDbLine
 10
48.798817
 20
100.676436
 30
0.0
 11
48.798817
 21
89.426436
 31
0.0
  0
LINE
  5
199
330
36
100
AcDbEntity
  8
0
100
AcDbLine
 10
50.048817
 20
100.676436
 30
0.0
 11
50.048817
 21
89.426436
 31
0.0
  0
ARC
  5
19A
330
36
100
AcDbEntity
  8
0
100
AcDbCircle
 10
49.423817
 20
100.676436
 30
0.0
 40
0.625
100
AcDbArc
 50
0.0
 51
180.0
  0
ARC
  5
19B
330
36
100
AcDbEntity
  8
0
100
AcDbCircle
 10
49.423817
 20
89.426436
 30
0.0
 40
0.625
100
AcDbArc
 50
180.0
 51
0.0
  0
LINE
  5
19C
330
36
100
AcDbEntity
  8
0
100
AcDbLine
 10
52.798817
 20
100.676436
 30
0.0
 11
52.798817
 21
89.426436
 31
0.0
  0
LINE
  5
19D
330
36
100
AcDbEntity
  8
0
100
AcDbLine
 10
51.548817
 20
100.676436
 30
0.0
 11
51.548817
 21
89.426436
 31
0.0
  0
ARC
  5
19E
330
36
100
AcDbEntity
  8
0
100
AcDbCircle
 10
52.173817
 20
100.676436
 30
0.0
 40
0.625
100
AcDbArc
 50
0.0
 51
180.0
  0
ARC
  5
19F
330
36
100
AcDbEntity
  8
0
100
AcDbCircle
 10
52.173817
 20
89.426436
 30
0.0
 40
0.625
100
AcDbArc
 50
180.0
 51
0.0
  0
LINE
  5
1A0
330
36
100
AcDbEntity
  8
0
100
AcDbLine
 10
54.29881700000001
 20
100.676436
 30
0.0
 11
54.29881700000001
 21
89.426436
 31
0.0
  0
LINE
  5
1A1
330
36
100
AcDbEntity
  8
0
100
AcDbLine
 10
55.54881700000001
 20
100.676436
 30
0.0
 11
55.54881700000001
 21
89.426436
 31
0.0
  0
ARC
  5
1A2
330
36
100
AcDbEntity
  8
0
100
AcDbCircle
 10
54.92381700000001
 20
100.676436
 30
0.0
 40
0.625
100
AcDbArc
 50
0.0
 51
180.0
  0
ARC
  5
1A3
330
36
100
AcDbEntity
  8
0
100
AcDbCircle
 10
54.92381700000001
 20
89.426436
 30
0.0
 40
0.625
100
AcDbArc
 50
180.0
 51
0.0
  0
LINE
  5
1A4
330
36
100
AcDbEntity
  8
0
100
AcDbLine
 10
58.29881700000001
 20
100.676436
 30
0.0
 11
58.29881700000001
 21
89.426436
 31
0.0
  0
LINE
  5
1A5
330
36
100
AcDbEntity
  8
0
100
AcDbLine
 10
57.04881700000001
 20
100.676436
 30
0.0
 11
57.04881700000001
 21
89.426436
 31
0.0
  0
ARC
  5
1A6
330
36
100
AcDbEntity
  8
0
100
AcDbCircle
 10
57.67381700000001
 20
100.676436
 30
0.0
 40
0.625
100
AcDbArc
 50
0.0
 51
180.0
  0
ARC
  5
1A7
330
36
100
AcDbEntity
  8
0
100
AcDbCircle
 10
57.67381700000001
 20
89.426436
 30
0.0
 40
0.625
100
AcDbArc
 50
180.0
 51
0.0
  0
LINE
  5
1A8
330
36
100
AcDbEntity
  8
0
100
AcDbLine
 10
0.7988170000000001
 20
100.676436
 30
0.0
 11
0.7988170000000001
 21
89.426436
 31
0.0
  0
LINE
  5
1A9
330
36
100
AcDbEntity
  8
0
100
AcDbLine
 10
-0.451183
 20
100.676436
 30
0.0
 11
-0.451183
 21
89.426436
 31
0.0
  0
ARC
  5
1AA
330
36
100
AcDbEntity
  8
0
100
AcDbCircle
 10
0.173817
 20
100.676436
 30
0.0
 40
0.625
100
AcDbArc
 50
0.0
 51
180.0
  0
ARC
  5
1AB
330
36
100
AcDbEntity
  8
0
100
AcDbCircle
 10
0.173817
 20
89.426436
 30
0.0
 40
0.625
100
AcDbArc
 50
180.0
 51
0.0
  0
LINE
  5
1AC
330
36
100
AcDbEntity
  8
0
100
AcDbLine
 10
-3.201183
 20
100.676436
 30
0.0
 11
-3.201183
 21
89.426436
 31
0.0
  0
LINE
  5
1AD
330
36
100
AcDbEntity
  8
0
100
AcDbLine
 10
-1.951183
 20
100.676436
 30
0.0
 11
-1.951183
 21
89.426436
 31
0.0
  0
ARC
  5
1AE
330
36
100
AcDbEntity
  8
0
100
AcDbCircle
 10
-2.576183
 20
100.676436
 30
0.0
 40
0.625
100
AcDbArc
 50
0.0
 51
180.0
  0
ARC
  5
1AF
330
36
100
AcDbEntity
  8
0
100
AcDbCircle
 10
-2.576183
 20
89.426436
 30
0.0
 40
0.625
100
AcDbArc
 50
180.0
 51
0.0
  0
LINE
  5
1B0
330
36
100
AcDbEntity
  8
0
100
AcDbLine
 10
-4.701183
 20
100.676436
 30
0.0
 11
-4.701183
 21
89.426436
 31
0.0
  0
LINE
  5
1B1
330
36
100
AcDbEntity
  8
0
100
AcDbLine
 10
-5.951183
 20
100.676436
 30
0.0
 11
-5.951183
 21
89.426436
 31
0.0
  0
ARC
  5
1B2
330
36
100
AcDbEntity
  8
0
100
AcDbCircle
 10
-5.326183
 20
100.676436
 30
0.0
 40
0.625
100
AcDbArc
 50
0.0
 51
180.0
  0
ARC
  5
1B3
330
36
100
AcDbEntity
  8
0
100
AcDbCircle
 10
-5.326183
 20
89.426436
 30
0.0
 40
0.625
100
AcDbArc
 50
180.0
 51
0.0
  0
LINE
  5
1B4
330
36
100
AcDbEntity
  8
0
100
AcDbLine
 10
-8.701183
 20
100.676436
 30
0.0
 11
-8.701183
 21
89.426436
 31
0.0
  0
LINE
  5
1B5
330
36
100
AcDbEntity
  8
0
100
AcDbLine
 10
-7.451183
 20
100.676436
 30
0.0
 11
-7.451183
 21
89.426436
 31
0.0
  0
ARC
  5
1B6
330
36
100
AcDbEntity
  8
0
100
AcDbCircle
 10
-8.076183
 20
100.676436
 30
0.0
 40
0.625
100
AcDbArc
 50
0.0
 51
180.0
  0
ARC
  5
1B7
330
36
100
AcDbEntity
  8
0
100
AcDbCircle
 10
-8.076183
 20
89.426436
 30
0.0
 40
0.625
100
AcDbArc
 50
180.0
 51
0.0
  0
LINE
  5
1B8
330
36
100
AcDbEntity
  8
0
100
AcDbLine
 10
-10.201183
 20
100.676436
 30
0.0
 11
-10.201183
 21
89.426436
 31
0.0
  0
LINE
  5
1B9
330
36
100
AcDbEntity
  8
0
100
AcDbLine
 10
-11.451183
 20
100.676436
 30
0.0
 11
-11.451183
 21
89.426436
 31
0.0
  0
ARC
  5
1BA
330
36
100
AcDbEntity
  8
0
100
AcDbCircle
 10
-10.826183
 20
100.676436
 30
0.0
 40
0.625
100
AcDbArc
 50
0.0
 51
180.0
  0
ARC
  5
1BB
330
36
100
AcDbEntity
  8
0
100
AcDbCircle
 10
-10.826183
 20
89.426436
 30
0.0
 40
0.625
100
AcDbArc
 50
180.0
 51
0.0
  0
LINE
  5
1BC
330
36
100
AcDbEntity
  8
0
100
AcDbLine
 10
-14.201183
 20
100.676436
 30
0.0
 11
-14.201183
 21
89.426436
 31
0.0
  0
LINE
  5
1BD
330
36
100
AcDbEntity
  8
0
100
AcDbLine
 10
-12.951183
 20
100.676436
 30
0.0
 11
-12.951183
 21
89.426436
 31
0.0
  0
ARC
  5
1BE
330
36
100
AcDbEntity
  8
0
100
AcDbCircle
 10
-13.576183
 20
100.676436
 30
0.0
 40
0.625
100
AcDbArc
 50
0.0
 51
180.0
  0
ARC
  5
1BF
330
36
100
AcDbEntity
  8
0
100
AcDbCircle
 10
-13.576183
 20
89.426436
 30
0.0
 40
0.625
100
AcDbArc
 50
180.0
 51
0.0
  0
LINE
  5
1C0
330
36
100
AcDbEntity
  8
0
100
AcDbLine
 10
-15.701183
 20
100.676436
 30
0.0
 11
-15.701183
 21
89.426436
 31
0.0
  0
LINE
  5
1C1
330
36
100
AcDbEntity
  8
0
100
AcDbLine
 10
-16.951183
 20
100.676436
 30
0.0
 11
-16.951183
 21
89.426436
 31
0.0
  0
ARC
  5
1C2
330
36
100
AcDbEntity
  8
0
100
AcDbCircle
 10
-16.326183
 20
100.676436
 30
0.0
 40
0.625
100
AcDbArc
 50
0.0
 51
180.0
  0
ARC
  5
1C3
330
36
100
AcDbEntity
  8
0
100
AcDbCircle
 10
-16.326183
 20
89.426436
 30
0.0
 40
0.625
100
AcDbArc
 50
180.0
 51
0.0
  0
LINE
  5
1C4
330
36
100
AcDbEntity
  8
0
100
AcDbLine
 10
-19.701183
 20
100.676436
 30
0.0
 11
-19.701183
 21
89.426436
 31
0.0
  0
LINE
  5
1C5
330
36
100
AcDbEntity
  8
0
100
AcDbLine
 10
-18.451183
 20
100.676436
 30
0.0
 11
-18.451183
 21
89.426436
 31
0.0
  0
ARC
  5
1C6
330
36
100
AcDbEntity
  8
0
100
AcDbCircle
 10
-19.076183
 20
100.676436
 30
0.0
 40
0.625
100
AcDbArc
 50
0.0
 51
180.0
  0
ARC
  5
1C7
330
36
100
AcDbEntity
  8
0
100
AcDbCircle
 10
-19.076183
 20
89.426436
 30
0.0
 40
0.625
100
AcDbArc
 50
180.0
 51
0.0
  0
ARC
  5
1C8
330
36
100
AcDbEntity
  8
0
100
AcDbCircle
 10
-94.743691
 20
107.501436
 30
0.0
 40
5.0
100
AcDbArc
 50
0.0
 51
90.0
  0
ARC
  5
1C9
330
36
100
AcDbEntity
  8
0
100
AcDbCircle
 10
-163.143691
 20
107.501436
 30
0.0
 40
5.0
100
AcDbArc
 50
90.0
 51
180.0
  0
LINE
  5
1CA
330
36
100
AcDbEntity
  8
0
100
AcDbLine
 10
-89.743691
 20
33.30143599999999
 30
0.0
 11
-168.143691
 21
33.30143599999999
 31
0.0
  0
LINE
  5
1CB
330
36
100
AcDbEntity
  8
0
100
AcDbLine
 10
-127.318691
 20
84.501436
 30
0.0
 11
-127.318691
 21
73.751436
 31
0.0
  0
LINE
  5
1CC
330
36
100
AcDbEntity
  8
0
100
AcDbLine
 10
-127.318691
 20
73.751436
 30
0.0
 11
-130.568691
 21
73.751436
 31
0.0
  0
LINE
  5
1CD
330
36
100
AcDbEntity
  8
0
100
AcDbLine
 10
-130.568691
 20
84.501436
 30
0.0
 11
-130.568691
 21
73.751436
 31
0.0
  0
CIRCLE
  5
1CE
330
36
100
AcDbEntity
  8
0
 62
     3
100
AcDbCircle
 10
-128.943691
 20
103.501436
 30
0.0
 40
3.0
  0
LINE
  5
1CF
330
36
100
AcDbEntity
  8
0
 62
     3
100
AcDbLine
 10
85.79881699999999
 20
38.30143599999999
 30
0.0
 11
85.79881699999999
 21
48.30143599999999
 31
0.0
  0
LINE
  5
1D0
330
36
100
AcDbEntity
  8
0
 62
     3
100
AcDbLine
 10
84.29881700000001
 20
37.301436
 30
0.0
 11
85.79881699999999
 21
38.30143599999999
 31
0.0
  0
LINE
  5
1D1
330
36
100
AcDbEntity
  8
0
 62
     3
100
AcDbLine
 10
84.29881700000001
 20
49.301436
 30
0.0
 11
85.79881699999999
 21
48.30143599999999
 31
0.0
  0
CIRCLE
  5
1D8
330
36
100
AcDbEntity
  8
0
100
AcDbCircle
 10
-183.0852
 20
131.785222
 30
0.0
 40
5.0
  0
TEXT
  5
1D9
330
36
100
AcDbEntity
  8
0
 62
     4
100
AcDbText
 10
-185.9816593819419
 20
129.3323728879506
 30
0.0
 40
4.5
  1
10
  7
高4.5
100
AcDbText
  0
CIRCLE
  5
1E8
330
36
100
AcDbEntity
  8
0
100
AcDbCircle
 10
-183.0852
 20
27.76855300000001
 30
0.0
 40
5.0
  0
TEXT
  5
1E9
330
36
100
AcDbEntity
  8
0
 62
     4
100
AcDbText
 10
-185.4314708665079
 20
24.49470209810886
 30
0.0
 40
6.299999999999998
  1
6
  7
高6.3
100
AcDbText
  0
CIRCLE
  5
1F0
330
36
100
AcDbEntity
  8
0
100
AcDbCircle
 10
-183.0852
 20
86.46177032579883
 30
0.0
 40
5.0
  0
TEXT
  5
1F1
330
36
100
AcDbEntity
  8
0
 62
     4
100
AcDbText
 10
-185.0237096453504
 20
83.16831860500123
 30
0.0
 40
6.299999999999998
  1
7
  7
高6.3
100
AcDbText
  0
CIRCLE
  5
1F8
330
36
100
AcDbEntity
  8
0
100
AcDbCircle
 10
-183.0852
 20
73.54375
 30
0.0
 40
5.0
  0
TEXT
  5
1F9
330
36
100
AcDbEntity
  8
0
 62
     4
100
AcDbText
 10
-185.0998592518747
 20
70.63460294418042
 30
0.0
 40
6.299999999999998
  1
8
  7
高6.3
100
AcDbText
  0
CIRCLE
  5
200
330
36
100
AcDbEntity
  8
0
100
AcDbCircle
 10
149.0940779669702
 20
44.72388362042579
 30
0.0
 40
5.0
  0
TEXT
  5
201
330
36
100
AcDbEntity
  8
0
 62
     4
100
AcDbText
 10
146.8996162764706
 20
41.82818883031981
 30
0.0
 40
6.299999999999998
  1
5
  7
高6.3
100
AcDbText
  0
LINE
  5
202
330
36
100
AcDbEntity
  8
0
 62
     3
100
AcDbLine
 10
43.485281
 20
120.766499
 30
0.0
 11
50.548817
 21
108.301436
 31
0.0
  0
ARC
  5
203
330
36
100
AcDbEntity
  8
0
 62
     3
100
AcDbCircle
 10
39.13517
 20
118.301436
 30
0.0
 40
5.0
100
AcDbArc
 50
29.538782
 51
90.0
  0
LINE
  5
204
330
36
100
AcDbEntity
  8
0
 62
     3
100
AcDbLine
 10
-4.266867999999996
 20
123.301436
 30
0.0
 11
39.13517
 21
123.301436
 31
0.0
  0
ARC
  5
205
330
36
100
AcDbEntity
  8
0
 62
     3
100
AcDbCircle
 10
-4.266867999999996
 20
118.301436
 30
0.0
 40
5.0
100
AcDbArc
 50
90.0
 51
154.983107
  0
LINE
  5
206
330
36
100
AcDbEntity
  8
0
 62
     3
100
AcDbLine
 10
-8.797784
 20
120.415863
 30
0.0
 11
-14.451183
 21
108.301436
 31
0.0
  0
ARC
  5
207
330
36
100
AcDbEntity
  8
0
 62
     3
100
AcDbCircle
 10
1.048817
 20
116.801436
 30
0.0
 40
2.5
100
AcDbArc
 50
90.0
 51
180.0
  0
ARC
  5
208
330
36
100
AcDbEntity
  8
0
 62
     3
100
AcDbCircle
 10
18.048817
 20
405.551436
 30
0.0
 40
286.75
100
AcDbArc
 50
266.630631
 51
273.369369
  0
ARC
  5
209
330
36
100
AcDbEntity
  8
0
 62
     3
100
AcDbCircle
 10
35.048817
 20
116.801436
 30
0.0
 40
2.5
100
AcDbArc
 50
0.0
 51
90.0
  0
LINE
  5
20A
330
36
100
AcDbEntity
  8
0
 62
     3
100
AcDbLine
 10
37.548817
 20
116.801436
 30
0.0
 11
37.548817
 21
108.301436
 31
0.0
  0
LINE
  5
20B
330
36
100
AcDbEntity
  8
0
 62
     3
100
AcDbLine
 10
-1.451182999999999
 20
116.801436
 30
0.0
 11
-1.451182999999999
 21
108.301436
 31
0.0
  0
LINE
  5
20C
330
36
100
AcDbEntity
  8
0
 62
     3
100
AcDbLine
 10
-126.404099
 20
127.844608
 30
0.0
 11
-125.143691
 21
113.301436
 31
0.0
  0
LINE
  5
20D
330
36
100
AcDbEntity
  8
0
 62
     3
100
AcDbLine
 10
-131.483283
 20
127.844608
 30
0.0
 11
-132.743691
 21
113.301436
 31
0.0
  0
LINE
  5
20E
330
36
100
AcDbEntity
  8
0
 62
     3
100
AcDbLine
 10
-130.98515
 20
128.301436
 30
0.0
 11
-126.902232
 21
128.301436
 31
0.0
  0
LINE
  5
213
330
36
100
AcDbEntity
  8
0
 62
     3
100
AcDbLine
 10
-103.943691
 20
33.635147
 30
0.0
 11
-103.943691
 21
41.30143599999999
 31
0.0
  0
LINE
  5
214
330
36
100
AcDbEntity
  8
0
 62
     3
100
AcDbLine
 10
-109.943691
 20
33.551436
 30
0.0
 11
-109.943691
 21
41.30143599999999
 31
0.0
  0
LINE
  5
215
330
36
100
AcDbEntity
  8
0
 62
     3
100
AcDbLine
 10
-102.121866
 20
41.30143599999999
 30
0.0
 11
-111.765517
 21
41.30143599999999
 31
0.0
  0
ARC
  5
216
330
36
100
AcDbEntity
  8
0
 62
     3
100
AcDbCircle
 10
-106.943691
 20
48.30143599999999
 30
0.0
 40
8.5
100
AcDbArc
 50
124.560322
 51
235.439678
  0
LINE
  5
217
330
36
100
AcDbEntity
  8
0
 62
     3
100
AcDbLine
 10
-102.121866
 20
55.30143599999998
 30
0.0
 11
-111.765517
 21
55.30143599999998
 31
0.0
  0
ARC
  5
218
330
36
100
AcDbEntity
  8
0
 62
     3
100
AcDbCircle
 10
-106.943691
 20
48.30143599999999
 30
0.0
 40
8.5
100
AcDbArc
 50
304.560322
 51
55.439678
  0
LINE
  5
219
330
36
100
AcDbEntity
  8
0
 62
     3
100
AcDbLine
 10
-102.121866
 20
60.80143599999999
 30
0.0
 11
-111.765517
 21
60.80143599999999
 31
0.0
  0
ARC
  5
21A
330
36
100
AcDbEntity
  8
0
 62
     3
100
AcDbCircle
 10
-106.943691
 20
67.80143599999999
 30
0.0
 40
8.5
100
AcDbArc
 50
304.560322
 51
55.439678
  0
LINE
  5
21B
330
36
100
AcDbEntity
  8
0
 62
     3
100
AcDbLine
 10
-102.121866
 20
74.80143599999998
 30
0.0
 11
-111.765517
 21
74.80143599999998
 31
0.0
  0
ARC
  5
21C
330
36
100
AcDbEntity
  8
0
 62
     3
100
AcDbCircle
 10
-106.943691
 20
67.80143599999999
 30
0.0
 40
8.5
100
AcDbArc
 50
124.560322
 51
235.439678
  0
ARC
  5
21D
330
36
100
AcDbEntity
  8
0
 62
     3
100
AcDbCircle
 10
-150.943691
 20
67.80143599999999
 30
0.0
 40
8.5
100
AcDbArc
 50
304.560322
 51
55.439678
  0
LINE
  5
21E
330
36
100
AcDbEntity
  8
0
 62
     3
100
AcDbLine
 10
-146.121866
 20
74.80143599999998
 30
0.0
 11
-155.765517
 21
74.80143599999998
 31
0.0
  0
ARC
  5
21F
330
36
100
AcDbEntity
  8
0
 62
     3
100
AcDbCircle
 10
-150.943691
 20
67.80143599999999
 30
0.0
 40
8.5
100
AcDbArc
 50
124.560322
 51
235.439678
  0
LINE
  5
220
330
36
100
AcDbEntity
  8
0
 62
     3
100
AcDbLine
 10
-146.121866
 20
60.80143599999999
 30
0.0
 11
-155.765517
 21
60.80143599999999
 31
0.0
  0
LINE
  5
221
330
36
100
AcDbEntity
  8
0
 62
     3
100
AcDbLine
 10
-146.121866
 20
55.30143599999998
 30
0.0
 11
-155.765517
 21
55.30143599999998
 31
0.0
  0
ARC
  5
222
330
36
100
AcDbEntity
  8
0
 62
     3
100
AcDbCircle
 10
-150.943691
 20
48.30143599999999
 30
0.0
 40
8.5
100
AcDbArc
 50
124.560322
 51
235.439678
  0
LINE
  5
223
330
36
100
AcDbEntity
  8
0
 62
     3
100
AcDbLine
 10
-146.121866
 20
41.30143599999999
 30
0.0
 11
-155.765517
 21
41.30143599999999
 31
0.0
  0
LINE
  5
224
330
36
100
AcDbEntity
  8
0
 62
     3
100
AcDbLine
 10
-153.943691
 20
33.551436
 30
0.0
 11
-153.943691
 21
41.30143599999999
 31
0.0
  0
LINE
  5
225
330
36
100
AcDbEntity
  8
0
 62
     3
100
AcDbLine
 10
-147.943691
 20
33.635147
 30
0.0
 11
-147.943691
 21
41.30143599999999
 31
0.0
  0
ARC
  5
226
330
36
100
AcDbEntity
  8
0
 62
     3
100
AcDbCircle
 10
-150.943691
 20
48.30143599999999
 30
0.0
 40
8.5
100
AcDbArc
 50
304.560322
 51
55.439678
  0
CIRCLE
  5
22D
330
36
100
AcDbEntity
  8
0
100
AcDbCircle
 10
-182.730224
 20
59.745792
 30
0.0
 40
5.0
  0
TEXT
  5
22E
330
36
100
AcDbEntity
  8
0
 62
     4
100
AcDbText
 10
-184.9683079126696
 20
56.50392751336369
 30
0.0
 40
6.299999999999998
  1
9
  7
高6.3
100
AcDbText
  0
LINE
  5
22F
330
36
100
AcDbEntity
  8
0
 62
     3
100
AcDbLine
 10
-103.943691
 20
33.551436
 30
0.0
 11
-109.943691
 21
33.551436
 31
0.0
  0
ARC
  5
230
330
36
100
AcDbEntity
  8
0
 62
     3
100
AcDbCircle
 10
-130.98515
 20
127.801436
 30
0.0
 40
0.5
100
AcDbArc
 50
90.0
 51
175.046743
  0
ARC
  5
231
330
36
100
AcDbEntity
  8
0
 62
     3
100
AcDbCircle
 10
-126.902232
 20
127.801436
 30
0.0
 40
0.5
100
AcDbArc
 50
4.953256999999998
 51
90.0
  0
ARC
  5
232
330
36
100
AcDbEntity
  8
0
100
AcDbCircle
 10
-102.393691
 20
52.951436
 30
0.0
 40
0.5
100
AcDbArc
 50
0.0
 51
90.0
  0
LINE
  5
233
330
36
100
AcDbEntity
  8
0
100
AcDbLine
 10
-101.893691
 20
52.951436
 30
0.0
 11
-101.893691
 21
46.801436
 31
0.0
  0
ARC
  5
234
330
36
100
AcDbEntity
  8
0
100
AcDbCircle
 10
-102.393691
 20
46.801436
 30
0.0
 40
0.5
100
AcDbArc
 50
270.0
 51
0.0
  0
ARC
  5
235
330
36
100
AcDbEntity
  8
0
100
AcDbCircle
 10
-111.493691
 20
47.226436
 30
0.0
 40
0.5
100
AcDbArc
 50
180.0
 51
270.0
  0
LINE
  5
236
330
36
100
AcDbEntity
  8
0
100
AcDbLine
 10
-111.993691
 20
52.52643599999998
 30
0.0
 11
-111.993691
 21
47.226436
 31
0.0
  0
ARC
  5
237
330
36
100
AcDbEntity
  8
0
100
AcDbCircle
 10
-111.493691
 20
52.52643599999998
 30
0.0
 40
0.5
100
AcDbArc
 50
90.0
 51
180.0
  0
ARC
  5
238
330
36
100
AcDbEntity
  8
0
100
AcDbCircle
 10
-108.293691
 20
42.376436
 30
0.0
 40
0.5
100
AcDbArc
 50
180.0
 51
270.0
  0
LINE
  5
239
330
36
100
AcDbEntity
  8
0
100
AcDbLine
 10
-108.293691
 20
41.876436
 30
0.0
 11
-107.693691
 21
41.876436
 31
0.0
  0
LINE
  5
23A
330
36
100
AcDbEntity
  8
0
100
AcDbLine
 10
-106.193691
 20
41.876436
 30
0.0
 11
-107.693691
 21
41.876436
 31
0.0
  0
LINE
  5
23B
330
36
100
AcDbEntity
  8
0
100
AcDbLine
 10
-106.193691
 20
41.876436
 30
0.0
 11
-105.593691
 21
41.876436
 31
0.0
  0
ARC
  5
23C
330
36
100
AcDbEntity
  8
0
100
AcDbCircle
 10
-105.593691
 20
42.376436
 30
0.0
 40
0.5
100
AcDbArc
 50
270.0
 51
0.0
  0
LINE
  5
23D
330
36
100
AcDbEntity
  8
0
100
AcDbLine
 10
-101.893691
 20
72.451436
 30
0.0
 11
-101.893691
 21
66.301436
 31
0.0
  0
ARC
  5
23E
330
36
100
AcDbEntity
  8
0
100
AcDbCircle
 10
-102.393691
 20
66.301436
 30
0.0
 40
0.5
100
AcDbArc
 50
270.0
 51
0.0
  0
ARC
  5
23F
330
36
100
AcDbEntity
  8
0
100
AcDbCircle
 10
-111.493691
 20
66.72643599999999
 30
0.0
 40
0.5
100
AcDbArc
 50
180.0
 51
270.0
  0
LINE
  5
240
330
36
100
AcDbEntity
  8
0
100
AcDbLine
 10
-111.993691
 20
72.026436
 30
0.0
 11
-111.993691
 21
66.72643599999999
 31
0.0
  0
ARC
  5
241
330
36
100
AcDbEntity
  8
0
100
AcDbCircle
 10
-108.293691
 20
61.876436
 30
0.0
 40
0.5
100
AcDbArc
 50
180.0
 51
270.0
  0
LINE
  5
242
330
36
100
AcDbEntity
  8
0
100
AcDbLine
 10
-108.293691
 20
61.376436
 30
0.0
 11
-107.693691
 21
61.376436
 31
0.0
  0
LINE
  5
243
330
36
100
AcDbEntity
  8
0
100
AcDbLine
 10
-106.193691
 20
61.376436
 30
0.0
 11
-105.593691
 21
61.376436
 31
0.0
  0
LINE
  5
244
330
36
100
AcDbEntity
  8
0
100
AcDbLine
 10
-106.193691
 20
61.376436
 30
0.0
 11
-107.693691
 21
61.376436
 31
0.0
  0
ARC
  5
245
330
36
100
AcDbEntity
  8
0
100
AcDbCircle
 10
-105.593691
 20
61.876436
 30
0.0
 40
0.5
100
AcDbArc
 50
270.0
 51
0.0
  0
ARC
  5
246
330
36
100
AcDbEntity
  8
0
100
AcDbCircle
 10
-102.393691
 20
72.451436
 30
0.0
 40
0.5
100
AcDbArc
 50
0.0
 51
90.0
  0
ARC
  5
247
330
36
100
AcDbEntity
  8
0
100
AcDbCircle
 10
-111.493691
 20
72.026436
 30
0.0
 40
0.5
100
AcDbArc
 50
90.0
 51
180.0
  0
LINE
  5
248
330
36
100
AcDbEntity
  8
0
100
AcDbLine
 10
-145.893691
 20
52.951436
 30
0.0
 11
-145.893691
 21
46.801436
 31
0.0
  0
ARC
  5
249
330
36
100
AcDbEntity
  8
0
100
AcDbCircle
 10
-155.493691
 20
47.226436
 30
0.0
 40
0.5
100
AcDbArc
 50
180.0
 51
270.0
  0
LINE
  5
24A
330
36
100
AcDbEntity
  8
0
100
AcDbLine
 10
-155.993691
 20
52.52643599999998
 30
0.0
 11
-155.993691
 21
47.226436
 31
0.0
  0
ARC
  5
24B
330
36
100
AcDbEntity
  8
0
100
AcDbCircle
 10
-155.493691
 20
52.52643599999998
 30
0.0
 40
0.5
100
AcDbArc
 50
90.0
 51
180.0
  0
ARC
  5
24C
330
36
100
AcDbEntity
  8
0
100
AcDbCircle
 10
-152.293691
 20
42.376436
 30
0.0
 40
0.5
100
AcDbArc
 50
180.0
 51
270.0
  0
LINE
  5
24D
330
36
100
AcDbEntity
  8
0
100
AcDbLine
 10
-152.293691
 20
41.876436
 30
0.0
 11
-151.693691
 21
41.876436
 31
0.0
  0
LINE
  5
24E
330
36
100
AcDbEntity
  8
0
100
AcDbLine
 10
-150.193691
 20
41.876436
 30
0.0
 11
-151.693691
 21
41.876436
 31
0.0
  0
LINE
  5
24F
330
36
100
AcDbEntity
  8
0
100
AcDbLine
 10
-150.193691
 20
41.876436
 30
0.0
 11
-149.5936909999999
 21
41.876436
 31
0.0
  0
ARC
  5
250
330
36
100
AcDbEntity
  8
0
100
AcDbCircle
 10
-149.5936909999999
 20
42.376436
 30
0.0
 40
0.5
100
AcDbArc
 50
270.0
 51
0.0
  0
LINE
  5
251
330
36
100
AcDbEntity
  8
0
100
AcDbLine
 10
-145.893691
 20
72.451436
 30
0.0
 11
-145.893691
 21
66.301436
 31
0.0
  0
LINE
  5
252
330
36
100
AcDbEntity
  8
0
100
AcDbLine
 10
-155.993691
 20
72.026436
 30
0.0
 11
-155.993691
 21
66.72643599999999
 31
0.0
  0
ARC
  5
253
330
36
100
AcDbEntity
  8
0
100
AcDbCircle
 10
-152.293691
 20
61.876436
 30
0.0
 40
0.5
100
AcDbArc
 50
180.0
 51
270.0
  0
LINE
  5
254
330
36
100
AcDbEntity
  8
0
100
AcDbLine
 10
-152.293691
 20
61.376436
 30
0.0
 11
-151.693691
 21
61.376436
 31
0.0
  0
LINE
  5
255
330
36
100
AcDbEntity
  8
0
100
AcDbLine
 10
-150.193691
 20
61.376436
 30
0.0
 11
-149.5936909999999
 21
61.376436
 31
0.0
  0
LINE
  5
256
330
36
100
AcDbEntity
  8
0
100
AcDbLine
 10
-150.193691
 20
61.376436
 30
0.0
 11
-151.693691
 21
61.376436
 31
0.0
  0
ARC
  5
257
330
36
100
AcDbEntity
  8
0
100
AcDbCircle
 10
-149.5936909999999
 20
61.876436
 30
0.0
 40
0.5
100
AcDbArc
 50
270.0
 51
0.0
  0
LINE
  5
258
330
36
100
AcDbEntity
  8
0
100
AcDbLine
 10
-147.943691
 20
34.451436
 30
0.0
 11
-153.943691
 21
34.451436
 31
0.0
  0
LINE
  5
259
330
36
100
AcDbEntity
  8
0
100
AcDbLine
 10
-147.943691
 20
33.551436
 30
0.0
 11
-153.943691
 21
33.551436
 31
0.0
  0
LINE
  5
25A
330
36
100
AcDbEntity
  8
0
100
AcDbLine
 10
-103.943691
 20
34.451436
 30
0.0
 11
-109.943691
 21
34.451436
 31
0.0
  0
CIRCLE
  5
25B
330
36
100
AcDbEntity
  8
0
100
AcDbCircle
 10
-106.943691
 20
37.05143599999999
 30
0.0
 40
2.0
  0
CIRCLE
  5
25C
330
36
100
AcDbEntity
  8
0
100
AcDbCircle
 10
-150.943691
 20
37.05143599999999
 30
0.0
 40
2.0
  0
CIRCLE
  5
25D
330
36
100
AcDbEntity
  8
0
100
AcDbCircle
 10
-150.943691
 20
79.05143599999998
 30
0.0
 40
2.0
  0
CIRCLE
  5
25E
330
36
100
AcDbEntity
  8
0
100
AcDbCircle
 10
-106.943691
 20
79.05143599999998
 30
0.0
 40
2.0
  0
ARC
  5
25F
330
36
100
AcDbEntity
  8
0
100
AcDbCircle
 10
-106.943691
 20
63.611621
 30
0.0
 40
0.764815
100
AcDbArc
 50
11.295648
 51
168.704352
  0
LINE
  5
260
330
36
100
AcDbEntity
  8
0
100
AcDbLine
 10
-103.293691
 20
71.126436
 30
0.0
 11
-103.293691
 21
67.626436
 31
0.0
  0
LINE
  5
261
330
36
100
AcDbEntity
  8
0
100
AcDbLine
 10
-104.243691
 20
71.126436
 30
0.0
 11
-104.243691
 21
67.626436
 31
0.0
  0
LINE
  5
262
330
36
100
AcDbEntity
  8
0
100
AcDbLine
 10
-103.293691
 20
67.626436
 30
0.0
 11
-104.243691
 21
67.626436
 31
0.0
  0
LINE
  5
263
330
36
100
AcDbEntity
  8
0
100
AcDbLine
 10
-109.643691
 20
67.201436
 30
0.0
 11
-110.593691
 21
67.201436
 31
0.0
  0
LINE
  5
264
330
36
100
AcDbEntity
  8
0
100
AcDbLine
 10
-109.643691
 20
71.55143599999998
 30
0.0
 11
-109.643691
 21
67.201436
 31
0.0
  0
LINE
  5
265
330
36
100
AcDbEntity
  8
0
100
AcDbLine
 10
-110.593691
 20
71.55143599999998
 30
0.0
 11
-110.593691
 21
67.201436
 31
0.0
  0
LINE
  5
266
330
36
100
AcDbEntity
  8
0
100
AcDbLine
 10
-106.193691
 20
62.47643599999999
 30
0.0
 11
-106.193691
 21
63.761427
 31
0.0
  0
LINE
  5
267
330
36
100
AcDbEntity
  8
0
100
AcDbLine
 10
-107.693691
 20
62.47643599999999
 30
0.0
 11
-107.693691
 21
63.761427
 31
0.0
  0
LINE
  5
268
330
36
100
AcDbEntity
  8
0
100
AcDbLine
 10
-107.693691
 20
62.47643599999999
 30
0.0
 11
-106.193691
 21
62.47643599999999
 31
0.0
  0
LINE
  5
269
330
36
100
AcDbEntity
  8
0
100
AcDbLine
 10
-105.143691
 20
72.451436
 30
0.0
 11
-105.143691
 21
66.301436
 31
0.0
  0
ARC
  5
26A
330
36
100
AcDbEntity
  8
0
100
AcDbCircle
 10
-104.643691
 20
66.301436
 30
0.0
 40
0.5
100
AcDbArc
 50
180.0
 51
270.0
  0
LINE
  5
26B
330
36
100
AcDbEntity
  8
0
100
AcDbLine
 10
-104.643691
 20
65.80143599999999
 30
0.0
 11
-102.393691
 21
65.80143599999999
 31
0.0
  0
LINE
  5
26C
330
36
100
AcDbEntity
  8
0
100
AcDbLine
 10
-108.743691
 20
72.026436
 30
0.0
 11
-108.743691
 21
66.72643599999999
 31
0.0
  0
ARC
  5
26D
330
36
100
AcDbEntity
  8
0
100
AcDbCircle
 10
-109.243691
 20
66.72643599999999
 30
0.0
 40
0.5
100
AcDbArc
 50
270.0
 51
0.0
  0
LINE
  5
26E
330
36
100
AcDbEntity
  8
0
100
AcDbLine
 10
-111.493691
 20
66.22643599999999
 30
0.0
 11
-109.243691
 21
66.22643599999999
 31
0.0
  0
LINE
  5
26F
330
36
100
AcDbEntity
  8
0
100
AcDbLine
 10
-105.093691
 20
61.876436
 30
0.0
 11
-105.093691
 21
63.846215
 31
0.0
  0
ARC
  5
270
330
36
100
AcDbEntity
  8
0
100
AcDbCircle
 10
-106.943691
 20
63.611621
 30
0.0
 40
1.864815
100
AcDbArc
 50
7.226963
 51
172.773037
  0
LINE
  5
271
330
36
100
AcDbEntity
  8
0
100
AcDbLine
 10
-108.793691
 20
61.876436
 30
0.0
 11
-108.793691
 21
63.846215
 31
0.0
  0
LINE
  5
272
330
36
100
AcDbEntity
  8
0
100
AcDbLine
 10
-103.293691
 20
71.126436
 30
0.0
 11
-104.243691
 21
71.126436
 31
0.0
  0
LINE
  5
273
330
36
100
AcDbEntity
  8
0
100
AcDbLine
 10
-109.643691
 20
71.55143599999998
 30
0.0
 11
-110.593691
 21
71.55143599999998
 31
0.0
  0
LINE
  5
274
330
36
100
AcDbEntity
  8
0
100
AcDbLine
 10
-104.643691
 20
72.951436
 30
0.0
 11
-102.393691
 21
72.951436
 31
0.0
  0
ARC
  5
275
330
36
100
AcDbEntity
  8
0
100
AcDbCircle
 10
-104.643691
 20
72.451436
 30
0.0
 40
0.5
100
AcDbArc
 50
90.0
 51
180.0
  0
LINE
  5
276
330
36
100
AcDbEntity
  8
0
100
AcDbLine
 10
-111.493691
 20
72.526436
 30
0.0
 11
-109.243691
 21
72.526436
 31
0.0
  0
ARC
  5
277
330
36
100
AcDbEntity
  8
0
100
AcDbCircle
 10
-109.243691
 20
72.026436
 30
0.0
 40
0.5
100
AcDbArc
 50
0.0
 51
90.0
  0
LINE
  5
278
330
36
100
AcDbEntity
  8
0
100
AcDbLine
 10
-109.643691
 20
52.05143599999999
 30
0.0
 11
-109.643691
 21
47.70143599999999
 31
0.0
  0
LINE
  5
279
330
36
100
AcDbEntity
  8
0
100
AcDbLine
 10
-110.593691
 20
52.05143599999999
 30
0.0
 11
-110.593691
 21
47.70143599999999
 31
0.0
  0
LINE
  5
27A
330
36
100
AcDbEntity
  8
0
100
AcDbLine
 10
-109.643691
 20
52.05143599999999
 30
0.0
 11
-110.593691
 21
52.05143599999999
 31
0.0
  0
LINE
  5
27B
330
36
100
AcDbEntity
  8
0
100
AcDbLine
 10
-109.643691
 20
47.70143599999999
 30
0.0
 11
-110.593691
 21
47.70143599999999
 31
0.0
  0
LINE
  5
27C
330
36
100
AcDbEntity
  8
0
100
AcDbLine
 10
-107.693691
 20
42.97643599999999
 30
0.0
 11
-107.693691
 21
44.261427
 31
0.0
  0
ARC
  5
27D
330
36
100
AcDbEntity
  8
0
100
AcDbCircle
 10
-106.943691
 20
44.111621
 30
0.0
 40
0.764815
100
AcDbArc
 50
11.295648
 51
168.704352
  0
LINE
  5
27E
330
36
100
AcDbEntity
  8
0
100
AcDbLine
 10
-106.193691
 20
42.97643599999999
 30
0.0
 11
-106.193691
 21
44.261427
 31
0.0
  0
LINE
  5
27F
330
36
100
AcDbEntity
  8
0
100
AcDbLine
 10
-107.693691
 20
42.97643599999999
 30
0.0
 11
-106.193691
 21
42.97643599999999
 31
0.0
  0
LINE
  5
280
330
36
100
AcDbEntity
  8
0
100
AcDbLine
 10
-103.293691
 20
51.62643599999999
 30
0.0
 11
-104.243691
 21
51.62643599999999
 31
0.0
  0
LINE
  5
281
330
36
100
AcDbEntity
  8
0
100
AcDbLine
 10
-103.293691
 20
51.62643599999999
 30
0.0
 11
-103.293691
 21
48.126436
 31
0.0
  0
LINE
  5
282
330
36
100
AcDbEntity
  8
0
100
AcDbLine
 10
-104.243691
 20
51.62643599999999
 30
0.0
 11
-104.243691
 21
48.126436
 31
0.0
  0
LINE
  5
283
330
36
100
AcDbEntity
  8
0
100
AcDbLine
 10
-103.293691
 20
48.126436
 30
0.0
 11
-104.243691
 21
48.126436
 31
0.0
  0
LINE
  5
284
330
36
100
AcDbEntity
  8
0
100
AcDbLine
 10
-104.643691
 20
53.451436
 30
0.0
 11
-102.393691
 21
53.451436
 31
0.0
  0
ARC
  5
285
330
36
100
AcDbEntity
  8
0
100
AcDbCircle
 10
-104.643691
 20
52.951436
 30
0.0
 40
0.5
100
AcDbArc
 50
90.0
 51
180.0
  0
LINE
  5
286
330
36
100
AcDbEntity
  8
0
100
AcDbLine
 10
-105.143691
 20
52.951436
 30
0.0
 11
-105.143691
 21
46.801436
 31
0.0
  0
LINE
  5
287
330
36
100
AcDbEntity
  8
0
100
AcDbLine
 10
-104.643691
 20
46.30143599999999
 30
0.0
 11
-102.393691
 21
46.30143599999999
 31
0.0
  0
ARC
  5
288
330
36
100
AcDbEntity
  8
0
100
AcDbCircle
 10
-104.643691
 20
46.801436
 30
0.0
 40
0.5
100
AcDbArc
 50
180.0
 51
270.0
  0
ARC
  5
289
330
36
100
AcDbEntity
  8
0
100
AcDbCircle
 10
-109.243691
 20
47.226436
 30
0.0
 40
0.5
100
AcDbArc
 50
270.0
 51
0.0
  0
LINE
  5
28A
330
36
100
AcDbEntity
  8
0
100
AcDbLine
 10
-111.493691
 20
46.72643599999999
 30
0.0
 11
-109.243691
 21
46.72643599999999
 31
0.0
  0
LINE
  5
28B
330
36
100
AcDbEntity
  8
0
100
AcDbLine
 10
-111.493691
 20
53.02643599999999
 30
0.0
 11
-109.243691
 21
53.02643599999999
 31
0.0
  0
ARC
  5
28C
330
36
100
AcDbEntity
  8
0
100
AcDbCircle
 10
-109.243691
 20
52.52643599999998
 30
0.0
 40
0.5
100
AcDbArc
 50
0.0
 51
90.0
  0
LINE
  5
28D
330
36
100
AcDbEntity
  8
0
100
AcDbLine
 10
-108.743691
 20
52.52643599999998
 30
0.0
 11
-108.743691
 21
47.226436
 31
0.0
  0
LINE
  5
28E
330
36
100
AcDbEntity
  8
0
100
AcDbLine
 10
-105.093691
 20
42.376436
 30
0.0
 11
-105.093691
 21
44.296806
 31
0.0
  0
ARC
  5
28F
330
36
100
AcDbEntity
  8
0
100
AcDbCircle
 10
-106.943691
 20
44.111621
 30
0.0
 40
1.864815
100
AcDbArc
 50
9.147842999999999
 51
171.550276
  0
LINE
  5
290
330
36
100
AcDbEntity
  8
0
100
AcDbLine
 10
-108.793691
 20
42.376436
 30
0.0
 11
-108.793691
 21
44.31216899999999
 31
0.0
  0
LINE
  5
291
330
36
100
AcDbEntity
  8
0
100
AcDbLine
 10
-153.643691
 20
52.05143599999999
 30
0.0
 11
-153.643691
 21
47.70143599999999
 31
0.0
  0
LINE
  5
292
330
36
100
AcDbEntity
  8
0
100
AcDbLine
 10
-154.5936909999999
 20
52.05143599999999
 30
0.0
 11
-154.5936909999999
 21
47.70143599999999
 31
0.0
  0
LINE
  5
293
330
36
100
AcDbEntity
  8
0
100
AcDbLine
 10
-153.643691
 20
52.05143599999999
 30
0.0
 11
-154.5936909999999
 21
52.05143599999999
 31
0.0
  0
LINE
  5
294
330
36
100
AcDbEntity
  8
0
100
AcDbLine
 10
-153.643691
 20
47.70143599999999
 30
0.0
 11
-154.5936909999999
 21
47.70143599999999
 31
0.0
  0
LINE
  5
295
330
36
100
AcDbEntity
  8
0
100
AcDbLine
 10
-151.693691
 20
42.97643599999999
 30
0.0
 11
-151.693691
 21
44.261427
 31
0.0
  0
ARC
  5
296
330
36
100
AcDbEntity
  8
0
100
AcDbCircle
 10
-150.943691
 20
44.111621
 30
0.0
 40
0.764815
100
AcDbArc
 50
11.295648
 51
168.704352
  0
LINE
  5
297
330
36
100
AcDbEntity
  8
0
100
AcDbLine
 10
-150.193691
 20
42.97643599999999
 30
0.0
 11
-150.193691
 21
44.261427
 31
0.0
  0
LINE
  5
298
330
36
100
AcDbEntity
  8
0
100
AcDbLine
 10
-151.693691
 20
42.97643599999999
 30
0.0
 11
-150.193691
 21
42.97643599999999
 31
0.0
  0
LINE
  5
299
330
36
100
AcDbEntity
  8
0
100
AcDbLine
 10
-147.293691
 20
51.62643599999999
 30
0.0
 11
-148.243691
 21
51.62643599999999
 31
0.0
  0
LINE
  5
29A
330
36
100
AcDbEntity
  8
0
100
AcDbLine
 10
-147.293691
 20
51.62643599999999
 30
0.0
 11
-147.293691
 21
48.126436
 31
0.0
  0
LINE
  5
29B
330
36
100
AcDbEntity
  8
0
100
AcDbLine
 10
-148.243691
 20
51.62643599999999
 30
0.0
 11
-148.243691
 21
48.126436
 31
0.0
  0
LINE
  5
29C
330
36
100
AcDbEntity
  8
0
100
AcDbLine
 10
-147.293691
 20
48.126436
 30
0.0
 11
-148.243691
 21
48.126436
 31
0.0
  0
ARC
  5
29D
330
36
100
AcDbEntity
  8
0
100
AcDbCircle
 10
-146.393691
 20
52.951436
 30
0.0
 40
0.5
100
AcDbArc
 50
0.0
 51
90.0
  0
LINE
  5
29E
330
36
100
AcDbEntity
  8
0
100
AcDbLine
 10
-148.643691
 20
53.451436
 30
0.0
 11
-146.393691
 21
53.451436
 31
0.0
  0
ARC
  5
29F
330
36
100
AcDbEntity
  8
0
100
AcDbCircle
 10
-148.643691
 20
52.951436
 30
0.0
 40
0.5
100
AcDbArc
 50
90.0
 51
180.0
  0
LINE
  5
2A0
330
36
100
AcDbEntity
  8
0
100
AcDbLine
 10
-149.143691
 20
52.951436
 30
0.0
 11
-149.143691
 21
46.801436
 31
0.0
  0
ARC
  5
2A1
330
36
100
AcDbEntity
  8
0
100
AcDbCircle
 10
-146.393691
 20
46.801436
 30
0.0
 40
0.5
100
AcDbArc
 50
270.0
 51
0.0
  0
LINE
  5
2A2
330
36
100
AcDbEntity
  8
0
100
AcDbLine
 10
-148.643691
 20
46.30143599999999
 30
0.0
 11
-146.393691
 21
46.30143599999999
 31
0.0
  0
ARC
  5
2A3
330
36
100
AcDbEntity
  8
0
100
AcDbCircle
 10
-148.643691
 20
46.801436
 30
0.0
 40
0.5
100
AcDbArc
 50
180.0
 51
270.0
  0
ARC
  5
2A4
330
36
100
AcDbEntity
  8
0
100
AcDbCircle
 10
-153.243691
 20
47.226436
 30
0.0
 40
0.5
100
AcDbArc
 50
270.0
 51
0.0
  0
LINE
  5
2A5
330
36
100
AcDbEntity
  8
0
100
AcDbLine
 10
-155.493691
 20
46.72643599999999
 30
0.0
 11
-153.243691
 21
46.72643599999999
 31
0.0
  0
LINE
  5
2A6
330
36
100
AcDbEntity
  8
0
100
AcDbLine
 10
-155.493691
 20
53.02643599999999
 30
0.0
 11
-153.243691
 21
53.02643599999999
 31
0.0
  0
ARC
  5
2A7
330
36
100
AcDbEntity
  8
0
100
AcDbCircle
 10
-153.243691
 20
52.52643599999998
 30
0.0
 40
0.5
100
AcDbArc
 50
0.0
 51
90.0
  0
LINE
  5
2A8
330
36
100
AcDbEntity
  8
0
100
AcDbLine
 10
-152.743691
 20
52.52643599999998
 30
0.0
 11
-152.743691
 21
47.226436
 31
0.0
  0
LINE
  5
2A9
330
36
100
AcDbEntity
  8
0
100
AcDbLine
 10
-149.093691
 20
42.376436
 30
0.0
 11
-149.093691
 21
44.296806
 31
0.0
  0
ARC
  5
2AA
330
36
100
AcDbEntity
  8
0
100
AcDbCircle
 10
-150.943691
 20
44.111621
 30
0.0
 40
1.864815
100
AcDbArc
 50
9.147842999999999
 51
171.550276
  0
LINE
  5
2AB
330
36
100
AcDbEntity
  8
0
100
AcDbLine
 10
-152.793691
 20
42.376436
 30
0.0
 11
-152.793691
 21
44.31216899999999
 31
0.0
  0
ARC
  5
2AC
330
36
100
AcDbEntity
  8
0
100
AcDbCircle
 10
-150.943691
 20
63.611621
 30
0.0
 40
0.764815
100
AcDbArc
 50
11.295648
 51
168.704352
  0
LINE
  5
2AD
330
36
100
AcDbEntity
  8
0
100
AcDbLine
 10
-147.293691
 20
71.126436
 30
0.0
 11
-147.293691
 21
67.626436
 31
0.0
  0
LINE
  5
2AE
330
36
100
AcDbEntity
  8
0
100
AcDbLine
 10
-148.243691
 20
71.126436
 30
0.0
 11
-148.243691
 21
67.626436
 31
0.0
  0
LINE
  5
2AF
330
36
100
AcDbEntity
  8
0
100
AcDbLine
 10
-147.293691
 20
67.626436
 30
0.0
 11
-148.243691
 21
67.626436
 31
0.0
  0
LINE
  5
2B0
330
36
100
AcDbEntity
  8
0
100
AcDbLine
 10
-153.643691
 20
67.201436
 30
0.0
 11
-154.5936909999999
 21
67.201436
 31
0.0
  0
LINE
  5
2B1
330
36
100
AcDbEntity
  8
0
100
AcDbLine
 10
-153.643691
 20
71.55143599999998
 30
0.0
 11
-153.643691
 21
67.201436
 31
0.0
  0
LINE
  5
2B2
330
36
100
AcDbEntity
  8
0
100
AcDbLine
 10
-154.5936909999999
 20
71.55143599999998
 30
0.0
 11
-154.5936909999999
 21
67.201436
 31
0.0
  0
LINE
  5
2B3
330
36
100
AcDbEntity
  8
0
100
AcDbLine
 10
-150.193691
 20
62.47643599999999
 30
0.0
 11
-150.193691
 21
63.761427
 31
0.0
  0
LINE
  5
2B4
330
36
100
AcDbEntity
  8
0
100
AcDbLine
 10
-151.693691
 20
62.47643599999999
 30
0.0
 11
-151.693691
 21
63.761427
 31
0.0
  0
LINE
  5
2B5
330
36
100
AcDbEntity
  8
0
100
AcDbLine
 10
-151.693691
 20
62.47643599999999
 30
0.0
 11
-150.193691
 21
62.47643599999999
 31
0.0
  0
LINE
  5
2B6
330
36
100
AcDbEntity
  8
0
100
AcDbLine
 10
-149.143691
 20
72.451436
 30
0.0
 11
-149.143691
 21
66.301436
 31
0.0
  0
ARC
  5
2B7
330
36
100
AcDbEntity
  8
0
100
AcDbCircle
 10
-148.643691
 20
66.301436
 30
0.0
 40
0.5
100
AcDbArc
 50
180.0
 51
270.0
  0
LINE
  5
2B8
330
36
100
AcDbEntity
  8
0
100
AcDbLine
 10
-148.643691
 20
65.80143599999999
 30
0.0
 11
-146.393691
 21
65.80143599999999
 31
0.0
  0
ARC
  5
2B9
330
36
100
AcDbEntity
  8
0
100
AcDbCircle
 10
-146.393691
 20
66.301436
 30
0.0
 40
0.5
100
AcDbArc
 50
270.0
 51
0.0
  0
ARC
  5
2BA
330
36
100
AcDbEntity
  8
0
100
AcDbCircle
 10
-155.493691
 20
66.72643599999999
 30
0.0
 40
0.5
100
AcDbArc
 50
180.0
 51
270.0
  0
LINE
  5
2BB
330
36
100
AcDbEntity
  8
0
100
AcDbLine
 10
-152.743691
 20
72.026436
 30
0.0
 11
-152.743691
 21
66.72643599999999
 31
0.0
  0
ARC
  5
2BC
330
36
100
AcDbEntity
  8
0
100
AcDbCircle
 10
-153.243691
 20
66.72643599999999
 30
0.0
 40
0.5
100
AcDbArc
 50
270.0
 51
0.0
  0
LINE
  5
2BD
330
36
100
AcDbEntity
  8
0
100
AcDbLine
 10
-155.493691
 20
66.22643599999999
 30
0.0
 11
-153.243691
 21
66.22643599999999
 31
0.0
  0
LINE
  5
2BE
330
36
100
AcDbEntity
  8
0
100
AcDbLine
 10
-149.093691
 20
61.876436
 30
0.0
 11
-149.093691
 21
63.846215
 31
0.0
  0
ARC
  5
2BF
330
36
100
AcDbEntity
  8
0
100
AcDbCircle
 10
-150.943691
 20
63.611621
 30
0.0
 40
1.864815
100
AcDbArc
 50
7.226963
 51
172.773037
  0
LINE
  5
2C0
330
36
100
AcDbEntity
  8
0
100
AcDbLine
 10
-152.793691
 20
61.876436
 30
0.0
 11
-152.793691
 21
63.846215
 31
0.0
  0
LINE
  5
2C1
330
36
100
AcDbEntity
  8
0
100
AcDbLine
 10
-147.293691
 20
71.126436
 30
0.0
 11
-148.243691
 21
71.126436
 31
0.0
  0
LINE
  5
2C2
330
36
100
AcDbEntity
  8
0
100
AcDbLine
 10
-153.643691
 20
71.55143599999998
 30
0.0
 11
-154.5936909999999
 21
71.55143599999998
 31
0.0
  0
LINE
  5
2C3
330
36
100
AcDbEntity
  8
0
100
AcDbLine
 10
-148.643691
 20
72.951436
 30
0.0
 11
-146.393691
 21
72.951436
 31
0.0
  0
ARC
  5
2C4
330
36
100
AcDbEntity
  8
0
100
AcDbCircle
 10
-146.393691
 20
72.451436
 30
0.0
 40
0.5
100
AcDbArc
 50
0.0
 51
90.0
  0
ARC
  5
2C5
330
36
100
AcDbEntity
  8
0
100
AcDbCircle
 10
-148.643691
 20
72.451436
 30
0.0
 40
0.5
100
AcDbArc
 50
90.0
 51
180.0
  0
ARC
  5
2C6
330
36
100
AcDbEntity
  8
0
100
AcDbCircle
 10
-155.493691
 20
72.026436
 30
0.0
 40
0.5
100
AcDbArc
 50
90.0
 51
180.0
  0
LINE
  5
2C7
330
36
100
AcDbEntity
  8
0
100
AcDbLine
 10
-155.493691
 20
72.526436
 30
0.0
 11
-153.243691
 21
72.526436
 31
0.0
  0
ARC
  5
2C8
330
36
100
AcDbEntity
  8
0
100
AcDbCircle
 10
-153.243691
 20
72.026436
 30
0.0
 40
0.5
100
AcDbArc
 50
0.0
 51
90.0
  0
CIRCLE
  5
2CF
330
36
100
AcDbEntity
  8
0
100
AcDbCircle
 10
52.84684
 20
129.242003
 30
0.0
 40
5.0
  0
TEXT
  5
2D0
330
36
100
AcDbEntity
  8
0
 62
     4
100
AcDbText
 10
51.78192041887474
 20
125.8303186674562
 30
0.0
 40
6.299999999999998
  1
1
  7
高6.3
100
AcDbText
  0
CIRCLE
  5
2D7
330
36
100
AcDbEntity
  8
0
100
AcDbCircle
 10
83.12016599999997
 20
128.684505
 30
0.0
 40
5.0
  0
TEXT
  5
2D8
330
36
100
AcDbEntity
  8
0
 62
     4
100
AcDbText
 10
81.00597370061519
 20
125.5927979040501
 30
0.0
 40
6.299999999999998
  1
3
  7
高6.3
100
AcDbText
  0
LINE
  5
2D9
330
36
100
AcDbEntity
  8
0
 62
     3
100
AcDbLine
 10
-139.843712
 20
85.10143599999997
 30
0.0
 11
-139.843712
 21
106.301436
 31
0.0
  0
LINE
  5
2DA
330
36
100
AcDbEntity
  8
0
 62
     3
100
AcDbLine
 10
-162.043712
 20
85.10143599999997
 30
0.0
 11
-162.043712
 21
106.301436
 31
0.0
  0
LINE
  5
2DB
330
36
100
AcDbEntity
  8
0
 62
     3
100
AcDbLine
 10
-161.543712
 20
106.801436
 30
0.0
 11
-140.343712
 21
106.801436
 31
0.0
  0
LINE
  5
2DC
330
36
100
AcDbEntity
  8
0
 62
     3
100
AcDbLine
 10
-140.343712
 20
84.601436
 30
0.0
 11
-161.543712
 21
84.601436
 31
0.0
  0
ARC
  5
2DD
330
36
100
AcDbEntity
  8
0
 62
     3
100
AcDbCircle
 10
-140.343712
 20
106.301436
 30
0.0
 40
0.5
100
AcDbArc
 50
0.0
 51
90.0
  0
ARC
  5
2DE
330
36
100
AcDbEntity
  8
0
 62
     3
100
AcDbCircle
 10
-161.543712
 20
106.301436
 30
0.0
 40
0.5
100
AcDbArc
 50
90.0
 51
180.0
  0
ARC
  5
2DF
330
36
100
AcDbEntity
  8
0
 62
     3
100
AcDbCircle
 10
-161.543712
 20
85.10143599999997
 30
0.0
 40
0.5
100
AcDbArc
 50
180.0
 51
270.0
  0
ARC
  5
2E0
330
36
100
AcDbEntity
  8
0
 62
     3
100
AcDbCircle
 10
-140.343712
 20
85.10143599999997
 30
0.0
 40
0.5
100
AcDbArc
 50
270.0
 51
0.0
  0
LINE
  5
2E1
330
36
100
AcDbEntity
  8
0
 62
     3
100
AcDbLine
 10
-125.943691
 20
83.75143599999999
 30
0.0
 11
-125.943691
 21
71.251436
 31
0.0
  0
LINE
  5
2E2
330
36
100
AcDbEntity
  8
0
 62
     3
100
AcDbLine
 10
-131.943691
 20
71.251436
 30
0.0
 11
-131.943691
 21
83.75143599999999
 31
0.0
  0
CIRCLE
  5
2E3
330
36
100
AcDbEntity
  8
0
 62
     3
100
AcDbCircle
 10
-150.943712
 20
92.101486
 30
0.0
 40
0.5
  0
LINE
  5
2E4
330
36
100
AcDbEntity
  8
0
 62
     3
100
AcDbLine
 10
-219.613077
 20
164.53603
 30
0.0
 11
-219.613077
 21
-112.46397
 31
0.0
  0
LINE
  5
2E5
330
36
100
AcDbEntity
  8
0
 62
     3
100
AcDbLine
 10
170.386923
 20
-112.46397
 30
0.0
 11
170.386923
 21
164.53603
 31
0.0
  0
LINE
  5
2E6
330
36
100
AcDbEntity
  8
0
 62
     3
100
AcDbLine
 10
-219.613077
 20
164.53603
 30
0.0
 11
170.386923
 21
164.53603
 31
0.0
  0
LINE
  5
2E7
330
36
100
AcDbEntity
  8
0
 62
     3
100
AcDbLine
 10
-139.295036
 20
43.813585
 30
0.0
 11
-118.775036
 21
43.813585
 31
0.0
  0
LINE
  5
2E8
330
36
100
AcDbEntity
  8
0
 62
     3
100
AcDbLine
 10
-118.775036
 20
37.333585
 30
0.0
 11
-139.295036
 21
37.333585
 31
0.0
  0
LINE
  5
2E9
330
36
100
AcDbEntity
  8
0
 62
     3
100
AcDbLine
 10
-118.235036
 20
37.873585
 30
0.0
 11
-118.235036
 21
43.27358499999998
 31
0.0
  0
LINE
  5
2EA
330
36
100
AcDbEntity
  8
0
 62
     3
100
AcDbLine
 10
-139.835036
 20
37.873585
 30
0.0
 11
-139.835036
 21
43.27358499999998
 31
0.0
  0
ARC
  5
2EB
330
36
100
AcDbEntity
  8
0
 62
     3
100
AcDbCircle
 10
-118.775036
 20
43.27358499999998
 30
0.0
 40
0.5400000000000002
100
AcDbArc
 50
0.0
 51
90.0
  0
ARC
  5
2EC
330
36
100
AcDbEntity
  8
0
 62
     3
100
AcDbCircle
 10
-139.295036
 20
43.27358499999998
 30
0.0
 40
0.5400000000000002
100
AcDbArc
 50
90.0
 51
180.0
  0
ARC
  5
2ED
330
36
100
AcDbEntity
  8
0
 62
     3
100
AcDbCircle
 10
-139.295036
 20
37.873585
 30
0.0
 40
0.5400000000000002
100
AcDbArc
 50
180.0
 51
270.0
  0
ARC
  5
2EE
330
36
100
AcDbEntity
  8
0
 62
     3
100
AcDbCircle
 10
-118.775036
 20
37.873585
 30
0.0
 40
0.5400000000000002
100
AcDbArc
 50
270.0
 51
0.0
  0
LINE
  5
2EF
330
36
100
AcDbEntity
  8
0
100
AcDbLine
 10
-88.27569233439431
 20
-112.46397
 30
0.0
 11
-88.27569233439431
 21
-52.46396999999998
 31
0.0
  0
TEXT
  5
2F0
330
36
100
AcDbEntity
  8
0
 62
     3
100
AcDbText
 10
-137.6748199999999
 20
38.953585
 30
0.0
 40
3.455999999999998
  1
2KVA
 41
1.274038999999999
100
AcDbText
  0
TEXT
  5
2F1
330
36
100
AcDbEntity
  8
0
 62
     3
100
AcDbText
 10
-117.4793586911596
 20
101.539665
 30
0.0
 40
3.149999999999999
  1
F-200D
 41
0.9305979999999999
100
AcDbText
  0
LINE
  5
2F2
330
36
100
AcDbEntity
  8
0
 62
     3
100
AcDbLine
 10
170.386923
 20
-112.46397
 30
0.0
 11
-219.613077
 21
-112.46397
 31
0.0
  0
TEXT
  5
2F5
330
36
100
AcDbEntity
  8
0
 62
     3
100
AcDbText
 10
-114.430999
 20
95.54439100000001
 30
0.0
 40
3.2
  1
入力電圧
 41
0.833333
100
AcDbText
  0
TEXT
  5
2F6
330
36
100
AcDbEntity
  8
0
 62
     3
100
AcDbText
 10
-114.41862
 20
87.51880300000001
 30
0.0
 40
3.2
  1
出力電圧
 41
0.833333
100
AcDbText
  0
LINE
  5
2F7
330
36
100
AcDbEntity
  8
0
100
AcDbLine
 10
-140.843712
 20
105.801436
 30
0.0
 11
-161.043712
 21
105.801436
 31
0.0
  0
LINE
  5
2F8
330
36
100
AcDbEntity
  8
0
100
AcDbLine
 10
-140.843712
 20
105.801436
 30
0.0
 11
-140.843712
 21
85.60143599999998
 31
0.0
  0
LINE
  5
2F9
330
36
100
AcDbEntity
  8
0
100
AcDbLine
 10
-140.843712
 20
85.60143599999998
 30
0.0
 11
-161.043712
 21
85.60143599999998
 31
0.0
  0
LINE
  5
2FA
330
36
100
AcDbEntity
  8
0
100
AcDbLine
 10
-161.043712
 20
85.60143599999998
 30
0.0
 11
-161.043712
 21
105.801436
 31
0.0
  0
LINE
  5
2FB
330
36
100
AcDbEntity
  8
0
100
AcDbLine
 10
-140.843712
 20
93.10143600000001
 30
0.0
 11
-161.043712
 21
93.10143600000001
 31
0.0
  0
LINE
  5
2FC
330
36
100
AcDbEntity
  8
0
100
AcDbLine
 10
-140.843712
 20
92.35143599999998
 30
0.0
 11
-161.043712
 21
92.35143599999998
 31
0.0
  0
LINE
  5
2FD
330
36
100
AcDbEntity
  8
0
100
AcDbLine
 10
-140.843712
 20
91.60143600000001
 30
0.0
 11
-161.043712
 21
91.60143600000001
 31
0.0
  0
LINE
  5
2FE
330
36
100
AcDbEntity
  8
0
100
AcDbLine
 10
-140.843712
 20
90.851436
 30
0.0
 11
-161.043712
 21
90.851436
 31
0.0
  0
LINE
  5
2FF
330
36
100
AcDbEntity
  8
0
100
AcDbLine
 10
-140.843712
 20
90.10143600000001
 30
0.0
 11
-161.043712
 21
90.10143600000001
 31
0.0
  0
LINE
  5
300
330
36
100
AcDbEntity
  8
0
100
AcDbLine
 10
-140.843712
 20
89.35143599999998
 30
0.0
 11
-161.043712
 21
89.35143599999998
 31
0.0
  0
LINE
  5
301
330
36
100
AcDbEntity
  8
0
100
AcDbLine
 10
-140.843712
 20
88.60143599999998
 30
0.0
 11
-161.043712
 21
88.60143599999998
 31
0.0
  0
LINE
  5
302
330
36
100
AcDbEntity
  8
0
100
AcDbLine
 10
-140.843712
 20
87.85143599999996
 30
0.0
 11
-161.043712
 21
87.85143599999996
 31
0.0
  0
LINE
  5
303
330
36
100
AcDbEntity
  8
0
100
AcDbLine
 10
-140.843712
 20
87.101436
 30
0.0
 11
-161.043712
 21
87.101436
 31
0.0
  0
LINE
  5
304
330
36
100
AcDbEntity
  8
0
100
AcDbLine
 10
-140.843712
 20
86.35143599999997
 30
0.0
 11
-161.043712
 21
86.35143599999997
 31
0.0
  0
CIRCLE
  5
305
330
36
100
AcDbEntity
  8
0
100
AcDbCircle
 10
-128.943691
 20
62.501436
 30
0.0
 40
2.0
  0
CIRCLE
  5
306
330
36
100
AcDbEntity
  8
0
100
AcDbCircle
 10
-128.943691
 20
92.50143599999999
 30
0.0
 40
2.0
  0
LINE
  5
307
330
36
100
AcDbEntity
  8
0
100
AcDbLine
 10
-127.318691
 20
77.001436
 30
0.0
 11
-130.568691
 21
77.001436
 31
0.0
  0
LINE
  5
308
330
36
100
AcDbEntity
  8
0
100
AcDbLine
 10
-127.318691
 20
83.001436
 30
0.0
 11
-130.568691
 21
83.001436
 31
0.0
  0
LINE
  5
309
330
36
100
AcDbEntity
  8
0
100
AcDbLine
 10
-130.568691
 20
84.501436
 30
0.0
 11
-127.318691
 21
84.501436
 31
0.0
  0
ARC
  5
30A
330
36
100
AcDbEntity
  8
0
100
AcDbCircle
 10
-150.943712
 20
92.101486
 30
0.0
 40
2.5
100
AcDbArc
 50
23.576928
 51
156.423072
  0
TEXT
  5
30B
330
36
100
AcDbEntity
  8
0
100
AcDbText
 10
-116.1273908514758
 20
84.970113
 30
0.0
 40
1.6
  1
AC100V・115V
 41
0.9523419999999999
100
AcDbText
  0
TEXT
  5
30C
330
36
100
AcDbEntity
  8
0
100
AcDbText
 10
-120.4173834762864
 20
93.29010600000001
 30
0.0
 40
1.6
  1
AC200V 50/60HZ
 41
1.234654
100
AcDbText
  0
LINE
  5
30D
330
36
100
AcDbEntity
  8
0
100
AcDbLine
 10
-151.988996
 20
104.049327
 30
0.0
 11
-151.901833
 21
103.053047
 31
0.0
  0
LINE
  5
30E
330
36
100
AcDbEntity
  8
0
100
AcDbLine
 10
-153.022959
 20
103.893557
 30
0.0
 11
-152.849252
 21
102.908414
 31
0.0
  0
LINE
  5
30F
330
36
100
AcDbEntity
  8
0
100
AcDbLine
 10
-154.034445
 20
103.636294
 30
0.0
 11
-153.77543
 21
102.669638
 31
0.0
  0
LINE
  5
310
330
36
100
AcDbEntity
  8
0
100
AcDbLine
 10
-155.183924
 20
103.751392
 30
0.0
 11
-154.670246
 21
102.340075
 31
0.0
  0
LINE
  5
311
330
36
100
AcDbEntity
  8
0
100
AcDbLine
 10
-155.9476379999999
 20
102.832451
 30
0.0
 11
-155.524166
 21
101.924312
 31
0.0
  0
LINE
  5
312
330
36
100
AcDbEntity
  8
0
100
AcDbLine
 10
-156.829819
 20
102.296527
 30
0.0
 11
-156.328403
 21
101.42805
 31
0.0
  0
LINE
  5
313
330
36
100
AcDbEntity
  8
0
100
AcDbLine
 10
-157.650781
 20
101.680175
 30
0.0
 11
-157.075064
 21
100.857967
 31
0.0
  0
LINE
  5
314
330
36
100
AcDbEntity
  8
0
100
AcDbLine
 10
-158.403072
 20
100.991205
 30
0.0
 11
-157.757268
 21
100.221566
 31
0.0
  0
LINE
  5
315
330
36
100
AcDbEntity
  8
0
100
AcDbLine
 10
-159.435688
 20
100.593362
 30
0.0
 11
-158.369271
 21
99.52694499999999
 31
0.0
  0
LINE
  5
316
330
36
100
AcDbEntity
  8
0
100
AcDbLine
 10
-146.703456
 20
103.751374
 30
0.0
 11
-150.943691
 21
92.101424
 31
0.0
  0
LINE
  5
317
330
36
100
AcDbEntity
  8
0
100
AcDbLine
 10
-142.451781
 20
100.593417
 30
0.0
 11
-143.8741
 21
99.171098
 31
0.0
  0
LINE
  5
318
330
36
100
AcDbEntity
  8
0
100
AcDbLine
 10
-144.236597
 20
101.680137
 30
0.0
 11
-144.812314
 21
100.857928
 31
0.0
  0
LINE
  5
319
330
36
100
AcDbEntity
  8
0
100
AcDbLine
 10
-143.484306
 20
100.991159
 30
0.0
 11
-144.130111
 21
100.221519
 31
0.0
  0
LINE
  5
31A
330
36
100
AcDbEntity
  8
0
100
AcDbLine
 10
-145.057559
 20
102.296497
 30
0.0
 11
-145.558975
 21
101.428019
 31
0.0
  0
LINE
  5
31B
330
36
100
AcDbEntity
  8
0
100
AcDbLine
 10
-145.939741
 20
102.832427
 30
0.0
 11
-146.363213
 21
101.924288
 31
0.0
  0
LINE
  5
31C
330
36
100
AcDbEntity
  8
0
100
AcDbLine
 10
-147.852936
 20
103.636281
 30
0.0
 11
-148.111951
 21
102.669624
 31
0.0
  0
LINE
  5
31D
330
36
100
AcDbEntity
  8
0
100
AcDbLine
 10
-148.864422
 20
103.893549
 30
0.0
 11
-149.03813
 21
102.908406
 31
0.0
  0
LINE
  5
31E
330
36
100
AcDbEntity
  8
0
100
AcDbLine
 10
-149.898386
 20
104.049323
 30
0.0
 11
-149.985549
 21
103.053043
 31
0.0
  0
TEXT
  5
31F
330
36
100
AcDbEntity
  8
0
100
AcDbText
 10
-131.223022
 20
107.60483
 30
0.0
 40
1.6
  1
電　源
 41
0.833333
100
AcDbText
  0
TEXT
  5
320
330
36
100
AcDbEntity
  8
0
100
AcDbText
 10
-154.546587
 20
107.563996
 30
0.0
 40
1.6
  1
出力電圧計
 41
0.833333
100
AcDbText
  0
TEXT
  5
321
330
36
100
AcDbEntity
  8
0
100
AcDbText
 10
-130.222736
 20
83.133139
 30
0.0
 40
1.28
  1
15
 41
1.199999999999999
100
AcDbText
  0
TEXT
  5
322
330
36
100
AcDbEntity
  8
0
100
AcDbText
 10
-129.70198
 20
78.064296
 30
0.0
 40
1.6
  1
入
 41
0.833333
100
AcDbText
  0
TEXT
  5
323
330
36
100
AcDbEntity
  8
0
100
AcDbText
 10
-136.992657
 20
29.450602
 30
0.0
 40
2.4192
  1
日動工業株式会社
 41
0.833333
100
AcDbText
  0
CIRCLE
  5
324
330
36
100
AcDbEntity
  8
0
100
AcDbCircle
 10
-138.830405
 20
30.75990900000001
 30
0.0
 40
0.9461759999999999
  0
CIRCLE
  5
325
330
36
100
AcDbEntity
  8
0
 62
     3
100
AcDbCircle
 10
54.86354399999999
 20
-26.908461
 30
0.0
 40
0.9599999999999999
  0
CIRCLE
  5
326
330
36
100
AcDbEntity
  8
0
 62
     3
100
AcDbCircle
 10
54.86354399999999
 20
-39.708461
 30
0.0
 40
0.9599999999999999
  0
LINE
  5
327
330
36
100
AcDbEntity
  8
0
 62
     3
100
AcDbLine
 10
82.34935300000001
 20
-16.078697
 30
0.0
 11
82.34935300000001
 21
-49.34269699999997
 31
0.0
  0
LINE
  5
340
330
36
100
AcDbEntity
  8
0
 62
     3
100
AcDbLine
 10
82.34935300000001
 20
-49.34269699999997
 30
0.0
 11
156.356525
 21
-49.34269699999997
 31
0.0
  0
CIRCLE
  5
341
330
36
100
AcDbEntity
  8
0
 62
     3
100
AcDbCircle
 10
54.86354399999999
 20
-14.108461
 30
0.0
 40
0.9599999999999999
  0
TEXT
  5
343
330
36
100
AcDbEntity
  8
0
 62
     3
100
AcDbText
 10
83.933353
 20
-20.830697
 30
0.0
 40
3.2
  1
型　　式
  7
高3.2
100
AcDbText
  0
TEXT
  5
344
330
36
100
AcDbEntity
  8
0
 62
     3
100
AcDbText
 10
83.933353
 20
-26.374697
 30
0.0
 40
3.2
  1
入力電圧
  7
高3.2
100
AcDbText
  0
TEXT
  5
345
330
36
100
AcDbEntity
  8
0
 62
     3
100
AcDbText
 10
83.933353
 20
-31.918697
 30
0.0
 40
3.2
  1
出力電圧
  7
高3.2
100
AcDbText
  0
TEXT
  5
346
330
36
100
AcDbEntity
  8
0
 62
     3
100
AcDbText
 10
83.933353
 20
-37.462697
 30
0.0
 40
3.2
  1
容　　量
  7
高3.2
100
AcDbText
  0
TEXT
  5
347
330
36
100
AcDbEntity
  8
0
 62
     3
100
AcDbText
 10
83.933353
 20
-43.00669699999999
 30
0.0
 40
3.2
  1
質　　量
  7
高3.2
100
AcDbText
  0
TEXT
  5
348
330
36
100
AcDbEntity
  8
0
 62
     3
100
AcDbText
 10
83.933353
 20
-48.550697
 30
0.0
 40
3.2
  1
絶縁種類
  7
高3.2
100
AcDbText
  0
TEXT
  5
349
330
36
100
AcDbEntity
  8
0
 62
     3
100
AcDbText
 10
119.573353
 20
-20.830459
 30
0.0
 40
3.2
  1
F-200D
  7
高3.2
100
AcDbText
  0
TEXT
  5
34A
330
36
100
AcDbEntity
  8
0
 62
     3
100
AcDbText
 10
110.066049
 20
-26.306616
 30
0.0
 40
3.2
  1
AC200V 50/60Hz
  7
高3.2
100
AcDbText
  0
TEXT
  5
34B
330
36
100
AcDbEntity
  8
0
 62
     3
100
AcDbText
 10
110.066049
 20
-31.850616
 30
0.0
 40
3.2
  1
AC100V,AC115V
  7
高3.2
100
AcDbText
  0
TEXT
  5
34C
330
36
100
AcDbEntity
  8
0
 62
     3
100
AcDbText
 10
118.747743
 20
-37.231017
 30
0.0
 40
3.2
  1
2KVA　連続
  7
高3.2
100
AcDbText
  0
TEXT
  5
34D
330
36
100
AcDbEntity
  8
0
 62
     3
100
AcDbText
 10
122.809508
 20
-42.842781
 30
0.0
 40
3.2
  1
約12kg
  7
高3.2
100
AcDbText
  0
TEXT
  5
34E
330
36
100
AcDbEntity
  8
0
 62
     3
100
AcDbText
 10
122.809508
 20
-48.386781
 30
0.0
 40
3.2
  1
F種絶縁
  7
高3.2
100
AcDbText
  0
TEXT
  5
34F
330
36
100
AcDbEntity
  8
0
 62
     3
100
AcDbText
 10
82.74121499999997
 20
-79.05493100000002
 30
0.0
 40
4.5
  1
降圧トランス
  7
高4.5
100
AcDbText
  0
TEXT
  5
350
330
36
100
AcDbEntity
  8
0
 62
     3
100
AcDbText
 10
82.887556
 20
-87.63412199999995
 30
0.0
 40
4.5
  1
F-200D
  7
高4.5
100
AcDbText
  0
TEXT
  5
351
330
36
100
AcDbEntity
  8
0
 62
     3
100
AcDbText
 10
102.1275362609626
 20
-13.13287340665385
 30
0.0
 40
4.5
  1
主　　仕　　様
  7
高4.5
100
AcDbText
  0
TEXT
  5
352
330
36
100
AcDbEntity
  8
0
 62
     4
100
AcDbText
 10
13.306038
 20
-4.776587999999998
 30
0.0
 40
3.2
  1
入力プラグ結線
  7
高3.2
100
AcDbText
  0
TEXT
  5
353
330
36
100
AcDbEntity
  8
0
 62
     4
100
AcDbText
 10
29.993131
 20
-13.723703
 30
0.0
 40
3.2
  1
白線
  7
高3.2
100
AcDbText
  0
TEXT
  5
354
330
36
100
AcDbEntity
  8
0
 62
     4
100
AcDbText
 10
30.4756
 20
-25.932956
 30
0.0
 40
3.2
  1
黒線
  7
高3.2
100
AcDbText
  0
TEXT
  5
355
330
36
100
AcDbEntity
  8
0
 62
     4
100
AcDbText
 10
30.38758
 20
-38.759425
 30
0.0
 40
3.2
  1
緑線（アース）
  7
高3.2
100
AcDbText
  0
LINE
  5
356
330
36
100
AcDbEntity
  8
0
100
AcDbLine
 10
82.34935300000001
 20
-27.166697
 30
0.0
 11
156.356525
 21
-27.166697
 31
0.0
  0
LINE
  5
357
330
36
100
AcDbEntity
  8
0
100
AcDbLine
 10
82.34935300000001
 20
-32.710697
 30
0.0
 11
156.356525
 21
-32.710697
 31
0.0
  0
LINE
  5
358
330
36
100
AcDbEntity
  8
0
100
AcDbLine
 10
82.34935300000001
 20
-38.254697
 30
0.0
 11
156.356525
 21
-38.254697
 31
0.0
  0
LINE
  5
359
330
36
100
AcDbEntity
  8
0
100
AcDbLine
 10
82.34935300000001
 20
-43.79869699999999
 30
0.0
 11
156.356525
 21
-43.79869699999999
 31
0.0
  0
LINE
  5
35A
330
36
100
AcDbEntity
  8
0
100
AcDbLine
 10
82.34935300000001
 20
-21.622697
 30
0.0
 11
156.356525
 21
-21.622697
 31
0.0
  0
LINE
  5
35B
330
36
100
AcDbEntity
  8
0
 62
     3
100
AcDbLine
 10
82.34935300000001
 20
-16.078697
 30
0.0
 11
156.356525
 21
-16.078697
 31
0.0
  0
LINE
  5
35C
330
36
100
AcDbEntity
  8
0
100
AcDbLine
 10
53.90354399999999
 20
-14.108461
 30
0.0
 11
12.317458
 21
-14.108461
 31
0.0
  0
LINE
  5
35D
330
36
100
AcDbEntity
  8
0
100
AcDbLine
 10
53.90354399999999
 20
-39.708461
 30
0.0
 11
12.317458
 21
-39.708461
 31
0.0
  0
LINE
  5
35E
330
36
100
AcDbEntity
  8
0
100
AcDbLine
 10
12.317458
 20
-39.708461
 30
0.0
 11
12.317458
 21
-34.204461
 31
0.0
  0
LINE
  5
35F
330
36
100
AcDbEntity
  8
0
100
AcDbLine
 10
55.11283399999999
 20
-40.787221
 30
0.0
 11
55.11283399999999
 21
-42.253502
 31
0.0
  0
LINE
  5
360
330
36
100
AcDbEntity
  8
0
100
AcDbLine
 10
51.913154
 20
-42.253502
 30
0.0
 11
58.31315400000001
 21
-42.253502
 31
0.0
  0
LINE
  5
361
330
36
100
AcDbEntity
  8
0
100
AcDbLine
 10
52.553154
 20
-42.893502
 30
0.0
 11
57.67315400000001
 21
-42.893502
 31
0.0
  0
LINE
  5
362
330
36
100
AcDbEntity
  8
0
100
AcDbLine
 10
53.193154
 20
-43.533502
 30
0.0
 11
57.03315400000001
 21
-43.533502
 31
0.0
  0
LINE
  5
363
330
36
100
AcDbEntity
  8
0
100
AcDbLine
 10
53.833154
 20
-44.173502
 30
0.0
 11
56.393154
 21
-44.173502
 31
0.0
  0
TEXT
  5
3AA
330
36
100
AcDbEntity
  8
0
 62
     3
100
AcDbText
 10
-95.44841085161184
 20
-111.96397
 30
0.0
 40
3.2
  1
個数
 41
0.8
  7
高3.2
100
AcDbText
  0
TEXT
  5
3AB
330
36
100
AcDbEntity
  8
0
 62
     3
100
AcDbText
 10
-149.9355052232351
 20
-111.96397
 30
0.0
 40
3.2
  1
備　　　　考
 41
0.8
  7
高3.2
100
AcDbText
  0
TEXT
  5
3AC
330
36
100
AcDbEntity
  8
0
 62
     3
100
AcDbText
 10
-172.8586416264675
 20
-111.96397
 30
0.0
 40
3.2
  1
材　　　　質
 41
0.8
  7
高3.2
100
AcDbText
  0
TEXT
  5
3AD
330
36
100
AcDbEntity
  8
0
 62
     3
100
AcDbText
 10
-209.138718
 20
-111.96397
 30
0.0
 40
3.2
  1
部　　品　　名
 41
0.8
  7
高3.2
100
AcDbText
  0
TEXT
  5
3AE
330
36
100
AcDbEntity
  8
0
 62
     3
100
AcDbText
 10
-218.113077
 20
-111.96397
 30
0.0
 40
3.2
  1
No
 41
0.8
  7
高3.2
100
AcDbText
  0
LINE
  5
3AF
330
36
100
AcDbEntity
  8
0
100
AcDbLine
 10
-96.94841085161185
 20
-112.46397
 30
0.0
 11
-96.94841085161185
 21
-52.46396999999998
 31
0.0
  0
TEXT
  5
3B0
330
36
100
AcDbEntity
  8
0
 62
     3
100
AcDbText
 10
-95.44841085161181
 20
-106.96397
 30
0.0
 40
3.2
  1
1
 41
0.8
  7
高3.2
100
AcDbText
  0
TEXT
  5
3B1
330
36
100
AcDbEntity
  8
0
 62
     3
100
AcDbText
 10
-95.44841085161184
 20
-86.96396999999995
 30
0.0
 40
3.2
  1
1
 41
0.8
  7
高3.2
100
AcDbText
  0
TEXT
  5
3B3
330
36
100
AcDbEntity
  8
0
 62
     3
100
AcDbText
 10
-95.44841085161184
 20
-56.96396999999997
 30
0.0
 40
3.2
  1
1
 41
0.8
  7
高3.2
100
AcDbText
  0
TEXT
  5
3B4
330
36
100
AcDbEntity
  8
0
 62
     3
100
AcDbText
 10
-95.44841085161184
 20
-76.96396999999993
 30
0.0
 40
3.2
  1
1
 41
0.8
  7
高3.2
100
AcDbText
  0
TEXT
  5
3B5
330
36
100
AcDbEntity
  8
0
 62
     3
100
AcDbText
 10
-95.44841085161184
 20
-71.96396999999993
 30
0.0
 40
3.2
  1
1
 41
0.8
  7
高3.2
100
AcDbText
  0
TEXT
  5
3B6
330
36
100
AcDbEntity
  8
0
 62
     3
100
AcDbText
 10
-95.44841085161184
 20
-66.96396999999996
 30
0.0
 40
3.2
  1
1
 41
0.8
  7
高3.2
100
AcDbText
  0
TEXT
  5
3B7
330
36
100
AcDbEntity
  8
0
 62
     3
100
AcDbText
 10
-95.44841085161184
 20
-61.96396999999997
 30
0.0
 40
3.2
  1
1
 41
0.8
  7
高3.2
100
AcDbText
  0
TEXT
  5
3B8
330
36
100
AcDbEntity
  8
0
 62
     3
100
AcDbText
 10
-95.44841085161181
 20
-96.96396999999997
 30
0.0
 40
3.2
  1
1
 41
0.8
  7
高3.2
100
AcDbText
  0
TEXT
  5
3B9
330
36
100
AcDbEntity
  8
0
 62
     3
100
AcDbText
 10
-95.44841085161184
 20
-81.96396999999995
 30
0.0
 40
3.2
  1
4
 41
0.8
  7
高3.2
100
AcDbText
  0
TEXT
  5
3BA
330
36
100
AcDbEntity
  8
0
 62
     3
100
AcDbText
 10
-149.9355052232351
 20
-76.96396999999993
 30
0.0
 40
3.2
  1
220V/110V　10A（一次側取付）
 41
0.8
  7
高3.2
100
AcDbText
  0
LINE
  5
3BB
330
36
100
AcDbEntity
  8
0
100
AcDbLine
 10
-151.4355052232351
 20
-112.46397
 30
0.0
 11
-151.435505223235
 21
-52.46396999999998
 31
0.0
  0
LINE
  5
3BC
330
36
100
AcDbEntity
  8
0
100
AcDbLine
 10
-174.3586416264675
 20
-112.46397
 30
0.0
 11
-174.3586416264674
 21
-52.46396999999998
 31
0.0
  0
LINE
  5
3BD
330
36
100
AcDbEntity
  8
0
100
AcDbLine
 10
-210.638718
 20
-112.46397
 30
0.0
 11
-210.638718
 21
-52.46396999999998
 31
0.0
  0
TEXT
  5
3BE
330
36
100
AcDbEntity
  8
0
 62
     3
100
AcDbText
 10
-172.8586416264675
 20
-96.96396999999997
 30
0.0
 40
3.2
  1
SPCC
 41
0.8
  7
高3.2
100
AcDbText
  0
TEXT
  5
3BF
330
36
100
AcDbEntity
  8
0
 62
     3
100
AcDbText
 10
-209.138718
 20
-106.96397
 30
0.0
 40
3.2
  1
把手
 41
0.8
  7
高3.2
100
AcDbText
  0
TEXT
  5
3C0
330
36
100
AcDbEntity
  8
0
 62
     3
100
AcDbText
 10
-209.138718
 20
-96.96396999999997
 30
0.0
 40
3.2
  1
上カバー
 41
0.8
  7
高3.2
100
AcDbText
  0
TEXT
  5
3C1
330
36
100
AcDbEntity
  8
0
 62
     3
100
AcDbText
 10
-149.9355052232351
 20
-106.96397
 30
0.0
 40
3.2
  1
M6取付ピッチ100
 41
0.8
  7
高3.2
100
AcDbText
  0
TEXT
  5
3C2
330
36
100
AcDbEntity
  8
0
 62
     3
100
AcDbText
 10
-209.138718
 20
-86.96397000000002
 30
0.0
 40
3.2
  1
電線
 41
0.8
  7
高3.2
100
AcDbText
  0
TEXT
  5
3C3
330
36
100
AcDbEntity
  8
0
 62
     3
100
AcDbText
 10
-172.8586416264675
 20
-86.96397000000002
 30
0.0
 40
3.2
  1
VCT
 41
0.8
  7
高3.2
100
AcDbText
  0
TEXT
  5
3C4
330
36
100
AcDbEntity
  8
0
 62
     3
100
AcDbText
 10
-149.9355052232351
 20
-86.96396999999995
 30
0.0
 40
3.2
  1
2.0sqx3芯x2m
 41
0.8
  7
高3.2
100
AcDbText
  0
TEXT
  5
3C5
330
36
100
AcDbEntity
  8
0
 62
     3
100
AcDbText
 10
-209.138718
 20
-81.96396999999995
 30
0.0
 40
3.2
  1
ゴム脚
 41
0.8
  7
高3.2
100
AcDbText
  0
TEXT
  5
3C6
330
36
100
AcDbEntity
  8
0
 62
     3
100
AcDbText
 10
-149.9355052232351
 20
-81.96396999999995
 30
0.0
 40
3.2
  1
-
 41
0.8
  7
高3.2
100
AcDbText
  0
TEXT
  5
3C7
330
36
100
AcDbEntity
  8
0
 62
     3
100
AcDbText
 10
-209.138718
 20
-76.96396999999993
 30
0.0
 40
3.2
  1
安全ブレーカー
 41
0.8
  7
高3.2
100
AcDbText
  0
TEXT
  5
3C8
330
36
100
AcDbEntity
  8
0
 62
     3
100
AcDbText
 10
-209.138718
 20
-71.96396999999993
 30
0.0
 40
3.2
  1
E付Wコンセント（白）
 41
0.8
  7
高3.2
100
AcDbText
  0
TEXT
  5
3C9
330
36
100
AcDbEntity
  8
0
 62
     3
100
AcDbText
 10
-209.138718
 20
-66.96396999999996
 30
0.0
 40
3.2
  1
E付Wコンセント（黒）
 41
0.8
  7
高3.2
100
AcDbText
  0
TEXT
  5
3CC
330
36
100
AcDbEntity
  8
0
 62
     3
100
AcDbText
 10
-209.138718
 20
-61.96396999999997
 30
0.0
 40
3.2
  1
電源ランプ
 41
0.8
  7
高3.2
100
AcDbText
  0
TEXT
  5
3CD
330
36
100
AcDbEntity
  8
0
 62
     3
100
AcDbText
 10
-149.9355052232351
 20
-61.96396999999997
 30
0.0
 40
3.2
  1
-
 41
0.8
  7
高3.2
100
AcDbText
  0
TEXT
  5
3CE
330
36
100
AcDbEntity
  8
0
 62
     3
100
AcDbText
 10
-209.138718
 20
-56.96396999999997
 30
0.0
 40
3.2
  1
電圧計
 41
0.8
  7
高3.2
100
AcDbText
  0
TEXT
  5
3CF
330
36
100
AcDbEntity
  8
0
 62
     3
100
AcDbText
 10
-172.8586416264675
 20
-56.96396999999997
 30
0.0
 40
3.2
  1
-
 41
0.8
  7
高3.2
100
AcDbText
  0
TEXT
  5
3D0
330
36
100
AcDbEntity
  8
0
 62
     3
100
AcDbText
 10
-149.9355052232351
 20
-56.96396999999997
 30
0.0
 40
3.2
  1
AC150V計
 41
0.8
  7
高3.2
100
AcDbText
  0
TEXT
  5
3D1
330
36
100
AcDbEntity
  8
0
 62
     3
100
AcDbText
 10
-172.8586416264675
 20
-106.96397
 30
0.0
 40
3.2
  1
PA樹脂
 41
0.8
  7
高3.2
100
AcDbText
  0
TEXT
  5
3D2
330
36
100
AcDbEntity
  8
0
 62
     3
100
AcDbText
 10
-172.8586416264675
 20
-81.96396999999995
 30
0.0
 40
3.2
  1
PVC樹脂
 41
0.8
  7
高3.2
100
AcDbText
  0
TEXT
  5
3D3
330
36
100
AcDbEntity
  8
0
 62
     3
100
AcDbText
 10
-172.8586416264675
 20
-76.96396999999993
 30
0.0
 40
3.2
  1
PF樹脂
 41
0.8
  7
高3.2
100
AcDbText
  0
TEXT
  5
3D4
330
36
100
AcDbEntity
  8
0
 62
     3
100
AcDbText
 10
-172.8586416264675
 20
-61.96396999999997
 30
0.0
 40
3.2
  1
ネオン球
 41
0.8
  7
高3.2
100
AcDbText
  0
TEXT
  5
3D5
330
36
100
AcDbEntity
  8
0
 62
     3
100
AcDbText
 10
-172.8586416264675
 20
-66.96396999999996
 30
0.0
 40
3.2
  1
耐熱ABS樹脂
 41
0.8
  7
高3.2
100
AcDbText
  0
TEXT
  5
3D6
330
36
100
AcDbEntity
  8
0
 62
     3
100
AcDbText
 10
-172.8586416264675
 20
-71.96396999999993
 30
0.0
 40
3.2
  1
耐熱ABS樹脂
 41
0.8
  7
高3.2
100
AcDbText
  0
TEXT
  5
3D7
330
36
100
AcDbEntity
  8
0
 62
     3
100
AcDbText
 10
-218.113077
 20
-106.96397
 30
0.0
 40
3.2
  1
1
 41
0.8
  7
高3.2
100
AcDbText
  0
TEXT
  5
3D8
330
36
100
AcDbEntity
  8
0
 62
     3
100
AcDbText
 10
-218.113077
 20
-101.96397
 30
0.0
 40
3.2
  1
2
 41
0.8
  7
高3.2
100
AcDbText
  0
TEXT
  5
3D9
330
36
100
AcDbEntity
  8
0
 62
     3
100
AcDbText
 10
-218.113077
 20
-96.96397000000001
 30
0.0
 40
3.2
  1
3
 41
0.8
  7
高3.2
100
AcDbText
  0
TEXT
  5
3DA
330
36
100
AcDbEntity
  8
0
 62
     3
100
AcDbText
 10
-218.113077
 20
-86.96396999999995
 30
0.0
 40
3.2
  1
5
 41
0.8
  7
高3.2
100
AcDbText
  0
TEXT
  5
3DB
330
36
100
AcDbEntity
  8
0
 62
     3
100
AcDbText
 10
-218.113077
 20
-91.96397000000002
 30
0.0
 40
3.2
  1
4
 41
0.8
  7
高3.2
100
AcDbText
  0
TEXT
  5
3DC
330
36
100
AcDbEntity
  8
0
 62
     3
100
AcDbText
 10
-218.113077
 20
-81.96396999999997
 30
0.0
 40
3.2
  1
6
 41
0.8
  7
高3.2
100
AcDbText
  0
TEXT
  5
3DD
330
36
100
AcDbEntity
  8
0
 62
     3
100
AcDbText
 10
-218.113077
 20
-76.96396999999997
 30
0.0
 40
3.2
  1
7
 41
0.8
  7
高3.2
100
AcDbText
  0
TEXT
  5
3DE
330
36
100
AcDbEntity
  8
0
 62
     3
100
AcDbText
 10
-218.113077
 20
-71.96396999999997
 30
0.0
 40
3.2
  1
8
 41
0.8
  7
高3.2
100
AcDbText
  0
TEXT
  5
3DF
330
36
100
AcDbEntity
  8
0
 62
     3
100
AcDbText
 10
-218.113077
 20
-66.96396999999999
 30
0.0
 40
3.2
  1
9
 41
0.8
  7
高3.2
100
AcDbText
  0
TEXT
  5
3E0
330
36
100
AcDbEntity
  8
0
 62
     3
100
AcDbText
 10
-218.113077
 20
-61.96396999999999
 30
0.0
 40
3.2
  1
10
 41
0.8
  7
高3.2
100
AcDbText
  0
TEXT
  5
3E2
330
36
100
AcDbEntity
  8
0
 62
     3
100
AcDbText
 10
-149.9355052232351
 20
-66.96396999999996
 30
0.0
 40
3.2
  1
2PE-BK　黒　115V出力用
 41
0.8
  7
高3.2
100
AcDbText
  0
TEXT
  5
3E3
330
36
100
AcDbEntity
  8
0
 62
     3
100
AcDbText
 10
-149.9355052232351
 20
-71.96396999999993
 30
0.0
 40
3.2
  1
2PE-WK　白　100V出力用
 41
0.8
  7
高3.2
100
AcDbText
  0
TEXT
  5
3E4
330
36
100
AcDbEntity
  8
0
 62
     3
100
AcDbText
 10
-149.9355052232351
 20
-96.96396999999997
 30
0.0
 40
3.2
  1
オレンジ塗装
 41
0.8
  7
高3.2
100
AcDbText
  0
LINE
  5
3E5
330
36
100
AcDbEntity
  8
0
 62
     3
100
AcDbLine
 10
170.286887
 20
-66.798248
 30
0.0
 11
118.687523
 21
-66.798248
 31
0.0
  0
TEXT
  5
3E6
330
36
100
AcDbEntity
  8
0
 62
     3
100
AcDbText
 10
124.1815814940419
 20
-72.24216199999998
 30
0.0
 40
4.5
  1
コード
  7
高4.5
100
AcDbText
  0
LINE
  5
3E7
330
36
100
AcDbEntity
  8
0
 62
     3
100
AcDbLine
 10
144.687523
 20
-72.798248
 30
0.0
 11
144.687523
 21
-66.798248
 31
0.0
  0
LINE
  5
3E8
330
36
100
AcDbEntity
  8
0
 62
     3
100
AcDbLine
 10
118.687523
 20
-72.798248
 30
0.0
 11
118.687523
 21
-66.798248
 31
0.0
  0
LINE
  5
3E9
330
36
100
AcDbEntity
  8
0
 62
     3
100
AcDbLine
 10
-219.613077
 20
-52.46396999999998
 30
0.0
 11
4.354715856411074
 21
-52.46396999999998
 31
0.0
  0
LINE
  5
3EA
330
36
100
AcDbEntity
  8
0
 62
     3
100
AcDbLine
 10
-219.613077
 20
-107.46397
 30
0.0
 11
4.354715856411075
 21
-107.46397
 31
0.0
  0
LINE
  5
3EB
330
36
100
AcDbEntity
  8
0
100
AcDbLine
 10
-219.613077
 20
-67.46396999999996
 30
0.0
 11
4.354715856411074
 21
-67.46396999999996
 31
0.0
  0
LINE
  5
3EC
330
36
100
AcDbEntity
  8
0
100
AcDbLine
 10
-219.613077
 20
-72.46396999999993
 30
0.0
 11
4.354715856411074
 21
-72.46396999999993
 31
0.0
  0
LINE
  5
3ED
330
36
100
AcDbEntity
  8
0
100
AcDbLine
 10
-219.613077
 20
-77.46396999999993
 30
0.0
 11
4.354715856411074
 21
-77.46396999999993
 31
0.0
  0
LINE
  5
3EE
330
36
100
AcDbEntity
  8
0
100
AcDbLine
 10
-219.613077
 20
-82.46396999999992
 30
0.0
 11
4.354715856411074
 21
-82.46396999999992
 31
0.0
  0
LINE
  5
3EF
330
36
100
AcDbEntity
  8
0
100
AcDbLine
 10
-219.613077
 20
-87.46396999999998
 30
0.0
 11
4.354715856411074
 21
-87.46396999999998
 31
0.0
  0
LINE
  5
3F0
330
36
100
AcDbEntity
  8
0
100
AcDbLine
 10
-219.613077
 20
-92.46396999999999
 30
0.0
 11
4.354715856411074
 21
-92.46396999999996
 31
0.0
  0
LINE
  5
3F1
330
36
100
AcDbEntity
  8
0
100
AcDbLine
 10
-219.613077
 20
-97.46396999999998
 30
0.0
 11
4.354715856411074
 21
-97.46396999999998
 31
0.0
  0
LINE
  5
3F2
330
36
100
AcDbEntity
  8
0
100
AcDbLine
 10
-219.613077
 20
-62.46396999999998
 30
0.0
 11
4.354715856411074
 21
-62.46396999999998
 31
0.0
  0
LINE
  5
3F3
330
36
100
AcDbEntity
  8
0
100
AcDbLine
 10
-219.613077
 20
-57.46396999999998
 30
0.0
 11
4.354715856411074
 21
-57.46396999999998
 31
0.0
  0
TEXT
  5
3F4
330
36
100
AcDbEntity
  8
0
 62
     3
100
AcDbText
 10
148.6843008125372
 20
-72.299891
 30
0.0
 40
4.5
  1
5570
  7
高4.5
100
AcDbText
  0
LINE
  5
5CC
330
36
100
AcDbEntity
  8
0
 62
     3
100
AcDbLine
 10
4.354715856411075
 20
-112.46397
 30
0.0
 11
4.354715856411074
 21
-52.46396999999998
 31
0.0
  0
TEXT
  5
5D0
330
36
100
AcDbEntity
  8
0
 62
     3
100
AcDbText
 10
-86.77569233439433
 20
-106.96397
 30
0.0
 40
3.2
  1
54268
 41
0.8
  7
高3.2
100
AcDbText
  0
TEXT
  5
5D1
330
36
100
AcDbEntity
  8
0
 62
     3
100
AcDbText
 10
-86.77569233439433
 20
-96.96396999999997
 30
0.0
 40
3.2
  1
54266
 41
0.8
  7
高3.2
100
AcDbText
  0
TEXT
  5
5D2
330
36
100
AcDbEntity
  8
0
 62
     3
100
AcDbText
 10
-86.77569233439433
 20
-86.96396999999995
 30
0.0
 40
3.2
  1
51322
 41
0.8
  7
高3.2
100
AcDbText
  0
TEXT
  5
5D3
330
36
100
AcDbEntity
  8
0
 62
     3
100
AcDbText
 10
-86.77569233439433
 20
-81.96396999999995
 30
0.0
 40
3.2
  1
53815
 41
0.8
  7
高3.2
100
AcDbText
  0
TEXT
  5
5D4
330
36
100
AcDbEntity
  8
0
 62
     3
100
AcDbText
 10
-86.77569233439433
 20
-76.96396999999993
 30
0.0
 40
3.2
  1
51761
 41
0.8
  7
高3.2
100
AcDbText
  0
TEXT
  5
5D5
330
36
100
AcDbEntity
  8
0
 62
     3
100
AcDbText
 10
-86.77569233439433
 20
-71.96396999999993
 30
0.0
 40
3.2
  1
51411
 41
0.8
  7
高3.2
100
AcDbText
  0
TEXT
  5
5D6
330
36
100
AcDbEntity
  8
0
 62
     3
100
AcDbText
 10
-86.77569233439433
 20
-66.96396999999996
 30
0.0
 40
3.2
  1
51420
 41
0.8
  7
高3.2
100
AcDbText
  0
TEXT
  5
5D8
330
36
100
AcDbEntity
  8
0
 62
     3
100
AcDbText
 10
-86.77569233439433
 20
-61.96396999999997
 30
0.0
 40
3.2
  1
53816
 41
0.8
  7
高3.2
100
AcDbText
  0
TEXT
  5
5D9
330
36
100
AcDbEntity
  8
0
 62
     3
100
AcDbText
 10
-86.77569233439433
 20
-56.96396999999997
 30
0.0
 40
3.2
  1
53584
 41
0.8
  7
高3.2
100
AcDbText
  0
TEXT
  5
619
330
36
100
AcDbEntity
  8
0
 62
     3
100
AcDbText
 10
22.33191010660014
 20
-26.7033364007055
 30
0.0
 40
3.2
  1
X
  7
高3.2
100
AcDbText
  0
TEXT
  5
61A
330
36
100
AcDbEntity
  8
0
 62
     3
100
AcDbText
 10
9.679047995909947
 20
-17.53926694629541
 30
0.0
 40
3.2
  1
Y
  7
高3.2
100
AcDbText
  0
TEXT
  5
61B
330
36
100
AcDbEntity
  8
0
 62
     3
100
AcDbText
 10
0.6019969446367455
 20
-28.44450911327516
 30
0.0
 40
3.2
  1
Z
  7
高3.2
100
AcDbText
  0
TEXT
  5
734
330
36
100
AcDbEntity
  8
0
 62
     3
100
AcDbText
 10
157.886923
 20
155.03603
 30
0.0
 40
3.2
  1
担　当
  7
高3.2
100
AcDbText
  0
TEXT
  5
735
330
36
100
AcDbEntity
  8
0
 62
     3
100
AcDbText
 10
113.886923
 20
155.03603
 30
0.0
 40
3.2
  1
変更・追記内容
  7
高3.2
100
AcDbText
  0
TEXT
  5
736
330
36
100
AcDbEntity
  8
0
 62
     3
100
AcDbText
 10
89.00043800033925
 20
150.3654914900917
 30
0.0
 40
2.0
  1
1
  7
高2
100
AcDbText
  0
TEXT
  5
737
330
36
100
AcDbEntity
  8
0
 62
     3
100
AcDbText
 10
88.69192652358194
 20
145.1956747778188
 30
0.0
 40
2.0
  1
2
  7
高2
100
AcDbText
  0
TEXT
  5
738
330
36
100
AcDbEntity
  8
0
 62
     3
100
AcDbText
 10
95.88692299999999
 20
155.03603
 30
0.0
 40
3.2
  1
日　付
  7
高3.2
100
AcDbText
  0
TEXT
  5
739
330
36
100
AcDbEntity
  8
0
 62
     3
100
AcDbText
 10
95.88692299999999
 20
160.03603
 30
0.0
 40
3.2
  1
図　　　　面　　　　略　　　　歴
  7
高3.2
100
AcDbText
  0
TEXT
  5
73A
330
36
100
AcDbEntity
  8
0
 62
     3
100
AcDbText
 10
85.88692299999998
 20
155.03603
 30
0.0
 40
3.2
  1
記号
  7
高3.2
100
AcDbText
  0
LINE
  5
73B
330
36
100
AcDbEntity
  8
0
100
AcDbLine
 10
89.38692299999997
 20
148.3269260000001
 30
0.0
 11
87.48692300000001
 21
145.03603
 31
0.0
  0
LINE
  5
73C
330
36
100
AcDbEntity
  8
0
100
AcDbLine
 10
89.38692299999997
 20
148.3269260000001
 30
0.0
 11
91.28692299999995
 21
145.03603
 31
0.0
  0
LINE
  5
73D
330
36
100
AcDbEntity
  8
0
100
AcDbLine
 10
87.48692300000001
 20
145.03603
 30
0.0
 11
91.28692299999995
 21
145.03603
 31
0.0
  0
LINE
  5
73E
330
36
100
AcDbEntity
  8
0
100
AcDbLine
 10
89.38692299999997
 20
153.3269270000001
 30
0.0
 11
87.48692300000001
 21
150.03603
 31
0.0
  0
LINE
  5
73F
330
36
100
AcDbEntity
  8
0
100
AcDbLine
 10
89.38692299999997
 20
153.3269270000001
 30
0.0
 11
91.28692299999995
 21
150.03603
 31
0.0
  0
LINE
  5
740
330
36
100
AcDbEntity
  8
0
100
AcDbLine
 10
87.48692300000001
 20
150.03603
 30
0.0
 11
91.28692299999995
 21
150.03603
 31
0.0
  0
LINE
  5
741
330
36
100
AcDbEntity
  8
0
 62
     3
100
AcDbLine
 10
84.38692299999997
 20
159.53603
 30
0.0
 11
170.386923
 21
159.53603
 31
0.0
  0
LINE
  5
742
330
36
100
AcDbEntity
  8
0
 62
     3
100
AcDbLine
 10
84.38692299999997
 20
154.53603
 30
0.0
 11
170.386923
 21
154.53603
 31
0.0
  0
LINE
  5
743
330
36
100
AcDbEntity
  8
0
 62
     7
100
AcDbLine
 10
84.38692299999997
 20
149.53603
 30
0.0
 11
170.386923
 21
149.53603
 31
0.0
  0
LINE
  5
744
330
36
100
AcDbEntity
  8
0
 62
     3
100
AcDbLine
 10
84.38692299999997
 20
144.53603
 30
0.0
 11
170.386923
 21
144.53603
 31
0.0
  0
LINE
  5
745
330
36
100
AcDbEntity
  8
0
 62
     7
100
AcDbLine
 10
156.3869229999999
 20
144.53603
 30
0.0
 11
156.386923
 21
159.53603
 31
0.0
  0
LINE
  5
746
330
36
100
AcDbEntity
  8
0
 62
     7
100
AcDbLine
 10
112.386923
 20
144.53603
 30
0.0
 11
112.386923
 21
159.53603
 31
0.0
  0
LINE
  5
747
330
36
100
AcDbEntity
  8
0
 62
     7
100
AcDbLine
 10
94.38692299999999
 20
144.53603
 30
0.0
 11
94.38692299999999
 21
159.53603
 31
0.0
  0
LINE
  5
748
330
36
100
AcDbEntity
  8
0
 62
     3
100
AcDbLine
 10
84.38692299999997
 20
144.53603
 30
0.0
 11
84.38692299999997
 21
164.53603
 31
0.0
  0
CIRCLE
  5
854
330
36
100
AcDbEntity
  8
0
100
AcDbCircle
 10
-183.0852
 20
120.7930477409277
 30
0.0
 40
5.0
  0
TEXT
  5
855
330
36
100
AcDbEntity
  8
0
 62
     4
100
AcDbText
 10
-185.1210455991256
 20
117.5785569120887
 30
0.0
 40
6.299999999999998
  1
4
  7
高6.3
100
AcDbText
  0
TEXT
  5
865
330
36
100
AcDbEntity
  8
0
 62
     3
100
AcDbText
 10
-95.44841085161181
 20
-91.96397000000001
 30
0.0
 40
3.2
  1
1
 41
0.8
  7
高3.2
100
AcDbText
  0
TEXT
  5
866
330
36
100
AcDbEntity
  8
0
 62
     3
100
AcDbText
 10
-172.8586416264675
 20
-91.96397000000001
 30
0.0
 40
3.2
  1
SPCC
 41
0.8
  7
高3.2
100
AcDbText
  0
TEXT
  5
867
330
36
100
AcDbEntity
  8
0
 62
     3
100
AcDbText
 10
-209.138718
 20
-91.96397000000001
 30
0.0
 40
3.2
  1
フロントパネル
 41
0.8
  7
高3.2
100
AcDbText
  0
TEXT
  5
868
330
36
100
AcDbEntity
  8
0
 62
     3
100
AcDbText
 10
-149.9355052232351
 20
-91.96397000000001
 30
0.0
 40
3.2
  1
-
 41
0.8
  7
高3.2
100
AcDbText
  0
TEXT
  5
869
330
36
100
AcDbEntity
  8
0
 62
     3
100
AcDbText
 10
-86.77569233439433
 20
-91.96397000000001
 30
0.0
 40
3.2
  1
55320
 41
0.8
  7
高3.2
100
AcDbText
  0
TEXT
  5
86C
330
36
100
AcDbEntity
  8
0
 62
     3
100
AcDbText
 10
-86.77569233439433
 20
-111.96397
 30
0.0
 40
3.2
  1
コード
 41
0.8
  7
高3.2
100
AcDbText
  0
LINE
  5
86D
330
36
100
AcDbEntity
  8
0
100
AcDbLine
 10
-72.89273140313665
 20
-112.46397
 30
0.0
 11
-72.89273140313665
 21
-52.46396999999998
 31
0.0
  0
TEXT
  5
86E
330
36
100
AcDbEntity
  8
0
 62
     3
100
AcDbText
 10
-71.39273140313665
 20
-106.96397
 30
0.0
 40
3.2
  1
F-200/300D用　取手
 41
0.6
  7
高3.2
100
AcDbText
  0
TEXT
  5
86F
330
36
100
AcDbEntity
  8
0
 62
     3
100
AcDbText
 10
-71.39273140313665
 20
-96.96396999999997
 30
0.0
 40
3.2
  1
F-200D用　上カバー
 41
0.6
  7
高3.2
100
AcDbText
  0
TEXT
  5
870
330
36
100
AcDbEntity
  8
0
 62
     3
100
AcDbText
 10
-71.39273140313665
 20
-86.96396999999995
 30
0.0
 40
3.2
  1
VCT2x3x2.5M防雨型4Pプラグ付
 41
0.6
  7
高3.2
100
AcDbText
  0
TEXT
  5
871
330
36
100
AcDbEntity
  8
0
 62
     3
100
AcDbText
 10
-71.39273140313665
 20
-81.96396999999995
 30
0.0
 40
3.2
  1
TB,FB(200,300,500),Fタイプ,NA-180DS兼用　脚ゴム(1/4)
 41
0.6
  7
高3.2
100
AcDbText
  0
TEXT
  5
872
330
36
100
AcDbEntity
  8
0
 62
     3
100
AcDbText
 10
-71.39273140313665
 20
-76.96396999999993
 30
0.0
 40
3.2
  1
B-2EA-10A(安全ブレーカー)
 41
0.6
  7
高3.2
100
AcDbText
  0
TEXT
  5
873
330
36
100
AcDbEntity
  8
0
 62
     3
100
AcDbText
 10
-71.39273140313665
 20
-71.96396999999993
 30
0.0
 40
3.2
  1
2PE-WK(金具付コンセント白)
 41
0.6
  7
高3.2
100
AcDbText
  0
TEXT
  5
874
330
36
100
AcDbEntity
  8
0
 62
     3
100
AcDbText
 10
-71.39273140313665
 20
-66.96396999999996
 30
0.0
 40
3.2
  1
2PE-BK(金具付コンセント黒)
 41
0.6
  7
高3.2
100
AcDbText
  0
TEXT
  5
876
330
36
100
AcDbEntity
  8
0
 62
     3
100
AcDbText
 10
-71.39273140313665
 20
-61.96396999999997
 30
0.0
 40
3.2
  1
TB,FB(200,300,500)兼用　電源ランプ
 41
0.6
  7
高3.2
100
AcDbText
  0
TEXT
  5
877
330
36
100
AcDbEntity
  8
0
 62
     3
100
AcDbText
 10
-71.39273140313665
 20
-56.96396999999997
 30
0.0
 40
3.2
  1
新150V電圧メーター
 41
0.6
  7
高3.2
100
AcDbText
  0
TEXT
  5
878
330
36
100
AcDbEntity
  8
0
 62
     3
100
AcDbText
 10
-71.39273140313665
 20
-91.96397000000001
 30
0.0
 40
3.2
  1
F-200D用　フロントパネル
 41
0.6
  7
高3.2
100
AcDbText
  0
TEXT
  5
879
330
36
100
AcDbEntity
  8
0
 62
     3
100
AcDbText
 10
-71.39273140313665
 20
-111.96397
 30
0.0
 40
3.2
  1
コード番号名称
 41
0.6
  7
高3.2
100
AcDbText
  0
TEXT
  5
AEA
330
36
100
AcDbEntity
  8
0
 62
     3
100
AcDbText
 10
-95.44841085161181
 20
-101.96397
 30
0.0
 40
3.2
  1
1
 41
0.8
  7
高3.2
100
AcDbText
  0
TEXT
  5
AEB
330
36
100
AcDbEntity
  8
0
 62
     3
100
AcDbText
 10
-172.8586416264675
 20
-101.96397
 30
0.0
 40
3.2
  1
SPCC
 41
0.8
  7
高3.2
100
AcDbText
  0
TEXT
  5
AEC
330
36
100
AcDbEntity
  8
0
 62
     3
100
AcDbText
 10
-209.138718
 20
-101.96397
 30
0.0
 40
3.2
  1
シャーシ
 41
0.8
  7
高3.2
100
AcDbText
  0
TEXT
  5
AED
330
36
100
AcDbEntity
  8
0
 62
     3
100
AcDbText
 10
-149.9355052232351
 20
-101.96397
 30
0.0
 40
3.2
  1
-
 41
0.8
  7
高3.2
100
AcDbText
  0
LINE
  5
AEE
330
36
100
AcDbEntity
  8
0
100
AcDbLine
 10
-219.613077
 20
-102.46397
 30
0.0
 11
4.354715856411072
 21
-102.46397
 31
0.0
  0
TEXT
  5
AEF
330
36
100
AcDbEntity
  8
0
 62
     3
100
AcDbText
 10
-86.77569233439433
 20
-101.96397
 30
0.0
 40
3.2
  1
56188
 41
0.8
  7
高3.2
100
AcDbText
  0
TEXT
  5
AF0
330
36
100
AcDbEntity
  8
0
 62
     3
100
AcDbText
 10
-71.39273140313665
 20
-101.96397
 30
0.0
 40
3.2
  1
F-200D用　シャーシ
 41
0.6
  7
高3.2
100
AcDbText
  0
TEXT
  5
AF3
330
36
100
AcDbEntity
  8
0
 62
     3
100
AcDbText
 10
-218.113077
 20
-56.96396999999999
 30
0.0
 40
3.2
  1
11
 41
0.8
  7
高3.2
100
AcDbText
  0
CIRCLE
  5
AF5
330
36
100
AcDbEntity
  8
0
100
AcDbCircle
 10
-183.0852
 20
6.950717573158396
 30
0.0
 40
5.0
  0
TEXT
  5
AF6
330
36
100
AcDbEntity
  8
0
 62
     4
100
AcDbText
 10
-185.4314708665079
 20
3.676866671267247
 30
0.0
 40
6.299999999999998
  1
2
  7
高6.3
100
AcDbText
  0
ARC
  5
C76
330
36
100
AcDbEntity
  8
0
 62
     3
100
AcDbCircle
 10
117.0490206084029
 20
85.84780159164777
 30
0.0
 40
2.0
100
AcDbArc
 50
90.0
 51
270.0
  0
ARC
  5
C77
330
36
100
AcDbEntity
  8
0
 62
     3
100
AcDbCircle
 10
143.5490206084029
 20
85.84780159164777
 30
0.0
 40
2.0
100
AcDbArc
 50
270.0
 51
90.0
  0
LINE
  5
C78
330
36
100
AcDbEntity
  8
0
 62
     3
100
AcDbLine
 10
117.0490206084029
 20
83.84780159164776
 30
0.0
 11
117.0490206084029
 21
81.34780159164776
 31
0.0
  0
LINE
  5
C79
330
36
100
AcDbEntity
  8
0
 62
     3
100
AcDbLine
 10
143.5490206084029
 20
81.34780159164776
 30
0.0
 11
143.5490206084029
 21
83.84780159164776
 31
0.0
  0
LINE
  5
C7A
330
36
100
AcDbEntity
  8
0
 62
     3
100
AcDbLine
 10
117.0490206084029
 20
81.34780159164776
 30
0.0
 11
117.7990206084029
 21
79.84780159164788
 31
0.0
  0
LINE
  5
C7B
330
36
100
AcDbEntity
  8
0
 62
     3
100
AcDbLine
 10
142.7990206084029
 20
79.84780159164788
 30
0.0
 11
143.5490206084029
 21
81.34780159164776
 31
0.0
  0
LINE
  5
C7C
330
36
100
AcDbEntity
  8
0
 62
     3
100
AcDbLine
 10
117.0490206084029
 20
89.34780159164777
 30
0.0
 11
117.0490206084029
 21
87.84780159164776
 31
0.0
  0
LINE
  5
C7D
330
36
100
AcDbEntity
  8
0
 62
     3
100
AcDbLine
 10
143.5490206084029
 20
87.84780159164776
 30
0.0
 11
143.5490206084029
 21
89.34780159164777
 31
0.0
  0
ARC
  5
C7E
330
36
100
AcDbEntity
  8
0
 62
     3
100
AcDbCircle
 10
130.2990206084029
 20
75.84780159164788
 30
0.0
 40
12.50000000000002
100
AcDbArc
 50
306.6531750701011
 51
334.1582287284891
  0
ARC
  5
C7F
330
36
100
AcDbEntity
  8
0
 62
     3
100
AcDbCircle
 10
130.2990206084029
 20
75.84780159164788
 30
0.0
 40
12.50000000000001
100
AcDbArc
 50
205.8417712364033
 51
233.3468249299151
  0
ARC
  5
C80
330
36
100
AcDbEntity
  8
0
 62
     3
100
AcDbCircle
 10
120.449020608403
 20
62.6104491373238
 30
0.0
 40
4.0
100
AcDbArc
 50
0.0
 51
53.34682492991518
  0
ARC
  5
C81
330
36
100
AcDbEntity
  8
0
 62
     3
100
AcDbCircle
 10
140.1490206084028
 20
62.6104491373238
 30
0.0
 40
4.0
100
AcDbArc
 50
126.6531750700848
 51
180.0
  0
ARC
  5
C82
330
36
100
AcDbEntity
  8
0
 62
     3
100
AcDbCircle
 10
125.2234601088263
 20
54.31594761038192
 30
0.0
 40
2.174439500423603
100
AcDbArc
 50
110.8643046745889
 51
244.8405244688164
  0
ARC
  5
C83
330
36
100
AcDbEntity
  8
0
 62
     3
100
AcDbCircle
 10
135.3745811079792
 20
54.31594761038192
 30
0.0
 40
2.174439500423597
100
AcDbArc
 50
295.1594755311836
 51
69.13569532541105
  0
LINE
  5
C84
330
36
100
AcDbEntity
  8
0
 62
     3
100
AcDbLine
 10
124.2990206084029
 20
52.34780159164777
 30
0.0
 11
124.2990206084029
 21
50.84780159164788
 31
0.0
  0
LINE
  5
C85
330
36
100
AcDbEntity
  8
0
 62
     3
100
AcDbLine
 10
136.2990206084029
 20
50.84780159164788
 30
0.0
 11
136.2990206084029
 21
52.34780159164777
 31
0.0
  0
LINE
  5
C86
330
36
100
AcDbEntity
  8
0
 62
     3
100
AcDbLine
 10
124.449020608403
 20
62.6104491373238
 30
0.0
 11
124.449020608403
 21
56.34780159164776
 31
0.0
  0
LINE
  5
C87
330
36
100
AcDbEntity
  8
0
 62
     3
100
AcDbLine
 10
136.1490206084028
 20
56.34780159164776
 30
0.0
 11
136.1490206084028
 21
62.6104491373238
 31
0.0
  0
LINE
  5
C88
330
36
100
AcDbEntity
  8
0
 62
     3
100
AcDbLine
 10
125.4240206084029
 20
50.84780159164788
 30
0.0
 11
125.7859863598816
 21
37.33441353643784
 31
0.0
  0
LINE
  5
C89
330
36
100
AcDbEntity
  8
0
 62
     3
100
AcDbLine
 10
134.8120548569239
 20
37.33441353643784
 30
0.0
 11
135.1740206084029
 21
50.84780159164788
 31
0.0
  0
ARC
  5
C8A
330
36
100
AcDbEntity
  8
0
 62
     3
100
AcDbCircle
 10
134.3122341290847
 20
37.34780159164777
 30
0.0
 40
0.5
100
AcDbArc
 50
270.0
 51
358.4656585003048
  0
ARC
  5
C8B
330
36
100
AcDbEntity
  8
0
 62
     3
100
AcDbCircle
 10
126.2858070877208
 20
37.34780159164777
 30
0.0
 40
0.5
100
AcDbArc
 50
181.5343414996952
 51
270.0
  0
LINE
  5
C8C
330
36
100
AcDbEntity
  8
0
 62
     3
100
AcDbLine
 10
143.5490206084029
 20
87.84780159164776
 30
0.0
 11
117.0490206084029
 21
87.84780159164776
 31
0.0
  0
LINE
  5
C8D
330
36
100
AcDbEntity
  8
0
 62
     3
100
AcDbLine
 10
117.0490206084029
 20
83.84780159164776
 30
0.0
 11
143.5490206084029
 21
83.84780159164776
 31
0.0
  0
LINE
  5
C8E
330
36
100
AcDbEntity
  8
0
 62
     3
100
AcDbLine
 10
117.0490206084029
 20
81.34780159164776
 30
0.0
 11
143.5490206084029
 21
81.34780159164776
 31
0.0
  0
LINE
  5
C8F
330
36
100
AcDbEntity
  8
0
 62
     3
100
AcDbLine
 10
117.7990206084029
 20
79.84780159164788
 30
0.0
 11
142.7990206084029
 21
79.84780159164788
 31
0.0
  0
LINE
  5
C90
330
36
100
AcDbEntity
  8
0
 62
     3
100
AcDbLine
 10
143.5490206084029
 20
89.34780159164777
 30
0.0
 11
117.0490206084029
 21
89.34780159164777
 31
0.0
  0
LINE
  5
C91
330
36
100
AcDbEntity
  8
0
 62
     3
100
AcDbLine
 10
124.449020608403
 20
56.34780159164776
 30
0.0
 11
136.1490206084026
 21
56.34780159164776
 31
0.0
  0
LINE
  5
C92
330
36
100
AcDbEntity
  8
0
 62
     3
100
AcDbLine
 10
124.2990206084029
 20
52.34780159164777
 30
0.0
 11
136.2990206084027
 21
52.3478015916477
 31
0.0
  0
LINE
  5
C93
330
36
100
AcDbEntity
  8
0
 62
     3
100
AcDbLine
 10
130.7990206084029
 20
99.84780159164778
 30
0.0
 11
130.6490206084028
 21
100.8478015916477
 31
0.0
  0
LINE
  5
C94
330
36
100
AcDbEntity
  8
0
 62
     3
100
AcDbLine
 10
129.949020608403
 20
100.8478015916477
 30
0.0
 11
129.7990206084029
 21
99.84780159164778
 31
0.0
  0
LINE
  5
C95
330
36
100
AcDbEntity
  8
0
 62
     3
100
AcDbLine
 10
129.949020608403
 20
100.8478015916477
 30
0.0
 11
130.6490206084028
 21
100.8478015916477
 31
0.0
  0
LINE
  5
C96
330
36
100
AcDbEntity
  8
0
 62
     3
100
AcDbLine
 10
129.7990206084029
 20
89.34780159164777
 30
0.0
 11
129.7990206084029
 21
99.84780159164778
 31
0.0
  0
LINE
  5
C97
330
36
100
AcDbEntity
  8
0
 62
     3
100
AcDbLine
 10
130.7990206084029
 20
99.84780159164778
 30
0.0
 11
130.7990206084029
 21
89.34780159164777
 31
0.0
  0
LINE
  5
C98
330
36
100
AcDbEntity
  8
0
 62
     3
100
AcDbLine
 10
124.2990206084029
 20
50.84780159164788
 30
0.0
 11
136.2990206084029
 21
50.84780159164788
 31
0.0
  0
LINE
  5
C99
330
36
100
AcDbEntity
  8
0
 62
     3
100
AcDbLine
 10
129.5490206084029
 20
41.54780159164781
 30
0.0
 11
125.7343317114718
 21
41.54780159164781
 31
0.0
  0
LINE
  5
C9A
330
36
100
AcDbEntity
  8
0
 62
     3
100
AcDbLine
 10
125.7777689721389
 20
39.94780159164779
 30
0.0
 11
125.7343317114718
 21
41.54780159164781
 31
0.0
  0
LINE
  5
C9B
330
36
100
AcDbEntity
  8
0
 62
     3
100
AcDbLine
 10
125.7777689721389
 20
39.94780159164779
 30
0.0
 11
129.5490206084028
 21
39.9478015916479
 31
0.0
  0
LINE
  5
C9C
330
36
100
AcDbEntity
  8
0
 62
     3
100
AcDbLine
 10
129.5490206084028
 20
39.9478015916479
 30
0.0
 11
129.5490206084029
 21
41.54780159164781
 31
0.0
  0
LINE
  5
C9D
330
36
100
AcDbEntity
  8
0
 62
     3
100
AcDbLine
 10
131.0490206084029
 20
43.0478015916478
 30
0.0
 11
134.9044220650113
 21
43.0478015916478
 31
0.0
  0
LINE
  5
C9E
330
36
100
AcDbEntity
  8
0
 62
     3
100
AcDbLine
 10
134.9478385539475
 20
44.64780159164783
 30
0.0
 11
134.9044220650113
 21
43.0478015916478
 31
0.0
  0
LINE
  5
C9F
330
36
100
AcDbEntity
  8
0
 62
     3
100
AcDbLine
 10
134.9478385539475
 20
44.64780159164783
 30
0.0
 11
131.0490206084029
 21
44.64780159164783
 31
0.0
  0
LINE
  5
CA0
330
36
100
AcDbEntity
  8
0
 62
     3
100
AcDbLine
 10
131.0490206084029
 20
44.64780159164783
 30
0.0
 11
131.0490206084029
 21
43.0478015916478
 31
0.0
  0
LINE
  5
CA1
330
36
100
AcDbEntity
  8
0
 62
     3
100
AcDbLine
 10
131.0490206084029
 20
39.9478015916479
 30
0.0
 11
134.8202722446666
 21
39.94780159164779
 31
0.0
  0
LINE
  5
CA2
330
36
100
AcDbEntity
  8
0
 62
     3
100
AcDbLine
 10
134.8637095053338
 20
41.54780159164781
 30
0.0
 11
134.8202722446666
 21
39.94780159164779
 31
0.0
  0
LINE
  5
CA3
330
36
100
AcDbEntity
  8
0
 62
     3
100
AcDbLine
 10
134.8637095053338
 20
41.54780159164781
 30
0.0
 11
131.0490206084029
 21
41.54780159164781
 31
0.0
  0
LINE
  5
CA4
330
36
100
AcDbEntity
  8
0
 62
     3
100
AcDbLine
 10
131.0490206084029
 20
41.54780159164781
 30
0.0
 11
131.0490206084029
 21
39.9478015916479
 31
0.0
  0
LINE
  5
CA5
330
36
100
AcDbEntity
  8
0
 62
     3
100
AcDbLine
 10
131.0490206084029
 20
50.84780159164788
 30
0.0
 11
131.0490206084029
 21
49.24780159164786
 31
0.0
  0
LINE
  5
CA6
330
36
100
AcDbEntity
  8
0
 62
     3
100
AcDbLine
 10
131.0490206084029
 20
49.24780159164786
 30
0.0
 11
135.0726046489155
 21
49.24780159164786
 31
0.0
  0
LINE
  5
CA7
330
36
100
AcDbEntity
  8
0
 62
     3
100
AcDbLine
 10
135.0726046489155
 20
49.24780159164786
 30
0.0
 11
135.1159828254023
 21
50.84780159164788
 31
0.0
  0
LINE
  5
CA8
330
36
100
AcDbEntity
  8
0
 62
     3
100
AcDbLine
 10
125.5254365678903
 20
49.24780159164786
 30
0.0
 11
125.4820583914035
 21
50.84780159164788
 31
0.0
  0
LINE
  5
CA9
330
36
100
AcDbEntity
  8
0
 62
     3
100
AcDbLine
 10
125.5254365678903
 20
49.24780159164786
 30
0.0
 11
129.5490206084029
 21
49.24780159164786
 31
0.0
  0
LINE
  5
CAA
330
36
100
AcDbEntity
  8
0
 62
     3
100
AcDbLine
 10
129.5490206084029
 20
49.24780159164786
 30
0.0
 11
129.5490206084029
 21
50.84780159164788
 31
0.0
  0
LINE
  5
CAB
330
36
100
AcDbEntity
  8
0
 62
     3
100
AcDbLine
 10
129.5490206084029
 20
46.14780159164783
 30
0.0
 11
129.5490206084029
 21
47.74780159164786
 31
0.0
  0
LINE
  5
CAC
330
36
100
AcDbEntity
  8
0
 62
     3
100
AcDbLine
 10
129.5490206084029
 20
47.74780159164786
 30
0.0
 11
125.5661122302951
 21
47.74780159164786
 31
0.0
  0
LINE
  5
CAD
330
36
100
AcDbEntity
  8
0
 62
     3
100
AcDbLine
 10
125.6095090502193
 20
46.14780159164783
 30
0.0
 11
125.5661122302951
 21
47.74780159164786
 31
0.0
  0
LINE
  5
CAE
330
36
100
AcDbEntity
  8
0
 62
     3
100
AcDbLine
 10
125.6095090502193
 20
46.14780159164783
 30
0.0
 11
129.5490206084029
 21
46.14780159164783
 31
0.0
  0
LINE
  5
CAF
330
36
100
AcDbEntity
  8
0
 62
     3
100
AcDbLine
 10
131.0490206084029
 20
46.14780159164783
 30
0.0
 11
134.9885321665862
 21
46.14780159164783
 31
0.0
  0
LINE
  5
CB0
330
36
100
AcDbEntity
  8
0
 62
     3
100
AcDbLine
 10
135.0319289865105
 20
47.74780159164786
 30
0.0
 11
134.9885321665862
 21
46.14780159164783
 31
0.0
  0
LINE
  5
CB1
330
36
100
AcDbEntity
  8
0
 62
     3
100
AcDbLine
 10
135.0319289865105
 20
47.74780159164786
 30
0.0
 11
131.0490206084029
 21
47.74780159164786
 31
0.0
  0
LINE
  5
CB2
330
36
100
AcDbEntity
  8
0
 62
     3
100
AcDbLine
 10
131.0490206084029
 20
47.74780159164786
 30
0.0
 11
131.0490206084029
 21
46.14780159164783
 31
0.0
  0
LINE
  5
CB3
330
36
100
AcDbEntity
  8
0
 62
     3
100
AcDbLine
 10
129.5490206084029
 20
44.64780159164783
 30
0.0
 11
125.6502026628583
 21
44.64780159164783
 31
0.0
  0
LINE
  5
CB4
330
36
100
AcDbEntity
  8
0
 62
     3
100
AcDbLine
 10
125.6936191517945
 20
43.0478015916478
 30
0.0
 11
125.6502026628583
 21
44.64780159164783
 31
0.0
  0
LINE
  5
CB5
330
36
100
AcDbEntity
  8
0
 62
     3
100
AcDbLine
 10
125.6936191517945
 20
43.0478015916478
 30
0.0
 11
129.5490206084029
 21
43.0478015916478
 31
0.0
  0
LINE
  5
CB6
330
36
100
AcDbEntity
  8
0
 62
     3
100
AcDbLine
 10
129.5490206084029
 20
43.0478015916478
 30
0.0
 11
129.5490206084029
 21
44.64780159164783
 31
0.0
  0
LINE
  5
CB7
330
36
100
AcDbEntity
  8
0
 62
     3
100
AcDbLine
 10
134.3122341290847
 20
36.84780159164777
 30
0.0
 11
126.2858070877208
 21
36.84780159164777
 31
0.0
  0
LINE
  5
CB8
330
36
100
AcDbEntity
  8
0
 62
     3
100
AcDbLine
 10
127.4459520848655
 20
41.54780159164781
 30
0.0
 11
127.4459520848655
 21
39.94780159164779
 31
0.0
  0
LINE
  5
CB9
330
36
100
AcDbEntity
  8
0
 62
     3
100
AcDbLine
 10
133.1520891319402
 20
43.0478015916478
 30
0.0
 11
133.1520891319402
 21
44.64780159164783
 31
0.0
  0
LINE
  5
CBA
330
36
100
AcDbEntity
  8
0
 62
     3
100
AcDbLine
 10
133.1520891319402
 20
39.94780159164779
 30
0.0
 11
133.1520891319402
 21
41.54780159164781
 31
0.0
  0
LINE
  5
CBB
330
36
100
AcDbEntity
  8
0
 62
     3
100
AcDbLine
 10
127.4459520848655
 20
50.84780159164788
 30
0.0
 11
127.4459520848655
 21
49.24780159164786
 31
0.0
  0
LINE
  5
CBC
330
36
100
AcDbEntity
  8
0
 62
     3
100
AcDbLine
 10
127.4459520848655
 20
47.74780159164786
 30
0.0
 11
127.4459520848655
 21
46.14780159164783
 31
0.0
  0
LINE
  5
CBD
330
36
100
AcDbEntity
  8
0
 62
     3
100
AcDbLine
 10
133.1520891319402
 20
46.14780159164783
 30
0.0
 11
133.1520891319402
 21
47.74780159164786
 31
0.0
  0
LINE
  5
CBE
330
36
100
AcDbEntity
  8
0
 62
     3
100
AcDbLine
 10
127.4459520848655
 20
44.64780159164783
 30
0.0
 11
127.4459520848655
 21
43.0478015916478
 31
0.0
  0
LINE
  5
CBF
330
36
100
AcDbEntity
  8
0
 62
     3
100
AcDbLine
 10
133.1520891319402
 20
50.84780159164788
 30
0.0
 11
133.1520891319402
 21
49.24780159164786
 31
0.0
  0
LINE
  5
CC0
330
36
100
AcDbEntity
  8
0
 62
     3
100
AcDbLine
 10
134.949020608403
 20
97.84780159164776
 30
0.0
 11
134.949020608403
 21
89.39780159164772
 31
0.0
  0
LINE
  5
CC1
330
36
100
AcDbEntity
  8
0
 62
     3
100
AcDbLine
 10
135.949020608403
 20
97.84780159164776
 30
0.0
 11
134.949020608403
 21
97.84780159164776
 31
0.0
  0
LINE
  5
CC2
330
36
100
AcDbEntity
  8
0
 62
     3
100
AcDbLine
 10
135.949020608403
 20
97.84780159164776
 30
0.0
 11
135.949020608403
 21
89.34780159164787
 31
0.0
  0
LINE
  5
CC3
330
36
100
AcDbEntity
  8
0
 62
     3
100
AcDbLine
 10
135.949020608403
 20
98.34780159164777
 30
0.0
 11
135.7990206084029
 21
99.34780159164777
 31
0.0
  0
LINE
  5
CC4
330
36
100
AcDbEntity
  8
0
 62
     3
100
AcDbLine
 10
135.0990206084028
 20
99.34780159164777
 30
0.0
 11
134.949020608403
 21
98.34780159164777
 31
0.0
  0
LINE
  5
CC5
330
36
100
AcDbEntity
  8
0
 62
     3
100
AcDbLine
 10
135.0990206084028
 20
99.34780159164777
 30
0.0
 11
135.7990206084029
 21
99.34780159164777
 31
0.0
  0
LINE
  5
CC6
330
36
100
AcDbEntity
  8
0
 62
     3
100
AcDbLine
 10
134.949020608403
 20
97.84780159164776
 30
0.0
 11
134.949020608403
 21
98.34780159164777
 31
0.0
  0
LINE
  5
CC7
330
36
100
AcDbEntity
  8
0
 62
     3
100
AcDbLine
 10
135.949020608403
 20
98.34780159164777
 30
0.0
 11
135.949020608403
 21
97.84780159164776
 31
0.0
  0
LINE
  5
CC8
330
36
100
AcDbEntity
  8
0
 62
     3
100
AcDbLine
 10
124.6490206084028
 20
97.84780159164776
 30
0.0
 11
124.6490206084028
 21
89.34780159164787
 31
0.0
  0
LINE
  5
CC9
330
36
100
AcDbEntity
  8
0
 62
     3
100
AcDbLine
 10
125.6490206084028
 20
97.84780159164776
 30
0.0
 11
124.6490206084028
 21
97.84780159164776
 31
0.0
  0
LINE
  5
CCA
330
36
100
AcDbEntity
  8
0
 62
     3
100
AcDbLine
 10
125.6490206084028
 20
97.84780159164776
 30
0.0
 11
125.6490206084028
 21
89.39780159164772
 31
0.0
  0
LINE
  5
CCB
330
36
100
AcDbEntity
  8
0
 62
     3
100
AcDbLine
 10
125.6490206084028
 20
98.34780159164777
 30
0.0
 11
125.4990206084027
 21
99.34780159164777
 31
0.0
  0
LINE
  5
CCC
330
36
100
AcDbEntity
  8
0
 62
     3
100
AcDbLine
 10
124.7990206084029
 20
99.34780159164777
 30
0.0
 11
124.6490206084028
 21
98.34780159164777
 31
0.0
  0
LINE
  5
CCD
330
36
100
AcDbEntity
  8
0
 62
     3
100
AcDbLine
 10
124.7990206084029
 20
99.34780159164777
 30
0.0
 11
125.4990206084027
 21
99.34780159164777
 31
0.0
  0
LINE
  5
CCE
330
36
100
AcDbEntity
  8
0
 62
     3
100
AcDbLine
 10
124.6490206084028
 20
97.84780159164776
 30
0.0
 11
124.6490206084028
 21
98.34780159164777
 31
0.0
  0
LINE
  5
CCF
330
36
100
AcDbEntity
  8
0
 62
     3
100
AcDbLine
 10
125.6490206084028
 20
98.34780159164777
 30
0.0
 11
125.6490206084028
 21
97.84780159164776
 31
0.0
  0
LINE
  5
CD0
330
36
100
AcDbEntity
  8
0
 62
     3
100
AcDbLine
 10
132.2990206084029
 20
97.84780159164776
 30
0.0
 11
132.2990206084029
 21
89.39780159164795
 31
0.0
  0
LINE
  5
CD1
330
36
100
AcDbEntity
  8
0
 62
     3
100
AcDbLine
 10
128.2990206084029
 20
97.84780159164776
 30
0.0
 11
128.2990206084029
 21
89.39780159164795
 31
0.0
  0
LINE
  5
CD2
330
36
100
AcDbEntity
  8
0
 62
     3
100
AcDbLine
 10
128.5490206084029
 20
98.34780159164777
 30
0.0
 11
128.2990206084029
 21
97.84780159164776
 31
0.0
  0
LINE
  5
CD3
330
36
100
AcDbEntity
  8
0
 62
     3
100
AcDbLine
 10
132.0490206084029
 20
98.34780159164777
 30
0.0
 11
130.7990206084029
 21
98.34780159164777
 31
0.0
  0
LINE
  5
CD4
330
36
100
AcDbEntity
  8
0
 62
     3
100
AcDbLine
 10
132.2990206084029
 20
97.84780159164776
 30
0.0
 11
132.0490206084029
 21
98.34780159164777
 31
0.0
  0
LINE
  5
CD5
330
36
100
AcDbEntity
  8
0
 62
     3
100
AcDbLine
 10
129.0490206084029
 20
99.34780159164777
 30
0.0
 11
129.7990206084029
 21
99.34780159164777
 31
0.0
  0
LINE
  5
CD6
330
36
100
AcDbEntity
  8
0
 62
     3
100
AcDbLine
 10
128.5490206084029
 20
98.34780159164777
 30
0.0
 11
129.0490206084029
 21
99.34780159164777
 31
0.0
  0
LINE
  5
CD7
330
36
100
AcDbEntity
  8
0
 62
     3
100
AcDbLine
 10
131.5490206084029
 20
99.34780159164777
 30
0.0
 11
132.0490206084029
 21
98.34780159164777
 31
0.0
  0
LINE
  5
CD8
330
36
100
AcDbEntity
  8
0
 62
     3
100
AcDbLine
 10
119.0490052478307
 20
70.39920962794906
 30
0.0
 11
119.0490052478307
 21
79.84780159164788
 31
0.0
  0
LINE
  5
CD9
330
36
100
AcDbEntity
  8
0
 62
     3
100
AcDbLine
 10
141.5490359656363
 20
70.39920962105629
 30
0.0
 11
141.5490359656368
 21
79.84780159164788
 31
0.0
  0
LINE
  5
CDA
330
36
100
AcDbEntity
  8
0
 62
     7
100
AcDbLine
 10
135.9490206084027
 20
116.0925300621753
 30
0.0
 11
134.9490206084027
 21
116.0925300621753
 31
0.0
  0
LINE
  5
CDB
330
36
100
AcDbEntity
  8
0
 62
     7
100
AcDbLine
 10
135.7990206084038
 20
116.2425300621753
 30
0.0
 11
135.0990206084037
 21
116.2425300621753
 31
0.0
  0
LINE
  5
CDC
330
36
100
AcDbEntity
  8
0
 62
     7
100
AcDbLine
 10
125.6490206084028
 20
116.0925300621753
 30
0.0
 11
124.6490206084028
 21
116.0925300621753
 31
0.0
  0
LINE
  5
CDD
330
36
100
AcDbEntity
  8
0
 62
     7
100
AcDbLine
 10
125.4990206084027
 20
116.2425300621753
 30
0.0
 11
124.7990206084029
 21
116.2425300621753
 31
0.0
  0
LINE
  5
CDE
330
36
100
AcDbEntity
  8
0
 62
     7
100
AcDbLine
 10
135.9490206084027
 20
120.0925300621753
 30
0.0
 11
134.9490206084027
 21
120.0925300621753
 31
0.0
  0
LINE
  5
CDF
330
36
100
AcDbEntity
  8
0
 62
     7
100
AcDbLine
 10
135.7990206084038
 20
119.9425300621753
 30
0.0
 11
135.0990206084037
 21
119.9425300621753
 31
0.0
  0
LINE
  5
CE0
330
36
100
AcDbEntity
  8
0
 62
     7
100
AcDbLine
 10
125.6490206084028
 20
120.0925300621753
 30
0.0
 11
124.6490206084028
 21
120.0925300621753
 31
0.0
  0
LINE
  5
CE1
330
36
100
AcDbEntity
  8
0
 62
     7
100
AcDbLine
 10
125.4990206084027
 20
119.9425300621753
 30
0.0
 11
124.7990206084029
 21
119.9425300621753
 31
0.0
  0
LINE
  5
CE2
330
36
100
AcDbEntity
  8
0
 62
     7
100
AcDbLine
 10
132.2990206084029
 20
122.7425300621753
 30
0.0
 11
128.2990206084029
 21
122.7425300621753
 31
0.0
  0
LINE
  5
CE3
330
36
100
AcDbEntity
  8
0
 62
     7
100
AcDbLine
 10
132.1490206084028
 20
122.8925300621752
 30
0.0
 11
128.4490206084027
 21
122.8925300621752
 31
0.0
  0
LINE
  5
CE4
330
36
100
AcDbEntity
  8
0
 62
     7
100
AcDbLine
 10
132.2990206084029
 20
123.7425300621752
 30
0.0
 11
128.2990206084029
 21
123.7425300621752
 31
0.0
  0
LINE
  5
CE5
330
36
100
AcDbEntity
  8
0
 62
     7
100
AcDbLine
 10
132.1490206084028
 20
123.5925300621752
 30
0.0
 11
128.4490206084027
 21
123.5925300621752
 31
0.0
  0
LINE
  5
CE6
330
36
100
AcDbEntity
  8
0
 62
     7
100
AcDbLine
 10
130.7990206084029
 20
111.3425300621752
 30
0.0
 11
129.7990206084029
 21
111.3425300621752
 31
0.0
  0
LINE
  5
CE7
330
36
100
AcDbEntity
  8
0
 62
     7
100
AcDbLine
 10
130.6490206084028
 20
111.4925300621752
 30
0.0
 11
129.9490206084028
 21
111.4925300621752
 31
0.0
  0
LINE
  5
CE8
330
36
100
AcDbEntity
  8
0
 62
     7
100
AcDbLine
 10
130.7990206084029
 20
115.3425300621752
 30
0.0
 11
129.7990206084029
 21
115.3425300621752
 31
0.0
  0
LINE
  5
CE9
330
36
100
AcDbEntity
  8
0
 62
     7
100
AcDbLine
 10
130.6490206084028
 20
115.1925300621752
 30
0.0
 11
129.9490206084028
 21
115.1925300621752
 31
0.0
  0
LINE
  5
CEA
330
36
100
AcDbEntity
  8
0
 62
     7
100
AcDbLine
 10
128.2990206084029
 20
122.7425300621753
 30
0.0
 11
128.2990206084029
 21
123.7425300621752
 31
0.0
  0
LINE
  5
CEB
330
36
100
AcDbEntity
  8
0
 62
     7
100
AcDbLine
 10
128.4490206084027
 20
122.8925300621752
 30
0.0
 11
128.4490206084027
 21
123.5925300621752
 31
0.0
  0
LINE
  5
CEC
330
36
100
AcDbEntity
  8
0
 62
     7
100
AcDbLine
 10
132.2990206084029
 20
122.7425300621753
 30
0.0
 11
132.2990206084029
 21
123.7425300621752
 31
0.0
  0
LINE
  5
CED
330
36
100
AcDbEntity
  8
0
 62
     7
100
AcDbLine
 10
132.1490206084028
 20
122.8925300621752
 30
0.0
 11
132.1490206084028
 21
123.5925300621752
 31
0.0
  0
LINE
  5
CEE
330
36
100
AcDbEntity
  8
0
 62
     7
100
AcDbLine
 10
129.7990206084029
 20
111.3425300621752
 30
0.0
 11
129.7990206084029
 21
115.3425300621752
 31
0.0
  0
LINE
  5
CEF
330
36
100
AcDbEntity
  8
0
 62
     7
100
AcDbLine
 10
129.9490206084028
 20
111.4925300621752
 30
0.0
 11
129.9490206084028
 21
115.1925300621752
 31
0.0
  0
LINE
  5
CF0
330
36
100
AcDbEntity
  8
0
 62
     7
100
AcDbLine
 10
130.7990206084029
 20
111.3425300621752
 30
0.0
 11
130.7990206084029
 21
115.3425300621752
 31
0.0
  0
LINE
  5
CF1
330
36
100
AcDbEntity
  8
0
 62
     7
100
AcDbLine
 10
130.6490206084028
 20
111.4925300621752
 30
0.0
 11
130.6490206084028
 21
115.1925300621752
 31
0.0
  0
LINE
  5
CF2
330
36
100
AcDbEntity
  8
0
 62
     7
100
AcDbLine
 10
124.6490206084028
 20
116.0925300621753
 30
0.0
 11
124.6490206084028
 21
120.0925300621753
 31
0.0
  0
LINE
  5
CF3
330
36
100
AcDbEntity
  8
0
 62
     7
100
AcDbLine
 10
124.7990206084029
 20
116.2425300621753
 30
0.0
 11
124.7990206084029
 21
119.9425300621753
 31
0.0
  0
LINE
  5
CF4
330
36
100
AcDbEntity
  8
0
 62
     7
100
AcDbLine
 10
125.6490206084028
 20
116.0925300621753
 30
0.0
 11
125.6490206084028
 21
120.0925300621753
 31
0.0
  0
LINE
  5
CF5
330
36
100
AcDbEntity
  8
0
 62
     7
100
AcDbLine
 10
125.4990206084027
 20
116.2425300621753
 30
0.0
 11
125.4990206084027
 21
119.9425300621753
 31
0.0
  0
LINE
  5
CF6
330
36
100
AcDbEntity
  8
0
 62
     7
100
AcDbLine
 10
134.9490206084027
 20
116.0925300621753
 30
0.0
 11
134.9490206084027
 21
120.0925300621753
 31
0.0
  0
LINE
  5
CF7
330
36
100
AcDbEntity
  8
0
 62
     7
100
AcDbLine
 10
135.0990206084037
 20
116.2425300621753
 30
0.0
 11
135.0990206084037
 21
119.9425300621753
 31
0.0
  0
LINE
  5
CF8
330
36
100
AcDbEntity
  8
0
 62
     7
100
AcDbLine
 10
135.9490206084027
 20
116.0925300621753
 30
0.0
 11
135.9490206084027
 21
120.0925300621753
 31
0.0
  0
LINE
  5
CF9
330
36
100
AcDbEntity
  8
0
 62
     7
100
AcDbLine
 10
135.7990206084038
 20
116.2425300621753
 30
0.0
 11
135.7990206084029
 21
119.9425300621753
 31
0.0
  0
LINE
  5
CFA
330
36
100
AcDbEntity
  8
0
 62
     7
100
AcDbLine
 10
125.4990206084027
 20
119.9425300621753
 30
0.0
 11
125.6490206084028
 21
120.0925300621753
 31
0.0
  0
LINE
  5
CFB
330
36
100
AcDbEntity
  8
0
 62
     7
100
AcDbLine
 10
124.7990206084029
 20
119.9425300621753
 30
0.0
 11
124.6490206084028
 21
120.0925300621753
 31
0.0
  0
LINE
  5
CFC
330
36
100
AcDbEntity
  8
0
 62
     7
100
AcDbLine
 10
124.7990206084029
 20
116.2425300621753
 30
0.0
 11
124.6490206084028
 21
116.0925300621753
 31
0.0
  0
LINE
  5
CFD
330
36
100
AcDbEntity
  8
0
 62
     7
100
AcDbLine
 10
125.4990206084027
 20
116.2425300621753
 30
0.0
 11
125.6490206084028
 21
116.0925300621753
 31
0.0
  0
LINE
  5
CFE
330
36
100
AcDbEntity
  8
0
 62
     7
100
AcDbLine
 10
129.9490206084028
 20
115.1925300621752
 30
0.0
 11
129.7990206084029
 21
115.3425300621752
 31
0.0
  0
LINE
  5
CFF
330
36
100
AcDbEntity
  8
0
 62
     7
100
AcDbLine
 10
130.6490206084028
 20
115.1925300621752
 30
0.0
 11
130.7990206084029
 21
115.3425300621752
 31
0.0
  0
LINE
  5
D00
330
36
100
AcDbEntity
  8
0
 62
     7
100
AcDbLine
 10
129.9490206084028
 20
111.4925300621752
 30
0.0
 11
129.7990206084029
 21
111.3425300621752
 31
0.0
  0
LINE
  5
D01
330
36
100
AcDbEntity
  8
0
 62
     7
100
AcDbLine
 10
130.6490206084028
 20
111.4925300621752
 30
0.0
 11
130.7990206084029
 21
111.3425300621752
 31
0.0
  0
LINE
  5
D02
330
36
100
AcDbEntity
  8
0
 62
     7
100
AcDbLine
 10
135.0990206084037
 20
116.2425300621753
 30
0.0
 11
134.9490206084027
 21
116.0925300621753
 31
0.0
  0
LINE
  5
D03
330
36
100
AcDbEntity
  8
0
 62
     7
100
AcDbLine
 10
135.7990206084038
 20
116.2425300621753
 30
0.0
 11
135.9490206084027
 21
116.0925300621753
 31
0.0
  0
LINE
  5
D04
330
36
100
AcDbEntity
  8
0
 62
     7
100
AcDbLine
 10
135.7990206084038
 20
119.9425300621753
 30
0.0
 11
135.9490206084027
 21
120.0925300621753
 31
0.0
  0
LINE
  5
D05
330
36
100
AcDbEntity
  8
0
 62
     7
100
AcDbLine
 10
135.0990206084037
 20
119.9425300621753
 30
0.0
 11
134.9490206084027
 21
120.0925300621753
 31
0.0
  0
LINE
  5
D06
330
36
100
AcDbEntity
  8
0
 62
     7
100
AcDbLine
 10
132.1490206084028
 20
123.5925300621752
 30
0.0
 11
132.2990206084029
 21
123.7425300621752
 31
0.0
  0
LINE
  5
D07
330
36
100
AcDbEntity
  8
0
 62
     7
100
AcDbLine
 10
132.1490206084028
 20
122.8925300621752
 30
0.0
 11
132.2990206084029
 21
122.7425300621753
 31
0.0
  0
LINE
  5
D08
330
36
100
AcDbEntity
  8
0
 62
     7
100
AcDbLine
 10
128.4490206084027
 20
123.5925300621752
 30
0.0
 11
128.2990206084029
 21
123.7425300621752
 31
0.0
  0
LINE
  5
D09
330
36
100
AcDbEntity
  8
0
 62
     7
100
AcDbLine
 10
128.4490206084027
 20
122.8925300621752
 30
0.0
 11
128.2990206084029
 21
122.7425300621753
 31
0.0
  0
CIRCLE
  5
D0A
330
36
100
AcDbEntity
  8
0
 62
     3
100
AcDbCircle
 10
130.2990206084029
 20
118.0925300621753
 30
0.0
 40
13.25
  0
CIRCLE
  5
D0B
330
36
100
AcDbEntity
  8
0
 62
     3
100
AcDbCircle
 10
130.2990206084029
 20
118.0925300621753
 30
0.0
 40
15.25
  0
TEXT
  5
D0E
330
36
100
AcDbEntity
  8
0
 62
     4
100
AcDbText
 10
137.5523194021708
 20
116.3830344796727
 30
0.0
 40
3.2
  1
X
  7
高3.2
100
AcDbText
  0
TEXT
  5
D0F
330
36
100
AcDbEntity
  8
0
 62
     4
100
AcDbText
 10
120.9982016638666
 20
116.3344777228751
 30
0.0
 40
3.2
  1
Z
  7
高3.2
100
AcDbText
  0
TEXT
  5
D10
330
36
100
AcDbEntity
  8
0
 62
     4
100
AcDbText
 10
129.3300281503777
 20
124.7820845970211
 30
0.0
 40
3.2
  1
Y
  7
高3.2
100
AcDbText
  0
LINE
  5
D43
330
36
100
AcDbEntity
  8
0
 62
     3
100
AcDbLine
 10
130.7990206084029
 20
99.34780159164777
 30
0.0
 11
131.5490206084029
 21
99.34780159164777
 31
0.0
  0
LINE
  5
D44
330
36
100
AcDbEntity
  8
0
 62
     3
100
AcDbLine
 10
129.7990206084029
 20
98.34780159164777
 30
0.0
 11
128.5490206084029
 21
98.34780159164777
 31
0.0
  0
LINE
  5
D47
330
36
100
AcDbEntity
  8
0
 62
     3
100
AcDbLine
 10
127.5740206084027
 20
30.42658229069538
 30
0.0
 11
127.5740206084027
 21
36.84780159164777
 31
0.0
  0
LINE
  5
D48
330
36
100
AcDbEntity
  8
0
 62
     3
100
AcDbLine
 10
133.0240206084027
 20
30.42658229069538
 30
0.0
 11
133.0240206084027
 21
36.84780159164777
 31
0.0
  0
ARC
  5
D4A
330
36
100
AcDbEntity
  8
0
100
AcDbCircle
 10
131.6615206084027
 20
31.85720729069535
 30
0.0
 40
1.975625000000008
100
AcDbArc
 50
226.3971810272963
 51
313.6028189727048
  0
ARC
  5
D4B
330
36
100
AcDbEntity
  8
0
100
AcDbCircle
 10
131.6615206084027
 20
28.99595729069538
 30
0.0
 40
1.975625000000008
100
AcDbArc
 50
46.39718102729618
 51
133.6028189727048
  0
ARC
  5
D4C
330
36
100
AcDbEntity
  8
0
100
AcDbCircle
 10
128.9365206084027
 20
31.85720729069533
 30
0.0
 40
1.975625000000008
100
AcDbArc
 50
226.3971810272965
 51
313.6028189727036
  0
LINE
  5
D77
330
36
100
AcDbEntity
  8
0
 62
     3
100
AcDbLine
 10
127.5740206084027
 20
27.188101205963
 30
0.0
 11
127.5740206084027
 21
23.52203031767294
 31
0.0
  0
LINE
  5
D78
330
36
100
AcDbEntity
  8
0
 62
     3
100
AcDbLine
 10
133.0240206084027
 20
27.188101205963
 30
0.0
 11
133.0240206084027
 21
23.52203031767294
 31
0.0
  0
ARC
  5
D79
330
36
100
AcDbEntity
  8
0
 62
     3
100
AcDbCircle
 10
120.2990206084027
 20
23.52203031767294
 30
0.0
 40
12.725
100
AcDbArc
 50
270.0
 51
0.0
  0
ARC
  5
D7A
330
36
100
AcDbEntity
  8
0
 62
     3
100
AcDbCircle
 10
120.2990206084027
 20
23.52203031767294
 30
0.0
 40
7.275
100
AcDbArc
 50
270.0
 51
0.0
  0
LINE
  5
D7B
330
36
100
AcDbEntity
  8
0
 62
     3
100
AcDbLine
 10
113.7607386335389
 20
16.24703031767294
 30
0.0
 11
120.2990206084027
 21
16.24703031767294
 31
0.0
  0
LINE
  5
D7C
330
36
100
AcDbEntity
  8
0
 62
     3
100
AcDbLine
 10
113.7607386335389
 20
10.79703031767294
 30
0.0
 11
120.2990206084027
 21
10.79703031767294
 31
0.0
  0
ARC
  5
D7D
330
36
100
AcDbEntity
  8
0
 62
     3
100
AcDbCircle
 10
113.7607386335389
 20
23.52203031767294
 30
0.0
 40
12.725
100
AcDbArc
 50
180.0
 51
270.0
  0
ARC
  5
D7E
330
36
100
AcDbEntity
  8
0
 62
     3
100
AcDbCircle
 10
113.7607386335389
 20
23.52203031767294
 30
0.0
 40
7.275
100
AcDbArc
 50
180.0
 51
270.0
  0
LINE
  5
D7F
330
36
100
AcDbEntity
  8
0
 62
     3
100
AcDbLine
 10
101.0357386335389
 20
33.30143599999999
 30
0.0
 11
101.0357386335389
 21
23.52203031767294
 31
0.0
  0
LINE
  5
D80
330
36
100
AcDbEntity
  8
0
 62
     3
100
AcDbLine
 10
106.4857386335389
 20
33.30143599999999
 30
0.0
 11
106.4857386335389
 21
23.52203031767294
 31
0.0
  0
ARC
  5
D81
330
36
100
AcDbEntity
  8
0
 62
     3
100
AcDbCircle
 10
93.76073863353894
 20
33.30143599999999
 30
0.0
 40
12.725
100
AcDbArc
 50
0.0
 51
90.0
  0
ARC
  5
D82
330
36
100
AcDbEntity
  8
0
 62
     3
100
AcDbCircle
 10
93.76073863353894
 20
33.30143599999999
 30
0.0
 40
7.275
100
AcDbArc
 50
0.0
 51
90.0
  0
LINE
  5
D83
330
36
100
AcDbEntity
  8
0
 62
     3
100
AcDbLine
 10
85.79881699999999
 20
40.57643599999998
 30
0.0
 11
93.76073863353894
 21
40.57643599999998
 31
0.0
  0
LINE
  5
D84
330
36
100
AcDbEntity
  8
0
 62
     3
100
AcDbLine
 10
85.79881699999999
 20
46.02643599999999
 30
0.0
 11
93.76073863353894
 21
46.02643599999999
 31
0.0
  0
ARC
  5
D87
330
36
100
AcDbEntity
  8
0
100
AcDbCircle
 10
128.9365206084028
 20
25.75747620596298
 30
0.0
 40
1.97562500000002
100
AcDbArc
 50
46.39718102729648
 51
133.6028189727035
  0
ARC
  5
D88
330
36
100
AcDbEntity
  8
0
100
AcDbCircle
 10
128.9365206084028
 20
28.61872620596301
 30
0.0
 40
1.97562500000002
100
AcDbArc
 50
226.3971810272965
 51
313.6028189727035
  0
ARC
  5
D89
330
36
100
AcDbEntity
  8
0
100
AcDbCircle
 10
131.6615206084028
 20
25.75747620596298
 30
0.0
 40
1.97562500000002
100
AcDbArc
 50
46.39718102729698
 51
133.602818972703
  0
TEXT
  5
FB0
330
36
100
AcDbEntity
  8
0
 62
     4
100
AcDbText
 10
-193.0699017008079
 20
39.07421827832081
 30
0.0
 40
3.0
  1
アース金具
100
AcDbText
1001
ACAD
1000
MTEXTBEGIN
1070
    73
1070
     1
1070
    44
1040
1.0
1070
    74
1070
     0
1000
MTEXTEND
  0
LINE
  5
FC7
330
36
100
AcDbEntity
  8
0
100
AcDbLine
 10
-99.943691
 20
22.301436
 30
0.0
 11
-77.12377900000001
 21
22.30143599999999
 31
0.0
  0
LINE
  5
FC8
330
36
100
AcDbEntity
  8
0
100
AcDbLine
 10
-128.693691
 20
128.301436
 30
0.0
 11
-77.12377899999999
 21
128.301436
 31
0.0
  0
LINE
  5
FC9
330
36
100
AcDbEntity
  8
0
100
AcDbLine
 10
-78.37377900000001
 20
24.801436
 30
0.0
 11
-78.37377899999999
 21
125.801436
 31
0.0
  0
LINE
  5
FCD
330
36
100
AcDbEntity
  8
0
100
AcDbLine
 10
-168.943691
 20
33.05143599999999
 30
0.0
 11
-168.943691
 21
13.994902
 31
0.0
  0
LINE
  5
FCE
330
36
100
AcDbEntity
  8
0
100
AcDbLine
 10
-88.943691
 20
28.051436
 30
0.0
 11
-88.943691
 21
13.994902
 31
0.0
  0
LINE
  5
FCF
330
36
100
AcDbEntity
  8
0
100
AcDbLine
 10
-166.443691
 20
15.244902
 30
0.0
 11
-91.443691
 21
15.244902
 31
0.0
  0
LINE
  5
FD3
330
36
100
AcDbEntity
  8
0
100
AcDbLine
 10
-45.70118299999999
 20
30.551436
 30
0.0
 11
-45.70118299999999
 21
13.994902
 31
0.0
  0
LINE
  5
FD4
330
36
100
AcDbEntity
  8
0
100
AcDbLine
 10
84.29881700000001
 20
69.05143599999999
 30
0.0
 11
84.29881700000001
 21
13.994902
 31
0.0
  0
LINE
  5
FD5
330
36
100
AcDbEntity
  8
0
100
AcDbLine
 10
-43.20118299999999
 20
15.244902
 30
0.0
 11
81.79881700000001
 21
15.244902
 31
0.0
  0
LINE
  5
FD9
330
36
100
AcDbEntity
  8
0
100
AcDbLine
 10
-43.45118299999999
 20
28.301436
 30
0.0
 11
-56.69630600000002
 21
28.301436
 31
0.0
  0
LINE
  5
FDA
330
36
100
AcDbEntity
  8
0
100
AcDbLine
 10
-45.95118299999999
 20
108.301436
 30
0.0
 11
-56.69630600000001
 21
108.301436
 31
0.0
  0
LINE
  5
FDB
330
36
100
AcDbEntity
  8
0
100
AcDbLine
 10
-55.44630600000002
 20
30.801436
 30
0.0
 11
-55.44630600000001
 21
105.801436
 31
0.0
  0
LINE
  5
FDF
330
36
100
AcDbEntity
  8
0
100
AcDbLine
 10
-131.2693859719519
 20
27.38429757127858
 30
0.0
 11
-178.433810056096
 21
8.784994430601232
 31
0.0
1001
ACAD
1000
DSTYLE
1002
{
1070
   147
1040
0.625
1070
    77
1070
     0
1002
}
  0
LINE
  5
FE0
330
36
100
AcDbEntity
  8
0
  6
ByBlock
 62
     0
370
    -2
100
AcDbLine
 10
-131.5151322967893
 20
28.00746521331812
 30
0.0
 11
-128.943691
 21
28.301436
 31
0.0
  0
LINE
  5
FE1
330
36
100
AcDbEntity
  8
0
  6
ByBlock
 62
     0
370
    -2
100
AcDbLine
 10
-128.943691
 20
28.301436
 30
0.0
 11
-131.0236396471144
 21
26.76112992923903
 31
0.0
  0
LINE
  5
FE2
330
36
100
AcDbEntity
  8
0
  6
ByBlock
 62
     0
370
    -2
100
AcDbLine
 10
-128.943691
 20
28.301436
 30
0.0
 11
-131.2693859719519
 21
27.38429757127858
 31
0.0
  0
LINE
  5
FE3
330
36
100
AcDbEntity
  8
0
100
AcDbLine
 10
-156.3208153120615
 20
35.22556777496224
 30
0.0
 11
-172.744901700808
 21
40.57421827832081
 31
0.0
1001
ACAD
1000
DSTYLE
1002
{
1070
   147
1040
0.625
1070
    77
1070
     0
1002
}
  0
LINE
  5
FE4
330
36
100
AcDbEntity
  8
0
100
AcDbLine
 10
-172.744901700808
 20
40.57421827832081
 30
0.0
 11
-175.244901700808
 21
40.57421827832081
 31
0.0
1001
ACAD
1000
DSTYLE
1002
{
1070
   147
1040
0.625
1070
    77
1070
     0
1002
}
  0
LINE
  5
FE5
330
36
100
AcDbEntity
  8
0
  6
ByBlock
 62
     0
370
    -2
100
AcDbLine
 10
-156.1133874770921
 20
35.86251585725481
 30
0.0
 11
-153.943691
 21
34.451436
 31
0.0
  0
LINE
  5
FE6
330
36
100
AcDbEntity
  8
0
  6
ByBlock
 62
     0
370
    -2
100
AcDbLine
 10
-153.943691
 20
34.451436
 30
0.0
 11
-156.5282431470308
 21
34.58861969266968
 31
0.0
  0
LINE
  5
FE7
330
36
100
AcDbEntity
  8
0
  6
ByBlock
 62
     0
370
    -2
100
AcDbLine
 10
-153.943691
 20
34.451436
 30
0.0
 11
-156.3208153120615
 21
35.22556777496224
 31
0.0
  0
LINE
  5
FE8
330
36
100
AcDbEntity
  8
0
100
AcDbLine
 10
47.93824382551772
 20
116.858058740343
 30
0.0
 11
51.00445034896456
 21
124.5938205193138
 31
0.0
1001
ACAD
1000
DSTYLE
1002
{
1070
   147
1040
0.625
1070
    77
1070
     0
1002
}
  0
LINE
  5
FE9
330
36
100
AcDbEntity
  8
0
  6
ByBlock
 62
     0
370
    -2
100
AcDbLine
 10
48.56098174927641
 20
116.6112255080404
 30
0.0
 11
47.017049
 21
114.5339675
 31
0.0
  0
LINE
  5
FEA
330
36
100
AcDbEntity
  8
0
  6
ByBlock
 62
     0
370
    -2
100
AcDbLine
 10
47.017049
 20
114.5339675
 30
0.0
 11
47.31550590175904
 21
117.1048919726457
 31
0.0
  0
LINE
  5
FEB
330
36
100
AcDbEntity
  8
0
  6
ByBlock
 62
     0
370
    -2
100
AcDbLine
 10
47.017049
 20
114.5339675
 30
0.0
 11
47.93824382551772
 21
116.858058740343
 31
0.0
  0
LINE
  5
FEC
330
36
100
AcDbEntity
  8
0
100
AcDbLine
 10
76.65932395929255
 20
110.6548924664626
 30
0.0
 11
81.43346192344672
 21
123.9775920670748
 31
0.0
1001
ACAD
1000
DSTYLE
1002
{
1070
   147
1040
0.625
1070
    77
1070
     0
1002
}
  0
LINE
  5
FED
330
36
100
AcDbEntity
  8
0
  6
ByBlock
 62
     0
370
    -2
100
AcDbLine
 10
77.28993026602474
 20
110.4289171311584
 30
0.0
 11
75.81597192101594
 21
108.301436
 31
0.0
  0
LINE
  5
FEE
330
36
100
AcDbEntity
  8
0
  6
ByBlock
 62
     0
370
    -2
100
AcDbLine
 10
75.81597192101594
 20
108.301436
 30
0.0
 11
76.02871765256036
 21
110.8808678017668
 31
0.0
  0
LINE
  5
FEF
330
36
100
AcDbEntity
  8
0
  6
ByBlock
 62
     0
370
    -2
100
AcDbLine
 10
75.81597192101594
 20
108.301436
 30
0.0
 11
76.65932395929255
 21
110.6548924664626
 31
0.0
  0
LINE
  5
FF0
330
36
100
AcDbEntity
  8
0
100
AcDbLine
 10
135.010876628569
 20
33.96850564354298
 30
0.0
 11
145.1203659266378
 21
41.68914926293793
 31
0.0
1001
ACAD
1000
DSTYLE
1002
{
1070
   147
1040
0.625
1070
    77
1070
     0
1002
}
  0
LINE
  5
FF1
330
36
100
AcDbEntity
  8
0
  6
ByBlock
 62
     0
370
    -2
100
AcDbLine
 10
135.4174536467462
 20
33.43612955979547
 30
0.0
 11
133.0240206084027
 21
32.45113846479905
 31
0.0
  0
LINE
  5
FF2
330
36
100
AcDbEntity
  8
0
  6
ByBlock
 62
     0
370
    -2
100
AcDbLine
 10
133.0240206084027
 20
32.45113846479905
 30
0.0
 11
134.6042996103917
 21
34.5008817272905
 31
0.0
  0
LINE
  5
FF3
330
36
100
AcDbEntity
  8
0
  6
ByBlock
 62
     0
370
    -2
100
AcDbLine
 10
133.0240206084027
 20
32.45113846479905
 30
0.0
 11
135.010876628569
 21
33.96850564354298
 31
0.0
  0
LINE
  5
FF4
330
36
100
AcDbEntity
  8
0
100
AcDbLine
 10
-162.928980335223
 20
25.57224390281458
 30
0.0
 11
-178.114621329554
 21
27.22693719437085
 31
0.0
1001
ACAD
1000
DSTYLE
1002
{
1070
   147
1040
0.625
1070
    77
1070
     0
1002
}
  0
LINE
  5
FF5
330
36
100
AcDbEntity
  8
0
  6
ByBlock
 62
     0
370
    -2
100
AcDbLine
 10
-162.8564176284717
 20
26.23817469489825
 30
0.0
 11
-160.443691
 21
25.301436
 31
0.0
  0
LINE
  5
FF6
330
36
100
AcDbEntity
  8
0
  6
ByBlock
 62
     0
370
    -2
100
AcDbLine
 10
-160.443691
 20
25.301436
 30
0.0
 11
-163.0015430419742
 21
24.90631311073091
 31
0.0
  0
LINE
  5
FF7
330
36
100
AcDbEntity
  8
0
  6
ByBlock
 62
     0
370
    -2
100
AcDbLine
 10
-160.443691
 20
25.301436
 30
0.0
 11
-162.928980335223
 21
25.57224390281458
 31
0.0
  0
LINE
  5
FF8
330
36
100
AcDbEntity
  8
0
100
AcDbLine
 10
-117.9082964428881
 20
48.7206257075147
 30
0.0
 11
-177.8010131142236
 21
58.90741258497057
 31
0.0
1001
ACAD
1000
DSTYLE
1002
{
1070
   147
1040
0.625
1070
    77
1070
     0
1002
}
  0
LINE
  5
FF9
330
36
100
AcDbEntity
  8
0
  6
ByBlock
 62
     0
370
    -2
100
AcDbLine
 10
-117.7959749799492
 20
49.38101427133113
 30
0.0
 11
-115.443691
 21
48.30143599999999
 31
0.0
  0
LINE
  5
FFA
330
36
100
AcDbEntity
  8
0
  6
ByBlock
 62
     0
370
    -2
100
AcDbLine
 10
-115.443691
 20
48.30143599999999
 30
0.0
 11
-118.0206179058269
 21
48.06023714369828
 31
0.0
  0
LINE
  5
FFB
330
36
100
AcDbEntity
  8
0
  6
ByBlock
 62
     0
370
    -2
100
AcDbLine
 10
-115.443691
 20
48.30143599999999
 30
0.0
 11
-117.9082964428881
 21
48.7206257075147
 31
0.0
  0
LINE
  5
FFC
330
36
100
AcDbEntity
  8
0
100
AcDbLine
 10
-161.8730562959351
 20
68.39150740153204
 30
0.0
 11
-178.2264694081297
 21
72.36360719693592
 31
0.0
1001
ACAD
1000
DSTYLE
1002
{
1070
   147
1040
0.625
1070
    77
1070
     0
1002
}
  0
LINE
  5
FFD
330
36
100
AcDbEntity
  8
0
  6
ByBlock
 62
     0
370
    -2
100
AcDbLine
 10
-161.714947253966
 20
69.04245340321256
 30
0.0
 11
-159.443691
 21
67.80143599999999
 31
0.0
  0
LINE
  5
FFE
330
36
100
AcDbEntity
  8
0
  6
ByBlock
 62
     0
370
    -2
100
AcDbLine
 10
-159.443691
 20
67.80143599999999
 30
0.0
 11
-162.0311653379042
 21
67.74056139985152
 31
0.0
  0
LINE
  5
FFF
330
36
100
AcDbEntity
  8
0
  6
ByBlock
 62
     0
370
    -2
100
AcDbLine
 10
-159.443691
 20
67.80143599999999
 30
0.0
 11
-161.8730562959351
 21
68.39150740153204
 31
0.0
  0
LINE
  5
1000
330
36
100
AcDbEntity
  8
0
100
AcDbLine
 10
-133.0437256692014
 20
79.33626731369314
 30
0.0
 11
-178.1351306615972
 21
85.75692030983494
 31
0.0
1001
ACAD
1000
DSTYLE
1002
{
1070
   147
1040
0.625
1070
    77
1070
     0
1002
}
  0
LINE
  5
1001
330
36
100
AcDbEntity
  8
0
  6
ByBlock
 62
     0
370
    -2
100
AcDbLine
 10
-132.9492937407376
 20
79.99945037827099
 30
0.0
 11
-130.568691
 21
78.98384230571117
 31
0.0
  0
LINE
  5
1002
330
36
100
AcDbEntity
  8
0
  6
ByBlock
 62
     0
370
    -2
100
AcDbLine
 10
-130.568691
 20
78.98384230571117
 30
0.0
 11
-133.1381575976651
 21
78.67308424911529
 31
0.0
  0
LINE
  5
1003
330
36
100
AcDbEntity
  8
0
  6
ByBlock
 62
     0
370
    -2
100
AcDbLine
 10
-130.568691
 20
78.98384230571117
 30
0.0
 11
-133.0437256692014
 21
79.33626731369314
 31
0.0
  0
LINE
  5
1004
330
36
100
AcDbEntity
  8
0
100
AcDbLine
 10
-133.8185761063218
 20
106.0480995427873
 30
0.0
 11
-178.65348626698
 21
129.4700733247388
 31
0.0
1001
ACAD
1000
DSTYLE
1002
{
1070
   147
1040
0.625
1070
    77
1070
     0
1002
}
  0
LINE
  5
1005
330
36
100
AcDbEntity
  8
0
  6
ByBlock
 62
     0
370
    -2
100
AcDbLine
 10
-133.508405220128
 20
106.6418361743117
 30
0.0
 11
-131.6027192398119
 21
104.8905252051567
 31
0.0
  0
LINE
  5
1006
330
36
100
AcDbEntity
  8
0
  6
ByBlock
 62
     0
370
    -2
100
AcDbLine
 10
-131.6027192398119
 20
104.8905252051567
 30
0.0
 11
-134.1287469925156
 21
105.4543629112628
 31
0.0
  0
LINE
  5
1007
330
36
100
AcDbEntity
  8
0
  6
ByBlock
 62
     0
370
    -2
100
AcDbLine
 10
-131.6027192398119
 20
104.8905252051567
 30
0.0
 11
-133.8185761063218
 21
106.0480995427873
 31
0.0
  0
LINE
  5
1008
330
36
100
AcDbEntity
  8
0
100
AcDbLine
 10
-163.5040324525661
 20
108.8692356988722
 30
0.0
 11
-178.8146761586284
 21
118.1925427668357
 31
0.0
1001
ACAD
1000
DSTYLE
1002
{
1070
   341
1005
858
1070
   147
1040
0.625
1070
    77
1070
     0
1002
}
  0
LINE
  5
100A
330
36
100
AcDbEntity
  8
0
100
AcDbLine
 10
-164.1624496619914
 20
97.02844418371974
 30
0.0
 11
-178.8477246760171
 21
106.2261284810152
 31
0.0
1001
ACAD
1000
DSTYLE
1002
{
1070
   147
1040
0.625
1070
    77
1070
     0
1002
}
  0
LINE
  5
100B
330
36
100
AcDbEntity
  8
0
  6
ByBlock
 62
     0
370
    -2
100
AcDbLine
 10
-163.8068791461719
 20
97.59615782151268
 30
0.0
 11
-162.043712
 21
95.70143599999999
 31
0.0
  0
LINE
  5
100C
330
36
100
AcDbEntity
  8
0
  6
ByBlock
 62
     0
370
    -2
100
AcDbLine
 10
-162.043712
 20
95.70143599999999
 30
0.0
 11
-164.5180201778109
 21
96.4607305459268
 31
0.0
  0
LINE
  5
100D
330
36
100
AcDbEntity
  8
0
  6
ByBlock
 62
     0
370
    -2
100
AcDbLine
 10
-162.043712
 20
95.70143599999999
 30
0.0
 11
-164.1624496619914
 21
97.02844418371974
 31
0.0
  0
TEXT
  5
100E
330
36
100
AcDbEntity
  8
0
 62
     4
100
AcDbText
 10
-78.99877900000001
 20
71.55143599999998
 30
0.0
 40
3.0
  1
220
 50
90.0
100
AcDbText
  0
LINE
  5
100F
330
36
100
AcDbEntity
  8
0
  6
ByBlock
 62
     0
370
    -2
100
AcDbLine
 10
-79.04365149999998
 20
125.801436
 30
0.0
 11
-78.37377899999999
 21
128.301436
 31
0.0
  0
LINE
  5
1010
330
36
100
AcDbEntity
  8
0
  6
ByBlock
 62
     0
370
    -2
100
AcDbLine
 10
-78.37377899999999
 20
128.301436
 30
0.0
 11
-77.70390649999999
 21
125.801436
 31
0.0
  0
LINE
  5
1011
330
36
100
AcDbEntity
  8
0
  6
ByBlock
 62
     0
370
    -2
100
AcDbLine
 10
-78.37377899999999
 20
128.301436
 30
0.0
 11
-78.37377899999999
 21
125.801436
 31
0.0
  0
LINE
  5
1012
330
36
100
AcDbEntity
  8
0
  6
ByBlock
 62
     0
370
    -2
100
AcDbLine
 10
-77.70390650000002
 20
24.801436
 30
0.0
 11
-78.37377900000001
 21
22.30143599999999
 31
0.0
  0
LINE
  5
1013
330
36
100
AcDbEntity
  8
0
  6
ByBlock
 62
     0
370
    -2
100
AcDbLine
 10
-78.37377900000001
 20
22.30143599999999
 30
0.0
 11
-79.04365150000001
 21
24.801436
 31
0.0
  0
LINE
  5
1014
330
36
100
AcDbEntity
  8
0
  6
ByBlock
 62
     0
370
    -2
100
AcDbLine
 10
-78.37377900000001
 20
22.30143599999999
 30
0.0
 11
-78.37377900000001
 21
24.801436
 31
0.0
  0
TEXT
  5
1015
330
36
100
AcDbEntity
  8
0
 62
     4
100
AcDbText
 10
-132.193691
 20
15.869902
 30
0.0
 40
3.0
  1
160
100
AcDbText
  0
LINE
  5
1016
330
36
100
AcDbEntity
  8
0
  6
ByBlock
 62
     0
370
    -2
100
AcDbLine
 10
-91.443691
 20
15.9147745
 30
0.0
 11
-88.943691
 21
15.244902
 31
0.0
  0
LINE
  5
1017
330
36
100
AcDbEntity
  8
0
  6
ByBlock
 62
     0
370
    -2
100
AcDbLine
 10
-88.943691
 20
15.244902
 30
0.0
 11
-91.443691
 21
14.5750295
 31
0.0
  0
LINE
  5
1018
330
36
100
AcDbEntity
  8
0
  6
ByBlock
 62
     0
370
    -2
100
AcDbLine
 10
-88.943691
 20
15.244902
 30
0.0
 11
-91.443691
 21
15.244902
 31
0.0
  0
LINE
  5
1019
330
36
100
AcDbEntity
  8
0
  6
ByBlock
 62
     0
370
    -2
100
AcDbLine
 10
-166.443691
 20
14.5750295
 30
0.0
 11
-168.943691
 21
15.244902
 31
0.0
  0
LINE
  5
101A
330
36
100
AcDbEntity
  8
0
  6
ByBlock
 62
     0
370
    -2
100
AcDbLine
 10
-168.943691
 20
15.244902
 30
0.0
 11
-166.443691
 21
15.9147745
 31
0.0
  0
LINE
  5
101B
330
36
100
AcDbEntity
  8
0
  6
ByBlock
 62
     0
370
    -2
100
AcDbLine
 10
-168.943691
 20
15.244902
 30
0.0
 11
-166.443691
 21
15.244902
 31
0.0
  0
TEXT
  5
101C
330
36
100
AcDbEntity
  8
0
 62
     4
100
AcDbText
 10
15.29881700000001
 20
15.869902
 30
0.0
 40
3.0
  1
273
100
AcDbText
  0
LINE
  5
101D
330
36
100
AcDbEntity
  8
0
  6
ByBlock
 62
     0
370
    -2
100
AcDbLine
 10
81.79881700000001
 20
15.9147745
 30
0.0
 11
84.29881700000001
 21
15.244902
 31
0.0
  0
LINE
  5
101E
330
36
100
AcDbEntity
  8
0
  6
ByBlock
 62
     0
370
    -2
100
AcDbLine
 10
84.29881700000001
 20
15.244902
 30
0.0
 11
81.79881700000001
 21
14.5750295
 31
0.0
  0
LINE
  5
101F
330
36
100
AcDbEntity
  8
0
  6
ByBlock
 62
     0
370
    -2
100
AcDbLine
 10
84.29881700000001
 20
15.244902
 30
0.0
 11
81.79881700000001
 21
15.244902
 31
0.0
  0
LINE
  5
1020
330
36
100
AcDbEntity
  8
0
  6
ByBlock
 62
     0
370
    -2
100
AcDbLine
 10
-43.20118299999999
 20
14.5750295
 30
0.0
 11
-45.70118299999999
 21
15.244902
 31
0.0
  0
LINE
  5
1021
330
36
100
AcDbEntity
  8
0
  6
ByBlock
 62
     0
370
    -2
100
AcDbLine
 10
-45.70118299999999
 20
15.244902
 30
0.0
 11
-43.20118299999999
 21
15.9147745
 31
0.0
  0
LINE
  5
1022
330
36
100
AcDbEntity
  8
0
  6
ByBlock
 62
     0
370
    -2
100
AcDbLine
 10
-45.70118299999999
 20
15.244902
 30
0.0
 11
-43.20118299999999
 21
15.244902
 31
0.0
  0
TEXT
  5
1023
330
36
100
AcDbEntity
  8
0
 62
     4
100
AcDbText
 10
-56.07130600000002
 20
65.051436
 30
0.0
 40
3.0
  1
170
 50
90.0
100
AcDbText
  0
LINE
  5
1024
330
36
100
AcDbEntity
  8
0
  6
ByBlock
 62
     0
370
    -2
100
AcDbLine
 10
-56.1161785
 20
105.801436
 30
0.0
 11
-55.44630600000001
 21
108.301436
 31
0.0
  0
LINE
  5
1025
330
36
100
AcDbEntity
  8
0
  6
ByBlock
 62
     0
370
    -2
100
AcDbLine
 10
-55.44630600000001
 20
108.301436
 30
0.0
 11
-54.77643350000001
 21
105.801436
 31
0.0
  0
LINE
  5
1026
330
36
100
AcDbEntity
  8
0
  6
ByBlock
 62
     0
370
    -2
100
AcDbLine
 10
-55.44630600000001
 20
108.301436
 30
0.0
 11
-55.44630600000001
 21
105.801436
 31
0.0
  0
LINE
  5
1027
330
36
100
AcDbEntity
  8
0
  6
ByBlock
 62
     0
370
    -2
100
AcDbLine
 10
-54.77643350000001
 20
30.801436
 30
0.0
 11
-55.44630600000002
 21
28.301436
 31
0.0
  0
LINE
  5
1028
330
36
100
AcDbEntity
  8
0
  6
ByBlock
 62
     0
370
    -2
100
AcDbLine
 10
-55.44630600000002
 20
28.301436
 30
0.0
 11
-56.11617850000001
 21
30.801436
 31
0.0
  0
LINE
  5
1029
330
36
100
AcDbEntity
  8
0
  6
ByBlock
 62
     0
370
    -2
100
AcDbLine
 10
-55.44630600000002
 20
28.301436
 30
0.0
 11
-55.44630600000002
 21
30.801436
 31
0.0
  0
ARC
  5
102A
330
36
100
AcDbEntity
  8
0
  6
ByBlock
 62
     0
100
AcDbCircle
 10
-163.5040324525661
 20
108.8692356988722
 30
0.0
 40
0.156250000000009
100
AcDbArc
 50
148.6609737263398
 51
328.6609737263398
  0
ARC
  5
102B
330
36
100
AcDbEntity
  8
0
  6
ByBlock
 62
     0
100
AcDbCircle
 10
-163.5040324525661
 20
108.8692356988722
 30
0.0
 40
0.156250000000009
100
AcDbArc
 50
328.6609737263398
 51
148.6609737263398
  0
ENDSEC
  0
SECTION
  2
OBJECTS
  0
DICTIONARY
  5
C
330
0
100
AcDbDictionary
281
     1
  3
ACAD_2007HEADERVARS_RT
350
1030
  3
ACAD_COLOR
350
2F
  3
ACAD_GROUP
350
D
  3
ACAD_LAYOUT
350
2E
  3
ACAD_MATERIAL
350
10
  3
ACAD_MLEADERSTYLE
350
64A
  3
ACAD_MLINESTYLE
350
2B
  3
ACAD_PLOTSETTINGS
350
2D
  3
ACAD_PLOTSTYLENAME
350
E
  3
ACAD_SCALELIST
350
638
  3
ACAD_TABLESTYLE
350
30
  3
ACAD_VISUALSTYLE
350
14
  3
AcadDim
350
8A7
  3
ACDB_RECOMPOSE_DATA
350
102E
  3
AcDbVariableDictionary
350
5CE
  3
AEC_PROPERTY_SET_DEFS
350
C72
  3
DWGPROPS
350
102F
  0
DICTIONARY
  5
47B
330
2
100
AcDbDictionary
280
     1
281
     1
  3
ACAD_LAYERSTATES
360
47C
  0
DICTIONARY
  5
8AB
330
25
100
AcDbDictionary
280
     1
281
     1
  3
ADSK_XREC_LAYER_RECONCILED
360
8AC
  0
DICTIONARY
  5
5C7
330
36
100
AcDbDictionary
280
     1
281
     1
  3
ACAD_SORTENTS
360
5C8
  0
DICTIONARY
  5
1030
102
{ACAD_REACTORS
330
C
102
}
330
C
100
AcDbDictionary
281
     1
  3
DIMARCSYM
350
1032
  3
DIMFXL
350
1031
  3
DIMJOGANG
350
1033
  0
DICTIONARY
  5
2F
102
{ACAD_REACTORS
330
C
102
}
330
C
100
AcDbDictionary
281
     1
  0
DICTIONARY
  5
D
102
{ACAD_REACTORS
330
C
102
}
330
C
100
AcDbDictionary
281
     1
  0
DICTIONARY
  5
2E
102
{ACAD_REACTORS
330
C
102
}
330
C
100
AcDbDictionary
281
     1
  3
Model
350
39
  3
レイアウト1
350
35
  0
DICTIONARY
  5
10
102
{ACAD_REACTORS
330
C
102
}
330
C
100
AcDbDictionary
281
     1
  3
ByBlock
350
12
  3
ByLayer
350
11
  3
Global
350
13
  0
DICTIONARY
  5
64A
102
{ACAD_REACTORS
330
C
102
}
330
C
100
AcDbDictionary
281
     1
  3
Standard
350
64B
  0
DICTIONARY
  5
2B
102
{ACAD_REACTORS
330
C
102
}
330
C
100
AcDbDictionary
281
     1
  3
Standard
350
2C
  0
DICTIONARY
  5
2D
102
{ACAD_REACTORS
330
C
102
}
330
C
100
AcDbDictionary
281
     1
  0
ACDBDICTIONARYWDFLT
  5
E
102
{ACAD_REACTORS
330
C
102
}
330
C
100
AcDbDictionary
281
     1
  3
Normal
350
F
100
AcDbDictionaryWithDefault
340
F
  0
DICTIONARY
  5
638
102
{ACAD_REACTORS
330
C
102
}
330
C
100
AcDbDictionary
281
     1
  3
A0
350
639
  3
A1
350
63A
  3
A2
350
63B
  3
A3
350
63C
  3
A4
350
63D
  3
A5
350
63E
  3
A6
350
63F
  3
A7
350
640
  3
A8
350
641
  3
A9
350
642
  3
B0
350
643
  3
B1
350
644
  3
B2
350
645
  3
B3
350
646
  3
B4
350
647
  3
B5
350
648
  3
B6
350
649
  0
DICTIONARY
  5
30
102
{ACAD_REACTORS
330
C
102
}
330
C
100
AcDbDictionary
281
     1
  3
Standard
350
31
  3
部品表
350
E5A
  0
DICTIONARY
  5
14
102
{ACAD_REACTORS
330
C
102
}
330
C
100
AcDbDictionary
281
     1
  3
2dWireframe
350
1A
  3
3D Hidden
350
1C
  3
3dWireframe
350
1B
  3
Basic
350
19
  3
Brighten
350
20
  3
ColorChange
350
24
  3
Conceptual
350
1D
  3
Dim
350
1F
  3
EdgeColorOff
350
637
  3
Facepattern
350
23
  3
Flat
350
15
  3
FlatWithEdges
350
16
  3
Gouraud
350
17
  3
GouraudWithEdges
350
18
  3
Hidden
350
62F
  3
JitterOff
350
635
  3
Linepattern
350
22
  3
OverhangOff
350
636
  3
Realistic
350
1E
  3
Shaded
350
634
  3
Shaded with edges
350
633
  3
Shades of Gray
350
630
  3
Sketchy
350
631
  3
Thicken
350
21
  3
Wireframe
350
62E
  3
X-Ray
350
632
  0
XRECORD
  5
8A7
102
{ACAD_REACTORS
330
C
102
}
330
C
100
AcDbXrecord
280
     1
 90
   990106
  3

 60
     0
 61
     0
 62
     1
 63
     3
 64
     0
 65
     0
 66
     0
 67
     3
 68
     1
 69
     0
 70
     0
 71
     0
 72
     0
 40
0.0
170
     0
340
A7F
  0
XRECORD
  5
102E
102
{ACAD_REACTORS
330
C
102
}
330
C
100
AcDbXrecord
280
     1
 90
        1
330
31
330
E5A
  0
DICTIONARY
  5
5CE
102
{ACAD_REACTORS
330
C
102
}
330
C
100
AcDbDictionary
281
     1
  3
CANNOSCALE
350
8AE
  3
CMLEADERSTYLE
350
8AD
  3
CTABLESTYLE
350
5CF
  3
DIMASSOC
350
5DC
  3
INDEXCTL
350
5DB
  3
SORTENTS
350
5DA
  3
XCLIPFRAME
350
D8A
  0
DICTIONARY
  5
C72
102
{ACAD_REACTORS
330
C
102
}
330
C
100
AcDbDictionary
281
     1
  0
XRECORD
  5
102F
102
{ACAD_REACTORS
330
C
102
}
330
C
100
AcDbXrecord
280
     1
  1
DWGPROPS COOKIE
  2

  3

  4

  6

  7

  8
imamura
  9

300
=
301
=
302
=
303
=
304
=
305
=
306
=
307
=
308
=
309
=
 40
0.1949329976851852
 41
2455469.458989433
 42
2460251.677655243
  1

 90
        0
  0
DICTIONARY
  5
47C
102
{ACAD_REACTORS
330
47B
102
}
330
47B
100
AcDbDictionary
281
     1
  0
XRECORD
  5
8AC
102
{ACAD_REACTORS
330
8AB
102
}
330
8AB
100
AcDbXrecord
280
     1
290
     1
  0
SORTENTSTABLE
  5
5C8
102
{ACAD_REACTORS
330
5C7
102
}
330
5C7
100
AcDbSortentsTable
330
36
331
D4A
  5
1018
331
D0B
  5
1012
331
CD4
  5
FDA
331
C95
  5
D4A
331
CD0
  5
FD5
331
D87
  5
1029
331
C91
  5
D43
331
D83
  5
101C
331
1027
  5
9A
331
FE4
  5
CE4
331
1023
  5
A6
331
FE0
  5
CF0
331
101F
  5
B7
331
101B
  5
BE
331
3C6
  5
5D9
331
5D9
  5
C7D
331
3C2
  5
5D4
331
5D5
  5
AEE
331
3BE
  5
5D0
331
2FD
  5
34C
331
2BE
  5
301
331
287
  5
2BB
331
5D1
  5
AEA
331
3BA
  5
48A
331
2F9
  5
348
331
2BA
  5
2FD
331
283
  5
2B7
331
244
  5
278
331
20D
  5
24B
331
1C6
  5
224
331
18F
  5
1C3
331
2F5
  5
343
331
2B6
  5
2F9
331
27F
  5
2B3
331
240
  5
274
331
209
  5
247
331
1C2
  5
220
331
18B
  5
1BF
331
13C
  5
1A6
331
2F1
  5
329
331
2B2
  5
2F3
331
27B
  5
2AF
331
23C
  5
270
331
205
  5
243
331
1BE
  5
21C
331
138
  5
1A2
331
238
  5
26C
331
201
  5
23F
331
1BA
  5
218
331
134
  5
19E
331
130
  5
19A
331
104
  5
148
331
737
  5
C84
331
C5
  5
133
331
100
  5
144
331
C1
  5
12F
331
FC
  5
140
331
876
  5
CC8
331
BD
  5
12B
331
872
  5
CC5
331
B9
  5
127
331
D07
  5
100E
331
D03
  5
100A
331
CCC
  5
FD1
331
C8D
  5
D0B
331
CFF
  5
1006
331
CC8
  5
FCD
331
D7F
  5
101E
331
C89
  5
D07
331
CFB
  5
1002
331
CC4
  5
FC9
331
D7B
  5
1022
331
C85
  5
D03
331
CC0
  5
FC5
331
D77
  5
1028
331
C81
  5
CFF
331
1017
  5
C0
331
1013
  5
ED
331
FD4
  5
AD
331
100F
  5
EF
331
100B
  5
CA4
331
3B6
  5
3F2
331
363
  5
3E5
331
FC8
  5
C4
331
324
  5
3BA
331
3ED
  5
870
331
3AE
  5
3EB
331
35F
  5
3E1
331
320
  5
3B6
331
2ED
  5
324
331
2AE
  5
2EF
331
277
  5
2AB
331
AF0
  5
CEC
331
3E9
  5
86C
331
3AA
  5
3E7
331
35B
  5
3DD
331
31C
  5
3B1
331
2E9
  5
320
331
2AA
  5
2EB
331
273
  5
2A7
331
234
  5
268
331
1B6
  5
214
331
318
  5
3AD
331
2E5
  5
31C
331
2A6
  5
2E7
331
26F
  5
2A3
331
230
  5
264
331
1F9
  5
23D
331
1B2
  5
20C
331
12C
  5
196
331
2E1
  5
318
331
2A2
  5
2E2
331
26B
  5
29F
331
1AE
  5
208
331
128
  5
192
331
1F1
  5
23B
331
1AA
  5
204
331
F4
  5
13C
331
86E
  5
CC1
331
B5
  5
117
331
F0
  5
138
331
B1
  5
113
331
866
  5
CBB
331
AD
  5
10F
331
CF7
  5
FFE
331
CF3
  5
FFA
331
CBC
  5
FC1
331
C7D
  5
CFB
331
CEF
  5
FF6
331
CB8
  5
FBD
331
C79
  5
CF7
331
CEB
  5
FF2
331
CB4
  5
FB9
331
CB0
  5
FB5
331
1007
  5
CB0
331
1003
  5
CB4
331
FFF
  5
CB8
331
AEC
  5
CE8
331
FFB
  5
CCE
331
3E5
  5
866
331
357
  5
3D9
331
353
  5
3D5
331
314
  5
363
331
3DD
  5
745
331
34F
  5
3D1
331
310
  5
35F
331
2DD
  5
314
331
29E
  5
2DE
331
267
  5
29B
331
3D9
  5
741
331
34B
  5
3CB
331
30C
  5
35B
331
2D9
  5
310
331
29A
  5
2DA
331
263
  5
297
331
224
  5
25E
331
1A6
  5
200
331
308
  5
357
331
296
  5
2D0
331
25F
  5
293
331
220
  5
25A
331
1E9
  5
239
331
1A2
  5
1F0
331
292
  5
2C6
331
25B
  5
28F
331
21C
  5
256
331
19E
  5
1D8
331
157
  5
1BB
331
218
  5
252
331
1D9
  5
237
331
19A
  5
1CE
331
153
  5
1B7
331
114
  5
18A
331
110
  5
156
331
A5
  5
10C
331
A1
  5
104
331
97
  5
F9
331
9D
  5
100
331
93
  5
F3
331
99
  5
FC
331
CAC
  5
FB1
331
CE7
  5
FEE
331
CA8
  5
D89
331
CE3
  5
FEA
331
CA4
  5
D83
331
CA0
  5
D7D
331
FF7
  5
CD2
331
FF3
  5
CD6
331
FEF
  5
CDA
331
FEB
  5
CDE
331
102A
  5
CAB
331
3D5
  5
73D
331
347
  5
3C7
331
FB0
  5
CE5
331
3D1
  5
739
331
343
  5
3C3
331
3CD
  5
735
331
257
  5
28B
331
3C9
  5
61B
331
253
  5
287
331
304
  5
353
331
2C5
  5
308
331
28E
  5
2C2
331
24F
  5
283
331
1D1
  5
235
331
14B
  5
1B5
331
300
  5
34F
331
2C1
  5
304
331
28A
  5
2BE
331
24B
  5
27F
331
214
  5
24E
331
1CD
  5
231
331
196
  5
1CA
331
147
  5
1B1
331
1C9
  5
22D
331
192
  5
1C6
331
143
  5
1AD
331
746
  5
C9F
331
742
  5
C9B
331
10F
  5
155
331
73E
  5
C8B
331
10B
  5
14B
331
73A
  5
C87
331
3F3
  5
877
331
CDF
  5
FE6
331
CDB
  5
FE2
331
C9C
  5
D77
331
D0E
  5
1013
331
CD7
  5
FDE
331
C98
  5
D53
331
D0A
  5
1011
331
CD3
  5
FD8
331
C94
  5
D48
331
C90
  5
D10
331
D82
  5
101F
331
FE7
  5
CE2
331
1026
  5
A2
331
FE3
  5
CE3
331
1022
  5
B4
331
FDF
  5
CF3
331
101E
  5
B6
331
101A
  5
BD
331
3C5
  5
5D8
331
FDB
  5
95
331
5D8
  5
C7C
331
3C1
  5
5D3
331
5D4
  5
AED
331
3BD
  5
48D
331
2FC
  5
34B
331
2BD
  5
300
331
286
  5
2BA
331
247
  5
27B
331
5D0
  5
879
331
3B9
  5
489
331
2F8
  5
347
331
2B9
  5
2FC
331
282
  5
2B6
331
243
  5
277
331
20C
  5
24A
331
1C5
  5
223
331
18E
  5
1C2
331
13F
  5
1A9
331
2B5
  5
2F8
331
27E
  5
2B2
331
23F
  5
273
331
208
  5
246
331
1C1
  5
21F
331
18A
  5
1BE
331
13B
  5
1A5
331
2F0
  5
328
331
2B1
  5
2F2
331
27A
  5
2AE
331
23B
  5
26F
331
204
  5
242
331
1BD
  5
21B
331
137
  5
1A1
331
200
  5
23E
331
1B9
  5
217
331
133
  5
19D
331
103
  5
147
331
736
  5
C83
331
C4
  5
132
331
FF
  5
143
331
879
  5
CCB
331
C0
  5
12E
331
FB
  5
13F
331
BC
  5
12A
331
871
  5
CC4
331
B8
  5
121
331
D06
  5
100D
331
CCF
  5
FD4
331
D02
  5
1009
331
CCB
  5
FD0
331
C8C
  5
D0A
331
CFE
  5
1005
331
CC7
  5
FCC
331
D7E
  5
1025
331
C88
  5
D06
331
CFA
  5
1001
331
CC3
  5
FC8
331
D7A
  5
1023
331
C84
  5
D02
331
C80
  5
CFE
331
1016
  5
BF
331
1012
  5
C6
331
FD3
  5
A7
331
100E
  5
F2
331
FCF
  5
BB
331
100A
  5
CA9
331
3B5
  5
3F1
331
5CC
  5
327
331
327
  5
3BD
331
3B1
  5
3EE
331
362
  5
3E4
331
323
  5
3B9
331
AF3
  5
CED
331
3EC
  5
86F
331
3AD
  5
3EA
331
35E
  5
3E0
331
31F
  5
3B5
331
2EC
  5
323
331
2AD
  5
2EE
331
276
  5
2AA
331
237
  5
26B
331
3E8
  5
869
331
35A
  5
3DC
331
31B
  5
3B0
331
2E8
  5
31F
331
2A9
  5
2EA
331
272
  5
2A6
331
233
  5
267
331
1B5
  5
213
331
12F
  5
199
331
2E4
  5
31B
331
2A5
  5
2E6
331
26E
  5
2A2
331
22F
  5
263
331
1F8
  5
23C
331
1B1
  5
20B
331
12B
  5
195
331
2E0
  5
317
331
2A1
  5
2E1
331
26A
  5
29E
331
1AD
  5
207
331
127
  5
191
331
1F0
  5
23A
331
1A9
  5
203
331
F7
  5
13D
331
F3
  5
13B
331
86D
  5
CC0
331
B4
  5
116
331
EF
  5
137
331
869
  5
CBE
331
B0
  5
112
331
865
  5
CBA
331
CF6
  5
FFD
331
CBF
  5
FC4
331
CF2
  5
FF9
331
CBB
  5
FC0
331
C7C
  5
CFA
331
CEE
  5
FF5
331
CB7
  5
FBC
331
C78
  5
CF6
331
CEA
  5
FF1
331
CB3
  5
FB8
331
1006
  5
CAF
331
FC7
  5
C3
331
1002
  5
CB3
331
AEF
  5
CEB
331
FFE
  5
CB7
331
AEB
  5
CE7
331
FFA
  5
CCD
331
3E4
  5
865
331
356
  5
3D8
331
317
  5
3AC
331
3E0
  5
748
331
352
  5
3D4
331
313
  5
362
331
3DC
  5
744
331
34E
  5
3CE
331
30F
  5
35E
331
2DC
  5
313
331
29D
  5
2DD
331
266
  5
29A
331
3D8
  5
740
331
34A
  5
3CA
331
30B
  5
35A
331
2D8
  5
30F
331
299
  5
2D9
331
262
  5
296
331
223
  5
25D
331
1A5
  5
1F9
331
295
  5
2CF
331
25E
  5
292
331
21F
  5
259
331
1E8
  5
238
331
1A1
  5
1E9
331
11B
  5
18F
331
2D0
  5
30D
331
291
  5
2C5
331
25A
  5
28E
331
21B
  5
255
331
19D
  5
1D1
331
156
  5
1BA
331
117
  5
18D
331
1D8
  5
236
331
199
  5
1CD
331
113
  5
189
331
855
  5
CA3
331
A4
  5
10B
331
A0
  5
103
331
9C
  5
FF
331
98
  5
FB
331
CAF
  5
FB4
331
CAB
  5
FB0
331
CE6
  5
FED
331
CA7
  5
D88
331
CE2
  5
FE9
331
CA3
  5
D81
331
FF6
  5
CD1
331
FF2
  5
CD5
331
FEE
  5
CD9
331
FEA
  5
CDD
331
1029
  5
9C
331
3D4
  5
73C
331
346
  5
3C6
331
3D0
  5
738
331
61B
  5
C80
331
3CC
  5
734
331
256
  5
28A
331
3C8
  5
61A
331
307
  5
356
331
2C8
  5
30B
331
252
  5
286
331
303
  5
352
331
2C4
  5
307
331
28D
  5
2C1
331
24E
  5
282
331
217
  5
251
331
1D0
  5
234
331
14A
  5
1B4
331
2C0
  5
303
331
289
  5
2BD
331
24A
  5
27E
331
213
  5
24D
331
1CC
  5
230
331
195
  5
1C9
331
146
  5
1B0
331
1C8
  5
226
331
191
  5
1C5
331
142
  5
1AC
331
745
  5
C9E
331
741
  5
C9A
331
10E
  5
154
331
73D
  5
C8A
331
739
  5
C86
331
3F2
  5
876
331
CDE
  5
FE5
331
C9F
  5
D7B
331
CDA
  5
FE1
331
C9B
  5
D71
331
D4C
  5
101A
331
CD6
  5
FDD
331
C97
  5
D4C
331
D48
  5
1017
331
D09
  5
1010
331
CD2
  5
FD7
331
D89
  5
102B
331
C93
  5
D47
331
D81
  5
1020
331
FE6
  5
CE1
331
1025
  5
A1
331
FE2
  5
CF2
331
1021
  5
B3
331
101D
  5
B5
331
1019
  5
BC
331
3C4
  5
5D6
331
FDA
  5
94
331
3C0
  5
5D2
331
2FF
  5
34E
331
5D3
  5
AEC
331
3BC
  5
48C
331
2FB
  5
34A
331
2BC
  5
2FF
331
285
  5
2B9
331
246
  5
27A
331
3B8
  5
3F4
331
2F7
  5
346
331
2B8
  5
2FB
331
281
  5
2B5
331
242
  5
276
331
20B
  5
249
331
1C4
  5
222
331
18D
  5
1C1
331
13E
  5
1A8
331
2B4
  5
2F7
331
27D
  5
2B1
331
23E
  5
272
331
207
  5
245
331
1C0
  5
21E
331
189
  5
1BD
331
13A
  5
1A4
331
2B0
  5
2F1
331
279
  5
2AD
331
23A
  5
26E
331
203
  5
241
331
1BC
  5
21A
331
136
  5
1A0
331
1B8
  5
216
331
132
  5
19C
331
106
  5
14A
331
102
  5
146
331
735
  5
C82
331
C3
  5
131
331
FE
  5
142
331
878
  5
CCA
331
BF
  5
12D
331
874
  5
CC7
331
BB
  5
129
331
870
  5
CC3
331
D05
  5
100C
331
D44
  5
FD9
331
CCE
  5
FD3
331
C8F
  5
D0D
331
D01
  5
1008
331
CCA
  5
FCF
331
C8B
  5
D09
331
CFD
  5
1004
331
CC6
  5
FCB
331
D7D
  5
1026
331
C87
  5
D05
331
CF9
  5
1000
331
CC2
  5
FC7
331
D79
  5
1024
331
C83
  5
D01
331
1015
  5
C2
331
1011
  5
F1
331
100D
  5
CA8
331
FCE
  5
BA
331
3B4
  5
3F0
331
326
  5
3BC
331
AF6
  5
CEF
331
3EF
  5
872
331
3B0
  5
3ED
331
361
  5
3E3
331
322
  5
3B8
331
2EF
  5
326
331
3EB
  5
86E
331
3AC
  5
3E9
331
35D
  5
3DF
331
31E
  5
3B3
331
2EB
  5
322
331
2AC
  5
2ED
331
275
  5
2A9
331
236
  5
26A
331
359
  5
3DB
331
31A
  5
3AF
331
2E7
  5
31E
331
2A8
  5
2E9
331
271
  5
2A5
331
232
  5
266
331
1B4
  5
20E
331
12E
  5
198
331
2E3
  5
31A
331
2A4
  5
2E4
331
26D
  5
2A1
331
22E
  5
262
331
1B0
  5
20A
331
12A
  5
194
331
2A0
  5
2E0
331
269
  5
29D
331
1AC
  5
206
331
1A8
  5
202
331
B7
  5
11B
331
F2
  5
13A
331
86C
  5
CBF
331
B3
  5
115
331
EE
  5
136
331
868
  5
CBD
331
AF
  5
111
331
CF5
  5
FFC
331
CBE
  5
FC3
331
C7F
  5
CFD
331
CF1
  5
FF8
331
CBA
  5
FBF
331
C7B
  5
CF9
331
CED
  5
FF4
331
CB6
  5
FBB
331
C77
  5
CF5
331
CE9
  5
FF0
331
CB2
  5
FB7
331
1005
  5
CAE
331
1001
  5
CB2
331
AEE
  5
CEA
331
FFD
  5
CB6
331
3E7
  5
868
331
AEA
  5
CE6
331
FF9
  5
CCC
331
3E3
  5
855
331
355
  5
3D7
331
316
  5
365
331
3DF
  5
747
331
351
  5
3D3
331
312
  5
361
331
2DF
  5
316
331
3DB
  5
743
331
34D
  5
3CD
331
30E
  5
35D
331
2DB
  5
312
331
29C
  5
2DC
331
265
  5
299
331
226
  5
260
331
349
  5
3C9
331
30A
  5
359
331
2D7
  5
30E
331
298
  5
2D8
331
261
  5
295
331
222
  5
25C
331
1A4
  5
1F8
331
294
  5
2C8
331
25D
  5
291
331
21E
  5
258
331
1A0
  5
1E8
331
290
  5
2C4
331
259
  5
28D
331
21A
  5
254
331
19C
  5
1D0
331
155
  5
1B9
331
116
  5
18C
331
198
  5
1CC
331
112
  5
188
331
A7
  5
10E
331
854
  5
CA2
331
A3
  5
106
331
9F
  5
102
331
95
  5
F7
331
9B
  5
FE
331
748
  5
CA1
331
CAE
  5
FB3
331
CAA
  5
FAF
331
CE5
  5
FEC
331
CA6
  5
D87
331
CE1
  5
FE8
331
CA2
  5
D80
331
FF5
  5
CD0
331
FF1
  5
CD4
331
FED
  5
CD8
331
3D7
  5
73F
331
FE9
  5
CDC
331
1028
  5
9B
331
3D3
  5
73B
331
345
  5
3C5
331
3CF
  5
737
331
341
  5
3C1
331
2CF
  5
30C
331
61A
  5
C7F
331
255
  5
289
331
306
  5
355
331
2C7
  5
30A
331
251
  5
285
331
302
  5
351
331
2C3
  5
306
331
28C
  5
2C0
331
24D
  5
281
331
216
  5
250
331
1CF
  5
233
331
149
  5
1B3
331
288
  5
2BC
331
249
  5
27D
331
1CB
  5
22F
331
194
  5
1C8
331
145
  5
1AF
331
190
  5
1C4
331
141
  5
1AB
331
744
  5
C9D
331
740
  5
C8D
331
10D
  5
153
331
73C
  5
C89
331
738
  5
C85
331
3F1
  5
874
331
CDD
  5
FE4
331
C9E
  5
D7A
331
D10
  5
1015
331
CD9
  5
FE0
331
C9A
  5
D70
331
D4B
  5
1019
331
CD5
  5
FDB
331
C96
  5
D4B
331
D08
  5
100F
331
CD1
  5
FD6
331
D88
  5
102A
331
C92
  5
D44
331
D84
  5
101B
331
D80
  5
101D
331
FE5
  5
CE0
331
1024
  5
A0
331
FE1
  5
CF1
331
1020
  5
B2
331
3C7
  5
619
331
101C
  5
B8
331
1018
  5
C1
331
3C3
  5
5D5
331
FD9
  5
93
331
5D6
  5
AEF
331
3BF
  5
5D1
331
2FE
  5
34D
331
2BF
  5
302
331
5D2
  5
AEB
331
3BB
  5
48B
331
2FA
  5
349
331
2BB
  5
2FE
331
284
  5
2B8
331
245
  5
279
331
20E
  5
24C
331
1C7
  5
225
331
2F6
  5
345
331
2B7
  5
2FA
331
280
  5
2B4
331
241
  5
275
331
20A
  5
248
331
1C3
  5
221
331
18C
  5
1C0
331
13D
  5
1A7
331
2F2
  5
342
331
2B3
  5
2F4
331
27C
  5
2B0
331
23D
  5
271
331
206
  5
244
331
1BF
  5
21D
331
188
  5
1BC
331
139
  5
1A3
331
278
  5
2AC
331
239
  5
26D
331
202
  5
240
331
1BB
  5
219
331
135
  5
19F
331
131
  5
19B
331
105
  5
149
331
C6
  5
134
331
101
  5
145
331
734
  5
C81
331
C2
  5
130
331
FD
  5
141
331
877
  5
CC9
331
BE
  5
12C
331
F9
  5
13E
331
873
  5
CC6
331
BA
  5
128
331
D47
  5
1016
331
D04
  5
100B
331
D43
  5
FDC
331
CCD
  5
FD2
331
C8E
  5
D0C
331
D00
  5
1007
331
CC9
  5
FCE
331
C8A
  5
D08
331
CFC
  5
1003
331
CC5
  5
FCA
331
D7C
  5
1021
331
C86
  5
D04
331
CF8
  5
FFF
331
CC1
  5
FC6
331
D78
  5
1027
331
C82
  5
D00
331
1014
  5
EE
331
FD5
  5
B1
331
1010
  5
F0
331
100C
  5
CA7
331
3B7
  5
3F3
331
FCD
  5
B9
331
1008
  5
CAD
331
3B3
  5
3EF
331
FC9
  5
C5
331
325
  5
3BB
331
AF5
  5
CEE
331
3EE
  5
871
331
3AF
  5
3EC
331
360
  5
3E2
331
321
  5
3B7
331
2EE
  5
325
331
2AF
  5
2F0
331
3EA
  5
86D
331
3AB
  5
3E8
331
35C
  5
3DE
331
31D
  5
3B2
331
2EA
  5
321
331
2AB
  5
2EC
331
274
  5
2A8
331
235
  5
269
331
1B7
  5
215
331
358
  5
3DA
331
319
  5
3AE
331
2E6
  5
31D
331
2A7
  5
2E8
331
270
  5
2A4
331
231
  5
265
331
1B3
  5
20D
331
12D
  5
197
331
2E2
  5
319
331
2A3
  5
2E3
331
26C
  5
2A0
331
22D
  5
261
331
1AF
  5
209
331
129
  5
193
331
268
  5
29C
331
1AB
  5
205
331
121
  5
190
331
86F
  5
CC2
331
B6
  5
119
331
F1
  5
139
331
B2
  5
114
331
ED
  5
135
331
867
  5
CBC
331
AE
  5
110
331
CF4
  5
FFB
331
CBD
  5
FC2
331
C7E
  5
CFC
331
CF0
  5
FF7
331
CB9
  5
FBE
331
C7A
  5
CF8
331
CEC
  5
FF3
331
CB5
  5
FBA
331
C76
  5
CF4
331
CE8
  5
FEF
331
CB1
  5
FB6
331
1004
  5
CB1
331
1000
  5
CB5
331
AED
  5
CE9
331
FFC
  5
CB9
331
3E6
  5
867
331
FF8
  5
CCF
331
3E2
  5
854
331
354
  5
3D6
331
315
  5
364
331
3DE
  5
746
331
350
  5
3D2
331
311
  5
360
331
2DE
  5
315
331
29F
  5
2DF
331
3DA
  5
742
331
34C
  5
3CC
331
30D
  5
35C
331
2DA
  5
311
331
29B
  5
2DB
331
264
  5
298
331
225
  5
25F
331
1A7
  5
201
331
348
  5
3C8
331
309
  5
358
331
297
  5
2D7
331
260
  5
294
331
221
  5
25B
331
1A3
  5
1F1
331
293
  5
2C7
331
25C
  5
290
331
21D
  5
257
331
19F
  5
1D9
331
119
  5
18E
331
258
  5
28C
331
219
  5
253
331
19B
  5
1CF
331
154
  5
1B8
331
115
  5
18B
331
111
  5
157
331
A6
  5
10D
331
A2
  5
105
331
9E
  5
101
331
94
  5
F4
331
9A
  5
FD
331
CAD
  5
FB2
331
CA9
  5
FAE
331
CE4
  5
FEB
331
CA5
  5
D84
331
CE0
  5
FE7
331
CA1
  5
D7E
331
FF4
  5
CD3
331
FF0
  5
CD7
331
FEC
  5
CDB
331
102B
  5
CAC
331
3D6
  5
73E
331
FE8
  5
CDF
331
3D2
  5
73A
331
344
  5
3C4
331
3CE
  5
736
331
340
  5
3BF
331
619
  5
C7E
331
254
  5
288
331
305
  5
354
331
2C6
  5
309
331
28F
  5
2C3
331
250
  5
284
331
14C
  5
1B6
331
301
  5
350
331
2C2
  5
305
331
28B
  5
2BF
331
24C
  5
280
331
215
  5
24F
331
1CE
  5
232
331
197
  5
1CB
331
148
  5
1B2
331
248
  5
27C
331
1CA
  5
22E
331
193
  5
1C7
331
144
  5
1AE
331
140
  5
1AA
331
747
  5
CA0
331
743
  5
C9C
331
73F
  5
C8C
331
10C
  5
14C
331
73B
  5
C88
331
3F4
  5
878
331
3F0
  5
873
331
CDC
  5
FE3
331
C9D
  5
D78
331
D0F
  5
1014
331
CD8
  5
FDF
331
C99
  5
D54
  0
XRECORD
  5
1032
102
{ACAD_REACTORS
330
1030
102
}
330
1030
100
AcDbXrecord
280
     1
 70
     2
  0
XRECORD
  5
1031
102
{ACAD_REACTORS
330
1030
102
}
330
1030
100
AcDbXrecord
280
     1
 40
1.25
  0
XRECORD
  5
1033
102
{ACAD_REACTORS
330
1030
102
}
330
1030
100
AcDbXrecord
280
     1
 40
1.570796326794896
  0
LAYOUT
  5
39
102
{ACAD_XDICTIONARY
360
1057
102
}
102
{ACAD_REACTORS
330
2E
102
}
330
2E
100
AcDbPlotSettings
  1

  2
none_device
  4
Letter_(8.50_x_11.00_Inches)
  6

 40
6.349999904632567
 41
6.349999904632567
 42
6.350006103515625
 43
6.350006103515625
 44
215.8999938964844
 45
279.3999938964844
 46
0.0
 47
0.0
 48
0.0
 49
0.0
140
0.0
141
0.0
142
1.0
143
66.51841458529886
 70
 11952
 72
     0
 73
     1
 74
     0
  7

 75
     0
147
0.0150334310616749
148
10589.52142145768
149
3970.057015095562
100
AcDbLayout
  1
Model
 70
     1
 71
     0
 10
0.0
 20
0.0
 11
12.0
 21
9.0
 12
0.0
 22
0.0
 32
0.0
 14
0.0
 24
0.0
 34
0.0
 15
0.0
 25
0.0
 35
0.0
146
0.0
 13
0.0
 23
0.0
 33
0.0
 16
1.0
 26
0.0
 36
0.0
 17
0.0
 27
1.0
 37
0.0
 76
     0
330
36
331
56
1001
ACAD_PSEXT
1000
なし
1000
なし
1000
適切ではありません
1000
新しいプロッタ環境設定名を選択しない限り、レイアウトは印刷されません。
1070
     0
  0
LAYOUT
  5
35
102
{ACAD_XDICTIONARY
360
1055
102
}
102
{ACAD_REACTORS
330
2E
102
}
330
2E
100
AcDbPlotSettings
  1

  2
DocuPrint 305
  4

  6

 40
0.0
 41
0.0
 42
0.0
 43
0.0
 44
0.0
 45
0.0
 46
0.0
 47
0.0
 48
0.0
 49
0.0
140
0.0
141
0.0
142
1.0
143
1.0
 70
   688
 72
     0
 73
     0
 74
     5
  7

 75
    16
147
1.0
148
0.0
149
0.0
100
AcDbLayout
  1
レイアウト1
 70
     1
 71
     1
 10
0.0
 20
0.0
 11
12.0
 21
9.0
 12
0.0
 22
0.0
 32
0.0
 14
1.000000000000000E+20
 24
1.000000000000000E+20
 34
1.000000000000000E+20
 15
-1.000000000000000E+20
 25
-1.000000000000000E+20
 35
-1.000000000000000E+20
146
0.0
 13
0.0
 23
0.0
 33
0.0
 16
1.0
 26
0.0
 36
0.0
 17
0.0
 27
1.0
 37
0.0
 76
     0
330
32
  0
MATERIAL
  5
12
102
{ACAD_XDICTIONARY
360
5E4
102
}
102
{ACAD_REACTORS
330
10
102
}
330
10
100
AcDbMaterial
  1
ByBlock
  0
MATERIAL
  5
11
102
{ACAD_XDICTIONARY
360
5E2
102
}
102
{ACAD_REACTORS
330
10
102
}
330
10
100
AcDbMaterial
  1
ByLayer
  0
MATERIAL
  5
13
102
{ACAD_XDICTIONARY
360
5E6
102
}
102
{ACAD_REACTORS
330
10
102
}
330
10
100
AcDbMaterial
  1
Global
  0
MLEADERSTYLE
  5
64B
102
{ACAD_REACTORS
330
64A
102
}
330
64A
100
AcDbMLeaderStyle
170
     2
171
     1
172
     0
 90
        2
 40
0.0
 41
0.0
173
     1
 91
-1056964608
340
28
 92
       -2
290
     1
 42
0.09
291
     1
 43
0.36
  3
Standard
 44
0.18
300

342
26
174
     1
178
     6
175
     1
176
     0
 93
-1056964608
 45
0.18
292
     0
297
     0
 46
0.18
 94
-1056964608
 47
1.0
 49
1.0
140
1.0
293
     1
141
0.0
294
     1
177
     0
142
1.0
295
     0
296
     0
143
0.125
1001
ACAD_MLEADERVER
1070
     2
  0
MLINESTYLE
  5
2C
102
{ACAD_REACTORS
330
2B
102
}
330
2B
100
AcDbMlineStyle
  2
STANDARD
 70
     0
  3

 62
   256
 51
90.0
 52
90.0
 71
     2
 49
0.5
 62
   256
  6
BYLAYER
 49
-0.5
 62
   256
  6
BYLAYER
  0
ACDBPLACEHOLDER
  5
F
102
{ACAD_REACTORS
330
E
102
}
330
E
  0
SCALE
  5
639
102
{ACAD_REACTORS
330
638
102
}
330
638
100
AcDbScale
 70
     0
300
1:1
140
1.0
141
1.0
290
     1
  0
SCALE
  5
63A
102
{ACAD_REACTORS
330
638
102
}
330
638
100
AcDbScale
 70
     0
300
1/128" = 1'-0"
140
0.0078125
141
12.0
290
     0
  0
SCALE
  5
63B
102
{ACAD_REACTORS
330
638
102
}
330
638
100
AcDbScale
 70
     0
300
1/64" = 1'-0"
140
0.015625
141
12.0
290
     0
  0
SCALE
  5
63C
102
{ACAD_REACTORS
330
638
102
}
330
638
100
AcDbScale
 70
     0
300
1/32" = 1'-0"
140
0.03125
141
12.0
290
     0
  0
SCALE
  5
63D
102
{ACAD_REACTORS
330
638
102
}
330
638
100
AcDbScale
 70
     0
300
1/16" = 1'-0"
140
0.0625
141
12.0
290
     0
  0
SCALE
  5
63E
102
{ACAD_REACTORS
330
638
102
}
330
638
100
AcDbScale
 70
     0
300
3/32" = 1'-0"
140
0.09375
141
12.0
290
     0
  0
SCALE
  5
63F
102
{ACAD_REACTORS
330
638
102
}
330
638
100
AcDbScale
 70
     0
300
1/8" = 1'-0"
140
0.125
141
12.0
290
     0
  0
SCALE
  5
640
102
{ACAD_REACTORS
330
638
102
}
330
638
100
AcDbScale
 70
     0
300
3/16" = 1'-0"
140
0.1875
141
12.0
290
     0
  0
SCALE
  5
641
102
{ACAD_REACTORS
330
638
102
}
330
638
100
AcDbScale
 70
     0
300
1/4" = 1'-0"
140
0.25
141
12.0
290
     0
  0
SCALE
  5
642
102
{ACAD_REACTORS
330
638
102
}
330
638
100
AcDbScale
 70
     0
300
3/8" = 1'-0"
140
0.375
141
12.0
290
     0
  0
SCALE
  5
643
102
{ACAD_REACTORS
330
638
102
}
330
638
100
AcDbScale
 70
     0
300
1/2" = 1'-0"
140
0.5
141
12.0
290
     0
  0
SCALE
  5
644
102
{ACAD_REACTORS
330
638
102
}
330
638
100
AcDbScale
 70
     0
300
3/4" = 1'-0"
140
0.75
141
12.0
290
     0
  0
SCALE
  5
645
102
{ACAD_REACTORS
330
638
102
}
330
638
100
AcDbScale
 70
     0
300
1" = 1'-0"
140
1.0
141
12.0
290
     0
  0
SCALE
  5
646
102
{ACAD_REACTORS
330
638
102
}
330
638
100
AcDbScale
 70
     0
300
1-1/2" = 1'-0"
140
1.5
141
12.0
290
     0
  0
SCALE
  5
647
102
{ACAD_REACTORS
330
638
102
}
330
638
100
AcDbScale
 70
     0
300
3" = 1'-0"
140
3.0
141
12.0
290
     0
  0
SCALE
  5
648
102
{ACAD_REACTORS
330
638
102
}
330
638
100
AcDbScale
 70
     0
300
6" = 1'-0"
140
6.0
141
12.0
290
     0
  0
SCALE
  5
649
102
{ACAD_REACTORS
330
638
102
}
330
638
100
AcDbScale
 70
     0
300
1'-0" = 1'-0"
140
12.0
141
12.0
290
     0
  0
TABLESTYLE
  5
31
102
{ACAD_XDICTIONARY
360
93D
102
}
102
{ACAD_REACTORS
330
30
102
}
330
30
100
AcDbTableStyle
  3
Standard
 70
     0
 71
     0
 40
0.06
 41
0.06
280
     0
281
     0
  7
STANDARD
140
0.18
170
     2
 62
     0
 63
     7
283
     0
274
    -2
284
     1
 64
     0
275
    -2
285
     1
 65
     0
276
    -2
286
     1
 66
     0
277
    -2
287
     1
 67
     0
278
    -2
288
     1
 68
     0
279
    -2
289
     1
 69
     0
  7
STANDARD
140
0.25
170
     5
 62
     0
 63
     7
283
     0
274
    -2
284
     1
 64
     0
275
    -2
285
     1
 65
     0
276
    -2
286
     1
 66
     0
277
    -2
287
     1
 67
     0
278
    -2
288
     1
 68
     0
279
    -2
289
     1
 69
     0
  7
STANDARD
140
0.18
170
     5
 62
     0
 63
     7
283
     0
274
    -2
284
     1
 64
     0
275
    -2
285
     1
 65
     0
276
    -2
286
     1
 66
     0
277
    -2
287
     1
 67
     0
278
    -2
288
     1
 68
     0
279
    -2
289
     1
 69
     0
  0
TABLESTYLE
  5
E5A
102
{ACAD_XDICTIONARY
360
E5B
102
}
102
{ACAD_REACTORS
330
30
102
}
330
30
100
AcDbTableStyle
  3
Standard
 70
     1
 71
     0
 40
1.5
 41
0.5
280
     0
281
     0
  7
高3.2
140
0.18
170
     7
 62
     3
 63
     7
283
     0
274
    -2
284
     1
 64
     3
275
    -2
285
     1
 65
     7
276
    -2
286
     1
 66
     3
277
    -2
287
     1
 67
     3
278
    -2
288
     1
 68
     7
279
    -2
289
     1
 69
     3
  7
高3.2
140
0.25
170
     8
 62
     3
 63
     7
283
     0
274
    -2
284
     1
 64
     0
275
    -2
285
     1
 65
     0
276
    -2
286
     1
 66
     0
277
    -2
287
     1
 67
     0
278
    -2
288
     1
 68
     0
279
    -2
289
     1
 69
     0
  7
高3.2
140
0.18
170
     7
 62
     3
 63
     7
283
     0
274
    -2
284
     1
 64
     3
275
    -2
285
     1
 65
     7
276
    -2
286
     1
 66
     3
277
    -2
287
     1
 67
     3
278
    -2
288
     1
 68
     7
279
    -2
289
     1
 69
     3
  0
VISUALSTYLE
  5
1A
102
{ACAD_XDICTIONARY
360
103E
102
}
102
{ACAD_REACTORS
330
14
102
}
330
14
100
AcDbVisualStyle
  2

 70
     4
 71
     0
 72
     2
 73
     0
 90
        0
 40
-0.6
 41
-30.0
 62
     5
 63
     7
 74
     1
 91
        4
 64
     7
 65
   257
 75
     1
175
     1
 42
1.0
 92
        0
 66
   257
 43
1.0
 76
     1
 77
     6
 78
     2
 67
     7
 79
     5
170
     0
171
     0
290
     0
174
     0
 93
        1
 44
0.0
173
     0
291
     0
 45
0.0
1001
ACAD
1000
AcDbSavedByObjectVersion
1070
     0
  0
VISUALSTYLE
  5
1C
102
{ACAD_XDICTIONARY
360
1042
102
}
102
{ACAD_REACTORS
330
14
102
}
330
14
100
AcDbVisualStyle
  2

 70
     6
 71
     1
 72
     2
 73
     2
 90
        0
 40
-0.6
 41
-30.0
 62
     5
 63
     7
 74
     2
 91
        2
 64
     7
 65
   257
 75
     2
175
     1
 42
40.0
 92
        0
 66
   257
 43
1.0
 76
     1
 77
     6
 78
     2
 67
     7
 79
     3
170
     0
171
     0
290
     0
174
     0
 93
        1
 44
0.0
173
     0
291
     0
 45
0.0
1001
ACAD
1000
AcDbSavedByObjectVersion
1070
     0
  0
VISUALSTYLE
  5
1B
102
{ACAD_XDICTIONARY
360
1040
102
}
102
{ACAD_REACTORS
330
14
102
}
330
14
100
AcDbVisualStyle
  2

 70
     5
 71
     0
 72
     2
 73
     0
 90
        0
 40
-0.6
 41
-30.0
 62
     5
 63
     7
 74
     1
 91
        4
 64
     7
 65
   257
 75
     1
175
     1
 42
1.0
 92
        0
 66
   257
 43
1.0
 76
     1
 77
     6
 78
     2
 67
     7
 79
     5
170
     0
171
     0
290
     0
174
     0
 93
        1
 44
0.0
173
     0
291
     0
 45
0.0
1001
ACAD
1000
AcDbSavedByObjectVersion
1070
     0
  0
VISUALSTYLE
  5
19
102
{ACAD_XDICTIONARY
360
103C
102
}
102
{ACAD_REACTORS
330
14
102
}
330
14
100
AcDbVisualStyle
  2

 70
     7
 71
     1
 72
     0
 73
     1
 90
        0
 40
-0.6
 41
-30.0
 62
     5
 63
     7
 74
     0
 91
        4
 64
     7
 65
   257
 75
     1
175
     1
 42
1.0
 92
        8
 66
     7
 43
1.0
 76
     1
 77
     6
 78
     2
 67
     7
 79
     5
170
     0
171
     0
290
     0
174
     0
 93
        1
 44
0.0
173
     0
291
     1
 45
0.0
1001
ACAD
1000
AcDbSavedByObjectVersion
1070
     0
  0
VISUALSTYLE
  5
20
102
{ACAD_XDICTIONARY
360
104A
102
}
102
{ACAD_REACTORS
330
14
102
}
330
14
100
AcDbVisualStyle
  2

 70
    12
 71
     2
 72
     2
 73
     0
 90
        0
 40
-0.6
 41
-30.0
 62
     5
 63
     7
 74
     1
 91
        4
 64
     7
 65
   257
 75
     1
175
     1
 42
1.0
 92
        8
 66
     7
 43
1.0
 76
     1
 77
     6
 78
     2
 67
     7
 79
     5
170
     0
171
     0
290
     0
174
     0
 93
        1
 44
50.0
173
     0
291
     1
 45
0.0
1001
ACAD
1000
AcDbSavedByObjectVersion
1070
     0
  0
VISUALSTYLE
  5
24
102
{ACAD_XDICTIONARY
360
1052
102
}
102
{ACAD_REACTORS
330
14
102
}
330
14
100
AcDbVisualStyle
  2

 70
    16
 71
     2
 72
     2
 73
     3
 90
        0
 40
-0.6
 41
-30.0
 62
     5
 63
     8
 74
     1
 91
        4
 64
     7
 65
   257
 75
     1
175
     1
 42
1.0
 92
        8
 66
     8
 43
1.0
 76
     1
 77
     6
 78
     2
 67
     7
 79
     5
170
     0
171
     0
290
     0
174
     0
 93
        1
 44
0.0
173
     0
291
     1
 45
0.0
1001
ACAD
1000
AcDbSavedByObjectVersion
1070
     0
  0
VISUALSTYLE
  5
1D
102
{ACAD_XDICTIONARY
360
1044
102
}
102
{ACAD_REACTORS
330
14
102
}
330
14
100
AcDbVisualStyle
  2

 70
     9
 71
     3
 72
     2
 73
     0
 90
        0
 40
-0.6
 41
-30.0
 62
     5
 63
     7
 74
     2
 91
        2
 64
     7
 65
   257
 75
     1
175
     1
 42
40.0
 92
        8
 66
     7
 43
1.0
 76
     1
 77
     6
 78
     2
 67
     7
 79
     3
170
     0
171
     0
290
     0
174
     0
 93
        1
 44
0.0
173
     0
291
     0
 45
0.0
1001
ACAD
1000
AcDbSavedByObjectVersion
1070
     0
  0
VISUALSTYLE
  5
1F
102
{ACAD_XDICTIONARY
360
1048
102
}
102
{ACAD_REACTORS
330
14
102
}
330
14
100
AcDbVisualStyle
  2

 70
    11
 71
     2
 72
     2
 73
     0
 90
        0
 40
-0.6
 41
-30.0
 62
     5
 63
     7
 74
     1
 91
        4
 64
     7
 65
   257
 75
     1
175
     1
 42
1.0
 92
        8
 66
     7
 43
1.0
 76
     1
 77
     6
 78
     2
 67
     7
 79
     5
170
     0
171
     0
290
     0
174
     0
 93
        1
 44
-50.0
173
     0
291
     1
 45
0.0
1001
ACAD
1000
AcDbSavedByObjectVersion
1070
     0
  0
VISUALSTYLE
  5
637
102
{ACAD_XDICTIONARY
360
106B
102
}
102
{ACAD_REACTORS
330
14
102
}
330
14
100
AcDbVisualStyle
  2

 70
    22
 71
     2
 72
     2
 73
     0
 90
        0
 40
-0.6
 41
-30.0
 62
     5
 63
     7
 74
     1
 91
        4
 64
     7
 65
   257
 75
     1
175
     1
 42
1.0
 92
        8
 66
     7
 43
1.0
 76
     1
 77
     6
 78
     2
 67
     7
 79
     5
170
     0
171
     0
290
     0
174
     0
 93
        1
 44
0.0
173
     0
291
     1
 45
0.0
1001
ACAD
1000
AcDbSavedByObjectVersion
1070
     0
  0
VISUALSTYLE
  5
23
102
{ACAD_XDICTIONARY
360
1050
102
}
102
{ACAD_REACTORS
330
14
102
}
330
14
100
AcDbVisualStyle
  2

 70
    15
 71
     2
 72
     2
 73
     0
 90
        0
 40
-0.6
 41
-30.0
 62
     5
 63
     7
 74
     1
 91
        4
 64
     7
 65
   257
 75
     1
175
     1
 42
1.0
 92
        8
 66
     7
 43
1.0
 76
     1
 77
     6
 78
     2
 67
     7
 79
     5
170
     0
171
     0
290
     0
174
     0
 93
        1
 44
0.0
173
     0
291
     1
 45
0.0
1001
ACAD
1000
AcDbSavedByObjectVersion
1070
     0
  0
VISUALSTYLE
  5
15
102
{ACAD_XDICTIONARY
360
1034
102
}
102
{ACAD_REACTORS
330
14
102
}
330
14
100
AcDbVisualStyle
  2

 70
     0
 71
     2
 72
     1
 73
     1
 90
        2
 40
-0.6
 41
30.0
 62
     5
 63
     7
 74
     0
 91
        4
 64
     7
 65
   257
 75
     1
175
     1
 42
1.0
 92
        8
 66
     7
 43
1.0
 76
     1
 77
     6
 78
     2
 67
     7
 79
     5
170
     0
171
     0
290
     0
174
     0
 93
       13
 44
0.0
173
     0
291
     1
 45
0.0
1001
ACAD
1000
AcDbSavedByObjectVersion
1070
     0
  0
VISUALSTYLE
  5
16
102
{ACAD_XDICTIONARY
360
1036
102
}
102
{ACAD_REACTORS
330
14
102
}
330
14
100
AcDbVisualStyle
  2

 70
     1
 71
     2
 72
     1
 73
     1
 90
        2
 40
-0.6
 41
30.0
 62
     5
 63
     7
 74
     1
 91
        4
 64
     7
 65
   257
 75
     1
175
     1
 42
1.0
 92
        0
 66
   257
 43
1.0
 76
     1
 77
     6
 78
     2
 67
     7
 79
     5
170
     0
171
     0
290
     0
174
     0
 93
       13
 44
0.0
173
     0
291
     1
 45
0.0
1001
ACAD
1000
AcDbSavedByObjectVersion
1070
     0
  0
VISUALSTYLE
  5
17
102
{ACAD_XDICTIONARY
360
1038
102
}
102
{ACAD_REACTORS
330
14
102
}
330
14
100
AcDbVisualStyle
  2

 70
     2
 71
     2
 72
     2
 73
     1
 90
        2
 40
-0.6
 41
30.0
 62
     5
 63
     7
 74
     0
 91
        4
 64
     7
 65
   257
 75
     1
175
     1
 42
1.0
 92
        0
 66
     7
 43
1.0
 76
     1
 77
     6
 78
     2
 67
     7
 79
     5
170
     0
171
     0
290
     0
174
     0
 93
       13
 44
0.0
173
     0
291
     1
 45
0.0
1001
ACAD
1000
AcDbSavedByObjectVersion
1070
     0
  0
VISUALSTYLE
  5
18
102
{ACAD_XDICTIONARY
360
103A
102
}
102
{ACAD_REACTORS
330
14
102
}
330
14
100
AcDbVisualStyle
  2

 70
     3
 71
     2
 72
     2
 73
     1
 90
        2
 40
-0.6
 41
30.0
 62
     5
 63
     7
 74
     1
 91
        4
 64
     7
 65
   257
 75
     1
175
     1
 42
1.0
 92
        0
 66
   257
 43
1.0
 76
     1
 77
     6
 78
     2
 67
     7
 79
     5
170
     0
171
     0
290
     0
174
     0
 93
       13
 44
0.0
173
     0
291
     1
 45
0.0
1001
ACAD
1000
AcDbSavedByObjectVersion
1070
     0
  0
VISUALSTYLE
  5
62F
102
{ACAD_XDICTIONARY
360
105B
102
}
102
{ACAD_REACTORS
330
14
102
}
330
14
100
AcDbVisualStyle
  2

 70
     6
 71
     1
 72
     2
 73
     2
 90
        0
 40
-0.6
 41
-30.0
 62
     5
 63
     7
 74
     2
 91
        2
 64
     7
 65
   257
 75
     2
175
     1
 42
40.0
 92
        0
 66
   257
 43
1.0
 76
     1
 77
     6
 78
     2
 67
     7
 79
     3
170
     0
171
     0
290
     0
174
     0
 93
        1
 44
0.0
173
     0
291
     0
 45
0.0
1001
ACAD
1000
AcDbSavedByObjectVersion
1070
     0
  0
VISUALSTYLE
  5
635
102
{ACAD_XDICTIONARY
360
1067
102
}
102
{ACAD_REACTORS
330
14
102
}
330
14
100
AcDbVisualStyle
  2

 70
    20
 71
     2
 72
     2
 73
     0
 90
        0
 40
-0.6
 41
-30.0
 62
     5
 63
     7
 74
     1
 91
        4
 64
     7
 65
   257
 75
     1
175
     1
 42
1.0
 92
       10
 66
     7
 43
1.0
 76
     1
 77
     6
 78
     2
 67
     7
 79
     5
170
     0
171
     0
290
     0
174
     0
 93
        1
 44
0.0
173
     0
291
     1
 45
0.0
1001
ACAD
1000
AcDbSavedByObjectVersion
1070
     0
  0
VISUALSTYLE
  5
22
102
{ACAD_XDICTIONARY
360
104E
102
}
102
{ACAD_REACTORS
330
14
102
}
330
14
100
AcDbVisualStyle
  2

 70
    14
 71
     2
 72
     2
 73
     0
 90
        0
 40
-0.6
 41
-30.0
 62
     5
 63
     7
 74
     1
 91
        4
 64
     7
 65
   257
 75
     7
175
     7
 42
1.0
 92
        8
 66
     7
 43
1.0
 76
     1
 77
     6
 78
     2
 67
     7
 79
     5
170
     0
171
     0
290
     0
174
     0
 93
        1
 44
0.0
173
     0
291
     1
 45
0.0
1001
ACAD
1000
AcDbSavedByObjectVersion
1070
     0
  0
VISUALSTYLE
  5
636
102
{ACAD_XDICTIONARY
360
1069
102
}
102
{ACAD_REACTORS
330
14
102
}
330
14
100
AcDbVisualStyle
  2

 70
    21
 71
     2
 72
     2
 73
     0
 90
        0
 40
-0.6
 41
-30.0
 62
     5
 63
     7
 74
     1
 91
        4
 64
     7
 65
   257
 75
     1
175
     1
 42
1.0
 92
        9
 66
     7
 43
1.0
 76
     1
 77
     6
 78
     2
 67
     7
 79
     5
170
     0
171
     0
290
     0
174
     0
 93
        1
 44
0.0
173
     0
291
     1
 45
0.0
1001
ACAD
1000
AcDbSavedByObjectVersion
1070
     0
  0
VISUALSTYLE
  5
1E
102
{ACAD_XDICTIONARY
360
1046
102
}
102
{ACAD_REACTORS
330
14
102
}
330
14
100
AcDbVisualStyle
  2

 70
     8
 71
     2
 72
     2
 73
     0
 90
        0
 40
-0.6
 41
-30.0
 62
     5
 63
     7
 74
     1
 91
        0
 64
     7
 65
   257
 75
     1
175
     1
 42
1.0
 92
        8
 66
     8
 43
1.0
 76
     1
 77
     6
 78
     2
 67
     7
 79
     5
170
     0
171
     0
290
     0
174
     0
 93
       13
 44
0.0
173
     0
291
     0
 45
0.0
1001
ACAD
1000
AcDbSavedByObjectVersion
1070
     0
  0
VISUALSTYLE
  5
634
102
{ACAD_XDICTIONARY
360
1065
102
}
102
{ACAD_REACTORS
330
14
102
}
330
14
100
AcDbVisualStyle
  2

 70
    27
 71
     2
 72
     2
 73
     1
 90
        2
 40
-0.6
 41
30.0
 62
     5
 63
     7
 74
     0
 91
        4
 64
     7
 65
   257
 75
     1
175
     1
 42
1.0
 92
        8
 66
   257
 43
1.0
 76
     1
 77
     6
 78
     2
 67
     8
 79
     3
170
     0
171
     0
290
     0
174
     0
 93
        5
 44
0.0
173
     0
291
     0
 45
0.0
1001
ACAD
1000
AcDbSavedByObjectVersion
1070
     0
  0
VISUALSTYLE
  5
633
102
{ACAD_XDICTIONARY
360
1063
102
}
102
{ACAD_REACTORS
330
14
102
}
330
14
100
AcDbVisualStyle
  2

 70
    26
 71
     2
 72
     2
 73
     1
 90
        2
 40
-0.6
 41
30.0
 62
     5
 63
     7
 74
     1
 91
       10
 64
     7
 65
   257
 75
     2
175
     1
 42
1.0
 92
        8
 66
   257
 43
1.0
 76
     1
 77
     6
 78
     2
 67
     7
 79
     3
170
     0
171
     0
290
     0
174
     0
 93
        5
 44
0.0
173
     0
291
     0
 45
0.0
1001
ACAD
1000
AcDbSavedByObjectVersion
1070
     0
  0
VISUALSTYLE
  5
630
102
{ACAD_XDICTIONARY
360
105D
102
}
102
{ACAD_REACTORS
330
14
102
}
330
14
100
AcDbVisualStyle
  2

 70
    23
 71
     2
 72
     2
 73
     3
 90
        0
 40
-0.6
 41
-30.0
 62
     5
 63
     7
 74
     2
 91
        2
 64
     7
 65
     7
 75
     1
175
     1
 42
40.0
 92
        8
 66
     7
 43
1.0
 76
     1
 77
     6
 78
     2
 67
     7
 79
     3
170
     0
171
     0
290
     0
174
     0
 93
        1
 44
0.0
173
     0
291
     0
 45
0.0
1001
ACAD
1000
AcDbSavedByObjectVersion
1070
     0
  0
VISUALSTYLE
  5
631
102
{ACAD_XDICTIONARY
360
105F
102
}
102
{ACAD_REACTORS
330
14
102
}
330
14
100
AcDbVisualStyle
  2

 70
    24
 71
     1
 72
     2
 73
     2
 90
        0
 40
-0.6
 41
-30.0
 62
     5
 63
     7
 74
     2
 91
        2
 64
     7
 65
     7
 75
     1
175
     1
 42
40.0
 92
       11
 66
     7
 43
1.0
 76
     1
 77
     6
 78
     2
 67
     7
 79
     6
170
     0
171
     0
290
     0
174
     0
 93
        1
 44
0.0
173
     0
291
     0
 45
0.0
1001
ACAD
1000
AcDbSavedByObjectVersion
1070
     0
  0
VISUALSTYLE
  5
21
102
{ACAD_XDICTIONARY
360
104C
102
}
102
{ACAD_REACTORS
330
14
102
}
330
14
100
AcDbVisualStyle
  2

 70
    13
 71
     2
 72
     2
 73
     0
 90
        0
 40
-0.6
 41
-30.0
 62
     5
 63
     7
 74
     1
 91
        4
 64
     7
 65
   257
 75
     1
175
     1
 42
1.0
 92
       12
 66
     7
 43
1.0
 76
     1
 77
     6
 78
     2
 67
     7
 79
     5
170
     0
171
     0
290
     0
174
     0
 93
        1
 44
0.0
173
     0
291
     1
 45
0.0
1001
ACAD
1000
AcDbSavedByObjectVersion
1070
     0
  0
VISUALSTYLE
  5
62E
102
{ACAD_XDICTIONARY
360
1059
102
}
102
{ACAD_REACTORS
330
14
102
}
330
14
100
AcDbVisualStyle
  2

 70
     5
 71
     0
 72
     2
 73
     0
 90
        0
 40
-0.6
 41
-30.0
 62
     5
 63
     7
 74
     1
 91
        4
 64
     7
 65
   257
 75
     1
175
     1
 42
1.0
 92
        0
 66
   257
 43
1.0
 76
     1
 77
     6
 78
     2
 67
     7
 79
     3
170
     0
171
     0
290
     0
174
     0
 93
        1
 44
0.0
173
     0
291
     0
 45
0.0
1001
ACAD
1000
AcDbSavedByObjectVersion
1070
     0
  0
VISUALSTYLE
  5
632
102
{ACAD_XDICTIONARY
360
1061
102
}
102
{ACAD_REACTORS
330
14
102
}
330
14
100
AcDbVisualStyle
  2

 70
    25
 71
     2
 72
     2
 73
     1
 90
        1
 40
0.5
 41
-30.0
 62
     5
 63
     7
 74
     1
 91
        0
 64
     7
 65
   257
 75
     1
175
     1
 42
1.0
 92
        8
 66
     7
 43
1.0
 76
     1
 77
     6
 78
     2
 67
     7
 79
     3
170
     0
171
     0
290
     0
174
     0
 93
       13
 44
0.0
173
     0
291
     0
 45
0.0
1001
ACAD
1000
AcDbSavedByObjectVersion
1070
     0
  0
DICTIONARYVAR
  5
8AE
102
{ACAD_REACTORS
330
5CE
102
}
330
5CE
100
DictionaryVariables
280
     0
  1
1:1
  0
DICTIONARYVAR
  5
8AD
102
{ACAD_REACTORS
330
5CE
102
}
330
5CE
100
DictionaryVariables
280
     0
  1
STANDARD
  0
DICTIONARYVAR
  5
5CF
102
{ACAD_REACTORS
330
5CE
102
}
330
5CE
100
DictionaryVariables
280
     0
  1
STANDARD
  0
DICTIONARYVAR
  5
5DC
102
{ACAD_REACTORS
330
5CE
102
}
330
5CE
100
DictionaryVariables
280
     0
  1
1
  0
DICTIONARYVAR
  5
5DB
102
{ACAD_REACTORS
330
5CE
102
}
330
5CE
100
DictionaryVariables
280
     0
  1
0
  0
DICTIONARYVAR
  5
5DA
102
{ACAD_REACTORS
330
5CE
102
}
330
5CE
100
DictionaryVariables
280
     0
  1
127
  0
DICTIONARYVAR
  5
D8A
102
{ACAD_REACTORS
330
5CE
102
}
330
5CE
100
DictionaryVariables
280
     0
  1
2
  0
DICTIONARY
  5
1057
330
39
100
AcDbDictionary
280
     1
281
     1
  3
ACAD_XREC_ROUNDTRIP
360
1058
  0
DICTIONARY
  5
1055
330
35
100
AcDbDictionary
280
     1
281
     1
  3
ACAD_XREC_ROUNDTRIP
360
1056
  0
DICTIONARY
  5
5E4
330
12
100
AcDbDictionary
280
     1
281
     1
  3
ACAD_XREC_ROUNDTRIP
360
5E5
  0
DICTIONARY
  5
5E2
330
11
100
AcDbDictionary
280
     1
281
     1
  3
ACAD_XREC_ROUNDTRIP
360
5E3
  0
DICTIONARY
  5
5E6
330
13
100
AcDbDictionary
280
     1
281
     1
  3
ACAD_XREC_ROUNDTRIP
360
5E7
  0
DICTIONARY
  5
93D
330
31
100
AcDbDictionary
280
     1
281
     1
  3
ACAD_ROUNDTRIP_2008_TABLESTYLE_CELLSTYLEMAP
360
102C
  3
ACAD_XREC_ROUNDTRIP
360
1054
  0
DICTIONARY
  5
E5B
330
E5A
100
AcDbDictionary
280
     1
281
     1
  3
ACAD_ROUNDTRIP_2008_TABLESTYLE_CELLSTYLEMAP
360
102D
  3
ACAD_XREC_ROUNDTRIP
360
106D
  0
DICTIONARY
  5
103E
330
1A
100
AcDbDictionary
280
     1
281
     1
  3
ACAD_XREC_ROUNDTRIP
360
103F
  0
DICTIONARY
  5
1042
330
1C
100
AcDbDictionary
280
     1
281
     1
  3
ACAD_XREC_ROUNDTRIP
360
1043
  0
DICTIONARY
  5
1040
330
1B
100
AcDbDictionary
280
     1
281
     1
  3
ACAD_XREC_ROUNDTRIP
360
1041
  0
DICTIONARY
  5
103C
330
19
100
AcDbDictionary
280
     1
281
     1
  3
ACAD_XREC_ROUNDTRIP
360
103D
  0
DICTIONARY
  5
104A
330
20
100
AcDbDictionary
280
     1
281
     1
  3
ACAD_XREC_ROUNDTRIP
360
104B
  0
DICTIONARY
  5
1052
330
24
100
AcDbDictionary
280
     1
281
     1
  3
ACAD_XREC_ROUNDTRIP
360
1053
  0
DICTIONARY
  5
1044
330
1D
100
AcDbDictionary
280
     1
281
     1
  3
ACAD_XREC_ROUNDTRIP
360
1045
  0
DICTIONARY
  5
1048
330
1F
100
AcDbDictionary
280
     1
281
     1
  3
ACAD_XREC_ROUNDTRIP
360
1049
  0
DICTIONARY
  5
106B
330
637
100
AcDbDictionary
280
     1
281
     1
  3
ACAD_XREC_ROUNDTRIP
360
106C
  0
DICTIONARY
  5
1050
330
23
100
AcDbDictionary
280
     1
281
     1
  3
ACAD_XREC_ROUNDTRIP
360
1051
  0
DICTIONARY
  5
1034
330
15
100
AcDbDictionary
280
     1
281
     1
  3
ACAD_XREC_ROUNDTRIP
360
1035
  0
DICTIONARY
  5
1036
330
16
100
AcDbDictionary
280
     1
281
     1
  3
ACAD_XREC_ROUNDTRIP
360
1037
  0
DICTIONARY
  5
1038
330
17
100
AcDbDictionary
280
     1
281
     1
  3
ACAD_XREC_ROUNDTRIP
360
1039
  0
DICTIONARY
  5
103A
330
18
100
AcDbDictionary
280
     1
281
     1
  3
ACAD_XREC_ROUNDTRIP
360
103B
  0
DICTIONARY
  5
105B
330
62F
100
AcDbDictionary
280
     1
281
     1
  3
ACAD_XREC_ROUNDTRIP
360
105C
  0
DICTIONARY
  5
1067
330
635
100
AcDbDictionary
280
     1
281
     1
  3
ACAD_XREC_ROUNDTRIP
360
1068
  0
DICTIONARY
  5
104E
330
22
100
AcDbDictionary
280
     1
281
     1
  3
ACAD_XREC_ROUNDTRIP
360
104F
  0
DICTIONARY
  5
1069
330
636
100
AcDbDictionary
280
     1
281
     1
  3
ACAD_XREC_ROUNDTRIP
360
106A
  0
DICTIONARY
  5
1046
330
1E
100
AcDbDictionary
280
     1
281
     1
  3
ACAD_XREC_ROUNDTRIP
360
1047
  0
DICTIONARY
  5
1065
330
634
100
AcDbDictionary
280
     1
281
     1
  3
ACAD_XREC_ROUNDTRIP
360
1066
  0
DICTIONARY
  5
1063
330
633
100
AcDbDictionary
280
     1
281
     1
  3
ACAD_XREC_ROUNDTRIP
360
1064
  0
DICTIONARY
  5
105D
330
630
100
AcDbDictionary
280
     1
281
     1
  3
ACAD_XREC_ROUNDTRIP
360
105E
  0
DICTIONARY
  5
105F
330
631
100
AcDbDictionary
280
     1
281
     1
  3
ACAD_XREC_ROUNDTRIP
360
1060
  0
DICTIONARY
  5
104C
330
21
100
AcDbDictionary
280
     1
281
     1
  3
ACAD_XREC_ROUNDTRIP
360
104D
  0
DICTIONARY
  5
1059
330
62E
100
AcDbDictionary
280
     1
281
     1
  3
ACAD_XREC_ROUNDTRIP
360
105A
  0
DICTIONARY
  5
1061
330
632
100
AcDbDictionary
280
     1
281
     1
  3
ACAD_XREC_ROUNDTRIP
360
1062
  0
XRECORD
  5
1058
102
{ACAD_REACTORS
330
1057
102
}
330
1057
100
AcDbXrecord
280
     1
102
SHADEPLOT
 70
     0
102
SHADEPLOTRESLEVEL
 70
     2
102
SHADEPLOTCUSTOMDPI
 70
   300
  0
XRECORD
  5
1056
102
{ACAD_REACTORS
330
1055
102
}
330
1055
100
AcDbXrecord
280
     1
102
SHADEPLOT
 70
     0
102
SHADEPLOTRESLEVEL
 70
     2
102
SHADEPLOTCUSTOMDPI
 70
   300
  0
XRECORD
  5
5E5
102
{ACAD_REACTORS
330
5E4
102
}
330
5E4
100
AcDbXrecord
280
     1
102
MATERIAL
148
0.0
149
0.0
149
0.0
 93
        0
 94
      127
282
     0
 72
     1
 77
     1
171
     1
175
     1
179
     1
273
     0
  0
XRECORD
  5
5E3
102
{ACAD_REACTORS
330
5E2
102
}
330
5E2
100
AcDbXrecord
280
     1
102
MATERIAL
148
0.0
149
0.0
149
0.0
 93
        0
 94
      127
282
     0
 72
     1
 77
     1
171
     1
175
     1
179
     1
273
     0
  0
XRECORD
  5
5E7
102
{ACAD_REACTORS
330
5E6
102
}
330
5E6
100
AcDbXrecord
280
     1
102
MATERIAL
148
0.0
149
0.0
149
0.0
 93
        0
 94
      127
282
     0
 72
     1
 77
     1
171
     1
175
     1
179
     1
273
     0
  0
CELLSTYLEMAP
  5
102C
102
{ACAD_REACTORS
330
93D
102
}
330
93D
100
AcDbCellStyleMap
 90
        3
300
CELLSTYLE
  1
TABLEFORMAT_BEGIN
 90
        5
170
     1
 91
        0
 92
    32768
 62
   257
 93
        1
300
CONTENTFORMAT
  1
CONTENTFORMAT_BEGIN
 90
        0
 91
        0
 92
      512
 93
        0
300

 40
0.0
140
1.0
 94
        5
 62
     0
340
26
144
0.25
309
CONTENTFORMAT_END
171
     1
301
MARGIN
  1
CELLMARGIN_BEGIN
 40
0.06
 40
0.06
 40
0.06
 40
0.06
 40
0.18
 40
0.18
309
CELLMARGIN_END
 94
        6
 95
        1
302
GRIDFORMAT
  1
GRIDFORMAT_BEGIN
 90
        0
 91
        1
 62
     0
 92
       -2
340
0
 93
        0
 40
0.045
309
GRIDFORMAT_END
 95
        2
302
GRIDFORMAT
  1
GRIDFORMAT_BEGIN
 90
        0
 91
        1
 62
     0
 92
       -2
340
0
 93
        0
 40
0.045
309
GRIDFORMAT_END
 95
        4
302
GRIDFORMAT
  1
GRIDFORMAT_BEGIN
 90
        0
 91
        1
 62
     0
 92
       -2
340
0
 93
        0
 40
0.045
309
GRIDFORMAT_END
 95
        8
302
GRIDFORMAT
  1
GRIDFORMAT_BEGIN
 90
        0
 91
        1
 62
     0
 92
       -2
340
0
 93
        0
 40
0.045
309
GRIDFORMAT_END
 95
       16
302
GRIDFORMAT
  1
GRIDFORMAT_BEGIN
 90
        0
 91
        1
 62
     0
 92
       -2
340
0
 93
        0
 40
0.045
309
GRIDFORMAT_END
 95
       32
302
GRIDFORMAT
  1
GRIDFORMAT_BEGIN
 90
        0
 91
        1
 62
     0
 92
       -2
340
0
 93
        0
 40
0.045
309
GRIDFORMAT_END
309
TABLEFORMAT_END
  1
CELLSTYLE_BEGIN
 90
        1
 91
        1
300
_TITLE
309
CELLSTYLE_END
300
CELLSTYLE
  1
TABLEFORMAT_BEGIN
 90
        5
170
     1
 91
        0
 92
        0
 62
   257
 93
        1
300
CONTENTFORMAT
  1
CONTENTFORMAT_BEGIN
 90
        0
 91
        0
 92
      512
 93
        0
300

 40
0.0
140
1.0
 94
        5
 62
     0
340
26
144
0.18
309
CONTENTFORMAT_END
171
     1
301
MARGIN
  1
CELLMARGIN_BEGIN
 40
0.06
 40
0.06
 40
0.06
 40
0.06
 40
0.18
 40
0.18
309
CELLMARGIN_END
 94
        6
 95
        1
302
GRIDFORMAT
  1
GRIDFORMAT_BEGIN
 90
        0
 91
        1
 62
     0
 92
       -2
340
0
 93
        0
 40
0.045
309
GRIDFORMAT_END
 95
        2
302
GRIDFORMAT
  1
GRIDFORMAT_BEGIN
 90
        0
 91
        1
 62
     0
 92
       -2
340
0
 93
        0
 40
0.045
309
GRIDFORMAT_END
 95
        4
302
GRIDFORMAT
  1
GRIDFORMAT_BEGIN
 90
        0
 91
        1
 62
     0
 92
       -2
340
0
 93
        0
 40
0.045
309
GRIDFORMAT_END
 95
        8
302
GRIDFORMAT
  1
GRIDFORMAT_BEGIN
 90
        0
 91
        1
 62
     0
 92
       -2
340
0
 93
        0
 40
0.045
309
GRIDFORMAT_END
 95
       16
302
GRIDFORMAT
  1
GRIDFORMAT_BEGIN
 90
        0
 91
        1
 62
     0
 92
       -2
340
0
 93
        0
 40
0.045
309
GRIDFORMAT_END
 95
       32
302
GRIDFORMAT
  1
GRIDFORMAT_BEGIN
 90
        0
 91
        1
 62
     0
 92
       -2
340
0
 93
        0
 40
0.045
309
GRIDFORMAT_END
309
TABLEFORMAT_END
  1
CELLSTYLE_BEGIN
 90
        2
 91
        1
300
_HEADER
309
CELLSTYLE_END
300
CELLSTYLE
  1
TABLEFORMAT_BEGIN
 90
        5
170
     1
 91
        0
 92
        0
 62
   257
 93
        1
300
CONTENTFORMAT
  1
CONTENTFORMAT_BEGIN
 90
        0
 91
        0
 92
      512
 93
        0
300

 40
0.0
140
1.0
 94
        2
 62
     0
340
26
144
0.18
309
CONTENTFORMAT_END
171
     1
301
MARGIN
  1
CELLMARGIN_BEGIN
 40
0.06
 40
0.06
 40
0.06
 40
0.06
 40
0.18
 40
0.18
309
CELLMARGIN_END
 94
        6
 95
        1
302
GRIDFORMAT
  1
GRIDFORMAT_BEGIN
 90
        0
 91
        1
 62
     0
 92
       -2
340
0
 93
        0
 40
0.045
309
GRIDFORMAT_END
 95
        2
302
GRIDFORMAT
  1
GRIDFORMAT_BEGIN
 90
        0
 91
        1
 62
     0
 92
       -2
340
0
 93
        0
 40
0.045
309
GRIDFORMAT_END
 95
        4
302
GRIDFORMAT
  1
GRIDFORMAT_BEGIN
 90
        0
 91
        1
 62
     0
 92
       -2
340
0
 93
        0
 40
0.045
309
GRIDFORMAT_END
 95
        8
302
GRIDFORMAT
  1
GRIDFORMAT_BEGIN
 90
        0
 91
        1
 62
     0
 92
       -2
340
0
 93
        0
 40
0.045
309
GRIDFORMAT_END
 95
       16
302
GRIDFORMAT
  1
GRIDFORMAT_BEGIN
 90
        0
 91
        1
 62
     0
 92
       -2
340
0
 93
        0
 40
0.045
309
GRIDFORMAT_END
 95
       32
302
GRIDFORMAT
  1
GRIDFORMAT_BEGIN
 90
        0
 91
        1
 62
     0
 92
       -2
340
0
 93
        0
 40
0.045
309
GRIDFORMAT_END
309
TABLEFORMAT_END
  1
CELLSTYLE_BEGIN
 90
        3
 91
        2
300
_DATA
309
CELLSTYLE_END
  0
XRECORD
  5
1054
102
{ACAD_REACTORS
330
93D
102
}
330
93D
100
AcDbXrecord
280
     1
102
ACAD_ROUNDTRIP_PRE2007_TABLESTYLE
 90
      512
 91
        0
  1

 92
      512
 93
        0
  2

 94
      512
 95
        0
  3

  0
CELLSTYLEMAP
  5
102D
102
{ACAD_REACTORS
330
E5B
102
}
330
E5B
100
AcDbCellStyleMap
 90
        3
300
CELLSTYLE
  1
TABLEFORMAT_BEGIN
 90
        5
170
     1
 91
        0
 92
    32768
 62
   257
 93
        1
300
CONTENTFORMAT
  1
CONTENTFORMAT_BEGIN
 90
        0
 91
        0
 92
      512
 93
        0
300

 40
0.0
140
1.0
 94
        8
 62
     3
340
46E
144
0.25
309
CONTENTFORMAT_END
171
     1
301
MARGIN
  1
CELLMARGIN_BEGIN
 40
0.5
 40
10.0
 40
0.06
 40
0.06
 40
0.18
 40
0.18
309
CELLMARGIN_END
 94
        6
 95
        1
302
GRIDFORMAT
  1
GRIDFORMAT_BEGIN
 90
        0
 91
        1
 62
     0
 92
       -2
340
0
 93
        0
 40
0.045
309
GRIDFORMAT_END
 95
        2
302
GRIDFORMAT
  1
GRIDFORMAT_BEGIN
 90
        0
 91
        1
 62
     0
 92
       -2
340
0
 93
        0
 40
0.045
309
GRIDFORMAT_END
 95
        4
302
GRIDFORMAT
  1
GRIDFORMAT_BEGIN
 90
        0
 91
        1
 62
     0
 92
       -2
340
0
 93
        0
 40
0.045
309
GRIDFORMAT_END
 95
        8
302
GRIDFORMAT
  1
GRIDFORMAT_BEGIN
 90
        0
 91
        1
 62
     0
 92
       -2
340
0
 93
        0
 40
0.045
309
GRIDFORMAT_END
 95
       16
302
GRIDFORMAT
  1
GRIDFORMAT_BEGIN
 90
        0
 91
        1
 62
     0
 92
       -2
340
0
 93
        0
 40
0.045
309
GRIDFORMAT_END
 95
       32
302
GRIDFORMAT
  1
GRIDFORMAT_BEGIN
 90
        0
 91
        1
 62
     0
 92
       -2
340
0
 93
        0
 40
0.045
309
GRIDFORMAT_END
309
TABLEFORMAT_END
  1
CELLSTYLE_BEGIN
 90
        1
 91
        1
300
_TITLE
309
CELLSTYLE_END
300
CELLSTYLE
  1
TABLEFORMAT_BEGIN
 90
        5
170
     1
 91
        0
 92
        0
 62
   257
 93
        1
300
CONTENTFORMAT
  1
CONTENTFORMAT_BEGIN
 90
        0
 91
        0
 92
      512
 93
        0
300

 40
0.0
140
1.0
 94
        7
 62
     3
340
46E
144
0.18
309
CONTENTFORMAT_END
171
     1
301
MARGIN
  1
CELLMARGIN_BEGIN
 40
0.5
 40
1.5
 40
0.06
 40
0.06
 40
0.18
 40
0.18
309
CELLMARGIN_END
 94
        6
 95
        1
302
GRIDFORMAT
  1
GRIDFORMAT_BEGIN
 90
        0
 91
        1
 62
     3
 92
       -2
340
28
 93
        0
 40
0.045
309
GRIDFORMAT_END
 95
        2
302
GRIDFORMAT
  1
GRIDFORMAT_BEGIN
 90
        0
 91
        1
 62
     7
 92
       -2
340
28
 93
        0
 40
0.045
309
GRIDFORMAT_END
 95
        4
302
GRIDFORMAT
  1
GRIDFORMAT_BEGIN
 90
        0
 91
        1
 62
     3
 92
       -2
340
28
 93
        0
 40
0.045
309
GRIDFORMAT_END
 95
        8
302
GRIDFORMAT
  1
GRIDFORMAT_BEGIN
 90
        0
 91
        1
 62
     3
 92
       -2
340
28
 93
        0
 40
0.045
309
GRIDFORMAT_END
 95
       16
302
GRIDFORMAT
  1
GRIDFORMAT_BEGIN
 90
        0
 91
        1
 62
     7
 92
       -2
340
28
 93
        0
 40
0.045
309
GRIDFORMAT_END
 95
       32
302
GRIDFORMAT
  1
GRIDFORMAT_BEGIN
 90
        0
 91
        1
 62
     3
 92
       -2
340
28
 93
        0
 40
0.045
309
GRIDFORMAT_END
309
TABLEFORMAT_END
  1
CELLSTYLE_BEGIN
 90
        2
 91
        1
300
_HEADER
309
CELLSTYLE_END
300
CELLSTYLE
  1
TABLEFORMAT_BEGIN
 90
        5
170
     1
 91
        0
 92
        0
 62
   257
 93
        1
300
CONTENTFORMAT
  1
CONTENTFORMAT_BEGIN
 90
        0
 91
        0
 92
      512
 93
        0
300

 40
0.0
140
1.0
 94
        7
 62
     3
340
46E
144
0.18
309
CONTENTFORMAT_END
171
     1
301
MARGIN
  1
CELLMARGIN_BEGIN
 40
0.5
 40
1.5
 40
0.06
 40
0.06
 40
0.18
 40
0.18
309
CELLMARGIN_END
 94
        6
 95
        1
302
GRIDFORMAT
  1
GRIDFORMAT_BEGIN
 90
        0
 91
        1
 62
     3
 92
       -2
340
28
 93
        0
 40
0.045
309
GRIDFORMAT_END
 95
        2
302
GRIDFORMAT
  1
GRIDFORMAT_BEGIN
 90
        0
 91
        1
 62
     7
 92
       -2
340
28
 93
        0
 40
0.045
309
GRIDFORMAT_END
 95
        4
302
GRIDFORMAT
  1
GRIDFORMAT_BEGIN
 90
        0
 91
        1
 62
     3
 92
       -2
340
28
 93
        0
 40
0.045
309
GRIDFORMAT_END
 95
        8
302
GRIDFORMAT
  1
GRIDFORMAT_BEGIN
 90
        0
 91
        1
 62
     3
 92
       -2
340
28
 93
        0
 40
0.045
309
GRIDFORMAT_END
 95
       16
302
GRIDFORMAT
  1
GRIDFORMAT_BEGIN
 90
        0
 91
        1
 62
     7
 92
       -2
340
28
 93
        0
 40
0.045
309
GRIDFORMAT_END
 95
       32
302
GRIDFORMAT
  1
GRIDFORMAT_BEGIN
 90
        0
 91
        1
 62
     3
 92
       -2
340
28
 93
        0
 40
0.045
309
GRIDFORMAT_END
309
TABLEFORMAT_END
  1
CELLSTYLE_BEGIN
 90
        3
 91
        2
300
_DATA
309
CELLSTYLE_END
  0
XRECORD
  5
106D
102
{ACAD_REACTORS
330
E5B
102
}
330
E5B
100
AcDbXrecord
280
     1
102
ACAD_ROUNDTRIP_PRE2007_TABLESTYLE
 90
      512
 91
        0
  1

 92
      512
 93
        0
  2

 94
      512
 95
        0
  3

  0
XRECORD
  5
103F
102
{ACAD_REACTORS
330
103E
102
}
330
103E
100
AcDbXrecord
280
     1
102
RTVSPropertyOp0
 70
     1
102
RTVSPropertyOp1
 70
     1
102
RTVSPropertyOp2
 70
     1
102
RTVSPropertyOp3
 70
     1
102
RTVSPropertyOp4
 70
     1
102
RTVSPropertyOp5
 70
     1
102
RTVSPropertyOp6
 70
     1
102
RTVSPropertyOp7
 70
     1
102
RTVSPropertyOp8
 70
     1
102
RTVSPropertyOp9
 70
     1
102
RTVSPropertyOp10
 70
     1
102
RTVSPropertyOp11
 70
     1
102
RTVSPropertyOp12
 70
     1
102
RTVSPropertyOp13
 70
     1
102
RTVSPropertyOp14
 70
     1
102
RTVSPropertyOp15
 70
     1
102
RTVSPropertyOp16
 70
     1
102
RTVSPropertyOp17
 70
     1
102
RTVSPropertyOp18
 70
     1
102
RTVSPropertyOp19
 70
     1
102
RTVSPropertyOp20
 70
     1
102
RTVSPropertyOp21
 70
     1
102
RTVSPropertyOp22
 70
     1
102
RTVSPropertyOp23
 70
     1
102
RTVSPropertyOp24
 70
     1
102
RTVSPropertyOp25
 70
     1
102
RTVSPropertyOp26
 70
     1
102
RTVSPropertyOp27
 70
     1
102
RTVSPropertyOp28
 70
     1
102
RTVSPropertyOp29
 70
     1
102
RTVSPropertyOp30
 70
     1
102
RTVSPropertyOp31
 70
     1
102
RTVSPropertyOp32
 70
     1
  0
XRECORD
  5
1043
102
{ACAD_REACTORS
330
1042
102
}
330
1042
100
AcDbXrecord
280
     1
102
RTVSPropertyOp0
 70
     1
102
RTVSPropertyOp1
 70
     1
102
RTVSPropertyOp2
 70
     1
102
RTVSPropertyOp3
 70
     1
102
RTVSPropertyOp4
 70
     1
102
RTVSPropertyOp5
 70
     1
102
RTVSPropertyOp6
 70
     1
102
RTVSPropertyOp7
 70
     1
102
RTVSPropertyOp8
 70
     1
102
RTVSPropertyOp9
 70
     1
102
RTVSPropertyOp10
 70
     1
102
RTVSPropertyOp11
 70
     1
102
RTVSPropertyOp12
 70
     1
102
RTVSPropertyOp13
 70
     1
102
RTVSPropertyOp14
 70
     1
102
RTVSPropertyOp15
 70
     1
102
RTVSPropertyOp16
 70
     1
102
RTVSPropertyOp17
 70
     1
102
RTVSPropertyOp18
 70
     1
102
RTVSPropertyOp19
 70
     1
102
RTVSPropertyOp20
 70
     1
102
RTVSPropertyOp21
 70
     1
102
RTVSPropertyOp22
 70
     1
102
RTVSPropertyOp23
 70
     1
102
RTVSPropertyOp24
 70
     1
102
RTVSPropertyOp25
 70
     1
102
RTVSPropertyOp26
 70
     1
102
RTVSPropertyOp27
 70
     1
102
RTVSPropertyOp28
 70
     1
102
RTVSPropertyOp29
 70
     1
102
RTVSPropertyOp30
 70
     1
102
RTVSPropertyOp31
 70
     1
102
RTVSPropertyOp32
 70
     1
  0
XRECORD
  5
1041
102
{ACAD_REACTORS
330
1040
102
}
330
1040
100
AcDbXrecord
280
     1
102
RTVSPropertyOp0
 70
     1
102
RTVSPropertyOp1
 70
     1
102
RTVSPropertyOp2
 70
     1
102
RTVSPropertyOp3
 70
     1
102
RTVSPropertyOp4
 70
     1
102
RTVSPropertyOp5
 70
     1
102
RTVSPropertyOp6
 70
     1
102
RTVSPropertyOp7
 70
     1
102
RTVSPropertyOp8
 70
     1
102
RTVSPropertyOp9
 70
     1
102
RTVSPropertyOp10
 70
     1
102
RTVSPropertyOp11
 70
     1
102
RTVSPropertyOp12
 70
     1
102
RTVSPropertyOp13
 70
     1
102
RTVSPropertyOp14
 70
     1
102
RTVSPropertyOp15
 70
     1
102
RTVSPropertyOp16
 70
     1
102
RTVSPropertyOp17
 70
     1
102
RTVSPropertyOp18
 70
     1
102
RTVSPropertyOp19
 70
     1
102
RTVSPropertyOp20
 70
     1
102
RTVSPropertyOp21
 70
     1
102
RTVSPropertyOp22
 70
     1
102
RTVSPropertyOp23
 70
     1
102
RTVSPropertyOp24
 70
     1
102
RTVSPropertyOp25
 70
     1
102
RTVSPropertyOp26
 70
     1
102
RTVSPropertyOp27
 70
     1
102
RTVSPropertyOp28
 70
     1
102
RTVSPropertyOp29
 70
     1
102
RTVSPropertyOp30
 70
     1
102
RTVSPropertyOp31
 70
     1
102
RTVSPropertyOp32
 70
     1
  0
XRECORD
  5
103D
102
{ACAD_REACTORS
330
103C
102
}
330
103C
100
AcDbXrecord
280
     1
102
RTVSPropertyOp0
 70
     1
102
RTVSPropertyOp1
 70
     1
102
RTVSPropertyOp2
 70
     1
102
RTVSPropertyOp3
 70
     1
102
RTVSPropertyOp4
 70
     1
102
RTVSPropertyOp5
 70
     1
102
RTVSPropertyOp6
 70
     1
102
RTVSPropertyOp7
 70
     1
102
RTVSPropertyOp8
 70
     1
102
RTVSPropertyOp9
 70
     1
102
RTVSPropertyOp10
 70
     1
102
RTVSPropertyOp11
 70
     1
102
RTVSPropertyOp12
 70
     1
102
RTVSPropertyOp13
 70
     1
102
RTVSPropertyOp14
 70
     1
102
RTVSPropertyOp15
 70
     1
102
RTVSPropertyOp16
 70
     1
102
RTVSPropertyOp17
 70
     1
102
RTVSPropertyOp18
 70
     1
102
RTVSPropertyOp19
 70
     1
102
RTVSPropertyOp20
 70
     1
102
RTVSPropertyOp21
 70
     1
102
RTVSPropertyOp22
 70
     1
102
RTVSPropertyOp23
 70
     1
102
RTVSPropertyOp24
 70
     1
102
RTVSPropertyOp25
 70
     1
102
RTVSPropertyOp26
 70
     1
102
RTVSPropertyOp27
 70
     1
102
RTVSPropertyOp28
 70
     1
102
RTVSPropertyOp29
 70
     1
102
RTVSPropertyOp30
 70
     1
102
RTVSPropertyOp31
 70
     1
102
RTVSPropertyOp32
 70
     1
  0
XRECORD
  5
104B
102
{ACAD_REACTORS
330
104A
102
}
330
104A
100
AcDbXrecord
280
     1
102
RTVSPropertyOp0
 70
     1
102
RTVSPropertyOp1
 70
     1
102
RTVSPropertyOp2
 70
     1
102
RTVSPropertyOp3
 70
     1
102
RTVSPropertyOp4
 70
     1
102
RTVSPropertyOp5
 70
     1
102
RTVSPropertyOp6
 70
     1
102
RTVSPropertyOp7
 70
     1
102
RTVSPropertyOp8
 70
     1
102
RTVSPropertyOp9
 70
     1
102
RTVSPropertyOp10
 70
     1
102
RTVSPropertyOp11
 70
     1
102
RTVSPropertyOp12
 70
     1
102
RTVSPropertyOp13
 70
     1
102
RTVSPropertyOp14
 70
     1
102
RTVSPropertyOp15
 70
     1
102
RTVSPropertyOp16
 70
     1
102
RTVSPropertyOp17
 70
     1
102
RTVSPropertyOp18
 70
     1
102
RTVSPropertyOp19
 70
     1
102
RTVSPropertyOp20
 70
     1
102
RTVSPropertyOp21
 70
     1
102
RTVSPropertyOp22
 70
     1
102
RTVSPropertyOp23
 70
     1
102
RTVSPropertyOp24
 70
     1
102
RTVSPropertyOp25
 70
     1
102
RTVSPropertyOp26
 70
     1
102
RTVSPropertyOp27
 70
     1
102
RTVSPropertyOp28
 70
     1
102
RTVSPropertyOp29
 70
     1
102
RTVSPropertyOp30
 70
     1
102
RTVSPropertyOp31
 70
     1
102
RTVSPropertyOp32
 70
     1
  0
XRECORD
  5
1053
102
{ACAD_REACTORS
330
1052
102
}
330
1052
100
AcDbXrecord
280
     1
102
RTVSPropertyOp0
 70
     1
102
RTVSPropertyOp1
 70
     1
102
RTVSPropertyOp2
 70
     1
102
RTVSPropertyOp3
 70
     1
102
RTVSPropertyOp4
 70
     1
102
RTVSPropertyOp5
 70
     1
102
RTVSPropertyOp6
 70
     1
102
RTVSPropertyOp7
 70
     1
102
RTVSPropertyOp8
 70
     1
102
RTVSPropertyOp9
 70
     1
102
RTVSPropertyOp10
 70
     1
102
RTVSPropertyOp11
 70
     1
102
RTVSPropertyOp12
 70
     1
102
RTVSPropertyOp13
 70
     1
102
RTVSPropertyOp14
 70
     1
102
RTVSPropertyOp15
 70
     1
102
RTVSPropertyOp16
 70
     1
102
RTVSPropertyOp17
 70
     1
102
RTVSPropertyOp18
 70
     1
102
RTVSPropertyOp19
 70
     1
102
RTVSPropertyOp20
 70
     1
102
RTVSPropertyOp21
 70
     1
102
RTVSPropertyOp22
 70
     1
102
RTVSPropertyOp23
 70
     1
102
RTVSPropertyOp24
 70
     1
102
RTVSPropertyOp25
 70
     1
102
RTVSPropertyOp26
 70
     1
102
RTVSPropertyOp27
 70
     1
102
RTVSPropertyOp28
 70
     1
102
RTVSPropertyOp29
 70
     1
102
RTVSPropertyOp30
 70
     1
102
RTVSPropertyOp31
 70
     1
102
RTVSPropertyOp32
 70
     1
  0
XRECORD
  5
1045
102
{ACAD_REACTORS
330
1044
102
}
330
1044
100
AcDbXrecord
280
     1
102
RTVSPropertyOp0
 70
     1
102
RTVSPropertyOp1
 70
     1
102
RTVSPropertyOp2
 70
     1
102
RTVSPropertyOp3
 70
     1
102
RTVSPropertyOp4
 70
     1
102
RTVSPropertyOp5
 70
     1
102
RTVSPropertyOp6
 70
     1
102
RTVSPropertyOp7
 70
     1
102
RTVSPropertyOp8
 70
     1
102
RTVSPropertyOp9
 70
     1
102
RTVSPropertyOp10
 70
     1
102
RTVSPropertyOp11
 70
     1
102
RTVSPropertyOp12
 70
     1
102
RTVSPropertyOp13
 70
     1
102
RTVSPropertyOp14
 70
     1
102
RTVSPropertyOp15
 70
     1
102
RTVSPropertyOp16
 70
     1
102
RTVSPropertyOp17
 70
     1
102
RTVSPropertyOp18
 70
     1
102
RTVSPropertyOp19
 70
     1
102
RTVSPropertyOp20
 70
     1
102
RTVSPropertyOp21
 70
     1
102
RTVSPropertyOp22
 70
     1
102
RTVSPropertyOp23
 70
     1
102
RTVSPropertyOp24
 70
     1
102
RTVSPropertyOp25
 70
     1
102
RTVSPropertyOp26
 70
     1
102
RTVSPropertyOp27
 70
     1
102
RTVSPropertyOp28
 70
     1
102
RTVSPropertyOp29
 70
     1
102
RTVSPropertyOp30
 70
     1
102
RTVSPropertyOp31
 70
     1
102
RTVSPropertyOp32
 70
     1
  0
XRECORD
  5
1049
102
{ACAD_REACTORS
330
1048
102
}
330
1048
100
AcDbXrecord
280
     1
102
RTVSPropertyOp0
 70
     1
102
RTVSPropertyOp1
 70
     1
102
RTVSPropertyOp2
 70
     1
102
RTVSPropertyOp3
 70
     1
102
RTVSPropertyOp4
 70
     1
102
RTVSPropertyOp5
 70
     1
102
RTVSPropertyOp6
 70
     1
102
RTVSPropertyOp7
 70
     1
102
RTVSPropertyOp8
 70
     1
102
RTVSPropertyOp9
 70
     1
102
RTVSPropertyOp10
 70
     1
102
RTVSPropertyOp11
 70
     1
102
RTVSPropertyOp12
 70
     1
102
RTVSPropertyOp13
 70
     1
102
RTVSPropertyOp14
 70
     1
102
RTVSPropertyOp15
 70
     1
102
RTVSPropertyOp16
 70
     1
102
RTVSPropertyOp17
 70
     1
102
RTVSPropertyOp18
 70
     1
102
RTVSPropertyOp19
 70
     1
102
RTVSPropertyOp20
 70
     1
102
RTVSPropertyOp21
 70
     1
102
RTVSPropertyOp22
 70
     1
102
RTVSPropertyOp23
 70
     1
102
RTVSPropertyOp24
 70
     1
102
RTVSPropertyOp25
 70
     1
102
RTVSPropertyOp26
 70
     1
102
RTVSPropertyOp27
 70
     1
102
RTVSPropertyOp28
 70
     1
102
RTVSPropertyOp29
 70
     1
102
RTVSPropertyOp30
 70
     1
102
RTVSPropertyOp31
 70
     1
102
RTVSPropertyOp32
 70
     1
  0
XRECORD
  5
106C
102
{ACAD_REACTORS
330
106B
102
}
330
106B
100
AcDbXrecord
280
     1
102
RTVSPropertyOp0
 70
     0
102
RTVSPropertyOp1
 70
     0
102
RTVSPropertyOp2
 70
     0
102
RTVSPropertyOp3
 70
     0
102
RTVSPropertyOp4
 70
     0
102
RTVSPropertyOp5
 70
     0
102
RTVSPropertyOp6
 70
     0
102
RTVSPropertyOp7
 70
     0
102
RTVSPropertyOp8
 70
     0
102
RTVSPropertyOp9
 70
     0
102
RTVSPropertyOp10
 70
     0
102
RTVSPropertyOp11
 70
     0
102
RTVSPropertyOp12
 70
     0
102
RTVSPropertyOp13
 70
     0
102
RTVSPropertyOp14
 70
     2
102
RTVSPropertyOp15
 70
     0
102
RTVSPropertyOp16
 70
     0
102
RTVSPropertyOp17
 70
     0
102
RTVSPropertyOp18
 70
     0
102
RTVSPropertyOp19
 70
     0
102
RTVSPropertyOp20
 70
     0
102
RTVSPropertyOp21
 70
     0
102
RTVSPropertyOp22
 70
     0
102
RTVSPropertyOp23
 70
     0
102
RTVSPropertyOp24
 70
     0
102
RTVSPropertyOp25
 70
     0
102
RTVSPropertyOp26
 70
     0
102
RTVSPropertyOp27
 70
     0
102
RTVSPropertyOp28
 70
     0
102
RTVSPropertyOp29
 70
     0
102
RTVSPropertyOp30
 70
     0
102
RTVSPropertyOp31
 70
     0
102
RTVSPropertyOp32
 70
     0
  0
XRECORD
  5
1051
102
{ACAD_REACTORS
330
1050
102
}
330
1050
100
AcDbXrecord
280
     1
102
RTVSPropertyOp0
 70
     1
102
RTVSPropertyOp1
 70
     1
102
RTVSPropertyOp2
 70
     1
102
RTVSPropertyOp3
 70
     1
102
RTVSPropertyOp4
 70
     1
102
RTVSPropertyOp5
 70
     1
102
RTVSPropertyOp6
 70
     1
102
RTVSPropertyOp7
 70
     1
102
RTVSPropertyOp8
 70
     1
102
RTVSPropertyOp9
 70
     1
102
RTVSPropertyOp10
 70
     1
102
RTVSPropertyOp11
 70
     1
102
RTVSPropertyOp12
 70
     1
102
RTVSPropertyOp13
 70
     1
102
RTVSPropertyOp14
 70
     1
102
RTVSPropertyOp15
 70
     1
102
RTVSPropertyOp16
 70
     1
102
RTVSPropertyOp17
 70
     1
102
RTVSPropertyOp18
 70
     1
102
RTVSPropertyOp19
 70
     1
102
RTVSPropertyOp20
 70
     1
102
RTVSPropertyOp21
 70
     1
102
RTVSPropertyOp22
 70
     1
102
RTVSPropertyOp23
 70
     1
102
RTVSPropertyOp24
 70
     1
102
RTVSPropertyOp25
 70
     1
102
RTVSPropertyOp26
 70
     1
102
RTVSPropertyOp27
 70
     1
102
RTVSPropertyOp28
 70
     1
102
RTVSPropertyOp29
 70
     1
102
RTVSPropertyOp30
 70
     1
102
RTVSPropertyOp31
 70
     1
102
RTVSPropertyOp32
 70
     1
  0
XRECORD
  5
1035
102
{ACAD_REACTORS
330
1034
102
}
330
1034
100
AcDbXrecord
280
     1
102
RTVSPropertyOp0
 70
     1
102
RTVSPropertyOp1
 70
     1
102
RTVSPropertyOp2
 70
     1
102
RTVSPropertyOp3
 70
     1
102
RTVSPropertyOp4
 70
     1
102
RTVSPropertyOp5
 70
     1
102
RTVSPropertyOp6
 70
     1
102
RTVSPropertyOp7
 70
     1
102
RTVSPropertyOp8
 70
     1
102
RTVSPropertyOp9
 70
     1
102
RTVSPropertyOp10
 70
     1
102
RTVSPropertyOp11
 70
     1
102
RTVSPropertyOp12
 70
     1
102
RTVSPropertyOp13
 70
     1
102
RTVSPropertyOp14
 70
     1
102
RTVSPropertyOp15
 70
     1
102
RTVSPropertyOp16
 70
     1
102
RTVSPropertyOp17
 70
     1
102
RTVSPropertyOp18
 70
     1
102
RTVSPropertyOp19
 70
     1
102
RTVSPropertyOp20
 70
     1
102
RTVSPropertyOp21
 70
     1
102
RTVSPropertyOp22
 70
     1
102
RTVSPropertyOp23
 70
     1
102
RTVSPropertyOp24
 70
     1
102
RTVSPropertyOp25
 70
     1
102
RTVSPropertyOp26
 70
     1
102
RTVSPropertyOp27
 70
     1
102
RTVSPropertyOp28
 70
     1
102
RTVSPropertyOp29
 70
     1
102
RTVSPropertyOp30
 70
     1
102
RTVSPropertyOp31
 70
     1
102
RTVSPropertyOp32
 70
     1
  0
XRECORD
  5
1037
102
{ACAD_REACTORS
330
1036
102
}
330
1036
100
AcDbXrecord
280
     1
102
RTVSPropertyOp0
 70
     1
102
RTVSPropertyOp1
 70
     1
102
RTVSPropertyOp2
 70
     1
102
RTVSPropertyOp3
 70
     1
102
RTVSPropertyOp4
 70
     1
102
RTVSPropertyOp5
 70
     1
102
RTVSPropertyOp6
 70
     1
102
RTVSPropertyOp7
 70
     1
102
RTVSPropertyOp8
 70
     1
102
RTVSPropertyOp9
 70
     1
102
RTVSPropertyOp10
 70
     1
102
RTVSPropertyOp11
 70
     1
102
RTVSPropertyOp12
 70
     1
102
RTVSPropertyOp13
 70
     1
102
RTVSPropertyOp14
 70
     1
102
RTVSPropertyOp15
 70
     1
102
RTVSPropertyOp16
 70
     1
102
RTVSPropertyOp17
 70
     1
102
RTVSPropertyOp18
 70
     1
102
RTVSPropertyOp19
 70
     1
102
RTVSPropertyOp20
 70
     1
102
RTVSPropertyOp21
 70
     1
102
RTVSPropertyOp22
 70
     1
102
RTVSPropertyOp23
 70
     1
102
RTVSPropertyOp24
 70
     1
102
RTVSPropertyOp25
 70
     1
102
RTVSPropertyOp26
 70
     1
102
RTVSPropertyOp27
 70
     1
102
RTVSPropertyOp28
 70
     1
102
RTVSPropertyOp29
 70
     1
102
RTVSPropertyOp30
 70
     1
102
RTVSPropertyOp31
 70
     1
102
RTVSPropertyOp32
 70
     1
  0
XRECORD
  5
1039
102
{ACAD_REACTORS
330
1038
102
}
330
1038
100
AcDbXrecord
280
     1
102
RTVSPropertyOp0
 70
     1
102
RTVSPropertyOp1
 70
     1
102
RTVSPropertyOp2
 70
     1
102
RTVSPropertyOp3
 70
     1
102
RTVSPropertyOp4
 70
     1
102
RTVSPropertyOp5
 70
     1
102
RTVSPropertyOp6
 70
     1
102
RTVSPropertyOp7
 70
     1
102
RTVSPropertyOp8
 70
     1
102
RTVSPropertyOp9
 70
     1
102
RTVSPropertyOp10
 70
     1
102
RTVSPropertyOp11
 70
     1
102
RTVSPropertyOp12
 70
     1
102
RTVSPropertyOp13
 70
     1
102
RTVSPropertyOp14
 70
     1
102
RTVSPropertyOp15
 70
     1
102
RTVSPropertyOp16
 70
     1
102
RTVSPropertyOp17
 70
     1
102
RTVSPropertyOp18
 70
     1
102
RTVSPropertyOp19
 70
     1
102
RTVSPropertyOp20
 70
     1
102
RTVSPropertyOp21
 70
     1
102
RTVSPropertyOp22
 70
     1
102
RTVSPropertyOp23
 70
     1
102
RTVSPropertyOp24
 70
     1
102
RTVSPropertyOp25
 70
     1
102
RTVSPropertyOp26
 70
     1
102
RTVSPropertyOp27
 70
     1
102
RTVSPropertyOp28
 70
     1
102
RTVSPropertyOp29
 70
     1
102
RTVSPropertyOp30
 70
     1
102
RTVSPropertyOp31
 70
     1
102
RTVSPropertyOp32
 70
     1
  0
XRECORD
  5
103B
102
{ACAD_REACTORS
330
103A
102
}
330
103A
100
AcDbXrecord
280
     1
102
RTVSPropertyOp0
 70
     1
102
RTVSPropertyOp1
 70
     1
102
RTVSPropertyOp2
 70
     1
102
RTVSPropertyOp3
 70
     1
102
RTVSPropertyOp4
 70
     1
102
RTVSPropertyOp5
 70
     1
102
RTVSPropertyOp6
 70
     1
102
RTVSPropertyOp7
 70
     1
102
RTVSPropertyOp8
 70
     1
102
RTVSPropertyOp9
 70
     1
102
RTVSPropertyOp10
 70
     1
102
RTVSPropertyOp11
 70
     1
102
RTVSPropertyOp12
 70
     1
102
RTVSPropertyOp13
 70
     1
102
RTVSPropertyOp14
 70
     1
102
RTVSPropertyOp15
 70
     1
102
RTVSPropertyOp16
 70
     1
102
RTVSPropertyOp17
 70
     1
102
RTVSPropertyOp18
 70
     1
102
RTVSPropertyOp19
 70
     1
102
RTVSPropertyOp20
 70
     1
102
RTVSPropertyOp21
 70
     1
102
RTVSPropertyOp22
 70
     1
102
RTVSPropertyOp23
 70
     1
102
RTVSPropertyOp24
 70
     1
102
RTVSPropertyOp25
 70
     1
102
RTVSPropertyOp26
 70
     1
102
RTVSPropertyOp27
 70
     1
102
RTVSPropertyOp28
 70
     1
102
RTVSPropertyOp29
 70
     1
102
RTVSPropertyOp30
 70
     1
102
RTVSPropertyOp31
 70
     1
102
RTVSPropertyOp32
 70
     1
  0
XRECORD
  5
105C
102
{ACAD_REACTORS
330
105B
102
}
330
105B
100
AcDbXrecord
280
     1
102
RTVSPropertyOp0
 70
     1
102
RTVSPropertyOp1
 70
     1
102
RTVSPropertyOp2
 70
     1
102
RTVSPropertyOp3
 70
     1
102
RTVSPropertyOp4
 70
     1
102
RTVSPropertyOp5
 70
     1
102
RTVSPropertyOp6
 70
     1
102
RTVSPropertyOp7
 70
     1
102
RTVSPropertyOp8
 70
     1
102
RTVSPropertyOp9
 70
     1
102
RTVSPropertyOp10
 70
     1
102
RTVSPropertyOp11
 70
     1
102
RTVSPropertyOp12
 70
     1
102
RTVSPropertyOp13
 70
     1
102
RTVSPropertyOp14
 70
     1
102
RTVSPropertyOp15
 70
     1
102
RTVSPropertyOp16
 70
     1
102
RTVSPropertyOp17
 70
     1
102
RTVSPropertyOp18
 70
     1
102
RTVSPropertyOp19
 70
     1
102
RTVSPropertyOp20
 70
     1
102
RTVSPropertyOp21
 70
     1
102
RTVSPropertyOp22
 70
     1
102
RTVSPropertyOp23
 70
     1
102
RTVSPropertyOp24
 70
     1
102
RTVSPropertyOp25
 70
     1
102
RTVSPropertyOp26
 70
     1
102
RTVSPropertyOp27
 70
     1
102
RTVSPropertyOp28
 70
     1
102
RTVSPropertyOp29
 70
     1
102
RTVSPropertyOp30
 70
     1
102
RTVSPropertyOp31
 70
     1
102
RTVSPropertyOp32
 70
     1
  0
XRECORD
  5
1068
102
{ACAD_REACTORS
330
1067
102
}
330
1067
100
AcDbXrecord
280
     1
102
RTVSPropertyOp0
 70
     0
102
RTVSPropertyOp1
 70
     0
102
RTVSPropertyOp2
 70
     0
102
RTVSPropertyOp3
 70
     0
102
RTVSPropertyOp4
 70
     0
102
RTVSPropertyOp5
 70
     0
102
RTVSPropertyOp6
 70
     0
102
RTVSPropertyOp7
 70
     0
102
RTVSPropertyOp8
 70
     0
102
RTVSPropertyOp9
 70
     0
102
RTVSPropertyOp10
 70
     0
102
RTVSPropertyOp11
 70
     0
102
RTVSPropertyOp12
 70
     0
102
RTVSPropertyOp13
 70
     0
102
RTVSPropertyOp14
 70
     2
102
RTVSPropertyOp15
 70
     0
102
RTVSPropertyOp16
 70
     0
102
RTVSPropertyOp17
 70
     0
102
RTVSPropertyOp18
 70
     0
102
RTVSPropertyOp19
 70
     0
102
RTVSPropertyOp20
 70
     0
102
RTVSPropertyOp21
 70
     0
102
RTVSPropertyOp22
 70
     0
102
RTVSPropertyOp23
 70
     0
102
RTVSPropertyOp24
 70
     0
102
RTVSPropertyOp25
 70
     0
102
RTVSPropertyOp26
 70
     0
102
RTVSPropertyOp27
 70
     0
102
RTVSPropertyOp28
 70
     0
102
RTVSPropertyOp29
 70
     0
102
RTVSPropertyOp30
 70
     0
102
RTVSPropertyOp31
 70
     0
102
RTVSPropertyOp32
 70
     0
  0
XRECORD
  5
104F
102
{ACAD_REACTORS
330
104E
102
}
330
104E
100
AcDbXrecord
280
     1
102
RTVSPropertyOp0
 70
     1
102
RTVSPropertyOp1
 70
     1
102
RTVSPropertyOp2
 70
     1
102
RTVSPropertyOp3
 70
     1
102
RTVSPropertyOp4
 70
     1
102
RTVSPropertyOp5
 70
     1
102
RTVSPropertyOp6
 70
     1
102
RTVSPropertyOp7
 70
     1
102
RTVSPropertyOp8
 70
     1
102
RTVSPropertyOp9
 70
     1
102
RTVSPropertyOp10
 70
     1
102
RTVSPropertyOp11
 70
     1
102
RTVSPropertyOp12
 70
     1
102
RTVSPropertyOp13
 70
     1
102
RTVSPropertyOp14
 70
     1
102
RTVSPropertyOp15
 70
     1
102
RTVSPropertyOp16
 70
     1
102
RTVSPropertyOp17
 70
     1
102
RTVSPropertyOp18
 70
     1
102
RTVSPropertyOp19
 70
     1
102
RTVSPropertyOp20
 70
     1
102
RTVSPropertyOp21
 70
     1
102
RTVSPropertyOp22
 70
     1
102
RTVSPropertyOp23
 70
     1
102
RTVSPropertyOp24
 70
     1
102
RTVSPropertyOp25
 70
     1
102
RTVSPropertyOp26
 70
     1
102
RTVSPropertyOp27
 70
     1
102
RTVSPropertyOp28
 70
     1
102
RTVSPropertyOp29
 70
     1
102
RTVSPropertyOp30
 70
     1
102
RTVSPropertyOp31
 70
     1
102
RTVSPropertyOp32
 70
     1
  0
XRECORD
  5
106A
102
{ACAD_REACTORS
330
1069
102
}
330
1069
100
AcDbXrecord
280
     1
102
RTVSPropertyOp0
 70
     0
102
RTVSPropertyOp1
 70
     0
102
RTVSPropertyOp2
 70
     0
102
RTVSPropertyOp3
 70
     0
102
RTVSPropertyOp4
 70
     0
102
RTVSPropertyOp5
 70
     0
102
RTVSPropertyOp6
 70
     0
102
RTVSPropertyOp7
 70
     0
102
RTVSPropertyOp8
 70
     0
102
RTVSPropertyOp9
 70
     0
102
RTVSPropertyOp10
 70
     0
102
RTVSPropertyOp11
 70
     0
102
RTVSPropertyOp12
 70
     0
102
RTVSPropertyOp13
 70
     0
102
RTVSPropertyOp14
 70
     2
102
RTVSPropertyOp15
 70
     0
102
RTVSPropertyOp16
 70
     0
102
RTVSPropertyOp17
 70
     0
102
RTVSPropertyOp18
 70
     0
102
RTVSPropertyOp19
 70
     0
102
RTVSPropertyOp20
 70
     0
102
RTVSPropertyOp21
 70
     0
102
RTVSPropertyOp22
 70
     0
102
RTVSPropertyOp23
 70
     0
102
RTVSPropertyOp24
 70
     0
102
RTVSPropertyOp25
 70
     0
102
RTVSPropertyOp26
 70
     0
102
RTVSPropertyOp27
 70
     0
102
RTVSPropertyOp28
 70
     0
102
RTVSPropertyOp29
 70
     0
102
RTVSPropertyOp30
 70
     0
102
RTVSPropertyOp31
 70
     0
102
RTVSPropertyOp32
 70
     0
  0
XRECORD
  5
1047
102
{ACAD_REACTORS
330
1046
102
}
330
1046
100
AcDbXrecord
280
     1
102
RTVSPropertyOp0
 70
     1
102
RTVSPropertyOp1
 70
     1
102
RTVSPropertyOp2
 70
     1
102
RTVSPropertyOp3
 70
     1
102
RTVSPropertyOp4
 70
     1
102
RTVSPropertyOp5
 70
     1
102
RTVSPropertyOp6
 70
     1
102
RTVSPropertyOp7
 70
     1
102
RTVSPropertyOp8
 70
     1
102
RTVSPropertyOp9
 70
     1
102
RTVSPropertyOp10
 70
     1
102
RTVSPropertyOp11
 70
     1
102
RTVSPropertyOp12
 70
     1
102
RTVSPropertyOp13
 70
     1
102
RTVSPropertyOp14
 70
     1
102
RTVSPropertyOp15
 70
     1
102
RTVSPropertyOp16
 70
     1
102
RTVSPropertyOp17
 70
     1
102
RTVSPropertyOp18
 70
     1
102
RTVSPropertyOp19
 70
     1
102
RTVSPropertyOp20
 70
     1
102
RTVSPropertyOp21
 70
     1
102
RTVSPropertyOp22
 70
     1
102
RTVSPropertyOp23
 70
     1
102
RTVSPropertyOp24
 70
     1
102
RTVSPropertyOp25
 70
     1
102
RTVSPropertyOp26
 70
     1
102
RTVSPropertyOp27
 70
     1
102
RTVSPropertyOp28
 70
     1
102
RTVSPropertyOp29
 70
     1
102
RTVSPropertyOp30
 70
     1
102
RTVSPropertyOp31
 70
     1
102
RTVSPropertyOp32
 70
     1
  0
XRECORD
  5
1066
102
{ACAD_REACTORS
330
1065
102
}
330
1065
100
AcDbXrecord
280
     1
102
RTVSPropertyOp0
 70
     1
102
RTVSPropertyOp1
 70
     1
102
RTVSPropertyOp2
 70
     1
102
RTVSPropertyOp3
 70
     1
102
RTVSPropertyOp4
 70
     1
102
RTVSPropertyOp5
 70
     1
102
RTVSPropertyOp6
 70
     1
102
RTVSPropertyOp7
 70
     1
102
RTVSPropertyOp8
 70
     1
102
RTVSPropertyOp9
 70
     1
102
RTVSPropertyOp10
 70
     1
102
RTVSPropertyOp11
 70
     1
102
RTVSPropertyOp12
 70
     1
102
RTVSPropertyOp13
 70
     1
102
RTVSPropertyOp14
 70
     1
102
RTVSPropertyOp15
 70
     1
102
RTVSPropertyOp16
 70
     1
102
RTVSPropertyOp17
 70
     1
102
RTVSPropertyOp18
 70
     1
102
RTVSPropertyOp19
 70
     1
102
RTVSPropertyOp20
 70
     1
102
RTVSPropertyOp21
 70
     1
102
RTVSPropertyOp22
 70
     1
102
RTVSPropertyOp23
 70
     1
102
RTVSPropertyOp24
 70
     1
102
RTVSPropertyOp25
 70
     1
102
RTVSPropertyOp26
 70
     1
102
RTVSPropertyOp27
 70
     1
102
RTVSPropertyOp28
 70
     1
102
RTVSPropertyOp29
 70
     1
102
RTVSPropertyOp30
 70
     1
102
RTVSPropertyOp31
 70
     1
102
RTVSPropertyOp32
 70
     1
  0
XRECORD
  5
1064
102
{ACAD_REACTORS
330
1063
102
}
330
1063
100
AcDbXrecord
280
     1
102
RTVSPropertyOp0
 70
     1
102
RTVSPropertyOp1
 70
     1
102
RTVSPropertyOp2
 70
     1
102
RTVSPropertyOp3
 70
     1
102
RTVSPropertyOp4
 70
     1
102
RTVSPropertyOp5
 70
     1
102
RTVSPropertyOp6
 70
     1
102
RTVSPropertyOp7
 70
     1
102
RTVSPropertyOp8
 70
     1
102
RTVSPropertyOp9
 70
     1
102
RTVSPropertyOp10
 70
     1
102
RTVSPropertyOp11
 70
     1
102
RTVSPropertyOp12
 70
     1
102
RTVSPropertyOp13
 70
     1
102
RTVSPropertyOp14
 70
     1
102
RTVSPropertyOp15
 70
     1
102
RTVSPropertyOp16
 70
     1
102
RTVSPropertyOp17
 70
     1
102
RTVSPropertyOp18
 70
     1
102
RTVSPropertyOp19
 70
     1
102
RTVSPropertyOp20
 70
     1
102
RTVSPropertyOp21
 70
     1
102
RTVSPropertyOp22
 70
     1
102
RTVSPropertyOp23
 70
     1
102
RTVSPropertyOp24
 70
     1
102
RTVSPropertyOp25
 70
     1
102
RTVSPropertyOp26
 70
     1
102
RTVSPropertyOp27
 70
     1
102
RTVSPropertyOp28
 70
     1
102
RTVSPropertyOp29
 70
     1
102
RTVSPropertyOp30
 70
     1
102
RTVSPropertyOp31
 70
     1
102
RTVSPropertyOp32
 70
     1
  0
XRECORD
  5
105E
102
{ACAD_REACTORS
330
105D
102
}
330
105D
100
AcDbXrecord
280
     1
102
RTVSPropertyOp0
 70
     1
102
RTVSPropertyOp1
 70
     1
102
RTVSPropertyOp2
 70
     1
102
RTVSPropertyOp3
 70
     1
102
RTVSPropertyOp4
 70
     1
102
RTVSPropertyOp5
 70
     1
102
RTVSPropertyOp6
 70
     1
102
RTVSPropertyOp7
 70
     1
102
RTVSPropertyOp8
 70
     1
102
RTVSPropertyOp9
 70
     1
102
RTVSPropertyOp10
 70
     1
102
RTVSPropertyOp11
 70
     1
102
RTVSPropertyOp12
 70
     1
102
RTVSPropertyOp13
 70
     1
102
RTVSPropertyOp14
 70
     1
102
RTVSPropertyOp15
 70
     1
102
RTVSPropertyOp16
 70
     1
102
RTVSPropertyOp17
 70
     1
102
RTVSPropertyOp18
 70
     1
102
RTVSPropertyOp19
 70
     1
102
RTVSPropertyOp20
 70
     1
102
RTVSPropertyOp21
 70
     1
102
RTVSPropertyOp22
 70
     1
102
RTVSPropertyOp23
 70
     1
102
RTVSPropertyOp24
 70
     1
102
RTVSPropertyOp25
 70
     1
102
RTVSPropertyOp26
 70
     1
102
RTVSPropertyOp27
 70
     1
102
RTVSPropertyOp28
 70
     1
102
RTVSPropertyOp29
 70
     1
102
RTVSPropertyOp30
 70
     1
102
RTVSPropertyOp31
 70
     1
102
RTVSPropertyOp32
 70
     1
  0
XRECORD
  5
1060
102
{ACAD_REACTORS
330
105F
102
}
330
105F
100
AcDbXrecord
280
     1
102
RTVSPropertyOp0
 70
     1
102
RTVSPropertyOp1
 70
     1
102
RTVSPropertyOp2
 70
     1
102
RTVSPropertyOp3
 70
     1
102
RTVSPropertyOp4
 70
     1
102
RTVSPropertyOp5
 70
     1
102
RTVSPropertyOp6
 70
     1
102
RTVSPropertyOp7
 70
     1
102
RTVSPropertyOp8
 70
     1
102
RTVSPropertyOp9
 70
     1
102
RTVSPropertyOp10
 70
     1
102
RTVSPropertyOp11
 70
     1
102
RTVSPropertyOp12
 70
     1
102
RTVSPropertyOp13
 70
     1
102
RTVSPropertyOp14
 70
     1
102
RTVSPropertyOp15
 70
     1
102
RTVSPropertyOp16
 70
     1
102
RTVSPropertyOp17
 70
     1
102
RTVSPropertyOp18
 70
     1
102
RTVSPropertyOp19
 70
     1
102
RTVSPropertyOp20
 70
     1
102
RTVSPropertyOp21
 70
     1
102
RTVSPropertyOp22
 70
     1
102
RTVSPropertyOp23
 70
     1
102
RTVSPropertyOp24
 70
     1
102
RTVSPropertyOp25
 70
     1
102
RTVSPropertyOp26
 70
     1
102
RTVSPropertyOp27
 70
     1
102
RTVSPropertyOp28
 70
     1
102
RTVSPropertyOp29
 70
     1
102
RTVSPropertyOp30
 70
     1
102
RTVSPropertyOp31
 70
     1
102
RTVSPropertyOp32
 70
     1
  0
XRECORD
  5
104D
102
{ACAD_REACTORS
330
104C
102
}
330
104C
100
AcDbXrecord
280
     1
102
RTVSPropertyOp0
 70
     1
102
RTVSPropertyOp1
 70
     1
102
RTVSPropertyOp2
 70
     1
102
RTVSPropertyOp3
 70
     1
102
RTVSPropertyOp4
 70
     1
102
RTVSPropertyOp5
 70
     1
102
RTVSPropertyOp6
 70
     1
102
RTVSPropertyOp7
 70
     1
102
RTVSPropertyOp8
 70
     1
102
RTVSPropertyOp9
 70
     1
102
RTVSPropertyOp10
 70
     1
102
RTVSPropertyOp11
 70
     1
102
RTVSPropertyOp12
 70
     1
102
RTVSPropertyOp13
 70
     1
102
RTVSPropertyOp14
 70
     1
102
RTVSPropertyOp15
 70
     1
102
RTVSPropertyOp16
 70
     1
102
RTVSPropertyOp17
 70
     1
102
RTVSPropertyOp18
 70
     1
102
RTVSPropertyOp19
 70
     1
102
RTVSPropertyOp20
 70
     1
102
RTVSPropertyOp21
 70
     1
102
RTVSPropertyOp22
 70
     1
102
RTVSPropertyOp23
 70
     1
102
RTVSPropertyOp24
 70
     1
102
RTVSPropertyOp25
 70
     1
102
RTVSPropertyOp26
 70
     1
102
RTVSPropertyOp27
 70
     1
102
RTVSPropertyOp28
 70
     1
102
RTVSPropertyOp29
 70
     1
102
RTVSPropertyOp30
 70
     1
102
RTVSPropertyOp31
 70
     1
102
RTVSPropertyOp32
 70
     1
  0
XRECORD
  5
105A
102
{ACAD_REACTORS
330
1059
102
}
330
1059
100
AcDbXrecord
280
     1
102
RTVSPropertyOp0
 70
     1
102
RTVSPropertyOp1
 70
     1
102
RTVSPropertyOp2
 70
     1
102
RTVSPropertyOp3
 70
     1
102
RTVSPropertyOp4
 70
     1
102
RTVSPropertyOp5
 70
     1
102
RTVSPropertyOp6
 70
     1
102
RTVSPropertyOp7
 70
     1
102
RTVSPropertyOp8
 70
     1
102
RTVSPropertyOp9
 70
     1
102
RTVSPropertyOp10
 70
     1
102
RTVSPropertyOp11
 70
     1
102
RTVSPropertyOp12
 70
     1
102
RTVSPropertyOp13
 70
     1
102
RTVSPropertyOp14
 70
     1
102
RTVSPropertyOp15
 70
     1
102
RTVSPropertyOp16
 70
     1
102
RTVSPropertyOp17
 70
     1
102
RTVSPropertyOp18
 70
     1
102
RTVSPropertyOp19
 70
     1
102
RTVSPropertyOp20
 70
     1
102
RTVSPropertyOp21
 70
     1
102
RTVSPropertyOp22
 70
     1
102
RTVSPropertyOp23
 70
     1
102
RTVSPropertyOp24
 70
     1
102
RTVSPropertyOp25
 70
     1
102
RTVSPropertyOp26
 70
     1
102
RTVSPropertyOp27
 70
     1
102
RTVSPropertyOp28
 70
     1
102
RTVSPropertyOp29
 70
     1
102
RTVSPropertyOp30
 70
     1
102
RTVSPropertyOp31
 70
     1
102
RTVSPropertyOp32
 70
     1
  0
XRECORD
  5
1062
102
{ACAD_REACTORS
330
1061
102
}
330
1061
100
AcDbXrecord
280
     1
102
RTVSPropertyOp0
 70
     1
102
RTVSPropertyOp1
 70
     1
102
RTVSPropertyOp2
 70
     1
102
RTVSPropertyOp3
 70
     1
102
RTVSPropertyOp4
 70
     1
102
RTVSPropertyOp5
 70
     1
102
RTVSPropertyOp6
 70
     1
102
RTVSPropertyOp7
 70
     1
102
RTVSPropertyOp8
 70
     1
102
RTVSPropertyOp9
 70
     1
102
RTVSPropertyOp10
 70
     1
102
RTVSPropertyOp11
 70
     1
102
RTVSPropertyOp12
 70
     1
102
RTVSPropertyOp13
 70
     1
102
RTVSPropertyOp14
 70
     1
102
RTVSPropertyOp15
 70
     1
102
RTVSPropertyOp16
 70
     1
102
RTVSPropertyOp17
 70
     1
102
RTVSPropertyOp18
 70
     1
102
RTVSPropertyOp19
 70
     1
102
RTVSPropertyOp20
 70
     1
102
RTVSPropertyOp21
 70
     1
102
RTVSPropertyOp22
 70
     1
102
RTVSPropertyOp23
 70
     1
102
RTVSPropertyOp24
 70
     1
102
RTVSPropertyOp25
 70
     1
102
RTVSPropertyOp26
 70
     1
102
RTVSPropertyOp27
 70
     1
102
RTVSPropertyOp28
 70
     1
102
RTVSPropertyOp29
 70
     1
102
RTVSPropertyOp30
 70
     1
102
RTVSPropertyOp31
 70
     1
102
RTVSPropertyOp32
 70
     1
  0
ENDSEC
  0
EOF
