  0
SECTION
  2
HEADER
  9
$ACADVER
  1
AC1015
  9
$ACADMAINTVER
 70
    20
  9
$DWGCODEPAGE
  3
ANSI_932
  9
$INSBASE
 10
0.0
 20
0.0
 30
0.0
  9
$EXTMIN
 10
-210.0
 20
-138.5
 30
0.0
  9
$EXTMAX
 10
195.0
 20
138.5
 30
0.0
  9
$LIMMIN
 10
-210.001
 20
-138.501
  9
$LIMMAX
 10
195.0009999999999
 20
138.501
  9
$ORTHOMODE
 70
     1
  9
$REGENMODE
 70
     1
  9
$FILLMODE
 70
     1
  9
$QTEXTMODE
 70
     0
  9
$MIRRTEXT
 70
     0
  9
$LTSCALE
 40
6.75
  9
$ATTMODE
 70
     1
  9
$TEXTSIZE
 40
0.2
  9
$TRACEWID
 40
0.05
  9
$TEXTSTYLE
  7
STANDARD
  9
$CLAYER
  8
0
  9
$CELTYPE
  6
CONTINUOUS
  9
$CECOLOR
 62
   256
  9
$CELTSCALE
 40
1.0
  9
$DISPSILH
 70
     0
  9
$DIMSCALE
 40
1.0
  9
$DIMASZ
 40
2.5
  9
$DIMEXO
 40
0.25
  9
$DIMDLI
 40
0.2
  9
$DIMRND
 40
0.0
  9
$DIMDLE
 40
0.0
  9
$DIMEXE
 40
1.25
  9
$DIMTP
 40
0.0
  9
$DIMTM
 40
0.0
  9
$DIMTXT
 40
3.0
  9
$DIMCEN
 40
0.0
  9
$DIMTSZ
 40
0.0
  9
$DIMTOL
 70
     0
  9
$DIMLIM
 70
     0
  9
$DIMTIH
 70
     0
  9
$DIMTOH
 70
     0
  9
$DIMSE1
 70
     0
  9
$DIMSE2
 70
     0
  9
$DIMTAD
 70
     3
  9
$DIMZIN
 70
     8
  9
$DIMBLK
  1
Open30
  9
$DIMASO
 70
     1
  9
$DIMSHO
 70
     1
  9
$DIMPOST
  1

  9
$DIMAPOST
  1

  9
$DIMALT
 70
     0
  9
$DIMALTD
 70
     3
  9
$DIMALTF
 40
0.03937007874016
  9
$DIMLFAC
 40
1.0
  9
$DIMTOFL
 70
     1
  9
$DIMTVP
 40
0.0
  9
$DIMTIX
 70
     0
  9
$DIMSOXD
 70
     0
  9
$DIMSAH
 70
     0
  9
$DIMBLK1
  1

  9
$DIMBLK2
  1

  9
$DIMSTYLE
  2
FREE
  9
$DIMCLRD
 70
     0
  9
$DIMCLRE
 70
     0
  9
$DIMCLRT
 70
     4
  9
$DIMTFAC
 40
1.0
  9
$DIMGAP
 40
0.625
  9
$DIMJUST
 70
     0
  9
$DIMSD1
 70
     0
  9
$DIMSD2
 70
     0
  9
$DIMTOLJ
 70
     0
  9
$DIMTZIN
 70
     8
  9
$DIMALTZ
 70
     0
  9
$DIMALTTZ
 70
     0
  9
$DIMUPT
 70
     1
  9
$DIMDEC
 70
     2
  9
$DIMTDEC
 70
     2
  9
$DIMALTU
 70
     2
  9
$DIMALTTD
 70
     3
  9
$DIMTXSTY
  7
STANDARD
  9
$DIMAUNIT
 70
     0
  9
$DIMADEC
 70
     1
  9
$DIMALTRND
 40
0.0
  9
$DIMAZIN
 70
     2
  9
$DIMDSEP
 70
    46
  9
$DIMATFIT
 70
     0
  9
$DIMFRAC
 70
     0
  9
$DIMLDRBLK
  1
Open30
  9
$DIMLUNIT
 70
     2
  9
$DIMLWD
 70
    -2
  9
$DIMLWE
 70
    -2
  9
$DIMTMOVE
 70
     0
  9
$LUNITS
 70
     2
  9
$LUPREC
 70
     4
  9
$SKETCHINC
 40
0.1
  9
$FILLETRAD
 40
0.0
  9
$AUNITS
 70
     0
  9
$AUPREC
 70
     0
  9
$MENU
  1
.
  9
$ELEVATION
 40
0.0
  9
$PELEVATION
 40
0.0
  9
$THICKNESS
 40
0.0
  9
$LIMCHECK
 70
     0
  9
$CHAMFERA
 40
0.0
  9
$CHAMFERB
 40
0.0
  9
$CHAMFERC
 40
0.0
  9
$CHAMFERD
 40
0.0
  9
$SKPOLY
 70
     0
  9
$TDCREATE
 40
2455608.768821296
  9
$TDUCREATE
 40
2455608.393821297
  9
$TDUPDATE
 40
2458429.666858808
  9
$TDUUPDATE
 40
2458429.291858808
  9
$TDINDWG
 40
0.0310595139
  9
$TDUSRTIMER
 40
0.0310510185
  9
$USRTIMER
 70
     1
  9
$ANGBASE
 50
0.0
  9
$ANGDIR
 70
     0
  9
$PDMODE
 70
     0
  9
$PDSIZE
 40
0.0
  9
$PLINEWID
 40
0.0
  9
$SPLFRAME
 70
     0
  9
$SPLINETYPE
 70
     6
  9
$SPLINESEGS
 70
     8
  9
$HANDSEED
  5
1226
  9
$SURFTAB1
 70
     6
  9
$SURFTAB2
 70
     6
  9
$SURFTYPE
 70
     6
  9
$SURFU
 70
     6
  9
$SURFV
 70
     6
  9
$UCSBASE
  2

  9
$UCSNAME
  2

  9
$UCSORG
 10
0.0
 20
0.0
 30
0.0
  9
$UCSXDIR
 10
1.0
 20
0.0
 30
0.0
  9
$UCSYDIR
 10
0.0
 20
1.0
 30
0.0
  9
$UCSORTHOREF
  2

  9
$UCSORTHOVIEW
 70
     0
  9
$UCSORGTOP
 10
0.0
 20
0.0
 30
0.0
  9
$UCSORGBOTTOM
 10
0.0
 20
0.0
 30
0.0
  9
$UCSORGLEFT
 10
0.0
 20
0.0
 30
0.0
  9
$UCSORGRIGHT
 10
0.0
 20
0.0
 30
0.0
  9
$UCSORGFRONT
 10
0.0
 20
0.0
 30
0.0
  9
$UCSORGBACK
 10
0.0
 20
0.0
 30
0.0
  9
$PUCSBASE
  2

  9
$PUCSNAME
  2

  9
$PUCSORG
 10
0.0
 20
0.0
 30
0.0
  9
$PUCSXDIR
 10
1.0
 20
0.0
 30
0.0
  9
$PUCSYDIR
 10
0.0
 20
1.0
 30
0.0
  9
$PUCSORTHOREF
  2

  9
$PUCSORTHOVIEW
 70
     0
  9
$PUCSORGTOP
 10
0.0
 20
0.0
 30
0.0
  9
$PUCSORGBOTTOM
 10
0.0
 20
0.0
 30
0.0
  9
$PUCSORGLEFT
 10
0.0
 20
0.0
 30
0.0
  9
$PUCSORGRIGHT
 10
0.0
 20
0.0
 30
0.0
  9
$PUCSORGFRONT
 10
0.0
 20
0.0
 30
0.0
  9
$PUCSORGBACK
 10
0.0
 20
0.0
 30
0.0
  9
$USERI1
 70
     0
  9
$USERI2
 70
     0
  9
$USERI3
 70
     0
  9
$USERI4
 70
     0
  9
$USERI5
 70
     0
  9
$USERR1
 40
0.0
  9
$USERR2
 40
0.0
  9
$USERR3
 40
0.0
  9
$USERR4
 40
0.0
  9
$USERR5
 40
0.0
  9
$WORLDVIEW
 70
     1
  9
$SHADEDGE
 70
     3
  9
$SHADEDIF
 70
    70
  9
$TILEMODE
 70
     1
  9
$MAXACTVP
 70
    64
  9
$PINSBASE
 10
0.0
 20
0.0
 30
0.0
  9
$PLIMCHECK
 70
     0
  9
$PEXTMIN
 10
1.000000000000000E+20
 20
1.000000000000000E+20
 30
1.000000000000000E+20
  9
$PEXTMAX
 10
-1.000000000000000E+20
 20
-1.000000000000000E+20
 30
-1.000000000000000E+20
  9
$PLIMMIN
 10
0.0
 20
0.0
  9
$PLIMMAX
 10
12.0
 20
9.0
  9
$UNITMODE
 70
     0
  9
$VISRETAIN
 70
     1
  9
$PLINEGEN
 70
     0
  9
$PSLTSCALE
 70
     1
  9
$TREEDEPTH
 70
  3020
  9
$CMLSTYLE
  2
Standard
  9
$CMLJUST
 70
     0
  9
$CMLSCALE
 40
1.0
  9
$PROXYGRAPHICS
 70
     1
  9
$MEASUREMENT
 70
     0
  9
$CELWEIGHT
370
    -1
  9
$ENDCAPS
280
     0
  9
$JOINSTYLE
280
     0
  9
$LWDISPLAY
290
     0
  9
$INSUNITS
 70
     0
  9
$HYPERLINKBASE
  1

  9
$STYLESHEET
  1
N-PLOT.CTB
  9
$XEDIT
290
     1
  9
$CEPSNTYPE
380
     0
  9
$PSTYLEMODE
290
     1
  9
$FINGERPRINTGUID
  2
{745DF3AD-32A0-4A13-AA4C-F89BBFE01EE4}
  9
$VERSIONGUID
  2
{1D7B1248-F61B-4C4C-B773-056DD49A003C}
  9
$EXTNAMES
290
     1
  9
$PSVPSCALE
 40
0.0
  9
$OLESTARTUP
290
     0
  0
ENDSEC
  0
SECTION
  2
CLASSES
  0
CLASS
  1
ACDBDICTIONARYWDFLT
  2
AcDbDictionaryWithDefault
  3
ObjectDBX Classes
 90
        0
280
     0
281
     0
  0
CLASS
  1
MATERIAL
  2
AcDbMaterial
  3
ObjectDBX Classes
 90
     1153
280
     0
281
     0
  0
CLASS
  1
VISUALSTYLE
  2
AcDbVisualStyle
  3
ObjectDBX Classes
 90
     4095
280
     0
281
     0
  0
CLASS
  1
SCALE
  2
AcDbScale
  3
ObjectDBX Classes
 90
     1153
280
     0
281
     0
  0
CLASS
  1
TABLESTYLE
  2
AcDbTableStyle
  3
ObjectDBX Classes
 90
     4095
280
     0
281
     0
  0
CLASS
  1
MLEADERSTYLE
  2
AcDbMLeaderStyle
  3
ACDB_MLEADERSTYLE_CLASS
 90
     4095
280
     0
281
     0
  0
CLASS
  1
DICTIONARYVAR
  2
AcDbDictionaryVar
  3
ObjectDBX Classes
 90
        0
280
     0
281
     0
  0
CLASS
  1
CELLSTYLEMAP
  2
AcDbCellStyleMap
  3
ObjectDBX Classes
 90
     1152
280
     0
281
     0
  0
CLASS
  1
ACDBPLACEHOLDER
  2
AcDbPlaceHolder
  3
ObjectDBX Classes
 90
        0
280
     0
281
     0
  0
CLASS
  1
LAYOUT
  2
AcDbLayout
  3
ObjectDBX Classes
 90
        0
280
     0
281
     0
  0
CLASS
  1
SORTENTSTABLE
  2
AcDbSortentsTable
  3
ObjectDBX Classes
 90
        0
280
     0
281
     0
  0
ENDSEC
  0
SECTION
  2
TABLES
  0
TABLE
  2
VPORT
  5
8
330
0
100
AcDbSymbolTable
 70
     1
  0
VPORT
  5
8C
330
8
100
AcDbSymbolTableRecord
100
AcDbViewportTableRecord
  2
*Active
 70
     0
 10
0.0
 20
0.0
 11
1.0
 21
1.0
 12
-2.327199060221801
 22
-22.58832838439548
 13
0.0
 23
0.0
 14
1.0
 24
1.0
 15
0.0
 25
0.0
 16
0.0
 26
0.0
 36
1.0
 17
0.0
 27
0.0
 37
0.0
 40
633.9218432688458
 41
1.681159420289854
 42
50.0
 43
0.0
 44
0.0
 50
0.0
 51
0.0
 71
     0
 72
  1000
 73
     1
 74
     1
 75
     0
 76
     0
 77
     0
 78
     0
281
     0
 65
     1
110
0.0
120
0.0
130
0.0
111
1.0
121
0.0
131
0.0
112
0.0
122
1.0
132
0.0
 79
     0
146
0.0
  0
ENDTAB
  0
TABLE
  2
LTYPE
  5
5
330
0
100
AcDbSymbolTable
 70
     4
  0
LTYPE
  5
5A
330
5
100
AcDbSymbolTableRecord
100
AcDbLinetypeTableRecord
  2
ByBlock
 70
     0
  3

 72
    65
 73
     0
 40
0.0
  0
LTYPE
  5
5B
330
5
100
AcDbSymbolTableRecord
100
AcDbLinetypeTableRecord
  2
ByLayer
 70
     0
  3

 72
    65
 73
     0
 40
0.0
  0
LTYPE
  5
5C
330
5
100
AcDbSymbolTableRecord
100
AcDbLinetypeTableRecord
  2
CONTINUOUS
 70
     0
  3
Solid-line
 72
    65
 73
     0
 40
0.0
  0
LTYPE
  5
72
330
5
100
AcDbSymbolTableRecord
100
AcDbLinetypeTableRecord
  2
CENTER
 70
     0
  3
CENTER
 72
    65
 73
     4
 40
2.0
 49
1.25
 74
     0
 49
-0.25
 74
     0
 49
0.25
 74
     0
 49
-0.25
 74
     0
  0
LTYPE
  5
78
330
5
100
AcDbSymbolTableRecord
100
AcDbLinetypeTableRecord
  2
DASHED
 70
     0
  3
DASHED
 72
    65
 73
     2
 40
0.75
 49
0.5
 74
     0
 49
-0.25
 74
     0
  0
ENDTAB
  0
TABLE
  2
LAYER
  5
2
102
{ACAD_XDICTIONARY
360
626
102
}
330
0
100
AcDbSymbolTable
 70
     2
  0
LAYER
  5
54
102
{ACAD_XDICTIONARY
360
7E1
102
}
330
2
100
AcDbSymbolTableRecord
100
AcDbLayerTableRecord
  2
0
 70
     0
 62
     7
  6
CONTINUOUS
370
    -3
390
F
  0
LAYER
  5
611
330
2
100
AcDbSymbolTableRecord
100
AcDbLayerTableRecord
  2
Defpoints
 70
     0
 62
     7
  6
CONTINUOUS
290
     0
370
    -3
390
F
  0
ENDTAB
  0
TABLE
  2
STYLE
  5
3
330
0
100
AcDbSymbolTable
 70
     6
  0
STYLE
  5
55
330
3
100
AcDbSymbolTableRecord
100
AcDbTextStyleTableRecord
  2
STANDARD
 70
     0
 40
0.0
 41
1.0
 50
0.0
 71
     0
 42
0.2
  3
TXT
  4
BIGFONT
  0
STYLE
  5
612
330
3
100
AcDbSymbolTableRecord
100
AcDbTextStyleTableRecord
  2
高3.2
 70
     0
 40
3.2
 41
1.0
 50
0.0
 71
     0
 42
3.2
  3
txt.shx
  4
bigfont.shx
  0
STYLE
  5
613
330
3
100
AcDbSymbolTableRecord
100
AcDbTextStyleTableRecord
  2
高6.3
 70
     0
 40
6.299999999999998
 41
1.0
 50
0.0
 71
     0
 42
6.299999999999998
  3
txt.shx
  4
bigfont.shx
  0
STYLE
  5
614
330
3
100
AcDbSymbolTableRecord
100
AcDbTextStyleTableRecord
  2
高2.5
 70
     0
 40
2.5
 41
1.0
 50
0.0
 71
     0
 42
0.2
  3
txt.shx
  4
bigfont.shx
  0
STYLE
  5
615
330
3
100
AcDbSymbolTableRecord
100
AcDbTextStyleTableRecord
  2
高4.5
 70
     0
 40
4.5
 41
1.0
 50
0.0
 71
     0
 42
6.299999999999998
  3
txt.shx
  4
bigfont.shx
  0
STYLE
  5
616
330
3
100
AcDbSymbolTableRecord
100
AcDbTextStyleTableRecord
  2
高2
 70
     0
 40
2.0
 41
1.0
 50
0.0
 71
     0
 42
6.299999999999998
  3
txt.shx
  4
bigfont.shx
  0
ENDTAB
  0
TABLE
  2
VIEW
  5
6
330
0
100
AcDbSymbolTable
 70
     0
  0
ENDTAB
  0
TABLE
  2
UCS
  5
7
330
0
100
AcDbSymbolTable
 70
     0
  0
ENDTAB
  0
TABLE
  2
APPID
  5
9
330
0
100
AcDbSymbolTable
 70
    11
  0
APPID
  5
56
330
9
100
AcDbSymbolTableRecord
100
AcDbRegAppTableRecord
  2
ACAD
 70
     0
  0
APPID
  5
5D
330
9
100
AcDbSymbolTableRecord
100
AcDbRegAppTableRecord
  2
AcadAnnotative
 70
     0
  0
APPID
  5
621
330
9
100
AcDbSymbolTableRecord
100
AcDbRegAppTableRecord
  2
ACAD_DSTYLE_DIMJOGGED_JOGANGLE_SYMBOL
 70
     0
  0
APPID
  5
622
330
9
100
AcDbSymbolTableRecord
100
AcDbRegAppTableRecord
  2
ACAD_DSTYLE_DIMJAG
 70
     0
  0
APPID
  5
623
330
9
100
AcDbSymbolTableRecord
100
AcDbRegAppTableRecord
  2
ACAD_DSTYLE_DIMBREAK
 70
     0
  0
APPID
  5
624
330
9
100
AcDbSymbolTableRecord
100
AcDbRegAppTableRecord
  2
ACAD_DSTYLE_DIMTALN
 70
     0
  0
APPID
  5
797
330
9
100
AcDbSymbolTableRecord
100
AcDbRegAppTableRecord
  2
ACAD_EXEMPT_FROM_CAD_STANDARDS
 70
     0
  0
APPID
  5
82B
330
9
100
AcDbSymbolTableRecord
100
AcDbRegAppTableRecord
  2
ACAD_MLEADERVER
 70
     0
  0
APPID
  5
830
330
9
100
AcDbSymbolTableRecord
100
AcDbRegAppTableRecord
  2
ACAD_DSTYLE_DIMARC_LENGTH_SYMBOL
 70
     0
  0
APPID
  5
831
330
9
100
AcDbSymbolTableRecord
100
AcDbRegAppTableRecord
  2
ACAD_DSTYLE_DIMEXT_LENGTH
 70
     0
  0
APPID
  5
B96
330
9
100
AcDbSymbolTableRecord
100
AcDbRegAppTableRecord
  2
ACAD_PSEXT
 70
     0
  0
ENDTAB
  0
TABLE
  2
DIMSTYLE
  5
A
330
0
100
AcDbSymbolTable
 70
    12
100
AcDbDimStyleTable
 71
     3
340
620
340
736
340
61E
  0
DIMSTYLE
105
57
330
A
100
AcDbSymbolTableRecord
100
AcDbDimStyleTableRecord
  2
Standard
 70
     0
340
55
  0
DIMSTYLE
105
617
330
A
100
AcDbSymbolTableRecord
100
AcDbDimStyleTableRecord
  2
1：1
 70
     0
 41
2.5
 42
0.25
 43
0.2
 44
1.25
 73
     0
 74
     0
 77
     3
 78
     8
 79
     2
140
3.0
141
0.0
143
0.03937007874016
147
0.625
171
     3
172
     1
178
     4
179
     1
271
     2
272
     2
274
     3
283
     0
284
     8
288
     1
289
     0
340
55
341
581
342
581
1001
ACAD_DSTYLE_DIMARC_LENGTH_SYMBOL
1070
   379
1070
     2
1001
ACAD_DSTYLE_DIMEXT_LENGTH
1070
   378
1040
1.25
1001
ACAD_DSTYLE_DIMJOGGED_JOGANGLE_SYMBOL
1070
   384
1040
1.570796326794896
  0
DIMSTYLE
105
618
330
A
100
AcDbSymbolTableRecord
100
AcDbDimStyleTableRecord
  2
2：1
 70
     0
 41
2.5
 42
0.25
 43
0.2
 44
1.25
 73
     0
 74
     0
 77
     3
 78
     8
 79
     2
140
3.0
141
0.0
143
0.03937007874016
144
0.5
147
0.625
171
     3
172
     1
178
     4
179
     1
271
     2
272
     2
274
     3
283
     0
284
     8
288
     1
289
     0
340
55
341
581
342
581
1001
ACAD_DSTYLE_DIMARC_LENGTH_SYMBOL
1070
   379
1070
     2
1001
ACAD_DSTYLE_DIMEXT_LENGTH
1070
   378
1040
1.25
1001
ACAD_DSTYLE_DIMJOGGED_JOGANGLE_SYMBOL
1070
   384
1040
1.570796326794896
  0
DIMSTYLE
105
619
330
A
100
AcDbSymbolTableRecord
100
AcDbDimStyleTableRecord
  2
5：1
 70
     0
 41
2.5
 42
0.25
 43
0.2
 44
1.25
 73
     0
 74
     0
 77
     3
 78
     8
 79
     2
140
3.0
141
0.0
143
0.03937007874016
144
0.2
147
0.625
171
     3
172
     1
178
     4
179
     1
271
     2
272
     2
274
     3
283
     0
284
     8
288
     1
289
     0
340
55
341
581
342
581
1001
ACAD_DSTYLE_DIMARC_LENGTH_SYMBOL
1070
   379
1070
     2
1001
ACAD_DSTYLE_DIMEXT_LENGTH
1070
   378
1040
1.25
1001
ACAD_DSTYLE_DIMJOGGED_JOGANGLE_SYMBOL
1070
   384
1040
1.570796326794896
  0
DIMSTYLE
105
61A
330
A
100
AcDbSymbolTableRecord
100
AcDbDimStyleTableRecord
  2
10：1
 70
     0
 41
2.5
 42
0.25
 43
0.2
 44
1.25
 73
     0
 74
     0
 77
     3
 78
     8
 79
     2
140
3.0
141
0.0
143
0.03937007874016
144
0.1
147
0.625
171
     3
172
     1
178
     4
179
     1
271
     2
272
     2
274
     3
283
     0
284
     8
288
     1
289
     0
340
55
341
581
342
581
1001
ACAD_DSTYLE_DIMARC_LENGTH_SYMBOL
1070
   379
1070
     2
1001
ACAD_DSTYLE_DIMEXT_LENGTH
1070
   378
1040
1.25
1001
ACAD_DSTYLE_DIMJOGGED_JOGANGLE_SYMBOL
1070
   384
1040
1.570796326794896
  0
DIMSTYLE
105
61B
330
A
100
AcDbSymbolTableRecord
100
AcDbDimStyleTableRecord
  2
1／2
 70
     0
 41
2.5
 42
0.25
 43
0.2
 44
1.25
 73
     0
 74
     0
 77
     3
 78
     8
 79
     2
140
3.0
141
0.0
143
0.03937007874016
144
2.0
147
0.625
171
     3
172
     1
178
     4
179
     1
271
     2
272
     2
274
     3
283
     0
284
     8
288
     1
289
     0
340
55
341
581
342
581
1001
ACAD_DSTYLE_DIMARC_LENGTH_SYMBOL
1070
   379
1070
     2
1001
ACAD_DSTYLE_DIMEXT_LENGTH
1070
   378
1040
1.25
1001
ACAD_DSTYLE_DIMJOGGED_JOGANGLE_SYMBOL
1070
   384
1040
1.570796326794896
  0
DIMSTYLE
105
61C
330
A
100
AcDbSymbolTableRecord
100
AcDbDimStyleTableRecord
  2
1／5
 70
     0
 41
2.5
 42
0.25
 43
0.2
 44
1.25
 73
     0
 74
     0
 77
     3
 78
     8
 79
     2
140
3.0
141
0.0
143
0.03937007874016
144
5.0
147
0.625
171
     3
172
     1
178
     4
179
     1
271
     2
272
     2
274
     3
283
     0
284
     8
288
     1
289
     0
340
55
341
581
342
581
1001
ACAD_DSTYLE_DIMARC_LENGTH_SYMBOL
1070
   379
1070
     2
1001
ACAD_DSTYLE_DIMEXT_LENGTH
1070
   378
1040
1.25
1001
ACAD_DSTYLE_DIMJOGGED_JOGANGLE_SYMBOL
1070
   384
1040
1.570796326794896
  0
DIMSTYLE
105
61D
330
A
100
AcDbSymbolTableRecord
100
AcDbDimStyleTableRecord
  2
1／10
 70
     0
 41
2.5
 42
0.25
 43
0.2
 44
1.25
 73
     0
 74
     0
 77
     3
 78
     8
 79
     2
140
3.0
141
0.0
143
0.03937007874016
144
10.0
147
0.625
171
     3
172
     1
178
     4
179
     1
271
     2
272
     2
274
     3
283
     0
284
     8
288
     1
289
     0
340
55
341
581
342
581
1001
ACAD_DSTYLE_DIMARC_LENGTH_SYMBOL
1070
   379
1070
     2
1001
ACAD_DSTYLE_DIMEXT_LENGTH
1070
   378
1040
1.25
1001
ACAD_DSTYLE_DIMJOGGED_JOGANGLE_SYMBOL
1070
   384
1040
1.570796326794896
  0
DIMSTYLE
105
61E
330
A
100
AcDbSymbolTableRecord
100
AcDbDimStyleTableRecord
  2
1／4
 70
     0
 41
2.5
 42
0.25
 43
0.2
 44
1.25
 73
     0
 74
     0
 77
     3
 78
     8
 79
     2
140
3.0
141
0.0
143
0.03937007874016
144
4.0
147
0.625
171
     3
172
     1
178
     4
179
     1
271
     2
272
     2
274
     3
283
     0
284
     8
288
     1
289
     0
340
55
341
581
342
581
1001
ACAD_DSTYLE_DIMARC_LENGTH_SYMBOL
1070
   379
1070
     2
1001
ACAD_DSTYLE_DIMEXT_LENGTH
1070
   378
1040
1.25
1001
ACAD_DSTYLE_DIMJOGGED_JOGANGLE_SYMBOL
1070
   384
1040
1.570796326794896
  0
DIMSTYLE
105
61F
330
A
100
AcDbSymbolTableRecord
100
AcDbDimStyleTableRecord
  2
1／3
 70
     0
 41
2.5
 42
0.25
 43
0.2
 44
1.25
 73
     0
 74
     0
 77
     3
 78
     8
 79
     2
140
3.0
141
0.0
143
0.03937007874016
144
3.0
147
0.625
171
     3
172
     1
178
     4
179
     1
271
     2
272
     2
274
     3
283
     0
284
     8
288
     1
289
     0
340
55
341
581
342
581
1001
ACAD_DSTYLE_DIMARC_LENGTH_SYMBOL
1070
   379
1070
     2
1001
ACAD_DSTYLE_DIMEXT_LENGTH
1070
   378
1040
1.25
1001
ACAD_DSTYLE_DIMJOGGED_JOGANGLE_SYMBOL
1070
   384
1040
1.570796326794896
  0
DIMSTYLE
105
620
330
A
100
AcDbSymbolTableRecord
100
AcDbDimStyleTableRecord
  2
FREE
 70
     0
 41
2.5
 42
0.25
 43
0.2
 44
1.25
 73
     0
 74
     0
 77
     3
 78
     8
 79
     2
140
3.0
141
0.0
143
0.03937007874016
147
0.625
171
     3
172
     1
178
     4
179
     1
271
     2
272
     2
274
     3
283
     0
284
     8
288
     1
289
     0
340
55
341
581
342
581
1001
ACAD_DSTYLE_DIMBREAK
1070
   391
1040
3.75
1001
ACAD_DSTYLE_DIMJAG
1070
   388
1040
1.5
1001
ACAD_DSTYLE_DIMTALN
1070
   392
1070
     0
1001
ACAD_DSTYLE_DIMARC_LENGTH_SYMBOL
1070
   379
1070
     2
1001
ACAD_DSTYLE_DIMEXT_LENGTH
1070
   378
1040
1.25
1001
ACAD_DSTYLE_DIMJOGGED_JOGANGLE_SYMBOL
1070
   384
1040
1.570796326794896
  0
DIMSTYLE
105
736
330
A
100
AcDbSymbolTableRecord
100
AcDbDimStyleTableRecord
  2
1／8
 70
     0
 41
2.5
 42
0.25
 43
0.2
 44
1.25
 73
     0
 74
     0
 77
     3
 78
     8
 79
     2
140
3.0
141
0.0
143
0.03937007874016
144
8.0
147
0.625
171
     3
172
     1
178
     4
179
     1
271
     2
272
     2
274
     3
283
     0
284
     8
288
     1
289
     0
340
55
341
581
342
581
1001
ACAD_DSTYLE_DIMBREAK
1070
   391
1040
0.125
1001
ACAD_DSTYLE_DIMJAG
1070
   388
1040
1.5
1001
ACAD_DSTYLE_DIMTALN
1070
   392
1070
     0
1001
ACAD_DSTYLE_DIMARC_LENGTH_SYMBOL
1070
   379
1070
     2
1001
ACAD_DSTYLE_DIMEXT_LENGTH
1070
   378
1040
1.25
1001
ACAD_DSTYLE_DIMJOGGED_JOGANGLE_SYMBOL
1070
   384
1040
1.570796326794896
  0
ENDTAB
  0
TABLE
  2
BLOCK_RECORD
  5
1
330
0
100
AcDbSymbolTable
 70
    19
  0
BLOCK_RECORD
  5
6B
102
{ACAD_XDICTIONARY
360
8BB
102
}
330
1
100
AcDbSymbolTableRecord
100
AcDbBlockTableRecord
  2
*Model_Space
340
6E
  0
BLOCK_RECORD
  5
67
330
1
100
AcDbSymbolTableRecord
100
AcDbBlockTableRecord
  2
*Paper_Space
340
6A
  0
BLOCK_RECORD
  5
581
330
1
100
AcDbSymbolTableRecord
100
AcDbBlockTableRecord
  2
_Open30
340
0
102
{BLKREFS
331
F44
331
F45
331
F4F
331
F50
331
F5A
331
F5B
331
F65
331
F66
331
F70
331
F71
331
F7B
331
F7C
331
F86
331
F87
331
F91
331
F92
331
F9C
331
F9D
331
FA5
331
FA6
331
1040
331
1041
331
1049
331
104A
331
1052
331
1053
331
105B
331
105C
331
1064
331
1065
331
106D
331
106E
331
1076
331
1077
331
107F
331
1080
102
}
  0
BLOCK_RECORD
  5
737
330
1
100
AcDbSymbolTableRecord
100
AcDbBlockTableRecord
  2
*D1
340
0
  0
BLOCK_RECORD
  5
743
330
1
100
AcDbSymbolTableRecord
100
AcDbBlockTableRecord
  2
*D2
340
0
  0
BLOCK_RECORD
  5
74F
330
1
100
AcDbSymbolTableRecord
100
AcDbBlockTableRecord
  2
*D3
340
0
  0
BLOCK_RECORD
  5
75B
330
1
100
AcDbSymbolTableRecord
100
AcDbBlockTableRecord
  2
*D4
340
0
  0
BLOCK_RECORD
  5
767
330
1
100
AcDbSymbolTableRecord
100
AcDbBlockTableRecord
  2
*D5
340
0
  0
BLOCK_RECORD
  5
773
330
1
100
AcDbSymbolTableRecord
100
AcDbBlockTableRecord
  2
*D6
340
0
  0
BLOCK_RECORD
  5
77F
330
1
100
AcDbSymbolTableRecord
100
AcDbBlockTableRecord
  2
*D7
340
0
  0
BLOCK_RECORD
  5
78B
330
1
100
AcDbSymbolTableRecord
100
AcDbBlockTableRecord
  2
*D8
340
0
  0
BLOCK_RECORD
  5
EB5
330
1
100
AcDbSymbolTableRecord
100
AcDbBlockTableRecord
  2
*D9
340
0
  0
BLOCK_RECORD
  5
EC3
330
1
100
AcDbSymbolTableRecord
100
AcDbBlockTableRecord
  2
*D10
340
0
  0
BLOCK_RECORD
  5
ED1
330
1
100
AcDbSymbolTableRecord
100
AcDbBlockTableRecord
  2
*D11
340
0
  0
BLOCK_RECORD
  5
EDF
330
1
100
AcDbSymbolTableRecord
100
AcDbBlockTableRecord
  2
*D12
340
0
  0
BLOCK_RECORD
  5
EED
330
1
100
AcDbSymbolTableRecord
100
AcDbBlockTableRecord
  2
*D13
340
0
  0
BLOCK_RECORD
  5
EFB
330
1
100
AcDbSymbolTableRecord
100
AcDbBlockTableRecord
  2
*D14
340
0
  0
BLOCK_RECORD
  5
F09
330
1
100
AcDbSymbolTableRecord
100
AcDbBlockTableRecord
  2
*D15
340
0
  0
BLOCK_RECORD
  5
F17
330
1
100
AcDbSymbolTableRecord
100
AcDbBlockTableRecord
  2
*D16
340
0
  0
BLOCK_RECORD
  5
F25
330
1
100
AcDbSymbolTableRecord
100
AcDbBlockTableRecord
  2
*D17
340
0
  0
BLOCK_RECORD
  5
F33
330
1
100
AcDbSymbolTableRecord
100
AcDbBlockTableRecord
  2
*D18
340
0
  0
ENDTAB
  0
ENDSEC
  0
SECTION
  2
BLOCKS
  0
BLOCK
  5
6C
330
6B
100
AcDbEntity
  8
0
100
AcDbBlockBegin
  2
*Model_Space
 70
     0
 10
0.0
 20
0.0
 30
0.0
  3
*Model_Space
  1

  0
ENDBLK
  5
6D
330
6B
100
AcDbEntity
  8
0
100
AcDbBlockEnd
  0
BLOCK
  5
68
330
67
100
AcDbEntity
 67
     1
  8
0
100
AcDbBlockBegin
  2
*Paper_Space
 70
     0
 10
0.0
 20
0.0
 30
0.0
  3
*Paper_Space
  1

  0
ENDBLK
  5
69
330
67
100
AcDbEntity
 67
     1
  8
0
100
AcDbBlockEnd
  0
BLOCK
  5
582
330
581
100
AcDbEntity
  8
0
100
AcDbBlockBegin
  2
_Open30
 70
     0
 10
0.0
 20
0.0
 30
0.0
  3
_Open30
  1

  0
LINE
  5
583
330
581
100
AcDbEntity
  8
0
  6
ByBlock
 62
     0
370
    -2
100
AcDbLine
 10
-1.0
 20
0.267949
 30
0.0
 11
0.0
 21
0.0
 31
0.0
  0
LINE
  5
584
330
581
100
AcDbEntity
  8
0
  6
ByBlock
 62
     0
370
    -2
100
AcDbLine
 10
0.0
 20
0.0
 30
0.0
 11
-1.0
 21
-0.267949
 31
0.0
  0
LINE
  5
585
330
581
100
AcDbEntity
  8
0
  6
ByBlock
 62
     0
370
    -2
100
AcDbLine
 10
0.0
 20
0.0
 30
0.0
 11
-1.0
 21
0.0
 31
0.0
  0
ENDBLK
  5
586
330
581
100
AcDbEntity
  8
0
100
AcDbBlockEnd
  0
BLOCK
  5
738
330
737
100
AcDbEntity
  8
0
100
AcDbBlockBegin
  2
*D1
 70
     1
 10
0.0
 20
0.0
 30
0.0
  3
*D1
  1

  0
LINE
  5
1073
330
737
100
AcDbEntity
  8
0
 62
     0
370
    -2
100
AcDbLine
 10
-53.25095699999999
 20
71.39753899999999
 30
0.0
 11
-53.25095699999999
 21
84.695025
 31
0.0
  0
LINE
  5
1074
330
737
100
AcDbEntity
  8
0
 62
     0
370
    -2
100
AcDbLine
 10
-26.996457
 20
71.39753899999999
 30
0.0
 11
-26.996457
 21
84.695025
 31
0.0
  0
LINE
  5
1075
330
737
100
AcDbEntity
  8
0
 62
     0
370
    -2
100
AcDbLine
 10
-50.75095699999999
 20
83.445025
 30
0.0
 11
-29.496457
 21
83.445025
 31
0.0
  0
INSERT
  5
1076
330
737
100
AcDbEntity
  8
0
 62
     0
370
    -2
100
AcDbBlockReference
  2
_Open30
 10
-53.25095699999999
 20
83.445025
 30
0.0
 41
2.5
 42
2.5
 43
2.5
 50
180.0
  0
INSERT
  5
1077
330
737
100
AcDbEntity
  8
0
 62
     0
370
    -2
100
AcDbBlockReference
  2
_Open30
 10
-26.996457
 20
83.445025
 30
0.0
 41
2.5
 42
2.5
 43
2.5
  0
MTEXT
  5
1078
330
737
100
AcDbEntity
  8
0
 62
     4
100
AcDbMText
 10
-40.12370699999999
 20
85.57002500000001
 30
0.0
 40
3.0
 41
0.0
 71
     5
 72
     1
  1
210
 73
     1
 44
1.0
1001
ACAD
1000
MTEXTBEGIN
1070
    73
1070
     1
1070
    44
1040
1.0
1070
    74
1070
     0
1000
MTEXTEND
  0
POINT
  5
1079
330
737
100
AcDbEntity
  8
Defpoints
 62
     0
100
AcDbPoint
 10
-53.25095699999999
 20
71.147539
 30
0.0
  0
POINT
  5
107A
330
737
100
AcDbEntity
  8
Defpoints
 62
     0
100
AcDbPoint
 10
-26.996457
 20
71.147539
 30
0.0
  0
POINT
  5
107B
330
737
100
AcDbEntity
  8
Defpoints
 62
     0
100
AcDbPoint
 10
-26.996457
 20
83.445025
 30
0.0
  0
ENDBLK
  5
739
330
737
100
AcDbEntity
  8
0
100
AcDbBlockEnd
  0
BLOCK
  5
744
330
743
100
AcDbEntity
  8
0
100
AcDbBlockBegin
  2
*D2
 70
     1
 10
0.0
 20
0.0
 30
0.0
  3
*D2
  1

  0
LINE
  5
1046
330
743
100
AcDbEntity
  8
0
 62
     0
370
    -2
100
AcDbLine
 10
-11.880317
 20
1.422551
 30
0.0
 11
9.76676599999998
 21
1.422550999999993
 31
0.0
  0
LINE
  5
1047
330
743
100
AcDbEntity
  8
0
 62
     0
370
    -2
100
AcDbLine
 10
-32.021457
 20
76.422539
 30
0.0
 11
9.766766
 21
76.42253899999999
 31
0.0
  0
LINE
  5
1048
330
743
100
AcDbEntity
  8
0
 62
     0
370
    -2
100
AcDbLine
 10
8.516765999999982
 20
3.922550999999994
 30
0.0
 11
8.516765999999998
 21
73.92253899999999
 31
0.0
  0
INSERT
  5
1049
330
743
100
AcDbEntity
  8
0
 62
     0
370
    -2
100
AcDbBlockReference
  2
_Open30
 10
8.516765999999982
 20
1.422550999999994
 30
0.0
 41
2.5
 42
2.5
 43
2.5
 50
270.0
  0
INSERT
  5
104A
330
743
100
AcDbEntity
  8
0
 62
     0
370
    -2
100
AcDbBlockReference
  2
_Open30
 10
8.516766
 20
76.42253899999999
 30
0.0
 41
2.5
 42
2.5
 43
2.5
 50
90.0
  0
MTEXT
  5
104B
330
743
100
AcDbEntity
  8
0
 62
     4
100
AcDbMText
 10
6.391765999999985
 20
38.92254499999999
 30
0.0
 40
3.0
 41
0.0
 71
     5
 72
     1
  1
600
 11
0.0000000000000001
 21
1.0
 31
0.0
 73
     1
 44
1.0
1001
ACAD
1000
MTEXTBEGIN
1070
    73
1070
     1
1070
    44
1040
1.0
1070
    74
1070
     0
1000
MTEXTEND
  0
POINT
  5
104C
330
743
100
AcDbEntity
  8
Defpoints
 62
     0
100
AcDbPoint
 10
-12.130317
 20
1.422551
 30
0.0
  0
POINT
  5
104D
330
743
100
AcDbEntity
  8
Defpoints
 62
     0
100
AcDbPoint
 10
-32.271457
 20
76.422539
 30
0.0
  0
POINT
  5
104E
330
743
100
AcDbEntity
  8
Defpoints
 62
     0
100
AcDbPoint
 10
8.516766
 20
76.42253899999999
 30
0.0
  0
ENDBLK
  5
745
330
743
100
AcDbEntity
  8
0
100
AcDbBlockEnd
  0
BLOCK
  5
750
330
74F
100
AcDbEntity
  8
0
100
AcDbBlockBegin
  2
*D3
 70
     1
 10
0.0
 20
0.0
 30
0.0
  3
*D3
  1

  0
LINE
  5
107C
330
74F
100
AcDbEntity
  8
0
 62
     0
370
    -2
100
AcDbLine
 10
-11.892096
 20
1.422551
 30
0.0
 11
0.9218639999999908
 21
1.422550999999996
 31
0.0
  0
LINE
  5
107D
330
74F
100
AcDbEntity
  8
0
 62
     0
370
    -2
100
AcDbLine
 10
-9.874207
 20
38.922539
 30
0.0
 11
0.9218639999999991
 21
38.922539
 31
0.0
  0
LINE
  5
107E
330
74F
100
AcDbEntity
  8
0
 62
     0
370
    -2
100
AcDbLine
 10
-0.3281360000000078
 20
3.922550999999996
 30
0.0
 11
-0.3281360000000006
 21
36.422539
 31
0.0
  0
INSERT
  5
107F
330
74F
100
AcDbEntity
  8
0
 62
     0
370
    -2
100
AcDbBlockReference
  2
_Open30
 10
-0.3281360000000084
 20
1.422550999999996
 30
0.0
 41
2.5
 42
2.5
 43
2.5
 50
270.0
  0
INSERT
  5
1080
330
74F
100
AcDbEntity
  8
0
 62
     0
370
    -2
100
AcDbBlockReference
  2
_Open30
 10
-0.328136
 20
38.922539
 30
0.0
 41
2.5
 42
2.5
 43
2.5
 50
90.0
  0
MTEXT
  5
1081
330
74F
100
AcDbEntity
  8
0
 62
     4
100
AcDbMText
 10
-2.453136000000007
 20
20.172545
 30
0.0
 40
3.0
 41
0.0
 71
     5
 72
     1
  1
300
 11
0.0000000000000001
 21
1.0
 31
0.0
 73
     1
 44
1.0
1001
ACAD
1000
MTEXTBEGIN
1070
    73
1070
     1
1070
    44
1040
1.0
1070
    74
1070
     0
1000
MTEXTEND
  0
POINT
  5
1082
330
74F
100
AcDbEntity
  8
Defpoints
 62
     0
100
AcDbPoint
 10
-12.142096
 20
1.422551
 30
0.0
  0
POINT
  5
1083
330
74F
100
AcDbEntity
  8
Defpoints
 62
     0
100
AcDbPoint
 10
-10.124207
 20
38.922539
 30
0.0
  0
POINT
  5
1084
330
74F
100
AcDbEntity
  8
Defpoints
 62
     0
100
AcDbPoint
 10
-0.328136
 20
38.922539
 30
0.0
  0
ENDBLK
  5
751
330
74F
100
AcDbEntity
  8
0
100
AcDbBlockEnd
  0
BLOCK
  5
75C
330
75B
100
AcDbEntity
  8
0
100
AcDbBlockBegin
  2
*D4
 70
     1
 10
0.0
 20
0.0
 30
0.0
  3
*D4
  1

  0
LINE
  5
103D
330
75B
100
AcDbEntity
  8
0
 62
     0
370
    -2
100
AcDbLine
 10
75.14996899999999
 20
8.922713999999997
 30
0.0
 11
19.33488299999998
 21
8.922714000000013
 31
0.0
  0
LINE
  5
103E
330
75B
100
AcDbEntity
  8
0
 62
     0
370
    -2
100
AcDbLine
 10
75.14996899999999
 20
68.922714
 30
0.0
 11
19.334883
 21
68.92271400000002
 31
0.0
  0
LINE
  5
103F
330
75B
100
AcDbEntity
  8
0
 62
     0
370
    -2
100
AcDbLine
 10
20.58488299999999
 20
11.42271400000001
 30
0.0
 11
20.584883
 21
66.42271400000002
 31
0.0
  0
INSERT
  5
1040
330
75B
100
AcDbEntity
  8
0
 62
     0
370
    -2
100
AcDbBlockReference
  2
_Open30
 10
20.58488299999999
 20
8.922714000000011
 30
0.0
 41
2.5
 42
2.5
 43
2.5
 50
270.0
  0
INSERT
  5
1041
330
75B
100
AcDbEntity
  8
0
 62
     0
370
    -2
100
AcDbBlockReference
  2
_Open30
 10
20.584883
 20
68.92271400000002
 30
0.0
 41
2.5
 42
2.5
 43
2.5
 50
90.0
  0
MTEXT
  5
1042
330
75B
100
AcDbEntity
  8
0
 62
     4
100
AcDbMText
 10
18.45988299999999
 20
38.92271400000002
 30
0.0
 40
3.0
 41
0.0
 71
     5
 72
     1
  1
\U+03C6480
 11
0.0000000000000001
 21
1.0
 31
0.0
 73
     1
 44
1.0
1001
ACAD
1000
MTEXTBEGIN
1070
    73
1070
     1
1070
    44
1040
1.0
1070
    74
1070
     0
1000
MTEXTEND
  0
POINT
  5
1043
330
75B
100
AcDbEntity
  8
Defpoints
 62
     0
100
AcDbPoint
 10
75.399969
 20
8.922713999999997
 30
0.0
  0
POINT
  5
1044
330
75B
100
AcDbEntity
  8
Defpoints
 62
     0
100
AcDbPoint
 10
75.399969
 20
68.922714
 30
0.0
  0
POINT
  5
1045
330
75B
100
AcDbEntity
  8
Defpoints
 62
     0
100
AcDbPoint
 10
20.584883
 20
68.92271400000002
 30
0.0
  0
ENDBLK
  5
75D
330
75B
100
AcDbEntity
  8
0
100
AcDbBlockEnd
  0
BLOCK
  5
768
330
767
100
AcDbEntity
  8
0
100
AcDbBlockBegin
  2
*D5
 70
     1
 10
0.0
 20
0.0
 30
0.0
  3
*D5
  1

  0
LINE
  5
104F
330
767
100
AcDbEntity
  8
0
 62
     0
370
    -2
100
AcDbLine
 10
75.649969
 20
19.298001
 30
0.0
 11
28.87655199999999
 21
19.29800100000001
 31
0.0
  0
LINE
  5
1050
330
767
100
AcDbEntity
  8
0
 62
     0
370
    -2
100
AcDbLine
 10
75.649969
 20
58.548001
 30
0.0
 11
28.87655200000001
 21
58.54800100000001
 31
0.0
  0
LINE
  5
1051
330
767
100
AcDbEntity
  8
0
 62
     0
370
    -2
100
AcDbLine
 10
30.12655199999999
 20
21.79800100000001
 30
0.0
 11
30.126552
 21
56.04800100000001
 31
0.0
  0
INSERT
  5
1052
330
767
100
AcDbEntity
  8
0
 62
     0
370
    -2
100
AcDbBlockReference
  2
_Open30
 10
30.12655199999999
 20
19.29800100000001
 30
0.0
 41
2.5
 42
2.5
 43
2.5
 50
270.0
  0
INSERT
  5
1053
330
767
100
AcDbEntity
  8
0
 62
     0
370
    -2
100
AcDbBlockReference
  2
_Open30
 10
30.126552
 20
58.54800100000001
 30
0.0
 41
2.5
 42
2.5
 43
2.5
 50
90.0
  0
MTEXT
  5
1054
330
767
100
AcDbEntity
  8
0
 62
     4
100
AcDbMText
 10
28.00155199999999
 20
38.92300100000002
 30
0.0
 40
3.0
 41
0.0
 71
     5
 72
     1
  1
\U+03C6314
 11
0.0000000000000001
 21
1.0
 31
0.0
 73
     1
 44
1.0
1001
ACAD
1000
MTEXTBEGIN
1070
    73
1070
     1
1070
    44
1040
1.0
1070
    74
1070
     0
1000
MTEXTEND
  0
POINT
  5
1055
330
767
100
AcDbEntity
  8
Defpoints
 62
     0
100
AcDbPoint
 10
75.899969
 20
19.298001
 30
0.0
  0
POINT
  5
1056
330
767
100
AcDbEntity
  8
Defpoints
 62
     0
100
AcDbPoint
 10
75.899969
 20
58.548001
 30
0.0
  0
POINT
  5
1057
330
767
100
AcDbEntity
  8
Defpoints
 62
     0
100
AcDbPoint
 10
30.126552
 20
58.54800100000001
 30
0.0
  0
ENDBLK
  5
769
330
767
100
AcDbEntity
  8
0
100
AcDbBlockEnd
  0
BLOCK
  5
774
330
773
100
AcDbEntity
  8
0
100
AcDbBlockBegin
  2
*D6
 70
     1
 10
0.0
 20
0.0
 30
0.0
  3
*D6
  1

  0
LINE
  5
106A
330
773
100
AcDbEntity
  8
0
 62
     0
370
    -2
100
AcDbLine
 10
-69.49870699999999
 20
1.172551
 30
0.0
 11
-69.49870699999999
 21
-8.292944
 31
0.0
  0
LINE
  5
106B
330
773
100
AcDbEntity
  8
0
 62
     0
370
    -2
100
AcDbLine
 10
-10.749707
 20
1.172551
 30
0.0
 11
-10.749707
 21
-8.292944
 31
0.0
  0
LINE
  5
106C
330
773
100
AcDbEntity
  8
0
 62
     0
370
    -2
100
AcDbLine
 10
-66.99870699999999
 20
-7.042944
 30
0.0
 11
-13.249707
 21
-7.042944
 31
0.0
  0
INSERT
  5
106D
330
773
100
AcDbEntity
  8
0
 62
     0
370
    -2
100
AcDbBlockReference
  2
_Open30
 10
-69.49870699999999
 20
-7.042944
 30
0.0
 41
2.5
 42
2.5
 43
2.5
 50
180.0
  0
INSERT
  5
106E
330
773
100
AcDbEntity
  8
0
 62
     0
370
    -2
100
AcDbBlockReference
  2
_Open30
 10
-10.749707
 20
-7.042944
 30
0.0
 41
2.5
 42
2.5
 43
2.5
  0
MTEXT
  5
106F
330
773
100
AcDbEntity
  8
0
 62
     4
100
AcDbMText
 10
-40.12420699999999
 20
-4.917944
 30
0.0
 40
3.0
 41
0.0
 71
     5
 72
     1
  1
470
 73
     1
 44
1.0
1001
ACAD
1000
MTEXTBEGIN
1070
    73
1070
     1
1070
    44
1040
1.0
1070
    74
1070
     0
1000
MTEXTEND
  0
POINT
  5
1070
330
773
100
AcDbEntity
  8
Defpoints
 62
     0
100
AcDbPoint
 10
-69.49870699999999
 20
1.422551
 30
0.0
  0
POINT
  5
1071
330
773
100
AcDbEntity
  8
Defpoints
 62
     0
100
AcDbPoint
 10
-10.749707
 20
1.422551
 30
0.0
  0
POINT
  5
1072
330
773
100
AcDbEntity
  8
Defpoints
 62
     0
100
AcDbPoint
 10
-10.749707
 20
-7.042944
 30
0.0
  0
ENDBLK
  5
775
330
773
100
AcDbEntity
  8
0
100
AcDbBlockEnd
  0
BLOCK
  5
780
330
77F
100
AcDbEntity
  8
0
100
AcDbBlockBegin
  2
*D7
 70
     1
 10
0.0
 20
0.0
 30
0.0
  3
*D7
  1

  0
LINE
  5
1058
330
77F
100
AcDbEntity
  8
0
 62
     0
370
    -2
100
AcDbLine
 10
76.649969
 20
9.173289
 30
0.0
 11
76.649969
 21
-9.247149
 31
0.0
  0
LINE
  5
1059
330
77F
100
AcDbEntity
  8
0
 62
     0
370
    -2
100
AcDbLine
 10
117.149969
 20
9.173289
 30
0.0
 11
117.149969
 21
-9.247149
 31
0.0
  0
LINE
  5
105A
330
77F
100
AcDbEntity
  8
0
 62
     0
370
    -2
100
AcDbLine
 10
79.149969
 20
-7.997149
 30
0.0
 11
114.649969
 21
-7.997149
 31
0.0
  0
INSERT
  5
105B
330
77F
100
AcDbEntity
  8
0
 62
     0
370
    -2
100
AcDbBlockReference
  2
_Open30
 10
76.649969
 20
-7.997149
 30
0.0
 41
2.5
 42
2.5
 43
2.5
 50
180.0
  0
INSERT
  5
105C
330
77F
100
AcDbEntity
  8
0
 62
     0
370
    -2
100
AcDbBlockReference
  2
_Open30
 10
117.149969
 20
-7.997149
 30
0.0
 41
2.5
 42
2.5
 43
2.5
  0
MTEXT
  5
105D
330
77F
100
AcDbEntity
  8
0
 62
     4
100
AcDbMText
 10
96.899969
 20
-5.872149
 30
0.0
 40
3.0
 41
0.0
 71
     5
 72
     1
  1
325
 73
     1
 44
1.0
1001
ACAD
1000
MTEXTBEGIN
1070
    73
1070
     1
1070
    44
1040
1.0
1070
    74
1070
     0
1000
MTEXTEND
  0
POINT
  5
105E
330
77F
100
AcDbEntity
  8
Defpoints
 62
     0
100
AcDbPoint
 10
76.649969
 20
9.423289
 30
0.0
  0
POINT
  5
105F
330
77F
100
AcDbEntity
  8
Defpoints
 62
     0
100
AcDbPoint
 10
117.149969
 20
9.423289
 30
0.0
  0
POINT
  5
1060
330
77F
100
AcDbEntity
  8
Defpoints
 62
     0
100
AcDbPoint
 10
117.149969
 20
-7.997149
 30
0.0
  0
ENDBLK
  5
781
330
77F
100
AcDbEntity
  8
0
100
AcDbBlockEnd
  0
BLOCK
  5
78C
330
78B
100
AcDbEntity
  8
0
100
AcDbBlockBegin
  2
*D8
 70
     1
 10
0.0
 20
0.0
 30
0.0
  3
*D8
  1

  0
LINE
  5
1061
330
78B
100
AcDbEntity
  8
0
 62
     0
370
    -2
100
AcDbLine
 10
50.011786
 20
9.710214
 30
0.0
 11
50.011786
 21
-15.702066
 31
0.0
  0
LINE
  5
1062
330
78B
100
AcDbEntity
  8
0
 62
     0
370
    -2
100
AcDbLine
 10
122.549969
 20
9.710214
 30
0.0
 11
122.549969
 21
-15.702066
 31
0.0
  0
LINE
  5
1063
330
78B
100
AcDbEntity
  8
0
 62
     0
370
    -2
100
AcDbLine
 10
52.511786
 20
-14.452066
 30
0.0
 11
120.049969
 21
-14.452066
 31
0.0
  0
INSERT
  5
1064
330
78B
100
AcDbEntity
  8
0
 62
     0
370
    -2
100
AcDbBlockReference
  2
_Open30
 10
50.011786
 20
-14.452066
 30
0.0
 41
2.5
 42
2.5
 43
2.5
 50
180.0
  0
INSERT
  5
1065
330
78B
100
AcDbEntity
  8
0
 62
     0
370
    -2
100
AcDbBlockReference
  2
_Open30
 10
122.549969
 20
-14.452066
 30
0.0
 41
2.5
 42
2.5
 43
2.5
  0
MTEXT
  5
1066
330
78B
100
AcDbEntity
  8
0
 62
     4
100
AcDbMText
 10
86.2808775
 20
-12.327066
 30
0.0
 40
3.0
 41
0.0
 71
     5
 72
     1
  1
580
 73
     1
 44
1.0
1001
ACAD
1000
MTEXTBEGIN
1070
    73
1070
     1
1070
    44
1040
1.0
1070
    74
1070
     0
1000
MTEXTEND
  0
POINT
  5
1067
330
78B
100
AcDbEntity
  8
Defpoints
 62
     0
100
AcDbPoint
 10
50.011786
 20
9.960214
 30
0.0
  0
POINT
  5
1068
330
78B
100
AcDbEntity
  8
Defpoints
 62
     0
100
AcDbPoint
 10
122.549969
 20
9.960214
 30
0.0
  0
POINT
  5
1069
330
78B
100
AcDbEntity
  8
Defpoints
 62
     0
100
AcDbPoint
 10
122.549969
 20
-14.452066
 30
0.0
  0
ENDBLK
  5
78D
330
78B
100
AcDbEntity
  8
0
100
AcDbBlockEnd
  0
BLOCK
  5
EB6
330
EB5
100
AcDbEntity
  8
0
100
AcDbBlockBegin
  2
*D9
 70
     1
 10
0.0
 20
0.0
 30
0.0
  3
*D9
  1

  0
LINE
  5
F3F
330
EB5
100
AcDbEntity
  8
0
 62
     0
370
    -2
100
AcDbLine
 10
454.8408780922956
 20
46.3148846961825
 30
0.0
 11
454.8408780922956
 21
43.40525327417366
 31
0.0
  0
LINE
  5
F40
330
EB5
100
AcDbEntity
  8
0
 62
     0
370
    -2
100
AcDbLine
 10
452.3836910381755
 20
46.3148846961825
 30
0.0
 11
452.3836910381755
 21
43.40525327417366
 31
0.0
  0
LINE
  5
F41
330
EB5
100
AcDbEntity
  8
0
 62
     0
370
    -2
100
AcDbLine
 10
457.3408780922957
 20
44.65525327417366
 30
0.0
 11
459.8408780922958
 21
44.65525327417366
 31
0.0
  0
LINE
  5
F42
330
EB5
100
AcDbEntity
  8
0
 62
     0
370
    -2
100
AcDbLine
 10
449.8836910381753
 20
44.65525327417366
 30
0.0
 11
437.1336910381755
 21
44.65525327417366
 31
0.0
  0
LINE
  5
F43
330
EB5
100
AcDbEntity
  8
0
 62
     0
370
    -2
100
AcDbLine
 10
454.8408780922956
 20
44.65525327417366
 30
0.0
 11
452.3836910381755
 21
44.65525327417366
 31
0.0
  0
INSERT
  5
F44
330
EB5
100
AcDbEntity
  8
0
 62
     0
370
    -2
100
AcDbBlockReference
  2
_Open30
 10
454.8408780922956
 20
44.65525327417366
 30
0.0
 41
2.5
 42
2.5
 43
2.5
 50
180.0
  0
INSERT
  5
F45
330
EB5
100
AcDbEntity
  8
0
 62
     0
370
    -2
100
AcDbBlockReference
  2
_Open30
 10
452.3836910381755
 20
44.65525327417366
 30
0.0
 41
2.5
 42
2.5
 43
2.5
  0
MTEXT
  5
F46
330
EB5
100
AcDbEntity
  8
0
 62
     4
100
AcDbMText
 10
442.2586910381753
 20
46.78025327417366
 30
0.0
 40
3.0
 41
0.0
 71
     5
 72
     1
  1
2.46
 73
     1
 44
1.0
1001
ACAD
1000
MTEXTBEGIN
1070
    73
1070
     1
1070
    44
1040
1.0
1070
    74
1070
     0
1000
MTEXTEND
  0
POINT
  5
F47
330
EB5
100
AcDbEntity
  8
Defpoints
 62
     0
100
AcDbPoint
 10
454.8408780922956
 20
46.56488469618249
 30
0.0
  0
POINT
  5
F48
330
EB5
100
AcDbEntity
  8
Defpoints
 62
     0
100
AcDbPoint
 10
452.3836910381755
 20
46.56488469618249
 30
0.0
  0
POINT
  5
F49
330
EB5
100
AcDbEntity
  8
Defpoints
 62
     0
100
AcDbPoint
 10
452.3836910381755
 20
44.65525327417366
 30
0.0
  0
ENDBLK
  5
EB7
330
EB5
100
AcDbEntity
  8
0
100
AcDbBlockEnd
  0
BLOCK
  5
EC4
330
EC3
100
AcDbEntity
  8
0
100
AcDbBlockBegin
  2
*D10
 70
     1
 10
0.0
 20
0.0
 30
0.0
  3
*D10
  1

  0
LINE
  5
F4A
330
EC3
100
AcDbEntity
  8
0
 62
     0
370
    -2
100
AcDbLine
 10
456.4790029983689
 20
40.85879512342012
 30
0.0
 11
456.4790029983689
 21
38.31290305395679
 31
0.0
  0
LINE
  5
F4B
330
EC3
100
AcDbEntity
  8
0
 62
     0
370
    -2
100
AcDbLine
 10
453.3847672002259
 20
40.85879512342012
 30
0.0
 11
453.3847672002259
 21
38.31290305395679
 31
0.0
  0
LINE
  5
F4C
330
EC3
100
AcDbEntity
  8
0
 62
     0
370
    -2
100
AcDbLine
 10
458.979002998369
 20
39.56290305395679
 30
0.0
 11
461.4790029983689
 21
39.56290305395679
 31
0.0
  0
LINE
  5
F4D
330
EC3
100
AcDbEntity
  8
0
 62
     0
370
    -2
100
AcDbLine
 10
450.884767200226
 20
39.56290305395679
 30
0.0
 11
437.0514338668926
 21
39.56290305395679
 31
0.0
  0
LINE
  5
F4E
330
EC3
100
AcDbEntity
  8
0
 62
     0
370
    -2
100
AcDbLine
 10
456.4790029983689
 20
39.56290305395679
 30
0.0
 11
453.3847672002259
 21
39.56290305395679
 31
0.0
  0
INSERT
  5
F4F
330
EC3
100
AcDbEntity
  8
0
 62
     0
370
    -2
100
AcDbBlockReference
  2
_Open30
 10
456.4790029983689
 20
39.56290305395679
 30
0.0
 41
2.5
 42
2.5
 43
2.5
 50
180.0
  0
INSERT
  5
F50
330
EC3
100
AcDbEntity
  8
0
 62
     0
370
    -2
100
AcDbBlockReference
  2
_Open30
 10
453.3847672002259
 20
39.56290305395679
 30
0.0
 41
2.5
 42
2.5
 43
2.5
  0
MTEXT
  5
F51
330
EC3
100
AcDbEntity
  8
0
 62
     4
100
AcDbMText
 10
442.259767200226
 20
41.43790305395679
 30
0.0
 40
2.5
 41
0.0
 71
     5
 72
     1
  1
15.47
  7
高2.5
 73
     1
 44
1.0
1001
ACAD
1000
MTEXTBEGIN
1070
    73
1070
     1
1070
    44
1040
1.0
1070
    74
1070
     0
1000
MTEXTEND
  0
POINT
  5
F52
330
EC3
100
AcDbEntity
  8
Defpoints
 62
     0
100
AcDbPoint
 10
456.4790029983689
 20
41.10879512342012
 30
0.0
  0
POINT
  5
F53
330
EC3
100
AcDbEntity
  8
Defpoints
 62
     0
100
AcDbPoint
 10
453.3847672002259
 20
41.10879512342012
 30
0.0
  0
POINT
  5
F54
330
EC3
100
AcDbEntity
  8
Defpoints
 62
     0
100
AcDbPoint
 10
453.3847672002259
 20
39.56290305395679
 30
0.0
  0
ENDBLK
  5
EC5
330
EC3
100
AcDbEntity
  8
0
100
AcDbBlockEnd
  0
BLOCK
  5
ED2
330
ED1
100
AcDbEntity
  8
0
100
AcDbBlockBegin
  2
*D11
 70
     1
 10
0.0
 20
0.0
 30
0.0
  3
*D11
  1

  0
LINE
  5
F55
330
ED1
100
AcDbEntity
  8
0
 62
     0
370
    -2
100
AcDbLine
 10
458.2081346064543
 20
35.40270540757365
 30
0.0
 11
458.2081346064543
 21
33.12961774520636
 31
0.0
  0
LINE
  5
F56
330
ED1
100
AcDbEntity
  8
0
 62
     0
370
    -2
100
AcDbLine
 10
454.2038296532626
 20
35.40270540757365
 30
0.0
 11
454.2038296532626
 21
33.12961774520636
 31
0.0
  0
LINE
  5
F57
330
ED1
100
AcDbEntity
  8
0
 62
     0
370
    -2
100
AcDbLine
 10
460.7081346064545
 20
34.37961774520636
 30
0.0
 11
463.2081346064544
 21
34.37961774520636
 31
0.0
  0
LINE
  5
F58
330
ED1
100
AcDbEntity
  8
0
 62
     0
370
    -2
100
AcDbLine
 10
451.7038296532626
 20
34.37961774520636
 30
0.0
 11
439.9538296532626
 21
34.37961774520636
 31
0.0
  0
LINE
  5
F59
330
ED1
100
AcDbEntity
  8
0
 62
     0
370
    -2
100
AcDbLine
 10
458.2081346064543
 20
34.37961774520636
 30
0.0
 11
454.2038296532626
 21
34.37961774520636
 31
0.0
  0
INSERT
  5
F5A
330
ED1
100
AcDbEntity
  8
0
 62
     0
370
    -2
100
AcDbBlockReference
  2
_Open30
 10
458.2081346064543
 20
34.37961774520636
 30
0.0
 41
2.5
 42
2.5
 43
2.5
 50
180.0
  0
INSERT
  5
F5B
330
ED1
100
AcDbEntity
  8
0
 62
     0
370
    -2
100
AcDbBlockReference
  2
_Open30
 10
454.2038296532626
 20
34.37961774520636
 30
0.0
 41
2.5
 42
2.5
 43
2.5
  0
MTEXT
  5
F5C
330
ED1
100
AcDbEntity
  8
0
 62
     4
100
AcDbMText
 10
444.5788296532626
 20
36.60461774520636
 30
0.0
 40
3.2
 41
0.0
 71
     5
 72
     1
  1
8.01
  7
高3.2
 73
     1
 44
1.0
1001
ACAD
1000
MTEXTBEGIN
1070
    73
1070
     1
1070
    44
1040
1.0
1070
    74
1070
     0
1000
MTEXTEND
  0
POINT
  5
F5D
330
ED1
100
AcDbEntity
  8
Defpoints
 62
     0
100
AcDbPoint
 10
458.2081346064543
 20
35.65270540757365
 30
0.0
  0
POINT
  5
F5E
330
ED1
100
AcDbEntity
  8
Defpoints
 62
     0
100
AcDbPoint
 10
454.2038296532626
 20
35.65270540757365
 30
0.0
  0
POINT
  5
F5F
330
ED1
100
AcDbEntity
  8
Defpoints
 62
     0
100
AcDbPoint
 10
454.2038296532626
 20
34.37961774520636
 30
0.0
  0
ENDBLK
  5
ED3
330
ED1
100
AcDbEntity
  8
0
100
AcDbBlockEnd
  0
BLOCK
  5
EE0
330
EDF
100
AcDbEntity
  8
0
100
AcDbBlockBegin
  2
*D12
 70
     1
 10
0.0
 20
0.0
 30
0.0
  3
*D12
  1

  0
LINE
  5
F60
330
EDF
100
AcDbEntity
  8
0
 62
     0
370
    -2
100
AcDbLine
 10
458.1171279044421
 20
30.12848543954203
 30
0.0
 11
458.1171279044421
 21
28.31007193208563
 31
0.0
  0
LINE
  5
F61
330
EDF
100
AcDbEntity
  8
0
 62
     0
370
    -2
100
AcDbLine
 10
453.3847672002259
 20
30.12848543954203
 30
0.0
 11
453.3847672002259
 21
28.31007193208563
 31
0.0
  0
LINE
  5
F62
330
EDF
100
AcDbEntity
  8
0
 62
     0
370
    -2
100
AcDbLine
 10
460.6171279044422
 20
29.56007193208563
 30
0.0
 11
463.1171279044421
 21
29.56007193208563
 31
0.0
  0
LINE
  5
F63
330
EDF
100
AcDbEntity
  8
0
 62
     0
370
    -2
100
AcDbLine
 10
450.884767200226
 20
29.56007193208563
 30
0.0
 11
429.134767200226
 21
29.56007193208563
 31
0.0
  0
LINE
  5
F64
330
EDF
100
AcDbEntity
  8
0
 62
     0
370
    -2
100
AcDbLine
 10
458.1171279044421
 20
29.56007193208563
 30
0.0
 11
453.3847672002259
 21
29.56007193208563
 31
0.0
  0
INSERT
  5
F65
330
EDF
100
AcDbEntity
  8
0
 62
     0
370
    -2
100
AcDbBlockReference
  2
_Open30
 10
458.1171279044421
 20
29.56007193208563
 30
0.0
 41
2.5
 42
2.5
 43
2.5
 50
180.0
  0
INSERT
  5
F66
330
EDF
100
AcDbEntity
  8
0
 62
     0
370
    -2
100
AcDbBlockReference
  2
_Open30
 10
453.3847672002259
 20
29.56007193208563
 30
0.0
 41
2.5
 42
2.5
 43
2.5
  0
MTEXT
  5
F67
330
EDF
100
AcDbEntity
  8
0
 62
     4
100
AcDbMText
 10
438.759767200226
 20
32.43507193208563
 30
0.0
 40
4.5
 41
0.0
 71
     5
 72
     1
  1
47.32
  7
高4.5
 73
     1
 44
1.0
1001
ACAD
1000
MTEXTBEGIN
1070
    73
1070
     1
1070
    44
1040
1.0
1070
    74
1070
     0
1000
MTEXTEND
  0
POINT
  5
F68
330
EDF
100
AcDbEntity
  8
Defpoints
 62
     0
100
AcDbPoint
 10
458.1171279044421
 20
30.37848543954203
 30
0.0
  0
POINT
  5
F69
330
EDF
100
AcDbEntity
  8
Defpoints
 62
     0
100
AcDbPoint
 10
453.3847672002259
 20
30.37848543954203
 30
0.0
  0
POINT
  5
F6A
330
EDF
100
AcDbEntity
  8
Defpoints
 62
     0
100
AcDbPoint
 10
453.3847672002259
 20
29.56007193208563
 30
0.0
  0
ENDBLK
  5
EE1
330
EDF
100
AcDbEntity
  8
0
100
AcDbBlockEnd
  0
BLOCK
  5
EEE
330
EED
100
AcDbEntity
  8
0
100
AcDbBlockBegin
  2
*D13
 70
     1
 10
0.0
 20
0.0
 30
0.0
  3
*D13
  1

  0
LINE
  5
F6B
330
EED
100
AcDbEntity
  8
0
 62
     0
370
    -2
100
AcDbLine
 10
479.5947641724496
 20
46.3148846961825
 30
0.0
 11
479.5947641724496
 21
43.40525327417366
 31
0.0
  0
LINE
  5
F6C
330
EED
100
AcDbEntity
  8
0
 62
     0
370
    -2
100
AcDbLine
 10
477.1375771183293
 20
46.3148846961825
 30
0.0
 11
477.1375771183293
 21
43.40525327417366
 31
0.0
  0
LINE
  5
F6D
330
EED
100
AcDbEntity
  8
0
 62
     0
370
    -2
100
AcDbLine
 10
482.0947641724496
 20
44.65525327417366
 30
0.0
 11
484.5947641724496
 21
44.65525327417366
 31
0.0
  0
LINE
  5
F6E
330
EED
100
AcDbEntity
  8
0
 62
     0
370
    -2
100
AcDbLine
 10
474.6375771183293
 20
44.65525327417366
 30
0.0
 11
453.0375771183293
 21
44.65525327417366
 31
0.0
  0
LINE
  5
F6F
330
EED
100
AcDbEntity
  8
0
 62
     0
370
    -2
100
AcDbLine
 10
479.5947641724496
 20
44.65525327417366
 30
0.0
 11
477.1375771183293
 21
44.65525327417366
 31
0.0
  0
INSERT
  5
F70
330
EED
100
AcDbEntity
  8
0
 62
     0
370
    -2
100
AcDbBlockReference
  2
_Open30
 10
479.5947641724496
 20
44.65525327417366
 30
0.0
 41
2.5
 42
2.5
 43
2.5
 50
180.0
  0
INSERT
  5
F71
330
EED
100
AcDbEntity
  8
0
 62
     0
370
    -2
100
AcDbBlockReference
  2
_Open30
 10
477.1375771183293
 20
44.65525327417366
 30
0.0
 41
2.5
 42
2.5
 43
2.5
  0
MTEXT
  5
F72
330
EED
100
AcDbEntity
  8
0
 62
     4
100
AcDbMText
 10
462.5875771183291
 20
48.43025327417367
 30
0.0
 40
6.299999999999998
 41
0.0
 71
     5
 72
     1
  1
0.25
  7
高6.3
 73
     1
 44
1.0
1001
ACAD
1000
MTEXTBEGIN
1070
    73
1070
     1
1070
    44
1040
1.0
1070
    74
1070
     0
1000
MTEXTEND
  0
POINT
  5
F73
330
EED
100
AcDbEntity
  8
Defpoints
 62
     0
100
AcDbPoint
 10
479.5947641724496
 20
46.56488469618249
 30
0.0
  0
POINT
  5
F74
330
EED
100
AcDbEntity
  8
Defpoints
 62
     0
100
AcDbPoint
 10
477.1375771183293
 20
46.56488469618249
 30
0.0
  0
POINT
  5
F75
330
EED
100
AcDbEntity
  8
Defpoints
 62
     0
100
AcDbPoint
 10
477.1375771183293
 20
44.65525327417366
 30
0.0
  0
ENDBLK
  5
EEF
330
EED
100
AcDbEntity
  8
0
100
AcDbBlockEnd
  0
BLOCK
  5
EFC
330
EFB
100
AcDbEntity
  8
0
100
AcDbBlockBegin
  2
*D14
 70
     1
 10
0.0
 20
0.0
 30
0.0
  3
*D14
  1

  0
LINE
  5
F76
330
EFB
100
AcDbEntity
  8
0
 62
     0
370
    -2
100
AcDbLine
 10
481.2328890785228
 20
40.85879512342012
 30
0.0
 11
481.2328890785228
 21
38.31290305395679
 31
0.0
  0
LINE
  5
F77
330
EFB
100
AcDbEntity
  8
0
 62
     0
370
    -2
100
AcDbLine
 10
478.1386532803798
 20
40.85879512342012
 30
0.0
 11
478.1386532803798
 21
38.31290305395679
 31
0.0
  0
LINE
  5
F78
330
EFB
100
AcDbEntity
  8
0
 62
     0
370
    -2
100
AcDbLine
 10
483.7328890785228
 20
39.56290305395679
 30
0.0
 11
486.2328890785228
 21
39.56290305395679
 31
0.0
  0
LINE
  5
F79
330
EFB
100
AcDbEntity
  8
0
 62
     0
370
    -2
100
AcDbLine
 10
475.6386532803798
 20
39.56290305395679
 30
0.0
 11
463.6386532803798
 21
39.56290305395679
 31
0.0
  0
LINE
  5
F7A
330
EFB
100
AcDbEntity
  8
0
 62
     0
370
    -2
100
AcDbLine
 10
481.2328890785228
 20
39.56290305395679
 30
0.0
 11
478.1386532803798
 21
39.56290305395679
 31
0.0
  0
INSERT
  5
F7B
330
EFB
100
AcDbEntity
  8
0
 62
     0
370
    -2
100
AcDbBlockReference
  2
_Open30
 10
481.2328890785228
 20
39.56290305395679
 30
0.0
 41
2.5
 42
2.5
 43
2.5
 50
180.0
  0
INSERT
  5
F7C
330
EFB
100
AcDbEntity
  8
0
 62
     0
370
    -2
100
AcDbBlockReference
  2
_Open30
 10
478.1386532803798
 20
39.56290305395679
 30
0.0
 41
2.5
 42
2.5
 43
2.5
  0
MTEXT
  5
F7D
330
EFB
100
AcDbEntity
  8
0
 62
     4
100
AcDbMText
 10
468.2636532803797
 20
41.68790305395679
 30
0.0
 40
3.0
 41
0.0
 71
     5
 72
     1
  1
1.55
 73
     1
 44
1.0
1001
ACAD
1000
MTEXTBEGIN
1070
    73
1070
     1
1070
    44
1040
1.0
1070
    74
1070
     0
1000
MTEXTEND
  0
POINT
  5
F7E
330
EFB
100
AcDbEntity
  8
Defpoints
 62
     0
100
AcDbPoint
 10
481.2328890785228
 20
41.10879512342012
 30
0.0
  0
POINT
  5
F7F
330
EFB
100
AcDbEntity
  8
Defpoints
 62
     0
100
AcDbPoint
 10
478.1386532803798
 20
41.10879512342012
 30
0.0
  0
POINT
  5
F80
330
EFB
100
AcDbEntity
  8
Defpoints
 62
     0
100
AcDbPoint
 10
478.1386532803798
 20
39.56290305395679
 30
0.0
  0
ENDBLK
  5
EFD
330
EFB
100
AcDbEntity
  8
0
100
AcDbBlockEnd
  0
BLOCK
  5
F0A
330
F09
100
AcDbEntity
  8
0
100
AcDbBlockBegin
  2
*D15
 70
     1
 10
0.0
 20
0.0
 30
0.0
  3
*D15
  1

  0
LINE
  5
F81
330
F09
100
AcDbEntity
  8
0
 62
     0
370
    -2
100
AcDbLine
 10
482.9620206866081
 20
35.40270540757365
 30
0.0
 11
482.9620206866081
 21
33.12961774520636
 31
0.0
  0
LINE
  5
F82
330
F09
100
AcDbEntity
  8
0
 62
     0
370
    -2
100
AcDbLine
 10
478.9577157334163
 20
35.40270540757365
 30
0.0
 11
478.9577157334163
 21
33.12961774520636
 31
0.0
  0
LINE
  5
F83
330
F09
100
AcDbEntity
  8
0
 62
     0
370
    -2
100
AcDbLine
 10
485.4620206866083
 20
34.37961774520636
 30
0.0
 11
487.9620206866083
 21
34.37961774520636
 31
0.0
  0
LINE
  5
F84
330
F09
100
AcDbEntity
  8
0
 62
     0
370
    -2
100
AcDbLine
 10
476.4577157334165
 20
34.37961774520636
 30
0.0
 11
468.1243824000831
 21
34.37961774520636
 31
0.0
  0
LINE
  5
F85
330
F09
100
AcDbEntity
  8
0
 62
     0
370
    -2
100
AcDbLine
 10
482.9620206866081
 20
34.37961774520636
 30
0.0
 11
478.9577157334163
 21
34.37961774520636
 31
0.0
  0
INSERT
  5
F86
330
F09
100
AcDbEntity
  8
0
 62
     0
370
    -2
100
AcDbBlockReference
  2
_Open30
 10
482.9620206866081
 20
34.37961774520636
 30
0.0
 41
2.5
 42
2.5
 43
2.5
 50
180.0
  0
INSERT
  5
F87
330
F09
100
AcDbEntity
  8
0
 62
     0
370
    -2
100
AcDbBlockReference
  2
_Open30
 10
478.9577157334163
 20
34.37961774520636
 30
0.0
 41
2.5
 42
2.5
 43
2.5
  0
MTEXT
  5
F88
330
F09
100
AcDbEntity
  8
0
 62
     4
100
AcDbMText
 10
470.5827157334163
 20
36.00461774520636
 30
0.0
 40
2.0
 41
0.0
 71
     5
 72
     1
  1
0.8
  7
高2
 73
     1
 44
1.0
1001
ACAD
1000
MTEXTBEGIN
1070
    73
1070
     1
1070
    44
1040
1.0
1070
    74
1070
     0
1000
MTEXTEND
  0
POINT
  5
F89
330
F09
100
AcDbEntity
  8
Defpoints
 62
     0
100
AcDbPoint
 10
482.9620206866081
 20
35.65270540757365
 30
0.0
  0
POINT
  5
F8A
330
F09
100
AcDbEntity
  8
Defpoints
 62
     0
100
AcDbPoint
 10
478.9577157334163
 20
35.65270540757365
 30
0.0
  0
POINT
  5
F8B
330
F09
100
AcDbEntity
  8
Defpoints
 62
     0
100
AcDbPoint
 10
478.9577157334163
 20
34.37961774520636
 30
0.0
  0
ENDBLK
  5
F0B
330
F09
100
AcDbEntity
  8
0
100
AcDbBlockEnd
  0
BLOCK
  5
F18
330
F17
100
AcDbEntity
  8
0
100
AcDbBlockBegin
  2
*D16
 70
     1
 10
0.0
 20
0.0
 30
0.0
  3
*D16
  1

  0
LINE
  5
F8C
330
F17
100
AcDbEntity
  8
0
 62
     0
370
    -2
100
AcDbLine
 10
482.8710139845958
 20
30.12848543954203
 30
0.0
 11
482.8710139845958
 21
28.31007193208563
 31
0.0
  0
LINE
  5
F8D
330
F17
100
AcDbEntity
  8
0
 62
     0
370
    -2
100
AcDbLine
 10
478.1386532803798
 20
30.12848543954203
 30
0.0
 11
478.1386532803798
 21
28.31007193208563
 31
0.0
  0
LINE
  5
F8E
330
F17
100
AcDbEntity
  8
0
 62
     0
370
    -2
100
AcDbLine
 10
485.371013984596
 20
29.56007193208563
 30
0.0
 11
487.871013984596
 21
29.56007193208563
 31
0.0
  0
LINE
  5
F8F
330
F17
100
AcDbEntity
  8
0
 62
     0
370
    -2
100
AcDbLine
 10
475.6386532803798
 20
29.56007193208563
 30
0.0
 11
460.8886532803798
 21
29.56007193208563
 31
0.0
  0
LINE
  5
F90
330
F17
100
AcDbEntity
  8
0
 62
     0
370
    -2
100
AcDbLine
 10
482.8710139845958
 20
29.56007193208563
 30
0.0
 11
478.1386532803798
 21
29.56007193208563
 31
0.0
  0
INSERT
  5
F91
330
F17
100
AcDbEntity
  8
0
 62
     0
370
    -2
100
AcDbBlockReference
  2
_Open30
 10
482.8710139845958
 20
29.56007193208563
 30
0.0
 41
2.5
 42
2.5
 43
2.5
 50
180.0
  0
INSERT
  5
F92
330
F17
100
AcDbEntity
  8
0
 62
     0
370
    -2
100
AcDbBlockReference
  2
_Open30
 10
478.1386532803798
 20
29.56007193208563
 30
0.0
 41
2.5
 42
2.5
 43
2.5
  0
MTEXT
  5
F93
330
F17
100
AcDbEntity
  8
0
 62
     4
100
AcDbMText
 10
467.0136532803798
 20
31.68507193208564
 30
0.0
 40
3.0
 41
0.0
 71
     5
 72
     1
  1
18.93
 73
     1
 44
1.0
1001
ACAD
1000
MTEXTBEGIN
1070
    73
1070
     1
1070
    44
1040
1.0
1070
    74
1070
     0
1000
MTEXTEND
  0
POINT
  5
F94
330
F17
100
AcDbEntity
  8
Defpoints
 62
     0
100
AcDbPoint
 10
482.8710139845958
 20
30.37848543954203
 30
0.0
  0
POINT
  5
F95
330
F17
100
AcDbEntity
  8
Defpoints
 62
     0
100
AcDbPoint
 10
478.1386532803798
 20
30.37848543954203
 30
0.0
  0
POINT
  5
F96
330
F17
100
AcDbEntity
  8
Defpoints
 62
     0
100
AcDbPoint
 10
478.1386532803798
 20
29.56007193208563
 30
0.0
  0
ENDBLK
  5
F19
330
F17
100
AcDbEntity
  8
0
100
AcDbBlockEnd
  0
BLOCK
  5
F26
330
F25
100
AcDbEntity
  8
0
100
AcDbBlockBegin
  2
*D17
 70
     1
 10
0.0
 20
0.0
 30
0.0
  3
*D17
  1

  0
LINE
  5
F97
330
F25
100
AcDbEntity
  8
0
 62
     0
370
    -2
100
AcDbLine
 10
480.0665871334577
 20
25.07264523295225
 30
0.0
 11
480.0665871334577
 21
22.76272415607673
 31
0.0
  0
LINE
  5
F98
330
F25
100
AcDbEntity
  8
0
 62
     0
370
    -2
100
AcDbLine
 10
475.4779119313098
 20
25.07264523295225
 30
0.0
 11
475.4779119313098
 21
22.76272415607673
 31
0.0
  0
LINE
  5
F99
330
F25
100
AcDbEntity
  8
0
 62
     0
370
    -2
100
AcDbLine
 10
482.5665871334576
 20
24.01272415607673
 30
0.0
 11
485.0665871334577
 21
24.01272415607673
 31
0.0
  0
LINE
  5
F9A
330
F25
100
AcDbEntity
  8
0
 62
     0
370
    -2
100
AcDbLine
 10
472.9779119313096
 20
24.01272415607673
 30
0.0
 11
458.2279119313096
 21
24.01272415607673
 31
0.0
  0
LINE
  5
F9B
330
F25
100
AcDbEntity
  8
0
 62
     0
370
    -2
100
AcDbLine
 10
480.0665871334577
 20
24.01272415607673
 30
0.0
 11
475.4779119313098
 21
24.01272415607673
 31
0.0
  0
INSERT
  5
F9C
330
F25
100
AcDbEntity
  8
0
 62
     0
370
    -2
100
AcDbBlockReference
  2
_Open30
 10
480.0665871334577
 20
24.01272415607673
 30
0.0
 41
2.5
 42
2.5
 43
2.5
 50
180.0
  0
INSERT
  5
F9D
330
F25
100
AcDbEntity
  8
0
 62
     0
370
    -2
100
AcDbBlockReference
  2
_Open30
 10
475.4779119313098
 20
24.01272415607673
 30
0.0
 41
2.5
 42
2.5
 43
2.5
  0
MTEXT
  5
F9E
330
F25
100
AcDbEntity
  8
0
 62
     4
100
AcDbMText
 10
464.3529119313098
 20
26.13772415607674
 30
0.0
 40
3.0
 41
0.0
 71
     5
 72
     1
  1
13.77
 73
     1
 44
1.0
1001
ACAD
1000
MTEXTBEGIN
1070
    73
1070
     1
1070
    44
1040
1.0
1070
    74
1070
     0
1000
MTEXTEND
  0
POINT
  5
F9F
330
F25
100
AcDbEntity
  8
Defpoints
 62
     0
100
AcDbPoint
 10
480.0665871334577
 20
25.32264523295225
 30
0.0
  0
POINT
  5
FA0
330
F25
100
AcDbEntity
  8
Defpoints
 62
     0
100
AcDbPoint
 10
475.4779119313098
 20
25.32264523295225
 30
0.0
  0
POINT
  5
FA1
330
F25
100
AcDbEntity
  8
Defpoints
 62
     0
100
AcDbPoint
 10
475.4779119313098
 20
24.01272415607673
 30
0.0
  0
ENDBLK
  5
F27
330
F25
100
AcDbEntity
  8
0
100
AcDbBlockEnd
  0
BLOCK
  5
F34
330
F33
100
AcDbEntity
  8
0
100
AcDbBlockBegin
  2
*D18
 70
     1
 10
0.0
 20
0.0
 30
0.0
  3
*D18
  1

  0
LINE
  5
FA2
330
F33
100
AcDbEntity
  8
0
 62
     0
370
    -2
100
AcDbLine
 10
472.9703043003072
 20
56.00213655122662
 30
0.0
 11
472.9703043003072
 21
63.39867002916435
 31
0.0
  0
LINE
  5
FA3
330
F33
100
AcDbEntity
  8
0
 62
     0
370
    -2
100
AcDbLine
 10
463.0318299308172
 20
56.00213655122662
 30
0.0
 11
463.0318299308172
 21
63.39867002916435
 31
0.0
  0
LINE
  5
FA4
330
F33
100
AcDbEntity
  8
0
 62
     0
370
    -2
100
AcDbLine
 10
470.4703043003073
 20
62.14867002916435
 30
0.0
 11
465.5318299308173
 21
62.14867002916435
 31
0.0
  0
INSERT
  5
FA5
330
F33
100
AcDbEntity
  8
0
 62
     0
370
    -2
100
AcDbBlockReference
  2
_Open30
 10
472.9703043003072
 20
62.14867002916435
 30
0.0
 41
2.5
 42
2.5
 43
2.5
  0
INSERT
  5
FA6
330
F33
100
AcDbEntity
  8
0
 62
     0
370
    -2
100
AcDbBlockReference
  2
_Open30
 10
463.0318299308172
 20
62.14867002916435
 30
0.0
 41
2.5
 42
2.5
 43
2.5
 50
180.0
  0
MTEXT
  5
FA7
330
F33
100
AcDbEntity
  8
0
 62
     4
100
AcDbMText
 10
468.0010671155622
 20
65.22367002916436
 30
0.0
 40
3.0
 41
0.0
 71
     5
 72
     1
  1
9.94\H0.7X;\S+0^ -0.02;
 73
     1
 44
1.0
1001
ACAD
1000
MTEXTBEGIN
1070
    73
1070
     1
1070
    44
1040
1.0
1070
    74
1070
     0
1000
MTEXTEND
  0
POINT
  5
FA8
330
F33
100
AcDbEntity
  8
Defpoints
 62
     0
100
AcDbPoint
 10
472.9703043003072
 20
55.7521365512266
 30
0.0
  0
POINT
  5
FA9
330
F33
100
AcDbEntity
  8
Defpoints
 62
     0
100
AcDbPoint
 10
463.0318299308172
 20
55.7521365512266
 30
0.0
  0
POINT
  5
FAA
330
F33
100
AcDbEntity
  8
Defpoints
 62
     0
100
AcDbPoint
 10
463.0318299308172
 20
62.14867002916435
 30
0.0
  0
ENDBLK
  5
F35
330
F33
100
AcDbEntity
  8
0
100
AcDbBlockEnd
  0
ENDSEC
  0
SECTION
  2
ENTITIES
  0
TEXT
  5
FD
330
6B
100
AcDbEntity
  8
0
 62
     3
100
AcDbText
 10
98.09793800000001
 20
-106.603737
 30
0.0
 40
4.5
  1
防爆コンセントドラム
 41
0.8
  7
高4.5
100
AcDbText
  0
LINE
  5
113
330
6B
100
AcDbEntity
  8
0
100
AcDbLine
 10
78.14520400000002
 20
-62.669524
 30
0.0
 11
149.2572423252607
 21
-62.66952399999999
 31
0.0
  0
LINE
  5
114
330
6B
100
AcDbEntity
  8
0
100
AcDbLine
 10
78.14520400000002
 20
-56.269524
 30
0.0
 11
149.2572423252607
 21
-56.269524
 31
0.0
  0
LINE
  5
115
330
6B
100
AcDbEntity
  8
0
 62
     3
100
AcDbLine
 10
78.14520400000002
 20
-49.86952399999999
 30
0.0
 11
149.2572423252607
 21
-49.86952399999998
 31
0.0
  0
LINE
  5
116
330
6B
100
AcDbEntity
  8
0
 62
     3
100
AcDbLine
 10
44.18678599999998
 20
22.297726
 30
0.0
 11
44.93678599999999
 21
22.297726
 31
0.0
  0
LINE
  5
117
330
6B
100
AcDbEntity
  8
0
 62
     3
100
AcDbLine
 10
117.274969
 20
18.672279
 30
0.0
 11
117.274969
 21
68.091995
 31
0.0
  0
LINE
  5
118
330
6B
100
AcDbEntity
  8
0
 62
     3
100
AcDbLine
 10
117.274969
 20
17.638067
 30
0.0
 11
117.274969
 21
18.672279
 31
0.0
  0
LINE
  5
119
330
6B
100
AcDbEntity
  8
0
 62
     3
100
AcDbLine
 10
117.274969
 20
17.638067
 30
0.0
 11
117.274969
 21
9.753432999999999
 31
0.0
  0
LINE
  5
12F
330
6B
100
AcDbEntity
  8
0
 62
     3
100
AcDbLine
 10
48.411786
 20
40.653964
 30
0.0
 11
48.193245
 21
40.653964
 31
0.0
  0
LINE
  5
130
330
6B
100
AcDbEntity
  8
0
 62
     3
100
AcDbLine
 10
48.411786
 20
37.191464
 30
0.0
 11
47.960862
 21
37.191464
 31
0.0
  0
ARC
  5
131
330
6B
100
AcDbEntity
  8
0
 62
     3
100
AcDbCircle
 10
122.524969
 20
41.547714
 30
0.0
 40
0.5
100
AcDbArc
 50
0.0
 51
90.0
  0
ARC
  5
132
330
6B
100
AcDbEntity
  8
0
 62
     3
100
AcDbCircle
 10
122.524969
 20
36.297714
 30
0.0
 40
0.5
100
AcDbArc
 50
270.0
 51
0.0
  0
TEXT
  5
133
330
6B
100
AcDbEntity
  8
0
 62
     3
100
AcDbText
 10
-153.7623981964152
 20
-6.293590138593736
 30
0.0
 40
4.5
  1
コンセント部詳細
  7
高4.5
100
AcDbText
  0
LINE
  5
134
330
6B
100
AcDbEntity
  8
0
 62
     3
100
AcDbLine
 10
113.524969
 20
3.710214
 30
0.0
 11
59.036786
 21
3.710214
 31
0.0
  0
ARC
  5
135
330
6B
100
AcDbEntity
  8
0
 62
     3
100
AcDbCircle
 10
-133.635402
 20
38.922539
 30
0.0
 40
8.125
100
AcDbArc
 50
61.39595999999999
 51
298.60404
  0
LINE
  5
136
330
6B
100
AcDbEntity
  8
0
 62
     3
100
AcDbLine
 10
93.172917
 20
19.298001
 30
0.0
 11
117.274969
 21
19.298001
 31
0.0
  0
ARC
  5
137
330
6B
100
AcDbEntity
  8
0
 62
     3
100
AcDbCircle
 10
-40.12420699999998
 20
38.994782
 30
0.0
 40
30.072243
100
AcDbArc
 50
237.094156
 51
302.905844
  0
ARC
  5
138
330
6B
100
AcDbEntity
  8
0
 62
     3
100
AcDbCircle
 10
-133.635402
 20
38.994782
 30
0.0
 40
30.072243
100
AcDbArc
 50
237.094156
 51
302.905844
  0
LINE
  5
139
330
6B
100
AcDbEntity
  8
0
 62
     3
100
AcDbLine
 10
-124.763931
 20
62.472545
 30
0.0
 11
-124.540277
 21
62.183989
 31
0.0
  0
LINE
  5
13A
330
6B
100
AcDbEntity
  8
0
100
AcDbLine
 10
45.686786
 20
22.547726
 30
0.0
 11
44.93678599999999
 21
22.547726
 31
0.0
  0
LINE
  5
13B
330
6B
100
AcDbEntity
  8
0
100
AcDbLine
 10
45.686786
 20
24.047726
 30
0.0
 11
45.686786
 21
22.547726
 31
0.0
  0
LINE
  5
13C
330
6B
100
AcDbEntity
  8
0
100
AcDbLine
 10
45.686786
 20
24.047726
 30
0.0
 11
44.93678599999999
 21
24.047726
 31
0.0
  0
CIRCLE
  5
13D
330
6B
100
AcDbEntity
  8
0
100
AcDbCircle
 10
81.372069
 20
18.642878
 30
0.0
 40
0.65625
  0
ARC
  5
13E
330
6B
100
AcDbEntity
  8
0
100
AcDbCircle
 10
82.275115
 20
19.048001
 30
0.0
 40
0.25
100
AcDbArc
 50
90.0
 51
180.0
  0
LINE
  5
13F
330
6B
100
AcDbEntity
  8
0
100
AcDbLine
 10
82.02511499999998
 20
19.048001
 30
0.0
 11
82.02511499999998
 21
18.548001
 31
0.0
  0
LINE
  5
140
330
6B
100
AcDbEntity
  8
0
100
AcDbLine
 10
80.71902299999996
 20
19.048001
 30
0.0
 11
80.71902299999996
 21
18.548001
 31
0.0
  0
ARC
  5
141
330
6B
100
AcDbEntity
  8
0
100
AcDbCircle
 10
80.46902299999997
 20
19.048001
 30
0.0
 40
0.25
100
AcDbArc
 50
0.0
 51
90.0
  0
ARC
  5
142
330
6B
100
AcDbEntity
  8
0
100
AcDbCircle
 10
81.372069
 20
18.642878
 30
0.0
 40
0.90625
100
AcDbArc
 50
183.8685439999999
 51
356.131456
  0
ARC
  5
143
330
6B
100
AcDbEntity
  8
0
100
AcDbCircle
 10
82.77511500000001
 20
18.548001
 30
0.0
 40
0.5
100
AcDbArc
 50
90.0
 51
176.131456
  0
LINE
  5
144
330
6B
100
AcDbEntity
  8
0
100
AcDbLine
 10
82.77511500000001
 20
19.048001
 30
0.0
 11
83.872069
 21
19.048001
 31
0.0
  0
LINE
  5
145
330
6B
100
AcDbEntity
  8
0
100
AcDbLine
 10
83.872069
 20
19.048001
 30
0.0
 11
83.872069
 21
19.298001
 31
0.0
  0
ARC
  5
146
330
6B
100
AcDbEntity
  8
0
100
AcDbCircle
 10
79.96902299999998
 20
18.548001
 30
0.0
 40
0.5
100
AcDbArc
 50
3.868544
 51
90.0
  0
LINE
  5
147
330
6B
100
AcDbEntity
  8
0
100
AcDbLine
 10
79.96902299999998
 20
19.048001
 30
0.0
 11
78.87206899999998
 21
19.048001
 31
0.0
  0
LINE
  5
148
330
6B
100
AcDbEntity
  8
0
100
AcDbLine
 10
78.87206899999998
 20
19.048001
 30
0.0
 11
78.87206899999998
 21
19.298001
 31
0.0
  0
LINE
  5
149
330
6B
100
AcDbEntity
  8
0
 62
     3
100
AcDbLine
 10
80.46902299999997
 20
19.298001
 30
0.0
 11
93.172917
 21
19.298001
 31
0.0
  0
LINE
  5
14A
330
6B
100
AcDbEntity
  8
0
 62
     3
100
AcDbLine
 10
80.46902299999997
 20
19.298001
 30
0.0
 11
76.649969
 21
19.298001
 31
0.0
  0
ARC
  5
14B
330
6B
100
AcDbEntity
  8
0
100
AcDbCircle
 10
-40.12420699999998
 20
45.922539
 30
0.0
 40
0.75
100
AcDbArc
 50
335.375682
 51
204.624318
  0
ARC
  5
14C
330
6B
100
AcDbEntity
  8
0
100
AcDbCircle
 10
-40.12420699999998
 20
38.922539
 30
0.0
 40
1.875
100
AcDbArc
 50
342.0
 51
162.0
  0
LINE
  5
14D
330
6B
100
AcDbEntity
  8
0
100
AcDbLine
 10
-53.736012
 20
53.948558
 30
0.0
 11
-55.150226
 21
52.534345
 31
0.0
  0
ARC
  5
14E
330
6B
100
AcDbEntity
  8
0
100
AcDbCircle
 10
-53.559236
 20
52.357568
 30
0.0
 40
0.5
100
AcDbArc
 50
51.93480800000001
 51
308.065192
  0
CIRCLE
  5
14F
330
6B
100
AcDbEntity
  8
0
100
AcDbCircle
 10
-57.09476999999999
 20
55.89310199999999
 30
0.0
 40
0.5
  0
CIRCLE
  5
150
330
6B
100
AcDbEntity
  8
0
100
AcDbCircle
 10
-44.951048
 20
24.067048
 30
0.0
 40
0.995175
  0
CIRCLE
  5
151
330
6B
100
AcDbEntity
  8
0
100
AcDbCircle
 10
-139.69758
 20
35.422539
 30
0.0
 40
0.75
  0
ARC
  5
152
330
6B
100
AcDbEntity
  8
0
100
AcDbCircle
 10
-133.635402
 20
38.922539
 30
0.0
 40
1.875
100
AcDbArc
 50
0.0
 51
180.0
  0
ARC
  5
153
330
6B
100
AcDbEntity
  8
0
100
AcDbCircle
 10
-133.635402
 20
38.922539
 30
0.0
 40
1.875
100
AcDbArc
 50
180.0
 51
0.0
  0
CIRCLE
  5
154
330
6B
100
AcDbEntity
  8
0
100
AcDbCircle
 10
-133.635402
 20
45.922539
 30
0.0
 40
0.75
  0
CIRCLE
  5
155
330
6B
100
AcDbEntity
  8
0
100
AcDbCircle
 10
-147.070431
 20
53.35756800000001
 30
0.0
 40
0.5
  0
LINE
  5
156
330
6B
100
AcDbEntity
  8
0
100
AcDbLine
 10
-147.247207
 20
54.94855799999999
 30
0.0
 11
-148.661421
 21
53.53434499999998
 31
0.0
  0
LINE
  5
157
330
6B
100
AcDbEntity
  8
0
100
AcDbLine
 10
-149.014974
 20
56.716325
 30
0.0
 11
-150.429188
 21
55.30211099999998
 31
0.0
  0
CIRCLE
  5
158
330
6B
100
AcDbEntity
  8
0
100
AcDbCircle
 10
-150.605965
 20
56.893102
 30
0.0
 40
0.5
  0
LINE
  5
162
330
6B
100
AcDbEntity
  8
0
 62
     3
100
AcDbLine
 10
-119.385402
 20
48.422539
 30
0.0
 11
-120.635402
 21
48.422539
 31
0.0
  0
ARC
  5
163
330
6B
100
AcDbEntity
  8
0
100
AcDbCircle
 10
-133.635402
 20
38.994782
 30
0.0
 40
29.072243
100
AcDbArc
 50
237.403627
 51
302.596373
  0
LINE
  5
164
330
6B
100
AcDbEntity
  8
0
100
AcDbLine
 10
-124.385402
 20
61.727561
 30
0.0
 11
-124.385402
 21
59.172539
 31
0.0
  0
ARC
  5
165
330
6B
100
AcDbEntity
  8
0
100
AcDbCircle
 10
-125.135402
 20
61.727561
 30
0.0
 40
0.75
100
AcDbArc
 50
0.0
 51
37.486195
  0
ARC
  5
195
330
6B
100
AcDbEntity
  8
0
100
AcDbCircle
 10
-133.635402
 20
39.922539
 30
0.0
 40
20.75
100
AcDbArc
 50
90.0
 51
119.925897
  0
ARC
  5
196
330
6B
100
AcDbEntity
  8
0
100
AcDbCircle
 10
-133.635402
 20
39.922539
 30
0.0
 40
22.25
100
AcDbArc
 50
90.0
 51
117.726221
  0
ARC
  5
197
330
6B
100
AcDbEntity
  8
0
100
AcDbCircle
 10
-133.635402
 20
39.922539
 30
0.0
 40
20.75
100
AcDbArc
 50
129.243277
 51
180.0
  0
ARC
  5
198
330
6B
100
AcDbEntity
  8
0
100
AcDbCircle
 10
-133.635402
 20
39.922539
 30
0.0
 40
22.25
100
AcDbArc
 50
126.154616
 51
180.0
  0
ARC
  5
199
330
6B
100
AcDbEntity
  8
0
100
AcDbCircle
 10
-155.135402
 20
39.922539
 30
0.0
 40
0.75
100
AcDbArc
 50
180.0
 51
0.0
  0
ARC
  5
19A
330
6B
100
AcDbEntity
  8
0
100
AcDbCircle
 10
-40.12420699999998
 20
38.994782
 30
0.0
 40
29.072243
100
AcDbArc
 50
237.403627
 51
302.596373
  0
LINE
  5
19B
330
6B
100
AcDbEntity
  8
0
100
AcDbLine
 10
-30.874207
 20
60.727561
 30
0.0
 11
-30.874207
 21
59.172539
 31
0.0
  0
LINE
  5
1C0
330
6B
100
AcDbEntity
  8
0
100
AcDbLine
 10
-31.029082
 20
61.183989
 30
0.0
 11
-31.232718
 21
61.449505
 31
0.0
  0
ARC
  5
1C1
330
6B
100
AcDbEntity
  8
0
100
AcDbCircle
 10
-40.12420699999998
 20
38.922539
 30
0.0
 40
22.25
100
AcDbArc
 50
90.0
 51
117.726221
  0
ARC
  5
1C2
330
6B
100
AcDbEntity
  8
0
100
AcDbCircle
 10
-40.12420699999998
 20
38.922539
 30
0.0
 40
20.75
100
AcDbArc
 50
90.0
 51
119.925897
  0
ARC
  5
1C3
330
6B
100
AcDbEntity
  8
0
100
AcDbCircle
 10
-40.12420699999998
 20
38.922539
 30
0.0
 40
20.75
100
AcDbArc
 50
129.243277
 51
180.0
  0
ARC
  5
1C4
330
6B
100
AcDbEntity
  8
0
100
AcDbCircle
 10
-40.12420699999998
 20
38.922539
 30
0.0
 40
22.25
100
AcDbArc
 50
126.154616
 51
180.0
  0
ARC
  5
1C5
330
6B
100
AcDbEntity
  8
0
100
AcDbCircle
 10
-61.624207
 20
38.922539
 30
0.0
 40
0.75
100
AcDbArc
 50
180.0
 51
0.0
  0
LINE
  5
1C6
330
6B
100
AcDbEntity
  8
0
100
AcDbLine
 10
166.399061
 20
30.157172
 30
0.0
 11
166.399061
 21
25.91258
 31
0.0
  0
LINE
  5
1C7
330
6B
100
AcDbEntity
  8
0
100
AcDbLine
 10
165.899061
 20
30.157172
 30
0.0
 11
165.899061
 21
25.91258
 31
0.0
  0
ARC
  5
1C8
330
6B
100
AcDbEntity
  8
0
100
AcDbCircle
 10
166.149061
 20
31.688422
 30
0.0
 40
5.78125
100
AcDbArc
 50
251.075356
 51
288.924644
  0
ARC
  5
1C9
330
6B
100
AcDbEntity
  8
0
100
AcDbCircle
 10
166.149061
 20
21.375922
 30
0.0
 40
5.78125
100
AcDbArc
 50
92.478428
 51
108.924644
  0
ARC
  5
1CA
330
6B
100
AcDbEntity
  8
0
100
AcDbCircle
 10
166.149061
 20
21.375922
 30
0.0
 40
5.78125
100
AcDbArc
 50
71.075356
 51
87.52157199999997
  0
ARC
  5
1CB
330
6B
100
AcDbEntity
  8
0
100
AcDbCircle
 10
168.649061
 20
26.375922
 30
0.0
 40
0.78125
100
AcDbArc
 50
90.0
 51
143.130102
  0
ARC
  5
1CC
330
6B
100
AcDbEntity
  8
0
100
AcDbCircle
 10
168.649061
 20
26.688422
 30
0.0
 40
0.78125
100
AcDbArc
 50
216.869898
 51
270.0
  0
ARC
  5
1CD
330
6B
100
AcDbEntity
  8
0
100
AcDbCircle
 10
163.649061
 20
26.688422
 30
0.0
 40
0.78125
100
AcDbArc
 50
270.0
 51
323.130102
  0
ARC
  5
1CE
330
6B
100
AcDbEntity
  8
0
100
AcDbCircle
 10
163.649061
 20
26.375922
 30
0.0
 40
0.78125
100
AcDbArc
 50
36.869898
 51
90.0
  0
ARC
  5
1CF
330
6B
100
AcDbEntity
  8
0
100
AcDbCircle
 10
168.649061
 20
26.688422
 30
0.0
 40
0.78125
100
AcDbArc
 50
270.0
 51
323.130102
  0
LINE
  5
1D0
330
6B
100
AcDbEntity
  8
0
100
AcDbLine
 10
169.274061
 20
26.844672
 30
0.0
 11
169.274061
 21
26.219672
 31
0.0
  0
ARC
  5
1D1
330
6B
100
AcDbEntity
  8
0
100
AcDbCircle
 10
168.649061
 20
26.375922
 30
0.0
 40
0.78125
100
AcDbArc
 50
36.869898
 51
90.0
  0
LINE
  5
1D2
330
6B
100
AcDbEntity
  8
0
100
AcDbLine
 10
168.649061
 20
27.157172
 30
0.0
 11
166.399061
 21
27.157172
 31
0.0
  0
LINE
  5
1D3
330
6B
100
AcDbEntity
  8
0
100
AcDbLine
 10
165.899061
 20
27.157172
 30
0.0
 11
163.649061
 21
27.157172
 31
0.0
  0
ARC
  5
1D4
330
6B
100
AcDbEntity
  8
0
100
AcDbCircle
 10
163.649061
 20
26.375922
 30
0.0
 40
0.78125
100
AcDbArc
 50
90.0
 51
143.130102
  0
LINE
  5
1D5
330
6B
100
AcDbEntity
  8
0
100
AcDbLine
 10
163.024061
 20
26.844672
 30
0.0
 11
163.024061
 21
26.219672
 31
0.0
  0
ARC
  5
1D6
330
6B
100
AcDbEntity
  8
0
100
AcDbCircle
 10
163.649061
 20
26.688422
 30
0.0
 40
0.78125
100
AcDbArc
 50
216.869898
 51
270.0
  0
LINE
  5
1D7
330
6B
100
AcDbEntity
  8
0
100
AcDbLine
 10
163.649061
 20
25.907172
 30
0.0
 11
168.649061
 21
25.907172
 31
0.0
  0
ARC
  5
1D8
330
6B
100
AcDbEntity
  8
0
100
AcDbCircle
 10
163.524061
 20
28.907172
 30
0.0
 40
0.5
100
AcDbArc
 50
180.0
 51
270.0
  0
LINE
  5
1D9
330
6B
100
AcDbEntity
  8
0
100
AcDbLine
 10
163.524061
 20
28.407172
 30
0.0
 11
165.899061
 21
28.407172
 31
0.0
  0
LINE
  5
1DA
330
6B
100
AcDbEntity
  8
0
100
AcDbLine
 10
168.274061
 20
27.907172
 30
0.0
 11
168.274061
 21
27.157172
 31
0.0
  0
LINE
  5
1DB
330
6B
100
AcDbEntity
  8
0
100
AcDbLine
 10
164.024061
 20
27.907172
 30
0.0
 11
164.024061
 21
27.157172
 31
0.0
  0
LINE
  5
1DC
330
6B
100
AcDbEntity
  8
0
100
AcDbLine
 10
165.899061
 20
27.907172
 30
0.0
 11
163.024061
 21
27.907172
 31
0.0
  0
LINE
  5
1DD
330
6B
100
AcDbEntity
  8
0
100
AcDbLine
 10
163.024061
 20
27.907172
 30
0.0
 11
163.024061
 21
28.157172
 31
0.0
  0
LINE
  5
1DE
330
6B
100
AcDbEntity
  8
0
100
AcDbLine
 10
165.899061
 20
28.157172
 30
0.0
 11
163.024061
 21
28.157172
 31
0.0
  0
LINE
  5
1DF
330
6B
100
AcDbEntity
  8
0
100
AcDbLine
 10
169.274061
 20
28.157172
 30
0.0
 11
166.399061
 21
28.157172
 31
0.0
  0
LINE
  5
1E0
330
6B
100
AcDbEntity
  8
0
100
AcDbLine
 10
169.274061
 20
27.907172
 30
0.0
 11
169.274061
 21
28.157172
 31
0.0
  0
LINE
  5
1E1
330
6B
100
AcDbEntity
  8
0
100
AcDbLine
 10
169.274061
 20
27.907172
 30
0.0
 11
166.399061
 21
27.907172
 31
0.0
  0
LINE
  5
1E2
330
6B
100
AcDbEntity
  8
0
100
AcDbLine
 10
168.774061
 20
28.407172
 30
0.0
 11
166.399061
 21
28.407172
 31
0.0
  0
ARC
  5
1E3
330
6B
100
AcDbEntity
  8
0
100
AcDbCircle
 10
168.774061
 20
28.907172
 30
0.0
 40
0.5
100
AcDbArc
 50
270.0
 51
0.0
  0
LINE
  5
1E4
330
6B
100
AcDbEntity
  8
0
100
AcDbLine
 10
163.524061
 20
30.157172
 30
0.0
 11
168.774061
 21
30.157172
 31
0.0
  0
ARC
  5
1E5
330
6B
100
AcDbEntity
  8
0
100
AcDbCircle
 10
168.774061
 20
29.657172
 30
0.0
 40
0.5
100
AcDbArc
 50
0.0
 51
90.0
  0
ARC
  5
1E6
330
6B
100
AcDbEntity
  8
0
100
AcDbCircle
 10
163.524061
 20
29.657172
 30
0.0
 40
0.5
100
AcDbArc
 50
90.0
 51
180.0
  0
LINE
  5
1E7
330
6B
100
AcDbEntity
  8
0
100
AcDbLine
 10
163.024061
 20
29.657172
 30
0.0
 11
163.024061
 21
28.907172
 31
0.0
  0
CIRCLE
  5
1E8
330
6B
100
AcDbEntity
  8
0
100
AcDbCircle
 10
164.024061
 20
29.282172
 30
0.0
 40
0.625
  0
CIRCLE
  5
1E9
330
6B
100
AcDbEntity
  8
0
100
AcDbCircle
 10
168.274061
 20
29.282172
 30
0.0
 40
0.625
  0
LINE
  5
1EA
330
6B
100
AcDbEntity
  8
0
100
AcDbLine
 10
169.274061
 20
28.907172
 30
0.0
 11
169.274061
 21
29.657172
 31
0.0
  0
LINE
  5
1EB
330
6B
100
AcDbEntity
  8
0
100
AcDbLine
 10
167.554529
 20
30.45629
 30
0.0
 11
167.554529
 21
30.14379
 31
0.0
  0
ARC
  5
1EC
330
6B
100
AcDbEntity
  8
0
100
AcDbCircle
 10
167.429529
 20
30.45629
 30
0.0
 40
0.125
100
AcDbArc
 50
0.0
 51
90.0
  0
LINE
  5
1ED
330
6B
100
AcDbEntity
  8
0
100
AcDbLine
 10
167.429529
 20
30.58129
 30
0.0
 11
164.929529
 21
30.58129
 31
0.0
  0
ARC
  5
1EE
330
6B
100
AcDbEntity
  8
0
100
AcDbCircle
 10
164.929529
 20
30.45629
 30
0.0
 40
0.125
100
AcDbArc
 50
90.0
 51
180.0
  0
LINE
  5
1EF
330
6B
100
AcDbEntity
  8
0
100
AcDbLine
 10
164.804529
 20
30.45629
 30
0.0
 11
164.804529
 21
30.14379
 31
0.0
  0
LINE
  5
1F0
330
6B
100
AcDbEntity
  8
0
100
AcDbLine
 10
161.774061
 20
16.282172
 30
0.0
 11
161.774061
 21
13.779582
 31
0.0
  0
LINE
  5
1F1
330
6B
100
AcDbEntity
  8
0
100
AcDbLine
 10
170.524061
 20
16.282172
 30
0.0
 11
170.524061
 21
13.550142
 31
0.0
  0
ARC
  5
1F2
330
6B
100
AcDbEntity
  8
0
100
AcDbCircle
 10
170.149061
 20
17.032172
 30
0.0
 40
0.625
100
AcDbArc
 50
180.0
 51
270.0
  0
LINE
  5
1F3
330
6B
100
AcDbEntity
  8
0
100
AcDbLine
 10
170.399061
 20
16.407172
 30
0.0
 11
161.899061
 21
16.407172
 31
0.0
  0
LINE
  5
1F4
330
6B
100
AcDbEntity
  8
0
 62
     3
100
AcDbLine
 10
164.024061
 20
25.907172
 30
0.0
 11
162.7497469999999
 21
16.859541
 31
0.0
  0
LINE
  5
1F5
330
6B
100
AcDbEntity
  8
0
 62
     3
100
AcDbLine
 10
168.274061
 20
25.907172
 30
0.0
 11
169.548376
 21
16.859541
 31
0.0
  0
LINE
  5
1F6
330
6B
100
AcDbEntity
  8
0
 62
     3
100
AcDbLine
 10
166.929529
 20
30.58129
 30
0.0
 11
166.929529
 21
39.359809
 31
0.0
  0
LINE
  5
1F7
330
6B
100
AcDbEntity
  8
0
 62
     3
100
AcDbLine
 10
165.429529
 20
30.58129
 30
0.0
 11
165.429529
 21
39.359809
 31
0.0
  0
CIRCLE
  5
1FE
330
6B
100
AcDbEntity
  8
0
100
AcDbCircle
 10
86.595743
 20
91.683032
 30
0.0
 40
5.0
  0
TEXT
  5
1FF
330
6B
100
AcDbEntity
  8
0
 62
     4
100
AcDbText
 10
84.2005365954667
 20
88.64408709098961
 30
0.0
 40
6.299999999999998
  1
4
  7
高6.3
100
AcDbText
  0
CIRCLE
  5
206
330
6B
100
AcDbEntity
  8
0
100
AcDbCircle
 10
98.19445899999999
 20
90.95700499999999
 30
0.0
 40
5.0
  0
TEXT
  5
207
330
6B
100
AcDbEntity
  8
0
 62
     4
100
AcDbText
 10
95.97499390789542
 20
87.71076476104633
 30
0.0
 40
6.299999999999998
  1
3
  7
高6.3
100
AcDbText
  0
CIRCLE
  5
20E
330
6B
100
AcDbEntity
  8
0
100
AcDbCircle
 10
111.005983
 20
91.683032
 30
0.0
 40
5.0
  0
TEXT
  5
20F
330
6B
100
AcDbEntity
  8
0
 62
     4
100
AcDbText
 10
109.0186258926599
 20
88.48213340596499
 30
0.0
 40
6.299999999999998
  1
2
  7
高6.3
100
AcDbText
  0
CIRCLE
  5
216
330
6B
100
AcDbEntity
  8
0
100
AcDbCircle
 10
131.610694
 20
91.683032
 30
0.0
 40
5.0
  0
TEXT
  5
217
330
6B
100
AcDbEntity
  8
0
 62
     4
100
AcDbText
 10
130.42744959636
 20
88.88844422776106
 30
0.0
 40
6.299999999999998
  1
1
  7
高6.3
100
AcDbText
  0
CIRCLE
  5
218
330
6B
100
AcDbEntity
  8
0
 62
     3
100
AcDbCircle
 10
116.187878
 20
61.420638
 30
0.0
 40
0.994716
  0
CIRCLE
  5
219
330
6B
100
AcDbEntity
  8
0
 62
     3
100
AcDbCircle
 10
114.187878
 20
61.420638
 30
0.0
 40
0.994716
  0
CIRCLE
  5
21A
330
6B
100
AcDbEntity
  8
0
 62
     3
100
AcDbCircle
 10
112.187878
 20
61.420638
 30
0.0
 40
0.994716
  0
CIRCLE
  5
21B
330
6B
100
AcDbEntity
  8
0
 62
     3
100
AcDbCircle
 10
110.187878
 20
61.420638
 30
0.0
 40
0.994716
  0
CIRCLE
  5
21C
330
6B
100
AcDbEntity
  8
0
 62
     3
100
AcDbCircle
 10
108.187878
 20
61.420638
 30
0.0
 40
0.994716
  0
CIRCLE
  5
21D
330
6B
100
AcDbEntity
  8
0
 62
     3
100
AcDbCircle
 10
106.187878
 20
61.420638
 30
0.0
 40
0.994716
  0
CIRCLE
  5
21E
330
6B
100
AcDbEntity
  8
0
 62
     3
100
AcDbCircle
 10
104.187878
 20
61.420638
 30
0.0
 40
0.994716
  0
CIRCLE
  5
21F
330
6B
100
AcDbEntity
  8
0
 62
     3
100
AcDbCircle
 10
102.187878
 20
61.420638
 30
0.0
 40
0.994716
  0
CIRCLE
  5
220
330
6B
100
AcDbEntity
  8
0
 62
     3
100
AcDbCircle
 10
100.187878
 20
61.420638
 30
0.0
 40
0.994716
  0
CIRCLE
  5
221
330
6B
100
AcDbEntity
  8
0
 62
     3
100
AcDbCircle
 10
98.187878
 20
61.420638
 30
0.0
 40
0.994716
  0
CIRCLE
  5
222
330
6B
100
AcDbEntity
  8
0
 62
     3
100
AcDbCircle
 10
96.18787799999999
 20
61.420638
 30
0.0
 40
0.994716
  0
CIRCLE
  5
223
330
6B
100
AcDbEntity
  8
0
 62
     3
100
AcDbCircle
 10
94.187878
 20
61.420638
 30
0.0
 40
0.994716
  0
CIRCLE
  5
224
330
6B
100
AcDbEntity
  8
0
 62
     3
100
AcDbCircle
 10
92.18787799999999
 20
61.420638
 30
0.0
 40
0.994716
  0
CIRCLE
  5
225
330
6B
100
AcDbEntity
  8
0
 62
     3
100
AcDbCircle
 10
90.187878
 20
61.420638
 30
0.0
 40
0.994716
  0
CIRCLE
  5
226
330
6B
100
AcDbEntity
  8
0
 62
     3
100
AcDbCircle
 10
88.187878
 20
61.420638
 30
0.0
 40
0.994716
  0
CIRCLE
  5
227
330
6B
100
AcDbEntity
  8
0
 62
     3
100
AcDbCircle
 10
86.18787799999998
 20
61.420638
 30
0.0
 40
0.994716
  0
CIRCLE
  5
228
330
6B
100
AcDbEntity
  8
0
 62
     3
100
AcDbCircle
 10
84.187878
 20
61.420638
 30
0.0
 40
0.994716
  0
CIRCLE
  5
229
330
6B
100
AcDbEntity
  8
0
 62
     3
100
AcDbCircle
 10
82.18787799999999
 20
61.420638
 30
0.0
 40
0.994716
  0
CIRCLE
  5
22A
330
6B
100
AcDbEntity
  8
0
 62
     3
100
AcDbCircle
 10
80.187878
 20
61.420638
 30
0.0
 40
0.994716
  0
CIRCLE
  5
22B
330
6B
100
AcDbEntity
  8
0
 62
     3
100
AcDbCircle
 10
78.18787799999999
 20
61.420638
 30
0.0
 40
0.994716
  0
LINE
  5
22C
330
6B
100
AcDbEntity
  8
0
  6
CENTER
100
AcDbLine
 10
43.841649
 20
38.923001
 30
0.0
 11
125.05241
 21
38.923001
 31
0.0
  0
CIRCLE
  5
22D
330
6B
100
AcDbEntity
  8
0
 62
     3
100
AcDbCircle
 10
116.187878
 20
16.425365
 30
0.0
 40
0.994716
  0
CIRCLE
  5
22E
330
6B
100
AcDbEntity
  8
0
 62
     3
100
AcDbCircle
 10
114.187878
 20
16.425365
 30
0.0
 40
0.994716
  0
CIRCLE
  5
22F
330
6B
100
AcDbEntity
  8
0
 62
     3
100
AcDbCircle
 10
112.187878
 20
16.425365
 30
0.0
 40
0.994716
  0
CIRCLE
  5
230
330
6B
100
AcDbEntity
  8
0
 62
     3
100
AcDbCircle
 10
110.187878
 20
16.425365
 30
0.0
 40
0.994716
  0
CIRCLE
  5
231
330
6B
100
AcDbEntity
  8
0
 62
     3
100
AcDbCircle
 10
108.187878
 20
16.425365
 30
0.0
 40
0.994716
  0
CIRCLE
  5
232
330
6B
100
AcDbEntity
  8
0
 62
     3
100
AcDbCircle
 10
106.187878
 20
16.425365
 30
0.0
 40
0.994716
  0
CIRCLE
  5
233
330
6B
100
AcDbEntity
  8
0
 62
     3
100
AcDbCircle
 10
104.187878
 20
16.425365
 30
0.0
 40
0.994716
  0
CIRCLE
  5
234
330
6B
100
AcDbEntity
  8
0
 62
     3
100
AcDbCircle
 10
100.187878
 20
16.425365
 30
0.0
 40
0.994716
  0
CIRCLE
  5
235
330
6B
100
AcDbEntity
  8
0
 62
     3
100
AcDbCircle
 10
98.187878
 20
16.425365
 30
0.0
 40
0.994716
  0
CIRCLE
  5
236
330
6B
100
AcDbEntity
  8
0
 62
     3
100
AcDbCircle
 10
96.18787799999999
 20
16.425365
 30
0.0
 40
0.994716
  0
CIRCLE
  5
237
330
6B
100
AcDbEntity
  8
0
 62
     3
100
AcDbCircle
 10
94.187878
 20
16.425365
 30
0.0
 40
0.994716
  0
CIRCLE
  5
238
330
6B
100
AcDbEntity
  8
0
 62
     3
100
AcDbCircle
 10
92.18787799999999
 20
16.425365
 30
0.0
 40
0.994716
  0
CIRCLE
  5
239
330
6B
100
AcDbEntity
  8
0
 62
     3
100
AcDbCircle
 10
90.187878
 20
16.425365
 30
0.0
 40
0.994716
  0
CIRCLE
  5
23A
330
6B
100
AcDbEntity
  8
0
 62
     3
100
AcDbCircle
 10
88.187878
 20
16.425365
 30
0.0
 40
0.994716
  0
CIRCLE
  5
23B
330
6B
100
AcDbEntity
  8
0
 62
     3
100
AcDbCircle
 10
86.18787799999998
 20
16.425365
 30
0.0
 40
0.994716
  0
CIRCLE
  5
23C
330
6B
100
AcDbEntity
  8
0
 62
     3
100
AcDbCircle
 10
84.187878
 20
16.425365
 30
0.0
 40
0.994716
  0
CIRCLE
  5
23D
330
6B
100
AcDbEntity
  8
0
 62
     3
100
AcDbCircle
 10
78.18787799999999
 20
16.425365
 30
0.0
 40
0.994716
  0
CIRCLE
  5
23E
330
6B
100
AcDbEntity
  8
0
 62
     3
100
AcDbCircle
 10
80.187878
 20
16.425365
 30
0.0
 40
0.994716
  0
CIRCLE
  5
23F
330
6B
100
AcDbEntity
  8
0
 62
     3
100
AcDbCircle
 10
82.18787799999999
 20
16.425365
 30
0.0
 40
0.994716
  0
CIRCLE
  5
240
330
6B
100
AcDbEntity
  8
0
 62
     3
100
AcDbCircle
 10
102.187878
 20
16.425365
 30
0.0
 40
0.994716
  0
TEXT
  5
241
330
6B
100
AcDbEntity
  8
0
 62
     3
100
AcDbText
 10
80.50961631608926
 20
-55.700052
 30
0.0
 40
4.5
  1
防爆型電工ドラム（屋内型）
  7
高4.5
100
AcDbText
  0
TEXT
  5
242
330
6B
100
AcDbEntity
  8
0
 62
     3
100
AcDbText
 10
99.868185
 20
-120.465575
 30
0.0
 40
3.2
  1
別　掲
  7
高3.2
100
AcDbText
  0
TEXT
  5
243
330
6B
100
AcDbEntity
  8
0
 62
     3
100
AcDbText
 10
159.200285
 20
-127.549034
 30
0.0
 40
3.2
  1
2001.06.26
  7
高3.2
100
AcDbText
  0
TEXT
  5
244
330
6B
100
AcDbEntity
  8
0
 62
     3
100
AcDbText
 10
155.754413
 20
-0.587011
 30
0.0
 40
4.5
  1
防爆プラグ
 41
0.833333
100
AcDbText
  0
LINE
  5
245
330
6B
100
AcDbEntity
  8
0
100
AcDbLine
 10
156.092623977406
 20
-1.39826827463537
 30
0.0
 11
178.092623977406
 21
-1.39826827463537
 31
0.0
  0
LINE
  5
246
330
6B
100
AcDbEntity
  8
0
 62
     3
100
AcDbLine
 10
-38.249207
 20
34.235039
 30
0.0
 11
-39.675776
 21
34.235039
 31
0.0
  0
CIRCLE
  5
247
330
6B
100
AcDbEntity
  8
0
 62
     3
100
AcDbCircle
 10
-44.951048
 20
24.067048
 30
0.0
 40
2.586622999999999
  0
TEXT
  5
248
330
6B
100
AcDbEntity
  8
0
 62
     3
100
AcDbText
 10
-184.5321525475412
 20
-138.0
 30
0.0
 40
3.2
  1
部　品　名
 41
0.8
  7
高3.2
100
AcDbText
  0
TEXT
  5
249
330
6B
100
AcDbEntity
  8
0
 62
     3
100
AcDbText
 10
-98.23477434142477
 20
-138.0
 30
0.0
 40
3.2
  1
個数　
 41
0.8
  7
高3.2
100
AcDbText
  0
TEXT
  5
24A
330
6B
100
AcDbEntity
  8
0
 62
     3
100
AcDbText
 10
-161.1140594117448
 20
-138.0
 30
0.0
 40
3.2
  1
材　　質　　　　
 41
0.8
  7
高3.2
100
AcDbText
  0
TEXT
  5
24B
330
6B
100
AcDbEntity
  8
0
 62
     3
100
AcDbText
 10
-139.2074087552091
 20
-138.0
 30
0.0
 40
3.2
  1
備　　　　考　
 41
0.8
  7
高3.2
100
AcDbText
  0
TEXT
  5
24C
330
6B
100
AcDbEntity
  8
0
 62
     3
100
AcDbText
 10
-193.5
 20
-138.0
 30
0.0
 40
3.2
  1
　番号　
 41
0.8
  7
高3.2
100
AcDbText
  0
TEXT
  5
24D
330
6B
100
AcDbEntity
  8
0
 62
     3
100
AcDbText
 10
129.526386
 20
-127.639623
 30
0.0
 40
3.2
  1
1/8
  7
高3.2
100
AcDbText
  0
LINE
  5
24E
330
6B
100
AcDbEntity
  8
0
 62
     3
100
AcDbLine
 10
117.149969
 20
40.797726
 30
0.0
 11
117.274969
 21
40.797726
 31
0.0
  0
LINE
  5
24F
330
6B
100
AcDbEntity
  8
0
 62
     3
100
AcDbLine
 10
117.149969
 20
37.047726
 30
0.0
 11
117.274969
 21
37.047726
 31
0.0
  0
LINE
  5
250
330
6B
100
AcDbEntity
  8
0
 62
     3
100
AcDbLine
 10
123.024969
 20
36.297714
 30
0.0
 11
123.024969
 21
41.547714
 31
0.0
  0
LINE
  5
251
330
6B
100
AcDbEntity
  8
0
 62
     3
100
AcDbLine
 10
45.78678599999999
 20
35.797726
 30
0.0
 11
47.86732299999999
 21
35.797726
 31
0.0
  0
LINE
  5
252
330
6B
100
AcDbEntity
  8
0
100
AcDbLine
 10
35.036786
 20
24.047726
 30
0.0
 11
34.286786
 21
24.047726
 31
0.0
  0
LINE
  5
253
330
6B
100
AcDbEntity
  8
0
100
AcDbLine
 10
34.286786
 20
24.047726
 30
0.0
 11
34.286786
 21
22.547726
 31
0.0
  0
LINE
  5
254
330
6B
100
AcDbEntity
  8
0
100
AcDbLine
 10
35.036786
 20
22.547726
 30
0.0
 11
34.286786
 21
22.547726
 31
0.0
  0
ARC
  5
255
330
6B
100
AcDbEntity
  8
0
100
AcDbCircle
 10
-133.635402
 20
38.922039
 30
0.0
 40
2.1875
100
AcDbArc
 50
328.997281
 51
211.002719
  0
ARC
  5
256
330
6B
100
AcDbEntity
  8
0
100
AcDbCircle
 10
-133.635402
 20
38.922039
 30
0.0
 40
2.1875
100
AcDbArc
 50
211.002719
 51
328.997281
  0
LINE
  5
257
330
6B
100
AcDbEntity
  8
0
 62
     3
100
AcDbLine
 10
44.41178599999999
 20
24.297726
 30
0.0
 11
44.41178599999999
 21
23.297726
 31
0.0
  0
LINE
  5
258
330
6B
100
AcDbEntity
  8
0
 62
     3
100
AcDbLine
 10
35.349286
 20
24.547726
 30
0.0
 11
35.036786
 21
24.797726
 31
0.0
  0
LINE
  5
259
330
6B
100
AcDbEntity
  8
0
 62
     3
100
AcDbLine
 10
44.41178599999999
 20
22.297726
 30
0.0
 11
44.53678599999999
 21
21.985226
 31
0.0
  0
LINE
  5
25A
330
6B
100
AcDbEntity
  8
0
 62
     3
100
AcDbLine
 10
44.41178599999999
 20
22.297726
 30
0.0
 11
44.41178599999999
 21
23.297726
 31
0.0
  0
LINE
  5
25B
330
6B
100
AcDbEntity
  8
0
100
AcDbLine
 10
35.349286
 20
23.797726
 30
0.0
 11
42.03678599999999
 21
23.797726
 31
0.0
  0
LINE
  5
25C
330
6B
100
AcDbEntity
  8
0
100
AcDbLine
 10
42.03678599999999
 20
24.547726
 30
0.0
 11
42.03678599999999
 21
23.797726
 31
0.0
  0
LINE
  5
25D
330
6B
100
AcDbEntity
  8
0
100
AcDbLine
 10
42.03678599999999
 20
24.547726
 30
0.0
 11
42.259008
 21
24.797726
 31
0.0
  0
LINE
  5
25E
330
6B
100
AcDbEntity
  8
0
100
AcDbLine
 10
42.03678599999999
 20
23.797726
 30
0.0
 11
42.286786
 21
23.610226
 31
0.0
  0
LINE
  5
25F
330
6B
100
AcDbEntity
  8
0
100
AcDbLine
 10
42.286786
 20
23.610226
 30
0.0
 11
42.286786
 21
22.985226
 31
0.0
  0
LINE
  5
260
330
6B
100
AcDbEntity
  8
0
100
AcDbLine
 10
35.036786
 20
22.985226
 30
0.0
 11
42.286786
 21
22.985226
 31
0.0
  0
LINE
  5
261
330
6B
100
AcDbEntity
  8
0
100
AcDbLine
 10
42.03678599999999
 20
22.797726
 30
0.0
 11
42.286786
 21
22.985226
 31
0.0
  0
LINE
  5
262
330
6B
100
AcDbEntity
  8
0
100
AcDbLine
 10
42.03678599999999
 20
22.797726
 30
0.0
 11
42.03678599999999
 21
22.047726
 31
0.0
  0
LINE
  5
263
330
6B
100
AcDbEntity
  8
0
100
AcDbLine
 10
42.03678599999999
 20
22.047726
 30
0.0
 11
42.259008
 21
21.797726
 31
0.0
  0
LINE
  5
264
330
6B
100
AcDbEntity
  8
0
100
AcDbLine
 10
35.349286
 20
22.047726
 30
0.0
 11
42.03678599999999
 21
22.047726
 31
0.0
  0
LINE
  5
265
330
6B
100
AcDbEntity
  8
0
100
AcDbLine
 10
35.349286
 20
22.047726
 30
0.0
 11
35.036786
 21
21.797726
 31
0.0
  0
LINE
  5
266
330
6B
100
AcDbEntity
  8
0
100
AcDbLine
 10
35.349286
 20
22.797726
 30
0.0
 11
35.349286
 21
22.047726
 31
0.0
  0
LINE
  5
267
330
6B
100
AcDbEntity
  8
0
100
AcDbLine
 10
35.036786
 20
22.985226
 30
0.0
 11
35.349286
 21
22.797726
 31
0.0
  0
LINE
  5
268
330
6B
100
AcDbEntity
  8
0
100
AcDbLine
 10
35.036786
 20
23.610226
 30
0.0
 11
35.349286
 21
23.797726
 31
0.0
  0
LINE
  5
269
330
6B
100
AcDbEntity
  8
0
100
AcDbLine
 10
35.349286
 20
23.797726
 30
0.0
 11
35.349286
 21
24.547726
 31
0.0
  0
LINE
  5
26A
330
6B
100
AcDbEntity
  8
0
100
AcDbLine
 10
35.349286
 20
24.547726
 30
0.0
 11
42.03678599999999
 21
24.547726
 31
0.0
  0
LINE
  5
26B
330
6B
100
AcDbEntity
  8
0
100
AcDbLine
 10
42.53678599999999
 20
24.485226
 30
0.0
 11
42.53678599999999
 21
22.110226
 31
0.0
  0
LINE
  5
26C
330
6B
100
AcDbEntity
  8
0
100
AcDbLine
 10
44.911786
 20
21.985226
 30
0.0
 11
44.911786
 21
23.297726
 31
0.0
  0
LINE
  5
26D
330
6B
100
AcDbEntity
  8
0
100
AcDbLine
 10
44.911786
 20
24.610226
 30
0.0
 11
44.911786
 21
23.297726
 31
0.0
  0
LINE
  5
26E
330
6B
100
AcDbEntity
  8
0
 62
     3
100
AcDbLine
 10
123.684014
 20
18.993106
 30
0.0
 11
123.684014
 21
17.893106
 31
0.0
  0
ARC
  5
26F
330
6B
100
AcDbEntity
  8
0
 62
     3
100
AcDbCircle
 10
123.434014
 20
17.893106
 30
0.0
 40
0.25
100
AcDbArc
 50
270.0
 51
0.0
  0
ARC
  5
270
330
6B
100
AcDbEntity
  8
0
 62
     3
100
AcDbCircle
 10
123.434014
 20
18.993106
 30
0.0
 40
0.25
100
AcDbArc
 50
0.0
 51
90.0
  0
LINE
  5
271
330
6B
100
AcDbEntity
  8
0
 62
     3
100
AcDbLine
 10
116.784014
 20
18.843106
 30
0.0
 11
116.891706
 21
18.950798
 31
0.0
  0
LINE
  5
272
330
6B
100
AcDbEntity
  8
0
 62
     3
100
AcDbLine
 10
118.184014
 20
17.843106
 30
0.0
 11
118.184014
 21
17.643106
 31
0.0
  0
LINE
  5
273
330
6B
100
AcDbEntity
  8
0
 62
     3
100
AcDbLine
 10
118.184014
 20
19.043106
 30
0.0
 11
118.184014
 21
19.243106
 31
0.0
  0
LINE
  5
274
330
6B
100
AcDbEntity
  8
0
 62
     3
100
AcDbLine
 10
122.549969
 20
17.643106
 30
0.0
 11
123.434014
 21
17.643106
 31
0.0
  0
LINE
  5
275
330
6B
100
AcDbEntity
  8
0
 62
     3
100
AcDbLine
 10
122.549969
 20
19.243106
 30
0.0
 11
123.434014
 21
19.243106
 31
0.0
  0
LINE
  5
276
330
6B
100
AcDbEntity
  8
0
 62
     3
100
AcDbLine
 10
76.524969
 20
68.422714
 30
0.0
 11
76.524969
 21
9.422713999999999
 31
0.0
  0
LINE
  5
277
330
6B
100
AcDbEntity
  8
0
100
AcDbLine
 10
116.88376
 20
17.935981
 30
0.0
 11
116.784014
 21
18.051073
 31
0.0
  0
LINE
  5
278
330
6B
100
AcDbEntity
  8
0
100
AcDbLine
 10
116.784014
 20
18.843106
 30
0.0
 11
116.784014
 21
18.051073
 31
0.0
  0
LINE
  5
279
330
6B
100
AcDbEntity
  8
0
100
AcDbLine
 10
116.88376
 20
17.935981
 30
0.0
 11
116.88376
 21
18.950798
 31
0.0
  0
LINE
  5
27A
330
6B
100
AcDbEntity
  8
0
100
AcDbLine
 10
116.88376
 20
17.935981
 30
0.0
 11
118.184014
 21
17.843106
 31
0.0
  0
LINE
  5
27B
330
6B
100
AcDbEntity
  8
0
100
AcDbLine
 10
116.891706
 20
18.950798
 30
0.0
 11
118.184014
 21
19.043106
 31
0.0
  0
LINE
  5
27C
330
6B
100
AcDbEntity
  8
0
100
AcDbLine
 10
119.774969
 20
17.643106
 30
0.0
 11
118.184014
 21
17.643106
 31
0.0
  0
LINE
  5
27D
330
6B
100
AcDbEntity
  8
0
100
AcDbLine
 10
119.774969
 20
19.243106
 30
0.0
 11
118.184014
 21
19.243106
 31
0.0
  0
LINE
  5
27E
330
6B
100
AcDbEntity
  8
0
 62
     3
100
AcDbLine
 10
-195.0
 20
138.5
 30
0.0
 11
-195.0
 21
-138.5
 31
0.0
  0
LINE
  5
27F
330
6B
100
AcDbEntity
  8
0
 62
     3
100
AcDbLine
 10
195.0
 20
-138.5
 30
0.0
 11
195.0
 21
138.5
 31
0.0
  0
LINE
  5
280
330
6B
100
AcDbEntity
  8
0
 62
     3
100
AcDbLine
 10
-195.0
 20
138.5
 30
0.0
 11
195.0
 21
138.5
 31
0.0
  0
LINE
  5
281
330
6B
100
AcDbEntity
  8
0
 62
     3
100
AcDbLine
 10
-195.0
 20
-138.5
 30
0.0
 11
195.0
 21
-138.5
 31
0.0
  0
LINE
  5
282
330
6B
100
AcDbEntity
  8
0
 62
     3
100
AcDbLine
 10
-69.49870699999999
 20
2.810038999999998
 30
0.0
 11
-69.49870699999999
 21
0.672551
 31
0.0
  0
ARC
  5
283
330
6B
100
AcDbEntity
  8
0
 62
     3
100
AcDbCircle
 10
-161.622402
 20
2.810038999999998
 30
0.0
 40
1.387499999999999
100
AcDbArc
 50
138.173766
 51
318.173766
  0
LINE
  5
284
330
6B
100
AcDbEntity
  8
0
 62
     3
100
AcDbLine
 10
119.774969
 20
40.922714
 30
0.0
 11
117.274969
 21
40.922714
 31
0.0
  0
LINE
  5
285
330
6B
100
AcDbEntity
  8
0
 62
     3
100
AcDbLine
 10
119.774969
 20
36.922714
 30
0.0
 11
117.274969
 21
36.922714
 31
0.0
  0
LINE
  5
286
330
6B
100
AcDbEntity
  8
0
  6
DASHED
100
AcDbLine
 10
76.524969
 20
30.797714
 30
0.0
 11
76.124969
 21
30.797714
 31
0.0
  0
ARC
  5
287
330
6B
100
AcDbEntity
  8
0
 62
     3
100
AcDbCircle
 10
-68.111207
 20
2.810038999999998
 30
0.0
 40
1.387499999999999
100
AcDbArc
 50
138.173766
 51
318.173766
  0
ARC
  5
288
330
6B
100
AcDbEntity
  8
0
 62
     3
100
AcDbCircle
 10
-12.137207
 20
2.810038999999998
 30
0.0
 40
1.387499999999999
100
AcDbArc
 50
221.826234
 51
41.82623399999999
  0
CIRCLE
  5
289
330
6B
100
AcDbEntity
  8
0
100
AcDbCircle
 10
55.330877
 20
38.922714
 30
0.0
 40
0.75
  0
ARC
  5
28A
330
6B
100
AcDbEntity
  8
0
100
AcDbCircle
 10
55.330877
 20
40.922714
 30
0.0
 40
0.75
100
AcDbArc
 50
0.0
 51
180.0
  0
CIRCLE
  5
28B
330
6B
100
AcDbEntity
  8
0
100
AcDbCircle
 10
47.03678599999999
 20
38.922714
 30
0.0
 40
0.75
  0
ARC
  5
28C
330
6B
100
AcDbEntity
  8
0
100
AcDbCircle
 10
47.03678599999999
 20
42.047726
 30
0.0
 40
0.75
100
AcDbArc
 50
0.0
 51
180.0
  0
CIRCLE
  5
28D
330
6B
100
AcDbEntity
  8
0
100
AcDbCircle
 10
-23.88623
 20
48.297539
 30
0.0
 40
1.0
  0
LINE
  5
28E
330
6B
100
AcDbEntity
  8
0
100
AcDbLine
 10
-23.020205
 20
48.797539
 30
0.0
 11
-23.020205
 21
47.797539
 31
0.0
  0
LINE
  5
28F
330
6B
100
AcDbEntity
  8
0
100
AcDbLine
 10
-23.020205
 20
48.797539
 30
0.0
 11
-23.88623
 21
49.297539
 31
0.0
  0
LINE
  5
290
330
6B
100
AcDbEntity
  8
0
100
AcDbLine
 10
-23.88623
 20
49.297539
 30
0.0
 11
-24.752256
 21
48.797539
 31
0.0
  0
LINE
  5
291
330
6B
100
AcDbEntity
  8
0
100
AcDbLine
 10
-24.752256
 20
48.797539
 30
0.0
 11
-24.752256
 21
47.797539
 31
0.0
  0
LINE
  5
292
330
6B
100
AcDbEntity
  8
0
100
AcDbLine
 10
-23.88623
 20
47.297539
 30
0.0
 11
-24.752256
 21
47.797539
 31
0.0
  0
LINE
  5
293
330
6B
100
AcDbEntity
  8
0
100
AcDbLine
 10
-23.020205
 20
47.797539
 30
0.0
 11
-23.88623
 21
47.297539
 31
0.0
  0
CIRCLE
  5
294
330
6B
100
AcDbEntity
  8
0
100
AcDbCircle
 10
-23.88623
 20
48.297539
 30
0.0
 40
0.5
  0
CIRCLE
  5
295
330
6B
100
AcDbEntity
  8
0
100
AcDbCircle
 10
-23.88623
 20
29.547539
 30
0.0
 40
1.0
  0
LINE
  5
296
330
6B
100
AcDbEntity
  8
0
100
AcDbLine
 10
-23.020205
 20
29.047539
 30
0.0
 11
-23.88623
 21
28.547539
 31
0.0
  0
LINE
  5
297
330
6B
100
AcDbEntity
  8
0
100
AcDbLine
 10
-23.020205
 20
29.047539
 30
0.0
 11
-23.020205
 21
30.047539
 31
0.0
  0
LINE
  5
298
330
6B
100
AcDbEntity
  8
0
100
AcDbLine
 10
-23.020205
 20
30.047539
 30
0.0
 11
-23.88623
 21
30.547539
 31
0.0
  0
LINE
  5
299
330
6B
100
AcDbEntity
  8
0
100
AcDbLine
 10
-23.88623
 20
30.547539
 30
0.0
 11
-24.752256
 21
30.047539
 31
0.0
  0
LINE
  5
29A
330
6B
100
AcDbEntity
  8
0
100
AcDbLine
 10
-24.752256
 20
29.047539
 30
0.0
 11
-24.752256
 21
30.047539
 31
0.0
  0
LINE
  5
29B
330
6B
100
AcDbEntity
  8
0
100
AcDbLine
 10
-23.88623
 20
28.547539
 30
0.0
 11
-24.752256
 21
29.047539
 31
0.0
  0
CIRCLE
  5
29C
330
6B
100
AcDbEntity
  8
0
100
AcDbCircle
 10
-23.88623
 20
29.547539
 30
0.0
 40
0.5
  0
CIRCLE
  5
29D
330
6B
100
AcDbEntity
  8
0
100
AcDbCircle
 10
-40.12420699999998
 20
57.672539
 30
0.0
 40
1.0
  0
LINE
  5
29E
330
6B
100
AcDbEntity
  8
0
100
AcDbLine
 10
-40.12420699999998
 20
58.672539
 30
0.0
 11
-40.990232
 21
58.172539
 31
0.0
  0
LINE
  5
29F
330
6B
100
AcDbEntity
  8
0
100
AcDbLine
 10
-40.990232
 20
58.172539
 30
0.0
 11
-40.990232
 21
57.172539
 31
0.0
  0
LINE
  5
2A0
330
6B
100
AcDbEntity
  8
0
100
AcDbLine
 10
-40.990232
 20
57.172539
 30
0.0
 11
-40.12420699999998
 21
56.672539
 31
0.0
  0
LINE
  5
2A1
330
6B
100
AcDbEntity
  8
0
100
AcDbLine
 10
-40.12420699999998
 20
58.672539
 30
0.0
 11
-39.258181
 21
58.172539
 31
0.0
  0
LINE
  5
2A2
330
6B
100
AcDbEntity
  8
0
100
AcDbLine
 10
-39.258181
 20
58.172539
 30
0.0
 11
-39.258181
 21
57.172539
 31
0.0
  0
LINE
  5
2A3
330
6B
100
AcDbEntity
  8
0
100
AcDbLine
 10
-39.258181
 20
57.172539
 30
0.0
 11
-40.12420699999998
 21
56.672539
 31
0.0
  0
CIRCLE
  5
2A4
330
6B
100
AcDbEntity
  8
0
100
AcDbCircle
 10
-40.12420699999998
 20
57.672539
 30
0.0
 40
0.5
  0
CIRCLE
  5
2A5
330
6B
100
AcDbEntity
  8
0
100
AcDbCircle
 10
-56.36218299999999
 20
48.297539
 30
0.0
 40
1.0
  0
LINE
  5
2A6
330
6B
100
AcDbEntity
  8
0
100
AcDbLine
 10
-57.228209
 20
48.797539
 30
0.0
 11
-56.36218299999999
 21
49.297539
 31
0.0
  0
LINE
  5
2A7
330
6B
100
AcDbEntity
  8
0
100
AcDbLine
 10
-57.228209
 20
48.797539
 30
0.0
 11
-57.228209
 21
47.797539
 31
0.0
  0
LINE
  5
2A8
330
6B
100
AcDbEntity
  8
0
100
AcDbLine
 10
-57.228209
 20
47.797539
 30
0.0
 11
-56.36218299999999
 21
47.297539
 31
0.0
  0
LINE
  5
2A9
330
6B
100
AcDbEntity
  8
0
100
AcDbLine
 10
-56.36218299999999
 20
47.297539
 30
0.0
 11
-55.49615799999997
 21
47.797539
 31
0.0
  0
LINE
  5
2AA
330
6B
100
AcDbEntity
  8
0
100
AcDbLine
 10
-55.49615799999997
 20
48.797539
 30
0.0
 11
-55.49615799999997
 21
47.797539
 31
0.0
  0
LINE
  5
2AB
330
6B
100
AcDbEntity
  8
0
100
AcDbLine
 10
-56.36218299999999
 20
49.297539
 30
0.0
 11
-55.49615799999997
 21
48.797539
 31
0.0
  0
CIRCLE
  5
2AC
330
6B
100
AcDbEntity
  8
0
100
AcDbCircle
 10
-56.36218299999999
 20
48.297539
 30
0.0
 40
0.5
  0
CIRCLE
  5
2AD
330
6B
100
AcDbEntity
  8
0
100
AcDbCircle
 10
-56.36218299999999
 20
29.547539
 30
0.0
 40
1.0
  0
LINE
  5
2AE
330
6B
100
AcDbEntity
  8
0
100
AcDbLine
 10
-57.228209
 20
29.047539
 30
0.0
 11
-57.228209
 21
30.047539
 31
0.0
  0
LINE
  5
2AF
330
6B
100
AcDbEntity
  8
0
100
AcDbLine
 10
-57.228209
 20
29.047539
 30
0.0
 11
-56.36218299999999
 21
28.547539
 31
0.0
  0
LINE
  5
2B0
330
6B
100
AcDbEntity
  8
0
100
AcDbLine
 10
-56.36218299999999
 20
28.547539
 30
0.0
 11
-55.49615799999997
 21
29.047539
 31
0.0
  0
LINE
  5
2B1
330
6B
100
AcDbEntity
  8
0
100
AcDbLine
 10
-55.49615799999997
 20
29.047539
 30
0.0
 11
-55.49615799999997
 21
30.047539
 31
0.0
  0
LINE
  5
2B2
330
6B
100
AcDbEntity
  8
0
100
AcDbLine
 10
-56.36218299999999
 20
30.547539
 30
0.0
 11
-55.49615799999997
 21
30.047539
 31
0.0
  0
LINE
  5
2B3
330
6B
100
AcDbEntity
  8
0
100
AcDbLine
 10
-57.228209
 20
30.047539
 30
0.0
 11
-56.36218299999999
 21
30.547539
 31
0.0
  0
CIRCLE
  5
2B4
330
6B
100
AcDbEntity
  8
0
100
AcDbCircle
 10
-56.36218299999999
 20
29.547539
 30
0.0
 40
0.5
  0
CIRCLE
  5
2B5
330
6B
100
AcDbEntity
  8
0
100
AcDbCircle
 10
-40.12420699999998
 20
20.172539
 30
0.0
 40
1.0
  0
LINE
  5
2B6
330
6B
100
AcDbEntity
  8
0
100
AcDbLine
 10
-40.12420699999998
 20
19.172539
 30
0.0
 11
-40.990232
 21
19.672539
 31
0.0
  0
LINE
  5
2B7
330
6B
100
AcDbEntity
  8
0
100
AcDbLine
 10
-40.12420699999998
 20
19.172539
 30
0.0
 11
-39.258181
 21
19.672539
 31
0.0
  0
LINE
  5
2B8
330
6B
100
AcDbEntity
  8
0
100
AcDbLine
 10
-39.258181
 20
19.672539
 30
0.0
 11
-39.258181
 21
20.672539
 31
0.0
  0
LINE
  5
2B9
330
6B
100
AcDbEntity
  8
0
100
AcDbLine
 10
-39.258181
 20
20.672539
 30
0.0
 11
-40.12420699999998
 21
21.172539
 31
0.0
  0
LINE
  5
2BA
330
6B
100
AcDbEntity
  8
0
100
AcDbLine
 10
-40.990232
 20
20.672539
 30
0.0
 11
-40.12420699999998
 21
21.172539
 31
0.0
  0
LINE
  5
2BB
330
6B
100
AcDbEntity
  8
0
100
AcDbLine
 10
-40.990232
 20
19.672539
 30
0.0
 11
-40.990232
 21
20.672539
 31
0.0
  0
CIRCLE
  5
2BC
330
6B
100
AcDbEntity
  8
0
100
AcDbCircle
 10
-40.12420699999998
 20
20.172539
 30
0.0
 40
0.5
  0
CIRCLE
  5
2BD
330
6B
100
AcDbEntity
  8
0
100
AcDbCircle
 10
-117.397426
 20
29.547539
 30
0.0
 40
1.0
  0
LINE
  5
2BE
330
6B
100
AcDbEntity
  8
0
100
AcDbLine
 10
-116.5314
 20
29.047539
 30
0.0
 11
-117.397426
 21
28.547539
 31
0.0
  0
LINE
  5
2BF
330
6B
100
AcDbEntity
  8
0
100
AcDbLine
 10
-116.5314
 20
29.047539
 30
0.0
 11
-116.5314
 21
30.047539
 31
0.0
  0
LINE
  5
2C0
330
6B
100
AcDbEntity
  8
0
100
AcDbLine
 10
-116.5314
 20
30.047539
 30
0.0
 11
-117.397426
 21
30.547539
 31
0.0
  0
LINE
  5
2C1
330
6B
100
AcDbEntity
  8
0
100
AcDbLine
 10
-117.397426
 20
30.547539
 30
0.0
 11
-118.263451
 21
30.047539
 31
0.0
  0
LINE
  5
2C2
330
6B
100
AcDbEntity
  8
0
100
AcDbLine
 10
-118.263451
 20
29.047539
 30
0.0
 11
-118.263451
 21
30.047539
 31
0.0
  0
LINE
  5
2C3
330
6B
100
AcDbEntity
  8
0
100
AcDbLine
 10
-117.397426
 20
28.547539
 30
0.0
 11
-118.263451
 21
29.047539
 31
0.0
  0
CIRCLE
  5
2C4
330
6B
100
AcDbEntity
  8
0
100
AcDbCircle
 10
-117.397426
 20
29.547539
 30
0.0
 40
0.5
  0
CIRCLE
  5
2C5
330
6B
100
AcDbEntity
  8
0
100
AcDbCircle
 10
-133.635402
 20
20.172539
 30
0.0
 40
1.0
  0
LINE
  5
2C6
330
6B
100
AcDbEntity
  8
0
100
AcDbLine
 10
-133.635402
 20
19.172539
 30
0.0
 11
-134.501427
 21
19.672539
 31
0.0
  0
LINE
  5
2C7
330
6B
100
AcDbEntity
  8
0
100
AcDbLine
 10
-133.635402
 20
19.172539
 30
0.0
 11
-132.769376
 21
19.672539
 31
0.0
  0
LINE
  5
2C8
330
6B
100
AcDbEntity
  8
0
100
AcDbLine
 10
-132.769376
 20
19.672539
 30
0.0
 11
-132.769376
 21
20.672539
 31
0.0
  0
LINE
  5
2C9
330
6B
100
AcDbEntity
  8
0
100
AcDbLine
 10
-132.769376
 20
20.672539
 30
0.0
 11
-133.635402
 21
21.172539
 31
0.0
  0
LINE
  5
2CA
330
6B
100
AcDbEntity
  8
0
100
AcDbLine
 10
-134.501427
 20
20.672539
 30
0.0
 11
-133.635402
 21
21.172539
 31
0.0
  0
LINE
  5
2CB
330
6B
100
AcDbEntity
  8
0
100
AcDbLine
 10
-134.501427
 20
19.672539
 30
0.0
 11
-134.501427
 21
20.672539
 31
0.0
  0
CIRCLE
  5
2CC
330
6B
100
AcDbEntity
  8
0
100
AcDbCircle
 10
-133.635402
 20
20.172539
 30
0.0
 40
0.5
  0
CIRCLE
  5
2CD
330
6B
100
AcDbEntity
  8
0
100
AcDbCircle
 10
-149.873378
 20
29.547539
 30
0.0
 40
1.0
  0
LINE
  5
2CE
330
6B
100
AcDbEntity
  8
0
100
AcDbLine
 10
-150.739404
 20
29.047539
 30
0.0
 11
-150.739404
 21
30.047539
 31
0.0
  0
LINE
  5
2CF
330
6B
100
AcDbEntity
  8
0
100
AcDbLine
 10
-150.739404
 20
29.047539
 30
0.0
 11
-149.873378
 21
28.547539
 31
0.0
  0
LINE
  5
2D0
330
6B
100
AcDbEntity
  8
0
100
AcDbLine
 10
-149.873378
 20
28.547539
 30
0.0
 11
-149.007353
 21
29.047539
 31
0.0
  0
LINE
  5
2D1
330
6B
100
AcDbEntity
  8
0
100
AcDbLine
 10
-149.007353
 20
29.047539
 30
0.0
 11
-149.007353
 21
30.047539
 31
0.0
  0
LINE
  5
2D2
330
6B
100
AcDbEntity
  8
0
100
AcDbLine
 10
-149.873378
 20
30.547539
 30
0.0
 11
-149.007353
 21
30.047539
 31
0.0
  0
LINE
  5
2D3
330
6B
100
AcDbEntity
  8
0
100
AcDbLine
 10
-150.739404
 20
30.047539
 30
0.0
 11
-149.873378
 21
30.547539
 31
0.0
  0
CIRCLE
  5
2D4
330
6B
100
AcDbEntity
  8
0
100
AcDbCircle
 10
-149.873378
 20
29.547539
 30
0.0
 40
0.5
  0
CIRCLE
  5
2D5
330
6B
100
AcDbEntity
  8
0
100
AcDbCircle
 10
-149.873378
 20
48.297539
 30
0.0
 40
1.0
  0
LINE
  5
2D6
330
6B
100
AcDbEntity
  8
0
100
AcDbLine
 10
-150.739404
 20
48.797539
 30
0.0
 11
-149.873378
 21
49.297539
 31
0.0
  0
LINE
  5
2D7
330
6B
100
AcDbEntity
  8
0
100
AcDbLine
 10
-150.739404
 20
48.797539
 30
0.0
 11
-150.739404
 21
47.797539
 31
0.0
  0
LINE
  5
2D8
330
6B
100
AcDbEntity
  8
0
100
AcDbLine
 10
-150.739404
 20
47.797539
 30
0.0
 11
-149.873378
 21
47.297539
 31
0.0
  0
LINE
  5
2D9
330
6B
100
AcDbEntity
  8
0
100
AcDbLine
 10
-149.873378
 20
47.297539
 30
0.0
 11
-149.007353
 21
47.797539
 31
0.0
  0
LINE
  5
2DA
330
6B
100
AcDbEntity
  8
0
100
AcDbLine
 10
-149.007353
 20
48.797539
 30
0.0
 11
-149.007353
 21
47.797539
 31
0.0
  0
LINE
  5
2DB
330
6B
100
AcDbEntity
  8
0
100
AcDbLine
 10
-149.873378
 20
49.297539
 30
0.0
 11
-149.007353
 21
48.797539
 31
0.0
  0
CIRCLE
  5
2DC
330
6B
100
AcDbEntity
  8
0
100
AcDbCircle
 10
-149.873378
 20
48.297539
 30
0.0
 40
0.5
  0
CIRCLE
  5
2DD
330
6B
100
AcDbEntity
  8
0
100
AcDbCircle
 10
-133.635402
 20
57.672539
 30
0.0
 40
1.0
  0
LINE
  5
2DE
330
6B
100
AcDbEntity
  8
0
100
AcDbLine
 10
-133.635402
 20
58.672539
 30
0.0
 11
-134.501427
 21
58.172539
 31
0.0
  0
LINE
  5
2DF
330
6B
100
AcDbEntity
  8
0
100
AcDbLine
 10
-134.501427
 20
58.172539
 30
0.0
 11
-134.501427
 21
57.172539
 31
0.0
  0
LINE
  5
2E0
330
6B
100
AcDbEntity
  8
0
100
AcDbLine
 10
-134.501427
 20
57.172539
 30
0.0
 11
-133.635402
 21
56.672539
 31
0.0
  0
LINE
  5
2E1
330
6B
100
AcDbEntity
  8
0
100
AcDbLine
 10
-133.635402
 20
58.672539
 30
0.0
 11
-132.769376
 21
58.172539
 31
0.0
  0
LINE
  5
2E2
330
6B
100
AcDbEntity
  8
0
100
AcDbLine
 10
-132.769376
 20
58.172539
 30
0.0
 11
-132.769376
 21
57.172539
 31
0.0
  0
LINE
  5
2E3
330
6B
100
AcDbEntity
  8
0
100
AcDbLine
 10
-132.769376
 20
57.172539
 30
0.0
 11
-133.635402
 21
56.672539
 31
0.0
  0
CIRCLE
  5
2E4
330
6B
100
AcDbEntity
  8
0
100
AcDbCircle
 10
-133.635402
 20
57.672539
 30
0.0
 40
0.5
  0
LINE
  5
2E5
330
6B
100
AcDbEntity
  8
0
100
AcDbLine
 10
-117.397426
 20
49.297539
 30
0.0
 11
-118.263451
 21
48.797539
 31
0.0
  0
LINE
  5
2E6
330
6B
100
AcDbEntity
  8
0
100
AcDbLine
 10
-118.263451
 20
48.797539
 30
0.0
 11
-118.263451
 21
47.797539
 31
0.0
  0
LINE
  5
2E7
330
6B
100
AcDbEntity
  8
0
100
AcDbLine
 10
-117.397426
 20
47.297539
 30
0.0
 11
-118.263451
 21
47.797539
 31
0.0
  0
CIRCLE
  5
2E8
330
6B
100
AcDbEntity
  8
0
100
AcDbCircle
 10
-117.397426
 20
48.297539
 30
0.0
 40
0.5
  0
LINE
  5
2E9
330
6B
100
AcDbEntity
  8
0
100
AcDbLine
 10
-116.5314
 20
47.797539
 30
0.0
 11
-117.397426
 21
47.297539
 31
0.0
  0
CIRCLE
  5
2EA
330
6B
100
AcDbEntity
  8
0
100
AcDbCircle
 10
-117.397426
 20
48.297539
 30
0.0
 40
1.0
  0
LINE
  5
2EB
330
6B
100
AcDbEntity
  8
0
100
AcDbLine
 10
-116.5314
 20
48.797539
 30
0.0
 11
-117.397426
 21
49.297539
 31
0.0
  0
LINE
  5
2EC
330
6B
100
AcDbEntity
  8
0
100
AcDbLine
 10
-116.5314
 20
48.797539
 30
0.0
 11
-116.5314
 21
47.797539
 31
0.0
  0
ARC
  5
2ED
330
6B
100
AcDbEntity
  8
0
100
AcDbCircle
 10
-133.635402
 20
38.922539
 30
0.0
 40
29.0
100
AcDbArc
 50
308.190177
 51
63.08417299999999
  0
ARC
  5
2EE
330
6B
100
AcDbEntity
  8
0
100
AcDbCircle
 10
-133.635402
 20
38.922539
 30
0.0
 40
29.0
100
AcDbArc
 50
69.084459
 51
110.913426
  0
ARC
  5
2EF
330
6B
100
AcDbEntity
  8
0
100
AcDbCircle
 10
-133.635402
 20
38.922539
 30
0.0
 40
29.0
100
AcDbArc
 50
116.913611
 51
231.811299
  0
ARC
  5
2F0
330
6B
100
AcDbEntity
  8
0
100
AcDbCircle
 10
-40.12420699999998
 20
38.922539
 30
0.0
 40
29.0
100
AcDbArc
 50
116.907795
 51
231.811299
  0
ARC
  5
2F1
330
6B
100
AcDbEntity
  8
0
100
AcDbCircle
 10
-40.12420699999998
 20
38.922539
 30
0.0
 40
29.0
100
AcDbArc
 50
69.088425
 51
110.907874
  0
ARC
  5
2F2
330
6B
100
AcDbEntity
  8
0
100
AcDbCircle
 10
-40.12420699999998
 20
38.922539
 30
0.0
 40
29.0
100
AcDbArc
 50
308.190177
 51
63.08417299999999
  0
LINE
  5
2F3
330
6B
100
AcDbEntity
  8
0
100
AcDbLine
 10
75.649969
 20
36.922714
 30
0.0
 11
75.649969
 21
9.422713999999999
 31
0.0
  0
LINE
  5
2F4
330
6B
100
AcDbEntity
  8
0
100
AcDbLine
 10
75.649969
 20
40.922714
 30
0.0
 11
75.649969
 21
68.422714
 31
0.0
  0
LINE
  5
2F5
330
6B
100
AcDbEntity
  8
0
100
AcDbLine
 10
118.149969
 20
40.922714
 30
0.0
 11
118.149969
 21
68.422714
 31
0.0
  0
ARC
  5
2F6
330
6B
100
AcDbEntity
  8
0
100
AcDbCircle
 10
117.649969
 20
68.422714
 30
0.0
 40
0.5
100
AcDbArc
 50
0.0
 51
180.0
  0
ARC
  5
2F7
330
6B
100
AcDbEntity
  8
0
100
AcDbCircle
 10
76.149969
 20
68.422714
 30
0.0
 40
0.5
100
AcDbArc
 50
0.0
 51
180.0
  0
ARC
  5
2F8
330
6B
100
AcDbEntity
  8
0
100
AcDbCircle
 10
76.149969
 20
68.422714
 30
0.0
 40
0.5
100
AcDbArc
 50
180.0
 51
0.0
  0
ARC
  5
2F9
330
6B
100
AcDbEntity
  8
0
100
AcDbCircle
 10
117.649969
 20
68.422714
 30
0.0
 40
0.5
100
AcDbArc
 50
180.0
 51
0.0
  0
LINE
  5
2FA
330
6B
100
AcDbEntity
  8
0
100
AcDbLine
 10
118.149969
 20
36.922714
 30
0.0
 11
118.149969
 21
9.422713999999999
 31
0.0
  0
ARC
  5
2FB
330
6B
100
AcDbEntity
  8
0
100
AcDbCircle
 10
117.649969
 20
9.422713999999999
 30
0.0
 40
0.5
100
AcDbArc
 50
180.0
 51
0.0
  0
ARC
  5
2FC
330
6B
100
AcDbEntity
  8
0
100
AcDbCircle
 10
76.149969
 20
9.422713999999999
 30
0.0
 40
0.5
100
AcDbArc
 50
180.0
 51
0.0
  0
ARC
  5
2FD
330
6B
100
AcDbEntity
  8
0
100
AcDbCircle
 10
117.649969
 20
9.422713999999999
 30
0.0
 40
0.5
100
AcDbArc
 50
0.0
 51
180.0
  0
ARC
  5
2FE
330
6B
100
AcDbEntity
  8
0
100
AcDbCircle
 10
76.149969
 20
9.422713999999999
 30
0.0
 40
0.5
100
AcDbArc
 50
0.0
 51
180.0
  0
LINE
  5
2FF
330
6B
100
AcDbEntity
  8
0
 62
     3
100
AcDbLine
 10
69.024969
 20
45.726015
 30
0.0
 11
69.024969
 21
43.422714
 31
0.0
  0
LINE
  5
300
330
6B
100
AcDbEntity
  8
0
 62
     3
100
AcDbLine
 10
75.524969
 20
43.422714
 30
0.0
 11
69.024969
 21
43.422714
 31
0.0
  0
LINE
  5
301
330
6B
100
AcDbEntity
  8
0
 62
     3
100
AcDbLine
 10
75.524969
 20
45.922714
 30
0.0
 11
75.524969
 21
43.422714
 31
0.0
  0
LINE
  5
302
330
6B
100
AcDbEntity
  8
0
 62
     3
100
AcDbLine
 10
67.02496899999998
 20
40.940883
 30
0.0
 11
69.024969
 21
43.422714
 31
0.0
  0
LINE
  5
303
330
6B
100
AcDbEntity
  8
0
 62
     3
100
AcDbLine
 10
75.524969
 20
34.422714
 30
0.0
 11
69.024969
 21
34.422714
 31
0.0
  0
LINE
  5
304
330
6B
100
AcDbEntity
  8
0
 62
     3
100
AcDbLine
 10
71.024969
 20
31.922714
 30
0.0
 11
75.524969
 21
31.922714
 31
0.0
  0
ARC
  5
305
330
6B
100
AcDbEntity
  8
0
 62
     3
100
AcDbCircle
 10
71.524969
 20
29.922714
 30
0.0
 40
0.5
100
AcDbArc
 50
180.0
 51
270.0
  0
LINE
  5
306
330
6B
100
AcDbEntity
  8
0
 62
     3
100
AcDbLine
 10
67.02496899999998
 20
36.904545
 30
0.0
 11
69.024969
 21
34.422714
 31
0.0
  0
LINE
  5
307
330
6B
100
AcDbEntity
  8
0
 62
     3
100
AcDbLine
 10
69.024969
 20
32.119413
 30
0.0
 11
69.024969
 21
34.422714
 31
0.0
  0
LINE
  5
308
330
6B
100
AcDbEntity
  8
0
 62
     3
100
AcDbLine
 10
62.52496899999999
 20
37.922714
 30
0.0
 11
62.52496899999999
 21
39.922714
 31
0.0
  0
LINE
  5
309
330
6B
100
AcDbEntity
  8
0
 62
     3
100
AcDbLine
 10
59.52496899999999
 20
37.922714
 30
0.0
 11
59.52496899999999
 21
39.922714
 31
0.0
  0
LINE
  5
30A
330
6B
100
AcDbEntity
  8
0
 62
     3
100
AcDbLine
 10
62.02496899999999
 20
40.42271399999999
 30
0.0
 11
60.02496899999999
 21
40.42271399999999
 31
0.0
  0
LINE
  5
30B
330
6B
100
AcDbEntity
  8
0
 62
     3
100
AcDbLine
 10
62.02496899999999
 20
37.422714
 30
0.0
 11
60.02496899999999
 21
37.422714
 31
0.0
  0
ARC
  5
30C
330
6B
100
AcDbEntity
  8
0
 62
     3
100
AcDbCircle
 10
60.02496899999999
 20
39.922714
 30
0.0
 40
0.5
100
AcDbArc
 50
90.0
 51
180.0
  0
ARC
  5
30D
330
6B
100
AcDbEntity
  8
0
 62
     3
100
AcDbCircle
 10
60.02496899999999
 20
37.922714
 30
0.0
 40
0.5
100
AcDbArc
 50
180.0
 51
270.0
  0
ARC
  5
30E
330
6B
100
AcDbEntity
  8
0
 62
     3
100
AcDbCircle
 10
62.02496899999999
 20
39.922714
 30
0.0
 40
0.5
100
AcDbArc
 50
0.0
 51
90.0
  0
ARC
  5
30F
330
6B
100
AcDbEntity
  8
0
 62
     3
100
AcDbCircle
 10
62.02496899999999
 20
37.922714
 30
0.0
 40
0.5
100
AcDbArc
 50
270.0
 51
0.0
  0
LINE
  5
310
330
6B
100
AcDbEntity
  8
0
 62
     3
100
AcDbLine
 10
67.02496899999998
 20
40.940883
 30
0.0
 11
67.02496899999998
 21
36.904545
 31
0.0
  0
LINE
  5
311
330
6B
100
AcDbEntity
  8
0
 62
     3
100
AcDbLine
 10
62.45798199999999
 20
40.172714
 30
0.0
 11
66.524969
 21
40.42271399999999
 31
0.0
  0
LINE
  5
312
330
6B
100
AcDbEntity
  8
0
 62
     3
100
AcDbLine
 10
62.45798199999999
 20
37.672714
 30
0.0
 11
66.524969
 21
37.422714
 31
0.0
  0
LINE
  5
313
330
6B
100
AcDbEntity
  8
0
 62
     3
100
AcDbLine
 10
-30.124207
 20
49.922539
 30
0.0
 11
-32.624207
 21
49.922539
 31
0.0
  0
ARC
  5
314
330
6B
100
AcDbEntity
  8
0
 62
     3
100
AcDbCircle
 10
-30.124207
 20
57.922539
 30
0.0
 40
1.25
100
AcDbArc
 50
73.60844799999998
 51
143.130102
  0
ARC
  5
315
330
6B
100
AcDbEntity
  8
0
100
AcDbCircle
 10
63.02496899999999
 20
25.922714
 30
0.0
 40
0.5
100
AcDbArc
 50
180.0
 51
0.0
  0
ARC
  5
316
330
6B
100
AcDbEntity
  8
0
100
AcDbCircle
 10
73.024969
 20
29.172714
 30
0.0
 40
1.25
100
AcDbArc
 50
216.869898
 51
323.130102
  0
LINE
  5
317
330
6B
100
AcDbEntity
  8
0
100
AcDbLine
 10
76.024969
 20
28.422714
 30
0.0
 11
70.024969
 21
28.422714
 31
0.0
  0
ARC
  5
318
330
6B
100
AcDbEntity
  8
0
100
AcDbCircle
 10
75.524969
 20
29.172714
 30
0.0
 40
1.25
100
AcDbArc
 50
216.869898
 51
270.0
  0
LINE
  5
319
330
6B
100
AcDbEntity
  8
0
100
AcDbLine
 10
74.52496899999998
 20
29.422714
 30
0.0
 11
74.52496899999998
 21
28.422714
 31
0.0
  0
LINE
  5
31A
330
6B
100
AcDbEntity
  8
0
100
AcDbLine
 10
74.024969
 20
29.422714
 30
0.0
 11
74.024969
 21
28.422714
 31
0.0
  0
ARC
  5
31B
330
6B
100
AcDbEntity
  8
0
100
AcDbCircle
 10
70.524969
 20
29.172714
 30
0.0
 40
1.25
100
AcDbArc
 50
270.0
 51
323.130102
  0
LINE
  5
31C
330
6B
100
AcDbEntity
  8
0
100
AcDbLine
 10
71.524969
 20
29.422714
 30
0.0
 11
71.524969
 21
28.422714
 31
0.0
  0
LINE
  5
31D
330
6B
100
AcDbEntity
  8
0
100
AcDbLine
 10
72.02496899999998
 20
29.422714
 30
0.0
 11
72.02496899999998
 21
28.422714
 31
0.0
  0
LINE
  5
31E
330
6B
100
AcDbEntity
  8
0
100
AcDbLine
 10
70.524969
 20
27.92271400000001
 30
0.0
 11
75.524969
 21
27.92271400000001
 31
0.0
  0
LINE
  5
31F
330
6B
100
AcDbEntity
  8
0
100
AcDbLine
 10
76.024969
 20
28.422714
 30
0.0
 11
76.024969
 21
29.422714
 31
0.0
  0
LINE
  5
320
330
6B
100
AcDbEntity
  8
0
100
AcDbLine
 10
75.524969
 20
27.92271400000001
 30
0.0
 11
76.024969
 21
28.422714
 31
0.0
  0
LINE
  5
321
330
6B
100
AcDbEntity
  8
0
100
AcDbLine
 10
70.524969
 20
27.92271400000001
 30
0.0
 11
70.024969
 21
28.422714
 31
0.0
  0
LINE
  5
322
330
6B
100
AcDbEntity
  8
0
100
AcDbLine
 10
70.024969
 20
28.422714
 30
0.0
 11
70.024969
 21
29.422714
 31
0.0
  0
LINE
  5
323
330
6B
100
AcDbEntity
  8
0
100
AcDbLine
 10
75.024969
 20
29.422714
 30
0.0
 11
70.024969
 21
29.422714
 31
0.0
  0
ARC
  5
324
330
6B
100
AcDbEntity
  8
0
100
AcDbCircle
 10
75.024969
 20
29.922714
 30
0.0
 40
0.5
100
AcDbArc
 50
270.0
 51
0.0
  0
LINE
  5
325
330
6B
100
AcDbEntity
  8
0
100
AcDbLine
 10
76.024969
 20
29.422714
 30
0.0
 11
76.524969
 21
29.422714
 31
0.0
  0
ARC
  5
326
330
6B
100
AcDbEntity
  8
0
100
AcDbCircle
 10
76.024969
 20
29.922714
 30
0.0
 40
0.5
100
AcDbArc
 50
180.0
 51
270.0
  0
LINE
  5
327
330
6B
100
AcDbEntity
  8
0
100
AcDbLine
 10
75.524969
 20
29.922714
 30
0.0
 11
75.524969
 21
34.422714
 31
0.0
  0
LINE
  5
328
330
6B
100
AcDbEntity
  8
0
100
AcDbLine
 10
75.024969
 20
27.92271400000001
 30
0.0
 11
75.024969
 21
24.422714
 31
0.0
  0
LINE
  5
329
330
6B
100
AcDbEntity
  8
0
100
AcDbLine
 10
71.024969
 20
27.92271400000001
 30
0.0
 11
71.024969
 21
24.422714
 31
0.0
  0
LINE
  5
32A
330
6B
100
AcDbEntity
  8
0
100
AcDbLine
 10
70.524969
 20
24.422714
 30
0.0
 11
75.524969
 21
24.422714
 31
0.0
  0
LINE
  5
32B
330
6B
100
AcDbEntity
  8
0
100
AcDbLine
 10
71.524969
 20
48.422714
 30
0.0
 11
71.524969
 21
49.422714
 31
0.0
  0
ARC
  5
32C
330
6B
100
AcDbEntity
  8
0
100
AcDbCircle
 10
70.524969
 20
48.67271399999999
 30
0.0
 40
1.25
100
AcDbArc
 50
36.869898
 51
90.0
  0
LINE
  5
32D
330
6B
100
AcDbEntity
  8
0
100
AcDbLine
 10
72.02496899999998
 20
48.422714
 30
0.0
 11
72.02496899999998
 21
49.422714
 31
0.0
  0
ARC
  5
32E
330
6B
100
AcDbEntity
  8
0
100
AcDbCircle
 10
73.024969
 20
48.67271399999999
 30
0.0
 40
1.25
100
AcDbArc
 50
36.869898
 51
143.130102
  0
LINE
  5
32F
330
6B
100
AcDbEntity
  8
0
100
AcDbLine
 10
74.024969
 20
48.422714
 30
0.0
 11
74.024969
 21
49.422714
 31
0.0
  0
ARC
  5
330
330
6B
100
AcDbEntity
  8
0
100
AcDbCircle
 10
75.524969
 20
48.67271399999999
 30
0.0
 40
1.25
100
AcDbArc
 50
90.0
 51
143.130102
  0
LINE
  5
331
330
6B
100
AcDbEntity
  8
0
100
AcDbLine
 10
70.024969
 20
49.422714
 30
0.0
 11
76.024969
 21
49.422714
 31
0.0
  0
LINE
  5
332
330
6B
100
AcDbEntity
  8
0
100
AcDbLine
 10
71.274969
 20
55.172714
 30
0.0
 11
74.774969
 21
55.172714
 31
0.0
  0
LINE
  5
333
330
6B
100
AcDbEntity
  8
0
100
AcDbLine
 10
75.524969
 20
54.422714
 30
0.0
 11
70.524969
 21
54.422714
 31
0.0
  0
LINE
  5
334
330
6B
100
AcDbEntity
  8
0
100
AcDbLine
 10
72.02496899999998
 20
56.672714
 30
0.0
 11
72.02496899999998
 21
58.67271399999999
 31
0.0
  0
LINE
  5
335
330
6B
100
AcDbEntity
  8
0
100
AcDbLine
 10
71.524969
 20
56.672714
 30
0.0
 11
71.524969
 21
58.67271399999999
 31
0.0
  0
LINE
  5
336
330
6B
100
AcDbEntity
  8
0
100
AcDbLine
 10
74.024969
 20
56.672714
 30
0.0
 11
74.024969
 21
58.67271399999999
 31
0.0
  0
LINE
  5
337
330
6B
100
AcDbEntity
  8
0
100
AcDbLine
 10
74.52496899999998
 20
56.672714
 30
0.0
 11
74.52496899999998
 21
58.67271399999999
 31
0.0
  0
LINE
  5
338
330
6B
100
AcDbEntity
  8
0
100
AcDbLine
 10
70.524969
 20
58.67271399999999
 30
0.0
 11
75.524969
 21
58.67271399999999
 31
0.0
  0
ARC
  5
339
330
6B
100
AcDbEntity
  8
0
100
AcDbCircle
 10
73.024969
 20
57.922714
 30
0.0
 40
1.25
100
AcDbArc
 50
36.869898
 51
143.130102
  0
ARC
  5
33A
330
6B
100
AcDbEntity
  8
0
100
AcDbCircle
 10
75.524969
 20
57.922714
 30
0.0
 40
1.25
100
AcDbArc
 50
109.89591
 51
143.130102
  0
ARC
  5
33B
330
6B
100
AcDbEntity
  8
0
100
AcDbCircle
 10
70.524969
 20
57.922714
 30
0.0
 40
1.25
100
AcDbArc
 50
36.869898
 51
70.10409
  0
LINE
  5
33C
330
6B
100
AcDbEntity
  8
0
100
AcDbLine
 10
74.52496899999998
 20
48.422714
 30
0.0
 11
74.52496899999998
 21
49.422714
 31
0.0
  0
LINE
  5
33D
330
6B
100
AcDbEntity
  8
0
100
AcDbLine
 10
66.524969
 20
40.940883
 30
0.0
 11
66.524969
 21
36.904545
 31
0.0
  0
LINE
  5
33E
330
6B
100
AcDbEntity
  8
0
100
AcDbLine
 10
75.524969
 20
24.422714
 30
0.0
 11
75.524969
 21
23.422714
 31
0.0
  0
CIRCLE
  5
33F
330
6B
100
AcDbEntity
  8
0
100
AcDbCircle
 10
-24.820906
 20
33.619238
 30
0.0
 40
0.75
  0
ARC
  5
340
330
6B
100
AcDbEntity
  8
0
100
AcDbCircle
 10
-35.427508
 20
33.619238
 30
0.0
 40
0.75
100
AcDbArc
 50
124.808171
 51
55.191829
  0
CIRCLE
  5
341
330
6B
100
AcDbEntity
  8
0
100
AcDbCircle
 10
-34.124207
 20
46.92253899999999
 30
0.0
 40
0.5
  0
ARC
  5
342
330
6B
100
AcDbEntity
  8
0
100
AcDbCircle
 10
-35.427508
 20
44.22584
 30
0.0
 40
2.0
100
AcDbArc
 50
44.999998
 51
136.203461
  0
ARC
  5
343
330
6B
100
AcDbEntity
  8
0
100
AcDbCircle
 10
-30.124207
 20
38.922539
 30
0.0
 40
7.0
100
AcDbArc
 50
87.119674
 51
107.184729
  0
ARC
  5
344
330
6B
100
AcDbEntity
  8
0
100
AcDbCircle
 10
-32.624207
 20
57.922539
 30
0.0
 40
1.25
100
AcDbArc
 50
36.869898
 51
70.10409
  0
LINE
  5
345
330
6B
100
AcDbEntity
  8
0
100
AcDbLine
 10
-32.624207
 20
58.672539
 30
0.0
 11
-29.771457
 21
58.672539
 31
0.0
  0
LINE
  5
346
330
6B
100
AcDbEntity
  8
0
100
AcDbLine
 10
-31.624207
 20
56.672539
 30
0.0
 11
-31.624207
 21
58.672539
 31
0.0
  0
LINE
  5
347
330
6B
100
AcDbEntity
  8
0
100
AcDbLine
 10
-31.124207
 20
56.672539
 30
0.0
 11
-31.124207
 21
58.672539
 31
0.0
  0
ARC
  5
348
330
6B
100
AcDbEntity
  8
0
100
AcDbCircle
 10
-30.124207
 20
48.672539
 30
0.0
 40
1.25
100
AcDbArc
 50
90.0
 51
143.130102
  0
LINE
  5
349
330
6B
100
AcDbEntity
  8
0
100
AcDbLine
 10
-33.124207
 20
49.422539
 30
0.0
 11
-30.124207
 21
49.422539
 31
0.0
  0
LINE
  5
34A
330
6B
100
AcDbEntity
  8
0
100
AcDbLine
 10
-31.124207
 20
48.422539
 30
0.0
 11
-31.124207
 21
49.422539
 31
0.0
  0
LINE
  5
34B
330
6B
100
AcDbEntity
  8
0
100
AcDbLine
 10
-31.624207
 20
48.422539
 30
0.0
 11
-31.624207
 21
49.422539
 31
0.0
  0
ARC
  5
34C
330
6B
100
AcDbEntity
  8
0
100
AcDbCircle
 10
-32.624207
 20
48.672539
 30
0.0
 40
1.25
100
AcDbArc
 50
36.869898
 51
90.0
  0
CIRCLE
  5
34D
330
6B
100
AcDbEntity
  8
0
100
AcDbCircle
 10
-24.820906
 20
44.22584
 30
0.0
 40
0.75
  0
LINE
  5
34E
330
6B
100
AcDbEntity
  8
0
100
AcDbLine
 10
-31.374207
 20
55.172539
 30
0.0
 11
-31.374207
 21
56.672539
 31
0.0
  0
CIRCLE
  5
34F
330
6B
100
AcDbEntity
  8
0
100
AcDbCircle
 10
-118.332101
 20
33.619238
 30
0.0
 40
0.75
  0
CIRCLE
  5
350
330
6B
100
AcDbEntity
  8
0
100
AcDbCircle
 10
-128.938703
 20
44.22584
 30
0.0
 40
0.75
  0
CIRCLE
  5
351
330
6B
100
AcDbEntity
  8
0
100
AcDbCircle
 10
-127.635402
 20
46.92253899999999
 30
0.0
 40
0.5
  0
CIRCLE
  5
352
330
6B
100
AcDbEntity
  8
0
100
AcDbCircle
 10
-128.938703
 20
33.619238
 30
0.0
 40
0.75
  0
LINE
  5
353
330
6B
100
AcDbEntity
  8
0
100
AcDbLine
 10
-121.135402
 20
56.672539
 30
0.0
 11
-126.135402
 21
56.672539
 31
0.0
  0
LINE
  5
354
330
6B
100
AcDbEntity
  8
0
100
AcDbLine
 10
-124.885402
 20
55.172539
 30
0.0
 11
-124.885402
 21
56.672539
 31
0.0
  0
LINE
  5
355
330
6B
100
AcDbEntity
  8
0
100
AcDbLine
 10
-122.385402
 20
55.172539
 30
0.0
 11
-122.385402
 21
56.672539
 31
0.0
  0
LINE
  5
356
330
6B
100
AcDbEntity
  8
0
100
AcDbLine
 10
-125.135402
 20
56.672539
 30
0.0
 11
-125.135402
 21
58.672539
 31
0.0
  0
LINE
  5
357
330
6B
100
AcDbEntity
  8
0
100
AcDbLine
 10
-124.635402
 20
56.672539
 30
0.0
 11
-124.635402
 21
58.672539
 31
0.0
  0
LINE
  5
358
330
6B
100
AcDbEntity
  8
0
100
AcDbLine
 10
-122.635402
 20
56.672539
 30
0.0
 11
-122.635402
 21
58.672539
 31
0.0
  0
LINE
  5
359
330
6B
100
AcDbEntity
  8
0
100
AcDbLine
 10
-122.135402
 20
56.672539
 30
0.0
 11
-122.135402
 21
58.672539
 31
0.0
  0
ARC
  5
35A
330
6B
100
AcDbEntity
  8
0
100
AcDbCircle
 10
-121.135402
 20
57.922539
 30
0.0
 40
1.25
100
AcDbArc
 50
109.89591
 51
143.130102
  0
ARC
  5
35B
330
6B
100
AcDbEntity
  8
0
100
AcDbCircle
 10
-123.635402
 20
57.922539
 30
0.0
 40
1.25
100
AcDbArc
 50
36.869898
 51
143.130102
  0
LINE
  5
35C
330
6B
100
AcDbEntity
  8
0
100
AcDbLine
 10
-126.135402
 20
58.672539
 30
0.0
 11
-121.135402
 21
58.672539
 31
0.0
  0
ARC
  5
35D
330
6B
100
AcDbEntity
  8
0
100
AcDbCircle
 10
-126.135402
 20
57.922539
 30
0.0
 40
1.25
100
AcDbArc
 50
36.869898
 51
70.10409
  0
ARC
  5
35E
330
6B
100
AcDbEntity
  8
0
100
AcDbCircle
 10
-123.635402
 20
48.672539
 30
0.0
 40
1.25
100
AcDbArc
 50
36.869898
 51
143.130102
  0
ARC
  5
35F
330
6B
100
AcDbEntity
  8
0
100
AcDbCircle
 10
-126.135402
 20
48.672539
 30
0.0
 40
1.25
100
AcDbArc
 50
36.869898
 51
90.0
  0
ARC
  5
360
330
6B
100
AcDbEntity
  8
0
100
AcDbCircle
 10
-121.135402
 20
48.672539
 30
0.0
 40
1.25
100
AcDbArc
 50
90.0
 51
143.130102
  0
LINE
  5
361
330
6B
100
AcDbEntity
  8
0
100
AcDbLine
 10
-122.135402
 20
48.422539
 30
0.0
 11
-122.135402
 21
49.422539
 31
0.0
  0
LINE
  5
362
330
6B
100
AcDbEntity
  8
0
100
AcDbLine
 10
-122.635402
 20
48.422539
 30
0.0
 11
-122.635402
 21
49.422539
 31
0.0
  0
LINE
  5
363
330
6B
100
AcDbEntity
  8
0
100
AcDbLine
 10
-124.635402
 20
48.422539
 30
0.0
 11
-124.635402
 21
49.422539
 31
0.0
  0
LINE
  5
364
330
6B
100
AcDbEntity
  8
0
100
AcDbLine
 10
-125.135402
 20
48.422539
 30
0.0
 11
-125.135402
 21
49.422539
 31
0.0
  0
LINE
  5
365
330
6B
100
AcDbEntity
  8
0
100
AcDbLine
 10
-126.635402
 20
49.422539
 30
0.0
 11
-120.635402
 21
49.422539
 31
0.0
  0
LINE
  5
366
330
6B
100
AcDbEntity
  8
0
100
AcDbLine
 10
-121.135402
 20
49.922539
 30
0.0
 11
-126.135402
 21
49.922539
 31
0.0
  0
CIRCLE
  5
367
330
6B
100
AcDbEntity
  8
0
100
AcDbCircle
 10
-118.332101
 20
44.22584
 30
0.0
 40
0.75
  0
LINE
  5
368
330
6B
100
AcDbEntity
  8
0
100
AcDbLine
 10
-122.635402
 20
60.17983100000001
 30
0.0
 11
-122.635402
 21
59.172539
 31
0.0
  0
LINE
  5
369
330
6B
100
AcDbEntity
  8
0
100
AcDbLine
 10
-26.624207
 20
27.422539
 30
0.0
 11
-26.624207
 21
35.00942
 31
0.0
  0
LINE
  5
36A
330
6B
100
AcDbEntity
  8
0
100
AcDbLine
 10
75.524969
 20
53.422714
 30
0.0
 11
70.524969
 21
53.422714
 31
0.0
  0
LINE
  5
370
330
6B
100
AcDbEntity
  8
0
100
AcDbLine
 10
78.14520400000002
 20
-69.069524
 30
0.0
 11
149.2572423252607
 21
-69.069524
 31
0.0
  0
LINE
  5
371
330
6B
100
AcDbEntity
  8
0
 62
     3
100
AcDbLine
 10
149.2572423252607
 20
-49.86952399999999
 30
0.0
 11
149.2572423252607
 21
-75.46952399999998
 31
0.0
  0
LINE
  5
372
330
6B
100
AcDbEntity
  8
0
 62
     3
100
AcDbLine
 10
78.14520400000002
 20
-49.86952399999999
 30
0.0
 11
78.14520400000002
 21
-75.46952399999998
 31
0.0
  0
TEXT
  5
373
330
6B
100
AcDbEntity
  8
0
 62
     3
100
AcDbText
 10
81.36718499999998
 20
-68.447016
 30
0.0
 40
4.5
  1
定格　電圧
  7
高4.5
100
AcDbText
  0
TEXT
  5
374
330
6B
100
AcDbEntity
  8
0
 62
     3
100
AcDbText
 10
81.36141999999997
 20
-74.50385199999998
 30
0.0
 40
4.5
  1
定格　電流
  7
高4.5
100
AcDbText
  0
LINE
  5
375
330
6B
100
AcDbEntity
  8
0
 62
     3
100
AcDbLine
 10
78.14520400000002
 20
-75.46952399999998
 30
0.0
 11
149.2572423252607
 21
-75.46952399999998
 31
0.0
  0
LINE
  5
376
330
6B
100
AcDbEntity
  8
0
100
AcDbLine
 10
110.3000613252607
 20
-62.669524
 30
0.0
 11
110.3000613252607
 21
-75.46952399999998
 31
0.0
  0
TEXT
  5
377
330
6B
100
AcDbEntity
  8
0
 62
     3
100
AcDbText
 10
93.48303300000001
 20
-61.999674
 30
0.0
 40
4.5
  1
三相200V仕様
  7
高4.5
100
AcDbText
  0
TEXT
  5
378
330
6B
100
AcDbEntity
  8
0
 62
     3
100
AcDbText
 10
120.1311123252607
 20
-68.67768000000001
 30
0.0
 40
4.5
  1
250V
  7
高4.5
100
AcDbText
  0
TEXT
  5
379
330
6B
100
AcDbEntity
  8
0
 62
     3
100
AcDbText
 10
123.4498423252607
 20
-74.61373899999998
 30
0.0
 40
4.5
  1
5A
  7
高4.5
100
AcDbText
  0
TEXT
  5
37A
330
6B
100
AcDbEntity
  8
0
 62
     3
100
AcDbText
 10
104.792395
 20
-113.798919
 30
0.0
 40
4.5
  1
EXR-230
  7
高4.5
100
AcDbText
  0
TEXT
  5
37B
330
6B
100
AcDbEntity
  8
0
 62
     3
100
AcDbText
 10
147.425872922804
 20
-137.3611678379692
 30
0.0
 40
6.299999999999998
  1
EXR-230
  7
高6.3
100
AcDbText
  0
LINE
  5
37D
330
6B
100
AcDbEntity
  8
0
 62
     3
100
AcDbLine
 10
-151.313071
 20
56.185995
 30
0.0
 11
-149.545304
 21
54.418228
 31
0.0
  0
ARC
  5
37E
330
6B
100
AcDbEntity
  8
0
 62
     3
100
AcDbCircle
 10
-150.605965
 20
56.893102
 30
0.0
 40
1.0
100
AcDbArc
 50
45.0
 51
225.0
  0
LINE
  5
37F
330
6B
100
AcDbEntity
  8
0
 62
     3
100
AcDbLine
 10
-148.131091
 20
55.83244200000001
 30
0.0
 11
-149.898858
 21
57.600209
 31
0.0
  0
LINE
  5
380
330
6B
100
AcDbEntity
  8
0
 62
     3
100
AcDbLine
 10
76.649969
 20
58.548001
 30
0.0
 11
117.149969
 21
58.548001
 31
0.0
  0
LINE
  5
381
330
6B
100
AcDbEntity
  8
0
 62
     3
100
AcDbLine
 10
72.274969
 20
63.67428100000001
 30
0.0
 11
72.274969
 21
59.172714
 31
0.0
  0
ARC
  5
382
330
6B
100
AcDbEntity
  8
0
 62
     3
100
AcDbCircle
 10
73.024969
 20
63.67428100000001
 30
0.0
 40
0.75
100
AcDbArc
 50
0.0
 51
180.0
  0
LINE
  5
383
330
6B
100
AcDbEntity
  8
0
 62
     3
100
AcDbLine
 10
73.774969
 20
63.67428100000001
 30
0.0
 11
73.774969
 21
59.172714
 31
0.0
  0
LINE
  5
384
330
6B
100
AcDbEntity
  8
0
 62
     3
100
AcDbLine
 10
-29.772457
 20
34.235039
 30
0.0
 11
-38.249207
 21
34.235039
 31
0.0
  0
LINE
  5
385
330
6B
100
AcDbEntity
  8
0
 62
     3
100
AcDbLine
 10
-43.61875999999997
 20
34.235039
 30
0.0
 11
-50.472832
 21
34.235039
 31
0.0
  0
LINE
  5
386
330
6B
100
AcDbEntity
  8
0
 62
     3
100
AcDbLine
 10
-29.772457
 20
45.610039
 30
0.0
 11
-50.473332
 21
45.610039
 31
0.0
  0
LINE
  5
387
330
6B
100
AcDbEntity
  8
0
 62
     3
100
AcDbLine
 10
-57.801876
 20
55.185995
 30
0.0
 11
-54.266342
 21
51.650461
 31
0.0
  0
ARC
  5
388
330
6B
100
AcDbEntity
  8
0
 62
     3
100
AcDbCircle
 10
-57.09476999999999
 20
55.89310199999999
 30
0.0
 40
1.0
100
AcDbArc
 50
45.0
 51
225.0
  0
ARC
  5
389
330
6B
100
AcDbEntity
  8
0
 62
     3
100
AcDbCircle
 10
-53.559236
 20
52.357568
 30
0.0
 40
1.0
100
AcDbArc
 50
225.0
 51
287.955536
  0
LINE
  5
38A
330
6B
100
AcDbEntity
  8
0
 62
     3
100
AcDbLine
 10
-53.25095699999999
 20
53.463503
 30
0.0
 11
-56.387663
 21
56.600209
 31
0.0
  0
LINE
  5
38B
330
6B
100
AcDbEntity
  8
0
 62
     3
100
AcDbLine
 10
-55.503779
 20
55.71632499999999
 30
0.0
 11
-56.917993
 21
54.302111
 31
0.0
  0
ARC
  5
38C
330
6B
100
AcDbEntity
  8
0
 62
     3
100
AcDbCircle
 10
-31.624207
 20
60.727561
 30
0.0
 40
0.75
100
AcDbArc
 50
0.0
 51
37.486195
  0
LINE
  5
38D
330
6B
100
AcDbEntity
  8
0
 62
     3
100
AcDbLine
 10
-29.906396
 20
62.16742199999998
 30
0.0
 11
-29.771457
 21
62.025742
 31
0.0
  0
LINE
  5
38E
330
6B
100
AcDbEntity
  8
0
 62
     3
100
AcDbLine
 10
-41.90743799999999
 20
39.50194600000001
 30
0.0
 11
-46.183657
 21
26.341096
 31
0.0
  0
LINE
  5
38F
330
6B
100
AcDbEntity
  8
0
 62
     3
100
AcDbLine
 10
-38.340976
 20
38.343132
 30
0.0
 11
-42.617195
 21
25.182283
 31
0.0
  0
ARC
  5
390
330
6B
100
AcDbEntity
  8
0
 62
     3
100
AcDbCircle
 10
162.149061
 20
17.032172
 30
0.0
 40
0.625
100
AcDbArc
 50
270.0
 51
0.0
  0
LINE
  5
391
330
6B
100
AcDbEntity
  8
0
 62
     3
100
AcDbLine
 10
161.149061
 20
15.782172
 30
0.0
 11
171.149061
 21
15.782172
 31
0.0
  0
LINE
  5
392
330
6B
100
AcDbEntity
  8
0
 62
     3
100
AcDbLine
 10
161.149061
 20
13.532172
 30
0.0
 11
161.149061
 21
15.782172
 31
0.0
  0
ARC
  5
393
330
6B
100
AcDbEntity
  8
0
 62
     3
100
AcDbCircle
 10
161.774061
 20
13.532172
 30
0.0
 40
0.625
100
AcDbArc
 50
180.0
 51
270.0
  0
LINE
  5
394
330
6B
100
AcDbEntity
  8
0
 62
     3
100
AcDbLine
 10
161.774061
 20
12.907172
 30
0.0
 11
170.524061
 21
12.907172
 31
0.0
  0
ARC
  5
395
330
6B
100
AcDbEntity
  8
0
 62
     3
100
AcDbCircle
 10
170.524061
 20
13.532172
 30
0.0
 40
0.625
100
AcDbArc
 50
270.0
 51
0.0
  0
LINE
  5
396
330
6B
100
AcDbEntity
  8
0
 62
     3
100
AcDbLine
 10
171.149061
 20
13.532172
 30
0.0
 11
171.149061
 21
15.782172
 31
0.0
  0
ARC
  5
397
330
6B
100
AcDbEntity
  8
0
 62
     3
100
AcDbCircle
 10
170.399061
 20
16.282172
 30
0.0
 40
0.125
100
AcDbArc
 50
0.0
 51
90.0
  0
ARC
  5
398
330
6B
100
AcDbEntity
  8
0
 62
     3
100
AcDbCircle
 10
161.899061
 20
16.282172
 30
0.0
 40
0.125
100
AcDbArc
 50
90.0
 51
180.0
  0
ARC
  5
399
330
6B
100
AcDbEntity
  8
0
 62
     3
100
AcDbCircle
 10
46.036786
 20
41.797726
 30
0.0
 40
0.25
100
AcDbArc
 50
90.0
 51
180.0
  0
ARC
  5
39A
330
6B
100
AcDbEntity
  8
0
 62
     3
100
AcDbCircle
 10
-147.070431
 20
53.35756800000001
 30
0.0
 40
1.0
100
AcDbArc
 50
225.0
 51
287.955536
  0
LINE
  5
39B
330
6B
100
AcDbEntity
  8
0
 62
     3
100
AcDbLine
 10
-148.131091
 20
55.83244200000001
 30
0.0
 11
-146.762152
 21
54.463503
 31
0.0
  0
LINE
  5
39C
330
6B
100
AcDbEntity
  8
0
 62
     3
100
AcDbLine
 10
-147.777537
 20
52.650461
 30
0.0
 11
-149.545304
 21
54.418228
 31
0.0
  0
LINE
  5
39D
330
6B
100
AcDbEntity
  8
0
 62
     3
100
AcDbLine
 10
-125.782652
 20
76.422539
 30
0.0
 11
-141.487152
 21
76.422539
 31
0.0
  0
LINE
  5
39E
330
6B
100
AcDbEntity
  8
0
 62
     3
100
AcDbLine
 10
50.011786
 20
36.033602
 30
0.0
 11
50.011786
 21
75.035214
 31
0.0
  0
LINE
  5
39F
330
6B
100
AcDbEntity
  8
0
 62
     3
100
AcDbLine
 10
52.786786
 20
36.033602
 30
0.0
 11
52.786786
 21
75.035214
 31
0.0
  0
LINE
  5
3A0
330
6B
100
AcDbEntity
  8
0
 62
     3
100
AcDbLine
 10
50.011786
 20
36.033589
 30
0.0
 11
50.011786
 21
9.960214
 31
0.0
  0
LINE
  5
3A1
330
6B
100
AcDbEntity
  8
0
 62
     3
100
AcDbLine
 10
52.786786
 20
9.960214
 30
0.0
 11
52.786786
 21
36.033589
 31
0.0
  0
LINE
  5
3A2
330
6B
100
AcDbEntity
  8
0
 62
     3
100
AcDbLine
 10
119.774969
 20
36.03387700000001
 30
0.0
 11
119.774969
 21
75.035214
 31
0.0
  0
LINE
  5
3A3
330
6B
100
AcDbEntity
  8
0
 62
     3
100
AcDbLine
 10
122.549969
 20
36.03387700000001
 30
0.0
 11
122.549969
 21
75.035214
 31
0.0
  0
LINE
  5
3A4
330
6B
100
AcDbEntity
  8
0
 62
     3
100
AcDbLine
 10
119.774969
 20
36.033864
 30
0.0
 11
119.774969
 21
9.960214
 31
0.0
  0
LINE
  5
3A5
330
6B
100
AcDbEntity
  8
0
 62
     3
100
AcDbLine
 10
122.549969
 20
9.960214
 30
0.0
 11
122.549969
 21
36.033864
 31
0.0
  0
LINE
  5
3A6
330
6B
100
AcDbEntity
  8
0
 62
     3
100
AcDbLine
 10
76.649969
 20
40.797726
 30
0.0
 11
79.499723
 21
40.797726
 31
0.0
  0
LINE
  5
3A7
330
6B
100
AcDbEntity
  8
0
 62
     3
100
AcDbLine
 10
76.649969
 20
37.047726
 30
0.0
 11
81.48227099999997
 21
37.047726
 31
0.0
  0
ARC
  5
3A8
330
6B
100
AcDbEntity
  8
0
 62
     3
100
AcDbCircle
 10
-40.12420699999998
 20
38.922039
 30
0.0
 40
2.1875
100
AcDbArc
 50
328.997281
 51
192.994861
  0
LINE
  5
3A9
330
6B
100
AcDbEntity
  8
0
 62
     3
100
AcDbLine
 10
-32.271457
 20
76.422539
 30
0.0
 11
-47.975957
 21
76.422539
 31
0.0
  0
LINE
  5
3AA
330
6B
100
AcDbEntity
  8
0
 62
     3
100
AcDbLine
 10
45.78678599999999
 20
41.797726
 30
0.0
 11
45.78678599999999
 21
22.297726
 31
0.0
  0
LINE
  5
3AB
330
6B
100
AcDbEntity
  8
0
 62
     3
100
AcDbLine
 10
48.28678599999999
 20
42.047726
 30
0.0
 11
47.03678599999999
 21
23.422726
 31
0.0
  0
LINE
  5
3AC
330
6B
100
AcDbEntity
  8
0
 62
     3
100
AcDbLine
 10
47.03678599999999
 20
22.297726
 30
0.0
 11
47.03678599999999
 21
23.422726
 31
0.0
  0
ARC
  5
3AD
330
6B
100
AcDbEntity
  8
0
 62
     3
100
AcDbCircle
 10
46.786786
 20
22.297726
 30
0.0
 40
0.25
100
AcDbArc
 50
270.0
 51
0.0
  0
LINE
  5
3AE
330
6B
100
AcDbEntity
  8
0
 62
     3
100
AcDbLine
 10
46.786786
 20
22.047726
 30
0.0
 11
46.036786
 21
22.047726
 31
0.0
  0
ARC
  5
3AF
330
6B
100
AcDbEntity
  8
0
 62
     3
100
AcDbCircle
 10
46.036786
 20
22.297726
 30
0.0
 40
0.25
100
AcDbArc
 50
180.0
 51
270.0
  0
LINE
  5
3B0
330
6B
100
AcDbEntity
  8
0
 62
     3
100
AcDbLine
 10
35.036786
 20
21.860226
 30
0.0
 11
35.036786
 21
24.735226
 31
0.0
  0
LINE
  5
3B1
330
6B
100
AcDbEntity
  8
0
 62
     3
100
AcDbLine
 10
46.036786
 20
42.047726
 30
0.0
 11
48.28678599999999
 21
42.047726
 31
0.0
  0
ARC
  5
3B2
330
6B
100
AcDbEntity
  8
0
 62
     3
100
AcDbCircle
 10
-40.12420699999998
 20
38.922539
 30
0.0
 40
8.125
100
AcDbArc
 50
61.39595999999999
 51
124.605998
  0
ARC
  5
3B3
330
6B
100
AcDbEntity
  8
0
 62
     3
100
AcDbCircle
 10
-40.12420699999998
 20
40.922539
 30
0.0
 40
8.125
100
AcDbArc
 50
269.868593
 51
298.60404
  0
ARC
  5
3B4
330
6B
100
AcDbEntity
  8
0
 62
     3
100
AcDbCircle
 10
-40.12420699999998
 20
40.922539
 30
0.0
 40
8.125
100
AcDbArc
 50
235.394002
 51
243.100399
  0
LINE
  5
3B5
330
6B
100
AcDbEntity
  8
0
 62
     3
100
AcDbLine
 10
44.911786
 20
24.610226
 30
0.0
 11
45.78678599999999
 21
24.297726
 31
0.0
  0
LINE
  5
3B6
330
6B
100
AcDbEntity
  8
0
 62
     3
100
AcDbLine
 10
44.911786
 20
21.985226
 30
0.0
 11
45.78678599999999
 21
22.297726
 31
0.0
  0
LINE
  5
3B7
330
6B
100
AcDbEntity
  8
0
 62
     3
100
AcDbLine
 10
44.53678599999999
 20
21.985226
 30
0.0
 11
44.911786
 21
21.985226
 31
0.0
  0
LINE
  5
3B8
330
6B
100
AcDbEntity
  8
0
 62
     3
100
AcDbLine
 10
42.53678599999999
 20
22.110226
 30
0.0
 11
44.41178599999999
 21
22.297726
 31
0.0
  0
LINE
  5
3B9
330
6B
100
AcDbEntity
  8
0
 62
     3
100
AcDbLine
 10
42.03678599999999
 20
21.547726
 30
0.0
 11
42.53678599999999
 21
22.110226
 31
0.0
  0
LINE
  5
3BA
330
6B
100
AcDbEntity
  8
0
 62
     3
100
AcDbLine
 10
35.349286
 20
21.547726
 30
0.0
 11
42.03678599999999
 21
21.547726
 31
0.0
  0
ARC
  5
3BB
330
6B
100
AcDbEntity
  8
0
 62
     3
100
AcDbCircle
 10
35.349286
 20
21.860226
 30
0.0
 40
0.3125
100
AcDbArc
 50
180.0
 51
270.0
  0
ARC
  5
3BC
330
6B
100
AcDbEntity
  8
0
 62
     3
100
AcDbCircle
 10
35.349286
 20
24.735226
 30
0.0
 40
0.3125
100
AcDbArc
 50
90.0
 51
180.0
  0
LINE
  5
3BD
330
6B
100
AcDbEntity
  8
0
 62
     3
100
AcDbLine
 10
35.349286
 20
25.047726
 30
0.0
 11
42.03678599999999
 21
25.047726
 31
0.0
  0
LINE
  5
3BE
330
6B
100
AcDbEntity
  8
0
 62
     3
100
AcDbLine
 10
42.03678599999999
 20
25.047726
 30
0.0
 11
42.53678599999999
 21
24.485226
 31
0.0
  0
LINE
  5
3BF
330
6B
100
AcDbEntity
  8
0
 62
     3
100
AcDbLine
 10
42.53678599999999
 20
24.485226
 30
0.0
 11
44.41178599999999
 21
24.297726
 31
0.0
  0
LINE
  5
3C0
330
6B
100
AcDbEntity
  8
0
 62
     3
100
AcDbLine
 10
44.41178599999999
 20
24.297726
 30
0.0
 11
44.53678599999999
 21
24.610226
 31
0.0
  0
LINE
  5
3C1
330
6B
100
AcDbEntity
  8
0
 62
     3
100
AcDbLine
 10
44.53678599999999
 20
24.610226
 30
0.0
 11
44.911786
 21
24.610226
 31
0.0
  0
ARC
  5
3C2
330
6B
100
AcDbEntity
  8
0
 62
     3
100
AcDbCircle
 10
-141.487152
 20
71.147539
 30
0.0
 40
5.275
100
AcDbArc
 50
90.0
 51
180.0
  0
ARC
  5
3C3
330
6B
100
AcDbEntity
  8
0
 62
     3
100
AcDbCircle
 10
-125.782652
 20
71.147539
 30
0.0
 40
5.275
100
AcDbArc
 50
0.0
 51
90.0
  0
ARC
  5
3C4
330
6B
100
AcDbEntity
  8
0
 62
     3
100
AcDbCircle
 10
-125.782652
 20
71.147539
 30
0.0
 40
2.5
100
AcDbArc
 50
0.0
 51
90.0
  0
LINE
  5
3C5
330
6B
100
AcDbEntity
  8
0
 62
     3
100
AcDbLine
 10
-125.782652
 20
73.647539
 30
0.0
 11
-141.487152
 21
73.647539
 31
0.0
  0
ARC
  5
3C6
330
6B
100
AcDbEntity
  8
0
 62
     3
100
AcDbCircle
 10
-141.487152
 20
71.147539
 30
0.0
 40
2.5
100
AcDbArc
 50
90.0
 51
180.0
  0
LINE
  5
3C7
330
6B
100
AcDbEntity
  8
0
 62
     3
100
AcDbLine
 10
-123.282652
 20
64.61006600000001
 30
0.0
 11
-123.282652
 21
71.147539
 31
0.0
  0
ARC
  5
3C8
330
6B
100
AcDbEntity
  8
0
 62
     3
100
AcDbCircle
 10
-105.647402
 20
2.810038999999998
 30
0.0
 40
1.387499999999999
100
AcDbArc
 50
221.826234
 51
41.82623399999999
  0
ARC
  5
3C9
330
6B
100
AcDbEntity
  8
0
 62
     3
100
AcDbCircle
 10
51.399286
 20
75.035214
 30
0.0
 40
1.387499999999999
100
AcDbArc
 50
0.0
 51
180.0
  0
ARC
  5
3CA
330
6B
100
AcDbEntity
  8
0
 62
     3
100
AcDbCircle
 10
59.036786
 20
9.960214
 30
0.0
 40
6.25
100
AcDbArc
 50
180.0
 51
270.0
  0
ARC
  5
3CB
330
6B
100
AcDbEntity
  8
0
 62
     3
100
AcDbCircle
 10
59.036786
 20
9.960214
 30
0.0
 40
9.025
100
AcDbArc
 50
180.0
 51
270.0
  0
LINE
  5
3CC
330
6B
100
AcDbEntity
  8
0
 62
     3
100
AcDbLine
 10
59.036786
 20
0.935214
 30
0.0
 11
113.524969
 21
0.935214
 31
0.0
  0
ARC
  5
3CD
330
6B
100
AcDbEntity
  8
0
 62
     3
100
AcDbCircle
 10
113.524969
 20
9.960214
 30
0.0
 40
6.25
100
AcDbArc
 50
270.0
 51
0.0
  0
ARC
  5
3CE
330
6B
100
AcDbEntity
  8
0
 62
     3
100
AcDbCircle
 10
113.524969
 20
9.960214
 30
0.0
 40
9.025
100
AcDbArc
 50
270.0
 51
0.0
  0
ARC
  5
3CF
330
6B
100
AcDbEntity
  8
0
 62
     3
100
AcDbCircle
 10
121.162469
 20
75.035214
 30
0.0
 40
1.387499999999999
100
AcDbArc
 50
0.0
 51
180.0
  0
LINE
  5
3D0
330
6B
100
AcDbEntity
  8
0
 62
     3
100
AcDbLine
 10
57.66570600000001
 20
40.922714
 30
0.0
 11
52.786786
 21
40.922714
 31
0.0
  0
LINE
  5
3D1
330
6B
100
AcDbEntity
  8
0
 62
     3
100
AcDbLine
 10
57.66570600000001
 20
36.922714
 30
0.0
 11
52.786786
 21
36.922714
 31
0.0
  0
LINE
  5
3D2
330
6B
100
AcDbEntity
  8
0
 62
     3
100
AcDbLine
 10
48.411786
 20
40.653964
 30
0.0
 11
50.011786
 21
40.653964
 31
0.0
  0
LINE
  5
3D3
330
6B
100
AcDbEntity
  8
0
 62
     3
100
AcDbLine
 10
48.411786
 20
37.191464
 30
0.0
 11
50.011786
 21
37.191464
 31
0.0
  0
ARC
  5
3D4
330
6B
100
AcDbEntity
  8
0
 62
     3
100
AcDbCircle
 10
-47.975957
 20
71.147539
 30
0.0
 40
5.275
100
AcDbArc
 50
90.0
 51
180.0
  0
ARC
  5
3D5
330
6B
100
AcDbEntity
  8
0
 62
     3
100
AcDbCircle
 10
-54.499582
 20
21.974814
 30
0.0
 40
1.25
100
AcDbArc
 50
318.173766
 51
0.0
  0
ARC
  5
3D6
330
6B
100
AcDbEntity
  8
0
 62
     3
100
AcDbCircle
 10
-40.12420699999998
 20
38.922539
 30
0.0
 40
30.0
100
AcDbArc
 50
115.942621
 51
231.6898919999999
  0
ARC
  5
3D7
330
6B
100
AcDbEntity
  8
0
 62
     3
100
AcDbCircle
 10
-40.12420699999998
 20
38.922539
 30
0.0
 40
30.0
100
AcDbArc
 50
69.816424
 51
110.180015
  0
ARC
  5
3D8
330
6B
100
AcDbEntity
  8
0
 62
     3
100
AcDbCircle
 10
-32.271457
 20
71.147539
 30
0.0
 40
5.275
100
AcDbArc
 50
0.0
 51
90.0
  0
ARC
  5
3D9
330
6B
100
AcDbEntity
  8
0
 62
     3
100
AcDbCircle
 10
-32.271457
 20
71.147539
 30
0.0
 40
2.5
100
AcDbArc
 50
0.0
 51
90.0
  0
LINE
  5
3DA
330
6B
100
AcDbEntity
  8
0
 62
     3
100
AcDbLine
 10
-32.271457
 20
73.647539
 30
0.0
 11
-47.975957
 21
73.647539
 31
0.0
  0
ARC
  5
3DB
330
6B
100
AcDbEntity
  8
0
 62
     3
100
AcDbCircle
 10
-47.975957
 20
71.147539
 30
0.0
 40
2.5
100
AcDbArc
 50
90.0
 51
180.0
  0
LINE
  5
3DC
330
6B
100
AcDbEntity
  8
0
 62
     3
100
AcDbLine
 10
-53.568118
 20
21.141221
 30
0.0
 11
-69.145131
 21
3.735326
 31
0.0
  0
LINE
  5
3DD
330
6B
100
AcDbEntity
  8
0
 62
     3
100
AcDbLine
 10
-51.50027
 20
19.290647
 30
0.0
 11
-67.077282
 21
1.884751999999999
 31
0.0
  0
ARC
  5
3DE
330
6B
100
AcDbEntity
  8
0
 62
     3
100
AcDbCircle
 10
-54.499582
 20
21.974814
 30
0.0
 40
4.025
100
AcDbArc
 50
318.173766
 51
0.0
  0
ARC
  5
3DF
330
6B
100
AcDbEntity
  8
0
 62
     3
100
AcDbCircle
 10
-40.12420699999998
 20
38.922539
 30
0.0
 40
30.0
100
AcDbArc
 50
308.311533
 51
64.04967899999999
  0
LINE
  5
3E0
330
6B
100
AcDbEntity
  8
0
 62
     3
100
AcDbLine
 10
-26.997457
 20
21.916199
 30
0.0
 11
-26.997457
 21
71.147539
 31
0.0
  0
LINE
  5
3E1
330
6B
100
AcDbEntity
  8
0
 62
     3
100
AcDbLine
 10
-29.772457
 20
71.147539
 30
0.0
 11
-29.772457
 21
21.869614
 31
0.0
  0
ARC
  5
3E2
330
6B
100
AcDbEntity
  8
0
 62
     3
100
AcDbCircle
 10
-25.748832
 20
21.974814
 30
0.0
 40
1.25
100
AcDbArc
 50
180.0
 51
221.826234
  0
LINE
  5
3E3
330
6B
100
AcDbEntity
  8
0
 62
     3
100
AcDbLine
 10
-26.680295
 20
21.141221
 30
0.0
 11
-11.103282
 21
3.735326
 31
0.0
  0
ARC
  5
3E4
330
6B
100
AcDbEntity
  8
0
 62
     3
100
AcDbCircle
 10
-25.748832
 20
21.974814
 30
0.0
 40
4.025
100
AcDbArc
 50
180.0
 51
221.826234
  0
LINE
  5
3E5
330
6B
100
AcDbEntity
  8
0
 62
     3
100
AcDbLine
 10
-28.748144
 20
19.290647
 30
0.0
 11
-13.171131
 21
1.884751999999999
 31
0.0
  0
ARC
  5
3E6
330
6B
100
AcDbEntity
  8
0
 62
     3
100
AcDbCircle
 10
-133.635402
 20
38.922539
 30
0.0
 40
30.0
100
AcDbArc
 50
69.812608
 51
110.185357
  0
ARC
  5
3E7
330
6B
100
AcDbEntity
  8
0
 62
     3
100
AcDbCircle
 10
-133.635402
 20
38.922539
 30
0.0
 40
30.0
100
AcDbArc
 50
115.948197
 51
231.6898919999999
  0
ARC
  5
3E8
330
6B
100
AcDbEntity
  8
0
 62
     3
100
AcDbCircle
 10
-133.635402
 20
38.922539
 30
0.0
 40
30.0
100
AcDbArc
 50
308.311533
 51
64.04967899999999
  0
LINE
  5
3E9
330
6B
100
AcDbEntity
  8
0
 62
     3
100
AcDbLine
 10
-120.507652
 20
64.00081999999999
 30
0.0
 11
-120.507652
 21
71.147539
 31
0.0
  0
LINE
  5
3EA
330
6B
100
AcDbEntity
  8
0
 62
     3
100
AcDbLine
 10
-146.762152
 20
21.916199
 30
0.0
 11
-146.762152
 21
71.147539
 31
0.0
  0
LINE
  5
3EB
330
6B
100
AcDbEntity
  8
0
 62
     3
100
AcDbLine
 10
-143.987152
 20
71.147539
 30
0.0
 11
-143.987152
 21
21.869614
 31
0.0
  0
ARC
  5
3EC
330
6B
100
AcDbEntity
  8
0
 62
     3
100
AcDbCircle
 10
-148.010777
 20
21.974814
 30
0.0
 40
4.025
100
AcDbArc
 50
318.173766
 51
0.0
  0
ARC
  5
3ED
330
6B
100
AcDbEntity
  8
0
 62
     3
100
AcDbCircle
 10
-148.010777
 20
21.974814
 30
0.0
 40
1.25
100
AcDbArc
 50
318.173766
 51
0.0
  0
LINE
  5
3EE
330
6B
100
AcDbEntity
  8
0
 62
     3
100
AcDbLine
 10
-147.079313
 20
21.141221
 30
0.0
 11
-162.656326
 21
3.735326
 31
0.0
  0
LINE
  5
3EF
330
6B
100
AcDbEntity
  8
0
 62
     3
100
AcDbLine
 10
-145.011465
 20
19.290647
 30
0.0
 11
-160.588477
 21
1.884751999999999
 31
0.0
  0
LINE
  5
3F0
330
6B
100
AcDbEntity
  8
0
 62
     3
100
AcDbLine
 10
-53.25095699999999
 20
24.968863
 30
0.0
 11
-53.25095699999999
 21
21.916199
 31
0.0
  0
LINE
  5
3F1
330
6B
100
AcDbEntity
  8
0
 62
     3
100
AcDbLine
 10
-53.25095699999999
 20
24.968863
 30
0.0
 11
-53.25095699999999
 21
71.147539
 31
0.0
  0
LINE
  5
3F2
330
6B
100
AcDbEntity
  8
0
 62
     3
100
AcDbLine
 10
-50.475957
 20
24.968863
 30
0.0
 11
-50.475957
 21
71.147539
 31
0.0
  0
LINE
  5
3F3
330
6B
100
AcDbEntity
  8
0
 62
     3
100
AcDbLine
 10
-50.475957
 20
24.968863
 30
0.0
 11
-50.475957
 21
21.869614
 31
0.0
  0
LINE
  5
3F4
330
6B
100
AcDbEntity
  8
0
 62
     3
100
AcDbLine
 10
-123.283652
 20
24.968863
 30
0.0
 11
-123.283652
 21
21.869614
 31
0.0
  0
ARC
  5
3F5
330
6B
100
AcDbEntity
  8
0
 62
     3
100
AcDbCircle
 10
-119.260027
 20
21.974814
 30
0.0
 40
4.025
100
AcDbArc
 50
180.0
 51
221.826234
  0
LINE
  5
3F6
330
6B
100
AcDbEntity
  8
0
 62
     3
100
AcDbLine
 10
-122.259339
 20
19.290647
 30
0.0
 11
-106.682326
 21
1.884751999999999
 31
0.0
  0
LINE
  5
3F7
330
6B
100
AcDbEntity
  8
0
 62
     3
100
AcDbLine
 10
-120.19149
 20
21.141221
 30
0.0
 11
-104.614477
 21
3.735326
 31
0.0
  0
ARC
  5
3F8
330
6B
100
AcDbEntity
  8
0
 62
     3
100
AcDbCircle
 10
-119.260027
 20
21.974814
 30
0.0
 40
1.25
100
AcDbArc
 50
180.0
 51
221.826234
  0
LINE
  5
3F9
330
6B
100
AcDbEntity
  8
0
 62
     3
100
AcDbLine
 10
-120.508652
 20
24.968863
 30
0.0
 11
-120.508652
 21
21.916199
 31
0.0
  0
ARC
  5
3FA
330
6B
100
AcDbEntity
  8
0
 62
     3
100
AcDbCircle
 10
-128.938703
 20
33.619238
 30
0.0
 40
2.0
100
AcDbArc
 50
135.0
 51
315.000002
  0
LINE
  5
3FB
330
6B
100
AcDbEntity
  8
0
 62
     3
100
AcDbLine
 10
-128.481998
 20
36.90437
 30
0.0
 11
-130.352916
 21
35.033452
 31
0.0
  0
LINE
  5
3FC
330
6B
100
AcDbEntity
  8
0
 62
     3
100
AcDbLine
 10
-127.135402
 20
32.59411200000001
 30
0.0
 11
-127.524489
 21
32.205025
 31
0.0
  0
LINE
  5
3FD
330
6B
100
AcDbEntity
  8
0
 62
     3
100
AcDbLine
 10
-119.635402
 20
27.422539
 30
0.0
 11
-119.635402
 21
25.922539
 31
0.0
  0
LINE
  5
3FE
330
6B
100
AcDbEntity
  8
0
 62
     3
100
AcDbLine
 10
-127.635402
 20
25.922539
 30
0.0
 11
-127.635402
 21
27.422539
 31
0.0
  0
LINE
  5
3FF
330
6B
100
AcDbEntity
  8
0
 62
     3
100
AcDbLine
 10
-127.635402
 20
27.422539
 30
0.0
 11
-119.635402
 21
27.422539
 31
0.0
  0
LINE
  5
400
330
6B
100
AcDbEntity
  8
0
 62
     3
100
AcDbLine
 10
-127.635402
 20
25.922539
 30
0.0
 11
-119.635402
 21
25.922539
 31
0.0
  0
LINE
  5
401
330
6B
100
AcDbEntity
  8
0
 62
     3
100
AcDbLine
 10
-127.135402
 20
27.422539
 30
0.0
 11
-127.135402
 21
35.00942
 31
0.0
  0
LINE
  5
402
330
6B
100
AcDbEntity
  8
0
 62
     3
100
AcDbLine
 10
-120.135402
 20
27.422539
 30
0.0
 11
-120.135402
 21
35.00942
 31
0.0
  0
ARC
  5
403
330
6B
100
AcDbEntity
  8
0
 62
     3
100
AcDbCircle
 10
-118.332101
 20
33.619238
 30
0.0
 40
2.0
100
AcDbArc
 50
224.9999980000001
 51
45.0
  0
LINE
  5
404
330
6B
100
AcDbEntity
  8
0
 62
     3
100
AcDbLine
 10
-118.788806
 20
36.90437
 30
0.0
 11
-116.917887
 21
35.033452
 31
0.0
  0
ARC
  5
405
330
6B
100
AcDbEntity
  8
0
 62
     3
100
AcDbCircle
 10
-123.635402
 20
38.922539
 30
0.0
 40
7.0
100
AcDbArc
 50
331.60155
 51
28.39845
  0
CIRCLE
  5
406
330
6B
100
AcDbEntity
  8
0
 62
     3
100
AcDbCircle
 10
-123.635402
 20
38.922539
 30
0.0
 40
5.25
  0
LINE
  5
407
330
6B
100
AcDbEntity
  8
0
 62
     3
100
AcDbLine
 10
-121.617233
 20
43.76913499999999
 30
0.0
 11
-119.746315
 21
45.640053
 31
0.0
  0
ARC
  5
408
330
6B
100
AcDbEntity
  8
0
 62
     3
100
AcDbCircle
 10
-118.332101
 20
44.22584
 30
0.0
 40
2.0
100
AcDbArc
 50
315.0
 51
135.000002
  0
LINE
  5
409
330
6B
100
AcDbEntity
  8
0
 62
     3
100
AcDbLine
 10
-118.788806
 20
40.94070799999999
 30
0.0
 11
-116.917887
 21
42.811626
 31
0.0
  0
LINE
  5
40A
330
6B
100
AcDbEntity
  8
0
 62
     3
100
AcDbLine
 10
-125.653571
 20
43.76913499999999
 30
0.0
 11
-127.524489
 21
45.640053
 31
0.0
  0
ARC
  5
40B
330
6B
100
AcDbEntity
  8
0
 62
     3
100
AcDbCircle
 10
-128.938703
 20
44.22584
 30
0.0
 40
2.0
100
AcDbArc
 50
44.999998
 51
225.0
  0
LINE
  5
40C
330
6B
100
AcDbEntity
  8
0
 62
     3
100
AcDbLine
 10
-128.481998
 20
40.94070799999999
 30
0.0
 11
-130.352916
 21
42.811626
 31
0.0
  0
ARC
  5
40D
330
6B
100
AcDbEntity
  8
0
 62
     3
100
AcDbCircle
 10
-123.635402
 20
38.922539
 30
0.0
 40
7.0
100
AcDbArc
 50
151.60155
 51
208.39845
  0
ARC
  5
40E
330
6B
100
AcDbEntity
  8
0
 62
     3
100
AcDbCircle
 10
-123.635402
 20
38.922539
 30
0.0
 40
7.0
100
AcDbArc
 50
61.60155000000001
 51
118.39845
  0
LINE
  5
40F
330
6B
100
AcDbEntity
  8
0
 62
     3
100
AcDbLine
 10
-121.385402
 20
47.422539
 30
0.0
 11
-121.385402
 21
45.551076
 31
0.0
  0
ARC
  5
410
330
6B
100
AcDbEntity
  8
0
 62
     3
100
AcDbCircle
 10
-122.385402
 20
47.422539
 30
0.0
 40
1.0
100
AcDbArc
 50
0.0
 51
90.0
  0
LINE
  5
411
330
6B
100
AcDbEntity
  8
0
 62
     3
100
AcDbLine
 10
-125.885402
 20
47.422539
 30
0.0
 11
-125.885402
 21
45.551076
 31
0.0
  0
ARC
  5
412
330
6B
100
AcDbEntity
  8
0
 62
     3
100
AcDbCircle
 10
-124.885402
 20
47.422539
 30
0.0
 40
1.0
100
AcDbArc
 50
90.0
 51
180.0
  0
ARC
  5
413
330
6B
100
AcDbEntity
  8
0
 62
     3
100
AcDbCircle
 10
-127.885402
 20
47.422539
 30
0.0
 40
1.0
100
AcDbArc
 50
90.0
 51
180.0
  0
LINE
  5
414
330
6B
100
AcDbEntity
  8
0
 62
     3
100
AcDbLine
 10
-127.885402
 20
48.422539
 30
0.0
 11
-120.635402
 21
48.422539
 31
0.0
  0
LINE
  5
415
330
6B
100
AcDbEntity
  8
0
 62
     3
100
AcDbLine
 10
-128.885402
 20
47.422539
 30
0.0
 11
-128.885402
 21
46.22512899999999
 31
0.0
  0
LINE
  5
416
330
6B
100
AcDbEntity
  8
0
 62
     3
100
AcDbLine
 10
-126.635402
 20
49.422539
 30
0.0
 11
-126.635402
 21
48.422539
 31
0.0
  0
LINE
  5
417
330
6B
100
AcDbEntity
  8
0
 62
     3
100
AcDbLine
 10
-126.135402
 20
49.922539
 30
0.0
 11
-126.635402
 21
49.422539
 31
0.0
  0
LINE
  5
418
330
6B
100
AcDbEntity
  8
0
 62
     3
100
AcDbLine
 10
-121.135402
 20
49.922539
 30
0.0
 11
-120.635402
 21
49.422539
 31
0.0
  0
LINE
  5
419
330
6B
100
AcDbEntity
  8
0
 62
     3
100
AcDbLine
 10
-120.635402
 20
49.422539
 30
0.0
 11
-120.635402
 21
48.422539
 31
0.0
  0
LINE
  5
41A
330
6B
100
AcDbEntity
  8
0
 62
     3
100
AcDbLine
 10
-121.635402
 20
49.922539
 30
0.0
 11
-121.635402
 21
53.422539
 31
0.0
  0
LINE
  5
41B
330
6B
100
AcDbEntity
  8
0
 62
     3
100
AcDbLine
 10
-121.135402
 20
53.422539
 30
0.0
 11
-126.135402
 21
53.422539
 31
0.0
  0
LINE
  5
41C
330
6B
100
AcDbEntity
  8
0
 62
     3
100
AcDbLine
 10
-121.135402
 20
53.422539
 30
0.0
 11
-121.135402
 21
54.422539
 31
0.0
  0
LINE
  5
41D
330
6B
100
AcDbEntity
  8
0
 62
     3
100
AcDbLine
 10
-121.135402
 20
54.422539
 30
0.0
 11
-126.135402
 21
54.422539
 31
0.0
  0
LINE
  5
41E
330
6B
100
AcDbEntity
  8
0
 62
     3
100
AcDbLine
 10
-126.135402
 20
53.422539
 30
0.0
 11
-126.135402
 21
54.422539
 31
0.0
  0
LINE
  5
41F
330
6B
100
AcDbEntity
  8
0
 62
     3
100
AcDbLine
 10
-125.635402
 20
49.922539
 30
0.0
 11
-125.635402
 21
53.422539
 31
0.0
  0
LINE
  5
420
330
6B
100
AcDbEntity
  8
0
 62
     3
100
AcDbLine
 10
-121.135402
 20
55.172539
 30
0.0
 11
-126.135402
 21
55.172539
 31
0.0
  0
LINE
  5
421
330
6B
100
AcDbEntity
  8
0
 62
     3
100
AcDbLine
 10
-121.885402
 20
54.422539
 30
0.0
 11
-121.885402
 21
55.172539
 31
0.0
  0
LINE
  5
422
330
6B
100
AcDbEntity
  8
0
 62
     3
100
AcDbLine
 10
-125.385402
 20
54.422539
 30
0.0
 11
-125.385402
 21
55.172539
 31
0.0
  0
LINE
  5
423
330
6B
100
AcDbEntity
  8
0
 62
     3
100
AcDbLine
 10
-121.135402
 20
55.172539
 30
0.0
 11
-121.135402
 21
58.672539
 31
0.0
  0
LINE
  5
424
330
6B
100
AcDbEntity
  8
0
 62
     3
100
AcDbLine
 10
-126.135402
 20
55.172539
 30
0.0
 11
-126.135402
 21
58.672539
 31
0.0
  0
LINE
  5
425
330
6B
100
AcDbEntity
  8
0
 62
     3
100
AcDbLine
 10
-121.635402
 20
59.172539
 30
0.0
 11
-121.135402
 21
58.672539
 31
0.0
  0
LINE
  5
426
330
6B
100
AcDbEntity
  8
0
 62
     3
100
AcDbLine
 10
-125.635402
 20
59.172539
 30
0.0
 11
-126.135402
 21
58.672539
 31
0.0
  0
LINE
  5
427
330
6B
100
AcDbEntity
  8
0
 62
     3
100
AcDbLine
 10
-121.635402
 20
59.172539
 30
0.0
 11
-125.635402
 21
59.172539
 31
0.0
  0
ARC
  5
428
330
6B
100
AcDbEntity
  8
0
 62
     3
100
AcDbCircle
 10
-155.135402
 20
39.922539
 30
0.0
 40
1.75
100
AcDbArc
 50
113.287732
 51
62.497067
  0
LINE
  5
429
330
6B
100
AcDbEntity
  8
0
 62
     3
100
AcDbLine
 10
75.524969
 20
56.672714
 30
0.0
 11
75.524969
 21
58.67271399999999
 31
0.0
  0
LINE
  5
42A
330
6B
100
AcDbEntity
  8
0
 62
     3
100
AcDbLine
 10
70.524969
 20
56.672714
 30
0.0
 11
70.524969
 21
58.67271399999999
 31
0.0
  0
LINE
  5
42B
330
6B
100
AcDbEntity
  8
0
 62
     3
100
AcDbLine
 10
74.774969
 20
54.422714
 30
0.0
 11
74.774969
 21
55.172714
 31
0.0
  0
LINE
  5
42C
330
6B
100
AcDbEntity
  8
0
 62
     3
100
AcDbLine
 10
75.524969
 20
53.422714
 30
0.0
 11
75.524969
 21
54.422714
 31
0.0
  0
LINE
  5
42D
330
6B
100
AcDbEntity
  8
0
 62
     3
100
AcDbLine
 10
70.524969
 20
53.422714
 30
0.0
 11
70.524969
 21
54.422714
 31
0.0
  0
LINE
  5
42E
330
6B
100
AcDbEntity
  8
0
 62
     3
100
AcDbLine
 10
71.024969
 20
49.92271399999999
 30
0.0
 11
71.024969
 21
53.422714
 31
0.0
  0
LINE
  5
42F
330
6B
100
AcDbEntity
  8
0
 62
     3
100
AcDbLine
 10
75.024969
 20
49.92271399999999
 30
0.0
 11
75.024969
 21
53.422714
 31
0.0
  0
LINE
  5
430
330
6B
100
AcDbEntity
  8
0
 62
     3
100
AcDbLine
 10
76.024969
 20
49.422714
 30
0.0
 11
76.024969
 21
48.422714
 31
0.0
  0
LINE
  5
431
330
6B
100
AcDbEntity
  8
0
 62
     3
100
AcDbLine
 10
70.024969
 20
49.422714
 30
0.0
 11
70.024969
 21
48.422714
 31
0.0
  0
LINE
  5
432
330
6B
100
AcDbEntity
  8
0
 62
     3
100
AcDbLine
 10
59.52496899999999
 20
33.185887
 30
0.0
 11
59.52496899999999
 21
27.422714
 31
0.0
  0
ARC
  5
433
330
6B
100
AcDbEntity
  8
0
 62
     3
100
AcDbCircle
 10
59.02496899999999
 20
33.185887
 30
0.0
 40
0.5
100
AcDbArc
 50
0.0
 51
82.400918
  0
ARC
  5
434
330
6B
100
AcDbEntity
  8
0
 62
     3
100
AcDbCircle
 10
59.22333
 20
34.672714
 30
0.0
 40
1.0
100
AcDbArc
 50
198.662925
 51
262.400918
  0
ARC
  5
435
330
6B
100
AcDbEntity
  8
0
 62
     3
100
AcDbCircle
 10
71.806219
 20
38.922714
 30
0.0
 40
14.28125
100
AcDbArc
 50
161.337075
 51
198.662925
  0
ARC
  5
436
330
6B
100
AcDbEntity
  8
0
 62
     3
100
AcDbCircle
 10
59.22333
 20
43.172714
 30
0.0
 40
1.0
100
AcDbArc
 50
90.0
 51
161.337075
  0
LINE
  5
437
330
6B
100
AcDbEntity
  8
0
 62
     3
100
AcDbLine
 10
59.22333
 20
44.17271399999999
 30
0.0
 11
66.024969
 21
44.17271399999999
 31
0.0
  0
LINE
  5
438
330
6B
100
AcDbEntity
  8
0
 62
     3
100
AcDbLine
 10
66.024969
 20
41.44088299999999
 30
0.0
 11
66.024969
 21
45.726015
 31
0.0
  0
ARC
  5
439
330
6B
100
AcDbEntity
  8
0
 62
     3
100
AcDbCircle
 10
66.524969
 20
45.726015
 30
0.0
 40
0.5
100
AcDbArc
 50
90.0
 51
180.0
  0
LINE
  5
43A
330
6B
100
AcDbEntity
  8
0
 62
     3
100
AcDbLine
 10
68.524969
 20
46.226015
 30
0.0
 11
66.524969
 21
46.226015
 31
0.0
  0
ARC
  5
43B
330
6B
100
AcDbEntity
  8
0
 62
     3
100
AcDbCircle
 10
68.524969
 20
45.726015
 30
0.0
 40
0.5
100
AcDbArc
 50
0.0
 51
90.0
  0
LINE
  5
43C
330
6B
100
AcDbEntity
  8
0
 62
     3
100
AcDbLine
 10
75.524969
 20
45.922714
 30
0.0
 11
69.024969
 21
45.922714
 31
0.0
  0
LINE
  5
43D
330
6B
100
AcDbEntity
  8
0
 62
     3
100
AcDbLine
 10
69.52496899999998
 20
47.92271399999999
 30
0.0
 11
69.52496899999998
 21
45.922714
 31
0.0
  0
ARC
  5
43E
330
6B
100
AcDbEntity
  8
0
 62
     3
100
AcDbCircle
 10
70.024969
 20
47.92271399999999
 30
0.0
 40
0.5
100
AcDbArc
 50
90.0
 51
180.0
  0
LINE
  5
43F
330
6B
100
AcDbEntity
  8
0
 62
     3
100
AcDbLine
 10
70.024969
 20
48.422714
 30
0.0
 11
76.024969
 21
48.422714
 31
0.0
  0
ARC
  5
440
330
6B
100
AcDbEntity
  8
0
 62
     3
100
AcDbCircle
 10
76.024969
 20
47.92271399999999
 30
0.0
 40
0.5
100
AcDbArc
 50
0.0
 51
90.0
  0
LINE
  5
441
330
6B
100
AcDbEntity
  8
0
 62
     3
100
AcDbLine
 10
71.024969
 20
31.422714
 30
0.0
 11
71.024969
 21
29.922714
 31
0.0
  0
ARC
  5
442
330
6B
100
AcDbEntity
  8
0
 62
     3
100
AcDbCircle
 10
70.524969
 20
31.422714
 30
0.0
 40
0.5
100
AcDbArc
 50
0.0
 51
90.0
  0
LINE
  5
443
330
6B
100
AcDbEntity
  8
0
 62
     3
100
AcDbLine
 10
70.524969
 20
31.922714
 30
0.0
 11
69.024969
 21
31.922714
 31
0.0
  0
ARC
  5
444
330
6B
100
AcDbEntity
  8
0
 62
     3
100
AcDbCircle
 10
68.524969
 20
32.119413
 30
0.0
 40
0.5
100
AcDbArc
 50
270.0
 51
0.0
  0
LINE
  5
445
330
6B
100
AcDbEntity
  8
0
 62
     3
100
AcDbLine
 10
68.524969
 20
31.619413
 30
0.0
 11
66.524969
 21
31.619413
 31
0.0
  0
ARC
  5
446
330
6B
100
AcDbEntity
  8
0
 62
     3
100
AcDbCircle
 10
66.524969
 20
32.119413
 30
0.0
 40
0.5
100
AcDbArc
 50
180.0
 51
270.0
  0
LINE
  5
447
330
6B
100
AcDbEntity
  8
0
 62
     3
100
AcDbLine
 10
66.524969
 20
27.422714
 30
0.0
 11
66.524969
 21
31.619413
 31
0.0
  0
LINE
  5
448
330
6B
100
AcDbEntity
  8
0
 62
     3
100
AcDbLine
 10
67.02496899999998
 20
27.422714
 30
0.0
 11
59.02496899999999
 21
27.422714
 31
0.0
  0
LINE
  5
449
330
6B
100
AcDbEntity
  8
0
 62
     3
100
AcDbLine
 10
66.024969
 20
36.404545
 30
0.0
 11
66.024969
 21
32.119413
 31
0.0
  0
LINE
  5
44A
330
6B
100
AcDbEntity
  8
0
 62
     3
100
AcDbLine
 10
66.524969
 20
36.904545
 30
0.0
 11
67.02496899999998
 21
36.904545
 31
0.0
  0
ARC
  5
44B
330
6B
100
AcDbEntity
  8
0
 62
     3
100
AcDbCircle
 10
66.524969
 20
36.404545
 30
0.0
 40
0.5
100
AcDbArc
 50
90.0
 51
180.0
  0
ARC
  5
44C
330
6B
100
AcDbEntity
  8
0
 62
     3
100
AcDbCircle
 10
66.524969
 20
41.44088299999999
 30
0.0
 40
0.5
100
AcDbArc
 50
180.0
 51
270.0
  0
LINE
  5
44D
330
6B
100
AcDbEntity
  8
0
 62
     3
100
AcDbLine
 10
66.524969
 20
40.940883
 30
0.0
 11
67.02496899999998
 21
40.940883
 31
0.0
  0
LINE
  5
44E
330
6B
100
AcDbEntity
  8
0
 62
     3
100
AcDbLine
 10
71.024969
 20
59.172714
 30
0.0
 11
75.024969
 21
59.172714
 31
0.0
  0
LINE
  5
44F
330
6B
100
AcDbEntity
  8
0
 62
     3
100
AcDbLine
 10
71.024969
 20
59.172714
 30
0.0
 11
70.524969
 21
58.67271399999999
 31
0.0
  0
LINE
  5
450
330
6B
100
AcDbEntity
  8
0
 62
     3
100
AcDbLine
 10
75.024969
 20
59.172714
 30
0.0
 11
75.524969
 21
58.67271399999999
 31
0.0
  0
LINE
  5
451
330
6B
100
AcDbEntity
  8
0
 62
     3
100
AcDbLine
 10
75.524969
 20
56.672714
 30
0.0
 11
70.524969
 21
56.672714
 31
0.0
  0
LINE
  5
452
330
6B
100
AcDbEntity
  8
0
 62
     3
100
AcDbLine
 10
71.774969
 20
56.672714
 30
0.0
 11
71.774969
 21
55.172714
 31
0.0
  0
LINE
  5
453
330
6B
100
AcDbEntity
  8
0
 62
     3
100
AcDbLine
 10
74.274969
 20
56.672714
 30
0.0
 11
74.274969
 21
55.172714
 31
0.0
  0
LINE
  5
454
330
6B
100
AcDbEntity
  8
0
 62
     3
100
AcDbLine
 10
71.274969
 20
54.422714
 30
0.0
 11
71.274969
 21
55.172714
 31
0.0
  0
LINE
  5
455
330
6B
100
AcDbEntity
  8
0
 62
     3
100
AcDbLine
 10
75.524969
 20
49.92271399999999
 30
0.0
 11
70.524969
 21
49.92271399999999
 31
0.0
  0
LINE
  5
456
330
6B
100
AcDbEntity
  8
0
 62
     3
100
AcDbLine
 10
70.524969
 20
49.92271399999999
 30
0.0
 11
70.024969
 21
49.422714
 31
0.0
  0
LINE
  5
457
330
6B
100
AcDbEntity
  8
0
 62
     3
100
AcDbLine
 10
75.524969
 20
49.92271399999999
 30
0.0
 11
76.024969
 21
49.422714
 31
0.0
  0
ARC
  5
458
330
6B
100
AcDbEntity
  8
0
 62
     3
100
AcDbCircle
 10
-35.427508
 20
33.619238
 30
0.0
 40
2.0
100
AcDbArc
 50
162.067254
 51
315.000002
  0
LINE
  5
459
330
6B
100
AcDbEntity
  8
0
 62
     3
100
AcDbLine
 10
-33.624207
 20
32.59411200000001
 30
0.0
 11
-34.013294
 21
32.205025
 31
0.0
  0
LINE
  5
45A
330
6B
100
AcDbEntity
  8
0
 62
     3
100
AcDbLine
 10
-34.124207
 20
25.922539
 30
0.0
 11
-34.124207
 21
27.422539
 31
0.0
  0
LINE
  5
45B
330
6B
100
AcDbEntity
  8
0
 62
     3
100
AcDbLine
 10
-33.624207
 20
27.422539
 30
0.0
 11
-33.624207
 21
34.235039
 31
0.0
  0
LINE
  5
45C
330
6B
100
AcDbEntity
  8
0
 62
     3
100
AcDbLine
 10
-26.624207
 20
32.59411200000001
 30
0.0
 11
-26.23512
 21
32.205025
 31
0.0
  0
LINE
  5
45D
330
6B
100
AcDbEntity
  8
0
 62
     3
100
AcDbLine
 10
-25.277611
 20
36.90437
 30
0.0
 11
-23.406692
 21
35.033452
 31
0.0
  0
LINE
  5
45E
330
6B
100
AcDbEntity
  8
0
 62
     3
100
AcDbLine
 10
-32.374207
 20
47.422539
 30
0.0
 11
-32.374207
 21
45.551076
 31
0.0
  0
ARC
  5
45F
330
6B
100
AcDbEntity
  8
0
 62
     3
100
AcDbCircle
 10
-31.374207
 20
47.422539
 30
0.0
 40
1.0
100
AcDbArc
 50
90.0
 51
180.0
  0
ARC
  5
460
330
6B
100
AcDbEntity
  8
0
 62
     3
100
AcDbCircle
 10
-34.374207
 20
47.422539
 30
0.0
 40
1.0
100
AcDbArc
 50
90.0
 51
180.0
  0
LINE
  5
461
330
6B
100
AcDbEntity
  8
0
 62
     3
100
AcDbLine
 10
-34.374207
 20
48.422539
 30
0.0
 11
-30.124207
 21
48.422539
 31
0.0
  0
LINE
  5
462
330
6B
100
AcDbEntity
  8
0
 62
     3
100
AcDbLine
 10
-35.374207
 20
47.422539
 30
0.0
 11
-35.374207
 21
46.22512899999999
 31
0.0
  0
LINE
  5
463
330
6B
100
AcDbEntity
  8
0
 62
     3
100
AcDbLine
 10
-33.124207
 20
49.422539
 30
0.0
 11
-33.124207
 21
48.422539
 31
0.0
  0
LINE
  5
464
330
6B
100
AcDbEntity
  8
0
 62
     3
100
AcDbLine
 10
-32.624207
 20
49.922539
 30
0.0
 11
-33.124207
 21
49.422539
 31
0.0
  0
LINE
  5
465
330
6B
100
AcDbEntity
  8
0
 62
     3
100
AcDbLine
 10
-30.124207
 20
53.422539
 30
0.0
 11
-32.624207
 21
53.422539
 31
0.0
  0
LINE
  5
466
330
6B
100
AcDbEntity
  8
0
 62
     3
100
AcDbLine
 10
-29.771457
 20
54.422539
 30
0.0
 11
-32.624207
 21
54.422539
 31
0.0
  0
LINE
  5
467
330
6B
100
AcDbEntity
  8
0
 62
     3
100
AcDbLine
 10
-32.624207
 20
53.422539
 30
0.0
 11
-32.624207
 21
54.422539
 31
0.0
  0
LINE
  5
468
330
6B
100
AcDbEntity
  8
0
 62
     3
100
AcDbLine
 10
-32.124207
 20
49.922539
 30
0.0
 11
-32.124207
 21
53.422539
 31
0.0
  0
LINE
  5
469
330
6B
100
AcDbEntity
  8
0
 62
     3
100
AcDbLine
 10
-29.771457
 20
55.172539
 30
0.0
 11
-32.624207
 21
55.172539
 31
0.0
  0
LINE
  5
46A
330
6B
100
AcDbEntity
  8
0
 62
     3
100
AcDbLine
 10
-31.874207
 20
54.422539
 30
0.0
 11
-31.874207
 21
55.172539
 31
0.0
  0
LINE
  5
46B
330
6B
100
AcDbEntity
  8
0
 62
     3
100
AcDbLine
 10
-29.771457
 20
56.672539
 30
0.0
 11
-32.624207
 21
56.672539
 31
0.0
  0
LINE
  5
46C
330
6B
100
AcDbEntity
  8
0
 62
     3
100
AcDbLine
 10
-32.624207
 20
55.172539
 30
0.0
 11
-32.624207
 21
58.672539
 31
0.0
  0
LINE
  5
46D
330
6B
100
AcDbEntity
  8
0
 62
     3
100
AcDbLine
 10
-32.124207
 20
59.172539
 30
0.0
 11
-32.624207
 21
58.672539
 31
0.0
  0
LINE
  5
46E
330
6B
100
AcDbEntity
  8
0
 62
     3
100
AcDbLine
 10
-29.771457
 20
59.172539
 30
0.0
 11
-32.124207
 21
59.172539
 31
0.0
  0
ARC
  5
46F
330
6B
100
AcDbEntity
  8
0
 62
     3
100
AcDbCircle
 10
-61.624207
 20
38.922539
 30
0.0
 40
1.75
100
AcDbArc
 50
113.287732
 51
62.497067
  0
ARC
  5
470
330
6B
100
AcDbEntity
  8
0
 62
     3
100
AcDbCircle
 10
-50.12420699999999
 20
38.922539
 30
0.0
 40
7.0
100
AcDbArc
 50
116.530783
 51
118.39845
  0
ARC
  5
471
330
6B
100
AcDbEntity
  8
0
 62
     3
100
AcDbCircle
 10
-24.820906
 20
33.619238
 30
0.0
 40
2.0
100
AcDbArc
 50
315.0
 51
45.0
  0
ARC
  5
472
330
6B
100
AcDbEntity
  8
0
 62
     3
100
AcDbCircle
 10
-24.820906
 20
33.619238
 30
0.0
 40
2.0
100
AcDbArc
 50
224.9999980000001
 51
315.0
  0
ARC
  5
473
330
6B
100
AcDbEntity
  8
0
 62
     3
100
AcDbCircle
 10
-30.124207
 20
38.922539
 30
0.0
 40
5.25
100
AcDbArc
 50
306.553379
 51
53.44662099999999
  0
LINE
  5
474
330
6B
100
AcDbEntity
  8
0
 62
     3
100
AcDbLine
 10
-26.997457
 20
44.877716
 30
0.0
 11
-26.23512
 21
45.640053
 31
0.0
  0
ARC
  5
475
330
6B
100
AcDbEntity
  8
0
 62
     3
100
AcDbCircle
 10
-24.820906
 20
44.22584
 30
0.0
 40
2.0
100
AcDbArc
 50
315.0
 51
135.000002
  0
ARC
  5
476
330
6B
100
AcDbEntity
  8
0
 62
     3
100
AcDbCircle
 10
-30.124207
 20
38.922539
 30
0.0
 40
7.0
100
AcDbArc
 50
331.60155
 51
28.39845
  0
LINE
  5
477
330
6B
100
AcDbEntity
  8
0
 62
     3
100
AcDbLine
 10
-25.277611
 20
40.94070799999999
 30
0.0
 11
-23.406692
 21
42.811626
 31
0.0
  0
ARC
  5
478
330
6B
100
AcDbEntity
  8
0
 62
     3
100
AcDbCircle
 10
-30.124207
 20
38.922539
 30
0.0
 40
5.25
100
AcDbArc
 50
243.234499
 51
273.841695
  0
LINE
  5
479
330
6B
100
AcDbEntity
  8
0
 62
     3
100
AcDbLine
 10
-34.124207
 20
27.422539
 30
0.0
 11
-29.772457
 21
27.422539
 31
0.0
  0
LINE
  5
47A
330
6B
100
AcDbEntity
  8
0
 62
     3
100
AcDbLine
 10
-26.997457
 20
27.422539
 30
0.0
 11
-26.124207
 21
27.422539
 31
0.0
  0
LINE
  5
47B
330
6B
100
AcDbEntity
  8
0
 62
     3
100
AcDbLine
 10
-26.124207
 20
27.422539
 30
0.0
 11
-26.124207
 21
25.922539
 31
0.0
  0
LINE
  5
47C
330
6B
100
AcDbEntity
  8
0
 62
     3
100
AcDbLine
 10
-34.124207
 20
25.922539
 30
0.0
 11
-29.772457
 21
25.922539
 31
0.0
  0
LINE
  5
47D
330
6B
100
AcDbEntity
  8
0
 62
     3
100
AcDbLine
 10
-26.997457
 20
25.922539
 30
0.0
 11
-26.124207
 21
25.922539
 31
0.0
  0
LINE
  5
47E
330
6B
100
AcDbEntity
  8
0
 62
     3
100
AcDbLine
 10
-27.624207
 20
18.034749
 30
0.0
 11
-27.624207
 21
17.922539
 31
0.0
  0
LINE
  5
47F
330
6B
100
AcDbEntity
  8
0
 62
     3
100
AcDbLine
 10
-52.62420699999999
 20
18.034749
 30
0.0
 11
-52.62420699999999
 21
17.922539
 31
0.0
  0
LINE
  5
480
330
6B
100
AcDbEntity
  8
0
 62
     3
100
AcDbLine
 10
70.524969
 20
23.422714
 30
0.0
 11
75.524969
 21
23.422714
 31
0.0
  0
LINE
  5
481
330
6B
100
AcDbEntity
  8
0
 62
     3
100
AcDbLine
 10
70.524969
 20
24.422714
 30
0.0
 11
70.524969
 21
23.422714
 31
0.0
  0
LINE
  5
482
330
6B
100
AcDbEntity
  8
0
 62
     3
100
AcDbLine
 10
67.02496899999998
 20
27.422714
 30
0.0
 11
67.02496899999998
 21
25.922714
 31
0.0
  0
LINE
  5
483
330
6B
100
AcDbEntity
  8
0
 62
     3
100
AcDbLine
 10
59.02496899999999
 20
25.922714
 30
0.0
 11
59.02496899999999
 21
27.422714
 31
0.0
  0
LINE
  5
484
330
6B
100
AcDbEntity
  8
0
 62
     3
100
AcDbLine
 10
67.02496899999998
 20
25.922714
 30
0.0
 11
59.02496899999999
 21
25.922714
 31
0.0
  0
LINE
  5
496
330
6B
100
AcDbEntity
  8
0
 62
     3
100
AcDbLine
 10
-118.385402
 20
47.422539
 30
0.0
 11
-118.385402
 21
46.22512899999999
 31
0.0
  0
ARC
  5
497
330
6B
100
AcDbEntity
  8
0
 62
     3
100
AcDbCircle
 10
-119.385402
 20
47.422539
 30
0.0
 40
1.0
100
AcDbArc
 50
0.0
 51
90.0
  0
LINE
  5
498
330
6B
100
AcDbEntity
  8
0
100
AcDbLine
 10
-154.3106335057651
 20
-7.224193699339478
 30
0.0
 11
-111.0524114791987
 21
-7.224193699339478
 31
0.0
  0
LINE
  5
49B
330
6B
100
AcDbEntity
  8
0
 62
     3
100
AcDbLine
 10
169.300637
 20
-121.834277
 30
0.0
 11
169.300637
 21
-98.834277
 31
0.0
  0
LINE
  5
49D
330
6B
100
AcDbEntity
  8
0
 62
     3
100
AcDbLine
 10
116.247027
 20
-128.834277
 30
0.0
 11
116.247027
 21
-114.834277
 31
0.0
  0
TEXT
  5
49F
330
6B
100
AcDbEntity
  8
0
 62
     3
100
AcDbText
 10
145.310955
 20
-102.629161
 30
0.0
 40
2.0
  1
A
 41
0.7
100
AcDbText
  0
TEXT
  5
4A0
330
6B
100
AcDbEntity
  8
0
 62
     3
100
AcDbText
 10
147.846241
 20
-102.629161
 30
0.0
 40
2.0
  1
P
 41
0.7
100
AcDbText
  0
TEXT
  5
4A1
330
6B
100
AcDbEntity
  8
0
 62
     3
100
AcDbText
 10
150.381527
 20
-102.629161
 30
0.0
 40
2.0
  1
P
 41
0.7
100
AcDbText
  0
TEXT
  5
4A2
330
6B
100
AcDbEntity
  8
0
 62
     3
100
AcDbText
 10
152.916813
 20
-102.629161
 30
0.0
 40
2.0
  1
D
 41
0.7
100
AcDbText
  0
TEXT
  5
4A3
330
6B
100
AcDbEntity
  8
0
 62
     3
100
AcDbText
 10
158.285496
 20
-102.629161
 30
0.0
 40
2.0
  1
C
 41
0.7
100
AcDbText
  0
TEXT
  5
4A4
330
6B
100
AcDbEntity
  8
0
 62
     3
100
AcDbText
 10
160.820783
 20
-102.629161
 30
0.0
 40
2.0
  1
H
 41
0.7
100
AcDbText
  0
TEXT
  5
4A5
330
6B
100
AcDbEntity
  8
0
 62
     3
100
AcDbText
 10
163.356069
 20
-102.629161
 30
0.0
 40
2.0
  1
C
 41
0.7
100
AcDbText
  0
TEXT
  5
4A6
330
6B
100
AcDbEntity
  8
0
 62
     3
100
AcDbText
 10
165.891355
 20
-102.629161
 30
0.0
 40
2.0
  1
K
 41
0.7
100
AcDbText
  0
TEXT
  5
4A7
330
6B
100
AcDbEntity
  8
0
 62
     3
100
AcDbText
 10
171.565322
 20
-102.629161
 30
0.0
 40
2.0
  1
DESN
 41
1.216762999999998
100
AcDbText
  0
TEXT
  5
4A8
330
6B
100
AcDbEntity
  8
0
 62
     3
100
AcDbText
 10
86.558963
 20
-131.975659
 30
0.0
 40
2.0
  1
NICHIDO IND.CO.LTD
 41
1.274876
100
AcDbText
  0
LINE
  5
4A9
330
6B
100
AcDbEntity
  8
0
 62
     3
100
AcDbLine
 10
96.94199199999999
 20
-98.834277
 30
0.0
 11
96.94199199999999
 21
-121.834277
 31
0.0
  0
LINE
  5
4AA
330
6B
100
AcDbEntity
  8
0
 62
     3
100
AcDbLine
 10
143.300637
 20
-98.834277
 30
0.0
 11
143.300637
 21
-138.5
 31
0.0
  0
LINE
  5
4AF
330
6B
100
AcDbEntity
  8
0
 62
     3
100
AcDbLine
 10
156.300637
 20
-98.834277
 30
0.0
 11
156.300637
 21
-128.834277
 31
0.0
  0
TEXT
  5
4B0
330
6B
100
AcDbEntity
  8
0
 62
     3
100
AcDbText
 10
144.413081
 20
-127.969591
 30
0.0
 40
3.2
  1
作成日
 41
1.017225999999997
100
AcDbText
  0
LINE
  5
4B1
330
6B
100
AcDbEntity
  8
0
 62
     3
100
AcDbLine
 10
195.0
 20
-98.834277
 30
0.0
 11
83.696558
 21
-98.834277
 31
0.0
  0
LINE
  5
4B2
330
6B
100
AcDbEntity
  8
0
 62
     3
100
AcDbLine
 10
182.300637
 20
-121.834277
 30
0.0
 11
182.300637
 21
-98.834277
 31
0.0
  0
TEXT
  5
4B3
330
6B
100
AcDbEntity
  8
0
 62
     3
100
AcDbText
 10
185.62444
 20
-102.543343
 30
0.0
 40
1.8
  1
D
 41
0.666667
100
AcDbText
  0
TEXT
  5
4B4
330
6B
100
AcDbEntity
  8
0
 62
     3
100
AcDbText
 10
188.441068
 20
-102.543343
 30
0.0
 40
1.8
  1
E
 41
0.666667
100
AcDbText
  0
TEXT
  5
4B5
330
6B
100
AcDbEntity
  8
0
 62
     3
100
AcDbText
 10
191.257696
 20
-102.543343
 30
0.0
 40
1.8
  1
F
 41
0.666667
100
AcDbText
  0
TEXT
  5
4B6
330
6B
100
AcDbEntity
  8
0
 62
     3
100
AcDbText
 10
185.62444
 20
-106.535896
 30
0.0
 40
3.2
  1
製図
 41
1.076369
100
AcDbText
  0
LINE
  5
4B7
330
6B
100
AcDbEntity
  8
0
 62
     3
100
AcDbLine
 10
83.696558
 20
-98.834277
 30
0.0
 11
83.696558
 21
-138.5
 31
0.0
  0
TEXT
  5
4B8
330
6B
100
AcDbEntity
  8
0
 62
     3
100
AcDbText
 10
85.07321000000002
 20
-138.167535
 30
0.0
 40
5.0
  1
日動工業株式会社
 41
0.833333
100
AcDbText
  0
LINE
  5
4B9
330
6B
100
AcDbEntity
  8
0
 62
     3
100
AcDbLine
 10
126.578961
 20
-114.834277
 30
0.0
 11
126.578961
 21
-138.5
 31
0.0
  0
LINE
  5
4BA
330
6B
100
AcDbEntity
  8
0
 62
     3
100
AcDbLine
 10
126.578961
 20
-133.667139
 30
0.0
 11
143.300637
 21
-133.667139
 31
0.0
  0
TEXT
  5
4BB
330
6B
100
AcDbEntity
  8
0
 62
     3
100
AcDbText
 10
127.165563
 20
-132.850708
 30
0.0
 40
3.2
  1
出図コード
 41
0.8356860000000001
100
AcDbText
  0
LINE
  5
4BD
330
6B
100
AcDbEntity
  8
0
 62
     3
100
AcDbLine
 10
83.696558
 20
-128.834277
 30
0.0
 11
195.0
 21
-128.834277
 31
0.0
  0
LINE
  5
4BF
330
6B
100
AcDbEntity
  8
0
 62
     3
100
AcDbLine
 10
83.696558
 20
-107.834277
 30
0.0
 11
195.0
 21
-107.834277
 31
0.0
  0
LINE
  5
4C5
330
6B
100
AcDbEntity
  8
0
 62
     3
100
AcDbLine
 10
83.696558
 20
-114.834277
 30
0.0
 11
143.300637
 21
-114.834277
 31
0.0
  0
LINE
  5
4CB
330
6B
100
AcDbEntity
  8
0
 62
     3
100
AcDbLine
 10
83.696558
 20
-121.834277
 30
0.0
 11
195.0
 21
-121.834277
 31
0.0
  0
TEXT
  5
4CC
330
6B
100
AcDbEntity
  8
0
 62
     3
100
AcDbText
 10
127.033015
 20
-138.0260741276042
 30
0.0
 40
3.2
  1
ZK-A3X
 41
0.8112849999999999
100
AcDbText
  0
TEXT
  5
4CD
330
6B
100
AcDbEntity
  8
0
 62
     3
100
AcDbText
 10
85.513954
 20
-102.664752
 30
0.0
 40
2.0
  1
CONPONENTS
 41
0.5331600000000001
100
AcDbText
  0
TEXT
  5
4CE
330
6B
100
AcDbEntity
  8
0
 62
     3
100
AcDbText
 10
85.164228
 20
-121.596928
 30
0.0
 40
3.0
  1
材
 41
0.833333
100
AcDbText
  0
TEXT
  5
4CF
330
6B
100
AcDbEntity
  8
0
 62
     3
100
AcDbText
 10
92.69986999999998
 20
-121.596928
 30
0.0
 40
3.0
  1
質
 41
0.833333
100
AcDbText
  0
TEXT
  5
4D0
330
6B
100
AcDbEntity
  8
0
 62
     3
100
AcDbText
 10
85.25229799999998
 20
-110.972404
 30
0.0
 40
2.0
  1
MODEL
 41
1.031072999999999
100
AcDbText
  0
TEXT
  5
4D1
330
6B
100
AcDbEntity
  8
0
 62
     3
100
AcDbText
 10
85.164228
 20
-117.91462
 30
0.0
 40
2.0
  1
MATERIAL
 41
0.659278
100
AcDbText
  0
TEXT
  5
4D2
330
6B
100
AcDbEntity
  8
0
 62
     3
100
AcDbText
 10
116.471508
 20
-121.596928
 30
0.0
 40
3.0
  1
備
 41
0.833333
100
AcDbText
  0
TEXT
  5
4D3
330
6B
100
AcDbEntity
  8
0
 62
     3
100
AcDbText
 10
123.20451
 20
-121.596928
 30
0.0
 40
3.0
  1
考
 41
0.833333
100
AcDbText
  0
TEXT
  5
4D4
330
6B
100
AcDbEntity
  8
0
 62
     3
100
AcDbText
 10
116.8727630923599
 20
-117.91462
 30
0.0
 40
2.0
  1
REMARKS
 41
0.675794
100
AcDbText
  0
TEXT
  5
4D5
330
6B
100
AcDbEntity
  8
0
 62
     3
100
AcDbText
 10
86.75395700000001
 20
-124.834741
 30
0.0
 40
2.0
  1
3AD
 41
1.42614
100
AcDbText
  0
TEXT
  5
4D6
330
6B
100
AcDbEntity
  8
0
 62
     3
100
AcDbText
 10
96.06493700000001
 20
-124.669007
 30
0.0
 40
2.0
  1
ANGLE
 41
1.669883999999995
100
AcDbText
  0
TEXT
  5
4D7
330
6B
100
AcDbEntity
  8
0
 62
     3
100
AcDbText
 10
116.998824
 20
-125.045848
 30
0.0
 40
2.0
  1
SCALE
 41
0.7719630000000001
100
AcDbText
  0
TEXT
  5
4D8
330
6B
100
AcDbEntity
  8
0
 62
     3
100
AcDbText
 10
86.440087
 20
-128.834277
 30
0.0
 40
3.0
  1
第
 41
0.833333
100
AcDbText
  0
TEXT
  5
4D9
330
6B
100
AcDbEntity
  8
0
 62
     3
100
AcDbText
 10
94.22693700000001
 20
-128.834277
 30
0.0
 40
3.0
  1
三
 41
0.833333
100
AcDbText
  0
TEXT
  5
4DA
330
6B
100
AcDbEntity
  8
0
 62
     3
100
AcDbText
 10
102.013787
 20
-128.834277
 30
0.0
 40
3.0
  1
角
 41
0.833333
100
AcDbText
  0
TEXT
  5
4DB
330
6B
100
AcDbEntity
  8
0
 62
     3
100
AcDbText
 10
109.800637
 20
-128.834277
 30
0.0
 40
3.0
  1
法
 41
0.833333
100
AcDbText
  0
TEXT
  5
4DC
330
6B
100
AcDbEntity
  8
0
 62
     3
100
AcDbText
 10
116.862029
 20
-128.545848
 30
0.0
 40
3.0
  1
尺
 41
0.833333
100
AcDbText
  0
TEXT
  5
4DD
330
6B
100
AcDbEntity
  8
0
 62
     3
100
AcDbText
 10
123.59503
 20
-128.545848
 30
0.0
 40
3.0
  1
度
 41
0.833333
100
AcDbText
  0
TEXT
  5
4DE
330
6B
100
AcDbEntity
  8
0
 62
     3
100
AcDbText
 10
146.178301
 20
-106.376549
 30
0.0
 40
3.0
  1
承認
 41
1.089472999999999
100
AcDbText
  0
TEXT
  5
4DF
330
6B
100
AcDbEntity
  8
0
 62
     3
100
AcDbText
 10
159.421181
 20
-106.434277
 30
0.0
 40
3.0
  1
検図
 41
0.931761
100
AcDbText
  0
TEXT
  5
4E0
330
6B
100
AcDbEntity
  8
0
 62
     3
100
AcDbText
 10
172.421578
 20
-106.434277
 30
0.0
 40
3.0
  1
設
 41
0.833333
100
AcDbText
  0
TEXT
  5
4E1
330
6B
100
AcDbEntity
  8
0
 62
     3
100
AcDbText
 10
176.911446
 20
-106.434277
 30
0.0
 40
3.0
  1
計
 41
0.833333
100
AcDbText
  0
TEXT
  5
4E2
330
6B
100
AcDbEntity
  8
0
 62
     3
100
AcDbText
 10
85.584061
 20
-106.261725
 30
0.0
 40
3.0
  1
品
 41
0.833333
100
AcDbText
  0
TEXT
  5
4E3
330
6B
100
AcDbEntity
  8
0
 62
     3
100
AcDbText
 10
93.119703
 20
-106.261725
 30
0.0
 40
3.0
  1
名
 41
0.833333
100
AcDbText
  0
TEXT
  5
4E4
330
6B
100
AcDbEntity
  8
0
 62
     3
100
AcDbText
 10
85.25229799999998
 20
-114.3951751078306
 30
0.0
 40
3.0
  1
型
 41
0.833333
100
AcDbText
  0
TEXT
  5
4E5
330
6B
100
AcDbEntity
  8
0
 62
     3
100
AcDbText
 10
92.80038899999999
 20
-114.3951751078306
 30
0.0
 40
3.0
  1
式
 41
0.833333
100
AcDbText
  0
LINE
  5
4E6
330
6B
100
AcDbEntity
  8
0
 62
     3
100
AcDbLine
 10
-207.401924
 20
2.0
 30
0.0
 11
-210.0
 21
0.5
 31
0.0
  0
LINE
  5
4E7
330
6B
100
AcDbEntity
  8
0
 62
     3
100
AcDbLine
 10
-207.401924
 20
2.0
 30
0.0
 11
-210.0
 21
3.5
 31
0.0
  0
LINE
  5
4E8
330
6B
100
AcDbEntity
  8
0
 62
     3
100
AcDbLine
 10
-210.0
 20
0.5
 30
0.0
 11
-210.0
 21
3.5
 31
0.0
  0
LINE
  5
4E9
330
6B
100
AcDbEntity
  8
0
100
AcDbLine
 10
-186.0321525475412
 20
-73.5
 30
0.0
 11
-186.0321525475412
 21
-138.5
 31
0.0
  0
TEXT
  5
4EA
330
6B
100
AcDbEntity
  8
0
 62
     3
100
AcDbText
 10
-184.5321525475412
 20
-78.0
 30
0.0
 40
3.2
  1
ベルマウス
 41
0.8
  7
高3.2
100
AcDbText
  0
TEXT
  5
4EB
330
6B
100
AcDbEntity
  8
0
 62
     3
100
AcDbText
 10
-184.5321525475412
 20
-83.0
 30
0.0
 40
3.2
  1
電線
 41
0.8
  7
高3.2
100
AcDbText
  0
TEXT
  5
4EC
330
6B
100
AcDbEntity
  8
0
 62
     3
100
AcDbText
 10
-184.5321525475412
 20
-98.0
 30
0.0
 40
3.2
  1
サドル
 41
0.8
  7
高3.2
100
AcDbText
  0
TEXT
  5
4ED
330
6B
100
AcDbEntity
  8
0
 62
     3
100
AcDbText
 10
-184.5321525475412
 20
-103.0
 30
0.0
 40
3.2
  1
組立ボルト
 41
0.8
  7
高3.2
100
AcDbText
  0
TEXT
  5
4EE
330
6B
100
AcDbEntity
  8
0
 62
     3
100
AcDbText
 10
-184.5321525475412
 20
-108.0
 30
0.0
 40
3.2
  1
ハンドル
 41
0.8
  7
高3.2
100
AcDbText
  0
TEXT
  5
4EF
330
6B
100
AcDbEntity
  8
0
 62
     3
100
AcDbText
 10
-184.5321525475412
 20
-113.0
 30
0.0
 40
3.2
  1
キャップ
 41
0.8
  7
高3.2
100
AcDbText
  0
TEXT
  5
4F0
330
6B
100
AcDbEntity
  8
0
 62
     3
100
AcDbText
 10
-184.5321525475412
 20
-118.0
 30
0.0
 40
3.2
  1
シャフト
 41
0.8
  7
高3.2
100
AcDbText
  0
TEXT
  5
4F1
330
6B
100
AcDbEntity
  8
0
 62
     3
100
AcDbText
 10
-184.5321525475412
 20
-123.0
 30
0.0
 40
3.2
  1
巻胴
 41
0.8
  7
高3.2
100
AcDbText
  0
TEXT
  5
4F2
330
6B
100
AcDbEntity
  8
0
 62
     3
100
AcDbText
 10
-184.5321525475412
 20
-128.0
 30
0.0
 40
3.2
  1
側板
 41
0.8
  7
高3.2
100
AcDbText
  0
TEXT
  5
4F3
330
6B
100
AcDbEntity
  8
0
 62
     3
100
AcDbText
 10
-184.5321525475412
 20
-133.0
 30
0.0
 40
3.2
  1
フレーム
 41
0.8
  7
高3.2
100
AcDbText
  0
TEXT
  5
4F4
330
6B
100
AcDbEntity
  8
0
 62
     3
100
AcDbText
 10
-98.23477434142477
 20
-98.0
 30
0.0
 40
3.2
  1
1
 41
0.8
  7
高3.2
100
AcDbText
  0
TEXT
  5
4F5
330
6B
100
AcDbEntity
  8
0
 62
     3
100
AcDbText
 10
-98.23477434142477
 20
-103.0
 30
0.0
 40
3.2
  1
6
 41
0.8
  7
高3.2
100
AcDbText
  0
TEXT
  5
4F6
330
6B
100
AcDbEntity
  8
0
 62
     3
100
AcDbText
 10
-98.23477434142477
 20
-108.0
 30
0.0
 40
3.2
  1
1
 41
0.8
  7
高3.2
100
AcDbText
  0
TEXT
  5
4F7
330
6B
100
AcDbEntity
  8
0
 62
     3
100
AcDbText
 10
-98.23477434142477
 20
-113.0
 30
0.0
 40
3.2
  1
1
 41
0.8
  7
高3.2
100
AcDbText
  0
TEXT
  5
4F8
330
6B
100
AcDbEntity
  8
0
 62
     3
100
AcDbText
 10
-98.23477434142477
 20
-118.0
 30
0.0
 40
3.2
  1
1
 41
0.8
  7
高3.2
100
AcDbText
  0
TEXT
  5
4F9
330
6B
100
AcDbEntity
  8
0
 62
     3
100
AcDbText
 10
-98.23477434142477
 20
-123.0
 30
0.0
 40
3.2
  1
1
 41
0.8
  7
高3.2
100
AcDbText
  0
TEXT
  5
4FA
330
6B
100
AcDbEntity
  8
0
 62
     3
100
AcDbText
 10
-98.23477434142477
 20
-128.0
 30
0.0
 40
3.2
  1
2
 41
0.8
  7
高3.2
100
AcDbText
  0
TEXT
  5
4FB
330
6B
100
AcDbEntity
  8
0
 62
     3
100
AcDbText
 10
-98.23477434142477
 20
-133.0
 30
0.0
 40
3.2
  1
1
 41
0.8
  7
高3.2
100
AcDbText
  0
TEXT
  5
4FC
330
6B
100
AcDbEntity
  8
0
 62
     3
100
AcDbText
 10
-161.1140594117448
 20
-133.0
 30
0.0
 40
3.2
  1
STKM
 41
0.8
  7
高3.2
100
AcDbText
  0
TEXT
  5
4FD
330
6B
100
AcDbEntity
  8
0
 62
     3
100
AcDbText
 10
-161.1140594117448
 20
-128.0
 30
0.0
 40
3.2
  1
SPCC
 41
0.8
  7
高3.2
100
AcDbText
  0
TEXT
  5
4FE
330
6B
100
AcDbEntity
  8
0
 62
     3
100
AcDbText
 10
-161.1140594117448
 20
-123.0
 30
0.0
 40
3.2
  1
SPCC
 41
0.8
  7
高3.2
100
AcDbText
  0
TEXT
  5
4FF
330
6B
100
AcDbEntity
  8
0
 62
     3
100
AcDbText
 10
-161.1140594117448
 20
-118.0
 30
0.0
 40
3.2
  1
STKM
 41
0.8
  7
高3.2
100
AcDbText
  0
TEXT
  5
500
330
6B
100
AcDbEntity
  8
0
 62
     3
100
AcDbText
 10
-161.1140594117448
 20
-113.0
 30
0.0
 40
3.2
  1
SS41
 41
0.8
  7
高3.2
100
AcDbText
  0
TEXT
  5
501
330
6B
100
AcDbEntity
  8
0
 62
     3
100
AcDbText
 10
-161.1140594117448
 20
-108.0
 30
0.0
 40
3.2
  1
SPCC、樹脂
 41
0.8
  7
高3.2
100
AcDbText
  0
TEXT
  5
502
330
6B
100
AcDbEntity
  8
0
 62
     3
100
AcDbText
 10
-161.1140594117448
 20
-103.0
 30
0.0
 40
3.2
  1
SS41
 41
0.8
  7
高3.2
100
AcDbText
  0
TEXT
  5
503
330
6B
100
AcDbEntity
  8
0
 62
     3
100
AcDbText
 10
-139.2074087552091
 20
-118.0
 30
0.0
 40
3.2
  1
%%C34
 41
0.8
  7
高3.2
100
AcDbText
  0
TEXT
  5
504
330
6B
100
AcDbEntity
  8
0
 62
     3
100
AcDbText
 10
-139.2074087552091
 20
-128.0
 30
0.0
 40
3.2
  1
%%C480
 41
0.8
  7
高3.2
100
AcDbText
  0
TEXT
  5
505
330
6B
100
AcDbEntity
  8
0
 62
     3
100
AcDbText
 10
-193.5
 20
-93.0
 30
0.0
 40
3.2
  1
9
 41
0.8
  7
高3.2
100
AcDbText
  0
TEXT
  5
506
330
6B
100
AcDbEntity
  8
0
 62
     3
100
AcDbText
 10
-193.5
 20
-98.0
 30
0.0
 40
3.2
  1
8
 41
0.8
  7
高3.2
100
AcDbText
  0
TEXT
  5
507
330
6B
100
AcDbEntity
  8
0
 62
     3
100
AcDbText
 10
-193.5
 20
-103.0
 30
0.0
 40
3.2
  1
7
 41
0.8
  7
高3.2
100
AcDbText
  0
TEXT
  5
508
330
6B
100
AcDbEntity
  8
0
 62
     3
100
AcDbText
 10
-193.5
 20
-108.0
 30
0.0
 40
3.2
  1
6
 41
0.8
  7
高3.2
100
AcDbText
  0
TEXT
  5
509
330
6B
100
AcDbEntity
  8
0
 62
     3
100
AcDbText
 10
-193.5
 20
-113.0
 30
0.0
 40
3.2
  1
5
 41
0.8
  7
高3.2
100
AcDbText
  0
TEXT
  5
50A
330
6B
100
AcDbEntity
  8
0
 62
     3
100
AcDbText
 10
-193.5
 20
-118.0
 30
0.0
 40
3.2
  1
4
 41
0.8
  7
高3.2
100
AcDbText
  0
TEXT
  5
50B
330
6B
100
AcDbEntity
  8
0
 62
     3
100
AcDbText
 10
-193.5
 20
-123.0
 30
0.0
 40
3.2
  1
3
 41
0.8
  7
高3.2
100
AcDbText
  0
TEXT
  5
50C
330
6B
100
AcDbEntity
  8
0
 62
     3
100
AcDbText
 10
-193.5
 20
-128.0
 30
0.0
 40
3.2
  1
2
 41
0.8
  7
高3.2
100
AcDbText
  0
TEXT
  5
50D
330
6B
100
AcDbEntity
  8
0
 62
     3
100
AcDbText
 10
-193.5
 20
-133.0
 30
0.0
 40
3.2
  1
1
 41
0.8
  7
高3.2
100
AcDbText
  0
TEXT
  5
50E
330
6B
100
AcDbEntity
  8
0
 62
     3
100
AcDbText
 10
-184.5321525475412
 20
-88.0
 30
0.0
 40
3.2
  1
プラグ
 41
0.8
  7
高3.2
100
AcDbText
  0
TEXT
  5
50F
330
6B
100
AcDbEntity
  8
0
 62
     3
100
AcDbText
 10
-184.5321525475412
 20
-93.0
 30
0.0
 40
3.2
  1
コンセント
 41
0.8
  7
高3.2
100
AcDbText
  0
TEXT
  5
510
330
6B
100
AcDbEntity
  8
0
 62
     3
100
AcDbText
 10
-98.23477434142477
 20
-78.0
 30
0.0
 40
3.2
  1
1
 41
0.8
  7
高3.2
100
AcDbText
  0
TEXT
  5
511
330
6B
100
AcDbEntity
  8
0
 62
     3
100
AcDbText
 10
-98.23477434142477
 20
-83.0
 30
0.0
 40
3.2
  1
1
 41
0.8
  7
高3.2
100
AcDbText
  0
TEXT
  5
513
330
6B
100
AcDbEntity
  8
0
 62
     3
100
AcDbText
 10
-98.23477434142477
 20
-93.0
 30
0.0
 40
3.2
  1
1式
 41
0.8
  7
高3.2
100
AcDbText
  0
TEXT
  5
514
330
6B
100
AcDbEntity
  8
0
 62
     3
100
AcDbText
 10
-161.1140594117448
 20
-83.0
 30
0.0
 40
3.2
  1
3PNCT
 41
0.8
  7
高3.2
100
AcDbText
  0
TEXT
  5
515
330
6B
100
AcDbEntity
  8
0
 62
     3
100
AcDbText
 10
-139.2074087552091
 20
-78.0
 30
0.0
 40
3.2
  1
EX28BWC
 41
0.8
  7
高3.2
100
AcDbText
  0
TEXT
  5
516
330
6B
100
AcDbEntity
  8
0
 62
     3
100
AcDbText
 10
-193.5
 20
-78.0
 30
0.0
 40
3.2
  1
12
 41
0.8
  7
高3.2
100
AcDbText
  0
TEXT
  5
517
330
6B
100
AcDbEntity
  8
0
 62
     3
100
AcDbText
 10
-193.5
 20
-83.0
 30
0.0
 40
3.2
  1
11
 41
0.8
  7
高3.2
100
AcDbText
  0
TEXT
  5
518
330
6B
100
AcDbEntity
  8
0
 62
     3
100
AcDbText
 10
-193.5
 20
-88.0
 30
0.0
 40
3.2
  1
10
 41
0.8
  7
高3.2
100
AcDbText
  0
TEXT
  5
519
330
6B
100
AcDbEntity
  8
0
 62
     3
100
AcDbText
 10
-161.1140594117448
 20
-78.0
 30
0.0
 40
3.2
  1
黄銅
 41
0.8
  7
高3.2
100
AcDbText
  0
LINE
  5
51A
330
6B
100
AcDbEntity
  8
0
 62
     3
100
AcDbLine
 10
194.899964
 20
-92.834277
 30
0.0
 11
143.3006
 21
-92.834277
 31
0.0
  0
TEXT
  5
51B
330
6B
100
AcDbEntity
  8
0
 62
     3
100
AcDbText
 10
149.433741701976
 20
-98.278192
 30
0.0
 40
4.5
  1
コード
  7
高4.5
100
AcDbText
  0
LINE
  5
51C
330
6B
100
AcDbEntity
  8
0
 62
     3
100
AcDbLine
 10
169.3006
 20
-98.834277
 30
0.0
 11
169.3006
 21
-92.834277
 31
0.0
  0
LINE
  5
51D
330
6B
100
AcDbEntity
  8
0
 62
     3
100
AcDbLine
 10
143.3006
 20
-98.834277
 30
0.0
 11
143.3006
 21
-92.834277
 31
0.0
  0
TEXT
  5
51E
330
6B
100
AcDbEntity
  8
0
 62
     3
100
AcDbText
 10
173.7538515790402
 20
-98.335921
 30
0.0
 40
4.5
  1
5290
  7
高4.5
100
AcDbText
  0
LINE
  5
51F
330
6B
100
AcDbEntity
  8
0
 62
     3
100
AcDbLine
 10
-23.12378634303438
 20
-73.5
 30
0.0
 11
-195.0
 21
-73.5
 31
0.0
  0
LINE
  5
520
330
6B
100
AcDbEntity
  8
0
100
AcDbLine
 10
-23.12378634303438
 20
-128.5
 30
0.0
 11
-195.0
 21
-128.5
 31
0.0
  0
LINE
  5
521
330
6B
100
AcDbEntity
  8
0
100
AcDbLine
 10
-23.12378634303438
 20
-123.5
 30
0.0
 11
-195.0
 21
-123.5
 31
0.0
  0
LINE
  5
522
330
6B
100
AcDbEntity
  8
0
100
AcDbLine
 10
-23.12378634303438
 20
-118.5
 30
0.0
 11
-195.0
 21
-118.5
 31
0.0
  0
LINE
  5
523
330
6B
100
AcDbEntity
  8
0
100
AcDbLine
 10
-23.12378634303438
 20
-113.5
 30
0.0
 11
-195.0
 21
-113.5
 31
0.0
  0
LINE
  5
524
330
6B
100
AcDbEntity
  8
0
100
AcDbLine
 10
-23.12378634303438
 20
-108.5
 30
0.0
 11
-195.0
 21
-108.5
 31
0.0
  0
LINE
  5
525
330
6B
100
AcDbEntity
  8
0
100
AcDbLine
 10
-23.12378634303438
 20
-98.50000000000001
 30
0.0
 11
-195.0
 21
-98.50000000000001
 31
0.0
  0
LINE
  5
526
330
6B
100
AcDbEntity
  8
0
100
AcDbLine
 10
-162.6140594117448
 20
-88.49999999999999
 30
0.0
 11
-195.0
 21
-88.49999999999999
 31
0.0
  0
LINE
  5
527
330
6B
100
AcDbEntity
  8
0
100
AcDbLine
 10
-23.12378634303438
 20
-93.49999999999999
 30
0.0
 11
-195.0
 21
-93.49999999999999
 31
0.0
  0
LINE
  5
528
330
6B
100
AcDbEntity
  8
0
100
AcDbLine
 10
-23.12378634303438
 20
-83.49999999999999
 30
0.0
 11
-195.0
 21
-83.49999999999999
 31
0.0
  0
LINE
  5
529
330
6B
100
AcDbEntity
  8
0
100
AcDbLine
 10
-23.12378634303438
 20
-78.5
 30
0.0
 11
-195.0
 21
-78.5
 31
0.0
  0
LINE
  5
52A
330
6B
100
AcDbEntity
  8
0
100
AcDbLine
 10
-23.12378634303438
 20
-103.5
 30
0.0
 11
-195.0
 21
-103.5
 31
0.0
  0
LINE
  5
52B
330
6B
100
AcDbEntity
  8
0
 62
     3
100
AcDbLine
 10
-23.12378634303438
 20
-133.5
 30
0.0
 11
-195.0
 21
-133.5
 31
0.0
  0
CIRCLE
  5
532
330
6B
100
AcDbEntity
  8
0
100
AcDbCircle
 10
-121.341559
 20
91.683032
 30
0.0
 40
5.0
  0
TEXT
  5
533
330
6B
100
AcDbEntity
  8
0
 62
     4
100
AcDbText
 10
-123.1123450888679
 20
88.37559562141597
 30
0.0
 40
6.299999999999998
  1
7
  7
高6.3
100
AcDbText
  0
CIRCLE
  5
53A
330
6B
100
AcDbEntity
  8
0
100
AcDbCircle
 10
-104.753651
 20
91.683032
 30
0.0
 40
5.0
  0
TEXT
  5
53B
330
6B
100
AcDbEntity
  8
0
 62
     4
100
AcDbText
 10
-107.9276864626815
 20
89.22264485431153
 30
0.0
 40
4.5
  1
12
  7
高4.5
100
AcDbText
  0
CIRCLE
  5
542
330
6B
100
AcDbEntity
  8
0
100
AcDbCircle
 10
-91.60090099999999
 20
91.683032
 30
0.0
 40
5.0
  0
TEXT
  5
543
330
6B
100
AcDbEntity
  8
0
 62
     4
100
AcDbText
 10
-93.80242309915294
 20
88.37559562141597
 30
0.0
 40
6.299999999999998
  1
9
  7
高6.3
100
AcDbText
  0
CIRCLE
  5
54A
330
6B
100
AcDbEntity
  8
0
100
AcDbCircle
 10
-66.24423399999999
 20
91.683032
 30
0.0
 40
5.0
  0
TEXT
  5
54B
330
6B
100
AcDbEntity
  8
0
 62
     4
100
AcDbText
 10
-68.294009295799
 20
88.361260520398
 30
0.0
 40
6.299999999999998
  1
8
  7
高6.3
100
AcDbText
  0
CIRCLE
  5
54D
330
6B
100
AcDbEntity
  8
0
100
AcDbCircle
 10
34.278683
 20
91.683032
 30
0.0
 40
5.0
  0
TEXT
  5
54E
330
6B
100
AcDbEntity
  8
0
 62
     4
100
AcDbText
 10
32.29641706820326
 20
88.71228636471769
 30
0.0
 40
6.299999999999998
  1
6
  7
高6.3
100
AcDbText
  0
CIRCLE
  5
550
330
6B
100
AcDbEntity
  8
0
100
AcDbCircle
 10
137.756901
 20
52.81511899999999
 30
0.0
 40
5.0
  0
TEXT
  5
551
330
6B
100
AcDbEntity
  8
0
 62
     4
100
AcDbText
 10
135.8472026162239
 20
49.79099857717847
 30
0.0
 40
6.299999999999998
  1
5
  7
高6.3
100
AcDbText
  0
CIRCLE
  5
553
330
6B
100
AcDbEntity
  8
0
100
AcDbCircle
 10
154.059351
 20
52.861881
 30
0.0
 40
5.0
  0
TEXT
  5
554
330
6B
100
AcDbEntity
  8
0
 62
     4
100
AcDbText
 10
151.8117993947628
 20
50.82275242970581
 30
0.0
 40
4.5
  1
11
  7
高4.5
100
AcDbText
  0
CIRCLE
  5
55B
330
6B
100
AcDbEntity
  8
0
100
AcDbCircle
 10
154.059351
 20
33.08904
 30
0.0
 40
5.0
  0
TEXT
  5
55C
330
6B
100
AcDbEntity
  8
0
 62
     4
100
AcDbText
 10
151.185851308602
 20
30.59489492265959
 30
0.0
 40
4.5
  1
10
  7
高4.5
100
AcDbText
  0
TEXT
  5
55D
330
6B
100
AcDbEntity
  8
0
 62
     3
100
AcDbText
 10
-161.1140594117448
 20
-98.0
 30
0.0
 40
3.2
  1
SUS
 41
0.8
  7
高3.2
100
AcDbText
  0
LINE
  5
55E
330
6B
100
AcDbEntity
  8
0
100
AcDbLine
 10
-99.73477434142477
 20
-73.5
 30
0.0
 11
-99.73477434142477
 21
-138.5
 31
0.0
  0
LINE
  5
55F
330
6B
100
AcDbEntity
  8
0
100
AcDbLine
 10
-162.6140594117448
 20
-73.5
 30
0.0
 11
-162.6140594117448
 21
-138.5
 31
0.0
  0
LINE
  5
560
330
6B
100
AcDbEntity
  8
0
100
AcDbLine
 10
-140.7074087552091
 20
-73.5
 30
0.0
 11
-140.7074087552091
 21
-138.5
 31
0.0
  0
LINE
  5
561
330
6B
100
AcDbEntity
  8
0
100
AcDbLine
 10
-90.50687994037129
 20
-73.5
 30
0.0
 11
-90.50687994037129
 21
-138.5
 31
0.0
  0
TEXT
  5
562
330
6B
100
AcDbEntity
  8
0
 62
     3
100
AcDbText
 10
-139.2074087552091
 20
-98.0
 30
0.0
 40
3.2
  1
AC-18
 41
0.8
  7
高3.2
100
AcDbText
  0
TEXT
  5
563
330
6B
100
AcDbEntity
  8
0
 62
     3
100
AcDbText
 10
-139.2074087552091
 20
-133.0
 30
0.0
 40
3.2
  1
%%C22.2x1.6、FB75x6
 41
0.8
  7
高3.2
100
AcDbText
  0
TEXT
  5
564
330
6B
100
AcDbEntity
  8
0
 62
     3
100
AcDbText
 10
-139.2074087552091
 20
-83.0
 30
0.0
 40
3.2
  1
2.0sqx4芯x30m
 41
0.8
  7
高3.2
100
AcDbText
  0
TEXT
  5
565
330
6B
100
AcDbEntity
  8
0
 62
     3
100
AcDbText
 10
-139.2074087552091
 20
-93.0
 30
0.0
 40
3.2
  1
岩崎電気EXSCK1145
 41
0.8
  7
高3.2
100
AcDbText
  0
TEXT
  5
567
330
6B
100
AcDbEntity
  8
0
 62
     3
100
AcDbText
 10
-89.00687994037131
 20
-138.0
 30
0.0
 40
3.2
  1
コード
 41
0.8
  7
高3.2
100
AcDbText
  0
TEXT
  5
575
330
6B
100
AcDbEntity
  8
0
 62
     3
100
AcDbText
 10
-89.00687994037131
 20
-133.0
 30
0.0
 40
3.2
  1
50710
 41
0.8
  7
高3.2
100
AcDbText
  0
TEXT
  5
576
330
6B
100
AcDbEntity
  8
0
 62
     3
100
AcDbText
 10
-89.00687994037131
 20
-128.0
 30
0.0
 40
3.2
  1
50826
 41
0.8
  7
高3.2
100
AcDbText
  0
TEXT
  5
577
330
6B
100
AcDbEntity
  8
0
 62
     3
100
AcDbText
 10
-89.00687994037131
 20
-123.0
 30
0.0
 40
3.2
  1
51508
 41
0.8
  7
高3.2
100
AcDbText
  0
TEXT
  5
578
330
6B
100
AcDbEntity
  8
0
 62
     3
100
AcDbText
 10
-89.00687994037131
 20
-118.0
 30
0.0
 40
3.2
  1
50009
 41
0.8
  7
高3.2
100
AcDbText
  0
TEXT
  5
579
330
6B
100
AcDbEntity
  8
0
 62
     3
100
AcDbText
 10
-89.00687994037131
 20
-113.0
 30
0.0
 40
3.2
  1
50098
 41
0.8
  7
高3.2
100
AcDbText
  0
TEXT
  5
57A
330
6B
100
AcDbEntity
  8
0
 62
     3
100
AcDbText
 10
-89.00687994037131
 20
-108.0
 30
0.0
 40
3.2
  1
52853
 41
0.8
  7
高3.2
100
AcDbText
  0
TEXT
  5
57B
330
6B
100
AcDbEntity
  8
0
 62
     3
100
AcDbText
 10
-89.00687994037131
 20
-103.0
 30
0.0
 40
3.2
  1
50564
 41
0.8
  7
高3.2
100
AcDbText
  0
TEXT
  5
57C
330
6B
100
AcDbEntity
  8
0
 62
     3
100
AcDbText
 10
-89.00687994037131
 20
-98.0
 30
0.0
 40
3.2
  1
50212
 41
0.8
  7
高3.2
100
AcDbText
  0
TEXT
  5
57D
330
6B
100
AcDbEntity
  8
0
 62
     3
100
AcDbText
 10
-89.00687994037131
 20
-93.0
 30
0.0
 40
3.2
  1
50511
 41
0.8
  7
高3.2
100
AcDbText
  0
TEXT
  5
57E
330
6B
100
AcDbEntity
  8
0
 62
     3
100
AcDbText
 10
-89.00687994037131
 20
-83.0
 30
0.0
 40
3.2
  1
51261
 41
0.8
  7
高3.2
100
AcDbText
  0
TEXT
  5
57F
330
6B
100
AcDbEntity
  8
0
 62
     3
100
AcDbText
 10
-89.00687994037131
 20
-78.0
 30
0.0
 40
3.2
  1
50512
 41
0.8
  7
高3.2
100
AcDbText
  0
LINE
  5
8A1
330
6B
100
AcDbEntity
  8
0
 62
     3
100
AcDbLine
 10
-23.12378634303438
 20
-73.5
 30
0.0
 11
-23.12378634303438
 21
-138.5
 31
0.0
  0
TEXT
  5
8A2
330
6B
100
AcDbEntity
  8
0
 62
     3
100
AcDbText
 10
-74.00371378830695
 20
-113.0
 30
0.0
 40
3.2
  1
シャフトキャップ（クローメート）（NDF等）
 41
0.6
  7
高3.2
100
AcDbText
  0
TEXT
  5
8A3
330
6B
100
AcDbEntity
  8
0
 62
     3
100
AcDbText
 10
-74.00371378830695
 20
-108.0
 30
0.0
 40
3.2
  1
SLK-100用折りたたみハンドル
 41
0.6
  7
高3.2
100
AcDbText
  0
TEXT
  5
8A4
330
6B
100
AcDbEntity
  8
0
 62
     3
100
AcDbText
 10
-74.00371378830695
 20
-103.0
 30
0.0
 40
3.2
  1
組立ボルト12\U+03C6x349 NDD M8
 41
0.6
  7
高3.2
100
AcDbText
  0
TEXT
  5
8A5
330
6B
100
AcDbEntity
  8
0
 62
     3
100
AcDbText
 10
-74.00371378830695
 20
-98.0
 30
0.0
 40
3.2
  1
サドル　AC-18
 41
0.6
  7
高3.2
100
AcDbText
  0
TEXT
  5
8A6
330
6B
100
AcDbEntity
  8
0
 62
     3
100
AcDbText
 10
-74.00371378830695
 20
-93.0
 30
0.0
 40
3.2
  1
岩崎EXSCK1145
 41
0.6
  7
高3.2
100
AcDbText
  0
TEXT
  5
8A7
330
6B
100
AcDbEntity
  8
0
 62
     3
100
AcDbText
 10
-74.00371378830695
 20
-83.0
 30
0.0
 40
3.2
  1
3PNCT2x4
 41
0.6
  7
高3.2
100
AcDbText
  0
TEXT
  5
8A8
330
6B
100
AcDbEntity
  8
0
 62
     3
100
AcDbText
 10
-74.00371378830695
 20
-78.0
 30
0.0
 40
3.2
  1
岩崎　EX28BWC
 41
0.6
  7
高3.2
100
AcDbText
  0
TEXT
  5
8A9
330
6B
100
AcDbEntity
  8
0
 62
     3
100
AcDbText
 10
-74.00371378830695
 20
-118.0
 30
0.0
 40
3.2
  1
NDF-シャフトオーシャンブルー
 41
0.6
  7
高3.2
100
AcDbText
  0
TEXT
  5
8AA
330
6B
100
AcDbEntity
  8
0
 62
     3
100
AcDbText
 10
-74.00371378830695
 20
-123.0
 30
0.0
 40
3.2
  1
（内）NDD-L中枠加工（ボンデ）
 41
0.6
  7
高3.2
100
AcDbText
  0
TEXT
  5
8AB
330
6B
100
AcDbEntity
  8
0
 62
     3
100
AcDbText
 10
-74.00371378830695
 20
-128.0
 30
0.0
 40
3.2
  1
480\U+03C6側板　オーシャンブルー（NDB）
 41
0.6
  7
高3.2
100
AcDbText
  0
TEXT
  5
8AC
330
6B
100
AcDbEntity
  8
0
 62
     3
100
AcDbText
 10
-74.00371378830695
 20
-133.0
 30
0.0
 40
3.2
  1
NDF-470W脚　黒
 41
0.6
  7
高3.2
100
AcDbText
  0
TEXT
  5
8AD
330
6B
100
AcDbEntity
  8
0
 62
     3
100
AcDbText
 10
-74.00371378830695
 20
-138.0
 30
0.0
 40
3.2
  1
コード番号名称
 41
0.6
  7
高3.2
100
AcDbText
  0
LINE
  5
B54
330
6B
100
AcDbEntity
  8
0
100
AcDbLine
 10
-75.50371378830695
 20
-73.5
 30
0.0
 11
-75.50371378830695
 21
-138.5
 31
0.0
  0
TEXT
  5
EA0
330
6B
100
AcDbEntity
  8
0
 62
     3
100
AcDbText
 10
182.5
 20
129.0
 30
0.0
 40
3.2
  1
担　当
  7
高3.2
100
AcDbText
  0
TEXT
  5
EA1
330
6B
100
AcDbEntity
  8
0
 62
     3
100
AcDbText
 10
138.5
 20
129.0
 30
0.0
 40
3.2
  1
変更・追記内容
  7
高3.2
100
AcDbText
  0
TEXT
  5
EA2
330
6B
100
AcDbEntity
  8
0
 62
     3
100
AcDbText
 10
113.6135150003392
 20
124.3294614900917
 30
0.0
 40
2.0
  1
1
  7
高2
100
AcDbText
  0
TEXT
  5
EA3
330
6B
100
AcDbEntity
  8
0
 62
     3
100
AcDbText
 10
113.3050035235819
 20
119.1596447778188
 30
0.0
 40
2.0
  1
2
  7
高2
100
AcDbText
  0
TEXT
  5
EA4
330
6B
100
AcDbEntity
  8
0
 62
     3
100
AcDbText
 10
120.5
 20
129.0
 30
0.0
 40
3.2
  1
日　付
  7
高3.2
100
AcDbText
  0
TEXT
  5
EA5
330
6B
100
AcDbEntity
  8
0
 62
     3
100
AcDbText
 10
120.5
 20
134.0
 30
0.0
 40
3.2
  1
図　　　　面　　　　略　　　　歴
  7
高3.2
100
AcDbText
  0
TEXT
  5
EA6
330
6B
100
AcDbEntity
  8
0
 62
     3
100
AcDbText
 10
110.5
 20
129.0
 30
0.0
 40
3.2
  1
記号
  7
高3.2
100
AcDbText
  0
LINE
  5
EA7
330
6B
100
AcDbEntity
  8
0
 62
     7
100
AcDbLine
 10
114.0
 20
122.2908960000001
 30
0.0
 11
112.0999999999999
 21
119.0
 31
0.0
  0
LINE
  5
EA8
330
6B
100
AcDbEntity
  8
0
 62
     7
100
AcDbLine
 10
114.0
 20
122.2908960000001
 30
0.0
 11
115.8999999999998
 21
119.0
 31
0.0
  0
LINE
  5
EA9
330
6B
100
AcDbEntity
  8
0
 62
     7
100
AcDbLine
 10
112.0999999999999
 20
119.0
 30
0.0
 11
115.8999999999998
 21
119.0
 31
0.0
  0
LINE
  5
EAA
330
6B
100
AcDbEntity
  8
0
 62
     7
100
AcDbLine
 10
114.0
 20
127.2908970000001
 30
0.0
 11
112.0999999999999
 21
124.0
 31
0.0
  0
LINE
  5
EAB
330
6B
100
AcDbEntity
  8
0
 62
     7
100
AcDbLine
 10
114.0
 20
127.2908970000001
 30
0.0
 11
115.8999999999998
 21
124.0
 31
0.0
  0
LINE
  5
EAC
330
6B
100
AcDbEntity
  8
0
 62
     7
100
AcDbLine
 10
112.0999999999999
 20
124.0
 30
0.0
 11
115.8999999999998
 21
124.0
 31
0.0
  0
LINE
  5
EAD
330
6B
100
AcDbEntity
  8
0
 62
     3
100
AcDbLine
 10
109.0
 20
133.5
 30
0.0
 11
195.0
 21
133.5
 31
0.0
  0
LINE
  5
EAE
330
6B
100
AcDbEntity
  8
0
 62
     3
100
AcDbLine
 10
109.0
 20
128.5
 30
0.0
 11
195.0
 21
128.5
 31
0.0
  0
LINE
  5
EAF
330
6B
100
AcDbEntity
  8
0
 62
     7
100
AcDbLine
 10
109.0
 20
123.5
 30
0.0
 11
195.0
 21
123.5
 31
0.0
  0
LINE
  5
EB0
330
6B
100
AcDbEntity
  8
0
 62
     3
100
AcDbLine
 10
109.0
 20
118.5
 30
0.0
 11
195.0
 21
118.5
 31
0.0
  0
LINE
  5
EB1
330
6B
100
AcDbEntity
  8
0
 62
     7
100
AcDbLine
 10
181.0
 20
118.5
 30
0.0
 11
181.0
 21
133.5
 31
0.0
  0
LINE
  5
EB2
330
6B
100
AcDbEntity
  8
0
 62
     7
100
AcDbLine
 10
137.0
 20
118.5
 30
0.0
 11
137.0
 21
133.5
 31
0.0
  0
LINE
  5
EB3
330
6B
100
AcDbEntity
  8
0
 62
     7
100
AcDbLine
 10
119.0
 20
118.5
 30
0.0
 11
119.0
 21
133.5
 31
0.0
  0
LINE
  5
EB4
330
6B
100
AcDbEntity
  8
0
 62
     3
100
AcDbLine
 10
109.0
 20
118.5
 30
0.0
 11
109.0
 21
138.5
 31
0.0
  0
LINE
  5
10E3
330
6B
100
AcDbEntity
  8
0
 62
     3
100
AcDbLine
 10
63.02496899999999
 20
25.42271400000001
 30
0.0
 11
64.18952
 21
24.191762
 31
0.0
  0
LINE
  5
10E4
330
6B
100
AcDbEntity
  8
0
 62
     3
100
AcDbLine
 10
64.18952
 20
24.191762
 30
0.0
 11
65.540313
 21
23.185237
 31
0.0
  0
LINE
  5
10E5
330
6B
100
AcDbEntity
  8
0
 62
     3
100
AcDbLine
 10
65.540313
 20
23.185237
 30
0.0
 11
66.784435
 21
22.722074
 31
0.0
  0
LINE
  5
10E6
330
6B
100
AcDbEntity
  8
0
 62
     3
100
AcDbLine
 10
66.784435
 20
22.722074
 30
0.0
 11
68.093183
 21
22.734028
 31
0.0
  0
LINE
  5
10E7
330
6B
100
AcDbEntity
  8
0
 62
     3
100
AcDbLine
 10
68.093183
 20
22.734028
 30
0.0
 11
69.1693
 21
23.263302
 31
0.0
  0
LINE
  5
10E8
330
6B
100
AcDbEntity
  8
0
 62
     3
100
AcDbLine
 10
69.1693
 20
23.263302
 30
0.0
 11
69.925872
 21
24.157684
 31
0.0
  0
LINE
  5
10E9
330
6B
100
AcDbEntity
  8
0
 62
     3
100
AcDbLine
 10
69.925872
 20
24.157684
 30
0.0
 11
70.202825
 21
25.105787
 31
0.0
  0
LINE
  5
10EA
330
6B
100
AcDbEntity
  8
0
 62
     3
100
AcDbLine
 10
70.202825
 20
25.105787
 30
0.0
 11
70.30784699999999
 21
26.146345
 31
0.0
  0
LINE
  5
10EB
330
6B
100
AcDbEntity
  8
0
 62
     3
100
AcDbLine
 10
70.30784699999999
 20
26.146345
 30
0.0
 11
70.39035
 21
27.168366
 31
0.0
  0
LINE
  5
10EC
330
6B
100
AcDbEntity
  8
0
 62
     3
100
AcDbLine
 10
70.39035
 20
27.168366
 30
0.0
 11
70.20359899999999
 21
28.082484
 31
0.0
  0
LINE
  5
10ED
330
6B
100
AcDbEntity
  8
0
 62
     3
100
AcDbLine
 10
70.20359899999999
 20
28.082484
 30
0.0
 11
69.79585400000001
 21
28.566122
 31
0.0
  0
LINE
  5
10EE
330
6B
100
AcDbEntity
  8
0
 62
     3
100
AcDbLine
 10
69.79585400000001
 20
28.566122
 30
0.0
 11
69.239906
 21
28.942726
 31
0.0
  0
LINE
  5
10EF
330
6B
100
AcDbEntity
  8
0
 62
     3
100
AcDbLine
 10
69.239906
 20
28.942726
 30
0.0
 11
67.908839
 21
29.456946
 31
0.0
  0
LINE
  5
10F0
330
6B
100
AcDbEntity
  8
0
 62
     3
100
AcDbLine
 10
67.908839
 20
29.456946
 30
0.0
 11
66.524969
 21
29.732937
 31
0.0
  0
LINE
  5
10F1
330
6B
100
AcDbEntity
  8
0
100
AcDbLine
 10
-31.252736
 20
61.47254499999998
 30
0.0
 11
-31.555931
 21
61.803729
 31
0.0
  0
LINE
  5
10F2
330
6B
100
AcDbEntity
  8
0
100
AcDbLine
 10
-31.555931
 20
61.803729
 30
0.0
 11
-31.887756
 21
62.11906800000001
 31
0.0
  0
LINE
  5
10F3
330
6B
100
AcDbEntity
  8
0
100
AcDbLine
 10
-31.887756
 20
62.11906800000001
 30
0.0
 11
-32.281564
 21
62.399655
 31
0.0
  0
LINE
  5
10F4
330
6B
100
AcDbEntity
  8
0
100
AcDbLine
 10
-32.281564
 20
62.399655
 30
0.0
 11
-32.712991
 21
62.559822
 31
0.0
  0
LINE
  5
10F5
330
6B
100
AcDbEntity
  8
0
100
AcDbLine
 10
-32.712991
 20
62.559822
 30
0.0
 11
-33.361142
 21
62.48734
 31
0.0
  0
LINE
  5
10F6
330
6B
100
AcDbEntity
  8
0
100
AcDbLine
 10
-33.361142
 20
62.48734
 30
0.0
 11
-34.017482
 21
62.224395
 31
0.0
  0
LINE
  5
10F7
330
6B
100
AcDbEntity
  8
0
100
AcDbLine
 10
-34.017482
 20
62.224395
 30
0.0
 11
-34.870967
 21
61.864791
 31
0.0
  0
LINE
  5
10F8
330
6B
100
AcDbEntity
  8
0
100
AcDbLine
 10
-34.870967
 20
61.864791
 30
0.0
 11
-35.633628
 21
61.416325
 31
0.0
  0
LINE
  5
10F9
330
6B
100
AcDbEntity
  8
0
100
AcDbLine
 10
-35.633628
 20
61.416325
 30
0.0
 11
-36.190538
 21
60.885018
 31
0.0
  0
LINE
  5
10FA
330
6B
100
AcDbEntity
  8
0
100
AcDbLine
 10
-36.190538
 20
60.885018
 30
0.0
 11
-36.764915
 21
60.370999
 31
0.0
  0
LINE
  5
10FB
330
6B
100
AcDbEntity
  8
0
100
AcDbLine
 10
-36.764915
 20
60.370999
 30
0.0
 11
-37.511961
 21
60.01891999999998
 31
0.0
  0
LINE
  5
10FC
330
6B
100
AcDbEntity
  8
0
100
AcDbLine
 10
-37.511961
 20
60.01891999999998
 30
0.0
 11
-38.33842199999999
 21
59.843278
 31
0.0
  0
LINE
  5
10FD
330
6B
100
AcDbEntity
  8
0
100
AcDbLine
 10
-38.33842199999999
 20
59.843278
 30
0.0
 11
-39.16612199999999
 21
59.75828299999999
 31
0.0
  0
LINE
  5
10FE
330
6B
100
AcDbEntity
  8
0
100
AcDbLine
 10
-39.16612199999999
 20
59.75828299999999
 30
0.0
 11
-39.988236
 21
59.682246
 31
0.0
  0
LINE
  5
10FF
330
6B
100
AcDbEntity
  8
0
100
AcDbLine
 10
-39.988236
 20
59.682246
 30
0.0
 11
-40.035832
 21
59.67645699999999
 31
0.0
  0
LINE
  5
1100
330
6B
100
AcDbEntity
  8
0
100
AcDbLine
 10
-40.035832
 20
59.67645699999999
 30
0.0
 11
-40.08343499999996
 21
59.67054799999999
 31
0.0
  0
LINE
  5
1101
330
6B
100
AcDbEntity
  8
0
100
AcDbLine
 10
-29.906396
 20
62.16742199999998
 30
0.0
 11
-30.385818
 21
62.749033
 31
0.0
  0
LINE
  5
1102
330
6B
100
AcDbEntity
  8
0
100
AcDbLine
 10
-30.385818
 20
62.749033
 30
0.0
 11
-30.919463
 21
63.302446
 31
0.0
  0
LINE
  5
1103
330
6B
100
AcDbEntity
  8
0
100
AcDbLine
 10
-30.919463
 20
63.302446
 30
0.0
 11
-31.676467
 21
63.86366500000001
 31
0.0
  0
LINE
  5
1104
330
6B
100
AcDbEntity
  8
0
100
AcDbLine
 10
-31.676467
 20
63.86366500000001
 30
0.0
 11
-32.521208
 21
64.15792900000001
 31
0.0
  0
LINE
  5
1105
330
6B
100
AcDbEntity
  8
0
100
AcDbLine
 10
-32.521208
 20
64.15792900000001
 30
0.0
 11
-33.529131
 21
64.027731
 31
0.0
  0
LINE
  5
1106
330
6B
100
AcDbEntity
  8
0
100
AcDbLine
 10
-33.529131
 20
64.027731
 30
0.0
 11
-34.545574
 21
63.637399
 31
0.0
  0
LINE
  5
1107
330
6B
100
AcDbEntity
  8
0
100
AcDbLine
 10
-34.545574
 20
63.637399
 30
0.0
 11
-35.579578
 21
63.21934999999999
 31
0.0
  0
LINE
  5
1108
330
6B
100
AcDbEntity
  8
0
100
AcDbLine
 10
-35.579578
 20
63.21934999999999
 30
0.0
 11
-36.495072
 21
62.662654
 31
0.0
  0
LINE
  5
1109
330
6B
100
AcDbEntity
  8
0
100
AcDbLine
 10
-36.495072
 20
62.662654
 30
0.0
 11
-37.006551
 21
62.156176
 31
0.0
  0
LINE
  5
110A
330
6B
100
AcDbEntity
  8
0
100
AcDbLine
 10
-37.006551
 20
62.156176
 30
0.0
 11
-37.546731
 21
61.690906
 31
0.0
  0
LINE
  5
110B
330
6B
100
AcDbEntity
  8
0
100
AcDbLine
 10
-37.546731
 20
61.690906
 30
0.0
 11
-38.075656
 21
61.45294699999999
 31
0.0
  0
LINE
  5
110C
330
6B
100
AcDbEntity
  8
0
100
AcDbLine
 10
-38.075656
 20
61.45294699999999
 30
0.0
 11
-38.653796
 21
61.31961999999999
 31
0.0
  0
LINE
  5
110D
330
6B
100
AcDbEntity
  8
0
100
AcDbLine
 10
-38.653796
 20
61.31961999999999
 30
0.0
 11
-39.404378
 21
61.226013
 31
0.0
  0
LINE
  5
110E
330
6B
100
AcDbEntity
  8
0
100
AcDbLine
 10
-39.404378
 20
61.226013
 30
0.0
 11
-40.151296
 21
61.17365799999999
 31
0.0
  0
LINE
  5
110F
330
6B
100
AcDbEntity
  8
0
100
AcDbLine
 10
-124.763931
 20
62.472545
 30
0.0
 11
-125.067126
 21
62.803729
 31
0.0
  0
LINE
  5
1110
330
6B
100
AcDbEntity
  8
0
100
AcDbLine
 10
-125.067126
 20
62.803729
 30
0.0
 11
-125.398951
 21
63.119068
 31
0.0
  0
LINE
  5
1111
330
6B
100
AcDbEntity
  8
0
100
AcDbLine
 10
-125.398951
 20
63.119068
 30
0.0
 11
-125.792759
 21
63.399655
 31
0.0
  0
LINE
  5
1112
330
6B
100
AcDbEntity
  8
0
100
AcDbLine
 10
-125.792759
 20
63.399655
 30
0.0
 11
-126.224186
 21
63.55982199999999
 31
0.0
  0
LINE
  5
1113
330
6B
100
AcDbEntity
  8
0
100
AcDbLine
 10
-126.224186
 20
63.55982199999999
 30
0.0
 11
-126.872337
 21
63.48734
 31
0.0
  0
LINE
  5
1114
330
6B
100
AcDbEntity
  8
0
100
AcDbLine
 10
-126.872337
 20
63.48734
 30
0.0
 11
-127.528677
 21
63.22439499999997
 31
0.0
  0
LINE
  5
1115
330
6B
100
AcDbEntity
  8
0
100
AcDbLine
 10
-127.528677
 20
63.22439499999997
 30
0.0
 11
-128.382162
 21
62.86479100000001
 31
0.0
  0
LINE
  5
1116
330
6B
100
AcDbEntity
  8
0
100
AcDbLine
 10
-128.382162
 20
62.86479100000001
 30
0.0
 11
-129.144823
 21
62.416325
 31
0.0
  0
LINE
  5
1117
330
6B
100
AcDbEntity
  8
0
100
AcDbLine
 10
-129.144823
 20
62.416325
 30
0.0
 11
-129.701733
 21
61.885018
 31
0.0
  0
LINE
  5
1118
330
6B
100
AcDbEntity
  8
0
100
AcDbLine
 10
-129.701733
 20
61.885018
 30
0.0
 11
-130.27611
 21
61.37099899999999
 31
0.0
  0
LINE
  5
1119
330
6B
100
AcDbEntity
  8
0
100
AcDbLine
 10
-130.27611
 20
61.37099899999999
 30
0.0
 11
-131.023156
 21
61.01891999999999
 31
0.0
  0
LINE
  5
111A
330
6B
100
AcDbEntity
  8
0
100
AcDbLine
 10
-131.023156
 20
61.01891999999999
 30
0.0
 11
-131.849617
 21
60.843278
 31
0.0
  0
LINE
  5
111B
330
6B
100
AcDbEntity
  8
0
100
AcDbLine
 10
-131.849617
 20
60.843278
 30
0.0
 11
-132.677317
 21
60.758283
 31
0.0
  0
LINE
  5
111C
330
6B
100
AcDbEntity
  8
0
100
AcDbLine
 10
-132.677317
 20
60.758283
 30
0.0
 11
-133.499431
 21
60.682246
 31
0.0
  0
LINE
  5
111D
330
6B
100
AcDbEntity
  8
0
100
AcDbLine
 10
-133.499431
 20
60.682246
 30
0.0
 11
-133.547027
 21
60.67645699999999
 31
0.0
  0
LINE
  5
111E
330
6B
100
AcDbEntity
  8
0
100
AcDbLine
 10
-133.547027
 20
60.67645699999999
 30
0.0
 11
-133.59463
 21
60.670548
 31
0.0
  0
LINE
  5
111F
330
6B
100
AcDbEntity
  8
0
100
AcDbLine
 10
-123.417591
 20
63.167422
 30
0.0
 11
-123.897013
 21
63.74903299999999
 31
0.0
  0
LINE
  5
1120
330
6B
100
AcDbEntity
  8
0
100
AcDbLine
 10
-123.897013
 20
63.74903299999999
 30
0.0
 11
-124.430658
 21
64.302446
 31
0.0
  0
LINE
  5
1121
330
6B
100
AcDbEntity
  8
0
100
AcDbLine
 10
-124.430658
 20
64.302446
 30
0.0
 11
-125.187662
 21
64.86366499999999
 31
0.0
  0
LINE
  5
1122
330
6B
100
AcDbEntity
  8
0
100
AcDbLine
 10
-125.187662
 20
64.86366499999999
 30
0.0
 11
-126.032403
 21
65.157929
 31
0.0
  0
LINE
  5
1123
330
6B
100
AcDbEntity
  8
0
100
AcDbLine
 10
-126.032403
 20
65.157929
 30
0.0
 11
-127.040327
 21
65.027731
 31
0.0
  0
LINE
  5
1124
330
6B
100
AcDbEntity
  8
0
100
AcDbLine
 10
-127.040327
 20
65.027731
 30
0.0
 11
-128.056769
 21
64.637399
 31
0.0
  0
LINE
  5
1125
330
6B
100
AcDbEntity
  8
0
100
AcDbLine
 10
-128.056769
 20
64.637399
 30
0.0
 11
-129.090773
 21
64.21935000000001
 31
0.0
  0
LINE
  5
1126
330
6B
100
AcDbEntity
  8
0
100
AcDbLine
 10
-129.090773
 20
64.21935000000001
 30
0.0
 11
-130.0062669999999
 21
63.662654
 31
0.0
  0
LINE
  5
1127
330
6B
100
AcDbEntity
  8
0
100
AcDbLine
 10
-130.0062669999999
 20
63.662654
 30
0.0
 11
-130.517746
 21
63.156176
 31
0.0
  0
LINE
  5
1128
330
6B
100
AcDbEntity
  8
0
100
AcDbLine
 10
-130.517746
 20
63.156176
 30
0.0
 11
-131.057926
 21
62.69090600000001
 31
0.0
  0
LINE
  5
1129
330
6B
100
AcDbEntity
  8
0
100
AcDbLine
 10
-131.057926
 20
62.69090600000001
 30
0.0
 11
-131.586851
 21
62.45294699999998
 31
0.0
  0
LINE
  5
112A
330
6B
100
AcDbEntity
  8
0
100
AcDbLine
 10
-131.586851
 20
62.45294699999998
 30
0.0
 11
-132.164991
 21
62.31961999999999
 31
0.0
  0
LINE
  5
112B
330
6B
100
AcDbEntity
  8
0
100
AcDbLine
 10
-132.164991
 20
62.31961999999999
 30
0.0
 11
-132.915573
 21
62.226013
 31
0.0
  0
LINE
  5
112C
330
6B
100
AcDbEntity
  8
0
100
AcDbLine
 10
-132.915573
 20
62.226013
 30
0.0
 11
-133.662491
 21
62.17365799999999
 31
0.0
  0
LINE
  5
112D
330
6B
100
AcDbEntity
  8
0
100
AcDbLine
 10
-123.417591
 20
63.167422
 30
0.0
 11
-123.139816
 21
62.846414
 31
0.0
  0
LINE
  5
112E
330
6B
100
AcDbEntity
  8
0
100
AcDbLine
 10
-123.139816
 20
62.846414
 30
0.0
 11
-122.918861
 21
62.496898
 31
0.0
  0
LINE
  5
112F
330
6B
100
AcDbEntity
  8
0
100
AcDbLine
 10
-122.918861
 20
62.496898
 30
0.0
 11
-122.805511
 21
62.161636
 31
0.0
  0
LINE
  5
1130
330
6B
100
AcDbEntity
  8
0
100
AcDbLine
 10
-122.805511
 20
62.161636
 30
0.0
 11
-122.735196
 21
61.80815500000001
 31
0.0
  0
LINE
  5
1131
330
6B
100
AcDbEntity
  8
0
100
AcDbLine
 10
-122.735196
 20
61.80815500000001
 30
0.0
 11
-122.682051
 21
61.486414
 31
0.0
  0
LINE
  5
1132
330
6B
100
AcDbEntity
  8
0
100
AcDbLine
 10
-122.682051
 20
61.486414
 30
0.0
 11
-122.643364
 21
61.16532900000001
 31
0.0
  0
LINE
  5
1133
330
6B
100
AcDbEntity
  8
0
100
AcDbLine
 10
-122.643364
 20
61.16532900000001
 30
0.0
 11
-122.626151
 21
60.70450000000001
 31
0.0
  0
LINE
  5
1134
330
6B
100
AcDbEntity
  8
0
100
AcDbLine
 10
-122.626151
 20
60.70450000000001
 30
0.0
 11
-122.635402
 21
60.240756
 31
0.0
  0
LINE
  5
1135
330
6B
100
AcDbEntity
  8
0
100
AcDbLine
 10
-123.860151
 20
64.42584899999999
 30
0.0
 11
-123.083786
 21
64.65782199999999
 31
0.0
  0
LINE
  5
1136
330
6B
100
AcDbEntity
  8
0
100
AcDbLine
 10
-123.083786
 20
64.65782199999999
 30
0.0
 11
-122.341296
 21
64.670052
 31
0.0
  0
LINE
  5
1137
330
6B
100
AcDbEntity
  8
0
100
AcDbLine
 10
-122.341296
 20
64.670052
 30
0.0
 11
-121.752988
 21
64.414479
 31
0.0
  0
LINE
  5
1138
330
6B
100
AcDbEntity
  8
0
100
AcDbLine
 10
-121.752988
 20
64.414479
 30
0.0
 11
-121.161927
 21
64.121068
 31
0.0
  0
LINE
  5
1139
330
6B
100
AcDbEntity
  8
0
100
AcDbLine
 10
-121.161927
 20
64.121068
 30
0.0
 11
-120.46969
 21
63.99917199999999
 31
0.0
  0
LINE
  5
113A
330
6B
100
AcDbEntity
  8
0
100
AcDbLine
 10
-120.46969
 20
63.99917199999999
 30
0.0
 11
-119.745297
 21
64.019474
 31
0.0
  0
LINE
  5
113B
330
6B
100
AcDbEntity
  8
0
 62
     3
100
AcDbLine
 10
76.649969
 20
43.118701
 30
0.0
 11
77.429552
 21
42.854966
 31
0.0
  0
LINE
  5
113C
330
6B
100
AcDbEntity
  8
0
 62
     3
100
AcDbLine
 10
77.429552
 20
42.854966
 30
0.0
 11
78.17981800000002
 21
42.513381
 31
0.0
  0
LINE
  5
113D
330
6B
100
AcDbEntity
  8
0
 62
     3
100
AcDbLine
 10
78.17981800000002
 20
42.513381
 30
0.0
 11
78.57122199999998
 21
42.25997399999999
 31
0.0
  0
LINE
  5
113E
330
6B
100
AcDbEntity
  8
0
 62
     3
100
AcDbLine
 10
78.57122199999998
 20
42.25997399999999
 30
0.0
 11
78.908727
 21
41.94967499999999
 31
0.0
  0
LINE
  5
113F
330
6B
100
AcDbEntity
  8
0
 62
     3
100
AcDbLine
 10
78.908727
 20
41.94967499999999
 30
0.0
 11
79.465088
 21
40.912773
 31
0.0
  0
LINE
  5
1140
330
6B
100
AcDbEntity
  8
0
 62
     3
100
AcDbLine
 10
79.465088
 20
40.912773
 30
0.0
 11
79.92642299999999
 21
39.802046
 31
0.0
  0
LINE
  5
1141
330
6B
100
AcDbEntity
  8
0
 62
     3
100
AcDbLine
 10
79.92642299999999
 20
39.802046
 30
0.0
 11
80.55666499999999
 21
38.948819
 31
0.0
  0
LINE
  5
1142
330
6B
100
AcDbEntity
  8
0
 62
     3
100
AcDbLine
 10
80.55666499999999
 20
38.948819
 30
0.0
 11
81.178682
 21
38.068055
 31
0.0
  0
LINE
  5
1143
330
6B
100
AcDbEntity
  8
0
 62
     3
100
AcDbLine
 10
81.178682
 20
38.068055
 30
0.0
 11
81.524294
 21
36.621985
 31
0.0
  0
LINE
  5
1144
330
6B
100
AcDbEntity
  8
0
 62
     3
100
AcDbLine
 10
81.524294
 20
36.621985
 30
0.0
 11
81.138326
 21
35.248267
 31
0.0
  0
LINE
  5
1145
330
6B
100
AcDbEntity
  8
0
 62
     3
100
AcDbLine
 10
81.138326
 20
35.248267
 30
0.0
 11
80.59386700000002
 21
34.703415
 31
0.0
  0
LINE
  5
1146
330
6B
100
AcDbEntity
  8
0
 62
     3
100
AcDbLine
 10
80.59386700000002
 20
34.703415
 30
0.0
 11
79.92642299999999
 21
34.284798
 31
0.0
  0
LINE
  5
1147
330
6B
100
AcDbEntity
  8
0
 62
     3
100
AcDbLine
 10
79.92642299999999
 20
34.284798
 30
0.0
 11
79.06841700000002
 21
33.826674
 31
0.0
  0
LINE
  5
1148
330
6B
100
AcDbEntity
  8
0
 62
     3
100
AcDbLine
 10
79.06841700000002
 20
33.826674
 30
0.0
 11
78.220174
 21
33.30745800000001
 31
0.0
  0
LINE
  5
1149
330
6B
100
AcDbEntity
  8
0
 62
     3
100
AcDbLine
 10
78.220174
 20
33.30745800000001
 30
0.0
 11
77.804056
 21
32.999145
 31
0.0
  0
LINE
  5
114A
330
6B
100
AcDbEntity
  8
0
 62
     3
100
AcDbLine
 10
77.804056
 20
32.999145
 30
0.0
 11
77.42190699999998
 21
32.743752
 31
0.0
  0
LINE
  5
114B
330
6B
100
AcDbEntity
  8
0
 62
     3
100
AcDbLine
 10
77.42190699999998
 20
32.743752
 30
0.0
 11
76.968141
 21
32.626041
 31
0.0
  0
LINE
  5
114C
330
6B
100
AcDbEntity
  8
0
 62
     3
100
AcDbLine
 10
76.968141
 20
32.626041
 30
0.0
 11
76.649969
 21
32.822265
 31
0.0
  0
LINE
  5
114D
330
6B
100
AcDbEntity
  8
0
100
AcDbLine
 10
-11.892096
 20
1.422551
 30
0.0
 11
0.9218639999999908
 21
1.422550999999996
 31
0.0
  0
LINE
  5
114E
330
6B
100
AcDbEntity
  8
0
100
AcDbLine
 10
-9.874207
 20
38.922539
 30
0.0
 11
0.9218639999999991
 21
38.922539
 31
0.0
  0
LINE
  5
114F
330
6B
100
AcDbEntity
  8
0
100
AcDbLine
 10
-0.3281360000000078
 20
3.922550999999996
 30
0.0
 11
-0.3281360000000006
 21
36.422539
 31
0.0
  0
LINE
  5
1153
330
6B
100
AcDbEntity
  8
0
100
AcDbLine
 10
-53.25095699999999
 20
71.39753899999999
 30
0.0
 11
-53.25095699999999
 21
84.695025
 31
0.0
  0
LINE
  5
1154
330
6B
100
AcDbEntity
  8
0
100
AcDbLine
 10
-26.996457
 20
71.39753899999999
 30
0.0
 11
-26.996457
 21
84.695025
 31
0.0
  0
LINE
  5
1155
330
6B
100
AcDbEntity
  8
0
100
AcDbLine
 10
-50.75095699999999
 20
83.445025
 30
0.0
 11
-29.496457
 21
83.445025
 31
0.0
  0
LINE
  5
1159
330
6B
100
AcDbEntity
  8
0
100
AcDbLine
 10
-69.49870699999999
 20
1.172551
 30
0.0
 11
-69.49870699999999
 21
-8.292944
 31
0.0
  0
LINE
  5
115A
330
6B
100
AcDbEntity
  8
0
100
AcDbLine
 10
-10.749707
 20
1.172551
 30
0.0
 11
-10.749707
 21
-8.292944
 31
0.0
  0
LINE
  5
115B
330
6B
100
AcDbEntity
  8
0
100
AcDbLine
 10
-66.99870699999999
 20
-7.042944
 30
0.0
 11
-13.249707
 21
-7.042944
 31
0.0
  0
LINE
  5
115F
330
6B
100
AcDbEntity
  8
0
100
AcDbLine
 10
50.011786
 20
9.710214
 30
0.0
 11
50.011786
 21
-15.702066
 31
0.0
  0
LINE
  5
1160
330
6B
100
AcDbEntity
  8
0
100
AcDbLine
 10
122.549969
 20
9.710214
 30
0.0
 11
122.549969
 21
-15.702066
 31
0.0
  0
LINE
  5
1161
330
6B
100
AcDbEntity
  8
0
100
AcDbLine
 10
52.511786
 20
-14.452066
 30
0.0
 11
120.049969
 21
-14.452066
 31
0.0
  0
LINE
  5
1165
330
6B
100
AcDbEntity
  8
0
100
AcDbLine
 10
76.649969
 20
9.173289
 30
0.0
 11
76.649969
 21
-9.247149
 31
0.0
  0
LINE
  5
1166
330
6B
100
AcDbEntity
  8
0
100
AcDbLine
 10
117.149969
 20
9.173289
 30
0.0
 11
117.149969
 21
-9.247149
 31
0.0
  0
LINE
  5
1167
330
6B
100
AcDbEntity
  8
0
100
AcDbLine
 10
79.149969
 20
-7.997149
 30
0.0
 11
114.649969
 21
-7.997149
 31
0.0
  0
LINE
  5
116B
330
6B
100
AcDbEntity
  8
0
100
AcDbLine
 10
75.649969
 20
19.298001
 30
0.0
 11
28.87655199999999
 21
19.29800100000001
 31
0.0
  0
LINE
  5
116C
330
6B
100
AcDbEntity
  8
0
100
AcDbLine
 10
75.649969
 20
58.548001
 30
0.0
 11
28.87655200000001
 21
58.54800100000001
 31
0.0
  0
LINE
  5
116D
330
6B
100
AcDbEntity
  8
0
100
AcDbLine
 10
30.12655199999999
 20
21.79800100000001
 30
0.0
 11
30.126552
 21
56.04800100000001
 31
0.0
  0
LINE
  5
1171
330
6B
100
AcDbEntity
  8
0
100
AcDbLine
 10
-11.880317
 20
1.422551
 30
0.0
 11
9.76676599999998
 21
1.422550999999993
 31
0.0
  0
LINE
  5
1172
330
6B
100
AcDbEntity
  8
0
100
AcDbLine
 10
-32.021457
 20
76.422539
 30
0.0
 11
9.766766
 21
76.42253899999999
 31
0.0
  0
LINE
  5
1173
330
6B
100
AcDbEntity
  8
0
100
AcDbLine
 10
8.516765999999982
 20
3.922550999999994
 30
0.0
 11
8.516765999999998
 21
73.92253899999999
 31
0.0
  0
LINE
  5
1177
330
6B
100
AcDbEntity
  8
0
100
AcDbLine
 10
75.14996899999999
 20
8.922713999999997
 30
0.0
 11
19.33488299999998
 21
8.922714000000013
 31
0.0
  0
LINE
  5
1178
330
6B
100
AcDbEntity
  8
0
100
AcDbLine
 10
75.14996899999999
 20
68.922714
 30
0.0
 11
19.334883
 21
68.92271400000002
 31
0.0
  0
LINE
  5
1179
330
6B
100
AcDbEntity
  8
0
100
AcDbLine
 10
20.58488299999999
 20
11.42271400000001
 30
0.0
 11
20.584883
 21
66.42271400000002
 31
0.0
  0
LINE
  5
117D
330
6B
100
AcDbEntity
  8
0
  6
Continuous
100
AcDbLine
 10
-132.3626731189764
 20
60.77729530143692
 30
0.0
 11
-123.020990762047
 21
86.97351939712616
 31
0.0
1001
ACAD
1000
DSTYLE
1002
{
1070
   147
1040
0.625
1070
    77
1070
     0
1002
}
  0
LINE
  5
117E
330
6B
100
AcDbEntity
  8
0
  6
ByBlock
 62
     0
370
    -2
100
AcDbLine
 10
-131.7317185227627
 20
60.55229427083254
 30
0.0
 11
-133.202389
 21
58.422539
 31
0.0
  0
LINE
  5
117F
330
6B
100
AcDbEntity
  8
0
  6
ByBlock
 62
     0
370
    -2
100
AcDbLine
 10
-133.202389
 20
58.422539
 30
0.0
 11
-132.9936277151901
 21
61.00229633204129
 31
0.0
  0
LINE
  5
1180
330
6B
100
AcDbEntity
  8
0
  6
ByBlock
 62
     0
370
    -2
100
AcDbLine
 10
-133.202389
 20
58.422539
 30
0.0
 11
-132.3626731189764
 21
60.77729530143692
 31
0.0
  0
LINE
  5
1181
330
6B
100
AcDbEntity
  8
0
  6
Continuous
100
AcDbLine
 10
-120.1404185359836
 20
56.21600971189801
 30
0.0
 11
-106.7436179280327
 21
87.09609057620397
 31
0.0
1001
ACAD
1000
DSTYLE
1002
{
1070
   147
1040
0.625
1070
    77
1070
     0
1002
}
  0
LINE
  5
1182
330
6B
100
AcDbEntity
  8
0
  6
ByBlock
 62
     0
370
    -2
100
AcDbLine
 10
-119.5258853522012
 20
55.94940488769829
 30
0.0
 11
-121.135402
 21
53.922539
 31
0.0
  0
LINE
  5
1183
330
6B
100
AcDbEntity
  8
0
  6
ByBlock
 62
     0
370
    -2
100
AcDbLine
 10
-121.135402
 20
53.922539
 30
0.0
 11
-120.754951719766
 21
56.48261453609773
 31
0.0
  0
LINE
  5
1184
330
6B
100
AcDbEntity
  8
0
  6
ByBlock
 62
     0
370
    -2
100
AcDbLine
 10
-121.135402
 20
53.922539
 30
0.0
 11
-120.1404185359836
 21
56.21600971189801
 31
0.0
  0
LINE
  5
1185
330
6B
100
AcDbEntity
  8
0
  6
Continuous
100
AcDbLine
 10
-115.5743706730579
 20
47.67048645889833
 30
0.0
 11
-93.99259522290035
 21
87.29215523742228
 31
0.0
1001
ACAD
1000
DSTYLE
1002
{
1070
   147
1040
0.625
1070
    77
1070
     0
1002
}
  0
LINE
  5
1186
330
6B
100
AcDbEntity
  8
0
  6
ByBlock
 62
     0
370
    -2
100
AcDbLine
 10
-114.9861051542299
 20
47.35006042123237
 30
0.0
 11
-116.7702177845081
 21
45.47504807760947
 31
0.0
  0
LINE
  5
1187
330
6B
100
AcDbEntity
  8
0
  6
ByBlock
 62
     0
370
    -2
100
AcDbLine
 10
-116.7702177845081
 20
45.47504807760947
 30
0.0
 11
-116.1626361918859
 21
47.9909124965643
 31
0.0
  0
LINE
  5
1188
330
6B
100
AcDbEntity
  8
0
  6
ByBlock
 62
     0
370
    -2
100
AcDbLine
 10
-116.7702177845081
 20
45.47504807760947
 30
0.0
 11
-115.5743706730579
 21
47.67048645889833
 31
0.0
  0
LINE
  5
1189
330
6B
100
AcDbEntity
  8
0
  6
Continuous
100
AcDbLine
 10
-58.38678167147802
 20
59.03082316222544
 30
0.0
 11
-65.07442421941703
 21
86.82180323792222
 31
0.0
1001
ACAD
1000
DSTYLE
1002
{
1070
   147
1040
0.625
1070
    77
1070
     0
1002
}
  0
LINE
  5
118A
330
6B
100
AcDbEntity
  8
0
  6
ByBlock
 62
     0
370
    -2
100
AcDbLine
 10
-57.73550097869303
 20
59.18754784267416
 30
0.0
 11
-57.80187678118654
 21
56.60020878118654
 31
0.0
  0
LINE
  5
118B
330
6B
100
AcDbEntity
  8
0
  6
ByBlock
 62
     0
370
    -2
100
AcDbLine
 10
-57.80187678118654
 20
56.60020878118654
 30
0.0
 11
-59.03806236426301
 21
58.87409848177673
 31
0.0
  0
LINE
  5
118C
330
6B
100
AcDbEntity
  8
0
  6
ByBlock
 62
     0
370
    -2
100
AcDbLine
 10
-57.80187678118654
 20
56.60020878118654
 30
0.0
 11
-58.38678167147802
 21
59.03082316222544
 31
0.0
  0
LINE
  5
118D
330
6B
100
AcDbEntity
  8
0
  6
Continuous
100
AcDbLine
 10
38.52778207416353
 20
27.54225824873836
 30
0.0
 11
34.60919085167296
 21
86.6939675025233
 31
0.0
1001
ACAD
1000
DSTYLE
1002
{
1070
   147
1040
0.625
1070
    77
1070
     0
1002
}
  0
LINE
  5
118E
330
6B
100
AcDbEntity
  8
0
  6
ByBlock
 62
     0
370
    -2
100
AcDbLine
 10
39.19618949568072
 20
27.58653787291232
 30
0.0
 11
38.693036
 21
25.047726
 31
0.0
  0
LINE
  5
118F
330
6B
100
AcDbEntity
  8
0
  6
ByBlock
 62
     0
370
    -2
100
AcDbLine
 10
38.693036
 20
25.047726
 30
0.0
 11
37.85937465264633
 21
27.4979786245644
 31
0.0
  0
LINE
  5
1190
330
6B
100
AcDbEntity
  8
0
  6
ByBlock
 62
     0
370
    -2
100
AcDbLine
 10
38.693036
 20
25.047726
 30
0.0
 11
38.52778207416353
 21
27.54225824873836
 31
0.0
  0
LINE
  5
1191
330
6B
100
AcDbEntity
  8
0
  6
Continuous
100
AcDbLine
 10
78.48772977836787
 20
43.26339568297878
 30
0.0
 11
85.76997544326427
 21
86.7516926340424
 31
0.0
1001
ACAD
1000
DSTYLE
1002
{
1070
   147
1040
0.625
1070
    77
1070
     0
1002
}
  0
LINE
  5
1192
330
6B
100
AcDbEntity
  8
0
  6
ByBlock
 62
     0
370
    -2
100
AcDbLine
 10
79.14840350425237
 20
43.15276388744889
 30
0.0
 11
78.07484600000002
 21
40.797726
 31
0.0
  0
LINE
  5
1193
330
6B
100
AcDbEntity
  8
0
  6
ByBlock
 62
     0
370
    -2
100
AcDbLine
 10
78.07484600000002
 20
40.797726
 30
0.0
 11
77.8270560524834
 21
43.37402747850867
 31
0.0
  0
LINE
  5
1194
330
6B
100
AcDbEntity
  8
0
  6
ByBlock
 62
     0
370
    -2
100
AcDbLine
 10
78.07484600000002
 20
40.797726
 30
0.0
 11
78.48772977836787
 21
43.26339568297878
 31
0.0
  0
LINE
  5
1195
330
6B
100
AcDbEntity
  8
0
  6
Continuous
100
AcDbLine
 10
96.99974517853503
 20
61.04600914934557
 30
0.0
 11
97.99490664292996
 21
85.96098870130886
 31
0.0
1001
ACAD
1000
DSTYLE
1002
{
1070
   147
1040
0.625
1070
    77
1070
     0
1002
}
  0
LINE
  5
1196
330
6B
100
AcDbEntity
  8
0
  6
ByBlock
 62
     0
370
    -2
100
AcDbLine
 10
97.66908396414402
 20
61.0192742220833
 30
0.0
 11
96.899969
 21
58.548001
 31
0.0
  0
LINE
  5
1197
330
6B
100
AcDbEntity
  8
0
  6
ByBlock
 62
     0
370
    -2
100
AcDbLine
 10
96.899969
 20
58.548001
 30
0.0
 11
96.33040639292602
 21
61.07274407660786
 31
0.0
  0
LINE
  5
1198
330
6B
100
AcDbEntity
  8
0
  6
ByBlock
 62
     0
370
    -2
100
AcDbLine
 10
96.899969
 20
58.548001
 30
0.0
 11
96.99974517853503
 21
61.04600914934557
 31
0.0
  0
LINE
  5
1199
330
6B
100
AcDbEntity
  8
0
  6
Continuous
100
AcDbLine
 10
116.9494287424065
 20
71.32255635888338
 30
0.0
 11
112.4070635151868
 21
86.88334728223322
 31
0.0
1001
ACAD
1000
DSTYLE
1002
{
1070
   147
1040
0.625
1070
    77
1070
     0
1002
}
  0
LINE
  5
119A
330
6B
100
AcDbEntity
  8
0
  6
ByBlock
 62
     0
370
    -2
100
AcDbLine
 10
117.592464102627
 20
71.51026542036527
 30
0.0
 11
117.649969
 21
68.922714
 31
0.0
  0
LINE
  5
119B
330
6B
100
AcDbEntity
  8
0
  6
ByBlock
 62
     0
370
    -2
100
AcDbLine
 10
117.649969
 20
68.922714
 30
0.0
 11
116.3063933821861
 21
71.13484729740148
 31
0.0
  0
LINE
  5
119C
330
6B
100
AcDbEntity
  8
0
  6
ByBlock
 62
     0
370
    -2
100
AcDbLine
 10
117.649969
 20
68.922714
 30
0.0
 11
116.9494287424066
 21
71.32255635888338
 31
0.0
  0
LINE
  5
119D
330
6B
100
AcDbEntity
  8
0
  6
Continuous
100
AcDbLine
 10
122.574819067667
 20
78.48554392182122
 30
0.0
 11
128.7859938646659
 21
87.55737215635758
 31
0.0
1001
ACAD
1000
DSTYLE
1002
{
1070
   147
1040
0.625
1070
    77
1070
     0
1002
}
  0
LINE
  5
119E
330
6B
100
AcDbEntity
  8
0
  6
ByBlock
 62
     0
370
    -2
100
AcDbLine
 10
123.1275522823891
 20
78.1071061335399
 30
0.0
 11
121.162469
 21
76.422714
 31
0.0
  0
LINE
  5
119F
330
6B
100
AcDbEntity
  8
0
  6
ByBlock
 62
     0
370
    -2
100
AcDbLine
 10
121.162469
 20
76.422714
 30
0.0
 11
122.0220858529449
 21
78.86398171010253
 31
0.0
  0
LINE
  5
11A0
330
6B
100
AcDbEntity
  8
0
  6
ByBlock
 62
     0
370
    -2
100
AcDbLine
 10
121.162469
 20
76.422714
 30
0.0
 11
122.574819067667
 21
78.48554392182122
 31
0.0
  0
LINE
  5
11A1
330
6B
100
AcDbEntity
  8
0
  6
Continuous
100
AcDbLine
 10
125.0107458532934
 20
43.06649321006442
 30
0.0
 11
133.7853472934131
 21
49.77756057987113
 31
0.0
1001
ACAD
1000
DSTYLE
1002
{
1070
   147
1040
0.625
1070
    77
1070
     0
1002
}
  0
LINE
  5
11A2
330
6B
100
AcDbEntity
  8
0
  6
ByBlock
 62
     0
370
    -2
100
AcDbLine
 10
125.417701223851
 20
42.5344062880013
 30
0.0
 11
123.024969
 21
41.547714
 31
0.0
  0
LINE
  5
11A3
330
6B
100
AcDbEntity
  8
0
  6
ByBlock
 62
     0
370
    -2
100
AcDbLine
 10
123.024969
 20
41.547714
 30
0.0
 11
124.6037904827359
 21
43.59858013212756
 31
0.0
  0
LINE
  5
11A4
330
6B
100
AcDbEntity
  8
0
  6
ByBlock
 62
     0
370
    -2
100
AcDbLine
 10
123.024969
 20
41.547714
 30
0.0
 11
125.0107458532934
 21
43.06649321006442
 31
0.0
  0
LINE
  5
11A5
330
6B
100
AcDbEntity
  8
0
  6
Continuous
100
AcDbLine
 10
161.8289369838321
 20
23.33853904302071
 30
0.0
 11
157.1752850323357
 21
29.17867491395857
 31
0.0
1001
ACAD
1000
DSTYLE
1002
{
1070
   147
1040
0.625
1070
    77
1070
     0
1002
}
  0
LINE
  5
11A6
330
6B
100
AcDbEntity
  8
0
  6
ByBlock
 62
     0
370
    -2
100
AcDbLine
 10
162.352826191052
 20
23.75599474703588
 30
0.0
 11
163.386904
 21
21.3833565
 31
0.0
  0
LINE
  5
11A7
330
6B
100
AcDbEntity
  8
0
  6
ByBlock
 62
     0
370
    -2
100
AcDbLine
 10
163.386904
 20
21.3833565
 30
0.0
 11
161.3050477766122
 21
22.92108333900555
 31
0.0
  0
LINE
  5
11A8
330
6B
100
AcDbEntity
  8
0
  6
ByBlock
 62
     0
370
    -2
100
AcDbLine
 10
163.386904
 20
21.3833565
 30
0.0
 11
161.8289369838321
 21
23.33853904302071
 31
0.0
  0
LINE
  5
11A9
330
6B
100
AcDbEntity
  8
0
  6
Continuous
100
AcDbLine
 10
164.0886176444474
 20
37.08051555104209
 30
0.0
 11
156.7411737111051
 21
48.64194889791583
 31
0.0
1001
ACAD
1000
DSTYLE
1002
{
1070
   147
1040
0.625
1070
    77
1070
     0
1002
}
  0
LINE
  5
11AA
330
6B
100
AcDbEntity
  8
0
  6
ByBlock
 62
     0
370
    -2
100
AcDbLine
 10
164.653980937858
 20
37.43981140785106
 30
0.0
 11
165.429529
 21
34.97054950000001
 31
0.0
  0
LINE
  5
11AB
330
6B
100
AcDbEntity
  8
0
  6
ByBlock
 62
     0
370
    -2
100
AcDbLine
 10
165.429529
 20
34.97054950000001
 30
0.0
 11
163.5232543510367
 21
36.72121969423314
 31
0.0
  0
LINE
  5
11AC
330
6B
100
AcDbEntity
  8
0
  6
ByBlock
 62
     0
370
    -2
100
AcDbLine
 10
165.429529
 20
34.97054950000001
 30
0.0
 11
164.0886176444474
 21
37.08051555104209
 31
0.0
  0
TEXT
  5
11AD
330
6B
100
AcDbEntity
  8
0
  6
Continuous
 62
     4
100
AcDbText
 10
-0.9531360000000073
 20
16.672545
 30
0.0
 40
3.0
  1
300
 50
90.0
100
AcDbText
  0
LINE
  5
11AE
330
6B
100
AcDbEntity
  8
0
  6
ByBlock
 62
     0
370
    -2
100
AcDbLine
 10
-0.9980085
 20
36.422539
 30
0.0
 11
-0.328136
 21
38.922539
 31
0.0
  0
LINE
  5
11AF
330
6B
100
AcDbEntity
  8
0
  6
ByBlock
 62
     0
370
    -2
100
AcDbLine
 10
-0.328136
 20
38.922539
 30
0.0
 11
0.3417364999999998
 21
36.422539
 31
0.0
  0
LINE
  5
11B0
330
6B
100
AcDbEntity
  8
0
  6
ByBlock
 62
     0
370
    -2
100
AcDbLine
 10
-0.328136
 20
38.922539
 30
0.0
 11
-0.3281360000000002
 21
36.422539
 31
0.0
  0
LINE
  5
11B1
330
6B
100
AcDbEntity
  8
0
  6
ByBlock
 62
     0
370
    -2
100
AcDbLine
 10
0.3417364999999921
 20
3.922550999999996
 30
0.0
 11
-0.3281360000000084
 21
1.422550999999996
 31
0.0
  0
LINE
  5
11B2
330
6B
100
AcDbEntity
  8
0
  6
ByBlock
 62
     0
370
    -2
100
AcDbLine
 10
-0.3281360000000084
 20
1.422550999999996
 30
0.0
 11
-0.9980085000000078
 21
3.922550999999996
 31
0.0
  0
LINE
  5
11B3
330
6B
100
AcDbEntity
  8
0
  6
ByBlock
 62
     0
370
    -2
100
AcDbLine
 10
-0.3281360000000084
 20
1.422550999999996
 30
0.0
 11
-0.3281360000000079
 21
3.922550999999996
 31
0.0
  0
TEXT
  5
11B4
330
6B
100
AcDbEntity
  8
0
  6
Continuous
 62
     4
100
AcDbText
 10
-43.373707
 20
84.070025
 30
0.0
 40
3.0
  1
210
100
AcDbText
  0
LINE
  5
11B5
330
6B
100
AcDbEntity
  8
0
  6
ByBlock
 62
     0
370
    -2
100
AcDbLine
 10
-29.496457
 20
84.11489749999999
 30
0.0
 11
-26.996457
 21
83.445025
 31
0.0
  0
LINE
  5
11B6
330
6B
100
AcDbEntity
  8
0
  6
ByBlock
 62
     0
370
    -2
100
AcDbLine
 10
-26.996457
 20
83.445025
 30
0.0
 11
-29.496457
 21
82.7751525
 31
0.0
  0
LINE
  5
11B7
330
6B
100
AcDbEntity
  8
0
  6
ByBlock
 62
     0
370
    -2
100
AcDbLine
 10
-26.996457
 20
83.445025
 30
0.0
 11
-29.496457
 21
83.445025
 31
0.0
  0
LINE
  5
11B8
330
6B
100
AcDbEntity
  8
0
  6
ByBlock
 62
     0
370
    -2
100
AcDbLine
 10
-50.75095699999999
 20
82.7751525
 30
0.0
 11
-53.25095699999999
 21
83.445025
 31
0.0
  0
LINE
  5
11B9
330
6B
100
AcDbEntity
  8
0
  6
ByBlock
 62
     0
370
    -2
100
AcDbLine
 10
-53.25095699999999
 20
83.445025
 30
0.0
 11
-50.75095699999999
 21
84.11489749999999
 31
0.0
  0
LINE
  5
11BA
330
6B
100
AcDbEntity
  8
0
  6
ByBlock
 62
     0
370
    -2
100
AcDbLine
 10
-53.25095699999999
 20
83.445025
 30
0.0
 11
-50.75095699999999
 21
83.445025
 31
0.0
  0
TEXT
  5
11BB
330
6B
100
AcDbEntity
  8
0
  6
Continuous
 62
     4
100
AcDbText
 10
-43.87420699999999
 20
-6.417944
 30
0.0
 40
3.0
  1
470
100
AcDbText
  0
LINE
  5
11BC
330
6B
100
AcDbEntity
  8
0
  6
ByBlock
 62
     0
370
    -2
100
AcDbLine
 10
-13.249707
 20
-6.3730715
 30
0.0
 11
-10.749707
 21
-7.042944
 31
0.0
  0
LINE
  5
11BD
330
6B
100
AcDbEntity
  8
0
  6
ByBlock
 62
     0
370
    -2
100
AcDbLine
 10
-10.749707
 20
-7.042944
 30
0.0
 11
-13.249707
 21
-7.7128165
 31
0.0
  0
LINE
  5
11BE
330
6B
100
AcDbEntity
  8
0
  6
ByBlock
 62
     0
370
    -2
100
AcDbLine
 10
-10.749707
 20
-7.042944
 30
0.0
 11
-13.249707
 21
-7.042944
 31
0.0
  0
LINE
  5
11BF
330
6B
100
AcDbEntity
  8
0
  6
ByBlock
 62
     0
370
    -2
100
AcDbLine
 10
-66.99870699999999
 20
-7.7128165
 30
0.0
 11
-69.49870699999999
 21
-7.042944
 31
0.0
  0
LINE
  5
11C0
330
6B
100
AcDbEntity
  8
0
  6
ByBlock
 62
     0
370
    -2
100
AcDbLine
 10
-69.49870699999999
 20
-7.042944
 30
0.0
 11
-66.99870699999999
 21
-6.3730715
 31
0.0
  0
LINE
  5
11C1
330
6B
100
AcDbEntity
  8
0
  6
ByBlock
 62
     0
370
    -2
100
AcDbLine
 10
-69.49870699999999
 20
-7.042944
 30
0.0
 11
-66.99870699999999
 21
-7.042944
 31
0.0
  0
TEXT
  5
11C2
330
6B
100
AcDbEntity
  8
0
  6
Continuous
 62
     4
100
AcDbText
 10
82.5308775
 20
-13.827066
 30
0.0
 40
3.0
  1
580
100
AcDbText
  0
LINE
  5
11C3
330
6B
100
AcDbEntity
  8
0
  6
ByBlock
 62
     0
370
    -2
100
AcDbLine
 10
120.049969
 20
-13.7821935
 30
0.0
 11
122.549969
 21
-14.452066
 31
0.0
  0
LINE
  5
11C4
330
6B
100
AcDbEntity
  8
0
  6
ByBlock
 62
     0
370
    -2
100
AcDbLine
 10
122.549969
 20
-14.452066
 30
0.0
 11
120.049969
 21
-15.1219385
 31
0.0
  0
LINE
  5
11C5
330
6B
100
AcDbEntity
  8
0
  6
ByBlock
 62
     0
370
    -2
100
AcDbLine
 10
122.549969
 20
-14.452066
 30
0.0
 11
120.049969
 21
-14.452066
 31
0.0
  0
LINE
  5
11C6
330
6B
100
AcDbEntity
  8
0
  6
ByBlock
 62
     0
370
    -2
100
AcDbLine
 10
52.511786
 20
-15.1219385
 30
0.0
 11
50.011786
 21
-14.452066
 31
0.0
  0
LINE
  5
11C7
330
6B
100
AcDbEntity
  8
0
  6
ByBlock
 62
     0
370
    -2
100
AcDbLine
 10
50.011786
 20
-14.452066
 30
0.0
 11
52.511786
 21
-13.7821935
 31
0.0
  0
LINE
  5
11C8
330
6B
100
AcDbEntity
  8
0
  6
ByBlock
 62
     0
370
    -2
100
AcDbLine
 10
50.011786
 20
-14.452066
 30
0.0
 11
52.511786
 21
-14.452066
 31
0.0
  0
TEXT
  5
11C9
330
6B
100
AcDbEntity
  8
0
  6
Continuous
 62
     4
100
AcDbText
 10
92.899969
 20
-7.372149
 30
0.0
 40
3.0
  1
325
100
AcDbText
  0
LINE
  5
11CA
330
6B
100
AcDbEntity
  8
0
  6
ByBlock
 62
     0
370
    -2
100
AcDbLine
 10
114.649969
 20
-7.327276499999999
 30
0.0
 11
117.149969
 21
-7.997149
 31
0.0
  0
LINE
  5
11CB
330
6B
100
AcDbEntity
  8
0
  6
ByBlock
 62
     0
370
    -2
100
AcDbLine
 10
117.149969
 20
-7.997149
 30
0.0
 11
114.649969
 21
-8.6670215
 31
0.0
  0
LINE
  5
11CC
330
6B
100
AcDbEntity
  8
0
  6
ByBlock
 62
     0
370
    -2
100
AcDbLine
 10
117.149969
 20
-7.997149
 30
0.0
 11
114.649969
 21
-7.997149
 31
0.0
  0
LINE
  5
11CD
330
6B
100
AcDbEntity
  8
0
  6
ByBlock
 62
     0
370
    -2
100
AcDbLine
 10
79.149969
 20
-8.6670215
 30
0.0
 11
76.649969
 21
-7.997149
 31
0.0
  0
LINE
  5
11CE
330
6B
100
AcDbEntity
  8
0
  6
ByBlock
 62
     0
370
    -2
100
AcDbLine
 10
76.649969
 20
-7.997149
 30
0.0
 11
79.149969
 21
-7.3272765
 31
0.0
  0
LINE
  5
11CF
330
6B
100
AcDbEntity
  8
0
  6
ByBlock
 62
     0
370
    -2
100
AcDbLine
 10
76.649969
 20
-7.997149
 30
0.0
 11
79.149969
 21
-7.997149
 31
0.0
  0
TEXT
  5
11D0
330
6B
100
AcDbEntity
  8
0
  6
Continuous
 62
     4
100
AcDbText
 10
29.50155199999999
 20
33.32300100000001
 30
0.0
 40
3.0
  1
\U+03C6314
 50
90.0
100
AcDbText
  0
LINE
  5
11D1
330
6B
100
AcDbEntity
  8
0
  6
ByBlock
 62
     0
370
    -2
100
AcDbLine
 10
29.4566795
 20
56.04800100000001
 30
0.0
 11
30.126552
 21
58.54800100000001
 31
0.0
  0
LINE
  5
11D2
330
6B
100
AcDbEntity
  8
0
  6
ByBlock
 62
     0
370
    -2
100
AcDbLine
 10
30.126552
 20
58.54800100000001
 30
0.0
 11
30.7964245
 21
56.04800100000001
 31
0.0
  0
LINE
  5
11D3
330
6B
100
AcDbEntity
  8
0
  6
ByBlock
 62
     0
370
    -2
100
AcDbLine
 10
30.126552
 20
58.54800100000001
 30
0.0
 11
30.126552
 21
56.04800100000001
 31
0.0
  0
LINE
  5
11D4
330
6B
100
AcDbEntity
  8
0
  6
ByBlock
 62
     0
370
    -2
100
AcDbLine
 10
30.79642449999999
 20
21.79800100000001
 30
0.0
 11
30.12655199999999
 21
19.29800100000001
 31
0.0
  0
LINE
  5
11D5
330
6B
100
AcDbEntity
  8
0
  6
ByBlock
 62
     0
370
    -2
100
AcDbLine
 10
30.12655199999999
 20
19.29800100000001
 30
0.0
 11
29.45667949999999
 21
21.79800100000001
 31
0.0
  0
LINE
  5
11D6
330
6B
100
AcDbEntity
  8
0
  6
ByBlock
 62
     0
370
    -2
100
AcDbLine
 10
30.12655199999999
 20
19.29800100000001
 30
0.0
 11
30.12655199999999
 21
21.79800100000001
 31
0.0
  0
TEXT
  5
11D7
330
6B
100
AcDbEntity
  8
0
  6
Continuous
 62
     4
100
AcDbText
 10
7.891765999999985
 20
35.42254499999999
 30
0.0
 40
3.0
  1
600
 50
90.0
100
AcDbText
  0
LINE
  5
11D8
330
6B
100
AcDbEntity
  8
0
  6
ByBlock
 62
     0
370
    -2
100
AcDbLine
 10
7.8468935
 20
73.92253899999999
 30
0.0
 11
8.516766
 21
76.42253899999999
 31
0.0
  0
LINE
  5
11D9
330
6B
100
AcDbEntity
  8
0
  6
ByBlock
 62
     0
370
    -2
100
AcDbLine
 10
8.516766
 20
76.42253899999999
 30
0.0
 11
9.1866385
 21
73.92253899999999
 31
0.0
  0
LINE
  5
11DA
330
6B
100
AcDbEntity
  8
0
  6
ByBlock
 62
     0
370
    -2
100
AcDbLine
 10
8.516766
 20
76.42253899999999
 30
0.0
 11
8.516766
 21
73.92253899999999
 31
0.0
  0
LINE
  5
11DB
330
6B
100
AcDbEntity
  8
0
  6
ByBlock
 62
     0
370
    -2
100
AcDbLine
 10
9.186638499999983
 20
3.922550999999994
 30
0.0
 11
8.516765999999982
 21
1.422550999999994
 31
0.0
  0
LINE
  5
11DC
330
6B
100
AcDbEntity
  8
0
  6
ByBlock
 62
     0
370
    -2
100
AcDbLine
 10
8.516765999999982
 20
1.422550999999994
 30
0.0
 11
7.846893499999983
 21
3.922550999999994
 31
0.0
  0
LINE
  5
11DD
330
6B
100
AcDbEntity
  8
0
  6
ByBlock
 62
     0
370
    -2
100
AcDbLine
 10
8.516765999999982
 20
1.422550999999994
 30
0.0
 11
8.516765999999982
 21
3.922550999999994
 31
0.0
  0
TEXT
  5
11DE
330
6B
100
AcDbEntity
  8
0
  6
Continuous
 62
     4
100
AcDbText
 10
19.95988299999998
 20
33.07271400000001
 30
0.0
 40
3.0
  1
\U+03C6480
 50
90.0
100
AcDbText
  0
LINE
  5
11DF
330
6B
100
AcDbEntity
  8
0
  6
ByBlock
 62
     0
370
    -2
100
AcDbLine
 10
19.9150105
 20
66.42271400000002
 30
0.0
 11
20.584883
 21
68.92271400000002
 31
0.0
  0
LINE
  5
11E0
330
6B
100
AcDbEntity
  8
0
  6
ByBlock
 62
     0
370
    -2
100
AcDbLine
 10
20.584883
 20
68.92271400000002
 30
0.0
 11
21.2547555
 21
66.42271400000002
 31
0.0
  0
LINE
  5
11E1
330
6B
100
AcDbEntity
  8
0
  6
ByBlock
 62
     0
370
    -2
100
AcDbLine
 10
20.584883
 20
68.92271400000002
 30
0.0
 11
20.584883
 21
66.42271400000002
 31
0.0
  0
LINE
  5
11E2
330
6B
100
AcDbEntity
  8
0
  6
ByBlock
 62
     0
370
    -2
100
AcDbLine
 10
21.25475549999999
 20
11.42271400000001
 30
0.0
 11
20.58488299999999
 21
8.922714000000011
 31
0.0
  0
LINE
  5
11E3
330
6B
100
AcDbEntity
  8
0
  6
ByBlock
 62
     0
370
    -2
100
AcDbLine
 10
20.58488299999999
 20
8.922714000000011
 30
0.0
 11
19.91501049999999
 21
11.42271400000001
 31
0.0
  0
LINE
  5
11E4
330
6B
100
AcDbEntity
  8
0
  6
ByBlock
 62
     0
370
    -2
100
AcDbLine
 10
20.58488299999999
 20
8.922714000000011
 30
0.0
 11
20.58488299999999
 21
11.42271400000001
 31
0.0
  0
ENDSEC
  0
SECTION
  2
OBJECTS
  0
DICTIONARY
  5
C
330
0
100
AcDbDictionary
281
     1
  3
ACAD_2007HEADERVARS_RT
350
11E8
  3
ACAD_COLOR
350
62
  3
ACAD_GROUP
350
D
  3
ACAD_LAYOUT
350
61
  3
ACAD_MATERIAL
350
10
  3
ACAD_MLEADERSTYLE
350
65
  3
ACAD_MLINESTYLE
350
5E
  3
ACAD_PLOTSETTINGS
350
60
  3
ACAD_PLOTSTYLENAME
350
E
  3
ACAD_SCALELIST
350
42
  3
ACAD_TABLESTYLE
350
63
  3
ACAD_VISUALSTYLE
350
29
  3
ACDB_RECOMPOSE_DATA
350
11E6
  3
AcDbVariableDictionary
350
7E7
  3
DWGPROPS
350
11E7
  0
DICTIONARY
  5
626
330
2
100
AcDbDictionary
280
     1
281
     1
  3
ACAD_LAYERSTATES
360
627
  0
DICTIONARY
  5
7E1
330
54
100
AcDbDictionary
280
     1
281
     1
  3
ADSK_XREC_LAYER_RECONCILED
360
7E2
  0
DICTIONARY
  5
8BB
330
6B
100
AcDbDictionary
280
     1
281
     1
  3
ACAD_SORTENTS
360
8BC
  0
DICTIONARY
  5
11E8
102
{ACAD_REACTORS
330
C
102
}
330
C
100
AcDbDictionary
281
     1
  3
DIMARCSYM
350
11EA
  3
DIMFXL
350
11E9
  3
DIMJOGANG
350
11EB
  3
INTERFEREVPVS
350
11EC
  0
DICTIONARY
  5
62
102
{ACAD_REACTORS
330
C
102
}
330
C
100
AcDbDictionary
281
     1
  0
DICTIONARY
  5
D
102
{ACAD_REACTORS
330
C
102
}
330
C
100
AcDbDictionary
281
     1
  0
DICTIONARY
  5
61
102
{ACAD_REACTORS
330
C
102
}
330
C
100
AcDbDictionary
281
     1
  3
Model
350
6E
  3
レイアウト1
350
6A
  0
DICTIONARY
  5
10
102
{ACAD_REACTORS
330
C
102
}
330
C
100
AcDbDictionary
281
     1
  3
ByBlock
350
19
  3
ByLayer
350
11
  3
Global
350
21
  0
DICTIONARY
  5
65
102
{ACAD_REACTORS
330
C
102
}
330
C
100
AcDbDictionary
281
     1
  3
Standard
350
66
  0
DICTIONARY
  5
5E
102
{ACAD_REACTORS
330
C
102
}
330
C
100
AcDbDictionary
281
     1
  3
Standard
350
5F
  0
DICTIONARY
  5
60
102
{ACAD_REACTORS
330
C
102
}
330
C
100
AcDbDictionary
281
     1
  0
ACDBDICTIONARYWDFLT
  5
E
102
{ACAD_REACTORS
330
C
102
}
330
C
100
AcDbDictionary
281
     1
  3
Normal
350
F
100
AcDbDictionaryWithDefault
340
F
  0
DICTIONARY
  5
42
102
{ACAD_REACTORS
330
C
102
}
330
C
100
AcDbDictionary
281
     1
  3
A0
350
43
  3
A1
350
44
  3
A2
350
45
  3
A3
350
46
  3
A4
350
47
  3
A5
350
48
  3
A6
350
49
  3
A7
350
4A
  3
A8
350
4B
  3
A9
350
4C
  3
B0
350
4D
  3
B1
350
4E
  3
B2
350
4F
  3
B3
350
50
  3
B4
350
51
  3
B5
350
52
  3
B6
350
53
  0
DICTIONARY
  5
63
102
{ACAD_REACTORS
330
C
102
}
330
C
100
AcDbDictionary
281
     1
  3
Standard
350
64
  0
DICTIONARY
  5
29
102
{ACAD_REACTORS
330
C
102
}
330
C
100
AcDbDictionary
281
     1
  3
2dWireframe
350
2F
  3
3D Hidden
350
838
  3
3dWireframe
350
625
  3
Basic
350
2E
  3
Brighten
350
35
  3
ColorChange
350
39
  3
Conceptual
350
32
  3
Dim
350
34
  3
EdgeColorOff
350
41
  3
Facepattern
350
38
  3
Flat
350
2A
  3
FlatWithEdges
350
2B
  3
Gouraud
350
2C
  3
GouraudWithEdges
350
2D
  3
Hidden
350
31
  3
JitterOff
350
3F
  3
Linepattern
350
37
  3
OverhangOff
350
40
  3
Realistic
350
33
  3
Shaded
350
3E
  3
Shaded with edges
350
3D
  3
Shades of Gray
350
3A
  3
Sketchy
350
3B
  3
Thicken
350
36
  3
Wireframe
350
30
  3
X-Ray
350
3C
  0
XRECORD
  5
11E6
102
{ACAD_REACTORS
330
C
102
}
330
C
100
AcDbXrecord
280
     1
 90
        1
330
64
  0
DICTIONARY
  5
7E7
102
{ACAD_REACTORS
330
C
102
}
330
C
100
AcDbDictionary
281
     1
  3
CANNOSCALE
350
7EA
  3
CMLEADERSTYLE
350
7E9
  3
CTABLESTYLE
350
7E8
  3
DIMASSOC
350
7ED
  3
INDEXCTL
350
7EC
  3
LOFTANG1
350
1087
  3
LOFTANG2
350
1088
  3
SORTENTS
350
7EB
  3
XCLIPFRAME
350
1089
  0
XRECORD
  5
11E7
102
{ACAD_REACTORS
330
C
102
}
330
C
100
AcDbXrecord
280
     1
  1
DWGPROPS COOKIE
  2

  3

  4

  6

  7

  8
kaiha
  9

300
=
301
=
302
=
303
=
304
=
305
=
306
=
307
=
308
=
309
=
 40
0.0310593981481482
 41
2455608.768821296
 42
2458429.666858808
  1

 90
        0
  0
DICTIONARY
  5
627
102
{ACAD_REACTORS
330
626
102
}
330
626
100
AcDbDictionary
281
     1
  0
XRECORD
  5
7E2
102
{ACAD_REACTORS
330
7E1
102
}
330
7E1
100
AcDbXrecord
280
     1
290
     1
  0
SORTENTSTABLE
  5
8BC
102
{ACAD_REACTORS
330
8BB
102
}
330
8BB
100
AcDbSortentsTable
330
6B
331
11A8
  5
1198
331
238
  5
2FC
331
10E8
  5
10CB
331
378
  5
43D
331
158
  5
246
331
478
  5
EA3
331
1160
  5
1C4
331
249
  5
30D
331
389
  5
44D
331
10F9
  5
294
331
11B9
  5
1DB
331
25A
  5
31E
331
1171
  5
13A
331
39A
  5
45E
331
110A
  5
287
331
11CA
  5
19B
331
26B
  5
32F
331
513
  5
113C
331
111B
  5
273
331
3A3
  5
467
331
524
  5
1165
331
27C
  5
340
331
3B4
  5
478
331
1C4
  5
2A0
331
28D
  5
351
331
4CD
  5
10F7
331
3C5
  5
49D
331
1D5
  5
2B1
331
29E
  5
362
331
4DE
  5
1108
331
3D6
  5
4B3
331
1E6
  5
2C2
331
2AF
  5
378
331
4EF
  5
1119
331
3E7
  5
4D0
331
1F7
  5
2D3
331
500
  5
112A
331
3F8
  5
4E1
331
2B8
  5
382
331
8A1
  5
11C2
331
2C9
  5
393
331
409
  5
4F2
331
219
  5
2DD
331
2DA
  5
3A4
331
EB3
  5
11E3
331
22A
  5
2EE
331
423
  5
50C
331
2EB
  5
3B5
331
434
  5
51E
331
334
  5
3FE
331
2FC
  5
3C6
331
345
  5
40F
331
30D
  5
3D7
331
445
  5
53B
331
112D
  5
251
331
1186
  5
11B6
331
31E
  5
3E8
331
356
  5
420
331
136
  5
224
331
1197
  5
11A7
331
456
  5
561
331
113E
  5
1F6
331
11DB
  5
140
331
367
  5
431
331
467
  5
8A1
331
114F
  5
1E3
331
147
  5
235
331
1198
  5
11A8
331
468
  5
8A3
331
368
  5
432
331
148
  5
236
331
11A9
  5
1195
331
239
  5
2FD
331
10E9
  5
10CC
331
379
  5
43E
331
479
  5
EA4
331
1161
  5
1C5
331
24A
  5
30E
331
38A
  5
44E
331
10FA
  5
295
331
11BA
  5
1DC
331
25B
  5
31F
331
1172
  5
13B
331
49B
  5
10D7
331
39B
  5
45F
331
110B
  5
288
331
11CB
  5
1C0
331
26C
  5
330
331
514
  5
113D
331
111C
  5
274
331
3A4
  5
468
331
525
  5
1166
331
27D
  5
341
331
4BD
  5
10F2
331
3B5
  5
479
331
1C5
  5
2A1
331
28E
  5
352
331
4CE
  5
10F8
331
3C6
  5
49F
331
1D6
  5
2B2
331
29F
  5
363
331
4DF
  5
1109
331
3D7
  5
4B4
331
1E7
  5
2C3
331
4F0
  5
111A
331
3E8
  5
4D1
331
501
  5
112B
331
3F9
  5
4E2
331
2B9
  5
383
331
8A2
  5
11C3
331
2CA
  5
394
331
40A
  5
4F3
331
21A
  5
2DE
331
2DB
  5
3A5
331
EB4
  5
11E4
331
22B
  5
2EF
331
424
  5
50D
331
2EC
  5
3B6
331
435
  5
51F
331
335
  5
3FF
331
2FD
  5
3C7
331
346
  5
410
331
30E
  5
3D8
331
446
  5
542
331
112E
  5
252
331
1187
  5
11B7
331
31F
  5
3E9
331
357
  5
421
331
137
  5
225
331
457
  5
562
331
113F
  5
1F7
331
11DC
  5
141
331
1188
  5
11B8
331
320
  5
3EA
331
358
  5
422
331
138
  5
226
331
1199
  5
11A5
331
458
  5
563
331
1140
  5
1FE
331
469
  5
8A4
331
369
  5
433
331
149
  5
237
331
11AA
  5
1192
331
23A
  5
2FE
331
10EA
  5
10CD
331
47A
  5
EA5
331
37A
  5
43F
331
24B
  5
30F
331
38B
  5
44F
331
10FB
  5
296
331
11BB
  5
1D6
331
25C
  5
320
331
1173
  5
13F
331
39C
  5
460
331
110C
  5
289
331
11CC
  5
1C1
331
26D
  5
331
331
515
  5
113E
331
111D
  5
275
331
3A5
  5
469
331
526
  5
1167
331
27E
  5
342
331
3B6
  5
47A
331
1C6
  5
2A2
331
28F
  5
353
331
4CF
  5
10F9
331
3C7
  5
4A0
331
1D7
  5
2B3
331
2A0
  5
364
331
4E0
  5
110A
331
3D8
  5
4B5
331
1E8
  5
2C4
331
4F1
  5
111B
331
3E9
  5
4D2
331
502
  5
112C
331
3FA
  5
4E3
331
2BA
  5
384
331
8A3
  5
11C4
331
2CB
  5
395
331
40B
  5
4F4
331
21B
  5
2DF
331
B54
  5
11CF
331
2DC
  5
3A6
331
425
  5
50E
331
2ED
  5
3B7
331
22C
  5
2F0
331
436
  5
520
331
336
  5
400
331
2FE
  5
3C8
331
347
  5
411
331
30F
  5
3D9
331
447
  5
543
331
112F
  5
253
331
11DD
  5
145
331
310
  5
3DA
331
348
  5
412
331
448
  5
54A
331
1130
  5
254
331
1189
  5
11B5
331
321
  5
3EB
331
359
  5
423
331
139
  5
227
331
119A
  5
11A2
331
459
  5
564
331
1141
  5
1FF
331
46A
  5
8A5
331
36A
  5
434
331
14A
  5
238
331
11AB
  5
1193
331
23B
  5
2FF
331
10EB
  5
10CE
331
47B
  5
EA6
331
37B
  5
440
331
24C
  5
310
331
38C
  5
450
331
10FC
  5
297
331
11BC
  5
1D3
331
25D
  5
321
331
110D
  5
28A
331
11CD
  5
198
331
49D
  5
10D8
331
39D
  5
461
331
195
  5
277
331
1178
  5
113
331
516
  5
113F
331
111E
  5
276
331
11DE
  5
139
331
3A6
  5
46A
331
527
  5
1168
331
27F
  5
343
331
4BF
  5
10F3
331
3B7
  5
47B
331
1C7
  5
2A3
331
290
  5
354
331
4D0
  5
10FA
331
3C8
  5
4A1
331
1D8
  5
2B4
331
2A1
  5
365
331
4E1
  5
110B
331
3D9
  5
4B6
331
1E9
  5
2C5
331
4F2
  5
111C
331
3EA
  5
4D3
331
503
  5
112D
331
3FB
  5
4E4
331
2BB
  5
385
331
8A4
  5
11C5
331
2CC
  5
396
331
40C
  5
4F5
331
21C
  5
2E0
331
2DD
  5
3A7
331
426
  5
50F
331
2EE
  5
3B8
331
22D
  5
2F1
331
437
  5
521
331
337
  5
401
331
2FF
  5
3C9
331
26E
  5
332
331
338
  5
402
331
300
  5
3CA
331
438
  5
522
331
1120
  5
25A
331
311
  5
3DB
331
349
  5
413
331
449
  5
54B
331
1131
  5
255
331
118A
  5
11B2
331
322
  5
3EC
331
35A
  5
424
331
13A
  5
228
331
119B
  5
11A3
331
45A
  5
565
331
1142
  5
206
331
14B
  5
239
331
46B
  5
8A6
331
1153
  5
1D7
331
11AC
  5
1194
331
23C
  5
300
331
10EC
  5
10CF
331
47C
  5
EA7
331
24D
  5
311
331
38D
  5
451
331
10FD
  5
298
331
11BD
  5
1D4
331
25E
  5
322
331
110E
  5
28B
331
11CE
  5
199
331
39E
  5
462
331
196
  5
278
331
26F
  5
333
331
1179
  5
114
331
517
  5
1140
331
111F
  5
259
331
4AF
  5
10E5
331
3A7
  5
46B
331
528
  5
1169
331
280
  5
344
331
3B8
  5
47C
331
1C8
  5
2A4
331
291
  5
355
331
4D1
  5
10FB
331
3C9
  5
4A2
331
1D9
  5
2B5
331
54A
  5
1173
331
2A2
  5
366
331
55B
  5
117B
331
4E2
  5
110C
331
3DA
  5
4B7
331
1EA
  5
2C6
331
4F3
  5
111D
331
3EB
  5
4D4
331
504
  5
112E
331
3FC
  5
4E5
331
2BC
  5
386
331
8A5
  5
11C6
331
2CD
  5
397
331
40D
  5
4F6
331
21D
  5
2E1
331
2DE
  5
3A8
331
427
  5
510
331
2EF
  5
3B9
331
22E
  5
2F2
331
11DF
  5
133
331
428
  5
511
331
328
  5
3F2
331
2F0
  5
3BA
331
339
  5
403
331
301
  5
3CB
331
439
  5
523
331
1121
  5
25B
331
312
  5
3DC
331
34A
  5
414
331
44A
  5
54D
331
1132
  5
256
331
118B
  5
11B3
331
323
  5
3ED
331
35B
  5
425
331
13B
  5
229
331
119C
  5
11A4
331
45B
  5
567
331
1143
  5
207
331
14C
  5
23A
331
46C
  5
8A7
331
1154
  5
1D8
331
23D
  5
301
331
10ED
  5
10D0
331
11AD
  5
1EA
331
37D
  5
441
331
47D
  5
EA8
331
1165
  5
195
331
24E
  5
312
331
496
  5
10D4
331
38E
  5
452
331
10FE
  5
299
331
11BE
  5
1D5
331
25F
  5
323
331
49F
  5
10D9
331
39F
  5
463
331
197
  5
279
331
110F
  5
267
331
11CF
  5
19A
331
518
  5
1141
331
270
  5
334
331
4B0
  5
10E6
331
3A8
  5
46C
331
529
  5
116A
331
3B9
  5
47D
331
1C9
  5
2A5
331
53A
  5
116F
331
292
  5
356
331
4D2
  5
10FC
331
3CA
  5
4A3
331
1DA
  5
2B6
331
54B
  5
1174
331
2A3
  5
367
331
55C
  5
117C
331
4E3
  5
110D
331
3DB
  5
4B8
331
1EB
  5
2C7
331
4F4
  5
111E
331
3EC
  5
4D5
331
575
  5
1187
331
2BD
  5
387
331
505
  5
112F
331
3FD
  5
4E6
331
8A6
  5
11C7
331
2CE
  5
398
331
FD
  5
1EB
331
40E
  5
4F7
331
21E
  5
2E2
331
2DF
  5
3A9
331
22F
  5
2F3
331
281
  5
345
331
EA8
  5
11D8
331
EA0
  5
11D0
331
2E0
  5
3AA
331
418
  5
501
331
230
  5
2F4
331
429
  5
513
331
329
  5
3F3
331
2F1
  5
3BB
331
33A
  5
404
331
302
  5
3CC
331
43A
  5
524
331
1122
  5
25C
331
34B
  5
415
331
313
  5
3DD
331
44B
  5
54E
331
118C
  5
11B4
331
324
  5
3EE
331
35C
  5
426
331
13C
  5
22A
331
119D
  5
11A1
331
45C
  5
575
331
1144
  5
20E
331
14D
  5
23B
331
46D
  5
8A8
331
1155
  5
1D9
331
23E
  5
302
331
10EE
  5
10D1
331
11AE
  5
1E7
331
37E
  5
442
331
47E
  5
EA9
331
1166
  5
196
331
24F
  5
313
331
38F
  5
453
331
10FF
  5
29A
331
11BF
  5
1D0
331
1133
  5
257
331
497
  5
10D5
331
260
  5
324
331
4A0
  5
10DA
331
198
  5
27A
331
1110
  5
268
331
11D0
  5
165
331
519
  5
115A
331
271
  5
335
331
4B1
  5
10E7
331
3A9
  5
46D
331
52A
  5
116B
331
282
  5
346
331
3BA
  5
47E
331
1CA
  5
2A6
331
53B
  5
1170
331
293
  5
357
331
4D3
  5
10FD
331
3CB
  5
4A4
331
1DB
  5
2B7
331
2A4
  5
368
331
55D
  5
117D
331
4E4
  5
110E
331
3DC
  5
4B9
331
1EC
  5
2C8
331
4F5
  5
111F
331
3ED
  5
4D6
331
576
  5
1188
331
2BE
  5
388
331
506
  5
1130
331
3FE
  5
4E7
331
20E
  5
2D8
331
8A7
  5
11C8
331
2CF
  5
399
331
40F
  5
4F8
331
21F
  5
2E3
331
1177
  5
FD
331
8A8
  5
11C9
331
2D0
  5
39A
331
410
  5
4F9
331
220
  5
2E4
331
EA9
  5
11D9
331
EA1
  5
11D1
331
2E1
  5
3AB
331
419
  5
502
331
231
  5
2F5
331
42A
  5
514
331
32A
  5
3F4
331
2F2
  5
3BC
331
303
  5
3CD
331
33B
  5
405
331
113
  5
1EC
331
43B
  5
525
331
1123
  5
25D
331
34C
  5
416
331
314
  5
3DE
331
44C
  5
550
331
1134
  5
258
331
118D
  5
11B1
331
35D
  5
427
331
13D
  5
22B
331
45D
  5
576
331
1145
  5
20F
331
46E
  5
8A9
331
14E
  5
23C
331
23F
  5
303
331
10EF
  5
10D2
331
11AF
  5
1E8
331
37F
  5
443
331
47F
  5
EAA
331
1167
  5
197
331
250
  5
314
331
390
  5
454
331
1100
  5
29B
331
11C0
  5
1D1
331
261
  5
325
331
4A1
  5
10DB
331
199
  5
27B
331
1111
  5
269
331
11D1
  5
162
331
51A
  5
115B
331
272
  5
336
331
4B2
  5
10E8
331
3AA
  5
46E
331
52B
  5
116C
331
283
  5
347
331
3BB
  5
47F
331
1CB
  5
2A7
331
325
  5
3EF
331
4D4
  5
10FE
331
3CC
  5
4A5
331
1DC
  5
2B8
331
54D
  5
1175
331
2A5
  5
369
331
55E
  5
117E
331
4E5
  5
110F
331
3DD
  5
4BA
331
1ED
  5
2C9
331
4F6
  5
1120
331
3EE
  5
4D7
331
1FE
  5
2D4
331
577
  5
1189
331
2BF
  5
389
331
507
  5
1131
331
3FF
  5
4E8
331
20F
  5
2D9
331
294
  5
358
331
578
  5
118A
331
2C0
  5
38A
331
508
  5
1132
331
400
  5
4E9
331
8A9
  5
11CA
331
2D1
  5
39B
331
411
  5
4FA
331
221
  5
2E5
331
EAA
  5
11DA
331
EA2
  5
11D2
331
2E2
  5
3AC
331
41A
  5
503
331
232
  5
2F6
331
42B
  5
515
331
32B
  5
3F5
331
2F3
  5
3BD
331
304
  5
3CE
331
33C
  5
406
331
114
  5
1ED
331
43C
  5
526
331
1124
  5
25E
331
117D
  5
11C1
331
315
  5
3DF
331
34D
  5
417
331
44D
  5
551
331
1135
  5
247
331
118E
  5
11AE
331
326
  5
3F0
331
35E
  5
428
331
13E
  5
22C
331
45E
  5
577
331
1146
  5
216
331
46F
  5
8AA
331
14F
  5
23D
331
240
  5
304
331
10F0
  5
10D3
331
11B0
  5
1E9
331
480
  5
EAB
331
380
  5
444
331
251
  5
315
331
391
  5
455
331
1101
  5
27E
331
11C1
  5
1D2
331
262
  5
326
331
4A2
  5
10DC
331
19A
  5
27C
331
1112
  5
26A
331
11D2
  5
163
331
51B
  5
115C
331
273
  5
337
331
4B3
  5
10E9
331
3AB
  5
46F
331
284
  5
348
331
3BC
  5
480
331
1CC
  5
2A8
331
4D5
  5
10FF
331
3CD
  5
4A6
331
1DD
  5
2B9
331
54E
  5
1176
331
2A6
  5
36A
331
55F
  5
117F
331
4E6
  5
1110
331
3DE
  5
4BB
331
1EE
  5
2CA
331
4F7
  5
1121
331
3EF
  5
4D8
331
1FF
  5
2D5
331
295
  5
359
331
560
  5
1180
331
2B0
  5
379
331
4F8
  5
1122
331
3F0
  5
4D9
331
579
  5
118B
331
2C1
  5
38B
331
509
  5
1133
331
401
  5
4EA
331
8AA
  5
11CB
331
2D2
  5
39C
331
412
  5
4FB
331
222
  5
2E6
331
EAB
  5
11DB
331
EA3
  5
11D3
331
2E3
  5
3AD
331
41B
  5
504
331
233
  5
2F7
331
42C
  5
516
331
32C
  5
3F6
331
2F4
  5
3BE
331
305
  5
3CF
331
33D
  5
407
331
115
  5
1EE
331
43D
  5
527
331
1125
  5
25F
331
117E
  5
11BE
331
316
  5
3E0
331
34E
  5
418
331
44E
  5
553
331
1136
  5
248
331
118F
  5
11AF
331
327
  5
3F1
331
35F
  5
429
331
13F
  5
22D
331
45F
  5
578
331
1147
  5
217
331
470
  5
8AB
331
370
  5
435
331
150
  5
23E
331
241
  5
305
331
481
  5
EAC
331
381
  5
445
331
10F1
  5
28C
331
11B1
  5
1E4
331
252
  5
316
331
392
  5
456
331
1102
  5
27F
331
11C2
  5
1CC
331
263
  5
327
331
4A3
  5
10DD
331
19B
  5
27D
331
1113
  5
26B
331
11D3
  5
164
331
51C
  5
115D
331
274
  5
338
331
4B4
  5
10EA
331
3AC
  5
470
331
285
  5
349
331
4C5
  5
10F4
331
3BD
  5
481
331
1CD
  5
2A9
331
296
  5
35A
331
4D6
  5
1100
331
3CE
  5
4A7
331
2A7
  5
370
331
4E7
  5
1111
331
3DF
  5
4BD
331
1EF
  5
2CB
331
1DE
  5
2BA
331
550
  5
1177
331
2A8
  5
371
331
4E8
  5
1112
331
3E0
  5
4BF
331
1F0
  5
2CC
331
561
  5
1181
331
2B1
  5
37A
331
4F9
  5
1123
331
3F1
  5
4DA
331
57A
  5
118C
331
2C2
  5
38C
331
50A
  5
1134
331
402
  5
4EB
331
8AB
  5
11CC
331
2D3
  5
39D
331
413
  5
4FC
331
223
  5
2E7
331
EAC
  5
11DC
331
EA4
  5
11D4
331
2E4
  5
3AE
331
41C
  5
505
331
234
  5
2F8
331
42D
  5
517
331
32D
  5
3F7
331
2F5
  5
3BF
331
306
  5
3D0
331
33E
  5
408
331
116
  5
1EF
331
43E
  5
528
331
1126
  5
260
331
117F
  5
11BF
331
317
  5
3E1
331
34F
  5
419
331
12F
  5
21D
331
1190
  5
11B0
331
44F
  5
554
331
1137
  5
249
331
360
  5
42A
331
140
  5
22E
331
11A1
  5
119D
331
460
  5
579
331
1148
  5
218
331
371
  5
436
331
151
  5
23F
331
471
  5
8AC
331
1159
  5
1CD
331
242
  5
306
331
10F2
  5
28D
331
11B2
  5
1E5
331
482
  5
EAD
331
382
  5
446
331
162
  5
24D
331
253
  5
317
331
393
  5
457
331
1103
  5
280
331
11C3
  5
1C9
331
264
  5
328
331
4A4
  5
10DE
331
1114
  5
26C
331
11D4
  5
153
331
51D
  5
115E
331
275
  5
339
331
4B5
  5
10EB
331
3AD
  5
471
331
286
  5
34A
331
3BE
  5
482
331
1CE
  5
2AA
331
297
  5
35B
331
4D7
  5
1101
331
3CF
  5
4A8
331
1DF
  5
2BB
331
298
  5
35C
331
11E0
  5
134
331
4D8
  5
1102
331
3D0
  5
4A9
331
1E0
  5
2BC
331
551
  5
1178
331
2A9
  5
372
331
4E9
  5
1113
331
3E1
  5
4C5
331
1F1
  5
2CD
331
562
  5
1182
331
2B2
  5
37B
331
4FA
  5
1124
331
3F2
  5
4DB
331
57B
  5
118D
331
2C3
  5
38D
331
50B
  5
1135
331
403
  5
4EC
331
8AC
  5
11CD
331
2D4
  5
39E
331
414
  5
4FD
331
224
  5
2E8
331
EAD
  5
11DD
331
EA5
  5
11D5
331
2E5
  5
3AF
331
41D
  5
506
331
235
  5
2F9
331
42E
  5
518
331
32E
  5
3F8
331
2F6
  5
3C0
331
307
  5
3D1
331
33F
  5
409
331
117
  5
1F0
331
43F
  5
529
331
1127
  5
261
331
1180
  5
11C0
331
318
  5
3E2
331
350
  5
41A
331
130
  5
21E
331
1191
  5
11AD
331
450
  5
55B
331
1138
  5
24A
331
361
  5
42B
331
141
  5
22F
331
11A2
  5
119A
331
461
  5
57A
331
1149
  5
219
331
372
  5
437
331
152
  5
240
331
472
  5
8AD
331
115A
  5
1CE
331
243
  5
307
331
10F3
  5
28E
331
11B3
  5
1E6
331
383
  5
447
331
163
  5
24E
331
483
  5
EAE
331
116B
  5
14D
331
254
  5
318
331
394
  5
458
331
1104
  5
281
331
11C4
  5
1CA
331
265
  5
329
331
4A5
  5
10DF
331
1115
  5
26D
331
11D5
  5
157
331
51E
  5
115F
331
276
  5
33A
331
4B6
  5
10EC
331
287
  5
34B
331
3BF
  5
483
331
1CF
  5
2AB
331
3AE
  5
472
331
288
  5
34C
331
3C0
  5
484
331
1D0
  5
2AC
331
299
  5
35D
331
11E1
  5
135
331
4D9
  5
1103
331
3D1
  5
4AA
331
1E1
  5
2BD
331
2AA
  5
373
331
4EA
  5
1114
331
3E2
  5
4CB
331
1F2
  5
2CE
331
563
  5
1183
331
2B3
  5
37D
331
4FB
  5
1125
331
3F3
  5
4DC
331
57C
  5
118E
331
2C4
  5
38E
331
50C
  5
1136
331
404
  5
4ED
331
8AD
  5
11CE
331
2D5
  5
39F
331
415
  5
4FE
331
225
  5
2E9
331
EAE
  5
11DE
331
EA6
  5
11D6
331
2E6
  5
3B0
331
41E
  5
507
331
236
  5
2FA
331
42F
  5
519
331
32F
  5
3F9
331
2F7
  5
3C1
331
308
  5
3D2
331
340
  5
40A
331
118
  5
1F1
331
440
  5
52A
331
1128
  5
262
331
1181
  5
11BD
331
319
  5
3E3
331
351
  5
41B
331
131
  5
21F
331
1192
  5
11AA
331
451
  5
55C
331
1139
  5
24B
331
362
  5
42C
331
142
  5
230
331
11A3
  5
119B
331
462
  5
57B
331
114A
  5
21A
331
10E3
  5
EB0
331
373
  5
438
331
153
  5
241
331
473
  5
8AE
331
115B
  5
1CF
331
244
  5
308
331
10F4
  5
28F
331
11B4
  5
1E0
331
384
  5
448
331
164
  5
24F
331
484
  5
EAF
331
116C
  5
151
331
255
  5
319
331
395
  5
459
331
1105
  5
282
331
11C5
  5
1CB
331
266
  5
32A
331
4A6
  5
10E0
331
1116
  5
26E
331
11D6
  5
158
331
51F
  5
1160
331
277
  5
33B
331
4B7
  5
10ED
331
3AF
  5
473
331
520
  5
1161
331
278
  5
33C
331
4B8
  5
10EE
331
3B0
  5
474
331
1C0
  5
29C
331
289
  5
34D
331
3C1
  5
496
331
1D1
  5
2AD
331
542
  5
1171
331
29A
  5
35E
331
11E2
  5
118
331
4DA
  5
1104
331
3D2
  5
4AF
331
1E2
  5
2BE
331
553
  5
1179
331
2AB
  5
374
331
4EB
  5
1115
331
3E3
  5
4CC
331
1F3
  5
2CF
331
564
  5
1184
331
2B4
  5
37E
331
4FC
  5
1126
331
3F4
  5
4DD
331
57D
  5
118F
331
2C5
  5
38F
331
50D
  5
1137
331
405
  5
4EE
331
2D6
  5
3A0
331
416
  5
4FF
331
226
  5
2EA
331
EAF
  5
11DF
331
EA7
  5
11D7
331
2E7
  5
3B1
331
41F
  5
508
331
237
  5
2FB
331
430
  5
51A
331
330
  5
3FA
331
2F8
  5
3C2
331
309
  5
3D3
331
341
  5
40B
331
119
  5
1F2
331
441
  5
52B
331
1129
  5
263
331
1182
  5
11BA
331
31A
  5
3E4
331
352
  5
41C
331
132
  5
220
331
1193
  5
11AB
331
452
  5
55D
331
113A
  5
24C
331
363
  5
42D
331
143
  5
231
331
11A4
  5
119C
331
463
  5
57C
331
114B
  5
21B
331
10E4
  5
EB1
331
474
  5
B54
331
374
  5
439
331
154
  5
242
331
245
  5
309
331
10F5
  5
290
331
11B5
  5
1DD
331
385
  5
449
331
165
  5
250
331
256
  5
31A
331
116D
  5
152
331
396
  5
45A
331
1106
  5
283
331
11C6
  5
1C6
331
267
  5
32B
331
4A7
  5
10E1
331
1117
  5
26F
331
11D7
  5
14C
331
268
  5
32C
331
510
  5
113A
331
1118
  5
270
331
11D8
  5
146
331
4A8
  5
10E2
331
3A0
  5
464
331
521
  5
1162
331
279
  5
33D
331
4B9
  5
10EF
331
3B1
  5
475
331
1C1
  5
29D
331
532
  5
116D
331
28A
  5
34E
331
3C2
  5
497
331
1D2
  5
2AE
331
543
  5
1172
331
29B
  5
35F
331
11E3
  5
119
331
4DB
  5
1105
331
3D3
  5
4B0
331
1E3
  5
2BF
331
554
  5
117A
331
2AC
  5
375
331
4EC
  5
1116
331
3E4
  5
4CD
331
1F4
  5
2D0
331
565
  5
1185
331
2B5
  5
37F
331
4FD
  5
1127
331
3F5
  5
4DE
331
57E
  5
1190
331
2C6
  5
390
331
50E
  5
1138
331
406
  5
4EF
331
216
  5
2DA
331
2D7
  5
3A1
331
EB0
  5
11E0
331
417
  5
500
331
227
  5
2EB
331
420
  5
509
331
2E8
  5
3B2
331
431
  5
51B
331
331
  5
3FB
331
2F9
  5
3C3
331
342
  5
40C
331
30A
  5
3D4
331
442
  5
532
331
112A
  5
264
331
1183
  5
11BB
331
31B
  5
3E5
331
353
  5
41D
331
133
  5
221
331
1194
  5
11AC
331
453
  5
55E
331
113B
  5
1F3
331
364
  5
42E
331
144
  5
232
331
11A5
  5
1199
331
464
  5
57D
331
114C
  5
21C
331
10E5
  5
EB2
331
475
  5
EA0
331
375
  5
43A
331
155
  5
243
331
246
  5
30A
331
386
  5
44A
331
10F6
  5
291
331
11B6
  5
1DE
331
257
  5
31B
331
397
  5
45B
331
1107
  5
284
331
11C7
  5
1C7
331
258
  5
31C
331
498
  5
10D6
331
398
  5
45C
331
1108
  5
285
331
11C8
  5
1C8
331
269
  5
32D
331
511
  5
113B
331
1119
  5
271
331
11D9
  5
147
331
4A9
  5
10E3
331
3A1
  5
465
331
522
  5
1163
331
27A
  5
33E
331
4BA
  5
10F0
331
3B2
  5
476
331
1C2
  5
29E
331
533
  5
116E
331
28B
  5
34F
331
4CB
  5
10F5
331
3C3
  5
498
331
1D3
  5
2AF
331
29C
  5
360
331
11E4
  5
12F
331
4DC
  5
1106
331
3D4
  5
4B1
331
1E4
  5
2C0
331
2AD
  5
376
331
4ED
  5
1117
331
3E5
  5
4CE
331
1F5
  5
2D1
331
2B6
  5
380
331
4FE
  5
1128
331
3F6
  5
4DF
331
206
  5
2D6
331
57F
  5
1191
331
2C7
  5
391
331
50F
  5
1139
331
407
  5
4F0
331
217
  5
2DB
331
2D8
  5
3A2
331
EB1
  5
11E1
331
228
  5
2EC
331
421
  5
50A
331
2E9
  5
3B3
331
432
  5
51C
331
332
  5
3FC
331
2FA
  5
3C4
331
343
  5
40D
331
30B
  5
3D5
331
443
  5
533
331
112B
  5
265
331
1184
  5
11BC
331
31C
  5
3E6
331
354
  5
41E
331
134
  5
222
331
1195
  5
11A9
331
454
  5
55F
331
113C
  5
1F4
331
365
  5
42F
331
145
  5
233
331
11A6
  5
1196
331
465
  5
57E
331
114D
  5
1E1
331
10E6
  5
EB3
331
476
  5
EA1
331
376
  5
43B
331
156
  5
244
331
247
  5
30B
331
387
  5
44B
331
10F7
  5
292
331
11B7
  5
1DF
331
248
  5
30C
331
388
  5
44C
331
10F8
  5
293
331
11B8
  5
1DA
331
259
  5
31D
331
399
  5
45D
331
1109
  5
286
331
11C9
  5
1C2
331
26A
  5
32E
331
4AA
  5
10E4
331
3A2
  5
466
331
111A
  5
272
331
11DA
  5
14B
331
523
  5
1164
331
27B
  5
33F
331
4BB
  5
10F1
331
3B3
  5
477
331
1C3
  5
29F
331
28C
  5
350
331
4CC
  5
10F6
331
3C4
  5
49B
331
1D4
  5
2B0
331
4DD
  5
1107
331
3D5
  5
4B2
331
1E5
  5
2C1
331
2AE
  5
377
331
4EE
  5
1118
331
3E6
  5
4CF
331
1F6
  5
2D2
331
567
  5
1186
331
2B7
  5
381
331
4FF
  5
1129
331
3F7
  5
4E0
331
207
  5
2D7
331
2C8
  5
392
331
408
  5
4F1
331
218
  5
2DC
331
2D9
  5
3A3
331
EB2
  5
11E2
331
229
  5
2ED
331
422
  5
50B
331
2EA
  5
3B4
331
433
  5
51D
331
333
  5
3FD
331
2FB
  5
3C5
331
344
  5
40E
331
30C
  5
3D6
331
444
  5
53A
331
112C
  5
266
331
1185
  5
11B9
331
31D
  5
3E7
331
355
  5
41F
331
135
  5
223
331
1196
  5
11A6
331
455
  5
560
331
113D
  5
1F5
331
29D
  5
361
331
366
  5
430
331
146
  5
234
331
11A7
  5
1197
331
466
  5
57F
331
114E
  5
1E2
331
10E7
  5
EB4
331
377
  5
43C
331
157
  5
245
331
477
  5
EA2
331
115F
  5
1C3
  0
XRECORD
  5
11EA
102
{ACAD_REACTORS
330
11E8
102
}
330
11E8
100
AcDbXrecord
280
     1
 70
     2
  0
XRECORD
  5
11E9
102
{ACAD_REACTORS
330
11E8
102
}
330
11E8
100
AcDbXrecord
280
     1
 40
1.25
  0
XRECORD
  5
11EB
102
{ACAD_REACTORS
330
11E8
102
}
330
11E8
100
AcDbXrecord
280
     1
 40
1.570796326794896
  0
XRECORD
  5
11EC
102
{ACAD_REACTORS
330
11E8
102
}
330
11E8
100
AcDbXrecord
280
     1
340
625
  0
LAYOUT
  5
6E
102
{ACAD_XDICTIONARY
360
1220
102
}
102
{ACAD_REACTORS
330
61
102
}
330
61
100
AcDbPlotSettings
  1

  2
none_device
  4
Letter_(8.50_x_11.00_Inches)
  6

 40
6.349999904632567
 41
6.349999904632567
 42
6.350006103515625
 43
6.350006103515625
 44
215.8999938964844
 45
279.3999938964844
 46
0.0
 47
0.0
 48
0.0
 49
0.0
140
0.0
141
0.0
142
1.0
143
93.23843360428572
 70
 11952
 72
     0
 73
     1
 74
     0
  7

 75
     0
147
0.0107251909040441
148
11604.16704505933
149
5685.815475375167
100
AcDbLayout
  1
Model
 70
     1
 71
     0
 10
0.0
 20
0.0
 11
12.0
 21
9.0
 12
0.0
 22
0.0
 32
0.0
 14
0.0
 24
0.0
 34
0.0
 15
0.0
 25
0.0
 35
0.0
146
0.0
 13
0.0
 23
0.0
 33
0.0
 16
1.0
 26
0.0
 36
0.0
 17
0.0
 27
1.0
 37
0.0
 76
     0
330
6B
331
8C
1001
ACAD_PSEXT
1000
なし
1000
なし
1000
適切ではありません
1000
新しいプロッタ環境設定名を選択しない限り、レイアウトは印刷されません。
1070
     0
  0
LAYOUT
  5
6A
102
{ACAD_XDICTIONARY
360
121E
102
}
102
{ACAD_REACTORS
330
61
102
}
330
61
100
AcDbPlotSettings
  1

  2
FX DP 205
  4

  6

 40
0.0
 41
0.0
 42
0.0
 43
0.0
 44
0.0
 45
0.0
 46
0.0
 47
0.0
 48
0.0
 49
0.0
140
0.0
141
0.0
142
1.0
143
1.0
 70
   688
 72
     0
 73
     0
 74
     5
  7

 75
    16
147
1.0
148
0.0
149
0.0
100
AcDbLayout
  1
レイアウト1
 70
     1
 71
     1
 10
0.0
 20
0.0
 11
12.0
 21
9.0
 12
0.0
 22
0.0
 32
0.0
 14
1.000000000000000E+20
 24
1.000000000000000E+20
 34
1.000000000000000E+20
 15
-1.000000000000000E+20
 25
-1.000000000000000E+20
 35
-1.000000000000000E+20
146
0.0
 13
0.0
 23
0.0
 33
0.0
 16
1.0
 26
0.0
 36
0.0
 17
0.0
 27
1.0
 37
0.0
 76
     0
330
67
  0
MATERIAL
  5
19
102
{ACAD_XDICTIONARY
360
1A
102
}
102
{ACAD_REACTORS
330
10
102
}
330
10
100
AcDbMaterial
  1
ByBlock
 72
     0
 43
0.0208333333333333
 43
0.0
 43
0.0
 43
0.0
 43
0.0
 43
0.0208333333333333
 43
0.0
 43
0.0
 43
0.0
 43
0.0
 43
1.0
 43
0.0
 43
0.0
 43
0.0
 43
0.0
 43
1.0
 77
     0
 47
0.0208333333333333
 47
0.0
 47
0.0
 47
0.0
 47
0.0
 47
0.0208333333333333
 47
0.0
 47
0.0
 47
0.0
 47
0.0
 47
1.0
 47
0.0
 47
0.0
 47
0.0
 47
0.0
 47
1.0
171
     0
 49
0.0208333333333333
 49
0.0
 49
0.0
 49
0.0
 49
0.0
 49
0.0208333333333333
 49
0.0
 49
0.0
 49
0.0
 49
0.0
 49
1.0
 49
0.0
 49
0.0
 49
0.0
 49
0.0
 49
1.0
175
     0
142
0.0208333333333333
142
0.0
142
0.0
142
0.0
142
0.0
142
0.0208333333333333
142
0.0
142
0.0
142
0.0
142
0.0
142
1.0
142
0.0
142
0.0
142
0.0
142
0.0
142
1.0
179
     0
144
0.0208333333333333
144
0.0
144
0.0
144
0.0
144
0.0
144
0.0208333333333333
144
0.0
144
0.0
144
0.0
144
0.0
144
1.0
144
0.0
144
0.0
144
0.0
144
0.0
144
1.0
147
0.0208333333333333
147
0.0
147
0.0
147
0.0
147
0.0
147
0.0208333333333333
147
0.0
147
0.0
147
0.0
147
0.0
147
1.0
147
0.0
147
0.0
147
0.0
147
0.0
147
1.0
  0
MATERIAL
  5
11
102
{ACAD_XDICTIONARY
360
12
102
}
102
{ACAD_REACTORS
330
10
102
}
330
10
100
AcDbMaterial
  1
ByLayer
 72
     0
 43
0.0208333333333333
 43
0.0
 43
0.0
 43
0.0
 43
0.0
 43
0.0208333333333333
 43
0.0
 43
0.0
 43
0.0
 43
0.0
 43
1.0
 43
0.0
 43
0.0
 43
0.0
 43
0.0
 43
1.0
 77
     0
 47
0.0208333333333333
 47
0.0
 47
0.0
 47
0.0
 47
0.0
 47
0.0208333333333333
 47
0.0
 47
0.0
 47
0.0
 47
0.0
 47
1.0
 47
0.0
 47
0.0
 47
0.0
 47
0.0
 47
1.0
171
     0
 49
0.0208333333333333
 49
0.0
 49
0.0
 49
0.0
 49
0.0
 49
0.0208333333333333
 49
0.0
 49
0.0
 49
0.0
 49
0.0
 49
1.0
 49
0.0
 49
0.0
 49
0.0
 49
0.0
 49
1.0
175
     0
142
0.0208333333333333
142
0.0
142
0.0
142
0.0
142
0.0
142
0.0208333333333333
142
0.0
142
0.0
142
0.0
142
0.0
142
1.0
142
0.0
142
0.0
142
0.0
142
0.0
142
1.0
179
     0
144
0.0208333333333333
144
0.0
144
0.0
144
0.0
144
0.0
144
0.0208333333333333
144
0.0
144
0.0
144
0.0
144
0.0
144
1.0
144
0.0
144
0.0
144
0.0
144
0.0
144
1.0
147
0.0208333333333333
147
0.0
147
0.0
147
0.0
147
0.0
147
0.0208333333333333
147
0.0
147
0.0
147
0.0
147
0.0
147
1.0
147
0.0
147
0.0
147
0.0
147
0.0
147
1.0
  0
MATERIAL
  5
21
102
{ACAD_XDICTIONARY
360
22
102
}
102
{ACAD_REACTORS
330
10
102
}
330
10
100
AcDbMaterial
  1
Global
 72
     0
 43
0.0208333333333333
 43
0.0
 43
0.0
 43
0.0
 43
0.0
 43
0.0208333333333333
 43
0.0
 43
0.0
 43
0.0
 43
0.0
 43
1.0
 43
0.0
 43
0.0
 43
0.0
 43
0.0
 43
1.0
 77
     0
 47
0.0208333333333333
 47
0.0
 47
0.0
 47
0.0
 47
0.0
 47
0.0208333333333333
 47
0.0
 47
0.0
 47
0.0
 47
0.0
 47
1.0
 47
0.0
 47
0.0
 47
0.0
 47
0.0
 47
1.0
171
     0
 49
0.0208333333333333
 49
0.0
 49
0.0
 49
0.0
 49
0.0
 49
0.0208333333333333
 49
0.0
 49
0.0
 49
0.0
 49
0.0
 49
1.0
 49
0.0
 49
0.0
 49
0.0
 49
0.0
 49
1.0
175
     0
142
0.0208333333333333
142
0.0
142
0.0
142
0.0
142
0.0
142
0.0208333333333333
142
0.0
142
0.0
142
0.0
142
0.0
142
1.0
142
0.0
142
0.0
142
0.0
142
0.0
142
1.0
179
     0
144
0.0208333333333333
144
0.0
144
0.0
144
0.0
144
0.0
144
0.0208333333333333
144
0.0
144
0.0
144
0.0
144
0.0
144
1.0
144
0.0
144
0.0
144
0.0
144
0.0
144
1.0
147
0.0208333333333333
147
0.0
147
0.0
147
0.0
147
0.0
147
0.0208333333333333
147
0.0
147
0.0
147
0.0
147
0.0
147
1.0
147
0.0
147
0.0
147
0.0
147
0.0
147
1.0
  0
MLEADERSTYLE
  5
66
102
{ACAD_REACTORS
330
65
102
}
330
65
100
AcDbMLeaderStyle
170
     2
171
     1
172
     0
 90
        2
 40
0.0
 41
0.0
173
     1
 91
-1056964608
340
5A
 92
       -2
290
     1
 42
0.09
291
     1
 43
0.36
  3
Standard
 44
0.18
300

342
55
174
     1
178
     6
175
     1
176
     0
 93
-1056964608
 45
0.18
292
     0
297
     0
 46
0.18
 94
-1056964608
 47
1.0
 49
1.0
140
1.0
293
     1
141
0.0
294
     1
177
     0
142
1.0
295
     0
296
     0
143
0.125
1001
ACAD_MLEADERVER
1070
     2
  0
MLINESTYLE
  5
5F
102
{ACAD_REACTORS
330
5E
102
}
330
5E
100
AcDbMlineStyle
  2
STANDARD
 70
     0
  3

 62
   256
 51
90.0
 52
90.0
 71
     2
 49
0.5
 62
   256
  6
BYLAYER
 49
-0.5
 62
   256
  6
BYLAYER
  0
ACDBPLACEHOLDER
  5
F
102
{ACAD_REACTORS
330
E
102
}
330
E
  0
SCALE
  5
43
102
{ACAD_REACTORS
330
42
102
}
330
42
100
AcDbScale
 70
     0
300
1:1
140
1.0
141
1.0
290
     1
  0
SCALE
  5
44
102
{ACAD_REACTORS
330
42
102
}
330
42
100
AcDbScale
 70
     0
300
1/128" = 1'-0"
140
0.0078125
141
12.0
290
     0
  0
SCALE
  5
45
102
{ACAD_REACTORS
330
42
102
}
330
42
100
AcDbScale
 70
     0
300
1/64" = 1'-0"
140
0.015625
141
12.0
290
     0
  0
SCALE
  5
46
102
{ACAD_REACTORS
330
42
102
}
330
42
100
AcDbScale
 70
     0
300
1/32" = 1'-0"
140
0.03125
141
12.0
290
     0
  0
SCALE
  5
47
102
{ACAD_REACTORS
330
42
102
}
330
42
100
AcDbScale
 70
     0
300
1/16" = 1'-0"
140
0.0625
141
12.0
290
     0
  0
SCALE
  5
48
102
{ACAD_REACTORS
330
42
102
}
330
42
100
AcDbScale
 70
     0
300
3/32" = 1'-0"
140
0.09375
141
12.0
290
     0
  0
SCALE
  5
49
102
{ACAD_REACTORS
330
42
102
}
330
42
100
AcDbScale
 70
     0
300
1/8" = 1'-0"
140
0.125
141
12.0
290
     0
  0
SCALE
  5
4A
102
{ACAD_REACTORS
330
42
102
}
330
42
100
AcDbScale
 70
     0
300
3/16" = 1'-0"
140
0.1875
141
12.0
290
     0
  0
SCALE
  5
4B
102
{ACAD_REACTORS
330
42
102
}
330
42
100
AcDbScale
 70
     0
300
1/4" = 1'-0"
140
0.25
141
12.0
290
     0
  0
SCALE
  5
4C
102
{ACAD_REACTORS
330
42
102
}
330
42
100
AcDbScale
 70
     0
300
3/8" = 1'-0"
140
0.375
141
12.0
290
     0
  0
SCALE
  5
4D
102
{ACAD_REACTORS
330
42
102
}
330
42
100
AcDbScale
 70
     0
300
1/2" = 1'-0"
140
0.5
141
12.0
290
     0
  0
SCALE
  5
4E
102
{ACAD_REACTORS
330
42
102
}
330
42
100
AcDbScale
 70
     0
300
3/4" = 1'-0"
140
0.75
141
12.0
290
     0
  0
SCALE
  5
4F
102
{ACAD_REACTORS
330
42
102
}
330
42
100
AcDbScale
 70
     0
300
1" = 1'-0"
140
1.0
141
12.0
290
     0
  0
SCALE
  5
50
102
{ACAD_REACTORS
330
42
102
}
330
42
100
AcDbScale
 70
     0
300
1-1/2" = 1'-0"
140
1.5
141
12.0
290
     0
  0
SCALE
  5
51
102
{ACAD_REACTORS
330
42
102
}
330
42
100
AcDbScale
 70
     0
300
3" = 1'-0"
140
3.0
141
12.0
290
     0
  0
SCALE
  5
52
102
{ACAD_REACTORS
330
42
102
}
330
42
100
AcDbScale
 70
     0
300
6" = 1'-0"
140
6.0
141
12.0
290
     0
  0
SCALE
  5
53
102
{ACAD_REACTORS
330
42
102
}
330
42
100
AcDbScale
 70
     0
300
1'-0" = 1'-0"
140
12.0
141
12.0
290
     0
  0
TABLESTYLE
  5
64
102
{ACAD_XDICTIONARY
360
7EF
102
}
102
{ACAD_REACTORS
330
63
102
}
330
63
100
AcDbTableStyle
  3
Standard
 70
     0
 71
     0
 40
0.06
 41
0.06
280
     0
281
     0
  7
STANDARD
140
0.18
170
     2
 62
     0
 63
     7
283
     0
274
    -2
284
     1
 64
     0
275
    -2
285
     1
 65
     0
276
    -2
286
     1
 66
     0
277
    -2
287
     1
 67
     0
278
    -2
288
     1
 68
     0
279
    -2
289
     1
 69
     0
  7
STANDARD
140
0.25
170
     5
 62
     0
 63
     7
283
     0
274
    -2
284
     1
 64
     0
275
    -2
285
     1
 65
     0
276
    -2
286
     1
 66
     0
277
    -2
287
     1
 67
     0
278
    -2
288
     1
 68
     0
279
    -2
289
     1
 69
     0
  7
STANDARD
140
0.18
170
     5
 62
     0
 63
     7
283
     0
274
    -2
284
     1
 64
     0
275
    -2
285
     1
 65
     0
276
    -2
286
     1
 66
     0
277
    -2
287
     1
 67
     0
278
    -2
288
     1
 68
     0
279
    -2
289
     1
 69
     0
  0
VISUALSTYLE
  5
2F
102
{ACAD_XDICTIONARY
360
11F7
102
}
102
{ACAD_REACTORS
330
29
102
}
330
29
100
AcDbVisualStyle
  2

 70
     4
 71
     0
 72
     2
 73
     0
 90
        0
 40
-0.6
 41
-30.0
 62
     5
 63
     7
 74
     1
 91
        4
 64
     7
 65
   257
 75
     1
175
     1
 42
1.0
 92
        0
 66
   257
 43
1.0
 76
     1
 77
     6
 78
     2
 67
     7
 79
     5
170
     0
171
     0
290
     0
174
     0
 93
        1
 44
0.0
173
     0
291
     0
 45
0.0
1001
ACAD
1000
AcDbSavedByObjectVersion
1070
     0
  0
VISUALSTYLE
  5
838
102
{ACAD_XDICTIONARY
360
1224
102
}
102
{ACAD_REACTORS
330
29
102
}
330
29
100
AcDbVisualStyle
  2

 70
     6
 71
     1
 72
     2
 73
     2
 90
        0
 40
-0.6
 41
-30.0
 62
     5
 63
     7
 74
     2
 91
        2
 64
     7
 65
   257
 75
     2
175
     1
 42
40.0
 92
        0
 66
   257
 43
1.0
 76
     1
 77
     6
 78
     2
 67
     7
 79
     3
170
     0
171
     0
290
     0
174
     0
 93
        1
 44
0.0
173
     0
291
     0
 45
0.0
1001
ACAD
1000
AcDbSavedByObjectVersion
1070
     0
  0
VISUALSTYLE
  5
625
102
{ACAD_XDICTIONARY
360
1222
102
}
102
{ACAD_REACTORS
330
29
102
}
330
29
100
AcDbVisualStyle
  2

 70
     5
 71
     0
 72
     2
 73
     1
 90
        0
 40
-0.6
 41
-30.0
 62
     5
 63
     7
 74
     1
 91
        4
 64
     7
 65
   257
 75
     1
175
     1
 42
1.0
 92
        0
 66
   257
 43
1.0
 76
     1
 77
     6
 78
     2
 67
     7
 79
     5
170
     0
171
     0
290
     0
174
     0
 93
        1
 44
0.0
173
     0
291
     0
 45
0.0
1001
ACAD
1000
AcDbSavedByObjectVersion
1070
     0
  0
VISUALSTYLE
  5
2E
102
{ACAD_XDICTIONARY
360
11F5
102
}
102
{ACAD_REACTORS
330
29
102
}
330
29
100
AcDbVisualStyle
  2

 70
     7
 71
     1
 72
     0
 73
     1
 90
        0
 40
-0.6
 41
-30.0
 62
     5
 63
     7
 74
     0
 91
        4
 64
     7
 65
   257
 75
     1
175
     1
 42
1.0
 92
        8
 66
     7
 43
1.0
 76
     1
 77
     6
 78
     2
 67
     7
 79
     5
170
     0
171
     0
290
     0
174
     0
 93
        1
 44
0.0
173
     0
291
     1
 45
0.0
1001
ACAD
1000
AcDbSavedByObjectVersion
1070
     0
  0
VISUALSTYLE
  5
35
102
{ACAD_XDICTIONARY
360
1203
102
}
102
{ACAD_REACTORS
330
29
102
}
330
29
100
AcDbVisualStyle
  2

 70
    12
 71
     2
 72
     2
 73
     0
 90
        0
 40
-0.6
 41
-30.0
 62
     5
 63
     7
 74
     1
 91
        4
 64
     7
 65
   257
 75
     1
175
     1
 42
1.0
 92
        8
 66
     7
 43
1.0
 76
     1
 77
     6
 78
     2
 67
     7
 79
     5
170
     0
171
     0
290
     0
174
     0
 93
        1
 44
50.0
173
     0
291
     1
 45
0.0
1001
ACAD
1000
AcDbSavedByObjectVersion
1070
     0
  0
VISUALSTYLE
  5
39
102
{ACAD_XDICTIONARY
360
120B
102
}
102
{ACAD_REACTORS
330
29
102
}
330
29
100
AcDbVisualStyle
  2

 70
    16
 71
     2
 72
     2
 73
     3
 90
        0
 40
-0.6
 41
-30.0
 62
     5
 63
     8
 74
     1
 91
        4
 64
     7
 65
   257
 75
     1
175
     1
 42
1.0
 92
        8
 66
     8
 43
1.0
 76
     1
 77
     6
 78
     2
 67
     7
 79
     5
170
     0
171
     0
290
     0
174
     0
 93
        1
 44
0.0
173
     0
291
     1
 45
0.0
1001
ACAD
1000
AcDbSavedByObjectVersion
1070
     0
  0
VISUALSTYLE
  5
32
102
{ACAD_XDICTIONARY
360
11FD
102
}
102
{ACAD_REACTORS
330
29
102
}
330
29
100
AcDbVisualStyle
  2

 70
     9
 71
     3
 72
     2
 73
     0
 90
        0
 40
-0.6
 41
-30.0
 62
     5
 63
     7
 74
     2
 91
        2
 64
     7
 65
   257
 75
     1
175
     1
 42
179.0
 92
        8
 66
     7
 43
1.0
 76
     1
 77
     6
 78
     2
 67
     7
 79
     3
170
     0
171
     0
290
     0
174
     0
 93
        1
 44
0.0
173
     0
291
     0
 45
0.0
1001
ACAD
1000
AcDbSavedByObjectVersion
1070
     0
  0
VISUALSTYLE
  5
34
102
{ACAD_XDICTIONARY
360
1201
102
}
102
{ACAD_REACTORS
330
29
102
}
330
29
100
AcDbVisualStyle
  2

 70
    11
 71
     2
 72
     2
 73
     0
 90
        0
 40
-0.6
 41
-30.0
 62
     5
 63
     7
 74
     1
 91
        4
 64
     7
 65
   257
 75
     1
175
     1
 42
1.0
 92
        8
 66
     7
 43
1.0
 76
     1
 77
     6
 78
     2
 67
     7
 79
     5
170
     0
171
     0
290
     0
174
     0
 93
        1
 44
-50.0
173
     0
291
     1
 45
0.0
1001
ACAD
1000
AcDbSavedByObjectVersion
1070
     0
  0
VISUALSTYLE
  5
41
102
{ACAD_XDICTIONARY
360
121B
102
}
102
{ACAD_REACTORS
330
29
102
}
330
29
100
AcDbVisualStyle
  2

 70
    22
 71
     2
 72
     2
 73
     0
 90
        0
 40
-0.6
 41
-30.0
 62
     5
 63
     7
 74
     1
 91
        4
 64
     7
 65
   257
 75
     1
175
     1
 42
1.0
 92
        8
 66
     7
 43
1.0
 76
     1
 77
     6
 78
     2
 67
     7
 79
     5
170
     0
171
     0
290
     0
174
     0
 93
        1
 44
0.0
173
     0
291
     1
 45
0.0
1001
ACAD
1000
AcDbSavedByObjectVersion
1070
     0
  0
VISUALSTYLE
  5
38
102
{ACAD_XDICTIONARY
360
1209
102
}
102
{ACAD_REACTORS
330
29
102
}
330
29
100
AcDbVisualStyle
  2

 70
    15
 71
     2
 72
     2
 73
     0
 90
        0
 40
-0.6
 41
-30.0
 62
     5
 63
     7
 74
     1
 91
        4
 64
     7
 65
   257
 75
     1
175
     1
 42
1.0
 92
        8
 66
     7
 43
1.0
 76
     1
 77
     6
 78
     2
 67
     7
 79
     5
170
     0
171
     0
290
     0
174
     0
 93
        1
 44
0.0
173
     0
291
     1
 45
0.0
1001
ACAD
1000
AcDbSavedByObjectVersion
1070
     0
  0
VISUALSTYLE
  5
2A
102
{ACAD_XDICTIONARY
360
11ED
102
}
102
{ACAD_REACTORS
330
29
102
}
330
29
100
AcDbVisualStyle
  2

 70
     0
 71
     2
 72
     1
 73
     1
 90
        2
 40
-0.6
 41
30.0
 62
     5
 63
     7
 74
     0
 91
        0
 64
     7
 65
   257
 75
     1
175
     1
 42
1.0
 92
        8
 66
     7
 43
1.0
 76
     1
 77
     6
 78
     2
 67
     7
 79
     5
170
     0
171
     0
290
     0
174
     0
 93
       13
 44
0.0
173
     0
291
     1
 45
0.0
1001
ACAD
1000
AcDbSavedByObjectVersion
1070
     0
  0
VISUALSTYLE
  5
2B
102
{ACAD_XDICTIONARY
360
11EF
102
}
102
{ACAD_REACTORS
330
29
102
}
330
29
100
AcDbVisualStyle
  2

 70
     1
 71
     2
 72
     1
 73
     1
 90
        2
 40
-0.6
 41
30.0
 62
     5
 63
     7
 74
     1
 91
        0
 64
     7
 65
   257
 75
     1
175
     1
 42
1.0
 92
        0
 66
   257
 43
1.0
 76
     1
 77
     6
 78
     2
 67
     7
 79
     5
170
     0
171
     0
290
     0
174
     0
 93
       13
 44
0.0
173
     0
291
     1
 45
0.0
1001
ACAD
1000
AcDbSavedByObjectVersion
1070
     0
  0
VISUALSTYLE
  5
2C
102
{ACAD_XDICTIONARY
360
11F1
102
}
102
{ACAD_REACTORS
330
29
102
}
330
29
100
AcDbVisualStyle
  2

 70
     2
 71
     2
 72
     2
 73
     1
 90
        2
 40
-0.6
 41
30.0
 62
     5
 63
     7
 74
     0
 91
        0
 64
     7
 65
   257
 75
     1
175
     1
 42
1.0
 92
        0
 66
     7
 43
1.0
 76
     1
 77
     6
 78
     2
 67
     7
 79
     5
170
     0
171
     0
290
     0
174
     0
 93
       13
 44
0.0
173
     0
291
     1
 45
0.0
1001
ACAD
1000
AcDbSavedByObjectVersion
1070
     0
  0
VISUALSTYLE
  5
2D
102
{ACAD_XDICTIONARY
360
11F3
102
}
102
{ACAD_REACTORS
330
29
102
}
330
29
100
AcDbVisualStyle
  2

 70
     3
 71
     2
 72
     2
 73
     1
 90
        2
 40
-0.6
 41
30.0
 62
     5
 63
     7
 74
     1
 91
        0
 64
     7
 65
   257
 75
     1
175
     1
 42
1.0
 92
        0
 66
   257
 43
1.0
 76
     1
 77
     6
 78
     2
 67
     7
 79
     5
170
     0
171
     0
290
     0
174
     0
 93
       13
 44
0.0
173
     0
291
     1
 45
0.0
1001
ACAD
1000
AcDbSavedByObjectVersion
1070
     0
  0
VISUALSTYLE
  5
31
102
{ACAD_XDICTIONARY
360
11FB
102
}
102
{ACAD_REACTORS
330
29
102
}
330
29
100
AcDbVisualStyle
  2

 70
     6
 71
     1
 72
     2
 73
     2
 90
        0
 40
-0.6
 41
-30.0
 62
     5
 63
     7
 74
     2
 91
        2
 64
     7
 65
   257
 75
     2
175
     1
 42
40.0
 92
        0
 66
   257
 43
1.0
 76
     1
 77
     6
 78
     2
 67
     7
 79
     3
170
     0
171
     0
290
     0
174
     0
 93
        1
 44
0.0
173
     0
291
     0
 45
0.0
1001
ACAD
1000
AcDbSavedByObjectVersion
1070
     0
  0
VISUALSTYLE
  5
3F
102
{ACAD_XDICTIONARY
360
1217
102
}
102
{ACAD_REACTORS
330
29
102
}
330
29
100
AcDbVisualStyle
  2

 70
    20
 71
     2
 72
     2
 73
     0
 90
        0
 40
-0.6
 41
-30.0
 62
     5
 63
     7
 74
     1
 91
        4
 64
     7
 65
   257
 75
     1
175
     1
 42
1.0
 92
       10
 66
     7
 43
1.0
 76
     1
 77
     6
 78
     2
 67
     7
 79
     5
170
     0
171
     0
290
     0
174
     0
 93
        1
 44
0.0
173
     0
291
     1
 45
0.0
1001
ACAD
1000
AcDbSavedByObjectVersion
1070
     0
  0
VISUALSTYLE
  5
37
102
{ACAD_XDICTIONARY
360
1207
102
}
102
{ACAD_REACTORS
330
29
102
}
330
29
100
AcDbVisualStyle
  2

 70
    14
 71
     2
 72
     2
 73
     0
 90
        0
 40
-0.6
 41
-30.0
 62
     5
 63
     7
 74
     1
 91
        4
 64
     7
 65
   257
 75
     7
175
     7
 42
1.0
 92
        8
 66
     7
 43
1.0
 76
     1
 77
     6
 78
     2
 67
     7
 79
     5
170
     0
171
     0
290
     0
174
     0
 93
        1
 44
0.0
173
     0
291
     1
 45
0.0
1001
ACAD
1000
AcDbSavedByObjectVersion
1070
     0
  0
VISUALSTYLE
  5
40
102
{ACAD_XDICTIONARY
360
1219
102
}
102
{ACAD_REACTORS
330
29
102
}
330
29
100
AcDbVisualStyle
  2

 70
    21
 71
     2
 72
     2
 73
     0
 90
        0
 40
-0.6
 41
-30.0
 62
     5
 63
     7
 74
     1
 91
        4
 64
     7
 65
   257
 75
     1
175
     1
 42
1.0
 92
        9
 66
     7
 43
1.0
 76
     1
 77
     6
 78
     2
 67
     7
 79
     5
170
     0
171
     0
290
     0
174
     0
 93
        1
 44
0.0
173
     0
291
     1
 45
0.0
1001
ACAD
1000
AcDbSavedByObjectVersion
1070
     0
  0
VISUALSTYLE
  5
33
102
{ACAD_XDICTIONARY
360
11FF
102
}
102
{ACAD_REACTORS
330
29
102
}
330
29
100
AcDbVisualStyle
  2

 70
     8
 71
     2
 72
     3
 73
     0
 90
        2
 40
-0.6
 41
30.0
 62
     5
 63
     7
 74
     0
 91
        0
 64
     7
 65
   257
 75
     1
175
     1
 42
1.0
 92
        8
 66
   257
 43
1.0
 76
     1
 77
     6
 78
     2
 67
     7
 79
     3
170
     0
171
     0
290
     0
174
     0
 93
       13
 44
0.0
173
     0
291
     0
 45
0.0
1001
ACAD
1000
AcDbSavedByObjectVersion
1070
     0
  0
VISUALSTYLE
  5
3E
102
{ACAD_XDICTIONARY
360
1215
102
}
102
{ACAD_REACTORS
330
29
102
}
330
29
100
AcDbVisualStyle
  2

 70
    27
 71
     2
 72
     2
 73
     1
 90
        2
 40
-0.6
 41
30.0
 62
     5
 63
     7
 74
     0
 91
        4
 64
     7
 65
   257
 75
     1
175
     1
 42
1.0
 92
        8
 66
   257
 43
1.0
 76
     1
 77
     6
 78
     2
 67
     8
 79
     3
170
     0
171
     0
290
     0
174
     0
 93
        5
 44
0.0
173
     0
291
     0
 45
0.0
1001
ACAD
1000
AcDbSavedByObjectVersion
1070
     0
  0
VISUALSTYLE
  5
3D
102
{ACAD_XDICTIONARY
360
1213
102
}
102
{ACAD_REACTORS
330
29
102
}
330
29
100
AcDbVisualStyle
  2

 70
    26
 71
     2
 72
     2
 73
     1
 90
        2
 40
-0.6
 41
30.0
 62
     5
 63
     7
 74
     1
 91
       10
 64
     7
 65
   257
 75
     2
175
     1
 42
1.0
 92
        8
 66
   257
 43
1.0
 76
     1
 77
     6
 78
     2
 67
     7
 79
     3
170
     0
171
     0
290
     0
174
     0
 93
        5
 44
0.0
173
     0
291
     0
 45
0.0
1001
ACAD
1000
AcDbSavedByObjectVersion
1070
     0
  0
VISUALSTYLE
  5
3A
102
{ACAD_XDICTIONARY
360
120D
102
}
102
{ACAD_REACTORS
330
29
102
}
330
29
100
AcDbVisualStyle
  2

 70
    23
 71
     2
 72
     2
 73
     3
 90
        0
 40
-0.6
 41
-30.0
 62
     5
 63
     7
 74
     2
 91
        2
 64
     7
 65
     7
 75
     1
175
     1
 42
40.0
 92
        8
 66
     7
 43
1.0
 76
     1
 77
     6
 78
     2
 67
     7
 79
     3
170
     0
171
     0
290
     0
174
     0
 93
        1
 44
0.0
173
     0
291
     0
 45
0.0
1001
ACAD
1000
AcDbSavedByObjectVersion
1070
     0
  0
VISUALSTYLE
  5
3B
102
{ACAD_XDICTIONARY
360
120F
102
}
102
{ACAD_REACTORS
330
29
102
}
330
29
100
AcDbVisualStyle
  2

 70
    24
 71
     1
 72
     2
 73
     2
 90
        0
 40
-0.6
 41
-30.0
 62
     5
 63
     7
 74
     2
 91
        2
 64
     7
 65
     7
 75
     1
175
     1
 42
40.0
 92
       11
 66
     7
 43
1.0
 76
     1
 77
     6
 78
     2
 67
     7
 79
     6
170
     0
171
     0
290
     0
174
     0
 93
        1
 44
0.0
173
     0
291
     0
 45
0.0
1001
ACAD
1000
AcDbSavedByObjectVersion
1070
     0
  0
VISUALSTYLE
  5
36
102
{ACAD_XDICTIONARY
360
1205
102
}
102
{ACAD_REACTORS
330
29
102
}
330
29
100
AcDbVisualStyle
  2

 70
    13
 71
     2
 72
     2
 73
     0
 90
        0
 40
-0.6
 41
-30.0
 62
     5
 63
     7
 74
     1
 91
        4
 64
     7
 65
   257
 75
     1
175
     1
 42
1.0
 92
       12
 66
     7
 43
1.0
 76
     1
 77
     6
 78
     2
 67
     7
 79
     5
170
     0
171
     0
290
     0
174
     0
 93
        1
 44
0.0
173
     0
291
     1
 45
0.0
1001
ACAD
1000
AcDbSavedByObjectVersion
1070
     0
  0
VISUALSTYLE
  5
30
102
{ACAD_XDICTIONARY
360
11F9
102
}
102
{ACAD_REACTORS
330
29
102
}
330
29
100
AcDbVisualStyle
  2

 70
     5
 71
     0
 72
     2
 73
     0
 90
        0
 40
-0.6
 41
-30.0
 62
     5
 63
     7
 74
     1
 91
        4
 64
     7
 65
   257
 75
     1
175
     1
 42
1.0
 92
        0
 66
   257
 43
1.0
 76
     1
 77
     6
 78
     2
 67
     7
 79
     3
170
     0
171
     0
290
     0
174
     0
 93
        1
 44
0.0
173
     0
291
     0
 45
0.0
1001
ACAD
1000
AcDbSavedByObjectVersion
1070
     0
  0
VISUALSTYLE
  5
3C
102
{ACAD_XDICTIONARY
360
1211
102
}
102
{ACAD_REACTORS
330
29
102
}
330
29
100
AcDbVisualStyle
  2

 70
    25
 71
     2
 72
     2
 73
     1
 90
        1
 40
0.5
 41
-30.0
 62
     5
 63
     7
 74
     1
 91
        0
 64
     7
 65
   257
 75
     1
175
     1
 42
1.0
 92
        8
 66
     7
 43
1.0
 76
     1
 77
     6
 78
     2
 67
     7
 79
     3
170
     0
171
     0
290
     0
174
     0
 93
       13
 44
0.0
173
     0
291
     0
 45
0.0
1001
ACAD
1000
AcDbSavedByObjectVersion
1070
     0
  0
DICTIONARYVAR
  5
7EA
102
{ACAD_REACTORS
330
7E7
102
}
330
7E7
100
DictionaryVariables
280
     0
  1
1:1
  0
DICTIONARYVAR
  5
7E9
102
{ACAD_REACTORS
330
7E7
102
}
330
7E7
100
DictionaryVariables
280
     0
  1
STANDARD
  0
DICTIONARYVAR
  5
7E8
102
{ACAD_REACTORS
330
7E7
102
}
330
7E7
100
DictionaryVariables
280
     0
  1
STANDARD
  0
DICTIONARYVAR
  5
7ED
102
{ACAD_REACTORS
330
7E7
102
}
330
7E7
100
DictionaryVariables
280
     0
  1
1
  0
DICTIONARYVAR
  5
7EC
102
{ACAD_REACTORS
330
7E7
102
}
330
7E7
100
DictionaryVariables
280
     0
  1
0
  0
DICTIONARYVAR
  5
1087
102
{ACAD_REACTORS
330
7E7
102
}
330
7E7
100
DictionaryVariables
280
     0
  1
1.570796
  0
DICTIONARYVAR
  5
1088
102
{ACAD_REACTORS
330
7E7
102
}
330
7E7
100
DictionaryVariables
280
     0
  1
1.570796
  0
DICTIONARYVAR
  5
7EB
102
{ACAD_REACTORS
330
7E7
102
}
330
7E7
100
DictionaryVariables
280
     0
  1
127
  0
DICTIONARYVAR
  5
1089
102
{ACAD_REACTORS
330
7E7
102
}
330
7E7
100
DictionaryVariables
280
     0
  1
2
  0
DICTIONARY
  5
1220
330
6E
100
AcDbDictionary
280
     1
281
     1
  3
ACAD_XREC_ROUNDTRIP
360
1221
  0
DICTIONARY
  5
121E
330
6A
100
AcDbDictionary
280
     1
281
     1
  3
ACAD_XREC_ROUNDTRIP
360
121F
  0
DICTIONARY
  5
1A
330
19
100
AcDbDictionary
280
     1
281
     1
  3
ACAD_XREC_ROUNDTRIP
360
7F8
  3
BUMPTILE
360
1C
  3
DIFFUSETILE
360
1B
  3
OPACITYTILE
360
1F
  3
REFLECTIONTILE
360
1E
  3
REFRACTIONTILE
360
20
  3
SPECULARTILE
360
1D
  0
DICTIONARY
  5
12
330
11
100
AcDbDictionary
280
     1
281
     1
  3
ACAD_XREC_ROUNDTRIP
360
7F7
  3
BUMPTILE
360
14
  3
DIFFUSETILE
360
13
  3
OPACITYTILE
360
17
  3
REFLECTIONTILE
360
16
  3
REFRACTIONTILE
360
18
  3
SPECULARTILE
360
15
  0
DICTIONARY
  5
22
330
21
100
AcDbDictionary
280
     1
281
     1
  3
ACAD_XREC_ROUNDTRIP
360
7F9
  3
BUMPTILE
360
24
  3
DIFFUSETILE
360
23
  3
OPACITYTILE
360
27
  3
REFLECTIONTILE
360
26
  3
REFRACTIONTILE
360
28
  3
SPECULARTILE
360
25
  0
DICTIONARY
  5
7EF
330
64
100
AcDbDictionary
280
     1
281
     1
  3
ACAD_ROUNDTRIP_2008_TABLESTYLE_CELLSTYLEMAP
360
11E5
  3
ACAD_XREC_ROUNDTRIP
360
121D
  0
DICTIONARY
  5
11F7
330
2F
100
AcDbDictionary
280
     1
281
     1
  3
ACAD_XREC_ROUNDTRIP
360
11F8
  0
DICTIONARY
  5
1224
330
838
100
AcDbDictionary
280
     1
281
     1
  3
ACAD_XREC_ROUNDTRIP
360
1225
  0
DICTIONARY
  5
1222
330
625
100
AcDbDictionary
280
     1
281
     1
  3
ACAD_XREC_ROUNDTRIP
360
1223
  0
DICTIONARY
  5
11F5
330
2E
100
AcDbDictionary
280
     1
281
     1
  3
ACAD_XREC_ROUNDTRIP
360
11F6
  0
DICTIONARY
  5
1203
330
35
100
AcDbDictionary
280
     1
281
     1
  3
ACAD_XREC_ROUNDTRIP
360
1204
  0
DICTIONARY
  5
120B
330
39
100
AcDbDictionary
280
     1
281
     1
  3
ACAD_XREC_ROUNDTRIP
360
120C
  0
DICTIONARY
  5
11FD
330
32
100
AcDbDictionary
280
     1
281
     1
  3
ACAD_XREC_ROUNDTRIP
360
11FE
  0
DICTIONARY
  5
1201
330
34
100
AcDbDictionary
280
     1
281
     1
  3
ACAD_XREC_ROUNDTRIP
360
1202
  0
DICTIONARY
  5
121B
330
41
100
AcDbDictionary
280
     1
281
     1
  3
ACAD_XREC_ROUNDTRIP
360
121C
  0
DICTIONARY
  5
1209
330
38
100
AcDbDictionary
280
     1
281
     1
  3
ACAD_XREC_ROUNDTRIP
360
120A
  0
DICTIONARY
  5
11ED
330
2A
100
AcDbDictionary
280
     1
281
     1
  3
ACAD_XREC_ROUNDTRIP
360
11EE
  0
DICTIONARY
  5
11EF
330
2B
100
AcDbDictionary
280
     1
281
     1
  3
ACAD_XREC_ROUNDTRIP
360
11F0
  0
DICTIONARY
  5
11F1
330
2C
100
AcDbDictionary
280
     1
281
     1
  3
ACAD_XREC_ROUNDTRIP
360
11F2
  0
DICTIONARY
  5
11F3
330
2D
100
AcDbDictionary
280
     1
281
     1
  3
ACAD_XREC_ROUNDTRIP
360
11F4
  0
DICTIONARY
  5
11FB
330
31
100
AcDbDictionary
280
     1
281
     1
  3
ACAD_XREC_ROUNDTRIP
360
11FC
  0
DICTIONARY
  5
1217
330
3F
100
AcDbDictionary
280
     1
281
     1
  3
ACAD_XREC_ROUNDTRIP
360
1218
  0
DICTIONARY
  5
1207
330
37
100
AcDbDictionary
280
     1
281
     1
  3
ACAD_XREC_ROUNDTRIP
360
1208
  0
DICTIONARY
  5
1219
330
40
100
AcDbDictionary
280
     1
281
     1
  3
ACAD_XREC_ROUNDTRIP
360
121A
  0
DICTIONARY
  5
11FF
330
33
100
AcDbDictionary
280
     1
281
     1
  3
ACAD_XREC_ROUNDTRIP
360
1200
  0
DICTIONARY
  5
1215
330
3E
100
AcDbDictionary
280
     1
281
     1
  3
ACAD_XREC_ROUNDTRIP
360
1216
  0
DICTIONARY
  5
1213
330
3D
100
AcDbDictionary
280
     1
281
     1
  3
ACAD_XREC_ROUNDTRIP
360
1214
  0
DICTIONARY
  5
120D
330
3A
100
AcDbDictionary
280
     1
281
     1
  3
ACAD_XREC_ROUNDTRIP
360
120E
  0
DICTIONARY
  5
120F
330
3B
100
AcDbDictionary
280
     1
281
     1
  3
ACAD_XREC_ROUNDTRIP
360
1210
  0
DICTIONARY
  5
1205
330
36
100
AcDbDictionary
280
     1
281
     1
  3
ACAD_XREC_ROUNDTRIP
360
1206
  0
DICTIONARY
  5
11F9
330
30
100
AcDbDictionary
280
     1
281
     1
  3
ACAD_XREC_ROUNDTRIP
360
11FA
  0
DICTIONARY
  5
1211
330
3C
100
AcDbDictionary
280
     1
281
     1
  3
ACAD_XREC_ROUNDTRIP
360
1212
  0
XRECORD
  5
1221
102
{ACAD_REACTORS
330
1220
102
}
330
1220
100
AcDbXrecord
280
     1
102
SHADEPLOT
 70
     0
102
SHADEPLOTRESLEVEL
 70
     2
102
SHADEPLOTCUSTOMDPI
 70
   300
  0
XRECORD
  5
121F
102
{ACAD_REACTORS
330
121E
102
}
330
121E
100
AcDbXrecord
280
     1
102
SHADEPLOT
 70
     0
102
SHADEPLOTRESLEVEL
 70
     2
102
SHADEPLOTCUSTOMDPI
 70
   300
  0
XRECORD
  5
7F8
102
{ACAD_REACTORS
330
1A
102
}
330
1A
100
AcDbXrecord
280
     1
102
MATERIAL
148
0.0
149
0.0
149
0.0
 93
        0
 94
      127
282
     0
 72
     0
 77
     0
171
     0
175
     0
179
     0
273
     0
  0
XRECORD
  5
1C
102
{ACAD_REACTORS
330
1A
102
}
330
1A
100
AcDbXrecord
280
     1
270
     1
271
     1
  0
XRECORD
  5
1B
102
{ACAD_REACTORS
330
1A
102
}
330
1A
100
AcDbXrecord
280
     1
270
     1
271
     1
  0
XRECORD
  5
1F
102
{ACAD_REACTORS
330
1A
102
}
330
1A
100
AcDbXrecord
280
     1
270
     1
271
     1
  0
XRECORD
  5
1E
102
{ACAD_REACTORS
330
1A
102
}
330
1A
100
AcDbXrecord
280
     1
270
     1
271
     1
  0
XRECORD
  5
20
102
{ACAD_REACTORS
330
1A
102
}
330
1A
100
AcDbXrecord
280
     1
270
     1
271
     1
  0
XRECORD
  5
1D
102
{ACAD_REACTORS
330
1A
102
}
330
1A
100
AcDbXrecord
280
     1
270
     1
271
     1
  0
XRECORD
  5
7F7
102
{ACAD_REACTORS
330
12
102
}
330
12
100
AcDbXrecord
280
     1
102
MATERIAL
148
0.0
149
0.0
149
0.0
 93
        0
 94
      127
282
     0
 72
     0
 77
     0
171
     0
175
     0
179
     0
273
     0
  0
XRECORD
  5
14
102
{ACAD_REACTORS
330
12
102
}
330
12
100
AcDbXrecord
280
     1
270
     1
271
     1
  0
XRECORD
  5
13
102
{ACAD_REACTORS
330
12
102
}
330
12
100
AcDbXrecord
280
     1
270
     1
271
     1
  0
XRECORD
  5
17
102
{ACAD_REACTORS
330
12
102
}
330
12
100
AcDbXrecord
280
     1
270
     1
271
     1
  0
XRECORD
  5
16
102
{ACAD_REACTORS
330
12
102
}
330
12
100
AcDbXrecord
280
     1
270
     1
271
     1
  0
XRECORD
  5
18
102
{ACAD_REACTORS
330
12
102
}
330
12
100
AcDbXrecord
280
     1
270
     1
271
     1
  0
XRECORD
  5
15
102
{ACAD_REACTORS
330
12
102
}
330
12
100
AcDbXrecord
280
     1
270
     1
271
     1
  0
XRECORD
  5
7F9
102
{ACAD_REACTORS
330
22
102
}
330
22
100
AcDbXrecord
280
     1
102
MATERIAL
148
0.0
149
0.0
149
0.0
 93
        0
 94
      127
282
     0
 72
     0
 77
     0
171
     0
175
     0
179
     0
273
     0
  0
XRECORD
  5
24
102
{ACAD_REACTORS
330
22
102
}
330
22
100
AcDbXrecord
280
     1
270
     1
271
     1
  0
XRECORD
  5
23
102
{ACAD_REACTORS
330
22
102
}
330
22
100
AcDbXrecord
280
     1
270
     1
271
     1
  0
XRECORD
  5
27
102
{ACAD_REACTORS
330
22
102
}
330
22
100
AcDbXrecord
280
     1
270
     1
271
     1
  0
XRECORD
  5
26
102
{ACAD_REACTORS
330
22
102
}
330
22
100
AcDbXrecord
280
     1
270
     1
271
     1
  0
XRECORD
  5
28
102
{ACAD_REACTORS
330
22
102
}
330
22
100
AcDbXrecord
280
     1
270
     1
271
     1
  0
XRECORD
  5
25
102
{ACAD_REACTORS
330
22
102
}
330
22
100
AcDbXrecord
280
     1
270
     1
271
     1
  0
CELLSTYLEMAP
  5
11E5
102
{ACAD_REACTORS
330
7EF
102
}
330
7EF
100
AcDbCellStyleMap
 90
        3
300
CELLSTYLE
  1
TABLEFORMAT_BEGIN
 90
        5
170
     1
 91
        0
 92
    32768
 62
   257
 93
        1
300
CONTENTFORMAT
  1
CONTENTFORMAT_BEGIN
 90
        0
 91
        0
 92
      512
 93
        0
300

 40
0.0
140
1.0
 94
        5
 62
     0
340
55
144
0.25
309
CONTENTFORMAT_END
171
     1
301
MARGIN
  1
CELLMARGIN_BEGIN
 40
0.06
 40
0.06
 40
0.06
 40
0.06
 40
0.18
 40
0.18
309
CELLMARGIN_END
 94
        6
 95
        1
302
GRIDFORMAT
  1
GRIDFORMAT_BEGIN
 90
        0
 91
        1
 62
     0
 92
       -2
340
0
 93
        0
 40
0.045
309
GRIDFORMAT_END
 95
        2
302
GRIDFORMAT
  1
GRIDFORMAT_BEGIN
 90
        0
 91
        1
 62
     0
 92
       -2
340
0
 93
        0
 40
0.045
309
GRIDFORMAT_END
 95
        4
302
GRIDFORMAT
  1
GRIDFORMAT_BEGIN
 90
        0
 91
        1
 62
     0
 92
       -2
340
0
 93
        0
 40
0.045
309
GRIDFORMAT_END
 95
        8
302
GRIDFORMAT
  1
GRIDFORMAT_BEGIN
 90
        0
 91
        1
 62
     0
 92
       -2
340
0
 93
        0
 40
0.045
309
GRIDFORMAT_END
 95
       16
302
GRIDFORMAT
  1
GRIDFORMAT_BEGIN
 90
        0
 91
        1
 62
     0
 92
       -2
340
0
 93
        0
 40
0.045
309
GRIDFORMAT_END
 95
       32
302
GRIDFORMAT
  1
GRIDFORMAT_BEGIN
 90
        0
 91
        1
 62
     0
 92
       -2
340
0
 93
        0
 40
0.045
309
GRIDFORMAT_END
309
TABLEFORMAT_END
  1
CELLSTYLE_BEGIN
 90
        1
 91
        1
300
_TITLE
309
CELLSTYLE_END
300
CELLSTYLE
  1
TABLEFORMAT_BEGIN
 90
        5
170
     1
 91
        0
 92
        0
 62
   257
 93
        1
300
CONTENTFORMAT
  1
CONTENTFORMAT_BEGIN
 90
        0
 91
        0
 92
      512
 93
        0
300

 40
0.0
140
1.0
 94
        5
 62
     0
340
55
144
0.18
309
CONTENTFORMAT_END
171
     1
301
MARGIN
  1
CELLMARGIN_BEGIN
 40
0.06
 40
0.06
 40
0.06
 40
0.06
 40
0.18
 40
0.18
309
CELLMARGIN_END
 94
        6
 95
        1
302
GRIDFORMAT
  1
GRIDFORMAT_BEGIN
 90
        0
 91
        1
 62
     0
 92
       -2
340
0
 93
        0
 40
0.045
309
GRIDFORMAT_END
 95
        2
302
GRIDFORMAT
  1
GRIDFORMAT_BEGIN
 90
        0
 91
        1
 62
     0
 92
       -2
340
0
 93
        0
 40
0.045
309
GRIDFORMAT_END
 95
        4
302
GRIDFORMAT
  1
GRIDFORMAT_BEGIN
 90
        0
 91
        1
 62
     0
 92
       -2
340
0
 93
        0
 40
0.045
309
GRIDFORMAT_END
 95
        8
302
GRIDFORMAT
  1
GRIDFORMAT_BEGIN
 90
        0
 91
        1
 62
     0
 92
       -2
340
0
 93
        0
 40
0.045
309
GRIDFORMAT_END
 95
       16
302
GRIDFORMAT
  1
GRIDFORMAT_BEGIN
 90
        0
 91
        1
 62
     0
 92
       -2
340
0
 93
        0
 40
0.045
309
GRIDFORMAT_END
 95
       32
302
GRIDFORMAT
  1
GRIDFORMAT_BEGIN
 90
        0
 91
        1
 62
     0
 92
       -2
340
0
 93
        0
 40
0.045
309
GRIDFORMAT_END
309
TABLEFORMAT_END
  1
CELLSTYLE_BEGIN
 90
        2
 91
        1
300
_HEADER
309
CELLSTYLE_END
300
CELLSTYLE
  1
TABLEFORMAT_BEGIN
 90
        5
170
     1
 91
        0
 92
        0
 62
   257
 93
        1
300
CONTENTFORMAT
  1
CONTENTFORMAT_BEGIN
 90
        0
 91
        0
 92
      512
 93
        0
300

 40
0.0
140
1.0
 94
        2
 62
     0
340
55
144
0.18
309
CONTENTFORMAT_END
171
     1
301
MARGIN
  1
CELLMARGIN_BEGIN
 40
0.06
 40
0.06
 40
0.06
 40
0.06
 40
0.18
 40
0.18
309
CELLMARGIN_END
 94
        6
 95
        1
302
GRIDFORMAT
  1
GRIDFORMAT_BEGIN
 90
        0
 91
        1
 62
     0
 92
       -2
340
0
 93
        0
 40
0.045
309
GRIDFORMAT_END
 95
        2
302
GRIDFORMAT
  1
GRIDFORMAT_BEGIN
 90
        0
 91
        1
 62
     0
 92
       -2
340
0
 93
        0
 40
0.045
309
GRIDFORMAT_END
 95
        4
302
GRIDFORMAT
  1
GRIDFORMAT_BEGIN
 90
        0
 91
        1
 62
     0
 92
       -2
340
0
 93
        0
 40
0.045
309
GRIDFORMAT_END
 95
        8
302
GRIDFORMAT
  1
GRIDFORMAT_BEGIN
 90
        0
 91
        1
 62
     0
 92
       -2
340
0
 93
        0
 40
0.045
309
GRIDFORMAT_END
 95
       16
302
GRIDFORMAT
  1
GRIDFORMAT_BEGIN
 90
        0
 91
        1
 62
     0
 92
       -2
340
0
 93
        0
 40
0.045
309
GRIDFORMAT_END
 95
       32
302
GRIDFORMAT
  1
GRIDFORMAT_BEGIN
 90
        0
 91
        1
 62
     0
 92
       -2
340
0
 93
        0
 40
0.045
309
GRIDFORMAT_END
309
TABLEFORMAT_END
  1
CELLSTYLE_BEGIN
 90
        3
 91
        2
300
_DATA
309
CELLSTYLE_END
  0
XRECORD
  5
121D
102
{ACAD_REACTORS
330
7EF
102
}
330
7EF
100
AcDbXrecord
280
     1
102
ACAD_ROUNDTRIP_PRE2007_TABLESTYLE
 90
      512
 91
        0
  1

 92
      512
 93
        0
  2

 94
      512
 95
        0
  3

  0
XRECORD
  5
11F8
102
{ACAD_REACTORS
330
11F7
102
}
330
11F7
100
AcDbXrecord
280
     1
102
RTVSPropertyOp0
 70
     1
102
RTVSPropertyOp1
 70
     1
102
RTVSPropertyOp2
 70
     1
102
RTVSPropertyOp3
 70
     1
102
RTVSPropertyOp4
 70
     1
102
RTVSPropertyOp5
 70
     1
102
RTVSPropertyOp6
 70
     1
102
RTVSPropertyOp7
 70
     1
102
RTVSPropertyOp8
 70
     1
102
RTVSPropertyOp9
 70
     1
102
RTVSPropertyOp10
 70
     1
102
RTVSPropertyOp11
 70
     1
102
RTVSPropertyOp12
 70
     1
102
RTVSPropertyOp13
 70
     1
102
RTVSPropertyOp14
 70
     1
102
RTVSPropertyOp15
 70
     1
102
RTVSPropertyOp16
 70
     1
102
RTVSPropertyOp17
 70
     1
102
RTVSPropertyOp18
 70
     1
102
RTVSPropertyOp19
 70
     1
102
RTVSPropertyOp20
 70
     1
102
RTVSPropertyOp21
 70
     1
102
RTVSPropertyOp22
 70
     1
102
RTVSPropertyOp23
 70
     1
102
RTVSPropertyOp24
 70
     1
102
RTVSPropertyOp25
 70
     1
102
RTVSPropertyOp26
 70
     1
102
RTVSPropertyOp27
 70
     1
102
RTVSPropertyOp28
 70
     1
102
RTVSPropertyOp29
 70
     1
102
RTVSPropertyOp30
 70
     1
102
RTVSPropertyOp31
 70
     1
102
RTVSPropertyOp32
 70
     1
  0
XRECORD
  5
1225
102
{ACAD_REACTORS
330
1224
102
}
330
1224
100
AcDbXrecord
280
     1
102
RTVSPropertyOp0
 70
     1
102
RTVSPropertyOp1
 70
     1
102
RTVSPropertyOp2
 70
     1
102
RTVSPropertyOp3
 70
     1
102
RTVSPropertyOp4
 70
     1
102
RTVSPropertyOp5
 70
     1
102
RTVSPropertyOp6
 70
     1
102
RTVSPropertyOp7
 70
     1
102
RTVSPropertyOp8
 70
     1
102
RTVSPropertyOp9
 70
     1
102
RTVSPropertyOp10
 70
     1
102
RTVSPropertyOp11
 70
     1
102
RTVSPropertyOp12
 70
     1
102
RTVSPropertyOp13
 70
     1
102
RTVSPropertyOp14
 70
     1
102
RTVSPropertyOp15
 70
     1
102
RTVSPropertyOp16
 70
     1
102
RTVSPropertyOp17
 70
     1
102
RTVSPropertyOp18
 70
     1
102
RTVSPropertyOp19
 70
     1
102
RTVSPropertyOp20
 70
     1
102
RTVSPropertyOp21
 70
     1
102
RTVSPropertyOp22
 70
     1
102
RTVSPropertyOp23
 70
     1
102
RTVSPropertyOp24
 70
     1
102
RTVSPropertyOp25
 70
     1
102
RTVSPropertyOp26
 70
     1
102
RTVSPropertyOp27
 70
     1
102
RTVSPropertyOp28
 70
     1
102
RTVSPropertyOp29
 70
     1
102
RTVSPropertyOp30
 70
     1
102
RTVSPropertyOp31
 70
     1
102
RTVSPropertyOp32
 70
     1
  0
XRECORD
  5
1223
102
{ACAD_REACTORS
330
1222
102
}
330
1222
100
AcDbXrecord
280
     1
102
RTVSPropertyOp0
 70
     1
102
RTVSPropertyOp1
 70
     1
102
RTVSPropertyOp2
 70
     1
102
RTVSPropertyOp3
 70
     1
102
RTVSPropertyOp4
 70
     1
102
RTVSPropertyOp5
 70
     1
102
RTVSPropertyOp6
 70
     1
102
RTVSPropertyOp7
 70
     1
102
RTVSPropertyOp8
 70
     1
102
RTVSPropertyOp9
 70
     1
102
RTVSPropertyOp10
 70
     1
102
RTVSPropertyOp11
 70
     1
102
RTVSPropertyOp12
 70
     1
102
RTVSPropertyOp13
 70
     1
102
RTVSPropertyOp14
 70
     1
102
RTVSPropertyOp15
 70
     1
102
RTVSPropertyOp16
 70
     1
102
RTVSPropertyOp17
 70
     1
102
RTVSPropertyOp18
 70
     1
102
RTVSPropertyOp19
 70
     1
102
RTVSPropertyOp20
 70
     1
102
RTVSPropertyOp21
 70
     1
102
RTVSPropertyOp22
 70
     1
102
RTVSPropertyOp23
 70
     1
102
RTVSPropertyOp24
 70
     1
102
RTVSPropertyOp25
 70
     1
102
RTVSPropertyOp26
 70
     1
102
RTVSPropertyOp27
 70
     1
102
RTVSPropertyOp28
 70
     1
102
RTVSPropertyOp29
 70
     1
102
RTVSPropertyOp30
 70
     1
102
RTVSPropertyOp31
 70
     1
102
RTVSPropertyOp32
 70
     1
  0
XRECORD
  5
11F6
102
{ACAD_REACTORS
330
11F5
102
}
330
11F5
100
AcDbXrecord
280
     1
102
RTVSPropertyOp0
 70
     1
102
RTVSPropertyOp1
 70
     1
102
RTVSPropertyOp2
 70
     1
102
RTVSPropertyOp3
 70
     1
102
RTVSPropertyOp4
 70
     1
102
RTVSPropertyOp5
 70
     1
102
RTVSPropertyOp6
 70
     1
102
RTVSPropertyOp7
 70
     1
102
RTVSPropertyOp8
 70
     1
102
RTVSPropertyOp9
 70
     1
102
RTVSPropertyOp10
 70
     1
102
RTVSPropertyOp11
 70
     1
102
RTVSPropertyOp12
 70
     1
102
RTVSPropertyOp13
 70
     1
102
RTVSPropertyOp14
 70
     1
102
RTVSPropertyOp15
 70
     1
102
RTVSPropertyOp16
 70
     1
102
RTVSPropertyOp17
 70
     1
102
RTVSPropertyOp18
 70
     1
102
RTVSPropertyOp19
 70
     1
102
RTVSPropertyOp20
 70
     1
102
RTVSPropertyOp21
 70
     1
102
RTVSPropertyOp22
 70
     1
102
RTVSPropertyOp23
 70
     1
102
RTVSPropertyOp24
 70
     1
102
RTVSPropertyOp25
 70
     1
102
RTVSPropertyOp26
 70
     1
102
RTVSPropertyOp27
 70
     1
102
RTVSPropertyOp28
 70
     1
102
RTVSPropertyOp29
 70
     1
102
RTVSPropertyOp30
 70
     1
102
RTVSPropertyOp31
 70
     1
102
RTVSPropertyOp32
 70
     1
  0
XRECORD
  5
1204
102
{ACAD_REACTORS
330
1203
102
}
330
1203
100
AcDbXrecord
280
     1
102
RTVSPropertyOp0
 70
     1
102
RTVSPropertyOp1
 70
     1
102
RTVSPropertyOp2
 70
     1
102
RTVSPropertyOp3
 70
     1
102
RTVSPropertyOp4
 70
     1
102
RTVSPropertyOp5
 70
     1
102
RTVSPropertyOp6
 70
     1
102
RTVSPropertyOp7
 70
     1
102
RTVSPropertyOp8
 70
     1
102
RTVSPropertyOp9
 70
     1
102
RTVSPropertyOp10
 70
     1
102
RTVSPropertyOp11
 70
     1
102
RTVSPropertyOp12
 70
     1
102
RTVSPropertyOp13
 70
     1
102
RTVSPropertyOp14
 70
     1
102
RTVSPropertyOp15
 70
     1
102
RTVSPropertyOp16
 70
     1
102
RTVSPropertyOp17
 70
     1
102
RTVSPropertyOp18
 70
     1
102
RTVSPropertyOp19
 70
     1
102
RTVSPropertyOp20
 70
     1
102
RTVSPropertyOp21
 70
     1
102
RTVSPropertyOp22
 70
     1
102
RTVSPropertyOp23
 70
     1
102
RTVSPropertyOp24
 70
     1
102
RTVSPropertyOp25
 70
     1
102
RTVSPropertyOp26
 70
     1
102
RTVSPropertyOp27
 70
     1
102
RTVSPropertyOp28
 70
     1
102
RTVSPropertyOp29
 70
     1
102
RTVSPropertyOp30
 70
     1
102
RTVSPropertyOp31
 70
     1
102
RTVSPropertyOp32
 70
     1
  0
XRECORD
  5
120C
102
{ACAD_REACTORS
330
120B
102
}
330
120B
100
AcDbXrecord
280
     1
102
RTVSPropertyOp0
 70
     1
102
RTVSPropertyOp1
 70
     1
102
RTVSPropertyOp2
 70
     1
102
RTVSPropertyOp3
 70
     1
102
RTVSPropertyOp4
 70
     1
102
RTVSPropertyOp5
 70
     1
102
RTVSPropertyOp6
 70
     1
102
RTVSPropertyOp7
 70
     1
102
RTVSPropertyOp8
 70
     1
102
RTVSPropertyOp9
 70
     1
102
RTVSPropertyOp10
 70
     1
102
RTVSPropertyOp11
 70
     1
102
RTVSPropertyOp12
 70
     1
102
RTVSPropertyOp13
 70
     1
102
RTVSPropertyOp14
 70
     1
102
RTVSPropertyOp15
 70
     1
102
RTVSPropertyOp16
 70
     1
102
RTVSPropertyOp17
 70
     1
102
RTVSPropertyOp18
 70
     1
102
RTVSPropertyOp19
 70
     1
102
RTVSPropertyOp20
 70
     1
102
RTVSPropertyOp21
 70
     1
102
RTVSPropertyOp22
 70
     1
102
RTVSPropertyOp23
 70
     1
102
RTVSPropertyOp24
 70
     1
102
RTVSPropertyOp25
 70
     1
102
RTVSPropertyOp26
 70
     1
102
RTVSPropertyOp27
 70
     1
102
RTVSPropertyOp28
 70
     1
102
RTVSPropertyOp29
 70
     1
102
RTVSPropertyOp30
 70
     1
102
RTVSPropertyOp31
 70
     1
102
RTVSPropertyOp32
 70
     1
  0
XRECORD
  5
11FE
102
{ACAD_REACTORS
330
11FD
102
}
330
11FD
100
AcDbXrecord
280
     1
102
RTVSPropertyOp0
 70
     1
102
RTVSPropertyOp1
 70
     1
102
RTVSPropertyOp2
 70
     1
102
RTVSPropertyOp3
 70
     1
102
RTVSPropertyOp4
 70
     1
102
RTVSPropertyOp5
 70
     1
102
RTVSPropertyOp6
 70
     1
102
RTVSPropertyOp7
 70
     1
102
RTVSPropertyOp8
 70
     1
102
RTVSPropertyOp9
 70
     1
102
RTVSPropertyOp10
 70
     1
102
RTVSPropertyOp11
 70
     1
102
RTVSPropertyOp12
 70
     1
102
RTVSPropertyOp13
 70
     1
102
RTVSPropertyOp14
 70
     1
102
RTVSPropertyOp15
 70
     1
102
RTVSPropertyOp16
 70
     1
102
RTVSPropertyOp17
 70
     1
102
RTVSPropertyOp18
 70
     1
102
RTVSPropertyOp19
 70
     1
102
RTVSPropertyOp20
 70
     1
102
RTVSPropertyOp21
 70
     1
102
RTVSPropertyOp22
 70
     1
102
RTVSPropertyOp23
 70
     1
102
RTVSPropertyOp24
 70
     1
102
RTVSPropertyOp25
 70
     1
102
RTVSPropertyOp26
 70
     1
102
RTVSPropertyOp27
 70
     1
102
RTVSPropertyOp28
 70
     1
102
RTVSPropertyOp29
 70
     1
102
RTVSPropertyOp30
 70
     1
102
RTVSPropertyOp31
 70
     1
102
RTVSPropertyOp32
 70
     1
  0
XRECORD
  5
1202
102
{ACAD_REACTORS
330
1201
102
}
330
1201
100
AcDbXrecord
280
     1
102
RTVSPropertyOp0
 70
     1
102
RTVSPropertyOp1
 70
     1
102
RTVSPropertyOp2
 70
     1
102
RTVSPropertyOp3
 70
     1
102
RTVSPropertyOp4
 70
     1
102
RTVSPropertyOp5
 70
     1
102
RTVSPropertyOp6
 70
     1
102
RTVSPropertyOp7
 70
     1
102
RTVSPropertyOp8
 70
     1
102
RTVSPropertyOp9
 70
     1
102
RTVSPropertyOp10
 70
     1
102
RTVSPropertyOp11
 70
     1
102
RTVSPropertyOp12
 70
     1
102
RTVSPropertyOp13
 70
     1
102
RTVSPropertyOp14
 70
     1
102
RTVSPropertyOp15
 70
     1
102
RTVSPropertyOp16
 70
     1
102
RTVSPropertyOp17
 70
     1
102
RTVSPropertyOp18
 70
     1
102
RTVSPropertyOp19
 70
     1
102
RTVSPropertyOp20
 70
     1
102
RTVSPropertyOp21
 70
     1
102
RTVSPropertyOp22
 70
     1
102
RTVSPropertyOp23
 70
     1
102
RTVSPropertyOp24
 70
     1
102
RTVSPropertyOp25
 70
     1
102
RTVSPropertyOp26
 70
     1
102
RTVSPropertyOp27
 70
     1
102
RTVSPropertyOp28
 70
     1
102
RTVSPropertyOp29
 70
     1
102
RTVSPropertyOp30
 70
     1
102
RTVSPropertyOp31
 70
     1
102
RTVSPropertyOp32
 70
     1
  0
XRECORD
  5
121C
102
{ACAD_REACTORS
330
121B
102
}
330
121B
100
AcDbXrecord
280
     1
102
RTVSPropertyOp0
 70
     0
102
RTVSPropertyOp1
 70
     0
102
RTVSPropertyOp2
 70
     0
102
RTVSPropertyOp3
 70
     0
102
RTVSPropertyOp4
 70
     0
102
RTVSPropertyOp5
 70
     0
102
RTVSPropertyOp6
 70
     0
102
RTVSPropertyOp7
 70
     0
102
RTVSPropertyOp8
 70
     0
102
RTVSPropertyOp9
 70
     0
102
RTVSPropertyOp10
 70
     0
102
RTVSPropertyOp11
 70
     0
102
RTVSPropertyOp12
 70
     0
102
RTVSPropertyOp13
 70
     0
102
RTVSPropertyOp14
 70
     2
102
RTVSPropertyOp15
 70
     0
102
RTVSPropertyOp16
 70
     0
102
RTVSPropertyOp17
 70
     0
102
RTVSPropertyOp18
 70
     0
102
RTVSPropertyOp19
 70
     0
102
RTVSPropertyOp20
 70
     0
102
RTVSPropertyOp21
 70
     0
102
RTVSPropertyOp22
 70
     0
102
RTVSPropertyOp23
 70
     0
102
RTVSPropertyOp24
 70
     0
102
RTVSPropertyOp25
 70
     0
102
RTVSPropertyOp26
 70
     0
102
RTVSPropertyOp27
 70
     0
102
RTVSPropertyOp28
 70
     0
102
RTVSPropertyOp29
 70
     0
102
RTVSPropertyOp30
 70
     0
102
RTVSPropertyOp31
 70
     0
102
RTVSPropertyOp32
 70
     0
  0
XRECORD
  5
120A
102
{ACAD_REACTORS
330
1209
102
}
330
1209
100
AcDbXrecord
280
     1
102
RTVSPropertyOp0
 70
     1
102
RTVSPropertyOp1
 70
     1
102
RTVSPropertyOp2
 70
     1
102
RTVSPropertyOp3
 70
     1
102
RTVSPropertyOp4
 70
     1
102
RTVSPropertyOp5
 70
     1
102
RTVSPropertyOp6
 70
     1
102
RTVSPropertyOp7
 70
     1
102
RTVSPropertyOp8
 70
     1
102
RTVSPropertyOp9
 70
     1
102
RTVSPropertyOp10
 70
     1
102
RTVSPropertyOp11
 70
     1
102
RTVSPropertyOp12
 70
     1
102
RTVSPropertyOp13
 70
     1
102
RTVSPropertyOp14
 70
     1
102
RTVSPropertyOp15
 70
     1
102
RTVSPropertyOp16
 70
     1
102
RTVSPropertyOp17
 70
     1
102
RTVSPropertyOp18
 70
     1
102
RTVSPropertyOp19
 70
     1
102
RTVSPropertyOp20
 70
     1
102
RTVSPropertyOp21
 70
     1
102
RTVSPropertyOp22
 70
     1
102
RTVSPropertyOp23
 70
     1
102
RTVSPropertyOp24
 70
     1
102
RTVSPropertyOp25
 70
     1
102
RTVSPropertyOp26
 70
     1
102
RTVSPropertyOp27
 70
     1
102
RTVSPropertyOp28
 70
     1
102
RTVSPropertyOp29
 70
     1
102
RTVSPropertyOp30
 70
     1
102
RTVSPropertyOp31
 70
     1
102
RTVSPropertyOp32
 70
     1
  0
XRECORD
  5
11EE
102
{ACAD_REACTORS
330
11ED
102
}
330
11ED
100
AcDbXrecord
280
     1
102
RTVSPropertyOp0
 70
     1
102
RTVSPropertyOp1
 70
     1
102
RTVSPropertyOp2
 70
     1
102
RTVSPropertyOp3
 70
     1
102
RTVSPropertyOp4
 70
     1
102
RTVSPropertyOp5
 70
     1
102
RTVSPropertyOp6
 70
     1
102
RTVSPropertyOp7
 70
     1
102
RTVSPropertyOp8
 70
     1
102
RTVSPropertyOp9
 70
     1
102
RTVSPropertyOp10
 70
     1
102
RTVSPropertyOp11
 70
     1
102
RTVSPropertyOp12
 70
     1
102
RTVSPropertyOp13
 70
     1
102
RTVSPropertyOp14
 70
     1
102
RTVSPropertyOp15
 70
     1
102
RTVSPropertyOp16
 70
     1
102
RTVSPropertyOp17
 70
     1
102
RTVSPropertyOp18
 70
     1
102
RTVSPropertyOp19
 70
     1
102
RTVSPropertyOp20
 70
     1
102
RTVSPropertyOp21
 70
     1
102
RTVSPropertyOp22
 70
     1
102
RTVSPropertyOp23
 70
     1
102
RTVSPropertyOp24
 70
     1
102
RTVSPropertyOp25
 70
     1
102
RTVSPropertyOp26
 70
     1
102
RTVSPropertyOp27
 70
     1
102
RTVSPropertyOp28
 70
     1
102
RTVSPropertyOp29
 70
     1
102
RTVSPropertyOp30
 70
     1
102
RTVSPropertyOp31
 70
     1
102
RTVSPropertyOp32
 70
     1
  0
XRECORD
  5
11F0
102
{ACAD_REACTORS
330
11EF
102
}
330
11EF
100
AcDbXrecord
280
     1
102
RTVSPropertyOp0
 70
     1
102
RTVSPropertyOp1
 70
     1
102
RTVSPropertyOp2
 70
     1
102
RTVSPropertyOp3
 70
     1
102
RTVSPropertyOp4
 70
     1
102
RTVSPropertyOp5
 70
     1
102
RTVSPropertyOp6
 70
     1
102
RTVSPropertyOp7
 70
     1
102
RTVSPropertyOp8
 70
     1
102
RTVSPropertyOp9
 70
     1
102
RTVSPropertyOp10
 70
     1
102
RTVSPropertyOp11
 70
     1
102
RTVSPropertyOp12
 70
     1
102
RTVSPropertyOp13
 70
     1
102
RTVSPropertyOp14
 70
     1
102
RTVSPropertyOp15
 70
     1
102
RTVSPropertyOp16
 70
     1
102
RTVSPropertyOp17
 70
     1
102
RTVSPropertyOp18
 70
     1
102
RTVSPropertyOp19
 70
     1
102
RTVSPropertyOp20
 70
     1
102
RTVSPropertyOp21
 70
     1
102
RTVSPropertyOp22
 70
     1
102
RTVSPropertyOp23
 70
     1
102
RTVSPropertyOp24
 70
     1
102
RTVSPropertyOp25
 70
     1
102
RTVSPropertyOp26
 70
     1
102
RTVSPropertyOp27
 70
     1
102
RTVSPropertyOp28
 70
     1
102
RTVSPropertyOp29
 70
     1
102
RTVSPropertyOp30
 70
     1
102
RTVSPropertyOp31
 70
     1
102
RTVSPropertyOp32
 70
     1
  0
XRECORD
  5
11F2
102
{ACAD_REACTORS
330
11F1
102
}
330
11F1
100
AcDbXrecord
280
     1
102
RTVSPropertyOp0
 70
     1
102
RTVSPropertyOp1
 70
     1
102
RTVSPropertyOp2
 70
     1
102
RTVSPropertyOp3
 70
     1
102
RTVSPropertyOp4
 70
     1
102
RTVSPropertyOp5
 70
     1
102
RTVSPropertyOp6
 70
     1
102
RTVSPropertyOp7
 70
     1
102
RTVSPropertyOp8
 70
     1
102
RTVSPropertyOp9
 70
     1
102
RTVSPropertyOp10
 70
     1
102
RTVSPropertyOp11
 70
     1
102
RTVSPropertyOp12
 70
     1
102
RTVSPropertyOp13
 70
     1
102
RTVSPropertyOp14
 70
     1
102
RTVSPropertyOp15
 70
     1
102
RTVSPropertyOp16
 70
     1
102
RTVSPropertyOp17
 70
     1
102
RTVSPropertyOp18
 70
     1
102
RTVSPropertyOp19
 70
     1
102
RTVSPropertyOp20
 70
     1
102
RTVSPropertyOp21
 70
     1
102
RTVSPropertyOp22
 70
     1
102
RTVSPropertyOp23
 70
     1
102
RTVSPropertyOp24
 70
     1
102
RTVSPropertyOp25
 70
     1
102
RTVSPropertyOp26
 70
     1
102
RTVSPropertyOp27
 70
     1
102
RTVSPropertyOp28
 70
     1
102
RTVSPropertyOp29
 70
     1
102
RTVSPropertyOp30
 70
     1
102
RTVSPropertyOp31
 70
     1
102
RTVSPropertyOp32
 70
     1
  0
XRECORD
  5
11F4
102
{ACAD_REACTORS
330
11F3
102
}
330
11F3
100
AcDbXrecord
280
     1
102
RTVSPropertyOp0
 70
     1
102
RTVSPropertyOp1
 70
     1
102
RTVSPropertyOp2
 70
     1
102
RTVSPropertyOp3
 70
     1
102
RTVSPropertyOp4
 70
     1
102
RTVSPropertyOp5
 70
     1
102
RTVSPropertyOp6
 70
     1
102
RTVSPropertyOp7
 70
     1
102
RTVSPropertyOp8
 70
     1
102
RTVSPropertyOp9
 70
     1
102
RTVSPropertyOp10
 70
     1
102
RTVSPropertyOp11
 70
     1
102
RTVSPropertyOp12
 70
     1
102
RTVSPropertyOp13
 70
     1
102
RTVSPropertyOp14
 70
     1
102
RTVSPropertyOp15
 70
     1
102
RTVSPropertyOp16
 70
     1
102
RTVSPropertyOp17
 70
     1
102
RTVSPropertyOp18
 70
     1
102
RTVSPropertyOp19
 70
     1
102
RTVSPropertyOp20
 70
     1
102
RTVSPropertyOp21
 70
     1
102
RTVSPropertyOp22
 70
     1
102
RTVSPropertyOp23
 70
     1
102
RTVSPropertyOp24
 70
     1
102
RTVSPropertyOp25
 70
     1
102
RTVSPropertyOp26
 70
     1
102
RTVSPropertyOp27
 70
     1
102
RTVSPropertyOp28
 70
     1
102
RTVSPropertyOp29
 70
     1
102
RTVSPropertyOp30
 70
     1
102
RTVSPropertyOp31
 70
     1
102
RTVSPropertyOp32
 70
     1
  0
XRECORD
  5
11FC
102
{ACAD_REACTORS
330
11FB
102
}
330
11FB
100
AcDbXrecord
280
     1
102
RTVSPropertyOp0
 70
     1
102
RTVSPropertyOp1
 70
     1
102
RTVSPropertyOp2
 70
     1
102
RTVSPropertyOp3
 70
     1
102
RTVSPropertyOp4
 70
     1
102
RTVSPropertyOp5
 70
     1
102
RTVSPropertyOp6
 70
     1
102
RTVSPropertyOp7
 70
     1
102
RTVSPropertyOp8
 70
     1
102
RTVSPropertyOp9
 70
     1
102
RTVSPropertyOp10
 70
     1
102
RTVSPropertyOp11
 70
     1
102
RTVSPropertyOp12
 70
     1
102
RTVSPropertyOp13
 70
     1
102
RTVSPropertyOp14
 70
     1
102
RTVSPropertyOp15
 70
     1
102
RTVSPropertyOp16
 70
     1
102
RTVSPropertyOp17
 70
     1
102
RTVSPropertyOp18
 70
     1
102
RTVSPropertyOp19
 70
     1
102
RTVSPropertyOp20
 70
     1
102
RTVSPropertyOp21
 70
     1
102
RTVSPropertyOp22
 70
     1
102
RTVSPropertyOp23
 70
     1
102
RTVSPropertyOp24
 70
     1
102
RTVSPropertyOp25
 70
     1
102
RTVSPropertyOp26
 70
     1
102
RTVSPropertyOp27
 70
     1
102
RTVSPropertyOp28
 70
     1
102
RTVSPropertyOp29
 70
     1
102
RTVSPropertyOp30
 70
     1
102
RTVSPropertyOp31
 70
     1
102
RTVSPropertyOp32
 70
     1
  0
XRECORD
  5
1218
102
{ACAD_REACTORS
330
1217
102
}
330
1217
100
AcDbXrecord
280
     1
102
RTVSPropertyOp0
 70
     0
102
RTVSPropertyOp1
 70
     0
102
RTVSPropertyOp2
 70
     0
102
RTVSPropertyOp3
 70
     0
102
RTVSPropertyOp4
 70
     0
102
RTVSPropertyOp5
 70
     0
102
RTVSPropertyOp6
 70
     0
102
RTVSPropertyOp7
 70
     0
102
RTVSPropertyOp8
 70
     0
102
RTVSPropertyOp9
 70
     0
102
RTVSPropertyOp10
 70
     0
102
RTVSPropertyOp11
 70
     0
102
RTVSPropertyOp12
 70
     0
102
RTVSPropertyOp13
 70
     0
102
RTVSPropertyOp14
 70
     2
102
RTVSPropertyOp15
 70
     0
102
RTVSPropertyOp16
 70
     0
102
RTVSPropertyOp17
 70
     0
102
RTVSPropertyOp18
 70
     0
102
RTVSPropertyOp19
 70
     0
102
RTVSPropertyOp20
 70
     0
102
RTVSPropertyOp21
 70
     0
102
RTVSPropertyOp22
 70
     0
102
RTVSPropertyOp23
 70
     0
102
RTVSPropertyOp24
 70
     0
102
RTVSPropertyOp25
 70
     0
102
RTVSPropertyOp26
 70
     0
102
RTVSPropertyOp27
 70
     0
102
RTVSPropertyOp28
 70
     0
102
RTVSPropertyOp29
 70
     0
102
RTVSPropertyOp30
 70
     0
102
RTVSPropertyOp31
 70
     0
102
RTVSPropertyOp32
 70
     0
  0
XRECORD
  5
1208
102
{ACAD_REACTORS
330
1207
102
}
330
1207
100
AcDbXrecord
280
     1
102
RTVSPropertyOp0
 70
     1
102
RTVSPropertyOp1
 70
     1
102
RTVSPropertyOp2
 70
     1
102
RTVSPropertyOp3
 70
     1
102
RTVSPropertyOp4
 70
     1
102
RTVSPropertyOp5
 70
     1
102
RTVSPropertyOp6
 70
     1
102
RTVSPropertyOp7
 70
     1
102
RTVSPropertyOp8
 70
     1
102
RTVSPropertyOp9
 70
     1
102
RTVSPropertyOp10
 70
     1
102
RTVSPropertyOp11
 70
     1
102
RTVSPropertyOp12
 70
     1
102
RTVSPropertyOp13
 70
     1
102
RTVSPropertyOp14
 70
     1
102
RTVSPropertyOp15
 70
     1
102
RTVSPropertyOp16
 70
     1
102
RTVSPropertyOp17
 70
     1
102
RTVSPropertyOp18
 70
     1
102
RTVSPropertyOp19
 70
     1
102
RTVSPropertyOp20
 70
     1
102
RTVSPropertyOp21
 70
     1
102
RTVSPropertyOp22
 70
     1
102
RTVSPropertyOp23
 70
     1
102
RTVSPropertyOp24
 70
     1
102
RTVSPropertyOp25
 70
     1
102
RTVSPropertyOp26
 70
     1
102
RTVSPropertyOp27
 70
     1
102
RTVSPropertyOp28
 70
     1
102
RTVSPropertyOp29
 70
     1
102
RTVSPropertyOp30
 70
     1
102
RTVSPropertyOp31
 70
     1
102
RTVSPropertyOp32
 70
     1
  0
XRECORD
  5
121A
102
{ACAD_REACTORS
330
1219
102
}
330
1219
100
AcDbXrecord
280
     1
102
RTVSPropertyOp0
 70
     0
102
RTVSPropertyOp1
 70
     0
102
RTVSPropertyOp2
 70
     0
102
RTVSPropertyOp3
 70
     0
102
RTVSPropertyOp4
 70
     0
102
RTVSPropertyOp5
 70
     0
102
RTVSPropertyOp6
 70
     0
102
RTVSPropertyOp7
 70
     0
102
RTVSPropertyOp8
 70
     0
102
RTVSPropertyOp9
 70
     0
102
RTVSPropertyOp10
 70
     0
102
RTVSPropertyOp11
 70
     0
102
RTVSPropertyOp12
 70
     0
102
RTVSPropertyOp13
 70
     0
102
RTVSPropertyOp14
 70
     2
102
RTVSPropertyOp15
 70
     0
102
RTVSPropertyOp16
 70
     0
102
RTVSPropertyOp17
 70
     0
102
RTVSPropertyOp18
 70
     0
102
RTVSPropertyOp19
 70
     0
102
RTVSPropertyOp20
 70
     0
102
RTVSPropertyOp21
 70
     0
102
RTVSPropertyOp22
 70
     0
102
RTVSPropertyOp23
 70
     0
102
RTVSPropertyOp24
 70
     0
102
RTVSPropertyOp25
 70
     0
102
RTVSPropertyOp26
 70
     0
102
RTVSPropertyOp27
 70
     0
102
RTVSPropertyOp28
 70
     0
102
RTVSPropertyOp29
 70
     0
102
RTVSPropertyOp30
 70
     0
102
RTVSPropertyOp31
 70
     0
102
RTVSPropertyOp32
 70
     0
  0
XRECORD
  5
1200
102
{ACAD_REACTORS
330
11FF
102
}
330
11FF
100
AcDbXrecord
280
     1
102
RTVSPropertyOp0
 70
     1
102
RTVSPropertyOp1
 70
     1
102
RTVSPropertyOp2
 70
     1
102
RTVSPropertyOp3
 70
     1
102
RTVSPropertyOp4
 70
     1
102
RTVSPropertyOp5
 70
     1
102
RTVSPropertyOp6
 70
     1
102
RTVSPropertyOp7
 70
     1
102
RTVSPropertyOp8
 70
     1
102
RTVSPropertyOp9
 70
     1
102
RTVSPropertyOp10
 70
     1
102
RTVSPropertyOp11
 70
     1
102
RTVSPropertyOp12
 70
     1
102
RTVSPropertyOp13
 70
     1
102
RTVSPropertyOp14
 70
     1
102
RTVSPropertyOp15
 70
     1
102
RTVSPropertyOp16
 70
     1
102
RTVSPropertyOp17
 70
     1
102
RTVSPropertyOp18
 70
     1
102
RTVSPropertyOp19
 70
     1
102
RTVSPropertyOp20
 70
     1
102
RTVSPropertyOp21
 70
     1
102
RTVSPropertyOp22
 70
     1
102
RTVSPropertyOp23
 70
     1
102
RTVSPropertyOp24
 70
     1
102
RTVSPropertyOp25
 70
     1
102
RTVSPropertyOp26
 70
     1
102
RTVSPropertyOp27
 70
     1
102
RTVSPropertyOp28
 70
     1
102
RTVSPropertyOp29
 70
     1
102
RTVSPropertyOp30
 70
     1
102
RTVSPropertyOp31
 70
     1
102
RTVSPropertyOp32
 70
     1
  0
XRECORD
  5
1216
102
{ACAD_REACTORS
330
1215
102
}
330
1215
100
AcDbXrecord
280
     1
102
RTVSPropertyOp0
 70
     1
102
RTVSPropertyOp1
 70
     1
102
RTVSPropertyOp2
 70
     1
102
RTVSPropertyOp3
 70
     1
102
RTVSPropertyOp4
 70
     1
102
RTVSPropertyOp5
 70
     1
102
RTVSPropertyOp6
 70
     1
102
RTVSPropertyOp7
 70
     1
102
RTVSPropertyOp8
 70
     1
102
RTVSPropertyOp9
 70
     1
102
RTVSPropertyOp10
 70
     1
102
RTVSPropertyOp11
 70
     1
102
RTVSPropertyOp12
 70
     1
102
RTVSPropertyOp13
 70
     1
102
RTVSPropertyOp14
 70
     1
102
RTVSPropertyOp15
 70
     1
102
RTVSPropertyOp16
 70
     1
102
RTVSPropertyOp17
 70
     1
102
RTVSPropertyOp18
 70
     1
102
RTVSPropertyOp19
 70
     1
102
RTVSPropertyOp20
 70
     1
102
RTVSPropertyOp21
 70
     1
102
RTVSPropertyOp22
 70
     1
102
RTVSPropertyOp23
 70
     1
102
RTVSPropertyOp24
 70
     1
102
RTVSPropertyOp25
 70
     1
102
RTVSPropertyOp26
 70
     1
102
RTVSPropertyOp27
 70
     1
102
RTVSPropertyOp28
 70
     1
102
RTVSPropertyOp29
 70
     1
102
RTVSPropertyOp30
 70
     1
102
RTVSPropertyOp31
 70
     1
102
RTVSPropertyOp32
 70
     1
  0
XRECORD
  5
1214
102
{ACAD_REACTORS
330
1213
102
}
330
1213
100
AcDbXrecord
280
     1
102
RTVSPropertyOp0
 70
     1
102
RTVSPropertyOp1
 70
     1
102
RTVSPropertyOp2
 70
     1
102
RTVSPropertyOp3
 70
     1
102
RTVSPropertyOp4
 70
     1
102
RTVSPropertyOp5
 70
     1
102
RTVSPropertyOp6
 70
     1
102
RTVSPropertyOp7
 70
     1
102
RTVSPropertyOp8
 70
     1
102
RTVSPropertyOp9
 70
     1
102
RTVSPropertyOp10
 70
     1
102
RTVSPropertyOp11
 70
     1
102
RTVSPropertyOp12
 70
     1
102
RTVSPropertyOp13
 70
     1
102
RTVSPropertyOp14
 70
     1
102
RTVSPropertyOp15
 70
     1
102
RTVSPropertyOp16
 70
     1
102
RTVSPropertyOp17
 70
     1
102
RTVSPropertyOp18
 70
     1
102
RTVSPropertyOp19
 70
     1
102
RTVSPropertyOp20
 70
     1
102
RTVSPropertyOp21
 70
     1
102
RTVSPropertyOp22
 70
     1
102
RTVSPropertyOp23
 70
     1
102
RTVSPropertyOp24
 70
     1
102
RTVSPropertyOp25
 70
     1
102
RTVSPropertyOp26
 70
     1
102
RTVSPropertyOp27
 70
     1
102
RTVSPropertyOp28
 70
     1
102
RTVSPropertyOp29
 70
     1
102
RTVSPropertyOp30
 70
     1
102
RTVSPropertyOp31
 70
     1
102
RTVSPropertyOp32
 70
     1
  0
XRECORD
  5
120E
102
{ACAD_REACTORS
330
120D
102
}
330
120D
100
AcDbXrecord
280
     1
102
RTVSPropertyOp0
 70
     1
102
RTVSPropertyOp1
 70
     1
102
RTVSPropertyOp2
 70
     1
102
RTVSPropertyOp3
 70
     1
102
RTVSPropertyOp4
 70
     1
102
RTVSPropertyOp5
 70
     1
102
RTVSPropertyOp6
 70
     1
102
RTVSPropertyOp7
 70
     1
102
RTVSPropertyOp8
 70
     1
102
RTVSPropertyOp9
 70
     1
102
RTVSPropertyOp10
 70
     1
102
RTVSPropertyOp11
 70
     1
102
RTVSPropertyOp12
 70
     1
102
RTVSPropertyOp13
 70
     1
102
RTVSPropertyOp14
 70
     1
102
RTVSPropertyOp15
 70
     1
102
RTVSPropertyOp16
 70
     1
102
RTVSPropertyOp17
 70
     1
102
RTVSPropertyOp18
 70
     1
102
RTVSPropertyOp19
 70
     1
102
RTVSPropertyOp20
 70
     1
102
RTVSPropertyOp21
 70
     1
102
RTVSPropertyOp22
 70
     1
102
RTVSPropertyOp23
 70
     1
102
RTVSPropertyOp24
 70
     1
102
RTVSPropertyOp25
 70
     1
102
RTVSPropertyOp26
 70
     1
102
RTVSPropertyOp27
 70
     1
102
RTVSPropertyOp28
 70
     1
102
RTVSPropertyOp29
 70
     1
102
RTVSPropertyOp30
 70
     1
102
RTVSPropertyOp31
 70
     1
102
RTVSPropertyOp32
 70
     1
  0
XRECORD
  5
1210
102
{ACAD_REACTORS
330
120F
102
}
330
120F
100
AcDbXrecord
280
     1
102
RTVSPropertyOp0
 70
     1
102
RTVSPropertyOp1
 70
     1
102
RTVSPropertyOp2
 70
     1
102
RTVSPropertyOp3
 70
     1
102
RTVSPropertyOp4
 70
     1
102
RTVSPropertyOp5
 70
     1
102
RTVSPropertyOp6
 70
     1
102
RTVSPropertyOp7
 70
     1
102
RTVSPropertyOp8
 70
     1
102
RTVSPropertyOp9
 70
     1
102
RTVSPropertyOp10
 70
     1
102
RTVSPropertyOp11
 70
     1
102
RTVSPropertyOp12
 70
     1
102
RTVSPropertyOp13
 70
     1
102
RTVSPropertyOp14
 70
     1
102
RTVSPropertyOp15
 70
     1
102
RTVSPropertyOp16
 70
     1
102
RTVSPropertyOp17
 70
     1
102
RTVSPropertyOp18
 70
     1
102
RTVSPropertyOp19
 70
     1
102
RTVSPropertyOp20
 70
     1
102
RTVSPropertyOp21
 70
     1
102
RTVSPropertyOp22
 70
     1
102
RTVSPropertyOp23
 70
     1
102
RTVSPropertyOp24
 70
     1
102
RTVSPropertyOp25
 70
     1
102
RTVSPropertyOp26
 70
     1
102
RTVSPropertyOp27
 70
     1
102
RTVSPropertyOp28
 70
     1
102
RTVSPropertyOp29
 70
     1
102
RTVSPropertyOp30
 70
     1
102
RTVSPropertyOp31
 70
     1
102
RTVSPropertyOp32
 70
     1
  0
XRECORD
  5
1206
102
{ACAD_REACTORS
330
1205
102
}
330
1205
100
AcDbXrecord
280
     1
102
RTVSPropertyOp0
 70
     1
102
RTVSPropertyOp1
 70
     1
102
RTVSPropertyOp2
 70
     1
102
RTVSPropertyOp3
 70
     1
102
RTVSPropertyOp4
 70
     1
102
RTVSPropertyOp5
 70
     1
102
RTVSPropertyOp6
 70
     1
102
RTVSPropertyOp7
 70
     1
102
RTVSPropertyOp8
 70
     1
102
RTVSPropertyOp9
 70
     1
102
RTVSPropertyOp10
 70
     1
102
RTVSPropertyOp11
 70
     1
102
RTVSPropertyOp12
 70
     1
102
RTVSPropertyOp13
 70
     1
102
RTVSPropertyOp14
 70
     1
102
RTVSPropertyOp15
 70
     1
102
RTVSPropertyOp16
 70
     1
102
RTVSPropertyOp17
 70
     1
102
RTVSPropertyOp18
 70
     1
102
RTVSPropertyOp19
 70
     1
102
RTVSPropertyOp20
 70
     1
102
RTVSPropertyOp21
 70
     1
102
RTVSPropertyOp22
 70
     1
102
RTVSPropertyOp23
 70
     1
102
RTVSPropertyOp24
 70
     1
102
RTVSPropertyOp25
 70
     1
102
RTVSPropertyOp26
 70
     1
102
RTVSPropertyOp27
 70
     1
102
RTVSPropertyOp28
 70
     1
102
RTVSPropertyOp29
 70
     1
102
RTVSPropertyOp30
 70
     1
102
RTVSPropertyOp31
 70
     1
102
RTVSPropertyOp32
 70
     1
  0
XRECORD
  5
11FA
102
{ACAD_REACTORS
330
11F9
102
}
330
11F9
100
AcDbXrecord
280
     1
102
RTVSPropertyOp0
 70
     1
102
RTVSPropertyOp1
 70
     1
102
RTVSPropertyOp2
 70
     1
102
RTVSPropertyOp3
 70
     1
102
RTVSPropertyOp4
 70
     1
102
RTVSPropertyOp5
 70
     1
102
RTVSPropertyOp6
 70
     1
102
RTVSPropertyOp7
 70
     1
102
RTVSPropertyOp8
 70
     1
102
RTVSPropertyOp9
 70
     1
102
RTVSPropertyOp10
 70
     1
102
RTVSPropertyOp11
 70
     1
102
RTVSPropertyOp12
 70
     1
102
RTVSPropertyOp13
 70
     1
102
RTVSPropertyOp14
 70
     1
102
RTVSPropertyOp15
 70
     1
102
RTVSPropertyOp16
 70
     1
102
RTVSPropertyOp17
 70
     1
102
RTVSPropertyOp18
 70
     1
102
RTVSPropertyOp19
 70
     1
102
RTVSPropertyOp20
 70
     1
102
RTVSPropertyOp21
 70
     1
102
RTVSPropertyOp22
 70
     1
102
RTVSPropertyOp23
 70
     1
102
RTVSPropertyOp24
 70
     1
102
RTVSPropertyOp25
 70
     1
102
RTVSPropertyOp26
 70
     1
102
RTVSPropertyOp27
 70
     1
102
RTVSPropertyOp28
 70
     1
102
RTVSPropertyOp29
 70
     1
102
RTVSPropertyOp30
 70
     1
102
RTVSPropertyOp31
 70
     1
102
RTVSPropertyOp32
 70
     1
  0
XRECORD
  5
1212
102
{ACAD_REACTORS
330
1211
102
}
330
1211
100
AcDbXrecord
280
     1
102
RTVSPropertyOp0
 70
     1
102
RTVSPropertyOp1
 70
     1
102
RTVSPropertyOp2
 70
     1
102
RTVSPropertyOp3
 70
     1
102
RTVSPropertyOp4
 70
     1
102
RTVSPropertyOp5
 70
     1
102
RTVSPropertyOp6
 70
     1
102
RTVSPropertyOp7
 70
     1
102
RTVSPropertyOp8
 70
     1
102
RTVSPropertyOp9
 70
     1
102
RTVSPropertyOp10
 70
     1
102
RTVSPropertyOp11
 70
     1
102
RTVSPropertyOp12
 70
     1
102
RTVSPropertyOp13
 70
     1
102
RTVSPropertyOp14
 70
     1
102
RTVSPropertyOp15
 70
     1
102
RTVSPropertyOp16
 70
     1
102
RTVSPropertyOp17
 70
     1
102
RTVSPropertyOp18
 70
     1
102
RTVSPropertyOp19
 70
     1
102
RTVSPropertyOp20
 70
     1
102
RTVSPropertyOp21
 70
     1
102
RTVSPropertyOp22
 70
     1
102
RTVSPropertyOp23
 70
     1
102
RTVSPropertyOp24
 70
     1
102
RTVSPropertyOp25
 70
     1
102
RTVSPropertyOp26
 70
     1
102
RTVSPropertyOp27
 70
     1
102
RTVSPropertyOp28
 70
     1
102
RTVSPropertyOp29
 70
     1
102
RTVSPropertyOp30
 70
     1
102
RTVSPropertyOp31
 70
     1
102
RTVSPropertyOp32
 70
     1
  0
ENDSEC
  0
EOF
