  0
SECTION
  2
HEADER
  9
$ACADVER
  1
AC1015
  9
$ACADMAINTVER
 70
    20
  9
$DWGCODEPAGE
  3
ANSI_932
  9
$INSBASE
 10
0.0
 20
0.0
 30
0.0
  9
$EXTMIN
 10
1225.658271473074
 20
-91.40141606445377
 30
-0.0015258207003583
  9
$EXTMAX
 10
1997.210221670292
 20
247.2471242963248
 30
0.0000000349246037
  9
$LIMMIN
 10
1225.670631
 20
-88.322289
  9
$LIMMAX
 10
1630.69851
 20
185.73507
  9
$ORTHOMODE
 70
     1
  9
$REGENMODE
 70
     1
  9
$FILLMODE
 70
     1
  9
$QTEXTMODE
 70
     0
  9
$MIRRTEXT
 70
     0
  9
$LTSCALE
 40
6.750430999999999
  9
$ATTMODE
 70
     1
  9
$TEXTSIZE
 40
3.2
  9
$TRACEWID
 40
0.05
  9
$TEXTSTYLE
  7
高3.2
  9
$CLAYER
  8
0
  9
$CELTYPE
  6
CONTINUOUS
  9
$CECOLOR
 62
   256
  9
$CELTSCALE
 40
1.0
  9
$DISPSILH
 70
     0
  9
$DIMSCALE
 40
1.0
  9
$DIMASZ
 40
2.5
  9
$DIMEXO
 40
0.25
  9
$DIMDLI
 40
0.2
  9
$DIMRND
 40
0.0
  9
$DIMDLE
 40
0.0
  9
$DIMEXE
 40
1.25
  9
$DIMTP
 40
0.0
  9
$DIMTM
 40
0.0
  9
$DIMTXT
 40
3.0
  9
$DIMCEN
 40
0.0
  9
$DIMTSZ
 40
0.0
  9
$DIMTOL
 70
     0
  9
$DIMLIM
 70
     0
  9
$DIMTIH
 70
     0
  9
$DIMTOH
 70
     0
  9
$DIMSE1
 70
     0
  9
$DIMSE2
 70
     0
  9
$DIMTAD
 70
     3
  9
$DIMZIN
 70
     8
  9
$DIMBLK
  1
Open30
  9
$DIMASO
 70
     1
  9
$DIMSHO
 70
     1
  9
$DIMPOST
  1

  9
$DIMAPOST
  1

  9
$DIMALT
 70
     0
  9
$DIMALTD
 70
     3
  9
$DIMALTF
 40
0.03937007874016
  9
$DIMLFAC
 40
2.5
  9
$DIMTOFL
 70
     1
  9
$DIMTVP
 40
0.0
  9
$DIMTIX
 70
     0
  9
$DIMSOXD
 70
     0
  9
$DIMSAH
 70
     0
  9
$DIMBLK1
  1

  9
$DIMBLK2
  1

  9
$DIMSTYLE
  2
1／2.5
  9
$DIMCLRD
 70
     0
  9
$DIMCLRE
 70
     0
  9
$DIMCLRT
 70
     4
  9
$DIMTFAC
 40
1.0
  9
$DIMGAP
 40
0.625
  9
$DIMJUST
 70
     0
  9
$DIMSD1
 70
     0
  9
$DIMSD2
 70
     0
  9
$DIMTOLJ
 70
     0
  9
$DIMTZIN
 70
     8
  9
$DIMALTZ
 70
     0
  9
$DIMALTTZ
 70
     0
  9
$DIMUPT
 70
     1
  9
$DIMDEC
 70
     2
  9
$DIMTDEC
 70
     2
  9
$DIMALTU
 70
     2
  9
$DIMALTTD
 70
     3
  9
$DIMTXSTY
  7
STANDARD
  9
$DIMAUNIT
 70
     0
  9
$DIMADEC
 70
     1
  9
$DIMALTRND
 40
0.0
  9
$DIMAZIN
 70
     2
  9
$DIMDSEP
 70
    46
  9
$DIMATFIT
 70
     0
  9
$DIMFRAC
 70
     0
  9
$DIMLDRBLK
  1
Open30
  9
$DIMLUNIT
 70
     2
  9
$DIMLWD
 70
    -2
  9
$DIMLWE
 70
    -2
  9
$DIMTMOVE
 70
     0
  9
$LUNITS
 70
     2
  9
$LUPREC
 70
     4
  9
$SKETCHINC
 40
0.1
  9
$FILLETRAD
 40
0.0
  9
$AUNITS
 70
     0
  9
$AUPREC
 70
     0
  9
$MENU
  1
.
  9
$ELEVATION
 40
0.0
  9
$PELEVATION
 40
0.0
  9
$THICKNESS
 40
0.0
  9
$LIMCHECK
 70
     0
  9
$CHAMFERA
 40
0.0
  9
$CHAMFERB
 40
0.0
  9
$CHAMFERC
 40
0.0
  9
$CHAMFERD
 40
0.0
  9
$SKPOLY
 70
     0
  9
$TDCREATE
 40
2456850.493249560
  9
$TDUCREATE
 40
2456850.118249561
  9
$TDUPDATE
 40
2456850.559559086
  9
$TDUUPDATE
 40
2456850.184559086
  9
$TDINDWG
 40
0.0663098843
  9
$TDUSRTIMER
 40
0.0663098843
  9
$USRTIMER
 70
     1
  9
$ANGBASE
 50
0.0
  9
$ANGDIR
 70
     0
  9
$PDMODE
 70
     0
  9
$PDSIZE
 40
0.0
  9
$PLINEWID
 40
0.0
  9
$SPLFRAME
 70
     0
  9
$SPLINETYPE
 70
     6
  9
$SPLINESEGS
 70
     8
  9
$HANDSEED
  5
78C
  9
$SURFTAB1
 70
     6
  9
$SURFTAB2
 70
     6
  9
$SURFTYPE
 70
     6
  9
$SURFU
 70
     6
  9
$SURFV
 70
     6
  9
$UCSBASE
  2

  9
$UCSNAME
  2

  9
$UCSORG
 10
0.0
 20
0.0
 30
0.0
  9
$UCSXDIR
 10
1.0
 20
0.0
 30
0.0
  9
$UCSYDIR
 10
0.0
 20
1.0
 30
0.0
  9
$UCSORTHOREF
  2

  9
$UCSORTHOVIEW
 70
     0
  9
$UCSORGTOP
 10
0.0
 20
0.0
 30
0.0
  9
$UCSORGBOTTOM
 10
0.0
 20
0.0
 30
0.0
  9
$UCSORGLEFT
 10
0.0
 20
0.0
 30
0.0
  9
$UCSORGRIGHT
 10
0.0
 20
0.0
 30
0.0
  9
$UCSORGFRONT
 10
0.0
 20
0.0
 30
0.0
  9
$UCSORGBACK
 10
0.0
 20
0.0
 30
0.0
  9
$PUCSBASE
  2

  9
$PUCSNAME
  2

  9
$PUCSORG
 10
0.0
 20
0.0
 30
0.0
  9
$PUCSXDIR
 10
1.0
 20
0.0
 30
0.0
  9
$PUCSYDIR
 10
0.0
 20
1.0
 30
0.0
  9
$PUCSORTHOREF
  2

  9
$PUCSORTHOVIEW
 70
     0
  9
$PUCSORGTOP
 10
0.0
 20
0.0
 30
0.0
  9
$PUCSORGBOTTOM
 10
0.0
 20
0.0
 30
0.0
  9
$PUCSORGLEFT
 10
0.0
 20
0.0
 30
0.0
  9
$PUCSORGRIGHT
 10
0.0
 20
0.0
 30
0.0
  9
$PUCSORGFRONT
 10
0.0
 20
0.0
 30
0.0
  9
$PUCSORGBACK
 10
0.0
 20
0.0
 30
0.0
  9
$USERI1
 70
     0
  9
$USERI2
 70
     0
  9
$USERI3
 70
     0
  9
$USERI4
 70
     0
  9
$USERI5
 70
     0
  9
$USERR1
 40
0.0
  9
$USERR2
 40
0.0
  9
$USERR3
 40
0.0
  9
$USERR4
 40
0.0
  9
$USERR5
 40
0.0
  9
$WORLDVIEW
 70
     1
  9
$SHADEDGE
 70
     3
  9
$SHADEDIF
 70
    70
  9
$TILEMODE
 70
     1
  9
$MAXACTVP
 70
    64
  9
$PINSBASE
 10
0.0
 20
0.0
 30
0.0
  9
$PLIMCHECK
 70
     0
  9
$PEXTMIN
 10
1.000000000000000E+20
 20
1.000000000000000E+20
 30
1.000000000000000E+20
  9
$PEXTMAX
 10
-1.000000000000000E+20
 20
-1.000000000000000E+20
 30
-1.000000000000000E+20
  9
$PLIMMIN
 10
0.0
 20
0.0
  9
$PLIMMAX
 10
12.0
 20
9.0
  9
$UNITMODE
 70
     0
  9
$VISRETAIN
 70
     1
  9
$PLINEGEN
 70
     0
  9
$PSLTSCALE
 70
     1
  9
$TREEDEPTH
 70
  3020
  9
$CMLSTYLE
  2
Standard
  9
$CMLJUST
 70
     0
  9
$CMLSCALE
 40
1.0
  9
$PROXYGRAPHICS
 70
     1
  9
$MEASUREMENT
 70
     0
  9
$CELWEIGHT
370
    -1
  9
$ENDCAPS
280
     0
  9
$JOINSTYLE
280
     0
  9
$LWDISPLAY
290
     0
  9
$INSUNITS
 70
     0
  9
$HYPERLINKBASE
  1

  9
$STYLESHEET
  1

  9
$XEDIT
290
     1
  9
$CEPSNTYPE
380
     0
  9
$PSTYLEMODE
290
     1
  9
$FINGERPRINTGUID
  2
{A82C1A3E-21F8-48AB-8DBB-3858114498F1}
  9
$VERSIONGUID
  2
{F06F808A-BA51-47B6-B0F3-A589F5BFEAF9}
  9
$EXTNAMES
290
     1
  9
$PSVPSCALE
 40
0.0
  9
$OLESTARTUP
290
     0
  0
ENDSEC
  0
SECTION
  2
CLASSES
  0
CLASS
  1
ACDBDICTIONARYWDFLT
  2
AcDbDictionaryWithDefault
  3
ObjectDBX Classes
 90
        0
280
     0
281
     0
  0
CLASS
  1
MATERIAL
  2
AcDbMaterial
  3
ObjectDBX Classes
 90
     1153
280
     0
281
     0
  0
CLASS
  1
VISUALSTYLE
  2
AcDbVisualStyle
  3
ObjectDBX Classes
 90
     4095
280
     0
281
     0
  0
CLASS
  1
SCALE
  2
AcDbScale
  3
ObjectDBX Classes
 90
     1153
280
     0
281
     0
  0
CLASS
  1
TABLESTYLE
  2
AcDbTableStyle
  3
ObjectDBX Classes
 90
     4095
280
     0
281
     0
  0
CLASS
  1
MLEADERSTYLE
  2
AcDbMLeaderStyle
  3
ACDB_MLEADERSTYLE_CLASS
 90
     4095
280
     0
281
     0
  0
CLASS
  1
SORTENTSTABLE
  2
AcDbSortentsTable
  3
ObjectDBX Classes
 90
        0
280
     0
281
     0
  0
CLASS
  1
DICTIONARYVAR
  2
AcDbDictionaryVar
  3
ObjectDBX Classes
 90
        0
280
     0
281
     0
  0
CLASS
  1
CELLSTYLEMAP
  2
AcDbCellStyleMap
  3
ObjectDBX Classes
 90
     1152
280
     0
281
     0
  0
CLASS
  1
ACDBPLACEHOLDER
  2
AcDbPlaceHolder
  3
ObjectDBX Classes
 90
        0
280
     0
281
     0
  0
CLASS
  1
LAYOUT
  2
AcDbLayout
  3
ObjectDBX Classes
 90
        0
280
     0
281
     0
  0
ENDSEC
  0
SECTION
  2
TABLES
  0
TABLE
  2
VPORT
  5
8
330
0
100
AcDbSymbolTable
 70
     1
  0
VPORT
  5
8B
330
8
100
AcDbSymbolTableRecord
100
AcDbViewportTableRecord
  2
*Active
 70
     0
 10
0.0
 20
0.0
 11
1.0
 21
1.0
 12
1508.327083154301
 22
68.72278337942379
 13
0.0
 23
0.0
 14
1.0
 24
1.0
 15
0.0
 25
0.0
 16
0.0
 26
0.0
 36
1.0
 17
0.0
 27
0.0
 37
0.0
 40
704.1265427552215
 41
1.896032831737345
 42
50.0
 43
0.0
 44
0.0
 50
0.0
 51
0.0
 71
     0
 72
   100
 73
     1
 74
     1
 75
     0
 76
     0
 77
     0
 78
     0
281
     0
 65
     1
110
0.0
120
0.0
130
0.0
111
1.0
121
0.0
131
0.0
112
0.0
122
1.0
132
0.0
 79
     0
146
0.0
  0
ENDTAB
  0
TABLE
  2
LTYPE
  5
5
330
0
100
AcDbSymbolTable
 70
    27
  0
LTYPE
  5
5A
330
5
100
AcDbSymbolTableRecord
100
AcDbLinetypeTableRecord
  2
ByBlock
 70
     0
  3

 72
    65
 73
     0
 40
0.0
  0
LTYPE
  5
5B
330
5
100
AcDbSymbolTableRecord
100
AcDbLinetypeTableRecord
  2
ByLayer
 70
     0
  3

 72
    65
 73
     0
 40
0.0
  0
LTYPE
  5
5C
330
5
100
AcDbSymbolTableRecord
100
AcDbLinetypeTableRecord
  2
CONTINUOUS
 70
     0
  3
Solid-line
 72
    65
 73
     0
 40
0.0
  0
ENDTAB
  0
TABLE
  2
LAYER
  5
2
102
{ACAD_XDICTIONARY
360
4B3
102
}
330
0
100
AcDbSymbolTable
 70
     3
  0
LAYER
  5
54
102
{ACAD_XDICTIONARY
360
66B
102
}
330
2
100
AcDbSymbolTableRecord
100
AcDbLayerTableRecord
  2
0
 70
     0
 62
     7
  6
CONTINUOUS
370
    -3
390
F
  0
LAYER
  5
3FF
330
2
100
AcDbSymbolTableRecord
100
AcDbLayerTableRecord
  2
Defpoints
 70
     0
 62
     7
  6
CONTINUOUS
290
     0
370
    -3
390
F
  0
ENDTAB
  0
TABLE
  2
STYLE
  5
3
330
0
100
AcDbSymbolTable
 70
     8
  0
STYLE
  5
55
330
3
100
AcDbSymbolTableRecord
100
AcDbTextStyleTableRecord
  2
STANDARD
 70
     0
 40
0.0
 41
1.0
 50
0.0
 71
     0
 42
0.2
  3
TXT
  4
BIGFONT
  0
STYLE
  5
49D
330
3
100
AcDbSymbolTableRecord
100
AcDbTextStyleTableRecord
  2
高3.2
 70
     0
 40
3.2
 41
1.0
 50
0.0
 71
     0
 42
3.2
  3
txt.shx
  4
bigfont.shx
  0
STYLE
  5
49E
330
3
100
AcDbSymbolTableRecord
100
AcDbTextStyleTableRecord
  2
高6.3
 70
     0
 40
6.299999999999999
 41
1.0
 50
0.0
 71
     0
 42
6.299999999999999
  3
txt.shx
  4
bigfont.shx
  0
STYLE
  5
49F
330
3
100
AcDbSymbolTableRecord
100
AcDbTextStyleTableRecord
  2
高2.5
 70
     0
 40
2.5
 41
1.0
 50
0.0
 71
     0
 42
0.2
  3
txt.shx
  4
bigfont.shx
  0
STYLE
  5
4A0
330
3
100
AcDbSymbolTableRecord
100
AcDbTextStyleTableRecord
  2
高4.5
 70
     0
 40
4.5
 41
1.0
 50
0.0
 71
     0
 42
6.299999999999999
  3
txt.shx
  4
bigfont.shx
  0
STYLE
  5
4A1
330
3
100
AcDbSymbolTableRecord
100
AcDbTextStyleTableRecord
  2
高2
 70
     0
 40
2.0
 41
1.0
 50
0.0
 71
     0
 42
2.0
  3
txt.shx
  4
bigfont.shx
  0
ENDTAB
  0
TABLE
  2
VIEW
  5
6
330
0
100
AcDbSymbolTable
 70
     0
  0
ENDTAB
  0
TABLE
  2
UCS
  5
7
330
0
100
AcDbSymbolTable
 70
     0
  0
ENDTAB
  0
TABLE
  2
APPID
  5
9
330
0
100
AcDbSymbolTable
 70
    10
  0
APPID
  5
56
330
9
100
AcDbSymbolTableRecord
100
AcDbRegAppTableRecord
  2
ACAD
 70
     0
  0
APPID
  5
5D
330
9
100
AcDbSymbolTableRecord
100
AcDbRegAppTableRecord
  2
AcadAnnotative
 70
     0
  0
APPID
  5
4AC
330
9
100
AcDbSymbolTableRecord
100
AcDbRegAppTableRecord
  2
ACAD_DSTYLE_DIMJOGGED_JOGANGLE_SYMBOL
 70
     0
  0
APPID
  5
4AD
330
9
100
AcDbSymbolTableRecord
100
AcDbRegAppTableRecord
  2
ACAD_DSTYLE_DIMJAG
 70
     0
  0
APPID
  5
4AE
330
9
100
AcDbSymbolTableRecord
100
AcDbRegAppTableRecord
  2
ACAD_DSTYLE_DIMBREAK
 70
     0
  0
APPID
  5
4AF
330
9
100
AcDbSymbolTableRecord
100
AcDbRegAppTableRecord
  2
ACAD_DSTYLE_DIMTALN
 70
     0
  0
APPID
  5
62A
330
9
100
AcDbSymbolTableRecord
100
AcDbRegAppTableRecord
  2
ACAD_EXEMPT_FROM_CAD_STANDARDS
 70
     0
  0
APPID
  5
783
330
9
100
AcDbSymbolTableRecord
100
AcDbRegAppTableRecord
  2
ACAD_MLEADERVER
 70
     0
  0
APPID
  5
788
330
9
100
AcDbSymbolTableRecord
100
AcDbRegAppTableRecord
  2
ACAD_DSTYLE_DIMARC_LENGTH_SYMBOL
 70
     0
  0
APPID
  5
789
330
9
100
AcDbSymbolTableRecord
100
AcDbRegAppTableRecord
  2
ACAD_DSTYLE_DIMEXT_LENGTH
 70
     0
  0
ENDTAB
  0
TABLE
  2
DIMSTYLE
  5
A
330
0
100
AcDbSymbolTable
 70
    14
100
AcDbDimStyleTable
 71
     5
340
608
340
4A2
340
4A6
340
4AA
340
57
  0
DIMSTYLE
105
57
330
A
100
AcDbSymbolTableRecord
100
AcDbDimStyleTableRecord
  2
Standard
 70
     0
340
55
  0
DIMSTYLE
105
4A2
102
{ACAD_REACTORS
330
4B6
102
}
330
A
100
AcDbSymbolTableRecord
100
AcDbDimStyleTableRecord
  2
1：1
 70
     0
 41
2.5
 42
0.25
 43
0.2
 44
1.25
 73
     0
 74
     0
 77
     3
 78
     8
 79
     2
140
3.0
141
0.0
143
0.03937007874016
147
0.625
171
     3
172
     1
178
     4
179
     1
271
     2
272
     2
274
     3
283
     0
284
     8
288
     1
289
     0
340
55
341
40D
342
40D
1001
ACAD_DSTYLE_DIMARC_LENGTH_SYMBOL
1070
   379
1070
     2
1001
ACAD_DSTYLE_DIMEXT_LENGTH
1070
   378
1040
1.25
1001
ACAD_DSTYLE_DIMJOGGED_JOGANGLE_SYMBOL
1070
   384
1040
1.570796326794896
  0
DIMSTYLE
105
4A3
102
{ACAD_REACTORS
330
4BB
102
}
330
A
100
AcDbSymbolTableRecord
100
AcDbDimStyleTableRecord
  2
2：1
 70
     0
 41
2.5
 42
0.25
 43
0.2
 44
1.25
 73
     0
 74
     0
 77
     3
 78
     8
 79
     2
140
3.0
141
0.0
143
0.03937007874016
144
0.5
147
0.625
171
     3
172
     1
178
     4
179
     1
271
     2
272
     2
274
     3
283
     0
284
     8
288
     1
289
     0
340
55
341
40D
342
40D
1001
ACAD_DSTYLE_DIMARC_LENGTH_SYMBOL
1070
   379
1070
     2
1001
ACAD_DSTYLE_DIMEXT_LENGTH
1070
   378
1040
1.25
1001
ACAD_DSTYLE_DIMJOGGED_JOGANGLE_SYMBOL
1070
   384
1040
1.570796326794896
  0
DIMSTYLE
105
4A4
102
{ACAD_REACTORS
330
4BC
102
}
330
A
100
AcDbSymbolTableRecord
100
AcDbDimStyleTableRecord
  2
5：1
 70
     0
 41
2.5
 42
0.25
 43
0.2
 44
1.25
 73
     0
 74
     0
 77
     3
 78
     8
 79
     2
140
3.0
141
0.0
143
0.03937007874016
144
0.2
147
0.625
171
     3
172
     1
178
     4
179
     1
271
     2
272
     2
274
     3
283
     0
284
     8
288
     1
289
     0
340
55
341
40D
342
40D
1001
ACAD_DSTYLE_DIMARC_LENGTH_SYMBOL
1070
   379
1070
     2
1001
ACAD_DSTYLE_DIMEXT_LENGTH
1070
   378
1040
1.25
1001
ACAD_DSTYLE_DIMJOGGED_JOGANGLE_SYMBOL
1070
   384
1040
1.570796326794896
  0
DIMSTYLE
105
4A5
102
{ACAD_REACTORS
330
4BA
102
}
330
A
100
AcDbSymbolTableRecord
100
AcDbDimStyleTableRecord
  2
10：1
 70
     0
 41
2.5
 42
0.25
 43
0.2
 44
1.25
 73
     0
 74
     0
 77
     3
 78
     8
 79
     2
140
3.0
141
0.0
143
0.03937007874016
144
0.1
147
0.625
171
     3
172
     1
178
     4
179
     1
271
     2
272
     2
274
     3
283
     0
284
     8
288
     1
289
     0
340
55
341
40D
342
40D
1001
ACAD_DSTYLE_DIMARC_LENGTH_SYMBOL
1070
   379
1070
     2
1001
ACAD_DSTYLE_DIMEXT_LENGTH
1070
   378
1040
1.25
1001
ACAD_DSTYLE_DIMJOGGED_JOGANGLE_SYMBOL
1070
   384
1040
1.570796326794896
  0
DIMSTYLE
105
4A6
102
{ACAD_REACTORS
330
4B8
102
}
330
A
100
AcDbSymbolTableRecord
100
AcDbDimStyleTableRecord
  2
1／2
 70
     0
 41
2.5
 42
0.25
 43
0.2
 44
1.25
 73
     0
 74
     0
 77
     3
 78
     8
 79
     2
140
3.0
141
0.0
143
0.03937007874016
144
2.0
147
0.625
171
     3
172
     1
178
     4
179
     1
271
     2
272
     2
274
     3
283
     0
284
     8
288
     1
289
     0
340
55
341
40D
342
40D
1001
ACAD_DSTYLE_DIMARC_LENGTH_SYMBOL
1070
   379
1070
     2
1001
ACAD_DSTYLE_DIMEXT_LENGTH
1070
   378
1040
1.25
1001
ACAD_DSTYLE_DIMJOGGED_JOGANGLE_SYMBOL
1070
   384
1040
1.570796326794896
  0
DIMSTYLE
105
4A7
102
{ACAD_REACTORS
330
4B7
102
}
330
A
100
AcDbSymbolTableRecord
100
AcDbDimStyleTableRecord
  2
1／5
 70
     0
 41
2.5
 42
0.25
 43
0.2
 44
1.25
 73
     0
 74
     0
 77
     3
 78
     8
 79
     2
140
3.0
141
0.0
143
0.03937007874016
144
5.0
147
0.625
171
     3
172
     1
178
     4
179
     1
271
     2
272
     2
274
     3
283
     0
284
     8
288
     1
289
     0
340
55
341
40D
342
40D
1001
ACAD_DSTYLE_DIMARC_LENGTH_SYMBOL
1070
   379
1070
     2
1001
ACAD_DSTYLE_DIMEXT_LENGTH
1070
   378
1040
1.25
1001
ACAD_DSTYLE_DIMJOGGED_JOGANGLE_SYMBOL
1070
   384
1040
1.570796326794896
  0
DIMSTYLE
105
4A8
102
{ACAD_REACTORS
330
4B9
102
}
330
A
100
AcDbSymbolTableRecord
100
AcDbDimStyleTableRecord
  2
1／10
 70
     0
 41
2.5
 42
0.25
 43
0.2
 44
1.25
 73
     0
 74
     0
 77
     3
 78
     8
 79
     2
140
3.0
141
0.0
143
0.03937007874016
144
10.0
147
0.625
171
     3
172
     1
178
     4
179
     1
271
     2
272
     2
274
     3
283
     0
284
     8
288
     1
289
     0
340
55
341
40D
342
40D
1001
ACAD_DSTYLE_DIMARC_LENGTH_SYMBOL
1070
   379
1070
     2
1001
ACAD_DSTYLE_DIMEXT_LENGTH
1070
   378
1040
1.25
1001
ACAD_DSTYLE_DIMJOGGED_JOGANGLE_SYMBOL
1070
   384
1040
1.570796326794896
  0
DIMSTYLE
105
4A9
102
{ACAD_REACTORS
330
4BD
102
}
330
A
100
AcDbSymbolTableRecord
100
AcDbDimStyleTableRecord
  2
1／4
 70
     0
 41
2.5
 42
0.25
 43
0.2
 44
1.25
 73
     0
 74
     0
 77
     3
 78
     8
 79
     2
140
3.0
141
0.0
143
0.03937007874016
144
4.0
147
0.625
171
     3
172
     1
178
     4
179
     1
271
     2
272
     2
274
     3
283
     0
284
     8
288
     1
289
     0
340
55
341
40D
342
40D
1001
ACAD_DSTYLE_DIMARC_LENGTH_SYMBOL
1070
   379
1070
     2
1001
ACAD_DSTYLE_DIMEXT_LENGTH
1070
   378
1040
1.25
1001
ACAD_DSTYLE_DIMJOGGED_JOGANGLE_SYMBOL
1070
   384
1040
1.570796326794896
  0
DIMSTYLE
105
4AA
102
{ACAD_REACTORS
330
4BE
102
}
330
A
100
AcDbSymbolTableRecord
100
AcDbDimStyleTableRecord
  2
1／3
 70
     0
 41
2.5
 42
0.25
 43
0.2
 44
1.25
 73
     0
 74
     0
 77
     3
 78
     8
 79
     2
140
3.0
141
0.0
143
0.03937007874016
144
3.0
147
0.625
171
     3
172
     1
178
     4
179
     1
271
     2
272
     2
274
     3
283
     0
284
     8
288
     1
289
     0
340
55
341
40D
342
40D
1001
ACAD_DSTYLE_DIMARC_LENGTH_SYMBOL
1070
   379
1070
     2
1001
ACAD_DSTYLE_DIMEXT_LENGTH
1070
   378
1040
1.25
1001
ACAD_DSTYLE_DIMJOGGED_JOGANGLE_SYMBOL
1070
   384
1040
1.570796326794896
  0
DIMSTYLE
105
4AB
102
{ACAD_REACTORS
330
4BF
102
}
330
A
100
AcDbSymbolTableRecord
100
AcDbDimStyleTableRecord
  2
FREE
 70
     0
 41
2.5
 42
0.25
 43
0.2
 44
1.25
 73
     0
 74
     0
 77
     3
 78
     8
 79
     2
140
3.0
141
0.0
143
0.03937007874016
147
0.625
171
     3
172
     1
178
     4
179
     1
271
     2
272
     2
274
     3
283
     0
284
     8
288
     1
289
     0
340
55
341
40D
342
40D
1001
ACAD_DSTYLE_DIMBREAK
1070
   391
1040
3.75
1001
ACAD_DSTYLE_DIMJAG
1070
   388
1040
1.5
1001
ACAD_DSTYLE_DIMTALN
1070
   392
1070
     0
1001
ACAD_DSTYLE_DIMARC_LENGTH_SYMBOL
1070
   379
1070
     2
1001
ACAD_DSTYLE_DIMEXT_LENGTH
1070
   378
1040
1.25
1001
ACAD_DSTYLE_DIMJOGGED_JOGANGLE_SYMBOL
1070
   384
1040
1.570796326794896
  0
DIMSTYLE
105
608
330
A
100
AcDbSymbolTableRecord
100
AcDbDimStyleTableRecord
  2
1／2.5
 70
     0
 41
2.5
 42
0.25
 43
0.2
 44
1.25
 73
     0
 74
     0
 77
     3
 78
     8
 79
     2
140
3.0
141
0.0
143
0.03937007874016
144
2.5
147
0.625
171
     3
172
     1
178
     4
179
     1
271
     2
272
     2
274
     3
283
     0
284
     8
288
     1
289
     0
340
55
341
40D
342
40D
1001
ACAD_DSTYLE_DIMBREAK
1070
   391
1040
0.125
1001
ACAD_DSTYLE_DIMJAG
1070
   388
1040
1.5
1001
ACAD_DSTYLE_DIMTALN
1070
   392
1070
     0
1001
ACAD_DSTYLE_DIMARC_LENGTH_SYMBOL
1070
   379
1070
     2
1001
ACAD_DSTYLE_DIMEXT_LENGTH
1070
   378
1040
1.25
1001
ACAD_DSTYLE_DIMJOGGED_JOGANGLE_SYMBOL
1070
   384
1040
1.570796326794896
  0
ENDTAB
  0
TABLE
  2
BLOCK_RECORD
  5
1
330
0
100
AcDbSymbolTable
 70
    32
  0
BLOCK_RECORD
  5
6B
102
{ACAD_XDICTIONARY
360
6BC
102
}
330
1
100
AcDbSymbolTableRecord
100
AcDbBlockTableRecord
  2
*Model_Space
340
6E
  0
BLOCK_RECORD
  5
67
330
1
100
AcDbSymbolTableRecord
100
AcDbBlockTableRecord
  2
*Paper_Space
340
6A
  0
BLOCK_RECORD
  5
40D
330
1
100
AcDbSymbolTableRecord
100
AcDbBlockTableRecord
  2
_Open30
340
0
102
{BLKREFS
331
58C
331
58D
331
597
331
598
331
5A2
331
5A3
331
5AD
331
5AE
331
5B8
331
5B9
331
5C3
331
5C4
331
5CE
331
5CF
331
5D9
331
5DA
331
5E4
331
5E5
331
5ED
331
5EE
331
653
331
654
331
65C
331
65D
331
665
331
666
102
}
  0
BLOCK_RECORD
  5
4FD
330
1
100
AcDbSymbolTableRecord
100
AcDbBlockTableRecord
  2
*D17
340
0
  0
BLOCK_RECORD
  5
50B
330
1
100
AcDbSymbolTableRecord
100
AcDbBlockTableRecord
  2
*D18
340
0
  0
BLOCK_RECORD
  5
519
330
1
100
AcDbSymbolTableRecord
100
AcDbBlockTableRecord
  2
*D19
340
0
  0
BLOCK_RECORD
  5
527
330
1
100
AcDbSymbolTableRecord
100
AcDbBlockTableRecord
  2
*D20
340
0
  0
BLOCK_RECORD
  5
535
330
1
100
AcDbSymbolTableRecord
100
AcDbBlockTableRecord
  2
*D21
340
0
  0
BLOCK_RECORD
  5
543
330
1
100
AcDbSymbolTableRecord
100
AcDbBlockTableRecord
  2
*D22
340
0
  0
BLOCK_RECORD
  5
551
330
1
100
AcDbSymbolTableRecord
100
AcDbBlockTableRecord
  2
*D23
340
0
  0
BLOCK_RECORD
  5
55F
330
1
100
AcDbSymbolTableRecord
100
AcDbBlockTableRecord
  2
*D24
340
0
  0
BLOCK_RECORD
  5
56D
330
1
100
AcDbSymbolTableRecord
100
AcDbBlockTableRecord
  2
*D25
340
0
  0
BLOCK_RECORD
  5
57B
330
1
100
AcDbSymbolTableRecord
100
AcDbBlockTableRecord
  2
*D26
340
0
  0
BLOCK_RECORD
  5
5F3
330
1
100
AcDbSymbolTableRecord
100
AcDbBlockTableRecord
  2
*D27
340
0
  0
BLOCK_RECORD
  5
612
330
1
100
AcDbSymbolTableRecord
100
AcDbBlockTableRecord
  2
*D28
340
0
  0
BLOCK_RECORD
  5
61E
330
1
100
AcDbSymbolTableRecord
100
AcDbBlockTableRecord
  2
*D29
340
0
  0
ENDTAB
  0
ENDSEC
  0
SECTION
  2
BLOCKS
  0
BLOCK
  5
6C
330
6B
100
AcDbEntity
  8
0
100
AcDbBlockBegin
  2
*Model_Space
 70
     0
 10
0.0
 20
0.0
 30
0.0
  3
*Model_Space
  1

  0
ENDBLK
  5
6D
330
6B
100
AcDbEntity
  8
0
100
AcDbBlockEnd
  0
BLOCK
  5
68
330
67
100
AcDbEntity
 67
     1
  8
0
100
AcDbBlockBegin
  2
*Paper_Space
 70
     0
 10
0.0
 20
0.0
 30
0.0
  3
*Paper_Space
  1

  0
ENDBLK
  5
69
330
67
100
AcDbEntity
 67
     1
  8
0
100
AcDbBlockEnd
  0
BLOCK
  5
40E
330
40D
100
AcDbEntity
  8
0
100
AcDbBlockBegin
  2
_Open30
 70
     0
 10
0.0
 20
0.0
 30
0.0
  3
_Open30
  1

  0
LINE
  5
40F
330
40D
100
AcDbEntity
  8
0
  6
ByBlock
 62
     0
370
    -2
100
AcDbLine
 10
-1.0
 20
0.267949
 30
0.0
 11
0.0
 21
0.0
 31
0.0
  0
LINE
  5
410
330
40D
100
AcDbEntity
  8
0
  6
ByBlock
 62
     0
370
    -2
100
AcDbLine
 10
0.0
 20
0.0
 30
0.0
 11
-1.0
 21
-0.267949
 31
0.0
  0
LINE
  5
411
330
40D
100
AcDbEntity
  8
0
  6
ByBlock
 62
     0
370
    -2
100
AcDbLine
 10
0.0
 20
0.0
 30
0.0
 11
-1.0
 21
0.0
 31
0.0
  0
ENDBLK
  5
412
330
40D
100
AcDbEntity
  8
0
100
AcDbBlockEnd
  0
BLOCK
  5
4FE
330
4FD
100
AcDbEntity
  8
0
100
AcDbBlockBegin
  2
*D17
 70
     1
 10
0.0
 20
0.0
 30
0.0
  3
*D17
  1

  0
LINE
  5
587
330
4FD
100
AcDbEntity
  8
0
 62
     0
370
    -2
100
AcDbLine
 10
1964.089079075979
 20
186.1365414618734
 30
0.0
 11
1964.089079075979
 21
183.2269100398646
 31
0.0
  0
LINE
  5
588
330
4FD
100
AcDbEntity
  8
0
 62
     0
370
    -2
100
AcDbLine
 10
1961.631892021859
 20
186.1365414618734
 30
0.0
 11
1961.631892021859
 21
183.2269100398646
 31
0.0
  0
LINE
  5
589
330
4FD
100
AcDbEntity
  8
0
 62
     0
370
    -2
100
AcDbLine
 10
1966.589079075979
 20
184.4769100398646
 30
0.0
 11
1969.089079075979
 21
184.4769100398646
 31
0.0
  0
LINE
  5
58A
330
4FD
100
AcDbEntity
  8
0
 62
     0
370
    -2
100
AcDbLine
 10
1959.131892021859
 20
184.4769100398646
 30
0.0
 11
1946.381892021859
 21
184.4769100398646
 31
0.0
  0
LINE
  5
58B
330
4FD
100
AcDbEntity
  8
0
 62
     0
370
    -2
100
AcDbLine
 10
1964.089079075979
 20
184.4769100398646
 30
0.0
 11
1961.631892021859
 21
184.4769100398646
 31
0.0
  0
INSERT
  5
58C
330
4FD
100
AcDbEntity
  8
0
 62
     0
370
    -2
100
AcDbBlockReference
  2
_Open30
 10
1964.089079075979
 20
184.4769100398646
 30
0.0
 41
2.5
 42
2.5
 43
2.5
 50
180.0
  0
INSERT
  5
58D
330
4FD
100
AcDbEntity
  8
0
 62
     0
370
    -2
100
AcDbBlockReference
  2
_Open30
 10
1961.631892021859
 20
184.4769100398646
 30
0.0
 41
2.5
 42
2.5
 43
2.5
  0
MTEXT
  5
58E
330
4FD
100
AcDbEntity
  8
0
 62
     4
100
AcDbMText
 10
1951.506892021859
 20
186.6019100398646
 30
0.0
 40
3.0
 41
0.0
 71
     5
 72
     1
  1
2.46
 73
     1
 44
1.0
1001
ACAD
1000
MTEXTBEGIN
1070
    73
1070
     1
1070
    44
1040
1.0
1070
    74
1070
     0
1000
MTEXTEND
  0
POINT
  5
58F
330
4FD
100
AcDbEntity
  8
Defpoints
 62
     0
100
AcDbPoint
 10
1964.089079075979
 20
186.3865414618734
 30
0.0
  0
POINT
  5
590
330
4FD
100
AcDbEntity
  8
Defpoints
 62
     0
100
AcDbPoint
 10
1961.631892021859
 20
186.3865414618734
 30
0.0
  0
POINT
  5
591
330
4FD
100
AcDbEntity
  8
Defpoints
 62
     0
100
AcDbPoint
 10
1961.631892021859
 20
184.4769100398646
 30
0.0
  0
ENDBLK
  5
4FF
330
4FD
100
AcDbEntity
  8
0
100
AcDbBlockEnd
  0
BLOCK
  5
50C
330
50B
100
AcDbEntity
  8
0
100
AcDbBlockBegin
  2
*D18
 70
     1
 10
0.0
 20
0.0
 30
0.0
  3
*D18
  1

  0
LINE
  5
592
330
50B
100
AcDbEntity
  8
0
 62
     0
370
    -2
100
AcDbLine
 10
1965.727203982052
 20
180.680451889111
 30
0.0
 11
1965.727203982052
 21
178.1345598196477
 31
0.0
  0
LINE
  5
593
330
50B
100
AcDbEntity
  8
0
 62
     0
370
    -2
100
AcDbLine
 10
1962.63296818391
 20
180.680451889111
 30
0.0
 11
1962.63296818391
 21
178.1345598196477
 31
0.0
  0
LINE
  5
594
330
50B
100
AcDbEntity
  8
0
 62
     0
370
    -2
100
AcDbLine
 10
1968.227203982052
 20
179.3845598196477
 30
0.0
 11
1970.727203982052
 21
179.3845598196477
 31
0.0
  0
LINE
  5
595
330
50B
100
AcDbEntity
  8
0
 62
     0
370
    -2
100
AcDbLine
 10
1960.132968183909
 20
179.3845598196477
 30
0.0
 11
1946.299634850576
 21
179.3845598196477
 31
0.0
  0
LINE
  5
596
330
50B
100
AcDbEntity
  8
0
 62
     0
370
    -2
100
AcDbLine
 10
1965.727203982052
 20
179.3845598196477
 30
0.0
 11
1962.63296818391
 21
179.3845598196477
 31
0.0
  0
INSERT
  5
597
330
50B
100
AcDbEntity
  8
0
 62
     0
370
    -2
100
AcDbBlockReference
  2
_Open30
 10
1965.727203982052
 20
179.3845598196477
 30
0.0
 41
2.5
 42
2.5
 43
2.5
 50
180.0
  0
INSERT
  5
598
330
50B
100
AcDbEntity
  8
0
 62
     0
370
    -2
100
AcDbBlockReference
  2
_Open30
 10
1962.63296818391
 20
179.3845598196477
 30
0.0
 41
2.5
 42
2.5
 43
2.5
  0
MTEXT
  5
599
330
50B
100
AcDbEntity
  8
0
 62
     4
100
AcDbMText
 10
1951.50796818391
 20
181.2595598196477
 30
0.0
 40
2.5
 41
0.0
 71
     5
 72
     1
  1
15.47
  7
高2.5
 73
     1
 44
1.0
1001
ACAD
1000
MTEXTBEGIN
1070
    73
1070
     1
1070
    44
1040
1.0
1070
    74
1070
     0
1000
MTEXTEND
  0
POINT
  5
59A
330
50B
100
AcDbEntity
  8
Defpoints
 62
     0
100
AcDbPoint
 10
1965.727203982052
 20
180.930451889111
 30
0.0
  0
POINT
  5
59B
330
50B
100
AcDbEntity
  8
Defpoints
 62
     0
100
AcDbPoint
 10
1962.63296818391
 20
180.930451889111
 30
0.0
  0
POINT
  5
59C
330
50B
100
AcDbEntity
  8
Defpoints
 62
     0
100
AcDbPoint
 10
1962.63296818391
 20
179.3845598196477
 30
0.0
  0
ENDBLK
  5
50D
330
50B
100
AcDbEntity
  8
0
100
AcDbBlockEnd
  0
BLOCK
  5
51A
330
519
100
AcDbEntity
  8
0
100
AcDbBlockBegin
  2
*D19
 70
     1
 10
0.0
 20
0.0
 30
0.0
  3
*D19
  1

  0
LINE
  5
59D
330
519
100
AcDbEntity
  8
0
 62
     0
370
    -2
100
AcDbLine
 10
1967.456335590138
 20
175.2243621732645
 30
0.0
 11
1967.456335590138
 21
172.9512745108973
 31
0.0
  0
LINE
  5
59E
330
519
100
AcDbEntity
  8
0
 62
     0
370
    -2
100
AcDbLine
 10
1963.452030636946
 20
175.2243621732645
 30
0.0
 11
1963.452030636946
 21
172.9512745108973
 31
0.0
  0
LINE
  5
59F
330
519
100
AcDbEntity
  8
0
 62
     0
370
    -2
100
AcDbLine
 10
1969.956335590138
 20
174.2012745108973
 30
0.0
 11
1972.456335590138
 21
174.2012745108973
 31
0.0
  0
LINE
  5
5A0
330
519
100
AcDbEntity
  8
0
 62
     0
370
    -2
100
AcDbLine
 10
1960.952030636946
 20
174.2012745108973
 30
0.0
 11
1949.202030636946
 21
174.2012745108973
 31
0.0
  0
LINE
  5
5A1
330
519
100
AcDbEntity
  8
0
 62
     0
370
    -2
100
AcDbLine
 10
1967.456335590138
 20
174.2012745108973
 30
0.0
 11
1963.452030636946
 21
174.2012745108973
 31
0.0
  0
INSERT
  5
5A2
330
519
100
AcDbEntity
  8
0
 62
     0
370
    -2
100
AcDbBlockReference
  2
_Open30
 10
1967.456335590138
 20
174.2012745108973
 30
0.0
 41
2.5
 42
2.5
 43
2.5
 50
180.0
  0
INSERT
  5
5A3
330
519
100
AcDbEntity
  8
0
 62
     0
370
    -2
100
AcDbBlockReference
  2
_Open30
 10
1963.452030636946
 20
174.2012745108973
 30
0.0
 41
2.5
 42
2.5
 43
2.5
  0
MTEXT
  5
5A4
330
519
100
AcDbEntity
  8
0
 62
     4
100
AcDbMText
 10
1953.827030636946
 20
176.4262745108973
 30
0.0
 40
3.2
 41
0.0
 71
     5
 72
     1
  1
8.01
  7
高3.2
 73
     1
 44
1.0
1001
ACAD
1000
MTEXTBEGIN
1070
    73
1070
     1
1070
    44
1040
1.0
1070
    74
1070
     0
1000
MTEXTEND
  0
POINT
  5
5A5
330
519
100
AcDbEntity
  8
Defpoints
 62
     0
100
AcDbPoint
 10
1967.456335590138
 20
175.4743621732646
 30
0.0
  0
POINT
  5
5A6
330
519
100
AcDbEntity
  8
Defpoints
 62
     0
100
AcDbPoint
 10
1963.452030636946
 20
175.4743621732646
 30
0.0
  0
POINT
  5
5A7
330
519
100
AcDbEntity
  8
Defpoints
 62
     0
100
AcDbPoint
 10
1963.452030636946
 20
174.2012745108973
 30
0.0
  0
ENDBLK
  5
51B
330
519
100
AcDbEntity
  8
0
100
AcDbBlockEnd
  0
BLOCK
  5
528
330
527
100
AcDbEntity
  8
0
100
AcDbBlockBegin
  2
*D20
 70
     1
 10
0.0
 20
0.0
 30
0.0
  3
*D20
  1

  0
LINE
  5
5A8
330
527
100
AcDbEntity
  8
0
 62
     0
370
    -2
100
AcDbLine
 10
1967.365328888126
 20
169.9501422052329
 30
0.0
 11
1967.365328888126
 21
168.1317286977765
 31
0.0
  0
LINE
  5
5A9
330
527
100
AcDbEntity
  8
0
 62
     0
370
    -2
100
AcDbLine
 10
1962.63296818391
 20
169.9501422052329
 30
0.0
 11
1962.63296818391
 21
168.1317286977765
 31
0.0
  0
LINE
  5
5AA
330
527
100
AcDbEntity
  8
0
 62
     0
370
    -2
100
AcDbLine
 10
1969.865328888126
 20
169.3817286977765
 30
0.0
 11
1972.365328888126
 21
169.3817286977765
 31
0.0
  0
LINE
  5
5AB
330
527
100
AcDbEntity
  8
0
 62
     0
370
    -2
100
AcDbLine
 10
1960.132968183909
 20
169.3817286977765
 30
0.0
 11
1938.38296818391
 21
169.3817286977765
 31
0.0
  0
LINE
  5
5AC
330
527
100
AcDbEntity
  8
0
 62
     0
370
    -2
100
AcDbLine
 10
1967.365328888126
 20
169.3817286977765
 30
0.0
 11
1962.63296818391
 21
169.3817286977765
 31
0.0
  0
INSERT
  5
5AD
330
527
100
AcDbEntity
  8
0
 62
     0
370
    -2
100
AcDbBlockReference
  2
_Open30
 10
1967.365328888126
 20
169.3817286977765
 30
0.0
 41
2.5
 42
2.5
 43
2.5
 50
180.0
  0
INSERT
  5
5AE
330
527
100
AcDbEntity
  8
0
 62
     0
370
    -2
100
AcDbBlockReference
  2
_Open30
 10
1962.63296818391
 20
169.3817286977765
 30
0.0
 41
2.5
 42
2.5
 43
2.5
  0
MTEXT
  5
5AF
330
527
100
AcDbEntity
  8
0
 62
     4
100
AcDbMText
 10
1948.00796818391
 20
172.2567286977765
 30
0.0
 40
4.5
 41
0.0
 71
     5
 72
     1
  1
47.32
  7
高4.5
 73
     1
 44
1.0
1001
ACAD
1000
MTEXTBEGIN
1070
    73
1070
     1
1070
    44
1040
1.0
1070
    74
1070
     0
1000
MTEXTEND
  0
POINT
  5
5B0
330
527
100
AcDbEntity
  8
Defpoints
 62
     0
100
AcDbPoint
 10
1967.365328888126
 20
170.2001422052329
 30
0.0
  0
POINT
  5
5B1
330
527
100
AcDbEntity
  8
Defpoints
 62
     0
100
AcDbPoint
 10
1962.63296818391
 20
170.2001422052329
 30
0.0
  0
POINT
  5
5B2
330
527
100
AcDbEntity
  8
Defpoints
 62
     0
100
AcDbPoint
 10
1962.63296818391
 20
169.3817286977765
 30
0.0
  0
ENDBLK
  5
529
330
527
100
AcDbEntity
  8
0
100
AcDbBlockEnd
  0
BLOCK
  5
536
330
535
100
AcDbEntity
  8
0
100
AcDbBlockBegin
  2
*D21
 70
     1
 10
0.0
 20
0.0
 30
0.0
  3
*D21
  1

  0
LINE
  5
5B3
330
535
100
AcDbEntity
  8
0
 62
     0
370
    -2
100
AcDbLine
 10
1988.842965156133
 20
186.1365414618734
 30
0.0
 11
1988.842965156133
 21
183.2269100398646
 31
0.0
  0
LINE
  5
5B4
330
535
100
AcDbEntity
  8
0
 62
     0
370
    -2
100
AcDbLine
 10
1986.385778102013
 20
186.1365414618734
 30
0.0
 11
1986.385778102013
 21
183.2269100398646
 31
0.0
  0
LINE
  5
5B5
330
535
100
AcDbEntity
  8
0
 62
     0
370
    -2
100
AcDbLine
 10
1991.342965156133
 20
184.4769100398646
 30
0.0
 11
1993.842965156133
 21
184.4769100398646
 31
0.0
  0
LINE
  5
5B6
330
535
100
AcDbEntity
  8
0
 62
     0
370
    -2
100
AcDbLine
 10
1983.885778102013
 20
184.4769100398646
 30
0.0
 11
1962.285778102013
 21
184.4769100398646
 31
0.0
  0
LINE
  5
5B7
330
535
100
AcDbEntity
  8
0
 62
     0
370
    -2
100
AcDbLine
 10
1988.842965156133
 20
184.4769100398646
 30
0.0
 11
1986.385778102013
 21
184.4769100398646
 31
0.0
  0
INSERT
  5
5B8
330
535
100
AcDbEntity
  8
0
 62
     0
370
    -2
100
AcDbBlockReference
  2
_Open30
 10
1988.842965156133
 20
184.4769100398646
 30
0.0
 41
2.5
 42
2.5
 43
2.5
 50
180.0
  0
INSERT
  5
5B9
330
535
100
AcDbEntity
  8
0
 62
     0
370
    -2
100
AcDbBlockReference
  2
_Open30
 10
1986.385778102013
 20
184.4769100398646
 30
0.0
 41
2.5
 42
2.5
 43
2.5
  0
MTEXT
  5
5BA
330
535
100
AcDbEntity
  8
0
 62
     4
100
AcDbMText
 10
1971.835778102013
 20
188.2519100398646
 30
0.0
 40
6.299999999999999
 41
0.0
 71
     5
 72
     1
  1
0.25
  7
高6.3
 73
     1
 44
1.0
1001
ACAD
1000
MTEXTBEGIN
1070
    73
1070
     1
1070
    44
1040
1.0
1070
    74
1070
     0
1000
MTEXTEND
  0
POINT
  5
5BB
330
535
100
AcDbEntity
  8
Defpoints
 62
     0
100
AcDbPoint
 10
1988.842965156133
 20
186.3865414618734
 30
0.0
  0
POINT
  5
5BC
330
535
100
AcDbEntity
  8
Defpoints
 62
     0
100
AcDbPoint
 10
1986.385778102013
 20
186.3865414618734
 30
0.0
  0
POINT
  5
5BD
330
535
100
AcDbEntity
  8
Defpoints
 62
     0
100
AcDbPoint
 10
1986.385778102013
 20
184.4769100398646
 30
0.0
  0
ENDBLK
  5
537
330
535
100
AcDbEntity
  8
0
100
AcDbBlockEnd
  0
BLOCK
  5
544
330
543
100
AcDbEntity
  8
0
100
AcDbBlockBegin
  2
*D22
 70
     1
 10
0.0
 20
0.0
 30
0.0
  3
*D22
  1

  0
LINE
  5
5BE
330
543
100
AcDbEntity
  8
0
 62
     0
370
    -2
100
AcDbLine
 10
1990.481090062206
 20
180.680451889111
 30
0.0
 11
1990.481090062206
 21
178.1345598196477
 31
0.0
  0
LINE
  5
5BF
330
543
100
AcDbEntity
  8
0
 62
     0
370
    -2
100
AcDbLine
 10
1987.386854264063
 20
180.680451889111
 30
0.0
 11
1987.386854264063
 21
178.1345598196477
 31
0.0
  0
LINE
  5
5C0
330
543
100
AcDbEntity
  8
0
 62
     0
370
    -2
100
AcDbLine
 10
1992.981090062206
 20
179.3845598196477
 30
0.0
 11
1995.481090062206
 21
179.3845598196477
 31
0.0
  0
LINE
  5
5C1
330
543
100
AcDbEntity
  8
0
 62
     0
370
    -2
100
AcDbLine
 10
1984.886854264063
 20
179.3845598196477
 30
0.0
 11
1972.886854264064
 21
179.3845598196477
 31
0.0
  0
LINE
  5
5C2
330
543
100
AcDbEntity
  8
0
 62
     0
370
    -2
100
AcDbLine
 10
1990.481090062206
 20
179.3845598196477
 30
0.0
 11
1987.386854264063
 21
179.3845598196477
 31
0.0
  0
INSERT
  5
5C3
330
543
100
AcDbEntity
  8
0
 62
     0
370
    -2
100
AcDbBlockReference
  2
_Open30
 10
1990.481090062206
 20
179.3845598196477
 30
0.0
 41
2.5
 42
2.5
 43
2.5
 50
180.0
  0
INSERT
  5
5C4
330
543
100
AcDbEntity
  8
0
 62
     0
370
    -2
100
AcDbBlockReference
  2
_Open30
 10
1987.386854264063
 20
179.3845598196477
 30
0.0
 41
2.5
 42
2.5
 43
2.5
  0
MTEXT
  5
5C5
330
543
100
AcDbEntity
  8
0
 62
     4
100
AcDbMText
 10
1977.511854264063
 20
181.5095598196477
 30
0.0
 40
3.0
 41
0.0
 71
     5
 72
     1
  1
1.55
 73
     1
 44
1.0
1001
ACAD
1000
MTEXTBEGIN
1070
    73
1070
     1
1070
    44
1040
1.0
1070
    74
1070
     0
1000
MTEXTEND
  0
POINT
  5
5C6
330
543
100
AcDbEntity
  8
Defpoints
 62
     0
100
AcDbPoint
 10
1990.481090062206
 20
180.930451889111
 30
0.0
  0
POINT
  5
5C7
330
543
100
AcDbEntity
  8
Defpoints
 62
     0
100
AcDbPoint
 10
1987.386854264063
 20
180.930451889111
 30
0.0
  0
POINT
  5
5C8
330
543
100
AcDbEntity
  8
Defpoints
 62
     0
100
AcDbPoint
 10
1987.386854264063
 20
179.3845598196477
 30
0.0
  0
ENDBLK
  5
545
330
543
100
AcDbEntity
  8
0
100
AcDbBlockEnd
  0
BLOCK
  5
552
330
551
100
AcDbEntity
  8
0
100
AcDbBlockBegin
  2
*D23
 70
     1
 10
0.0
 20
0.0
 30
0.0
  3
*D23
  1

  0
LINE
  5
5C9
330
551
100
AcDbEntity
  8
0
 62
     0
370
    -2
100
AcDbLine
 10
1992.210221670292
 20
175.2243621732645
 30
0.0
 11
1992.210221670292
 21
172.9512745108973
 31
0.0
  0
LINE
  5
5CA
330
551
100
AcDbEntity
  8
0
 62
     0
370
    -2
100
AcDbLine
 10
1988.2059167171
 20
175.2243621732645
 30
0.0
 11
1988.2059167171
 21
172.9512745108973
 31
0.0
  0
LINE
  5
5CB
330
551
100
AcDbEntity
  8
0
 62
     0
370
    -2
100
AcDbLine
 10
1994.710221670292
 20
174.2012745108973
 30
0.0
 11
1997.210221670292
 21
174.2012745108973
 31
0.0
  0
LINE
  5
5CC
330
551
100
AcDbEntity
  8
0
 62
     0
370
    -2
100
AcDbLine
 10
1985.7059167171
 20
174.2012745108973
 30
0.0
 11
1977.372583383766
 21
174.2012745108973
 31
0.0
  0
LINE
  5
5CD
330
551
100
AcDbEntity
  8
0
 62
     0
370
    -2
100
AcDbLine
 10
1992.210221670292
 20
174.2012745108973
 30
0.0
 11
1988.2059167171
 21
174.2012745108973
 31
0.0
  0
INSERT
  5
5CE
330
551
100
AcDbEntity
  8
0
 62
     0
370
    -2
100
AcDbBlockReference
  2
_Open30
 10
1992.210221670292
 20
174.2012745108973
 30
0.0
 41
2.5
 42
2.5
 43
2.5
 50
180.0
  0
INSERT
  5
5CF
330
551
100
AcDbEntity
  8
0
 62
     0
370
    -2
100
AcDbBlockReference
  2
_Open30
 10
1988.2059167171
 20
174.2012745108973
 30
0.0
 41
2.5
 42
2.5
 43
2.5
  0
MTEXT
  5
5D0
330
551
100
AcDbEntity
  8
0
 62
     4
100
AcDbMText
 10
1979.8309167171
 20
175.8262745108973
 30
0.0
 40
2.0
 41
0.0
 71
     5
 72
     1
  1
0.8
  7
高2
 73
     1
 44
1.0
1001
ACAD
1000
MTEXTBEGIN
1070
    73
1070
     1
1070
    44
1040
1.0
1070
    74
1070
     0
1000
MTEXTEND
  0
POINT
  5
5D1
330
551
100
AcDbEntity
  8
Defpoints
 62
     0
100
AcDbPoint
 10
1992.210221670292
 20
175.4743621732646
 30
0.0
  0
POINT
  5
5D2
330
551
100
AcDbEntity
  8
Defpoints
 62
     0
100
AcDbPoint
 10
1988.2059167171
 20
175.4743621732646
 30
0.0
  0
POINT
  5
5D3
330
551
100
AcDbEntity
  8
Defpoints
 62
     0
100
AcDbPoint
 10
1988.2059167171
 20
174.2012745108973
 30
0.0
  0
ENDBLK
  5
553
330
551
100
AcDbEntity
  8
0
100
AcDbBlockEnd
  0
BLOCK
  5
560
330
55F
100
AcDbEntity
  8
0
100
AcDbBlockBegin
  2
*D24
 70
     1
 10
0.0
 20
0.0
 30
0.0
  3
*D24
  1

  0
LINE
  5
5D4
330
55F
100
AcDbEntity
  8
0
 62
     0
370
    -2
100
AcDbLine
 10
1992.119214968279
 20
169.9501422052329
 30
0.0
 11
1992.119214968279
 21
168.1317286977765
 31
0.0
  0
LINE
  5
5D5
330
55F
100
AcDbEntity
  8
0
 62
     0
370
    -2
100
AcDbLine
 10
1987.386854264063
 20
169.9501422052329
 30
0.0
 11
1987.386854264063
 21
168.1317286977765
 31
0.0
  0
LINE
  5
5D6
330
55F
100
AcDbEntity
  8
0
 62
     0
370
    -2
100
AcDbLine
 10
1994.619214968279
 20
169.3817286977765
 30
0.0
 11
1997.119214968279
 21
169.3817286977765
 31
0.0
  0
LINE
  5
5D7
330
55F
100
AcDbEntity
  8
0
 62
     0
370
    -2
100
AcDbLine
 10
1984.886854264063
 20
169.3817286977765
 30
0.0
 11
1970.136854264063
 21
169.3817286977765
 31
0.0
  0
LINE
  5
5D8
330
55F
100
AcDbEntity
  8
0
 62
     0
370
    -2
100
AcDbLine
 10
1992.119214968279
 20
169.3817286977765
 30
0.0
 11
1987.386854264063
 21
169.3817286977765
 31
0.0
  0
INSERT
  5
5D9
330
55F
100
AcDbEntity
  8
0
 62
     0
370
    -2
100
AcDbBlockReference
  2
_Open30
 10
1992.119214968279
 20
169.3817286977765
 30
0.0
 41
2.5
 42
2.5
 43
2.5
 50
180.0
  0
INSERT
  5
5DA
330
55F
100
AcDbEntity
  8
0
 62
     0
370
    -2
100
AcDbBlockReference
  2
_Open30
 10
1987.386854264063
 20
169.3817286977765
 30
0.0
 41
2.5
 42
2.5
 43
2.5
  0
MTEXT
  5
5DB
330
55F
100
AcDbEntity
  8
0
 62
     4
100
AcDbMText
 10
1976.261854264063
 20
171.5067286977765
 30
0.0
 40
3.0
 41
0.0
 71
     5
 72
     1
  1
18.93
 73
     1
 44
1.0
1001
ACAD
1000
MTEXTBEGIN
1070
    73
1070
     1
1070
    44
1040
1.0
1070
    74
1070
     0
1000
MTEXTEND
  0
POINT
  5
5DC
330
55F
100
AcDbEntity
  8
Defpoints
 62
     0
100
AcDbPoint
 10
1992.119214968279
 20
170.2001422052329
 30
0.0
  0
POINT
  5
5DD
330
55F
100
AcDbEntity
  8
Defpoints
 62
     0
100
AcDbPoint
 10
1987.386854264063
 20
170.2001422052329
 30
0.0
  0
POINT
  5
5DE
330
55F
100
AcDbEntity
  8
Defpoints
 62
     0
100
AcDbPoint
 10
1987.386854264063
 20
169.3817286977765
 30
0.0
  0
ENDBLK
  5
561
330
55F
100
AcDbEntity
  8
0
100
AcDbBlockEnd
  0
BLOCK
  5
56E
330
56D
100
AcDbEntity
  8
0
100
AcDbBlockBegin
  2
*D25
 70
     1
 10
0.0
 20
0.0
 30
0.0
  3
*D25
  1

  0
LINE
  5
5DF
330
56D
100
AcDbEntity
  8
0
 62
     0
370
    -2
100
AcDbLine
 10
1989.314788117141
 20
164.8943019986432
 30
0.0
 11
1989.314788117141
 21
162.5843809217676
 31
0.0
  0
LINE
  5
5E0
330
56D
100
AcDbEntity
  8
0
 62
     0
370
    -2
100
AcDbLine
 10
1984.726112914993
 20
164.8943019986432
 30
0.0
 11
1984.726112914993
 21
162.5843809217676
 31
0.0
  0
LINE
  5
5E1
330
56D
100
AcDbEntity
  8
0
 62
     0
370
    -2
100
AcDbLine
 10
1991.814788117141
 20
163.8343809217676
 30
0.0
 11
1994.314788117141
 21
163.8343809217676
 31
0.0
  0
LINE
  5
5E2
330
56D
100
AcDbEntity
  8
0
 62
     0
370
    -2
100
AcDbLine
 10
1982.226112914993
 20
163.8343809217676
 30
0.0
 11
1967.476112914993
 21
163.8343809217676
 31
0.0
  0
LINE
  5
5E3
330
56D
100
AcDbEntity
  8
0
 62
     0
370
    -2
100
AcDbLine
 10
1989.314788117141
 20
163.8343809217676
 30
0.0
 11
1984.726112914993
 21
163.8343809217676
 31
0.0
  0
INSERT
  5
5E4
330
56D
100
AcDbEntity
  8
0
 62
     0
370
    -2
100
AcDbBlockReference
  2
_Open30
 10
1989.314788117141
 20
163.8343809217676
 30
0.0
 41
2.5
 42
2.5
 43
2.5
 50
180.0
  0
INSERT
  5
5E5
330
56D
100
AcDbEntity
  8
0
 62
     0
370
    -2
100
AcDbBlockReference
  2
_Open30
 10
1984.726112914993
 20
163.8343809217676
 30
0.0
 41
2.5
 42
2.5
 43
2.5
  0
MTEXT
  5
5E6
330
56D
100
AcDbEntity
  8
0
 62
     4
100
AcDbMText
 10
1973.601112914993
 20
165.9593809217676
 30
0.0
 40
3.0
 41
0.0
 71
     5
 72
     1
  1
13.77
 73
     1
 44
1.0
1001
ACAD
1000
MTEXTBEGIN
1070
    73
1070
     1
1070
    44
1040
1.0
1070
    74
1070
     0
1000
MTEXTEND
  0
POINT
  5
5E7
330
56D
100
AcDbEntity
  8
Defpoints
 62
     0
100
AcDbPoint
 10
1989.314788117141
 20
165.1443019986432
 30
0.0
  0
POINT
  5
5E8
330
56D
100
AcDbEntity
  8
Defpoints
 62
     0
100
AcDbPoint
 10
1984.726112914993
 20
165.1443019986432
 30
0.0
  0
POINT
  5
5E9
330
56D
100
AcDbEntity
  8
Defpoints
 62
     0
100
AcDbPoint
 10
1984.726112914993
 20
163.8343809217676
 30
0.0
  0
ENDBLK
  5
56F
330
56D
100
AcDbEntity
  8
0
100
AcDbBlockEnd
  0
BLOCK
  5
57C
330
57B
100
AcDbEntity
  8
0
100
AcDbBlockBegin
  2
*D26
 70
     1
 10
0.0
 20
0.0
 30
0.0
  3
*D26
  1

  0
LINE
  5
5EA
330
57B
100
AcDbEntity
  8
0
 62
     0
370
    -2
100
AcDbLine
 10
1982.218505283991
 20
195.8237933169175
 30
0.0
 11
1982.218505283991
 21
203.2203267948553
 31
0.0
  0
LINE
  5
5EB
330
57B
100
AcDbEntity
  8
0
 62
     0
370
    -2
100
AcDbLine
 10
1972.280030914501
 20
195.8237933169175
 30
0.0
 11
1972.280030914501
 21
203.2203267948553
 31
0.0
  0
LINE
  5
5EC
330
57B
100
AcDbEntity
  8
0
 62
     0
370
    -2
100
AcDbLine
 10
1979.718505283991
 20
201.9703267948553
 30
0.0
 11
1974.780030914501
 21
201.9703267948553
 31
0.0
  0
INSERT
  5
5ED
330
57B
100
AcDbEntity
  8
0
 62
     0
370
    -2
100
AcDbBlockReference
  2
_Open30
 10
1982.218505283991
 20
201.9703267948553
 30
0.0
 41
2.5
 42
2.5
 43
2.5
  0
INSERT
  5
5EE
330
57B
100
AcDbEntity
  8
0
 62
     0
370
    -2
100
AcDbBlockReference
  2
_Open30
 10
1972.280030914501
 20
201.9703267948553
 30
0.0
 41
2.5
 42
2.5
 43
2.5
 50
180.0
  0
MTEXT
  5
5EF
330
57B
100
AcDbEntity
  8
0
 62
     4
100
AcDbMText
 10
1977.249268099246
 20
205.0453267948553
 30
0.0
 40
3.0
 41
0.0
 71
     5
 72
     1
  1
9.94\H0.7X;\S+0^ -0.02;
 73
     1
 44
1.0
1001
ACAD
1000
MTEXTBEGIN
1070
    73
1070
     1
1070
    44
1040
1.0
1070
    74
1070
     0
1000
MTEXTEND
  0
POINT
  5
5F0
330
57B
100
AcDbEntity
  8
Defpoints
 62
     0
100
AcDbPoint
 10
1982.218505283991
 20
195.5737933169175
 30
0.0
  0
POINT
  5
5F1
330
57B
100
AcDbEntity
  8
Defpoints
 62
     0
100
AcDbPoint
 10
1972.280030914501
 20
195.5737933169175
 30
0.0
  0
POINT
  5
5F2
330
57B
100
AcDbEntity
  8
Defpoints
 62
     0
100
AcDbPoint
 10
1972.280030914501
 20
201.9703267948553
 30
0.0
  0
ENDBLK
  5
57D
330
57B
100
AcDbEntity
  8
0
100
AcDbBlockEnd
  0
BLOCK
  5
5F4
330
5F3
100
AcDbEntity
  8
0
100
AcDbBlockBegin
  2
*D27
 70
     1
 10
0.0
 20
0.0
 30
0.0
  3
*D27
  1

  0
LINE
  5
650
330
5F3
100
AcDbEntity
  8
0
 62
     0
370
    -2
100
AcDbLine
 10
1390.661728
 20
65.418729
 30
0.0
 11
1390.661728
 21
38.927433
 31
0.0
  0
LINE
  5
651
330
5F3
100
AcDbEntity
  8
0
 62
     0
370
    -2
100
AcDbLine
 10
1500.661728
 20
65.418729
 30
0.0
 11
1500.661728
 21
38.927433
 31
0.0
  0
LINE
  5
652
330
5F3
100
AcDbEntity
  8
0
 62
     0
370
    -2
100
AcDbLine
 10
1393.161728
 20
40.177433
 30
0.0
 11
1498.161728
 21
40.177433
 31
0.0
  0
INSERT
  5
653
330
5F3
100
AcDbEntity
  8
0
 62
     0
370
    -2
100
AcDbBlockReference
  2
_Open30
 10
1390.661728
 20
40.177433
 30
0.0
 41
2.5
 42
2.5
 43
2.5
 50
180.0
  0
INSERT
  5
654
330
5F3
100
AcDbEntity
  8
0
 62
     0
370
    -2
100
AcDbBlockReference
  2
_Open30
 10
1500.661728
 20
40.177433
 30
0.0
 41
2.5
 42
2.5
 43
2.5
  0
MTEXT
  5
655
330
5F3
100
AcDbEntity
  8
0
 62
     4
100
AcDbMText
 10
1445.661728
 20
42.302433
 30
0.0
 40
3.0
 41
0.0
 71
     5
 72
     1
  1
275
 73
     1
 44
1.0
1001
ACAD
1000
MTEXTBEGIN
1070
    73
1070
     1
1070
    44
1040
1.0
1070
    74
1070
     0
1000
MTEXTEND
  0
POINT
  5
656
330
5F3
100
AcDbEntity
  8
Defpoints
 62
     0
100
AcDbPoint
 10
1390.661728
 20
65.66872899999999
 30
0.0
  0
POINT
  5
657
330
5F3
100
AcDbEntity
  8
Defpoints
 62
     0
100
AcDbPoint
 10
1500.661728
 20
65.66872899999999
 30
0.0
  0
POINT
  5
658
330
5F3
100
AcDbEntity
  8
Defpoints
 62
     0
100
AcDbPoint
 10
1500.661728
 20
40.177433
 30
0.0
  0
ENDBLK
  5
5F5
330
5F3
100
AcDbEntity
  8
0
100
AcDbBlockEnd
  0
BLOCK
  5
613
330
612
100
AcDbEntity
  8
0
100
AcDbBlockBegin
  2
*D28
 70
     1
 10
0.0
 20
0.0
 30
0.0
  3
*D28
  1

  0
LINE
  5
659
330
612
100
AcDbEntity
  8
0
 62
     0
370
    -2
100
AcDbLine
 10
1395.411728
 20
63.06872900000001
 30
0.0
 11
1376.120473
 21
63.06872900000001
 31
0.0
  0
LINE
  5
65A
330
612
100
AcDbEntity
  8
0
 62
     0
370
    -2
100
AcDbLine
 10
1390.411728
 20
125.068729
 30
0.0
 11
1376.120473
 21
125.068729
 31
0.0
  0
LINE
  5
65B
330
612
100
AcDbEntity
  8
0
 62
     0
370
    -2
100
AcDbLine
 10
1377.370473
 20
65.56872900000001
 30
0.0
 11
1377.370473
 21
122.568729
 31
0.0
  0
INSERT
  5
65C
330
612
100
AcDbEntity
  8
0
 62
     0
370
    -2
100
AcDbBlockReference
  2
_Open30
 10
1377.370473
 20
63.06872900000001
 30
0.0
 41
2.5
 42
2.5
 43
2.5
 50
270.0
  0
INSERT
  5
65D
330
612
100
AcDbEntity
  8
0
 62
     0
370
    -2
100
AcDbBlockReference
  2
_Open30
 10
1377.370473
 20
125.068729
 30
0.0
 41
2.5
 42
2.5
 43
2.5
 50
90.0
  0
MTEXT
  5
65E
330
612
100
AcDbEntity
  8
0
 62
     4
100
AcDbMText
 10
1375.245473
 20
94.06872900000022
 30
0.0
 40
3.0
 41
0.0
 71
     5
 72
     1
  1
155
 11
0.0000000000000001
 21
1.0
 31
0.0
 73
     1
 44
1.0
1001
ACAD
1000
MTEXTBEGIN
1070
    73
1070
     1
1070
    44
1040
1.0
1070
    74
1070
     0
1000
MTEXTEND
  0
POINT
  5
65F
330
612
100
AcDbEntity
  8
Defpoints
 62
     0
100
AcDbPoint
 10
1395.661728
 20
63.06872900000001
 30
0.0
  0
POINT
  5
660
330
612
100
AcDbEntity
  8
Defpoints
 62
     0
100
AcDbPoint
 10
1390.661728
 20
125.068729
 30
0.0
  0
POINT
  5
661
330
612
100
AcDbEntity
  8
Defpoints
 62
     0
100
AcDbPoint
 10
1377.370473
 20
125.068729
 30
0.0
  0
ENDBLK
  5
614
330
612
100
AcDbEntity
  8
0
100
AcDbBlockEnd
  0
BLOCK
  5
61F
330
61E
100
AcDbEntity
  8
0
100
AcDbBlockBegin
  2
*D29
 70
     1
 10
0.0
 20
0.0
 30
0.0
  3
*D29
  1

  0
LINE
  5
662
330
61E
100
AcDbEntity
  8
0
 62
     0
370
    -2
100
AcDbLine
 10
1261.886733
 20
65.418729
 30
0.0
 11
1261.886733
 21
38.59722700000001
 31
0.0
  0
LINE
  5
663
330
61E
100
AcDbEntity
  8
0
 62
     0
370
    -2
100
AcDbLine
 10
1357.886733
 20
65.418729
 30
0.0
 11
1357.886733
 21
38.59722700000001
 31
0.0
  0
LINE
  5
664
330
61E
100
AcDbEntity
  8
0
 62
     0
370
    -2
100
AcDbLine
 10
1264.386733
 20
39.84722700000001
 30
0.0
 11
1355.386733
 21
39.84722700000001
 31
0.0
  0
INSERT
  5
665
330
61E
100
AcDbEntity
  8
0
 62
     0
370
    -2
100
AcDbBlockReference
  2
_Open30
 10
1261.886733
 20
39.84722700000001
 30
0.0
 41
2.5
 42
2.5
 43
2.5
 50
180.0
  0
INSERT
  5
666
330
61E
100
AcDbEntity
  8
0
 62
     0
370
    -2
100
AcDbBlockReference
  2
_Open30
 10
1357.886733
 20
39.84722700000001
 30
0.0
 41
2.5
 42
2.5
 43
2.5
  0
MTEXT
  5
667
330
61E
100
AcDbEntity
  8
0
 62
     4
100
AcDbMText
 10
1309.886733
 20
41.972227
 30
0.0
 40
3.0
 41
0.0
 71
     5
 72
     1
  1
240
 73
     1
 44
1.0
1001
ACAD
1000
MTEXTBEGIN
1070
    73
1070
     1
1070
    44
1040
1.0
1070
    74
1070
     0
1000
MTEXTEND
  0
POINT
  5
668
330
61E
100
AcDbEntity
  8
Defpoints
 62
     0
100
AcDbPoint
 10
1261.886733
 20
65.66872899999999
 30
0.0
  0
POINT
  5
669
330
61E
100
AcDbEntity
  8
Defpoints
 62
     0
100
AcDbPoint
 10
1357.886733
 20
65.66872899999999
 30
0.0
  0
POINT
  5
66A
330
61E
100
AcDbEntity
  8
Defpoints
 62
     0
100
AcDbPoint
 10
1357.886733
 20
39.84722700000001
 30
0.0
  0
ENDBLK
  5
620
330
61E
100
AcDbEntity
  8
0
100
AcDbBlockEnd
  0
ENDSEC
  0
SECTION
  2
ENTITIES
  0
LINE
  5
BB
330
6B
100
AcDbEntity
  8
0
 62
     3
100
AcDbLine
 10
1357.886733
 20
65.66872899999999
 30
0.0
 11
1357.886733
 21
123.068729
 31
0.0
  0
LINE
  5
BC
330
6B
100
AcDbEntity
  8
0
 62
     3
100
AcDbLine
 10
1261.886733
 20
65.66872899999999
 30
0.0
 11
1261.886733
 21
123.068729
 31
0.0
  0
LINE
  5
BD
330
6B
100
AcDbEntity
  8
0
 62
     3
100
AcDbLine
 10
1263.886733
 20
125.068729
 30
0.0
 11
1355.886733
 21
125.068729
 31
0.0
  0
LINE
  5
BE
330
6B
100
AcDbEntity
  8
0
 62
     3
100
AcDbLine
 10
1288.286733
 20
101.068729
 30
0.0
 11
1288.286733
 21
113.068729
 31
0.0
  0
LINE
  5
BF
330
6B
100
AcDbEntity
  8
0
 62
     3
100
AcDbLine
 10
1315.486733
 20
113.068729
 30
0.0
 11
1315.486733
 21
101.068729
 31
0.0
  0
LINE
  5
C0
330
6B
100
AcDbEntity
  8
0
 62
     3
100
AcDbLine
 10
1268.286733
 20
113.068729
 30
0.0
 11
1268.286733
 21
101.068729
 31
0.0
  0
LINE
  5
C1
330
6B
100
AcDbEntity
  8
0
 62
     3
100
AcDbLine
 10
1268.286733
 20
113.068729
 30
0.0
 11
1288.286733
 21
113.068729
 31
0.0
  0
LINE
  5
C2
330
6B
100
AcDbEntity
  8
0
 62
     3
100
AcDbLine
 10
1268.286733
 20
101.068729
 30
0.0
 11
1288.286733
 21
101.068729
 31
0.0
  0
LINE
  5
C3
330
6B
100
AcDbEntity
  8
0
 62
     3
100
AcDbLine
 10
1295.486733
 20
101.068729
 30
0.0
 11
1315.486733
 21
101.068729
 31
0.0
  0
LINE
  5
C4
330
6B
100
AcDbEntity
  8
0
 62
     3
100
AcDbLine
 10
1295.486733
 20
113.068729
 30
0.0
 11
1315.486733
 21
113.068729
 31
0.0
  0
LINE
  5
C5
330
6B
100
AcDbEntity
  8
0
 62
     3
100
AcDbLine
 10
1295.486733
 20
101.068729
 30
0.0
 11
1295.486733
 21
113.068729
 31
0.0
  0
CIRCLE
  5
C6
330
6B
100
AcDbEntity
  8
0
 62
     3
100
AcDbCircle
 10
1328.286733
 20
107.068729
 30
0.0
 40
5.0
  0
CIRCLE
  5
C7
330
6B
100
AcDbEntity
  8
0
 62
     3
100
AcDbCircle
 10
1328.286733
 20
107.068729
 30
0.0
 40
3.0
  0
LINE
  5
C8
330
6B
100
AcDbEntity
  8
0
 62
     3
100
AcDbLine
 10
1344.086733
 20
113.668729
 30
0.0
 11
1350.886733
 21
113.668729
 31
0.0
  0
LINE
  5
C9
330
6B
100
AcDbEntity
  8
0
 62
     3
100
AcDbLine
 10
1350.886733
 20
100.868729
 30
0.0
 11
1344.086733
 21
100.868729
 31
0.0
  0
LINE
  5
CA
330
6B
100
AcDbEntity
  8
0
 62
     3
100
AcDbLine
 10
1350.886733
 20
113.668729
 30
0.0
 11
1350.886733
 21
100.868729
 31
0.0
  0
LINE
  5
CB
330
6B
100
AcDbEntity
  8
0
 62
     3
100
AcDbLine
 10
1344.086733
 20
113.668729
 30
0.0
 11
1344.086733
 21
100.868729
 31
0.0
  0
CIRCLE
  5
CC
330
6B
100
AcDbEntity
  8
0
 62
     3
100
AcDbCircle
 10
1302.286733
 20
78.46872900000001
 30
0.0
 40
6.0
  0
CIRCLE
  5
CD
330
6B
100
AcDbEntity
  8
0
 62
     3
100
AcDbCircle
 10
1288.286733
 20
79.26872900000001
 30
0.0
 40
3.0
  0
CIRCLE
  5
CE
330
6B
100
AcDbEntity
  8
0
 62
     3
100
AcDbCircle
 10
1274.286733
 20
79.26872900000001
 30
0.0
 40
3.0
  0
LINE
  5
CF
330
6B
100
AcDbEntity
  8
0
 62
     3
100
AcDbLine
 10
1313.486733
 20
75.66872899999999
 30
0.0
 11
1313.486733
 21
82.46872900000001
 31
0.0
  0
LINE
  5
D0
330
6B
100
AcDbEntity
  8
0
 62
     3
100
AcDbLine
 10
1334.286733
 20
75.66872899999999
 30
0.0
 11
1334.286733
 21
82.46872900000001
 31
0.0
  0
LINE
  5
D1
330
6B
100
AcDbEntity
  8
0
 62
     3
100
AcDbLine
 10
1334.286733
 20
82.46872900000001
 30
0.0
 11
1313.486733
 21
82.46872900000001
 31
0.0
  0
LINE
  5
D2
330
6B
100
AcDbEntity
  8
0
 62
     3
100
AcDbLine
 10
1334.286733
 20
75.66872899999999
 30
0.0
 11
1332.986733
 21
75.66872899999999
 31
0.0
  0
LINE
  5
D3
330
6B
100
AcDbEntity
  8
0
 62
     3
100
AcDbLine
 10
1314.786733
 20
75.66872899999999
 30
0.0
 11
1313.486733
 21
75.66872899999999
 31
0.0
  0
LINE
  5
D4
330
6B
100
AcDbEntity
  8
0
 62
     3
100
AcDbLine
 10
1319.786733
 20
75.66872899999999
 30
0.0
 11
1317.986733
 21
75.66872899999999
 31
0.0
  0
LINE
  5
D5
330
6B
100
AcDbEntity
  8
0
 62
     3
100
AcDbLine
 10
1324.786733
 20
75.66872899999999
 30
0.0
 11
1322.986733
 21
75.66872899999999
 31
0.0
  0
LINE
  5
D6
330
6B
100
AcDbEntity
  8
0
 62
     3
100
AcDbLine
 10
1329.786733
 20
75.66872899999999
 30
0.0
 11
1327.986733
 21
75.66872899999999
 31
0.0
  0
CIRCLE
  5
D7
330
6B
100
AcDbEntity
  8
0
 62
     3
100
AcDbCircle
 10
1347.486733
 20
78.46872900000001
 30
0.0
 40
3.399999999999999
  0
ARC
  5
D8
330
6B
100
AcDbEntity
  8
0
 62
     3
100
AcDbCircle
 10
1355.886733
 20
123.068729
 30
0.0
 40
2.0
100
AcDbArc
 50
0.0
 51
90.0
  0
ARC
  5
D9
330
6B
100
AcDbEntity
  8
0
 62
     3
100
AcDbCircle
 10
1263.886733
 20
123.068729
 30
0.0
 40
2.0
100
AcDbArc
 50
90.0
 51
180.0
  0
ARC
  5
DA
330
6B
100
AcDbEntity
  8
0
 62
     3
100
AcDbCircle
 10
1355.886733
 20
67.268729
 30
0.0
 40
1.6
100
AcDbArc
 50
270.0
 51
0.0
  0
ARC
  5
DB
330
6B
100
AcDbEntity
  8
0
 62
     3
100
AcDbCircle
 10
1263.886733
 20
67.268729
 30
0.0
 40
1.6
100
AcDbArc
 50
180.0
 51
270.0
  0
LINE
  5
DC
330
6B
100
AcDbEntity
  8
0
 62
     3
100
AcDbLine
 10
1355.886733
 20
65.66872899999999
 30
0.0
 11
1263.886733
 21
65.66872899999999
 31
0.0
  0
TEXT
  5
DD
330
6B
100
AcDbEntity
  8
0
 62
     3
100
AcDbText
 10
1275.128383
 20
116.856676
 30
0.0
 40
1.56
  1
REGULATED DC POWER SUPPLY
100
AcDbText
  0
TEXT
  5
DE
330
6B
100
AcDbEntity
  8
0
 62
     3
100
AcDbText
 10
1341.590212
 20
117.830348
 30
0.0
 40
1.399999999999999
  1
DPS-5012M
100
AcDbText
  0
LINE
  5
DF
330
6B
100
AcDbEntity
  8
0
 62
     3
100
AcDbLine
 10
1500.661728
 20
125.068729
 30
0.0
 11
1390.661728
 21
125.068729
 31
0.0
  0
LINE
  5
E0
330
6B
100
AcDbEntity
  8
0
 62
     3
100
AcDbLine
 10
1390.661728
 20
65.66872899999999
 30
0.0
 11
1500.661728
 21
65.66872899999999
 31
0.0
  0
LINE
  5
E1
330
6B
100
AcDbEntity
  8
0
 62
     3
100
AcDbLine
 10
1390.661728
 20
125.068729
 30
0.0
 11
1390.661728
 21
65.66872899999999
 31
0.0
  0
LINE
  5
E2
330
6B
100
AcDbEntity
  8
0
 62
     3
100
AcDbLine
 10
1500.661728
 20
125.068729
 30
0.0
 11
1500.661728
 21
65.66872899999999
 31
0.0
  0
LINE
  5
E3
330
6B
100
AcDbEntity
  8
0
 62
     3
100
AcDbLine
 10
1484.661728
 20
91.168729
 30
0.0
 11
1453.661728
 21
91.168729
 31
0.0
  0
LINE
  5
E4
330
6B
100
AcDbEntity
  8
0
 62
     3
100
AcDbLine
 10
1484.661728
 20
86.76872900000001
 30
0.0
 11
1453.661728
 21
86.76872900000001
 31
0.0
  0
LINE
  5
E5
330
6B
100
AcDbEntity
  8
0
 62
     3
100
AcDbLine
 10
1484.661728
 20
82.36872899999999
 30
0.0
 11
1453.661728
 21
82.36872899999999
 31
0.0
  0
LINE
  5
E6
330
6B
100
AcDbEntity
  8
0
 62
     3
100
AcDbLine
 10
1484.661728
 20
77.96872900000001
 30
0.0
 11
1453.661728
 21
77.96872900000001
 31
0.0
  0
LINE
  5
E7
330
6B
100
AcDbEntity
  8
0
 62
     3
100
AcDbLine
 10
1484.661728
 20
73.568729
 30
0.0
 11
1453.661728
 21
73.568729
 31
0.0
  0
LINE
  5
E8
330
6B
100
AcDbEntity
  8
0
 62
     3
100
AcDbLine
 10
1406.661728
 20
91.168729
 30
0.0
 11
1437.661728
 21
91.168729
 31
0.0
  0
LINE
  5
E9
330
6B
100
AcDbEntity
  8
0
 62
     3
100
AcDbLine
 10
1406.661728
 20
86.76872900000001
 30
0.0
 11
1437.661728
 21
86.76872900000001
 31
0.0
  0
LINE
  5
EA
330
6B
100
AcDbEntity
  8
0
 62
     3
100
AcDbLine
 10
1406.661728
 20
82.36872899999999
 30
0.0
 11
1437.661728
 21
82.36872899999999
 31
0.0
  0
LINE
  5
EB
330
6B
100
AcDbEntity
  8
0
 62
     3
100
AcDbLine
 10
1406.661728
 20
77.96872900000001
 30
0.0
 11
1437.661728
 21
77.96872900000001
 31
0.0
  0
LINE
  5
EC
330
6B
100
AcDbEntity
  8
0
 62
     3
100
AcDbLine
 10
1406.661728
 20
73.568729
 30
0.0
 11
1437.661728
 21
73.568729
 31
0.0
  0
LINE
  5
ED
330
6B
100
AcDbEntity
  8
0
 62
     3
100
AcDbLine
 10
1519.435142
 20
65.66872899999999
 30
0.0
 11
1519.435142
 21
123.068729
 31
0.0
  0
ARC
  5
EE
330
6B
100
AcDbEntity
  8
0
 62
     3
100
AcDbCircle
 10
1521.435142
 20
123.068729
 30
0.0
 40
2.0
100
AcDbArc
 50
90.0
 51
180.0
  0
LINE
  5
EF
330
6B
100
AcDbEntity
  8
0
 62
     3
100
AcDbLine
 10
1615.435142
 20
65.66872899999999
 30
0.0
 11
1615.435142
 21
123.068729
 31
0.0
  0
LINE
  5
F0
330
6B
100
AcDbEntity
  8
0
 62
     3
100
AcDbLine
 10
1521.435142
 20
125.068729
 30
0.0
 11
1613.435142
 21
125.068729
 31
0.0
  0
ARC
  5
F1
330
6B
100
AcDbEntity
  8
0
 62
     3
100
AcDbCircle
 10
1613.435142
 20
123.068729
 30
0.0
 40
2.0
100
AcDbArc
 50
0.0
 51
90.0
  0
LINE
  5
F2
330
6B
100
AcDbEntity
  8
0
 62
     3
100
AcDbLine
 10
1613.435142
 20
65.66872899999999
 30
0.0
 11
1526.635142
 21
65.66872899999999
 31
0.0
  0
ARC
  5
F3
330
6B
100
AcDbEntity
  8
0
 62
     3
100
AcDbCircle
 10
1521.435142
 20
67.268729
 30
0.0
 40
1.6
100
AcDbArc
 50
180.0
 51
270.0
  0
ARC
  5
F4
330
6B
100
AcDbEntity
  8
0
 62
     3
100
AcDbCircle
 10
1613.435142
 20
67.268729
 30
0.0
 40
1.6
100
AcDbArc
 50
270.0
 51
0.0
  0
CIRCLE
  5
F5
330
6B
100
AcDbEntity
  8
0
 62
     3
100
AcDbCircle
 10
1547.435142
 20
91.66872899999999
 30
0.0
 40
14.0
  0
LINE
  5
F6
330
6B
100
AcDbEntity
  8
0
 62
     3
100
AcDbLine
 10
1560.445193
 20
104.678779
 30
0.0
 11
1548.849356
 21
93.082943
 31
0.0
  0
LINE
  5
F7
330
6B
100
AcDbEntity
  8
0
 62
     3
100
AcDbLine
 10
1534.425092
 20
104.678779
 30
0.0
 11
1546.020929
 21
93.082943
 31
0.0
  0
LINE
  5
F8
330
6B
100
AcDbEntity
  8
0
 62
     3
100
AcDbLine
 10
1546.020929
 20
90.254515
 30
0.0
 11
1534.425092
 21
78.65867800000001
 31
0.0
  0
LINE
  5
F9
330
6B
100
AcDbEntity
  8
0
 62
     3
100
AcDbLine
 10
1548.849356
 20
90.254515
 30
0.0
 11
1560.445193
 21
78.65867800000001
 31
0.0
  0
ARC
  5
FA
330
6B
100
AcDbEntity
  8
0
 62
     3
100
AcDbCircle
 10
1550.263569
 20
91.66872899999999
 30
0.0
 40
2.0
100
AcDbArc
 50
135.0
 51
225.0
  0
ARC
  5
FB
330
6B
100
AcDbEntity
  8
0
 62
     3
100
AcDbCircle
 10
1544.606715
 20
91.66872899999999
 30
0.0
 40
2.0
100
AcDbArc
 50
315.0
 51
45.0
  0
CIRCLE
  5
FC
330
6B
100
AcDbEntity
  8
0
 62
     3
100
AcDbCircle
 10
1547.435142
 20
91.66872899999999
 30
0.0
 40
11.0
  0
CIRCLE
  5
FD
330
6B
100
AcDbEntity
  8
0
 62
     3
100
AcDbCircle
 10
1547.435142
 20
91.66872899999999
 30
0.0
 40
8.0
  0
CIRCLE
  5
FE
330
6B
100
AcDbEntity
  8
0
 62
     3
100
AcDbCircle
 10
1547.435142
 20
91.66872899999999
 30
0.0
 40
5.0
  0
CIRCLE
  5
FF
330
6B
100
AcDbEntity
  8
0
 62
     3
100
AcDbCircle
 10
1547.435142
 20
91.66872899999999
 30
0.0
 40
2.0
  0
LINE
  5
100
330
6B
100
AcDbEntity
  8
0
 62
     3
100
AcDbLine
 10
1524.235142
 20
65.66872899999999
 30
0.0
 11
1521.435142
 21
65.66872899999999
 31
0.0
  0
LINE
  5
101
330
6B
100
AcDbEntity
  8
0
 62
     7
100
AcDbLine
 10
1347.886733
 20
63.06872900000001
 30
0.0
 11
1341.886733
 21
63.06872900000001
 31
0.0
  0
LINE
  5
102
330
6B
100
AcDbEntity
  8
0
 62
     7
100
AcDbLine
 10
1335.686733
 20
107.068729
 30
0.0
 11
1333.686733
 21
107.068729
 31
0.0
  0
CIRCLE
  5
103
330
6B
100
AcDbEntity
  8
0
 62
     7
100
AcDbCircle
 10
1293.886733
 20
107.068729
 30
0.0
 40
1.399999999999999
  0
CIRCLE
  5
104
330
6B
100
AcDbEntity
  8
0
 62
     7
100
AcDbCircle
 10
1317.086733
 20
107.068729
 30
0.0
 40
1.399999999999999
  0
CIRCLE
  5
105
330
6B
100
AcDbEntity
  8
0
 62
     7
100
AcDbCircle
 10
1289.886733
 20
107.068729
 30
0.0
 40
1.399999999999999
  0
CIRCLE
  5
106
330
6B
100
AcDbEntity
  8
0
 62
     7
100
AcDbCircle
 10
1266.686733
 20
107.068729
 30
0.0
 40
1.399999999999999
  0
LINE
  5
107
330
6B
100
AcDbEntity
  8
0
 62
     7
100
AcDbLine
 10
1324.586733
 20
113.477317
 30
0.0
 11
1325.586733
 21
111.745266
 31
0.0
  0
LINE
  5
108
330
6B
100
AcDbEntity
  8
0
 62
     7
100
AcDbLine
 10
1334.695321
 20
110.768729
 30
0.0
 11
1332.96327
 21
109.768729
 31
0.0
  0
LINE
  5
109
330
6B
100
AcDbEntity
  8
0
 62
     7
100
AcDbLine
 10
1321.878145
 20
110.768729
 30
0.0
 11
1323.610195
 21
109.768729
 31
0.0
  0
LINE
  5
10A
330
6B
100
AcDbEntity
  8
0
 62
     7
100
AcDbLine
 10
1331.986733
 20
113.477317
 30
0.0
 11
1330.986733
 21
111.745266
 31
0.0
  0
LINE
  5
10B
330
6B
100
AcDbEntity
  8
0
 62
     7
100
AcDbLine
 10
1328.286733
 20
112.468729
 30
0.0
 11
1328.286733
 21
114.468729
 31
0.0
  0
LINE
  5
10C
330
6B
100
AcDbEntity
  8
0
 62
     7
100
AcDbLine
 10
1330.986733
 20
102.392192
 30
0.0
 11
1331.986733
 21
100.660141
 31
0.0
  0
LINE
  5
10D
330
6B
100
AcDbEntity
  8
0
 62
     7
100
AcDbLine
 10
1325.586733
 20
102.392192
 30
0.0
 11
1324.586733
 21
100.660141
 31
0.0
  0
LINE
  5
10E
330
6B
100
AcDbEntity
  8
0
 62
     7
100
AcDbLine
 10
1332.96327
 20
104.368729
 30
0.0
 11
1334.695321
 21
103.368729
 31
0.0
  0
LINE
  5
10F
330
6B
100
AcDbEntity
  8
0
 62
     7
100
AcDbLine
 10
1323.610195
 20
104.368729
 30
0.0
 11
1321.878145
 21
103.368729
 31
0.0
  0
LINE
  5
110
330
6B
100
AcDbEntity
  8
0
 62
     7
100
AcDbLine
 10
1322.886733
 20
107.068729
 30
0.0
 11
1320.886733
 21
107.068729
 31
0.0
  0
LINE
  5
111
330
6B
100
AcDbEntity
  8
0
 62
     7
100
AcDbLine
 10
1345.686733
 20
102.668729
 30
0.0
 11
1349.286733
 21
102.668729
 31
0.0
  0
LINE
  5
112
330
6B
100
AcDbEntity
  8
0
 62
     7
100
AcDbLine
 10
1349.286733
 20
111.468729
 30
0.0
 11
1345.686733
 21
111.468729
 31
0.0
  0
LINE
  5
113
330
6B
100
AcDbEntity
  8
0
 62
     7
100
AcDbLine
 10
1349.286733
 20
111.468729
 30
0.0
 11
1349.286733
 21
102.668729
 31
0.0
  0
LINE
  5
114
330
6B
100
AcDbEntity
  8
0
 62
     7
100
AcDbLine
 10
1345.686733
 20
111.468729
 30
0.0
 11
1345.686733
 21
102.668729
 31
0.0
  0
LINE
  5
115
330
6B
100
AcDbEntity
  8
0
 62
     7
100
AcDbLine
 10
1349.286733
 20
108.695273
 30
0.0
 11
1345.686733
 21
108.695273
 31
0.0
  0
CIRCLE
  5
116
330
6B
100
AcDbEntity
  8
0
 62
     7
100
AcDbCircle
 10
1347.486733
 20
112.468729
 30
0.0
 40
0.4
  0
LINE
  5
117
330
6B
100
AcDbEntity
  8
0
 62
     7
100
AcDbLine
 10
1268.286733
 20
100.068729
 30
0.0
 11
1315.486733
 21
100.068729
 31
0.0
  0
LINE
  5
118
330
6B
100
AcDbEntity
  8
0
 62
     7
100
AcDbLine
 10
1268.286733
 20
99.26872900000001
 30
0.0
 11
1315.486733
 21
99.26872900000001
 31
0.0
  0
LINE
  5
119
330
6B
100
AcDbEntity
  8
0
 62
     7
100
AcDbLine
 10
1315.486733
 20
100.068729
 30
0.0
 11
1315.486733
 21
99.26872900000001
 31
0.0
  0
LINE
  5
11A
330
6B
100
AcDbEntity
  8
0
 62
     7
100
AcDbLine
 10
1268.286733
 20
100.068729
 30
0.0
 11
1268.286733
 21
99.26872900000001
 31
0.0
  0
LINE
  5
11B
330
6B
100
AcDbEntity
  8
0
 62
     7
100
AcDbLine
 10
1310.686733
 20
68.06872900000001
 30
0.0
 11
1310.686733
 21
90.46872900000002
 31
0.0
  0
LINE
  5
11C
330
6B
100
AcDbEntity
  8
0
 62
     7
100
AcDbLine
 10
1309.086733
 20
68.06872900000001
 30
0.0
 11
1309.086733
 21
90.46872900000002
 31
0.0
  0
LINE
  5
11D
330
6B
100
AcDbEntity
  8
0
 62
     7
100
AcDbLine
 10
1357.886733
 20
65.66872899999999
 30
0.0
 11
1357.486733
 21
65.66872899999999
 31
0.0
  0
LINE
  5
11E
330
6B
100
AcDbEntity
  8
0
 62
     7
100
AcDbLine
 10
1265.286733
 20
66.868729
 30
0.0
 11
1307.886733
 21
66.868729
 31
0.0
  0
LINE
  5
11F
330
6B
100
AcDbEntity
  8
0
 62
     7
100
AcDbLine
 10
1265.286733
 20
91.66872899999999
 30
0.0
 11
1307.886733
 21
91.66872899999999
 31
0.0
  0
LINE
  5
120
330
6B
100
AcDbEntity
  8
0
 62
     7
100
AcDbLine
 10
1355.686733
 20
90.46872900000002
 30
0.0
 11
1355.686733
 21
68.06872900000001
 31
0.0
  0
LINE
  5
121
330
6B
100
AcDbEntity
  8
0
 62
     7
100
AcDbLine
 10
1264.086733
 20
68.06872900000001
 30
0.0
 11
1264.086733
 21
90.46872900000002
 31
0.0
  0
LINE
  5
122
330
6B
100
AcDbEntity
  8
0
 62
     7
100
AcDbLine
 10
1311.886733
 20
91.66872899999999
 30
0.0
 11
1354.486733
 21
91.66872899999999
 31
0.0
  0
LINE
  5
123
330
6B
100
AcDbEntity
  8
0
 62
     7
100
AcDbLine
 10
1311.886733
 20
66.868729
 30
0.0
 11
1354.486733
 21
66.868729
 31
0.0
  0
LINE
  5
124
330
6B
100
AcDbEntity
  8
0
 62
     7
100
AcDbLine
 10
1303.286733
 20
71.46872900000001
 30
0.0
 11
1301.286733
 21
71.46872900000001
 31
0.0
  0
LINE
  5
125
330
6B
100
AcDbEntity
  8
0
 62
     7
100
AcDbLine
 10
1303.286733
 20
72.552649
 30
0.0
 11
1303.286733
 21
71.46872900000001
 31
0.0
  0
LINE
  5
126
330
6B
100
AcDbEntity
  8
0
 62
     7
100
AcDbLine
 10
1301.286733
 20
72.552649
 30
0.0
 11
1301.286733
 21
71.46872900000001
 31
0.0
  0
LINE
  5
127
330
6B
100
AcDbEntity
  8
0
 62
     7
100
AcDbLine
 10
1303.086733
 20
86.66872899999999
 30
0.0
 11
1301.486733
 21
86.66872899999999
 31
0.0
  0
LINE
  5
128
330
6B
100
AcDbEntity
  8
0
 62
     7
100
AcDbLine
 10
1303.086733
 20
86.66872899999999
 30
0.0
 11
1303.486733
 21
84.347504
 31
0.0
  0
LINE
  5
129
330
6B
100
AcDbEntity
  8
0
 62
     7
100
AcDbLine
 10
1301.486733
 20
86.66872899999999
 30
0.0
 11
1301.086733
 21
84.347504
 31
0.0
  0
LINE
  5
12A
330
6B
100
AcDbEntity
  8
0
 62
     7
100
AcDbLine
 10
1302.749766
 20
86.268729
 30
0.0
 11
1301.823699
 21
86.268729
 31
0.0
  0
LINE
  5
12B
330
6B
100
AcDbEntity
  8
0
 62
     7
100
AcDbLine
 10
1302.818695
 20
85.86872900000001
 30
0.0
 11
1301.75477
 21
85.86872900000001
 31
0.0
  0
LINE
  5
12C
330
6B
100
AcDbEntity
  8
0
 62
     7
100
AcDbLine
 10
1302.887624
 20
85.46872900000002
 30
0.0
 11
1301.685841
 21
85.46872900000002
 31
0.0
  0
LINE
  5
12D
330
6B
100
AcDbEntity
  8
0
 62
     7
100
AcDbLine
 10
1302.956554
 20
85.06872900000001
 30
0.0
 11
1301.616912
 21
85.06872900000001
 31
0.0
  0
LINE
  5
12E
330
6B
100
AcDbEntity
  8
0
 62
     7
100
AcDbLine
 10
1313.046733
 20
90.46872900000002
 30
0.0
 11
1353.326733
 21
90.46872900000002
 31
0.0
  0
LINE
  5
12F
330
6B
100
AcDbEntity
  8
0
 62
     7
100
AcDbLine
 10
1266.446733
 20
90.46872900000002
 30
0.0
 11
1306.726733
 21
90.46872900000002
 31
0.0
  0
LINE
  5
130
330
6B
100
AcDbEntity
  8
0
 62
     7
100
AcDbLine
 10
1313.046733
 20
88.14872900000001
 30
0.0
 11
1353.326733
 21
88.14872900000001
 31
0.0
  0
LINE
  5
131
330
6B
100
AcDbEntity
  8
0
 62
     7
100
AcDbLine
 10
1266.446733
 20
88.14872900000001
 30
0.0
 11
1306.726733
 21
88.14872900000001
 31
0.0
  0
ARC
  5
132
330
6B
100
AcDbEntity
  8
0
 62
     7
100
AcDbCircle
 10
1353.326733
 20
89.308729
 30
0.0
 40
1.159999999999999
100
AcDbArc
 50
270.0
 51
90.0
  0
ARC
  5
133
330
6B
100
AcDbEntity
  8
0
 62
     7
100
AcDbCircle
 10
1313.046733
 20
89.308729
 30
0.0
 40
1.159999999999999
100
AcDbArc
 50
90.0
 51
270.0
  0
ARC
  5
134
330
6B
100
AcDbEntity
  8
0
 62
     7
100
AcDbCircle
 10
1306.726733
 20
89.308729
 30
0.0
 40
1.159999999999999
100
AcDbArc
 50
270.0
 51
90.0
  0
ARC
  5
135
330
6B
100
AcDbEntity
  8
0
 62
     7
100
AcDbCircle
 10
1266.446733
 20
89.308729
 30
0.0
 40
1.159999999999999
100
AcDbArc
 50
90.0
 51
270.0
  0
LINE
  5
136
330
6B
100
AcDbEntity
  8
0
 62
     7
100
AcDbLine
 10
1334.286733
 20
82.068729
 30
0.0
 11
1313.486733
 21
82.068729
 31
0.0
  0
LINE
  5
137
330
6B
100
AcDbEntity
  8
0
 62
     7
100
AcDbLine
 10
1334.286733
 20
81.268729
 30
0.0
 11
1313.486733
 21
81.268729
 31
0.0
  0
LINE
  5
138
330
6B
100
AcDbEntity
  8
0
 62
     7
100
AcDbLine
 10
1334.286733
 20
78.06872900000001
 30
0.0
 11
1313.486733
 21
78.06872900000001
 31
0.0
  0
CIRCLE
  5
139
330
6B
100
AcDbEntity
  8
0
 62
     7
100
AcDbCircle
 10
1312.126733
 20
78.46872900000001
 30
0.0
 40
1.0
  0
CIRCLE
  5
13A
330
6B
100
AcDbEntity
  8
0
 62
     7
100
AcDbCircle
 10
1335.646733
 20
78.46872900000001
 30
0.0
 40
1.0
  0
LINE
  5
13B
330
6B
100
AcDbEntity
  8
0
 62
     7
100
AcDbLine
 10
1331.086733
 20
80.168729
 30
0.0
 11
1331.686733
 21
80.168729
 31
0.0
  0
LINE
  5
13C
330
6B
100
AcDbEntity
  8
0
 62
     7
100
AcDbLine
 10
1331.086733
 20
79.168729
 30
0.0
 11
1331.686733
 21
79.168729
 31
0.0
  0
ARC
  5
13D
330
6B
100
AcDbEntity
  8
0
 62
     7
100
AcDbCircle
 10
1331.686733
 20
79.668729
 30
0.0
 40
0.5
100
AcDbArc
 50
270.0
 51
90.0
  0
ARC
  5
13E
330
6B
100
AcDbEntity
  8
0
 62
     7
100
AcDbCircle
 10
1331.086733
 20
79.668729
 30
0.0
 40
0.5
100
AcDbArc
 50
90.0
 51
270.0
  0
LINE
  5
13F
330
6B
100
AcDbEntity
  8
0
 62
     7
100
AcDbLine
 10
1326.086733
 20
79.168729
 30
0.0
 11
1326.686733
 21
79.168729
 31
0.0
  0
LINE
  5
140
330
6B
100
AcDbEntity
  8
0
 62
     7
100
AcDbLine
 10
1326.086733
 20
80.168729
 30
0.0
 11
1326.686733
 21
80.168729
 31
0.0
  0
ARC
  5
141
330
6B
100
AcDbEntity
  8
0
 62
     7
100
AcDbCircle
 10
1326.686733
 20
79.668729
 30
0.0
 40
0.5
100
AcDbArc
 50
270.0
 51
90.0
  0
ARC
  5
142
330
6B
100
AcDbEntity
  8
0
 62
     7
100
AcDbCircle
 10
1326.086733
 20
79.668729
 30
0.0
 40
0.5
100
AcDbArc
 50
90.0
 51
270.0
  0
LINE
  5
143
330
6B
100
AcDbEntity
  8
0
 62
     7
100
AcDbLine
 10
1321.086733
 20
79.168729
 30
0.0
 11
1321.686733
 21
79.168729
 31
0.0
  0
LINE
  5
144
330
6B
100
AcDbEntity
  8
0
 62
     7
100
AcDbLine
 10
1321.086733
 20
80.168729
 30
0.0
 11
1321.686733
 21
80.168729
 31
0.0
  0
ARC
  5
145
330
6B
100
AcDbEntity
  8
0
 62
     7
100
AcDbCircle
 10
1321.686733
 20
79.668729
 30
0.0
 40
0.5
100
AcDbArc
 50
270.0
 51
90.0
  0
ARC
  5
146
330
6B
100
AcDbEntity
  8
0
 62
     7
100
AcDbCircle
 10
1321.086733
 20
79.668729
 30
0.0
 40
0.5
100
AcDbArc
 50
90.0
 51
270.0
  0
LINE
  5
147
330
6B
100
AcDbEntity
  8
0
 62
     7
100
AcDbLine
 10
1316.086733
 20
79.168729
 30
0.0
 11
1316.686733
 21
79.168729
 31
0.0
  0
LINE
  5
148
330
6B
100
AcDbEntity
  8
0
 62
     7
100
AcDbLine
 10
1316.086733
 20
80.168729
 30
0.0
 11
1316.686733
 21
80.168729
 31
0.0
  0
ARC
  5
149
330
6B
100
AcDbEntity
  8
0
 62
     7
100
AcDbCircle
 10
1316.686733
 20
79.668729
 30
0.0
 40
0.5
100
AcDbArc
 50
270.0
 51
90.0
  0
ARC
  5
14A
330
6B
100
AcDbEntity
  8
0
 62
     7
100
AcDbCircle
 10
1316.086733
 20
79.668729
 30
0.0
 40
0.5
100
AcDbArc
 50
90.0
 51
270.0
  0
LINE
  5
14B
330
6B
100
AcDbEntity
  8
0
 62
     7
100
AcDbLine
 10
1332.986733
 20
80.86872900000001
 30
0.0
 11
1329.786733
 21
80.86872900000001
 31
0.0
  0
LINE
  5
14C
330
6B
100
AcDbEntity
  8
0
 62
     7
100
AcDbLine
 10
1329.786733
 20
78.46872900000001
 30
0.0
 11
1332.986733
 21
78.46872900000001
 31
0.0
  0
LINE
  5
14D
330
6B
100
AcDbEntity
  8
0
 62
     7
100
AcDbLine
 10
1332.986733
 20
80.86872900000001
 30
0.0
 11
1332.986733
 21
78.46872900000001
 31
0.0
  0
LINE
  5
14E
330
6B
100
AcDbEntity
  8
0
 62
     7
100
AcDbLine
 10
1329.786733
 20
80.86872900000001
 30
0.0
 11
1329.786733
 21
78.46872900000001
 31
0.0
  0
LINE
  5
14F
330
6B
100
AcDbEntity
  8
0
 62
     7
100
AcDbLine
 10
1332.986733
 20
80.86872900000001
 30
0.0
 11
1331.951914
 21
80.092615
 31
0.0
  0
LINE
  5
150
330
6B
100
AcDbEntity
  8
0
 62
     7
100
AcDbLine
 10
1329.786733
 20
80.86872900000001
 30
0.0
 11
1330.821552
 21
80.092615
 31
0.0
  0
LINE
  5
151
330
6B
100
AcDbEntity
  8
0
 62
     7
100
AcDbLine
 10
1330.821552
 20
79.244843
 30
0.0
 11
1329.786733
 21
78.46872900000001
 31
0.0
  0
LINE
  5
152
330
6B
100
AcDbEntity
  8
0
 62
     7
100
AcDbLine
 10
1331.951914
 20
79.244843
 30
0.0
 11
1332.986733
 21
78.46872900000001
 31
0.0
  0
LINE
  5
153
330
6B
100
AcDbEntity
  8
0
 62
     7
100
AcDbLine
 10
1324.786733
 20
80.86872900000001
 30
0.0
 11
1324.786733
 21
78.46872900000001
 31
0.0
  0
LINE
  5
154
330
6B
100
AcDbEntity
  8
0
 62
     7
100
AcDbLine
 10
1327.986733
 20
80.86872900000001
 30
0.0
 11
1327.986733
 21
78.46872900000001
 31
0.0
  0
LINE
  5
155
330
6B
100
AcDbEntity
  8
0
 62
     7
100
AcDbLine
 10
1327.986733
 20
80.86872900000001
 30
0.0
 11
1324.786733
 21
80.86872900000001
 31
0.0
  0
LINE
  5
156
330
6B
100
AcDbEntity
  8
0
 62
     7
100
AcDbLine
 10
1324.786733
 20
78.46872900000001
 30
0.0
 11
1327.986733
 21
78.46872900000001
 31
0.0
  0
LINE
  5
157
330
6B
100
AcDbEntity
  8
0
 62
     7
100
AcDbLine
 10
1327.986733
 20
80.86872900000001
 30
0.0
 11
1326.951914
 21
80.092615
 31
0.0
  0
LINE
  5
158
330
6B
100
AcDbEntity
  8
0
 62
     7
100
AcDbLine
 10
1325.821552
 20
79.244843
 30
0.0
 11
1324.786733
 21
78.46872900000001
 31
0.0
  0
LINE
  5
159
330
6B
100
AcDbEntity
  8
0
 62
     7
100
AcDbLine
 10
1324.786733
 20
80.86872900000001
 30
0.0
 11
1325.821552
 21
80.092615
 31
0.0
  0
LINE
  5
15A
330
6B
100
AcDbEntity
  8
0
 62
     7
100
AcDbLine
 10
1326.951914
 20
79.244843
 30
0.0
 11
1327.986733
 21
78.46872900000001
 31
0.0
  0
LINE
  5
15B
330
6B
100
AcDbEntity
  8
0
 62
     7
100
AcDbLine
 10
1319.786733
 20
80.86872900000001
 30
0.0
 11
1319.786733
 21
78.46872900000001
 31
0.0
  0
LINE
  5
15C
330
6B
100
AcDbEntity
  8
0
 62
     7
100
AcDbLine
 10
1322.986733
 20
80.86872900000001
 30
0.0
 11
1322.986733
 21
78.46872900000001
 31
0.0
  0
LINE
  5
15D
330
6B
100
AcDbEntity
  8
0
 62
     7
100
AcDbLine
 10
1322.986733
 20
80.86872900000001
 30
0.0
 11
1319.786733
 21
80.86872900000001
 31
0.0
  0
LINE
  5
15E
330
6B
100
AcDbEntity
  8
0
 62
     7
100
AcDbLine
 10
1319.786733
 20
78.46872900000001
 30
0.0
 11
1322.986733
 21
78.46872900000001
 31
0.0
  0
LINE
  5
15F
330
6B
100
AcDbEntity
  8
0
 62
     7
100
AcDbLine
 10
1322.986733
 20
80.86872900000001
 30
0.0
 11
1321.951914
 21
80.092615
 31
0.0
  0
LINE
  5
160
330
6B
100
AcDbEntity
  8
0
 62
     7
100
AcDbLine
 10
1320.821552
 20
79.244843
 30
0.0
 11
1319.786733
 21
78.46872900000001
 31
0.0
  0
LINE
  5
161
330
6B
100
AcDbEntity
  8
0
 62
     7
100
AcDbLine
 10
1319.786733
 20
80.86872900000001
 30
0.0
 11
1320.821552
 21
80.092615
 31
0.0
  0
LINE
  5
162
330
6B
100
AcDbEntity
  8
0
 62
     7
100
AcDbLine
 10
1321.951914
 20
79.244843
 30
0.0
 11
1322.986733
 21
78.46872900000001
 31
0.0
  0
LINE
  5
163
330
6B
100
AcDbEntity
  8
0
 62
     7
100
AcDbLine
 10
1314.786733
 20
80.86872900000001
 30
0.0
 11
1314.786733
 21
78.46872900000001
 31
0.0
  0
LINE
  5
164
330
6B
100
AcDbEntity
  8
0
 62
     7
100
AcDbLine
 10
1317.986733
 20
80.86872900000001
 30
0.0
 11
1317.986733
 21
78.46872900000001
 31
0.0
  0
LINE
  5
165
330
6B
100
AcDbEntity
  8
0
 62
     7
100
AcDbLine
 10
1317.986733
 20
80.86872900000001
 30
0.0
 11
1314.786733
 21
80.86872900000001
 31
0.0
  0
LINE
  5
166
330
6B
100
AcDbEntity
  8
0
 62
     7
100
AcDbLine
 10
1314.786733
 20
78.46872900000001
 30
0.0
 11
1317.986733
 21
78.46872900000001
 31
0.0
  0
LINE
  5
167
330
6B
100
AcDbEntity
  8
0
 62
     7
100
AcDbLine
 10
1317.986733
 20
80.86872900000001
 30
0.0
 11
1316.951914
 21
80.092615
 31
0.0
  0
LINE
  5
168
330
6B
100
AcDbEntity
  8
0
 62
     7
100
AcDbLine
 10
1315.821552
 20
79.244843
 30
0.0
 11
1314.786733
 21
78.46872900000001
 31
0.0
  0
LINE
  5
169
330
6B
100
AcDbEntity
  8
0
 62
     7
100
AcDbLine
 10
1314.786733
 20
80.86872900000001
 30
0.0
 11
1315.821552
 21
80.092615
 31
0.0
  0
LINE
  5
16A
330
6B
100
AcDbEntity
  8
0
 62
     7
100
AcDbLine
 10
1316.951914
 20
79.244843
 30
0.0
 11
1317.986733
 21
78.46872900000001
 31
0.0
  0
LINE
  5
16B
330
6B
100
AcDbEntity
  8
0
 62
     7
100
AcDbLine
 10
1317.986733
 20
75.268729
 30
0.0
 11
1314.786733
 21
75.268729
 31
0.0
  0
LINE
  5
16C
330
6B
100
AcDbEntity
  8
0
 62
     7
100
AcDbLine
 10
1317.986733
 20
78.06872900000001
 30
0.0
 11
1317.986733
 21
75.268729
 31
0.0
  0
LINE
  5
16D
330
6B
100
AcDbEntity
  8
0
 62
     7
100
AcDbLine
 10
1314.786733
 20
78.06872900000001
 30
0.0
 11
1314.786733
 21
75.268729
 31
0.0
  0
LINE
  5
16E
330
6B
100
AcDbEntity
  8
0
 62
     7
100
AcDbLine
 10
1319.786733
 20
78.06872900000001
 30
0.0
 11
1319.786733
 21
75.268729
 31
0.0
  0
LINE
  5
16F
330
6B
100
AcDbEntity
  8
0
 62
     7
100
AcDbLine
 10
1322.986733
 20
78.06872900000001
 30
0.0
 11
1322.986733
 21
75.268729
 31
0.0
  0
LINE
  5
170
330
6B
100
AcDbEntity
  8
0
 62
     7
100
AcDbLine
 10
1322.986733
 20
75.268729
 30
0.0
 11
1319.786733
 21
75.268729
 31
0.0
  0
LINE
  5
171
330
6B
100
AcDbEntity
  8
0
 62
     7
100
AcDbLine
 10
1324.786733
 20
78.06872900000001
 30
0.0
 11
1324.786733
 21
75.268729
 31
0.0
  0
LINE
  5
172
330
6B
100
AcDbEntity
  8
0
 62
     7
100
AcDbLine
 10
1327.986733
 20
78.06872900000001
 30
0.0
 11
1327.986733
 21
75.268729
 31
0.0
  0
LINE
  5
173
330
6B
100
AcDbEntity
  8
0
 62
     7
100
AcDbLine
 10
1327.986733
 20
75.268729
 30
0.0
 11
1324.786733
 21
75.268729
 31
0.0
  0
LINE
  5
174
330
6B
100
AcDbEntity
  8
0
 62
     7
100
AcDbLine
 10
1329.786733
 20
78.06872900000001
 30
0.0
 11
1329.786733
 21
75.268729
 31
0.0
  0
LINE
  5
175
330
6B
100
AcDbEntity
  8
0
 62
     7
100
AcDbLine
 10
1332.986733
 20
78.06872900000001
 30
0.0
 11
1332.986733
 21
75.268729
 31
0.0
  0
LINE
  5
176
330
6B
100
AcDbEntity
  8
0
 62
     7
100
AcDbLine
 10
1332.986733
 20
75.268729
 30
0.0
 11
1329.786733
 21
75.268729
 31
0.0
  0
LINE
  5
177
330
6B
100
AcDbEntity
  8
0
 62
     7
100
AcDbLine
 10
1332.586733
 20
75.66872899999999
 30
0.0
 11
1330.186733
 21
75.66872899999999
 31
0.0
  0
LINE
  5
178
330
6B
100
AcDbEntity
  8
0
 62
     7
100
AcDbLine
 10
1332.586733
 20
76.068729
 30
0.0
 11
1330.186733
 21
76.068729
 31
0.0
  0
LINE
  5
179
330
6B
100
AcDbEntity
  8
0
 62
     7
100
AcDbLine
 10
1332.586733
 20
76.46872900000001
 30
0.0
 11
1330.186733
 21
76.46872900000001
 31
0.0
  0
LINE
  5
17A
330
6B
100
AcDbEntity
  8
0
 62
     7
100
AcDbLine
 10
1332.586733
 20
76.868729
 30
0.0
 11
1330.186733
 21
76.868729
 31
0.0
  0
LINE
  5
17B
330
6B
100
AcDbEntity
  8
0
 62
     7
100
AcDbLine
 10
1332.586733
 20
77.268729
 30
0.0
 11
1330.186733
 21
77.268729
 31
0.0
  0
LINE
  5
17C
330
6B
100
AcDbEntity
  8
0
 62
     7
100
AcDbLine
 10
1332.586733
 20
77.668729
 30
0.0
 11
1330.186733
 21
77.668729
 31
0.0
  0
LINE
  5
17D
330
6B
100
AcDbEntity
  8
0
 62
     7
100
AcDbLine
 10
1327.586733
 20
75.66872899999999
 30
0.0
 11
1325.186733
 21
75.66872899999999
 31
0.0
  0
LINE
  5
17E
330
6B
100
AcDbEntity
  8
0
 62
     7
100
AcDbLine
 10
1327.586733
 20
76.068729
 30
0.0
 11
1325.186733
 21
76.068729
 31
0.0
  0
LINE
  5
17F
330
6B
100
AcDbEntity
  8
0
 62
     7
100
AcDbLine
 10
1327.586733
 20
76.46872900000001
 30
0.0
 11
1325.186733
 21
76.46872900000001
 31
0.0
  0
LINE
  5
180
330
6B
100
AcDbEntity
  8
0
 62
     7
100
AcDbLine
 10
1327.586733
 20
76.868729
 30
0.0
 11
1325.186733
 21
76.868729
 31
0.0
  0
LINE
  5
181
330
6B
100
AcDbEntity
  8
0
 62
     7
100
AcDbLine
 10
1327.586733
 20
77.268729
 30
0.0
 11
1325.186733
 21
77.268729
 31
0.0
  0
LINE
  5
182
330
6B
100
AcDbEntity
  8
0
 62
     7
100
AcDbLine
 10
1327.586733
 20
77.668729
 30
0.0
 11
1325.186733
 21
77.668729
 31
0.0
  0
LINE
  5
183
330
6B
100
AcDbEntity
  8
0
 62
     7
100
AcDbLine
 10
1322.586733
 20
75.66872899999999
 30
0.0
 11
1320.186733
 21
75.66872899999999
 31
0.0
  0
LINE
  5
184
330
6B
100
AcDbEntity
  8
0
 62
     7
100
AcDbLine
 10
1322.586733
 20
76.068729
 30
0.0
 11
1320.186733
 21
76.068729
 31
0.0
  0
LINE
  5
185
330
6B
100
AcDbEntity
  8
0
 62
     7
100
AcDbLine
 10
1322.586733
 20
76.46872900000001
 30
0.0
 11
1320.186733
 21
76.46872900000001
 31
0.0
  0
LINE
  5
186
330
6B
100
AcDbEntity
  8
0
 62
     7
100
AcDbLine
 10
1322.586733
 20
76.868729
 30
0.0
 11
1320.186733
 21
76.868729
 31
0.0
  0
LINE
  5
187
330
6B
100
AcDbEntity
  8
0
 62
     7
100
AcDbLine
 10
1322.586733
 20
77.268729
 30
0.0
 11
1320.186733
 21
77.268729
 31
0.0
  0
LINE
  5
188
330
6B
100
AcDbEntity
  8
0
 62
     7
100
AcDbLine
 10
1322.586733
 20
77.668729
 30
0.0
 11
1320.186733
 21
77.668729
 31
0.0
  0
LINE
  5
189
330
6B
100
AcDbEntity
  8
0
 62
     7
100
AcDbLine
 10
1317.586733
 20
75.66872899999999
 30
0.0
 11
1315.186733
 21
75.66872899999999
 31
0.0
  0
LINE
  5
18A
330
6B
100
AcDbEntity
  8
0
 62
     7
100
AcDbLine
 10
1317.586733
 20
76.068729
 30
0.0
 11
1315.186733
 21
76.068729
 31
0.0
  0
LINE
  5
18B
330
6B
100
AcDbEntity
  8
0
 62
     7
100
AcDbLine
 10
1317.586733
 20
76.46872900000001
 30
0.0
 11
1315.186733
 21
76.46872900000001
 31
0.0
  0
LINE
  5
18C
330
6B
100
AcDbEntity
  8
0
 62
     7
100
AcDbLine
 10
1317.586733
 20
76.868729
 30
0.0
 11
1315.186733
 21
76.868729
 31
0.0
  0
LINE
  5
18D
330
6B
100
AcDbEntity
  8
0
 62
     7
100
AcDbLine
 10
1317.586733
 20
77.268729
 30
0.0
 11
1315.186733
 21
77.268729
 31
0.0
  0
LINE
  5
18E
330
6B
100
AcDbEntity
  8
0
 62
     7
100
AcDbLine
 10
1317.586733
 20
77.668729
 30
0.0
 11
1315.186733
 21
77.668729
 31
0.0
  0
CIRCLE
  5
18F
330
6B
100
AcDbEntity
  8
0
 62
     7
100
AcDbCircle
 10
1347.486733
 20
78.46872900000001
 30
0.0
 40
2.6
  0
LINE
  5
190
330
6B
100
AcDbEntity
  8
0
 62
     7
100
AcDbLine
 10
1357.486733
 20
65.66872899999999
 30
0.0
 11
1357.486733
 21
123.068729
 31
0.0
  0
ARC
  5
191
330
6B
100
AcDbEntity
  8
0
 62
     7
100
AcDbCircle
 10
1355.886733
 20
123.068729
 30
0.0
 40
1.6
100
AcDbArc
 50
0.0
 51
90.0
  0
LINE
  5
192
330
6B
100
AcDbEntity
  8
0
 62
     7
100
AcDbLine
 10
1263.886733
 20
124.668729
 30
0.0
 11
1355.886733
 21
124.668729
 31
0.0
  0
ARC
  5
193
330
6B
100
AcDbEntity
  8
0
 62
     7
100
AcDbCircle
 10
1263.886733
 20
123.068729
 30
0.0
 40
1.6
100
AcDbArc
 50
90.0
 51
180.0
  0
LINE
  5
194
330
6B
100
AcDbEntity
  8
0
 62
     7
100
AcDbLine
 10
1262.286733
 20
65.66872899999999
 30
0.0
 11
1262.286733
 21
123.068729
 31
0.0
  0
LINE
  5
195
330
6B
100
AcDbEntity
  8
0
 62
     7
100
AcDbLine
 10
1262.286733
 20
65.66872899999999
 30
0.0
 11
1261.886733
 21
65.66872899999999
 31
0.0
  0
ARC
  5
196
330
6B
100
AcDbEntity
  8
0
 62
     7
100
AcDbCircle
 10
1354.486733
 20
90.46872900000002
 30
0.0
 40
1.199999999999999
100
AcDbArc
 50
0.0
 51
90.0
  0
ARC
  5
197
330
6B
100
AcDbEntity
  8
0
 62
     7
100
AcDbCircle
 10
1311.886733
 20
90.46872900000002
 30
0.0
 40
1.199999999999999
100
AcDbArc
 50
90.0
 51
180.0
  0
ARC
  5
198
330
6B
100
AcDbEntity
  8
0
 62
     7
100
AcDbCircle
 10
1311.886733
 20
68.06872900000001
 30
0.0
 40
1.199999999999999
100
AcDbArc
 50
180.0
 51
270.0
  0
ARC
  5
199
330
6B
100
AcDbEntity
  8
0
 62
     7
100
AcDbCircle
 10
1354.486733
 20
68.06872900000001
 30
0.0
 40
1.199999999999999
100
AcDbArc
 50
270.0
 51
0.0
  0
ARC
  5
19A
330
6B
100
AcDbEntity
  8
0
 62
     7
100
AcDbCircle
 10
1307.886733
 20
68.06872900000001
 30
0.0
 40
1.199999999999999
100
AcDbArc
 50
270.0
 51
0.0
  0
ARC
  5
19B
330
6B
100
AcDbEntity
  8
0
 62
     7
100
AcDbCircle
 10
1307.886733
 20
90.46872900000002
 30
0.0
 40
1.199999999999999
100
AcDbArc
 50
0.0
 51
90.0
  0
ARC
  5
19C
330
6B
100
AcDbEntity
  8
0
 62
     7
100
AcDbCircle
 10
1265.286733
 20
90.46872900000002
 30
0.0
 40
1.199999999999999
100
AcDbArc
 50
90.0
 51
180.0
  0
ARC
  5
19D
330
6B
100
AcDbEntity
  8
0
 62
     7
100
AcDbCircle
 10
1265.286733
 20
68.06872900000001
 30
0.0
 40
1.199999999999999
100
AcDbArc
 50
180.0
 51
270.0
  0
LINE
  5
19E
330
6B
100
AcDbEntity
  8
0
 62
     7
100
AcDbLine
 10
1298.886733
 20
70.06872900000001
 30
0.0
 11
1302.886733
 21
70.06872900000001
 31
0.0
  0
CIRCLE
  5
19F
330
6B
100
AcDbEntity
  8
0
 62
     7
100
AcDbCircle
 10
1302.286733
 20
70.06872900000001
 30
0.0
 40
0.6
  0
ARC
  5
1A0
330
6B
100
AcDbEntity
  8
0
 62
     7
100
AcDbCircle
 10
1302.286733
 20
70.06872900000001
 30
0.0
 40
1.0
100
AcDbArc
 50
210.0
 51
150.0
  0
LINE
  5
1A1
330
6B
100
AcDbEntity
  8
0
 62
     7
100
AcDbLine
 10
1303.286733
 20
70.06872900000001
 30
0.0
 11
1305.686733
 21
70.06872900000001
 31
0.0
  0
LINE
  5
1A2
330
6B
100
AcDbEntity
  8
0
 62
     7
100
AcDbLine
 10
1348.286733
 20
65.66872899999999
 30
0.0
 11
1347.886733
 21
63.06872900000001
 31
0.0
  0
LINE
  5
1A3
330
6B
100
AcDbEntity
  8
0
 62
     7
100
AcDbLine
 10
1341.486733
 20
65.66872899999999
 30
0.0
 11
1341.886733
 21
63.06872900000001
 31
0.0
  0
LINE
  5
1A4
330
6B
100
AcDbEntity
  8
0
 62
     7
100
AcDbLine
 10
1277.886733
 20
63.06872900000001
 30
0.0
 11
1271.886733
 21
63.06872900000001
 31
0.0
  0
LINE
  5
1A5
330
6B
100
AcDbEntity
  8
0
 62
     7
100
AcDbLine
 10
1278.286733
 20
65.66872899999999
 30
0.0
 11
1277.886733
 21
63.06872900000001
 31
0.0
  0
LINE
  5
1A6
330
6B
100
AcDbEntity
  8
0
 62
     7
100
AcDbLine
 10
1271.486733
 20
65.66872899999999
 30
0.0
 11
1271.886733
 21
63.06872900000001
 31
0.0
  0
TEXT
  5
1F2
330
6B
100
AcDbEntity
  8
0
 62
     7
100
AcDbText
 10
1352.417959
 20
111.390026
 30
0.0
 40
1.199999999999999
  1
ON
100
AcDbText
  0
TEXT
  5
1F3
330
6B
100
AcDbEntity
  8
0
 62
     7
100
AcDbText
 10
1352.550814
 20
102.493086
 30
0.0
 40
1.199999999999999
  1
OFF
100
AcDbText
  0
TEXT
  5
1F4
330
6B
100
AcDbEntity
  8
0
 62
     7
100
AcDbText
 10
1325.182522
 20
97.44706
 30
0.0
 40
1.399999999999999
  1
V.ADJ.
100
AcDbText
  0
TEXT
  5
1F5
330
6B
100
AcDbEntity
  8
0
 62
     7
100
AcDbText
 10
1320.260188
 20
88.65627899999999
 30
0.0
 40
1.32
  1
MAX.6A
100
AcDbText
  0
TEXT
  5
1F6
330
6B
100
AcDbEntity
  8
0
 62
     7
100
AcDbText
 10
1345.205173
 20
88.73087899999999
 30
0.0
 40
1.32
  1
FUSE
100
AcDbText
  0
TEXT
  5
1F7
330
6B
100
AcDbEntity
  8
0
 62
     7
100
AcDbText
 10
1289.03405
 20
96.59598800000001
 30
0.0
 40
1.399999999999999
  1
METER
100
AcDbText
  0
TEXT
  5
1F8
330
6B
100
AcDbEntity
  8
0
 62
     7
100
AcDbText
 10
1297.997167
 20
88.53050899999999
 30
0.0
 40
1.32
  1
MAX.10A
100
AcDbText
  0
TEXT
  5
1F9
330
6B
100
AcDbEntity
  8
0
 62
     7
100
AcDbText
 10
1275.362851
 20
88.55669799999999
 30
0.0
 40
1.32
  1
DC OUTPUT
100
AcDbText
  0
TEXT
  5
1FA
330
6B
100
AcDbEntity
  8
0
 62
     7
100
AcDbText
 10
1279.274457
 20
83.22552100000001
 30
0.0
 40
1.0
  1
MAX.60A
100
AcDbText
  0
TEXT
  5
1FB
330
6B
100
AcDbEntity
  8
0
 62
     7
100
AcDbText
 10
1344.88707
 20
72.81098399999999
 30
0.0
 40
0.8
  1
FUSE 15A
100
AcDbText
  0
TEXT
  5
1FC
330
6B
100
AcDbEntity
  8
0
 62
     7
100
AcDbText
 10
1345.068408
 20
71.17974499999999
 30
0.0
 40
0.8
  1
AC 100V
100
AcDbText
  0
TEXT
  5
1FD
330
6B
100
AcDbEntity
  8
0
 62
     7
100
AcDbText
 10
1345.322282
 20
69.65725500000001
 30
0.0
 40
0.8
  1
50/60Hz
100
AcDbText
  0
TEXT
  5
1FE
330
6B
100
AcDbEntity
  8
0
 62
     7
100
AcDbText
 10
1330.597391
 20
69.07964799999999
 30
0.0
 40
2.399999999999999
  1
+
100
AcDbText
  0
TEXT
  5
1FF
330
6B
100
AcDbEntity
  8
0
 62
     7
100
AcDbText
 10
1325.452099
 20
69.14393299999999
 30
0.0
 40
2.399999999999999
  1
-
100
AcDbText
  0
TEXT
  5
200
330
6B
100
AcDbEntity
  8
0
 62
     7
100
AcDbText
 10
1315.579569
 20
69.04750599999999
 30
0.0
 40
2.399999999999999
  1
+
100
AcDbText
  0
TEXT
  5
201
330
6B
100
AcDbEntity
  8
0
 62
     7
100
AcDbText
 10
1320.499756
 20
69.111791
 30
0.0
 40
2.399999999999999
  1
-
100
AcDbText
  0
TEXT
  5
202
330
6B
100
AcDbEntity
  8
0
 62
     7
100
AcDbText
 10
1296.748931
 20
68.965317
 30
0.0
 40
2.399999999999999
  1
+
100
AcDbText
  0
TEXT
  5
203
330
6B
100
AcDbEntity
  8
0
 62
     7
100
AcDbText
 10
1273.395651
 20
68.718749
 30
0.0
 40
2.399999999999999
  1
+
100
AcDbText
  0
TEXT
  5
204
330
6B
100
AcDbEntity
  8
0
 62
     7
100
AcDbText
 10
1306.292542
 20
68.979554
 30
0.0
 40
2.399999999999999
  1
-
100
AcDbText
  0
TEXT
  5
205
330
6B
100
AcDbEntity
  8
0
 62
     7
100
AcDbText
 10
1287.379675
 20
68.65079699999999
 30
0.0
 40
2.399999999999999
  1
-
100
AcDbText
  0
LINE
  5
206
330
6B
100
AcDbEntity
  8
0
 62
     7
100
AcDbLine
 10
1348.816162
 20
78.76872900000001
 30
0.0
 11
1347.786733
 21
78.76872900000001
 31
0.0
  0
LINE
  5
207
330
6B
100
AcDbEntity
  8
0
 62
     7
100
AcDbLine
 10
1348.816162
 20
78.16872899999999
 30
0.0
 11
1347.786733
 21
78.16872899999999
 31
0.0
  0
LINE
  5
208
330
6B
100
AcDbEntity
  8
0
 62
     7
100
AcDbLine
 10
1347.786733
 20
77.139299
 30
0.0
 11
1347.786733
 21
78.16872899999999
 31
0.0
  0
LINE
  5
209
330
6B
100
AcDbEntity
  8
0
 62
     7
100
AcDbLine
 10
1347.186733
 20
77.139299
 30
0.0
 11
1347.186733
 21
78.16872899999999
 31
0.0
  0
ARC
  5
20A
330
6B
100
AcDbEntity
  8
0
 62
     7
100
AcDbCircle
 10
1347.486733
 20
78.46872900000001
 30
0.0
 40
1.362859
100
AcDbArc
 50
347.283592
 51
12.716408
  0
ARC
  5
20B
330
6B
100
AcDbEntity
  8
0
 62
     7
100
AcDbCircle
 10
1347.486733
 20
78.46872900000001
 30
0.0
 40
1.362859
100
AcDbArc
 50
257.283592
 51
282.716408
  0
ARC
  5
20C
330
6B
100
AcDbEntity
  8
0
 62
     7
100
AcDbCircle
 10
1347.486733
 20
78.46872900000001
 30
0.0
 40
1.362859
100
AcDbArc
 50
167.283592
 51
192.716408
  0
ARC
  5
20D
330
6B
100
AcDbEntity
  8
0
 62
     7
100
AcDbCircle
 10
1347.486733
 20
78.46872900000001
 30
0.0
 40
1.362859
100
AcDbArc
 50
77.28359199999999
 51
102.716408
  0
LINE
  5
20E
330
6B
100
AcDbEntity
  8
0
 62
     7
100
AcDbLine
 10
1347.186733
 20
78.76872900000001
 30
0.0
 11
1346.157303
 21
78.76872900000001
 31
0.0
  0
LINE
  5
20F
330
6B
100
AcDbEntity
  8
0
 62
     7
100
AcDbLine
 10
1347.186733
 20
78.76872900000001
 30
0.0
 11
1347.186733
 21
79.798159
 31
0.0
  0
LINE
  5
210
330
6B
100
AcDbEntity
  8
0
 62
     7
100
AcDbLine
 10
1347.186733
 20
78.16872899999999
 30
0.0
 11
1346.157303
 21
78.16872899999999
 31
0.0
  0
LINE
  5
211
330
6B
100
AcDbEntity
  8
0
 62
     7
100
AcDbLine
 10
1347.786733
 20
78.76872900000001
 30
0.0
 11
1347.786733
 21
79.798159
 31
0.0
  0
LINE
  5
212
330
6B
100
AcDbEntity
  8
0
 62
     7
100
AcDbLine
 10
1482.661728
 20
94.368729
 30
0.0
 11
1455.661728
 21
94.368729
 31
0.0
  0
LINE
  5
213
330
6B
100
AcDbEntity
  8
0
 62
     7
100
AcDbLine
 10
1453.661728
 20
92.36872899999999
 30
0.0
 11
1453.661728
 21
91.168729
 31
0.0
  0
LINE
  5
214
330
6B
100
AcDbEntity
  8
0
 62
     7
100
AcDbLine
 10
1484.661728
 20
92.36872899999999
 30
0.0
 11
1484.661728
 21
91.168729
 31
0.0
  0
ARC
  5
215
330
6B
100
AcDbEntity
  8
0
 62
     7
100
AcDbCircle
 10
1482.661728
 20
92.36872899999999
 30
0.0
 40
2.0
100
AcDbArc
 50
0.0
 51
90.0
  0
ARC
  5
216
330
6B
100
AcDbEntity
  8
0
 62
     7
100
AcDbCircle
 10
1455.661728
 20
92.36872899999999
 30
0.0
 40
2.0
100
AcDbArc
 50
90.0
 51
180.0
  0
LINE
  5
217
330
6B
100
AcDbEntity
  8
0
 62
     7
100
AcDbLine
 10
1484.661728
 20
87.96872900000002
 30
0.0
 11
1484.661728
 21
86.76872900000001
 31
0.0
  0
LINE
  5
218
330
6B
100
AcDbEntity
  8
0
 62
     7
100
AcDbLine
 10
1482.661728
 20
89.96872900000001
 30
0.0
 11
1455.661728
 21
89.96872900000001
 31
0.0
  0
LINE
  5
219
330
6B
100
AcDbEntity
  8
0
 62
     7
100
AcDbLine
 10
1453.661728
 20
87.96872900000002
 30
0.0
 11
1453.661728
 21
86.76872900000001
 31
0.0
  0
ARC
  5
21A
330
6B
100
AcDbEntity
  8
0
 62
     7
100
AcDbCircle
 10
1482.661728
 20
87.96872900000002
 30
0.0
 40
2.0
100
AcDbArc
 50
0.0
 51
90.0
  0
ARC
  5
21B
330
6B
100
AcDbEntity
  8
0
 62
     7
100
AcDbCircle
 10
1455.661728
 20
87.96872900000002
 30
0.0
 40
2.0
100
AcDbArc
 50
90.0
 51
180.0
  0
LINE
  5
21C
330
6B
100
AcDbEntity
  8
0
 62
     7
100
AcDbLine
 10
1484.661728
 20
83.568729
 30
0.0
 11
1484.661728
 21
82.36872899999999
 31
0.0
  0
LINE
  5
21D
330
6B
100
AcDbEntity
  8
0
 62
     7
100
AcDbLine
 10
1482.661728
 20
85.568729
 30
0.0
 11
1455.661728
 21
85.568729
 31
0.0
  0
LINE
  5
21E
330
6B
100
AcDbEntity
  8
0
 62
     7
100
AcDbLine
 10
1453.661728
 20
83.568729
 30
0.0
 11
1453.661728
 21
82.36872899999999
 31
0.0
  0
ARC
  5
21F
330
6B
100
AcDbEntity
  8
0
 62
     7
100
AcDbCircle
 10
1482.661728
 20
83.568729
 30
0.0
 40
2.0
100
AcDbArc
 50
0.0
 51
90.0
  0
ARC
  5
220
330
6B
100
AcDbEntity
  8
0
 62
     7
100
AcDbCircle
 10
1455.661728
 20
83.568729
 30
0.0
 40
2.0
100
AcDbArc
 50
90.0
 51
180.0
  0
LINE
  5
221
330
6B
100
AcDbEntity
  8
0
 62
     7
100
AcDbLine
 10
1484.661728
 20
79.168729
 30
0.0
 11
1484.661728
 21
77.96872900000001
 31
0.0
  0
LINE
  5
222
330
6B
100
AcDbEntity
  8
0
 62
     7
100
AcDbLine
 10
1482.661728
 20
81.168729
 30
0.0
 11
1455.661728
 21
81.168729
 31
0.0
  0
LINE
  5
223
330
6B
100
AcDbEntity
  8
0
 62
     7
100
AcDbLine
 10
1453.661728
 20
79.168729
 30
0.0
 11
1453.661728
 21
77.96872900000001
 31
0.0
  0
ARC
  5
224
330
6B
100
AcDbEntity
  8
0
 62
     7
100
AcDbCircle
 10
1482.661728
 20
79.168729
 30
0.0
 40
2.0
100
AcDbArc
 50
0.0
 51
90.0
  0
ARC
  5
225
330
6B
100
AcDbEntity
  8
0
 62
     7
100
AcDbCircle
 10
1455.661728
 20
79.168729
 30
0.0
 40
2.0
100
AcDbArc
 50
90.0
 51
180.0
  0
LINE
  5
226
330
6B
100
AcDbEntity
  8
0
 62
     7
100
AcDbLine
 10
1484.661728
 20
74.768729
 30
0.0
 11
1484.661728
 21
73.568729
 31
0.0
  0
LINE
  5
227
330
6B
100
AcDbEntity
  8
0
 62
     7
100
AcDbLine
 10
1482.661728
 20
76.76872900000001
 30
0.0
 11
1455.661728
 21
76.76872900000001
 31
0.0
  0
LINE
  5
228
330
6B
100
AcDbEntity
  8
0
 62
     7
100
AcDbLine
 10
1453.661728
 20
74.768729
 30
0.0
 11
1453.661728
 21
73.568729
 31
0.0
  0
ARC
  5
229
330
6B
100
AcDbEntity
  8
0
 62
     7
100
AcDbCircle
 10
1482.661728
 20
74.768729
 30
0.0
 40
2.0
100
AcDbArc
 50
0.0
 51
90.0
  0
ARC
  5
22A
330
6B
100
AcDbEntity
  8
0
 62
     7
100
AcDbCircle
 10
1455.661728
 20
74.768729
 30
0.0
 40
2.0
100
AcDbArc
 50
90.0
 51
180.0
  0
LINE
  5
22B
330
6B
100
AcDbEntity
  8
0
 62
     7
100
AcDbLine
 10
1406.661728
 20
92.36872899999999
 30
0.0
 11
1406.661728
 21
91.168729
 31
0.0
  0
LINE
  5
22C
330
6B
100
AcDbEntity
  8
0
 62
     7
100
AcDbLine
 10
1408.661728
 20
94.368729
 30
0.0
 11
1435.661728
 21
94.368729
 31
0.0
  0
LINE
  5
22D
330
6B
100
AcDbEntity
  8
0
 62
     7
100
AcDbLine
 10
1437.661728
 20
92.36872899999999
 30
0.0
 11
1437.661728
 21
91.168729
 31
0.0
  0
ARC
  5
22E
330
6B
100
AcDbEntity
  8
0
 62
     7
100
AcDbCircle
 10
1408.661728
 20
92.36872899999999
 30
0.0
 40
2.0
100
AcDbArc
 50
90.0
 51
180.0
  0
ARC
  5
22F
330
6B
100
AcDbEntity
  8
0
 62
     7
100
AcDbCircle
 10
1435.661728
 20
92.36872899999999
 30
0.0
 40
2.0
100
AcDbArc
 50
0.0
 51
90.0
  0
LINE
  5
230
330
6B
100
AcDbEntity
  8
0
 62
     7
100
AcDbLine
 10
1406.661728
 20
87.96872900000002
 30
0.0
 11
1406.661728
 21
86.76872900000001
 31
0.0
  0
LINE
  5
231
330
6B
100
AcDbEntity
  8
0
 62
     7
100
AcDbLine
 10
1408.661728
 20
89.96872900000001
 30
0.0
 11
1435.661728
 21
89.96872900000001
 31
0.0
  0
LINE
  5
232
330
6B
100
AcDbEntity
  8
0
 62
     7
100
AcDbLine
 10
1437.661728
 20
87.96872900000002
 30
0.0
 11
1437.661728
 21
86.76872900000001
 31
0.0
  0
ARC
  5
233
330
6B
100
AcDbEntity
  8
0
 62
     7
100
AcDbCircle
 10
1408.661728
 20
87.96872900000002
 30
0.0
 40
2.0
100
AcDbArc
 50
90.0
 51
180.0
  0
ARC
  5
234
330
6B
100
AcDbEntity
  8
0
 62
     7
100
AcDbCircle
 10
1435.661728
 20
87.96872900000002
 30
0.0
 40
2.0
100
AcDbArc
 50
0.0
 51
90.0
  0
LINE
  5
235
330
6B
100
AcDbEntity
  8
0
 62
     7
100
AcDbLine
 10
1406.661728
 20
83.568729
 30
0.0
 11
1406.661728
 21
82.36872899999999
 31
0.0
  0
LINE
  5
236
330
6B
100
AcDbEntity
  8
0
 62
     7
100
AcDbLine
 10
1408.661728
 20
85.568729
 30
0.0
 11
1435.661728
 21
85.568729
 31
0.0
  0
LINE
  5
237
330
6B
100
AcDbEntity
  8
0
 62
     7
100
AcDbLine
 10
1437.661728
 20
83.568729
 30
0.0
 11
1437.661728
 21
82.36872899999999
 31
0.0
  0
ARC
  5
238
330
6B
100
AcDbEntity
  8
0
 62
     7
100
AcDbCircle
 10
1408.661728
 20
83.568729
 30
0.0
 40
2.0
100
AcDbArc
 50
90.0
 51
180.0
  0
ARC
  5
239
330
6B
100
AcDbEntity
  8
0
 62
     7
100
AcDbCircle
 10
1435.661728
 20
83.568729
 30
0.0
 40
2.0
100
AcDbArc
 50
0.0
 51
90.0
  0
LINE
  5
23A
330
6B
100
AcDbEntity
  8
0
 62
     7
100
AcDbLine
 10
1406.661728
 20
79.168729
 30
0.0
 11
1406.661728
 21
77.96872900000001
 31
0.0
  0
LINE
  5
23B
330
6B
100
AcDbEntity
  8
0
 62
     7
100
AcDbLine
 10
1408.661728
 20
81.168729
 30
0.0
 11
1435.661728
 21
81.168729
 31
0.0
  0
LINE
  5
23C
330
6B
100
AcDbEntity
  8
0
 62
     7
100
AcDbLine
 10
1437.661728
 20
79.168729
 30
0.0
 11
1437.661728
 21
77.96872900000001
 31
0.0
  0
ARC
  5
23D
330
6B
100
AcDbEntity
  8
0
 62
     7
100
AcDbCircle
 10
1408.661728
 20
79.168729
 30
0.0
 40
2.0
100
AcDbArc
 50
90.0
 51
180.0
  0
ARC
  5
23E
330
6B
100
AcDbEntity
  8
0
 62
     7
100
AcDbCircle
 10
1435.661728
 20
79.168729
 30
0.0
 40
2.0
100
AcDbArc
 50
0.0
 51
90.0
  0
LINE
  5
23F
330
6B
100
AcDbEntity
  8
0
 62
     7
100
AcDbLine
 10
1406.661728
 20
74.768729
 30
0.0
 11
1406.661728
 21
73.568729
 31
0.0
  0
LINE
  5
240
330
6B
100
AcDbEntity
  8
0
 62
     7
100
AcDbLine
 10
1408.661728
 20
76.76872900000001
 30
0.0
 11
1435.661728
 21
76.76872900000001
 31
0.0
  0
LINE
  5
241
330
6B
100
AcDbEntity
  8
0
 62
     7
100
AcDbLine
 10
1437.661728
 20
74.768729
 30
0.0
 11
1437.661728
 21
73.568729
 31
0.0
  0
ARC
  5
242
330
6B
100
AcDbEntity
  8
0
 62
     7
100
AcDbCircle
 10
1408.661728
 20
74.768729
 30
0.0
 40
2.0
100
AcDbArc
 50
90.0
 51
180.0
  0
ARC
  5
243
330
6B
100
AcDbEntity
  8
0
 62
     7
100
AcDbCircle
 10
1435.661728
 20
74.768729
 30
0.0
 40
2.0
100
AcDbArc
 50
0.0
 51
90.0
  0
CIRCLE
  5
244
330
6B
100
AcDbEntity
  8
0
 62
     7
100
AcDbCircle
 10
1393.661728
 20
95.368729
 30
0.0
 40
1.399999999999999
  0
CIRCLE
  5
245
330
6B
100
AcDbEntity
  8
0
 62
     7
100
AcDbCircle
 10
1497.661728
 20
95.368729
 30
0.0
 40
1.399999999999999
  0
CIRCLE
  5
246
330
6B
100
AcDbEntity
  8
0
 62
     7
100
AcDbCircle
 10
1492.661728
 20
68.668729
 30
0.0
 40
1.399999999999999
  0
CIRCLE
  5
247
330
6B
100
AcDbEntity
  8
0
 62
     7
100
AcDbCircle
 10
1445.661728
 20
68.668729
 30
0.0
 40
1.399999999999999
  0
CIRCLE
  5
248
330
6B
100
AcDbEntity
  8
0
 62
     7
100
AcDbCircle
 10
1398.661728
 20
68.668729
 30
0.0
 40
1.399999999999999
  0
LINE
  5
249
330
6B
100
AcDbEntity
  8
0
 62
     7
100
AcDbLine
 10
1401.661728
 20
63.06872900000001
 30
0.0
 11
1395.661728
 21
63.06872900000001
 31
0.0
  0
LINE
  5
24A
330
6B
100
AcDbEntity
  8
0
 62
     7
100
AcDbLine
 10
1402.061728
 20
65.66872899999999
 30
0.0
 11
1401.661728
 21
63.06872900000001
 31
0.0
  0
LINE
  5
24B
330
6B
100
AcDbEntity
  8
0
 62
     7
100
AcDbLine
 10
1395.261728
 20
65.66872899999999
 30
0.0
 11
1395.661728
 21
63.06872900000001
 31
0.0
  0
LINE
  5
24C
330
6B
100
AcDbEntity
  8
0
 62
     7
100
AcDbLine
 10
1495.661728
 20
63.06872900000001
 30
0.0
 11
1489.661728
 21
63.06872900000001
 31
0.0
  0
LINE
  5
24D
330
6B
100
AcDbEntity
  8
0
 62
     7
100
AcDbLine
 10
1496.061728
 20
65.66872899999999
 30
0.0
 11
1495.661728
 21
63.06872900000001
 31
0.0
  0
LINE
  5
24E
330
6B
100
AcDbEntity
  8
0
 62
     7
100
AcDbLine
 10
1489.261728
 20
65.66872899999999
 30
0.0
 11
1489.661728
 21
63.06872900000001
 31
0.0
  0
LINE
  5
24F
330
6B
100
AcDbEntity
  8
0
 62
     7
100
AcDbLine
 10
1519.835142
 20
65.66872899999999
 30
0.0
 11
1519.835142
 21
123.068729
 31
0.0
  0
ARC
  5
250
330
6B
100
AcDbEntity
  8
0
 62
     7
100
AcDbCircle
 10
1521.435142
 20
123.068729
 30
0.0
 40
1.6
100
AcDbArc
 50
90.0
 51
180.0
  0
LINE
  5
251
330
6B
100
AcDbEntity
  8
0
 62
     7
100
AcDbLine
 10
1615.035142
 20
65.66872899999999
 30
0.0
 11
1615.035142
 21
123.068729
 31
0.0
  0
LINE
  5
252
330
6B
100
AcDbEntity
  8
0
 62
     7
100
AcDbLine
 10
1521.435142
 20
124.668729
 30
0.0
 11
1613.435142
 21
124.668729
 31
0.0
  0
ARC
  5
253
330
6B
100
AcDbEntity
  8
0
 62
     7
100
AcDbCircle
 10
1613.435142
 20
123.068729
 30
0.0
 40
1.6
100
AcDbArc
 50
0.0
 51
90.0
  0
LINE
  5
254
330
6B
100
AcDbEntity
  8
0
 62
     7
100
AcDbLine
 10
1605.435142
 20
63.06872900000001
 30
0.0
 11
1599.435142
 21
63.06872900000001
 31
0.0
  0
LINE
  5
255
330
6B
100
AcDbEntity
  8
0
 62
     7
100
AcDbLine
 10
1615.435142
 20
65.66872899999999
 30
0.0
 11
1615.035142
 21
65.66872899999999
 31
0.0
  0
LINE
  5
256
330
6B
100
AcDbEntity
  8
0
 62
     7
100
AcDbLine
 10
1519.835142
 20
65.66872899999999
 30
0.0
 11
1519.435142
 21
65.66872899999999
 31
0.0
  0
LINE
  5
257
330
6B
100
AcDbEntity
  8
0
 62
     7
100
AcDbLine
 10
1605.835142
 20
65.66872899999999
 30
0.0
 11
1605.435142
 21
63.06872900000001
 31
0.0
  0
LINE
  5
258
330
6B
100
AcDbEntity
  8
0
 62
     7
100
AcDbLine
 10
1599.035142
 20
65.66872899999999
 30
0.0
 11
1599.435142
 21
63.06872900000001
 31
0.0
  0
LINE
  5
259
330
6B
100
AcDbEntity
  8
0
 62
     7
100
AcDbLine
 10
1535.435142
 20
63.06872900000001
 30
0.0
 11
1529.435142
 21
63.06872900000001
 31
0.0
  0
LINE
  5
25A
330
6B
100
AcDbEntity
  8
0
 62
     7
100
AcDbLine
 10
1535.835142
 20
65.66872899999999
 30
0.0
 11
1535.435142
 21
63.06872900000001
 31
0.0
  0
LINE
  5
25B
330
6B
100
AcDbEntity
  8
0
 62
     7
100
AcDbLine
 10
1529.035142
 20
65.66872899999999
 30
0.0
 11
1529.435142
 21
63.06872900000001
 31
0.0
  0
LINE
  5
25C
330
6B
100
AcDbEntity
  8
0
 62
     7
100
AcDbLine
 10
1609.035142
 20
71.668729
 30
0.0
 11
1591.835142
 21
71.668729
 31
0.0
  0
LINE
  5
25D
330
6B
100
AcDbEntity
  8
0
 62
     7
100
AcDbLine
 10
1573.435142
 20
71.668729
 30
0.0
 11
1573.435142
 21
74.868729
 31
0.0
  0
LINE
  5
25E
330
6B
100
AcDbEntity
  8
0
 62
     7
100
AcDbLine
 10
1609.035142
 20
71.668729
 30
0.0
 11
1609.035142
 21
74.868729
 31
0.0
  0
LINE
  5
25F
330
6B
100
AcDbEntity
  8
0
 62
     7
100
AcDbLine
 10
1609.035142
 20
74.868729
 30
0.0
 11
1591.835142
 21
74.868729
 31
0.0
  0
LINE
  5
260
330
6B
100
AcDbEntity
  8
0
 62
     7
100
AcDbLine
 10
1609.035142
 20
75.66872899999999
 30
0.0
 11
1591.835142
 21
75.66872899999999
 31
0.0
  0
LINE
  5
261
330
6B
100
AcDbEntity
  8
0
 62
     7
100
AcDbLine
 10
1609.035142
 20
78.868729
 30
0.0
 11
1591.835142
 21
78.868729
 31
0.0
  0
LINE
  5
262
330
6B
100
AcDbEntity
  8
0
 62
     7
100
AcDbLine
 10
1609.035142
 20
79.668729
 30
0.0
 11
1591.835142
 21
79.668729
 31
0.0
  0
LINE
  5
263
330
6B
100
AcDbEntity
  8
0
 62
     7
100
AcDbLine
 10
1609.035142
 20
82.868729
 30
0.0
 11
1591.835142
 21
82.868729
 31
0.0
  0
LINE
  5
264
330
6B
100
AcDbEntity
  8
0
 62
     7
100
AcDbLine
 10
1609.035142
 20
83.668729
 30
0.0
 11
1591.835142
 21
83.668729
 31
0.0
  0
LINE
  5
265
330
6B
100
AcDbEntity
  8
0
 62
     7
100
AcDbLine
 10
1609.035142
 20
86.868729
 30
0.0
 11
1591.835142
 21
86.868729
 31
0.0
  0
LINE
  5
266
330
6B
100
AcDbEntity
  8
0
 62
     7
100
AcDbLine
 10
1609.035142
 20
87.668729
 30
0.0
 11
1591.835142
 21
87.668729
 31
0.0
  0
LINE
  5
267
330
6B
100
AcDbEntity
  8
0
 62
     7
100
AcDbLine
 10
1609.035142
 20
90.86872900000001
 30
0.0
 11
1591.835142
 21
90.86872900000001
 31
0.0
  0
LINE
  5
268
330
6B
100
AcDbEntity
  8
0
 62
     7
100
AcDbLine
 10
1609.035142
 20
91.66872899999999
 30
0.0
 11
1591.835142
 21
91.66872899999999
 31
0.0
  0
LINE
  5
269
330
6B
100
AcDbEntity
  8
0
 62
     7
100
AcDbLine
 10
1609.035142
 20
94.86872899999999
 30
0.0
 11
1591.835142
 21
94.86872899999999
 31
0.0
  0
LINE
  5
26A
330
6B
100
AcDbEntity
  8
0
 62
     7
100
AcDbLine
 10
1609.035142
 20
95.66872899999999
 30
0.0
 11
1591.835142
 21
95.66872899999999
 31
0.0
  0
LINE
  5
26B
330
6B
100
AcDbEntity
  8
0
 62
     7
100
AcDbLine
 10
1609.035142
 20
98.868729
 30
0.0
 11
1591.835142
 21
98.868729
 31
0.0
  0
LINE
  5
26C
330
6B
100
AcDbEntity
  8
0
 62
     7
100
AcDbLine
 10
1609.035142
 20
99.668729
 30
0.0
 11
1591.835142
 21
99.668729
 31
0.0
  0
LINE
  5
26D
330
6B
100
AcDbEntity
  8
0
 62
     7
100
AcDbLine
 10
1609.035142
 20
102.868729
 30
0.0
 11
1591.835142
 21
102.868729
 31
0.0
  0
LINE
  5
26E
330
6B
100
AcDbEntity
  8
0
 62
     7
100
AcDbLine
 10
1591.835142
 20
71.668729
 30
0.0
 11
1591.835142
 21
74.868729
 31
0.0
  0
LINE
  5
26F
330
6B
100
AcDbEntity
  8
0
 62
     7
100
AcDbLine
 10
1590.635142
 20
71.668729
 30
0.0
 11
1590.635142
 21
74.868729
 31
0.0
  0
LINE
  5
270
330
6B
100
AcDbEntity
  8
0
 62
     7
100
AcDbLine
 10
1590.635142
 20
102.868729
 30
0.0
 11
1573.435142
 21
102.868729
 31
0.0
  0
LINE
  5
271
330
6B
100
AcDbEntity
  8
0
 62
     7
100
AcDbLine
 10
1590.635142
 20
99.668729
 30
0.0
 11
1573.435142
 21
99.668729
 31
0.0
  0
LINE
  5
272
330
6B
100
AcDbEntity
  8
0
 62
     7
100
AcDbLine
 10
1590.635142
 20
98.868729
 30
0.0
 11
1573.435142
 21
98.868729
 31
0.0
  0
LINE
  5
273
330
6B
100
AcDbEntity
  8
0
 62
     7
100
AcDbLine
 10
1590.635142
 20
95.66872899999999
 30
0.0
 11
1573.435142
 21
95.66872899999999
 31
0.0
  0
LINE
  5
274
330
6B
100
AcDbEntity
  8
0
 62
     7
100
AcDbLine
 10
1590.635142
 20
94.86872899999999
 30
0.0
 11
1573.435142
 21
94.86872899999999
 31
0.0
  0
LINE
  5
275
330
6B
100
AcDbEntity
  8
0
 62
     7
100
AcDbLine
 10
1590.635142
 20
91.66872899999999
 30
0.0
 11
1573.435142
 21
91.66872899999999
 31
0.0
  0
LINE
  5
276
330
6B
100
AcDbEntity
  8
0
 62
     7
100
AcDbLine
 10
1590.635142
 20
90.86872900000001
 30
0.0
 11
1573.435142
 21
90.86872900000001
 31
0.0
  0
LINE
  5
277
330
6B
100
AcDbEntity
  8
0
 62
     7
100
AcDbLine
 10
1590.635142
 20
87.668729
 30
0.0
 11
1573.435142
 21
87.668729
 31
0.0
  0
LINE
  5
278
330
6B
100
AcDbEntity
  8
0
 62
     7
100
AcDbLine
 10
1590.635142
 20
86.868729
 30
0.0
 11
1573.435142
 21
86.868729
 31
0.0
  0
LINE
  5
279
330
6B
100
AcDbEntity
  8
0
 62
     7
100
AcDbLine
 10
1590.635142
 20
83.668729
 30
0.0
 11
1573.435142
 21
83.668729
 31
0.0
  0
LINE
  5
27A
330
6B
100
AcDbEntity
  8
0
 62
     7
100
AcDbLine
 10
1590.635142
 20
82.868729
 30
0.0
 11
1573.435142
 21
82.868729
 31
0.0
  0
LINE
  5
27B
330
6B
100
AcDbEntity
  8
0
 62
     7
100
AcDbLine
 10
1590.635142
 20
79.668729
 30
0.0
 11
1573.435142
 21
79.668729
 31
0.0
  0
LINE
  5
27C
330
6B
100
AcDbEntity
  8
0
 62
     7
100
AcDbLine
 10
1590.635142
 20
78.868729
 30
0.0
 11
1573.435142
 21
78.868729
 31
0.0
  0
LINE
  5
27D
330
6B
100
AcDbEntity
  8
0
 62
     7
100
AcDbLine
 10
1590.635142
 20
75.66872899999999
 30
0.0
 11
1573.435142
 21
75.66872899999999
 31
0.0
  0
LINE
  5
27E
330
6B
100
AcDbEntity
  8
0
 62
     7
100
AcDbLine
 10
1590.635142
 20
74.868729
 30
0.0
 11
1573.435142
 21
74.868729
 31
0.0
  0
LINE
  5
27F
330
6B
100
AcDbEntity
  8
0
 62
     7
100
AcDbLine
 10
1590.635142
 20
71.668729
 30
0.0
 11
1573.435142
 21
71.668729
 31
0.0
  0
LINE
  5
280
330
6B
100
AcDbEntity
  8
0
 62
     7
100
AcDbLine
 10
1591.835142
 20
99.668729
 30
0.0
 11
1591.835142
 21
102.868729
 31
0.0
  0
LINE
  5
281
330
6B
100
AcDbEntity
  8
0
 62
     7
100
AcDbLine
 10
1590.635142
 20
99.668729
 30
0.0
 11
1590.635142
 21
102.868729
 31
0.0
  0
LINE
  5
282
330
6B
100
AcDbEntity
  8
0
 62
     7
100
AcDbLine
 10
1573.435142
 20
99.668729
 30
0.0
 11
1573.435142
 21
102.868729
 31
0.0
  0
LINE
  5
283
330
6B
100
AcDbEntity
  8
0
 62
     7
100
AcDbLine
 10
1609.035142
 20
99.668729
 30
0.0
 11
1609.035142
 21
102.868729
 31
0.0
  0
LINE
  5
284
330
6B
100
AcDbEntity
  8
0
 62
     7
100
AcDbLine
 10
1591.835142
 20
95.66872899999999
 30
0.0
 11
1591.835142
 21
98.868729
 31
0.0
  0
LINE
  5
285
330
6B
100
AcDbEntity
  8
0
 62
     7
100
AcDbLine
 10
1590.635142
 20
95.66872899999999
 30
0.0
 11
1590.635142
 21
98.868729
 31
0.0
  0
LINE
  5
286
330
6B
100
AcDbEntity
  8
0
 62
     7
100
AcDbLine
 10
1573.435142
 20
95.66872899999999
 30
0.0
 11
1573.435142
 21
98.868729
 31
0.0
  0
LINE
  5
287
330
6B
100
AcDbEntity
  8
0
 62
     7
100
AcDbLine
 10
1609.035142
 20
95.66872899999999
 30
0.0
 11
1609.035142
 21
98.868729
 31
0.0
  0
LINE
  5
288
330
6B
100
AcDbEntity
  8
0
 62
     7
100
AcDbLine
 10
1591.835142
 20
91.66872899999999
 30
0.0
 11
1591.835142
 21
94.86872899999999
 31
0.0
  0
LINE
  5
289
330
6B
100
AcDbEntity
  8
0
 62
     7
100
AcDbLine
 10
1590.635142
 20
91.66872899999999
 30
0.0
 11
1590.635142
 21
94.86872899999999
 31
0.0
  0
LINE
  5
28A
330
6B
100
AcDbEntity
  8
0
 62
     7
100
AcDbLine
 10
1573.435142
 20
91.66872899999999
 30
0.0
 11
1573.435142
 21
94.86872899999999
 31
0.0
  0
LINE
  5
28B
330
6B
100
AcDbEntity
  8
0
 62
     7
100
AcDbLine
 10
1609.035142
 20
91.66872899999999
 30
0.0
 11
1609.035142
 21
94.86872899999999
 31
0.0
  0
LINE
  5
28C
330
6B
100
AcDbEntity
  8
0
 62
     7
100
AcDbLine
 10
1591.835142
 20
87.668729
 30
0.0
 11
1591.835142
 21
90.86872900000001
 31
0.0
  0
LINE
  5
28D
330
6B
100
AcDbEntity
  8
0
 62
     7
100
AcDbLine
 10
1590.635142
 20
87.668729
 30
0.0
 11
1590.635142
 21
90.86872900000001
 31
0.0
  0
LINE
  5
28E
330
6B
100
AcDbEntity
  8
0
 62
     7
100
AcDbLine
 10
1573.435142
 20
87.668729
 30
0.0
 11
1573.435142
 21
90.86872900000001
 31
0.0
  0
LINE
  5
28F
330
6B
100
AcDbEntity
  8
0
 62
     7
100
AcDbLine
 10
1609.035142
 20
87.668729
 30
0.0
 11
1609.035142
 21
90.86872900000001
 31
0.0
  0
LINE
  5
290
330
6B
100
AcDbEntity
  8
0
 62
     7
100
AcDbLine
 10
1591.835142
 20
83.668729
 30
0.0
 11
1591.835142
 21
86.868729
 31
0.0
  0
LINE
  5
291
330
6B
100
AcDbEntity
  8
0
 62
     7
100
AcDbLine
 10
1590.635142
 20
83.668729
 30
0.0
 11
1590.635142
 21
86.868729
 31
0.0
  0
LINE
  5
292
330
6B
100
AcDbEntity
  8
0
 62
     7
100
AcDbLine
 10
1573.435142
 20
83.668729
 30
0.0
 11
1573.435142
 21
86.868729
 31
0.0
  0
LINE
  5
293
330
6B
100
AcDbEntity
  8
0
 62
     7
100
AcDbLine
 10
1609.035142
 20
83.668729
 30
0.0
 11
1609.035142
 21
86.868729
 31
0.0
  0
LINE
  5
294
330
6B
100
AcDbEntity
  8
0
 62
     7
100
AcDbLine
 10
1591.835142
 20
79.668729
 30
0.0
 11
1591.835142
 21
82.868729
 31
0.0
  0
LINE
  5
295
330
6B
100
AcDbEntity
  8
0
 62
     7
100
AcDbLine
 10
1590.635142
 20
79.668729
 30
0.0
 11
1590.635142
 21
82.868729
 31
0.0
  0
LINE
  5
296
330
6B
100
AcDbEntity
  8
0
 62
     7
100
AcDbLine
 10
1573.435142
 20
79.668729
 30
0.0
 11
1573.435142
 21
82.868729
 31
0.0
  0
LINE
  5
297
330
6B
100
AcDbEntity
  8
0
 62
     7
100
AcDbLine
 10
1609.035142
 20
79.668729
 30
0.0
 11
1609.035142
 21
82.868729
 31
0.0
  0
LINE
  5
298
330
6B
100
AcDbEntity
  8
0
 62
     7
100
AcDbLine
 10
1591.835142
 20
75.66872899999999
 30
0.0
 11
1591.835142
 21
78.868729
 31
0.0
  0
LINE
  5
299
330
6B
100
AcDbEntity
  8
0
 62
     7
100
AcDbLine
 10
1590.635142
 20
75.66872899999999
 30
0.0
 11
1590.635142
 21
78.868729
 31
0.0
  0
LINE
  5
29A
330
6B
100
AcDbEntity
  8
0
 62
     7
100
AcDbLine
 10
1573.435142
 20
75.66872899999999
 30
0.0
 11
1573.435142
 21
78.868729
 31
0.0
  0
LINE
  5
29B
330
6B
100
AcDbEntity
  8
0
 62
     7
100
AcDbLine
 10
1609.035142
 20
75.66872899999999
 30
0.0
 11
1609.035142
 21
78.868729
 31
0.0
  0
CIRCLE
  5
29C
330
6B
100
AcDbEntity
  8
0
 62
     7
100
AcDbCircle
 10
1533.435142
 20
105.668729
 30
0.0
 40
1.399999999999999
  0
CIRCLE
  5
29D
330
6B
100
AcDbEntity
  8
0
 62
     7
100
AcDbCircle
 10
1561.435142
 20
105.668729
 30
0.0
 40
1.399999999999999
  0
CIRCLE
  5
29E
330
6B
100
AcDbEntity
  8
0
 62
     7
100
AcDbCircle
 10
1561.435142
 20
77.668729
 30
0.0
 40
1.399999999999999
  0
CIRCLE
  5
29F
330
6B
100
AcDbEntity
  8
0
 62
     7
100
AcDbCircle
 10
1533.435142
 20
77.668729
 30
0.0
 40
1.399999999999999
  0
LINE
  5
2A0
330
6B
100
AcDbEntity
  8
0
 62
     7
100
AcDbLine
 10
1526.635142
 20
73.46872900000001
 30
0.0
 11
1524.235142
 21
73.46872900000001
 31
0.0
  0
LINE
  5
2A1
330
6B
100
AcDbEntity
  8
0
 62
     7
100
AcDbLine
 10
1525.435142
 20
72.868729
 30
0.0
 11
1525.435142
 21
59.818943
 31
0.0
  0
ARC
  5
2A2
330
6B
100
AcDbEntity
  8
0
 62
     7
100
AcDbCircle
 10
1525.435142
 20
73.46872900000001
 30
0.0
 40
2.799999999999999
100
AcDbArc
 50
44.415309
 51
135.584691
  0
LINE
  5
2A3
330
6B
100
AcDbEntity
  8
0
 62
     7
100
AcDbLine
 10
1523.435142
 20
71.509137
 30
0.0
 11
1523.435142
 21
75.428321
 31
0.0
  0
LINE
  5
2A4
330
6B
100
AcDbEntity
  8
0
 62
     7
100
AcDbLine
 10
1527.435142
 20
71.509137
 30
0.0
 11
1527.435142
 21
75.428321
 31
0.0
  0
ARC
  5
2A5
330
6B
100
AcDbEntity
  8
0
 62
     7
100
AcDbCircle
 10
1525.435142
 20
73.46872900000001
 30
0.0
 40
2.799999999999999
100
AcDbArc
 50
224.415309
 51
244.623066
  0
ARC
  5
2A6
330
6B
100
AcDbEntity
  8
0
 62
     7
100
AcDbCircle
 10
1526.035142
 20
72.868729
 30
0.0
 40
0.6
100
AcDbArc
 50
0.0
 51
180.0
  0
ARC
  5
2A7
330
6B
100
AcDbEntity
  8
0
 62
     7
100
AcDbCircle
 10
1524.835142
 20
72.868729
 30
0.0
 40
0.6
100
AcDbArc
 50
0.0
 51
180.0
  0
LINE
  5
2A8
330
6B
100
AcDbEntity
  8
0
 62
     7
100
AcDbLine
 10
1526.635142
 20
73.46872900000001
 30
0.0
 11
1526.635142
 21
60.294437
 31
0.0
  0
LINE
  5
2A9
330
6B
100
AcDbEntity
  8
0
 62
     7
100
AcDbLine
 10
1524.235142
 20
73.46872900000001
 30
0.0
 11
1524.235142
 21
59.46072
 31
0.0
  0
ARC
  5
2AA
330
6B
100
AcDbEntity
  8
0
 62
     7
100
AcDbCircle
 10
1525.435142
 20
73.46872900000001
 30
0.0
 40
2.799999999999999
100
AcDbArc
 50
295.376934
 51
315.584691
  0
ARC
  5
2B4
330
6B
100
AcDbEntity
  8
0
 62
     7
100
AcDbCircle
 10
1305.486733
 20
91.169714
 30
0.0
 40
18.28223
100
AcDbArc
 50
64.05020799999999
 51
115.9497919999999
  0
LINE
  5
2B5
330
6B
100
AcDbEntity
  8
0
 62
     7
100
AcDbLine
 10
1298.259328
 20
109.036972
 30
0.0
 11
1303.489406
 21
101.446091
 31
0.0
  0
ARC
  5
2B6
330
6B
100
AcDbEntity
  8
0
 62
     7
100
AcDbCircle
 10
1305.486733
 20
99.26872900000001
 30
0.0
 40
2.954695
100
AcDbArc
 50
37.531678
 51
142.468322
  0
ARC
  5
2B7
330
6B
100
AcDbEntity
  8
0
 62
     7
100
AcDbCircle
 10
1278.286733
 20
91.169714
 30
0.0
 40
18.28223
100
AcDbArc
 50
64.05020799999999
 51
115.9497919999999
  0
LINE
  5
2B8
330
6B
100
AcDbEntity
  8
0
 62
     7
100
AcDbLine
 10
1271.059327999999
 20
109.036972
 30
0.0
 11
1276.289406
 21
101.446091
 31
0.0
  0
ARC
  5
2B9
330
6B
100
AcDbEntity
  8
0
 62
     7
100
AcDbCircle
 10
1278.286733
 20
99.26872900000001
 30
0.0
 40
2.954695
100
AcDbArc
 50
37.531678
 51
142.468322
  0
TEXT
  5
2BA
330
6B
100
AcDbEntity
  8
0
 62
     7
100
AcDbText
 10
1277.212133
 20
104.246034
 30
0.0
 40
1.399999999999999
  1
A
100
AcDbText
  0
TEXT
  5
2BB
330
6B
100
AcDbEntity
  8
0
 62
     7
100
AcDbText
 10
1304.810177
 20
105.273395
 30
0.0
 40
1.399999999999999
  1
V
100
AcDbText
  0
LINE
  5
2BC
330
6B
100
AcDbEntity
  8
0
 62
     7
100
AcDbLine
 10
1277.102908
 20
103.78832
 30
0.0
 11
1278.5229
 21
103.78832
 31
0.0
  0
LINE
  5
2BD
330
6B
100
AcDbEntity
  8
0
 62
     7
100
AcDbLine
 10
1304.719083
 20
104.894365
 30
0.0
 11
1306.269209
 21
104.894365
 31
0.0
  0
LINE
  5
2C0
330
6B
100
AcDbEntity
  8
0
 62
     3
100
AcDbLine
 10
1604.972246
 20
-71.655565
 30
0.0
 11
1604.972246
 21
-48.655565
 31
0.0
  0
LINE
  5
2C2
330
6B
100
AcDbEntity
  8
0
 62
     3
100
AcDbLine
 10
1551.918636
 20
-78.655565
 30
0.0
 11
1551.918636
 21
-64.65556499999999
 31
0.0
  0
TEXT
  5
2C4
330
6B
100
AcDbEntity
  8
0
 62
     3
100
AcDbText
 10
1580.982564
 20
-52.45044899999999
 30
0.0
 40
2.0
  1
A
 41
0.7
100
AcDbText
  0
TEXT
  5
2C5
330
6B
100
AcDbEntity
  8
0
 62
     3
100
AcDbText
 10
1583.51785
 20
-52.45044899999999
 30
0.0
 40
2.0
  1
P
 41
0.7
100
AcDbText
  0
TEXT
  5
2C6
330
6B
100
AcDbEntity
  8
0
 62
     3
100
AcDbText
 10
1586.053136
 20
-52.45044899999999
 30
0.0
 40
2.0
  1
P
 41
0.7
100
AcDbText
  0
TEXT
  5
2C7
330
6B
100
AcDbEntity
  8
0
 62
     3
100
AcDbText
 10
1588.588422
 20
-52.45044899999999
 30
0.0
 40
2.0
  1
D
 41
0.7
100
AcDbText
  0
TEXT
  5
2C8
330
6B
100
AcDbEntity
  8
0
 62
     3
100
AcDbText
 10
1593.957106
 20
-52.45044899999999
 30
0.0
 40
2.0
  1
C
 41
0.7
100
AcDbText
  0
TEXT
  5
2C9
330
6B
100
AcDbEntity
  8
0
 62
     3
100
AcDbText
 10
1596.492392
 20
-52.45044899999999
 30
0.0
 40
2.0
  1
H
 41
0.7
100
AcDbText
  0
TEXT
  5
2CA
330
6B
100
AcDbEntity
  8
0
 62
     3
100
AcDbText
 10
1599.027678
 20
-52.45044899999999
 30
0.0
 40
2.0
  1
C
 41
0.7
100
AcDbText
  0
TEXT
  5
2CB
330
6B
100
AcDbEntity
  8
0
 62
     3
100
AcDbText
 10
1601.562964
 20
-52.45044899999999
 30
0.0
 40
2.0
  1
K
 41
0.7
100
AcDbText
  0
TEXT
  5
2CC
330
6B
100
AcDbEntity
  8
0
 62
     3
100
AcDbText
 10
1607.236931
 20
-52.45044899999999
 30
0.0
 40
2.0
  1
DESN
 41
1.216762999999999
100
AcDbText
  0
TEXT
  5
2CD
330
6B
100
AcDbEntity
  8
0
 62
     3
100
AcDbText
 10
1522.230572
 20
-81.79694599999999
 30
0.0
 40
2.0
  1
NICHIDO IND.CO.LTD
 41
1.274876
100
AcDbText
  0
LINE
  5
2CE
330
6B
100
AcDbEntity
  8
0
 62
     3
100
AcDbLine
 10
1532.613601
 20
-48.655565
 30
0.0
 11
1532.613601
 21
-71.655565
 31
0.0
  0
LINE
  5
2CF
330
6B
100
AcDbEntity
  8
0
 62
     3
100
AcDbLine
 10
1578.972246
 20
-48.655565
 30
0.0
 11
1578.972246
 21
-88.321287
 31
0.0
  0
LINE
  5
2D4
330
6B
100
AcDbEntity
  8
0
 62
     3
100
AcDbLine
 10
1591.972246
 20
-48.655565
 30
0.0
 11
1591.972246
 21
-78.655565
 31
0.0
  0
TEXT
  5
2D5
330
6B
100
AcDbEntity
  8
0
 62
     3
100
AcDbText
 10
1580.08469
 20
-77.790878
 30
0.0
 40
3.2
  1
作成日
 41
1.017225999999999
100
AcDbText
  0
LINE
  5
2D6
330
6B
100
AcDbEntity
  8
0
 62
     3
100
AcDbLine
 10
1630.671609
 20
-48.655565
 30
0.0
 11
1519.368167
 21
-48.655565
 31
0.0
  0
LINE
  5
2D7
330
6B
100
AcDbEntity
  8
0
 62
     3
100
AcDbLine
 10
1617.972246
 20
-71.655565
 30
0.0
 11
1617.972246
 21
-48.655565
 31
0.0
  0
TEXT
  5
2D8
330
6B
100
AcDbEntity
  8
0
 62
     3
100
AcDbText
 10
1621.296049
 20
-52.36463
 30
0.0
 40
1.8
  1
D
 41
0.666667
100
AcDbText
  0
TEXT
  5
2D9
330
6B
100
AcDbEntity
  8
0
 62
     3
100
AcDbText
 10
1624.112677
 20
-52.36463
 30
0.0
 40
1.8
  1
E
 41
0.666667
100
AcDbText
  0
TEXT
  5
2DA
330
6B
100
AcDbEntity
  8
0
 62
     3
100
AcDbText
 10
1626.929305
 20
-52.36463
 30
0.0
 40
1.8
  1
F
 41
0.666667
100
AcDbText
  0
TEXT
  5
2DB
330
6B
100
AcDbEntity
  8
0
 62
     3
100
AcDbText
 10
1621.296049
 20
-56.357183
 30
0.0
 40
3.2
  1
製図
 41
1.076369
100
AcDbText
  0
LINE
  5
2DC
330
6B
100
AcDbEntity
  8
0
 62
     3
100
AcDbLine
 10
1519.368167
 20
-48.655565
 30
0.0
 11
1519.368167
 21
-88.321287
 31
0.0
  0
TEXT
  5
2DD
330
6B
100
AcDbEntity
  8
0
 62
     3
100
AcDbText
 10
1520.74482
 20
-87.98882199999999
 30
0.0
 40
5.0
  1
日動工業株式会社
 41
0.833333
100
AcDbText
  0
LINE
  5
2DE
330
6B
100
AcDbEntity
  8
0
 62
     3
100
AcDbLine
 10
1562.250571
 20
-64.65556499999999
 30
0.0
 11
1562.250571
 21
-88.321287
 31
0.0
  0
LINE
  5
2DF
330
6B
100
AcDbEntity
  8
0
 62
     3
100
AcDbLine
 10
1562.250571
 20
-83.48842600000001
 30
0.0
 11
1578.972246
 21
-83.48842600000001
 31
0.0
  0
TEXT
  5
2E0
330
6B
100
AcDbEntity
  8
0
 62
     3
100
AcDbText
 10
1562.837173
 20
-82.671995
 30
0.0
 40
3.2
  1
出図コード
 41
0.8356860000000001
100
AcDbText
  0
LINE
  5
2F2
330
6B
100
AcDbEntity
  8
0
 62
     3
100
AcDbLine
 10
1519.368167
 20
-78.655565
 30
0.0
 11
1630.671609
 21
-78.655565
 31
0.0
  0
LINE
  5
2F4
330
6B
100
AcDbEntity
  8
0
 62
     3
100
AcDbLine
 10
1519.368167
 20
-57.65556499999999
 30
0.0
 11
1630.671609
 21
-57.655565
 31
0.0
  0
LINE
  5
2FA
330
6B
100
AcDbEntity
  8
0
 62
     3
100
AcDbLine
 10
1519.368167
 20
-64.65556499999999
 30
0.0
 11
1578.972246
 21
-64.65556499999999
 31
0.0
  0
LINE
  5
300
330
6B
100
AcDbEntity
  8
0
 62
     3
100
AcDbLine
 10
1519.368167
 20
-71.655565
 30
0.0
 11
1630.671609
 21
-71.655565
 31
0.0
  0
LINE
  5
304
330
6B
100
AcDbEntity
  8
0
 62
     3
100
AcDbLine
 10
1630.671609
 20
185.734074
 30
0.0
 11
1630.671609
 21
-88.32128700000001
 31
0.0
  0
LINE
  5
305
330
6B
100
AcDbEntity
  8
0
 62
     3
100
AcDbLine
 10
1240.671609
 20
185.734074
 30
0.0
 11
1240.671609
 21
-88.321287
 31
0.0
  0
LINE
  5
306
330
6B
100
AcDbEntity
  8
0
 62
     3
100
AcDbLine
 10
1630.671609
 20
-88.321287
 30
0.0
 11
1240.671609
 21
-88.321287
 31
0.0
  0
TEXT
  5
309
330
6B
100
AcDbEntity
  8
0
 62
     3
100
AcDbText
 10
1562.704624
 20
-87.92458007166578
 30
0.0
 40
3.2
  1
ZK-A3X
 41
0.8112849999999999
100
AcDbText
  0
TEXT
  5
30A
330
6B
100
AcDbEntity
  8
0
 62
     3
100
AcDbText
 10
1521.185564
 20
-52.48603899999999
 30
0.0
 40
2.0
  1
CONPONENTS
 41
0.5331600000000001
100
AcDbText
  0
TEXT
  5
30B
330
6B
100
AcDbEntity
  8
0
 62
     3
100
AcDbText
 10
1520.835837
 20
-71.418216
 30
0.0
 40
3.0
  1
材
 41
0.833333
100
AcDbText
  0
TEXT
  5
30C
330
6B
100
AcDbEntity
  8
0
 62
     3
100
AcDbText
 10
1528.37148
 20
-71.418216
 30
0.0
 40
3.0
  1
質
 41
0.833333
100
AcDbText
  0
TEXT
  5
30D
330
6B
100
AcDbEntity
  8
0
 62
     3
100
AcDbText
 10
1520.923908
 20
-60.793691
 30
0.0
 40
2.0
  1
MODEL
 41
1.031072999999999
100
AcDbText
  0
TEXT
  5
30E
330
6B
100
AcDbEntity
  8
0
 62
     3
100
AcDbText
 10
1520.835837
 20
-67.73590699999999
 30
0.0
 40
2.0
  1
MATERIAL
 41
0.659278
100
AcDbText
  0
TEXT
  5
30F
330
6B
100
AcDbEntity
  8
0
 62
     3
100
AcDbText
 10
1552.143117
 20
-71.418216
 30
0.0
 40
3.0
  1
備
 41
0.833333
100
AcDbText
  0
TEXT
  5
310
330
6B
100
AcDbEntity
  8
0
 62
     3
100
AcDbText
 10
1558.876119
 20
-71.418216
 30
0.0
 40
3.0
  1
考
 41
0.833333
100
AcDbText
  0
TEXT
  5
311
330
6B
100
AcDbEntity
  8
0
 62
     3
100
AcDbText
 10
1552.415786372814
 20
-67.73590699999999
 30
0.0
 40
2.0
  1
REMARKS
 41
0.675794
100
AcDbText
  0
TEXT
  5
312
330
6B
100
AcDbEntity
  8
0
 62
     3
100
AcDbText
 10
1522.425566
 20
-74.656028
 30
0.0
 40
2.0
  1
3AD
 41
1.42614
100
AcDbText
  0
TEXT
  5
313
330
6B
100
AcDbEntity
  8
0
 62
     3
100
AcDbText
 10
1531.736546
 20
-74.49029499999999
 30
0.0
 40
2.0
  1
ANGLE
 41
1.669883999999999
100
AcDbText
  0
TEXT
  5
314
330
6B
100
AcDbEntity
  8
0
 62
     3
100
AcDbText
 10
1552.670433
 20
-74.867135
 30
0.0
 40
2.0
  1
SCALE
 41
0.7719630000000001
100
AcDbText
  0
TEXT
  5
315
330
6B
100
AcDbEntity
  8
0
 62
     3
100
AcDbText
 10
1522.111696
 20
-78.655565
 30
0.0
 40
3.0
  1
第
 41
0.833333
100
AcDbText
  0
TEXT
  5
316
330
6B
100
AcDbEntity
  8
0
 62
     3
100
AcDbText
 10
1529.898546
 20
-78.655565
 30
0.0
 40
3.0
  1
三
 41
0.833333
100
AcDbText
  0
TEXT
  5
317
330
6B
100
AcDbEntity
  8
0
 62
     3
100
AcDbText
 10
1537.685396
 20
-78.655565
 30
0.0
 40
3.0
  1
角
 41
0.833333
100
AcDbText
  0
TEXT
  5
318
330
6B
100
AcDbEntity
  8
0
 62
     3
100
AcDbText
 10
1545.472246
 20
-78.655565
 30
0.0
 40
3.0
  1
法
 41
0.833333
100
AcDbText
  0
TEXT
  5
319
330
6B
100
AcDbEntity
  8
0
 62
     3
100
AcDbText
 10
1552.533638
 20
-78.367135
 30
0.0
 40
3.0
  1
尺
 41
0.833333
100
AcDbText
  0
TEXT
  5
31A
330
6B
100
AcDbEntity
  8
0
 62
     3
100
AcDbText
 10
1559.266639
 20
-78.367135
 30
0.0
 40
3.0
  1
度
 41
0.833333
100
AcDbText
  0
TEXT
  5
31B
330
6B
100
AcDbEntity
  8
0
 62
     3
100
AcDbText
 10
1581.84991
 20
-56.19783599999999
 30
0.0
 40
3.0
  1
承認
 41
1.089472999999999
100
AcDbText
  0
TEXT
  5
31C
330
6B
100
AcDbEntity
  8
0
 62
     3
100
AcDbText
 10
1595.09279
 20
-56.255565
 30
0.0
 40
3.0
  1
検図
 41
0.931761
100
AcDbText
  0
TEXT
  5
31D
330
6B
100
AcDbEntity
  8
0
 62
     3
100
AcDbText
 10
1608.093187
 20
-56.255565
 30
0.0
 40
3.0
  1
設
 41
0.833333
100
AcDbText
  0
TEXT
  5
31E
330
6B
100
AcDbEntity
  8
0
 62
     3
100
AcDbText
 10
1612.583055
 20
-56.255565
 30
0.0
 40
3.0
  1
計
 41
0.833333
100
AcDbText
  0
TEXT
  5
31F
330
6B
100
AcDbEntity
  8
0
 62
     3
100
AcDbText
 10
1521.25567
 20
-56.08301199999999
 30
0.0
 40
3.0
  1
品
 41
0.833333
100
AcDbText
  0
TEXT
  5
320
330
6B
100
AcDbEntity
  8
0
 62
     3
100
AcDbText
 10
1528.791312
 20
-56.08301199999999
 30
0.0
 40
3.0
  1
名
 41
0.833333
100
AcDbText
  0
TEXT
  5
321
330
6B
100
AcDbEntity
  8
0
 62
     3
100
AcDbText
 10
1520.923908
 20
-64.23571751018878
 30
0.0
 40
3.0
  1
型
 41
0.833333
100
AcDbText
  0
TEXT
  5
322
330
6B
100
AcDbEntity
  8
0
 62
     3
100
AcDbText
 10
1528.471998
 20
-64.23571751018878
 30
0.0
 40
3.0
  1
式
 41
0.833333
100
AcDbText
  0
LINE
  5
32A
330
6B
100
AcDbEntity
  8
0
 62
     3
100
AcDbLine
 10
1630.671609
 20
185.734074
 30
0.0
 11
1240.671609
 21
185.734074
 31
0.0
  0
LINE
  5
32B
330
6B
100
AcDbEntity
  8
0
 62
     3
100
AcDbLine
 10
1604.972246
 20
-48.655565
 30
0.0
 11
1604.972246
 21
-42.655565
 31
0.0
  0
LINE
  5
32C
330
6B
100
AcDbEntity
  8
0
 62
     3
100
AcDbLine
 10
1578.972246
 20
-48.655565
 30
0.0
 11
1578.972246
 21
-42.655565
 31
0.0
  0
LINE
  5
32D
330
6B
100
AcDbEntity
  8
0
 62
     3
100
AcDbLine
 10
1630.671609
 20
-42.655565
 30
0.0
 11
1578.972246
 21
-42.655565
 31
0.0
  0
TEXT
  5
32E
330
6B
100
AcDbEntity
  8
0
 62
     3
100
AcDbText
 10
1584.967844
 20
-47.85921599999999
 30
0.0
 40
4.5
  1
コード
  7
高4.5
100
AcDbText
  0
TEXT
  5
32F
330
6B
100
AcDbEntity
  8
0
 62
     3
100
AcDbText
 10
1288.7924355625
 20
-87.82128699999999
 30
0.0
 40
3.2
  1
個数
 41
0.8
  7
高3.2
100
AcDbText
  0
TEXT
  5
330
330
6B
100
AcDbEntity
  8
0
 62
     3
100
AcDbText
 10
1249.7299355625
 20
-87.82128699999999
 30
0.0
 40
3.2
  1
部　　品　　名
 41
0.8
  7
高3.2
100
AcDbText
  0
TEXT
  5
331
330
6B
100
AcDbEntity
  8
0
 62
     3
100
AcDbText
 10
1242.171609
 20
-87.82128699999999
 30
0.0
 40
3.2
  1
No
 41
0.8
  7
高3.2
100
AcDbText
  0
LINE
  5
332
330
6B
100
AcDbEntity
  8
0
 62
     7
100
AcDbLine
 10
1427.369380101253
 20
19.37756206654285
 30
0.0
 11
1465.090221797368
 21
19.37756206654285
 31
0.0
  0
TEXT
  5
333
330
6B
100
AcDbEntity
  8
0
 62
     3
100
AcDbText
 10
1427.673580590607
 20
20.60632244838189
 30
0.0
 40
4.5
  1
主　　仕　　様
  7
高4.5
100
AcDbText
  0
TEXT
  5
334
330
6B
100
AcDbEntity
  8
0
 62
     3
100
AcDbText
 10
1242.171609
 20
-72.821287
 30
0.0
 40
3.2
  1
3
 41
0.8
  7
高3.2
100
AcDbText
  0
TEXT
  5
335
330
6B
100
AcDbEntity
  8
0
 62
     3
100
AcDbText
 10
1242.171609
 20
-67.821287
 30
0.0
 40
3.2
  1
4
 41
0.8
  7
高3.2
100
AcDbText
  0
TEXT
  5
336
330
6B
100
AcDbEntity
  8
0
 62
     3
100
AcDbText
 10
1242.171609
 20
-62.821287
 30
0.0
 40
3.2
  1
5
 41
0.8
  7
高3.2
100
AcDbText
  0
TEXT
  5
337
330
6B
100
AcDbEntity
  8
0
 62
     3
100
AcDbText
 10
1242.171609
 20
-57.82128699999998
 30
0.0
 40
3.2
  1
6
 41
0.8
  7
高3.2
100
AcDbText
  0
TEXT
  5
338
330
6B
100
AcDbEntity
  8
0
 62
     3
100
AcDbText
 10
1288.7924355625
 20
-72.821287
 30
0.0
 40
3.2
  1
1
 41
0.8
  7
高3.2
100
AcDbText
  0
TEXT
  5
339
330
6B
100
AcDbEntity
  8
0
 62
     3
100
AcDbText
 10
1242.171609
 20
-82.82128699999999
 30
0.0
 40
3.2
  1
1
 41
0.8
  7
高3.2
100
AcDbText
  0
TEXT
  5
33A
330
6B
100
AcDbEntity
  8
0
 62
     3
100
AcDbText
 10
1242.171609
 20
-77.82128699999998
 30
0.0
 40
3.2
  1
2
 41
0.8
  7
高3.2
100
AcDbText
  0
TEXT
  5
33B
330
6B
100
AcDbEntity
  8
0
 62
     3
100
AcDbText
 10
1249.7299355625
 20
-82.82128699999999
 30
0.0
 40
3.2
  1
ケース本体
 41
0.8
  7
高3.2
100
AcDbText
  0
TEXT
  5
33C
330
6B
100
AcDbEntity
  8
0
 62
     3
100
AcDbText
 10
1288.7924355625
 20
-67.821287
 30
0.0
 40
3.2
  1
1
 41
0.8
  7
高3.2
100
AcDbText
  0
TEXT
  5
33D
330
6B
100
AcDbEntity
  8
0
 62
     3
100
AcDbText
 10
1288.7924355625
 20
-82.82128699999999
 30
0.0
 40
3.2
  1
1式
 41
0.8
  7
高3.2
100
AcDbText
  0
TEXT
  5
33E
330
6B
100
AcDbEntity
  8
0
 62
     3
100
AcDbText
 10
1412.968003
 20
12.032042
 30
0.0
 40
3.2
  1
型　式
 41
0.8
  7
高3.2
100
AcDbText
  0
TEXT
  5
33F
330
6B
100
AcDbEntity
  8
0
 62
     3
100
AcDbText
 10
1298.9486855625
 20
-82.82128699999999
 30
0.0
 40
3.2
  1
-
 41
0.8
  7
高3.2
100
AcDbText
  0
TEXT
  5
340
330
6B
100
AcDbEntity
  8
0
 62
     3
100
AcDbText
 10
1298.9486855625
 20
-77.82128699999998
 30
0.0
 40
3.2
  1
-
 41
0.8
  7
高3.2
100
AcDbText
  0
TEXT
  5
341
330
6B
100
AcDbEntity
  8
0
 62
     3
100
AcDbText
 10
1288.7924355625
 20
-77.82128699999998
 30
0.0
 40
3.2
  1
1
 41
0.8
  7
高3.2
100
AcDbText
  0
TEXT
  5
342
330
6B
100
AcDbEntity
  8
0
 62
     3
100
AcDbText
 10
1242.171609
 20
-52.82128699999998
 30
0.0
 40
3.2
  1
7
 41
0.8
  7
高3.2
100
AcDbText
  0
TEXT
  5
343
330
6B
100
AcDbEntity
  8
0
 62
     3
100
AcDbText
 10
1242.171609
 20
-37.82128699999999
 30
0.0
 40
3.2
  1
10
 41
0.8
  7
高3.2
100
AcDbText
  0
TEXT
  5
344
330
6B
100
AcDbEntity
  8
0
 62
     3
100
AcDbText
 10
1242.171609
 20
-42.82128699999999
 30
0.0
 40
3.2
  1
9
 41
0.8
  7
高3.2
100
AcDbText
  0
TEXT
  5
345
330
6B
100
AcDbEntity
  8
0
 62
     3
100
AcDbText
 10
1242.171609
 20
-47.82128699999999
 30
0.0
 40
3.2
  1
8
 41
0.8
  7
高3.2
100
AcDbText
  0
TEXT
  5
346
330
6B
100
AcDbEntity
  8
0
 62
     3
100
AcDbText
 10
1288.7924355625
 20
-52.82128699999998
 30
0.0
 40
3.2
  1
1
 41
0.8
  7
高3.2
100
AcDbText
  0
TEXT
  5
347
330
6B
100
AcDbEntity
  8
0
 62
     3
100
AcDbText
 10
1288.7924355625
 20
-47.82128699999999
 30
0.0
 40
3.2
  1
1
 41
0.8
  7
高3.2
100
AcDbText
  0
TEXT
  5
348
330
6B
100
AcDbEntity
  8
0
 62
     3
100
AcDbText
 10
1288.7924355625
 20
-42.82128699999999
 30
0.0
 40
3.2
  1
1
 41
0.8
  7
高3.2
100
AcDbText
  0
TEXT
  5
349
330
6B
100
AcDbEntity
  8
0
 62
     3
100
AcDbText
 10
1288.7924355625
 20
-37.82128699999999
 30
0.0
 40
3.2
  1
1
 41
0.8
  7
高3.2
100
AcDbText
  0
TEXT
  5
34A
330
6B
100
AcDbEntity
  8
0
 62
     3
100
AcDbText
 10
1412.968003
 20
6.488042
 30
0.0
 40
3.2
  1
入力電圧
 41
0.8
  7
高3.2
100
AcDbText
  0
TEXT
  5
34B
330
6B
100
AcDbEntity
  8
0
 62
     3
100
AcDbText
 10
1412.968003
 20
0.9440419999999999
 30
0.0
 40
3.2
  1
出力電圧
 41
0.8
  7
高3.2
100
AcDbText
  0
TEXT
  5
34C
330
6B
100
AcDbEntity
  8
0
 62
     3
100
AcDbText
 10
1412.968003
 20
-4.599957999999999
 30
0.0
 40
3.2
  1
容　量
 41
0.8
  7
高3.2
100
AcDbText
  0
TEXT
  5
34D
330
6B
100
AcDbEntity
  8
0
 62
     3
100
AcDbText
 10
1288.7924355625
 20
-32.82128699999999
 30
0.0
 40
3.2
  1
1
 41
0.8
  7
高3.2
100
AcDbText
  0
TEXT
  5
34E
330
6B
100
AcDbEntity
  8
0
 62
     3
100
AcDbText
 10
1242.171609
 20
-32.82128699999999
 30
0.0
 40
3.2
  1
11
 41
0.8
  7
高3.2
100
AcDbText
  0
TEXT
  5
34F
330
6B
100
AcDbEntity
  8
0
 62
     3
100
AcDbText
 10
1249.7299355625
 20
-77.82128699999998
 30
0.0
 40
3.2
  1
電源スイッチ
 41
0.8
  7
高3.2
100
AcDbText
  0
TEXT
  5
350
330
6B
100
AcDbEntity
  8
0
 62
     3
100
AcDbText
 10
1288.7924355625
 20
-57.82128699999998
 30
0.0
 40
3.2
  1
1
 41
0.8
  7
高3.2
100
AcDbText
  0
TEXT
  5
351
330
6B
100
AcDbEntity
  8
0
 62
     3
100
AcDbText
 10
1288.7924355625
 20
-62.821287
 30
0.0
 40
3.2
  1
1
 41
0.8
  7
高3.2
100
AcDbText
  0
TEXT
  5
352
330
6B
100
AcDbEntity
  8
0
 62
     3
100
AcDbText
 10
1298.9486855625
 20
-37.82128699999999
 30
0.0
 40
3.2
  1
-
 41
0.8
  7
高3.2
100
AcDbText
  0
TEXT
  5
353
330
6B
100
AcDbEntity
  8
0
 62
     3
100
AcDbText
 10
1298.9486855625
 20
-87.82128699999999
 30
0.0
 40
3.2
  1
材　質／備　考
 41
0.8
  7
高3.2
100
AcDbText
  0
LINE
  5
354
330
6B
100
AcDbEntity
  8
0
 62
     7
100
AcDbLine
 10
1240.671609
 20
-78.32128699999998
 30
0.0
 11
1337.2924355625
 21
-78.32128699999998
 31
0.0
  0
LINE
  5
355
330
6B
100
AcDbEntity
  8
0
 62
     7
100
AcDbLine
 10
1240.671609
 20
-73.321287
 30
0.0
 11
1337.2924355625
 21
-73.321287
 31
0.0
  0
LINE
  5
356
330
6B
100
AcDbEntity
  8
0
 62
     7
100
AcDbLine
 10
1240.671609
 20
-68.321287
 30
0.0
 11
1337.2924355625
 21
-68.321287
 31
0.0
  0
LINE
  5
357
330
6B
100
AcDbEntity
  8
0
 62
     7
100
AcDbLine
 10
1240.671609
 20
-63.321287
 30
0.0
 11
1337.2924355625
 21
-63.321287
 31
0.0
  0
LINE
  5
358
330
6B
100
AcDbEntity
  8
0
 62
     7
100
AcDbLine
 10
1240.671609
 20
-58.32128699999998
 30
0.0
 11
1337.2924355625
 21
-58.32128699999998
 31
0.0
  0
LINE
  5
359
330
6B
100
AcDbEntity
  8
0
 62
     3
100
AcDbLine
 10
1240.671609
 20
-83.321287
 30
0.0
 11
1337.2924355625
 21
-83.321287
 31
0.0
  0
LINE
  5
35A
330
6B
100
AcDbEntity
  8
0
 62
     7
100
AcDbLine
 10
1240.671609
 20
-53.32128699999998
 30
0.0
 11
1337.2924355625
 21
-53.32128699999998
 31
0.0
  0
LINE
  5
35B
330
6B
100
AcDbEntity
  8
0
 62
     7
100
AcDbLine
 10
1240.671609
 20
-38.32128699999998
 30
0.0
 11
1337.2924355625
 21
-38.32128699999998
 31
0.0
  0
LINE
  5
35C
330
6B
100
AcDbEntity
  8
0
 62
     7
100
AcDbLine
 10
1240.671609
 20
-43.32128699999999
 30
0.0
 11
1337.2924355625
 21
-43.32128699999999
 31
0.0
  0
LINE
  5
35D
330
6B
100
AcDbEntity
  8
0
 62
     7
100
AcDbLine
 10
1240.671609
 20
-48.32128699999999
 30
0.0
 11
1337.2924355625
 21
-48.32128699999999
 31
0.0
  0
LINE
  5
35E
330
6B
100
AcDbEntity
  8
0
 62
     7
100
AcDbLine
 10
1240.671609
 20
-33.32128699999999
 30
0.0
 11
1337.2924355625
 21
-33.32128699999999
 31
0.0
  0
TEXT
  5
35F
330
6B
100
AcDbEntity
  8
0
 62
     3
100
AcDbText
 10
1412.968003
 20
-37.86395800000001
 30
0.0
 40
3.2
  1
ヒューズ
 41
0.8
  7
高3.2
100
AcDbText
  0
LINE
  5
360
330
6B
100
AcDbEntity
  8
0
 62
     7
100
AcDbLine
 10
1428.155536
 20
-16.479958
 30
0.0
 11
1481.796514
 21
-16.479958
 31
0.0
  0
LINE
  5
361
330
6B
100
AcDbEntity
  8
0
 62
     7
100
AcDbLine
 10
1428.155536
 20
-22.023958
 30
0.0
 11
1481.796514
 21
-22.023958
 31
0.0
  0
LINE
  5
362
330
6B
100
AcDbEntity
  8
0
 62
     7
100
AcDbLine
 10
1428.155536
 20
-5.391957999999999
 30
0.0
 11
1481.796514
 21
-5.391957999999999
 31
0.0
  0
LINE
  5
363
330
6B
100
AcDbEntity
  8
0
 62
     3
100
AcDbLine
 10
1481.796514
 20
16.784042
 30
0.0
 11
1481.796514
 21
-49.74395799999999
 31
0.0
  0
LINE
  5
364
330
6B
100
AcDbEntity
  8
0
 62
     3
100
AcDbLine
 10
1411.384003
 20
16.784042
 30
0.0
 11
1411.384003
 21
-49.74395799999999
 31
0.0
  0
LINE
  5
365
330
6B
100
AcDbEntity
  8
0
 62
     3
100
AcDbLine
 10
1428.155536
 20
16.784042
 30
0.0
 11
1428.155536
 21
-49.74395799999999
 31
0.0
  0
TEXT
  5
366
330
6B
100
AcDbEntity
  8
0
 62
     3
100
AcDbText
 10
1537.161768
 20
-55.811305
 30
0.0
 40
4.5
  1
直流安定化電源
  7
高4.5
100
AcDbText
  0
TEXT
  5
367
330
6B
100
AcDbEntity
  8
0
 62
     3
100
AcDbText
 10
1249.7299355625
 20
-37.82128699999999
 30
0.0
 40
3.2
  1
冷却ファン
 41
0.8
  7
高3.2
100
AcDbText
  0
TEXT
  5
368
330
6B
100
AcDbEntity
  8
0
 62
     3
100
AcDbText
 10
1564.588956
 20
-78.135094
 30
0.0
 40
3.2
  1
FREE
  7
高3.2
100
AcDbText
  0
TEXT
  5
369
330
6B
100
AcDbEntity
  8
0
 62
     3
100
AcDbText
 10
1249.7299355625
 20
-72.821287
 30
0.0
 40
3.2
  1
電流計
 41
0.8
  7
高3.2
100
AcDbText
  0
TEXT
  5
36A
330
6B
100
AcDbEntity
  8
0
 62
     3
100
AcDbText
 10
1249.7299355625
 20
-67.821287
 30
0.0
 40
3.2
  1
電圧計
 41
0.8
  7
高3.2
100
AcDbText
  0
TEXT
  5
36B
330
6B
100
AcDbEntity
  8
0
 62
     3
100
AcDbText
 10
1249.7299355625
 20
-62.821287
 30
0.0
 40
3.2
  1
可変ボリューム
 41
0.8
  7
高3.2
100
AcDbText
  0
TEXT
  5
36C
330
6B
100
AcDbEntity
  8
0
 62
     3
100
AcDbText
 10
1298.9486855625
 20
-62.821287
 30
0.0
 40
3.2
  1
ＤＣ０～１０Ｖ可変
 41
0.8
  7
高3.2
100
AcDbText
  0
TEXT
  5
36D
330
6B
100
AcDbEntity
  8
0
 62
     3
100
AcDbText
 10
1298.9486855625
 20
-57.82128699999998
 30
0.0
 40
3.2
  1
シガーソケット
 41
0.8
  7
高3.2
100
AcDbText
  0
TEXT
  5
36E
330
6B
100
AcDbEntity
  8
0
 62
     3
100
AcDbText
 10
1249.7299355625
 20
-42.82128699999999
 30
0.0
 40
3.2
  1
ヒューズ
 41
0.8
  7
高3.2
100
AcDbText
  0
TEXT
  5
36F
330
6B
100
AcDbEntity
  8
0
 62
     3
100
AcDbText
 10
1249.7299355625
 20
-32.82128699999999
 30
0.0
 40
3.2
  1
電源コード
 41
0.8
  7
高3.2
100
AcDbText
  0
TEXT
  5
370
330
6B
100
AcDbEntity
  8
0
 62
     3
100
AcDbText
 10
1298.9486855625
 20
-32.82128699999999
 30
0.0
 40
3.2
  1
AC100V
 41
0.8
  7
高3.2
100
AcDbText
  0
LINE
  5
371
330
6B
100
AcDbEntity
  8
0
 62
     7
100
AcDbLine
 10
1248.2299355625
 20
-88.321287
 30
0.0
 11
1248.2299355625
 21
-28.32128699999999
 31
0.0
  0
LINE
  5
372
330
6B
100
AcDbEntity
  8
0
 62
     3
100
AcDbLine
 10
1337.2924355625
 20
-88.321287
 30
0.0
 11
1337.2924355625
 21
-28.32128699999999
 31
0.0
  0
LINE
  5
373
330
6B
100
AcDbEntity
  8
0
 62
     7
100
AcDbLine
 10
1297.4486855625
 20
-88.321287
 30
0.0
 11
1297.4486855625
 21
-28.32128699999999
 31
0.0
  0
LINE
  5
374
330
6B
100
AcDbEntity
  8
0
 62
     7
100
AcDbLine
 10
1287.2924355625
 20
-88.321287
 30
0.0
 11
1287.2924355625
 21
-28.32128699999999
 31
0.0
  0
LINE
  5
375
330
6B
100
AcDbEntity
  8
0
 62
     3
100
AcDbLine
 10
1240.671609
 20
-28.32128699999999
 30
0.0
 11
1337.2924355625
 21
-28.32128699999999
 31
0.0
  0
TEXT
  5
376
330
6B
100
AcDbEntity
  8
0
 62
     3
100
AcDbText
 10
1298.9486855625
 20
-67.821287
 30
0.0
 40
3.2
  1
-
 41
0.8
  7
高3.2
100
AcDbText
  0
TEXT
  5
377
330
6B
100
AcDbEntity
  8
0
 62
     3
100
AcDbText
 10
1298.9486855625
 20
-72.821287
 30
0.0
 40
3.2
  1
-
 41
0.8
  7
高3.2
100
AcDbText
  0
TEXT
  5
378
330
6B
100
AcDbEntity
  8
0
 62
     3
100
AcDbText
 10
1428.962877
 20
6.510286999999999
 30
0.0
 40
3.2
  1
AC100V
 41
0.8
  7
高3.2
100
AcDbText
  0
TEXT
  5
379
330
6B
100
AcDbEntity
  8
0
 62
     3
100
AcDbText
 10
1428.962877
 20
0.9662870000000001
 30
0.0
 40
3.2
  1
DC0～15V可変
 41
0.8
  7
高3.2
100
AcDbText
  0
TEXT
  5
37A
330
6B
100
AcDbEntity
  8
0
 62
     3
100
AcDbText
 10
1428.962877
 20
-10.121713
 30
0.0
 40
3.2
  1
定電流保護回路内蔵
 41
0.8
  7
高3.2
100
AcDbText
  0
TEXT
  5
37B
330
6B
100
AcDbEntity
  8
0
 62
     3
100
AcDbText
 10
1412.968003
 20
-15.687958
 30
0.0
 40
3.2
  1
出力端子
 41
0.8
  7
高3.2
100
AcDbText
  0
TEXT
  5
37C
330
6B
100
AcDbEntity
  8
0
 62
     3
100
AcDbText
 10
1428.962877
 20
-15.665713
 30
0.0
 40
3.2
  1
シガーソケット　MAX10A
 41
0.8
  7
高3.2
100
AcDbText
  0
TEXT
  5
37D
330
6B
100
AcDbEntity
  8
0
 62
     3
100
AcDbText
 10
1428.962877
 20
-26.753713
 30
0.0
 40
3.2
  1
プッシュターミナル　MAX6A
 41
0.8
  7
高3.2
100
AcDbText
  0
TEXT
  5
37E
330
6B
100
AcDbEntity
  8
0
 62
     3
100
AcDbText
 10
1298.9486855625
 20
-47.82128699999999
 30
0.0
 40
3.2
  1
プッシュターミナル
 41
0.8
  7
高3.2
100
AcDbText
  0
TEXT
  5
37F
330
6B
100
AcDbEntity
  8
0
 62
     3
100
AcDbText
 10
1298.9486855625
 20
-52.82128699999998
 30
0.0
 40
3.2
  1
ネジターミナル
 41
0.8
  7
高3.2
100
AcDbText
  0
TEXT
  5
380
330
6B
100
AcDbEntity
  8
0
 62
     3
100
AcDbText
 10
1249.7299355625
 20
-47.82128699999999
 30
0.0
 40
3.2
  1
出力端子
 41
0.8
  7
高3.2
100
AcDbText
  0
TEXT
  5
381
330
6B
100
AcDbEntity
  8
0
 62
     3
100
AcDbText
 10
1249.7299355625
 20
-52.82128699999998
 30
0.0
 40
3.2
  1
出力端子
 41
0.8
  7
高3.2
100
AcDbText
  0
TEXT
  5
382
330
6B
100
AcDbEntity
  8
0
 62
     3
100
AcDbText
 10
1249.7299355625
 20
-57.82128699999998
 30
0.0
 40
3.2
  1
出力端子
 41
0.8
  7
高3.2
100
AcDbText
  0
TEXT
  5
383
330
6B
100
AcDbEntity
  8
0
 62
     3
100
AcDbText
 10
1412.968003
 20
-32.319958
 30
0.0
 40
3.2
  1
出力表示
 41
0.8
  7
高3.2
100
AcDbText
  0
TEXT
  5
384
330
6B
100
AcDbEntity
  8
0
 62
     3
100
AcDbText
 10
1428.962877
 20
-32.297713
 30
0.0
 40
3.2
  1
電流計・電圧計
 41
0.8
  7
高3.2
100
AcDbText
  0
TEXT
  5
385
330
6B
100
AcDbEntity
  8
0
 62
     3
100
AcDbText
 10
1412.968003
 20
-48.951958
 30
0.0
 40
3.2
  1
質　量
 41
0.8
  7
高3.2
100
AcDbText
  0
TEXT
  5
386
330
6B
100
AcDbEntity
  8
0
 62
     3
100
AcDbText
 10
1412.968003
 20
-43.407958
 30
0.0
 40
3.2
  1
冷却方式
 41
0.8
  7
高3.2
100
AcDbText
  0
TEXT
  5
387
330
6B
100
AcDbEntity
  8
0
 62
     3
100
AcDbText
 10
1428.962877
 20
-43.385713
 30
0.0
 40
3.2
  1
FAN
 41
0.8
  7
高3.2
100
AcDbText
  0
LINE
  5
388
330
6B
100
AcDbEntity
  8
0
 62
     3
100
AcDbLine
 10
1411.384003
 20
16.784042
 30
0.0
 11
1481.796514
 21
16.784042
 31
0.0
  0
LINE
  5
389
330
6B
100
AcDbEntity
  8
0
 62
     7
100
AcDbLine
 10
1411.384003
 20
-27.567958
 30
0.0
 11
1481.796514
 21
-27.567958
 31
0.0
  0
LINE
  5
38A
330
6B
100
AcDbEntity
  8
0
 62
     7
100
AcDbLine
 10
1411.384003
 20
5.696041999999999
 30
0.0
 11
1481.796514
 21
5.696041999999999
 31
0.0
  0
LINE
  5
38B
330
6B
100
AcDbEntity
  8
0
 62
     7
100
AcDbLine
 10
1411.384003
 20
-33.111958
 30
0.0
 11
1481.796514
 21
-33.111958
 31
0.0
  0
LINE
  5
38C
330
6B
100
AcDbEntity
  8
0
 62
     7
100
AcDbLine
 10
1411.384003
 20
-38.655958
 30
0.0
 11
1481.796514
 21
-38.655958
 31
0.0
  0
LINE
  5
38D
330
6B
100
AcDbEntity
  8
0
 62
     7
100
AcDbLine
 10
1411.384003
 20
-44.199958
 30
0.0
 11
1481.796514
 21
-44.199958
 31
0.0
  0
LINE
  5
38E
330
6B
100
AcDbEntity
  8
0
 62
     7
100
AcDbLine
 10
1411.384003
 20
11.240042
 30
0.0
 11
1481.796514
 21
11.240042
 31
0.0
  0
LINE
  5
38F
330
6B
100
AcDbEntity
  8
0
 62
     7
100
AcDbLine
 10
1411.384003
 20
0.152042
 30
0.0
 11
1481.796514
 21
0.152042
 31
0.0
  0
LINE
  5
390
330
6B
100
AcDbEntity
  8
0
 62
     7
100
AcDbLine
 10
1411.384003
 20
-10.935958
 30
0.0
 11
1481.796514
 21
-10.935958
 31
0.0
  0
LINE
  5
391
330
6B
100
AcDbEntity
  8
0
 62
     3
100
AcDbLine
 10
1411.384003
 20
-49.74395799999999
 30
0.0
 11
1481.796514
 21
-49.74395799999999
 31
0.0
  0
TEXT
  5
392
330
6B
100
AcDbEntity
  8
0
 62
     3
100
AcDbText
 10
1596.827199
 20
-77.355861
 30
0.0
 40
3.2
  1
2008.10.06
  7
高3.2
100
AcDbText
  0
LINE
  5
399
330
6B
100
AcDbEntity
  8
0
 62
     3
100
AcDbLine
 10
1228.269685
 20
52.178713
 30
0.0
 11
1225.671609
 21
50.678713
 31
0.0
  0
LINE
  5
39A
330
6B
100
AcDbEntity
  8
0
 62
     3
100
AcDbLine
 10
1228.269685
 20
52.178713
 30
0.0
 11
1225.671609
 21
53.678713
 31
0.0
  0
LINE
  5
39B
330
6B
100
AcDbEntity
  8
0
 62
     3
100
AcDbLine
 10
1225.671609
 20
50.678713
 30
0.0
 11
1225.671609
 21
53.678713
 31
0.0
  0
LINE
  5
3A1
330
6B
100
AcDbEntity
  8
0
 62
     7
100
AcDbLine
 10
1549.051429
 20
100.211961
 30
0.0
 11
1555.283376
 21
131.31154
 31
0.0
  0
CIRCLE
  5
3A2
330
6B
100
AcDbEntity
  8
0
 62
     7
100
AcDbCircle
 10
1556.26578
 20
136.214079
 30
0.0
 40
5.0
  0
TEXT
  5
3A3
330
6B
100
AcDbEntity
  8
0
 62
     4
100
AcDbText
 10
1553.69535262785
 20
134.1861962110138
 30
0.0
 40
4.5
  1
10
  7
高4.5
100
AcDbText
  0
LINE
  5
3A9
330
6B
100
AcDbEntity
  8
0
 62
     7
100
AcDbLine
 10
1526.635142
 20
60.294437
 30
0.0
 11
1541.552241
 21
47.99711499999999
 31
0.0
  0
CIRCLE
  5
3AA
330
6B
100
AcDbEntity
  8
0
 62
     7
100
AcDbCircle
 10
1545.410285
 20
44.81662899999999
 30
0.0
 40
5.0
  0
TEXT
  5
3AB
330
6B
100
AcDbEntity
  8
0
 62
     4
100
AcDbText
 10
1543.0070722746
 20
42.64783506881212
 30
0.0
 40
4.5
  1
11
  7
高4.5
100
AcDbText
  0
LINE
  5
3B1
330
6B
100
AcDbEntity
  8
0
 62
     7
100
AcDbLine
 10
1323.886733
 20
75.66872899999999
 30
0.0
 11
1329.176865
 21
57.425803
 31
0.0
  0
CIRCLE
  5
3B2
330
6B
100
AcDbEntity
  8
0
 62
     7
100
AcDbCircle
 10
1330.56941
 20
52.623635
 30
0.0
 40
5.0
  0
TEXT
  5
3B3
330
6B
100
AcDbEntity
  8
0
 62
     4
100
AcDbText
 10
1328.354485775217
 20
49.39424959093294
 30
0.0
 40
6.299999999999999
  1
8
  7
高6.3
100
AcDbText
  0
LINE
  5
3B9
330
6B
100
AcDbEntity
  8
0
 62
     7
100
AcDbLine
 10
1275.466193
 20
76.51031
 30
0.0
 11
1283.383387
 21
57.994273
 31
0.0
  0
CIRCLE
  5
3BA
330
6B
100
AcDbEntity
  8
0
 62
     7
100
AcDbCircle
 10
1285.349155
 20
53.39690899999999
 30
0.0
 40
5.0
  0
TEXT
  5
3BB
330
6B
100
AcDbEntity
  8
0
 62
     4
100
AcDbText
 10
1283.134230775218
 20
50.16752359093294
 30
0.0
 40
6.299999999999999
  1
7
  7
高6.3
100
AcDbText
  0
LINE
  5
3C1
330
6B
100
AcDbEntity
  8
0
 62
     7
100
AcDbLine
 10
1304.49544
 20
76.403125
 30
0.0
 11
1306.905167
 21
57.504546
 31
0.0
  0
CIRCLE
  5
3C2
330
6B
100
AcDbEntity
  8
0
 62
     7
100
AcDbCircle
 10
1307.537588
 20
52.54470300000001
 30
0.0
 40
5.0
  0
TEXT
  5
3C3
330
6B
100
AcDbEntity
  8
0
 62
     4
100
AcDbText
 10
1305.322663775217
 20
49.31531759093294
 30
0.0
 40
6.299999999999999
  1
6
  7
高6.3
100
AcDbText
  0
LINE
  5
3C9
330
6B
100
AcDbEntity
  8
0
 62
     7
100
AcDbLine
 10
1263.886733
 20
125.068729
 30
0.0
 11
1259.989979
 21
140.295682
 31
0.0
  0
CIRCLE
  5
3CA
330
6B
100
AcDbEntity
  8
0
 62
     7
100
AcDbCircle
 10
1258.750369
 20
145.139582
 30
0.0
 40
5.0
  0
TEXT
  5
3CB
330
6B
100
AcDbEntity
  8
0
 62
     4
100
AcDbText
 10
1257.595755602674
 20
142.0467463038981
 30
0.0
 40
6.299999999999999
  1
1
  7
高6.3
100
AcDbText
  0
LINE
  5
3D1
330
6B
100
AcDbEntity
  8
0
 62
     7
100
AcDbLine
 10
1278.286733
 20
113.068729
 30
0.0
 11
1275.491339
 21
140.980579
 31
0.0
  0
CIRCLE
  5
3D2
330
6B
100
AcDbEntity
  8
0
 62
     7
100
AcDbCircle
 10
1274.993078
 20
145.95569
 30
0.0
 40
5.0
  0
TEXT
  5
3D3
330
6B
100
AcDbEntity
  8
0
 62
     4
100
AcDbText
 10
1272.778153775217
 20
142.7263045909329
 30
0.0
 40
6.299999999999999
  1
3
  7
高6.3
100
AcDbText
  0
LINE
  5
3D9
330
6B
100
AcDbEntity
  8
0
 62
     7
100
AcDbLine
 10
1305.486733
 20
113.068729
 30
0.0
 11
1311.534327
 21
140.83224
 31
0.0
  0
CIRCLE
  5
3DA
330
6B
100
AcDbEntity
  8
0
 62
     7
100
AcDbCircle
 10
1312.5985
 20
145.717681
 30
0.0
 40
5.0
  0
TEXT
  5
3DB
330
6B
100
AcDbEntity
  8
0
 62
     4
100
AcDbText
 10
1310.383575775218
 20
142.4882955909329
 30
0.0
 40
6.299999999999999
  1
4
  7
高6.3
100
AcDbText
  0
LINE
  5
3E1
330
6B
100
AcDbEntity
  8
0
 62
     7
100
AcDbLine
 10
1330.786733
 20
111.398856
 30
0.0
 11
1343.035383
 21
140.630149
 31
0.0
  0
CIRCLE
  5
3E2
330
6B
100
AcDbEntity
  8
0
 62
     7
100
AcDbCircle
 10
1344.967723
 20
145.241663
 30
0.0
 40
5.0
  0
TEXT
  5
3E3
330
6B
100
AcDbEntity
  8
0
 62
     4
100
AcDbText
 10
1342.752798775217
 20
142.0122775909329
 30
0.0
 40
6.299999999999999
  1
5
  7
高6.3
100
AcDbText
  0
LINE
  5
3E9
330
6B
100
AcDbEntity
  8
0
 62
     7
100
AcDbLine
 10
1347.486733
 20
113.668729
 30
0.0
 11
1364.23474
 21
140.751115
 31
0.0
  0
CIRCLE
  5
3EA
330
6B
100
AcDbEntity
  8
0
 62
     7
100
AcDbCircle
 10
1366.864551
 20
145.003654
 30
0.0
 40
5.0
  0
TEXT
  5
3EB
330
6B
100
AcDbEntity
  8
0
 62
     4
100
AcDbText
 10
1364.649626775217
 20
141.7742685909329
 30
0.0
 40
6.299999999999999
  1
2
  7
高6.3
100
AcDbText
  0
LINE
  5
3F1
330
6B
100
AcDbEntity
  8
0
 62
     7
100
AcDbLine
 10
1348.570471
 20
75.24607299999999
 30
0.0
 11
1345.950021
 21
57.838465
 31
0.0
  0
CIRCLE
  5
3F2
330
6B
100
AcDbEntity
  8
0
 62
     7
100
AcDbCircle
 10
1345.205732
 20
52.89417099999999
 30
0.0
 40
5.0
  0
TEXT
  5
3F3
330
6B
100
AcDbEntity
  8
0
 62
     4
100
AcDbText
 10
1342.990807775217
 20
49.66478559093293
 30
0.0
 40
6.299999999999999
  1
9
  7
高6.3
100
AcDbText
  0
TEXT
  5
3F4
330
6B
100
AcDbEntity
  8
0
 62
     3
100
AcDbText
 10
1428.962877
 20
-21.209713
 30
0.0
 40
3.2
  1
ネジターミナル　MAX60A
 41
0.8
  7
高3.2
100
AcDbText
  0
TEXT
  5
3F5
330
6B
100
AcDbEntity
  8
0
 62
     3
100
AcDbText
 10
1428.962877
 20
-37.841713
 30
0.0
 40
3.2
  1
15A
 41
0.8
  7
高3.2
100
AcDbText
  0
TEXT
  5
3F6
330
6B
100
AcDbEntity
  8
0
 62
     3
100
AcDbText
 10
1428.962877
 20
-4.577713
 30
0.0
 40
3.2
  1
最大60A(連続50A)
 41
0.8
  7
高3.2
100
AcDbText
  0
TEXT
  5
3F7
330
6B
100
AcDbEntity
  8
0
 62
     3
100
AcDbText
 10
1428.962877
 20
12.054287
 30
0.0
 40
3.2
  1
DPS-5012M
 41
0.8
  7
高3.2
100
AcDbText
  0
TEXT
  5
3F8
330
6B
100
AcDbEntity
  8
0
 62
     3
100
AcDbText
 10
1298.9486855625
 20
-42.82128699999999
 30
0.0
 40
3.2
  1
15A
 41
0.8
  7
高3.2
100
AcDbText
  0
TEXT
  5
3F9
330
6B
100
AcDbEntity
  8
0
 62
     3
100
AcDbText
 10
1428.962877
 20
-48.929713
 30
0.0
 40
3.2
  1
約14kg
 41
0.8
  7
高3.2
100
AcDbText
  0
TEXT
  5
3FA
330
6B
100
AcDbEntity
  8
0
 62
     3
100
AcDbText
 10
1606.959393
 20
-48.011427
 30
0.0
 40
4.5
  1
6417
  7
高4.5
100
AcDbText
  0
TEXT
  5
3FB
330
6B
100
AcDbEntity
  8
0
 62
     3
100
AcDbText
 10
1533.964035
 20
-63.84458699999999
 30
0.0
 40
4.5
  1
DPS-5012M
  7
高4.5
100
AcDbText
  0
TEXT
  5
3FC
330
6B
100
AcDbEntity
  8
0
 62
     3
100
AcDbText
 10
1580.401264
 20
-87.54688599999999
 30
0.0
 40
6.299999999999999
  1
DPS-5012M
 41
0.8
  7
高6.3
100
AcDbText
  0
TEXT
  5
4E8
330
6B
100
AcDbEntity
  8
0
 62
     3
100
AcDbText
 10
1618.171609
 20
176.234074
 30
0.0
 40
3.2
  1
担　当
  7
高3.2
100
AcDbText
  0
TEXT
  5
4E9
330
6B
100
AcDbEntity
  8
0
 62
     3
100
AcDbText
 10
1574.171609
 20
176.234074
 30
0.0
 40
3.2
  1
変更・追記内容
  7
高3.2
100
AcDbText
  0
TEXT
  5
4EA
330
6B
100
AcDbEntity
  8
0
 62
     3
100
AcDbText
 10
1549.285124000339
 20
171.5635354900917
 30
0.0
 40
2.0
  1
1
  7
高2
100
AcDbText
  0
TEXT
  5
4EB
330
6B
100
AcDbEntity
  8
0
 62
     3
100
AcDbText
 10
1548.976612523582
 20
166.3937187778188
 30
0.0
 40
2.0
  1
2
  7
高2
100
AcDbText
  0
TEXT
  5
4EC
330
6B
100
AcDbEntity
  8
0
 62
     3
100
AcDbText
 10
1556.171609
 20
176.234074
 30
0.0
 40
3.2
  1
日　付
  7
高3.2
100
AcDbText
  0
TEXT
  5
4ED
330
6B
100
AcDbEntity
  8
0
 62
     3
100
AcDbText
 10
1556.171609
 20
181.234074
 30
0.0
 40
3.2
  1
図　　　　面　　　　略　　　　歴
  7
高3.2
100
AcDbText
  0
TEXT
  5
4EE
330
6B
100
AcDbEntity
  8
0
 62
     3
100
AcDbText
 10
1546.171609
 20
176.234074
 30
0.0
 40
3.2
  1
記号
  7
高3.2
100
AcDbText
  0
LINE
  5
4EF
330
6B
100
AcDbEntity
  8
0
 62
     7
100
AcDbLine
 10
1549.671609
 20
169.5249700000001
 30
0.0
 11
1547.771609
 21
166.234074
 31
0.0
  0
LINE
  5
4F0
330
6B
100
AcDbEntity
  8
0
 62
     7
100
AcDbLine
 10
1549.671609
 20
169.5249700000001
 30
0.0
 11
1551.571609
 21
166.234074
 31
0.0
  0
LINE
  5
4F1
330
6B
100
AcDbEntity
  8
0
 62
     7
100
AcDbLine
 10
1547.771609
 20
166.234074
 30
0.0
 11
1551.571609
 21
166.234074
 31
0.0
  0
LINE
  5
4F2
330
6B
100
AcDbEntity
  8
0
 62
     7
100
AcDbLine
 10
1549.671609
 20
174.5249710000001
 30
0.0
 11
1547.771609
 21
171.234074
 31
0.0
  0
LINE
  5
4F3
330
6B
100
AcDbEntity
  8
0
 62
     7
100
AcDbLine
 10
1549.671609
 20
174.5249710000001
 30
0.0
 11
1551.571609
 21
171.234074
 31
0.0
  0
LINE
  5
4F4
330
6B
100
AcDbEntity
  8
0
 62
     7
100
AcDbLine
 10
1547.771609
 20
171.234074
 30
0.0
 11
1551.571609
 21
171.234074
 31
0.0
  0
LINE
  5
4F5
330
6B
100
AcDbEntity
  8
0
 62
     3
100
AcDbLine
 10
1544.671609
 20
180.734074
 30
0.0
 11
1630.671609
 21
180.734074
 31
0.0
  0
LINE
  5
4F6
330
6B
100
AcDbEntity
  8
0
 62
     3
100
AcDbLine
 10
1544.671609
 20
175.734074
 30
0.0
 11
1630.671609
 21
175.734074
 31
0.0
  0
LINE
  5
4F7
330
6B
100
AcDbEntity
  8
0
 62
     7
100
AcDbLine
 10
1544.671609
 20
170.734074
 30
0.0
 11
1630.671609
 21
170.734074
 31
0.0
  0
LINE
  5
4F8
330
6B
100
AcDbEntity
  8
0
 62
     3
100
AcDbLine
 10
1544.671609
 20
165.734074
 30
0.0
 11
1630.671609
 21
165.734074
 31
0.0
  0
LINE
  5
4F9
330
6B
100
AcDbEntity
  8
0
 62
     7
100
AcDbLine
 10
1616.671609
 20
165.734074
 30
0.0
 11
1616.671609
 21
180.734074
 31
0.0
  0
LINE
  5
4FA
330
6B
100
AcDbEntity
  8
0
 62
     7
100
AcDbLine
 10
1572.671609
 20
165.734074
 30
0.0
 11
1572.671609
 21
180.734074
 31
0.0
  0
LINE
  5
4FB
330
6B
100
AcDbEntity
  8
0
 62
     7
100
AcDbLine
 10
1554.671609
 20
165.734074
 30
0.0
 11
1554.671609
 21
180.734074
 31
0.0
  0
LINE
  5
4FC
330
6B
100
AcDbEntity
  8
0
 62
     3
100
AcDbLine
 10
1544.671609
 20
165.734074
 30
0.0
 11
1544.671609
 21
185.734074
 31
0.0
  0
LINE
  5
6BA
330
6B
100
AcDbEntity
  8
0
 62
     7
100
AcDbLine
 10
1348.802684
 20
73.18858299999999
 30
0.0
 11
1348.570471
 21
75.24607299999999
 31
0.0
  0
LINE
  5
6BB
330
6B
100
AcDbEntity
  8
0
 62
     7
100
AcDbLine
 10
1348.570471
 20
75.24607299999999
 30
0.0
 11
1347.742828
 21
73.348128
 31
0.0
  0
LINE
  5
6BE
330
6B
100
AcDbEntity
  8
0
 62
     7
100
AcDbLine
 10
1348.082871
 20
115.651607
 30
0.0
 11
1347.486733
 21
113.668729
 31
0.0
  0
LINE
  5
6BF
330
6B
100
AcDbEntity
  8
0
 62
     7
100
AcDbLine
 10
1347.486733
 20
113.668729
 30
0.0
 11
1348.994443
 21
115.087882
 31
0.0
  0
LINE
  5
6C0
330
6B
100
AcDbEntity
  8
0
 62
     7
100
AcDbLine
 10
1331.065408
 20
113.450569
 30
0.0
 11
1330.786733
 21
111.398856
 31
0.0
  0
LINE
  5
6C1
330
6B
100
AcDbEntity
  8
0
 62
     7
100
AcDbLine
 10
1330.786733
 20
111.398856
 30
0.0
 11
1332.053929
 21
113.036354
 31
0.0
  0
LINE
  5
6C2
330
6B
100
AcDbEntity
  8
0
 62
     7
100
AcDbLine
 10
1305.388782
 20
115.136963
 30
0.0
 11
1305.486733
 21
113.068729
 31
0.0
  0
LINE
  5
6C3
330
6B
100
AcDbEntity
  8
0
 62
     7
100
AcDbLine
 10
1305.486733
 20
113.068729
 30
0.0
 11
1306.436022
 21
114.908848
 31
0.0
  0
LINE
  5
6C4
330
6B
100
AcDbEntity
  8
0
 62
     7
100
AcDbLine
 10
1277.554197
 20
115.00537
 30
0.0
 11
1278.286733
 21
113.068729
 31
0.0
  0
LINE
  5
6C5
330
6B
100
AcDbEntity
  8
0
 62
     7
100
AcDbLine
 10
1278.286733
 20
113.068729
 30
0.0
 11
1278.620659
 21
115.112177
 31
0.0
  0
LINE
  5
6C6
330
6B
100
AcDbEntity
  8
0
 62
     7
100
AcDbLine
 10
1262.871721
 20
126.873428
 30
0.0
 11
1263.886733
 21
125.068729
 31
0.0
  0
LINE
  5
6C7
330
6B
100
AcDbEntity
  8
0
 62
     7
100
AcDbLine
 10
1263.886733
 20
125.068729
 30
0.0
 11
1263.910056
 21
127.13915
 31
0.0
  0
LINE
  5
6C8
330
6B
100
AcDbEntity
  8
0
 62
     7
100
AcDbLine
 10
1305.280003
 20
74.486971
 30
0.0
 11
1304.49544
 21
76.403125
 31
0.0
  0
LINE
  5
6C9
330
6B
100
AcDbEntity
  8
0
 62
     7
100
AcDbLine
 10
1304.49544
 20
76.403125
 30
0.0
 11
1304.216814
 21
74.351405
 31
0.0
  0
LINE
  5
6CA
330
6B
100
AcDbEntity
  8
0
 62
     7
100
AcDbLine
 10
1276.745244
 20
74.88205500000001
 30
0.0
 11
1275.466193
 21
76.51031
 31
0.0
  0
LINE
  5
6CB
330
6B
100
AcDbEntity
  8
0
 62
     7
100
AcDbLine
 10
1275.466193
 20
76.51031
 30
0.0
 11
1275.759756
 21
74.460674
 31
0.0
  0
LINE
  5
6CC
330
6B
100
AcDbEntity
  8
0
 62
     7
100
AcDbLine
 10
1324.958446
 20
73.897114
 30
0.0
 11
1323.886733
 21
75.66872899999999
 31
0.0
  0
LINE
  5
6CD
330
6B
100
AcDbEntity
  8
0
 62
     7
100
AcDbLine
 10
1323.886733
 20
75.66872899999999
 30
0.0
 11
1323.929056
 21
73.598609
 31
0.0
  0
LINE
  5
6CE
330
6B
100
AcDbEntity
  8
0
 62
     7
100
AcDbLine
 10
1528.519244
 20
59.435747
 30
0.0
 11
1526.635142
 21
60.294437
 31
0.0
  0
LINE
  5
6CF
330
6B
100
AcDbEntity
  8
0
 62
     7
100
AcDbLine
 10
1526.635142
 20
60.294437
 30
0.0
 11
1527.837477
 21
58.608739
 31
0.0
  0
LINE
  5
6D0
330
6B
100
AcDbEntity
  8
0
 62
     7
100
AcDbLine
 10
1548.918939
 20
102.27827
 30
0.0
 11
1549.051429
 21
100.211961
 31
0.0
  0
LINE
  5
6D1
330
6B
100
AcDbEntity
  8
0
 62
     7
100
AcDbLine
 10
1549.051429
 20
100.211961
 30
0.0
 11
1549.969844
 21
102.067683
 31
0.0
  0
LINE
  5
6D2
330
6B
100
AcDbEntity
  8
0
 62
     7
100
AcDbLine
 10
1522.684351
 20
60.737512
 30
0.0
 11
1523.716103
 21
59.741043
 31
0.0
  0
LINE
  5
6D3
330
6B
100
AcDbEntity
  8
0
 62
     7
100
AcDbLine
 10
1523.716103
 20
59.741043
 30
0.0
 11
1524.758768
 21
59.441641
 31
0.0
  0
LINE
  5
6D4
330
6B
100
AcDbEntity
  8
0
 62
     7
100
AcDbLine
 10
1524.758768
 20
59.441641
 30
0.0
 11
1525.500096
 21
59.865586
 31
0.0
  0
LINE
  5
6D5
330
6B
100
AcDbEntity
  8
0
 62
     7
100
AcDbLine
 10
1525.500096
 20
59.865586
 30
0.0
 11
1526.249756
 21
60.28395699999999
 31
0.0
  0
LINE
  5
6D6
330
6B
100
AcDbEntity
  8
0
 62
     7
100
AcDbLine
 10
1526.249756
 20
60.28395699999999
 30
0.0
 11
1527.203559
 21
60.05805999999999
 31
0.0
  0
LINE
  5
6D7
330
6B
100
AcDbEntity
  8
0
 62
     7
100
AcDbLine
 10
1527.203559
 20
60.05805999999999
 30
0.0
 11
1528.16211
 21
59.27965799999999
 31
0.0
  0
LINE
  5
6D8
330
6B
100
AcDbEntity
  8
0
 62
     7
100
AcDbLine
 10
1266.366955
 20
117.884536
 30
0.0
 11
1266.37757
 21
117.797421
 31
0.0
  0
LINE
  5
6D9
330
6B
100
AcDbEntity
  8
0
 62
     7
100
AcDbLine
 10
1266.37757
 20
117.797421
 30
0.0
 11
1266.409334
 21
117.710969
 31
0.0
  0
LINE
  5
6DA
330
6B
100
AcDbEntity
  8
0
 62
     7
100
AcDbLine
 10
1266.409334
 20
117.710969
 30
0.0
 11
1266.462006
 21
117.625839
 31
0.0
  0
LINE
  5
6DB
330
6B
100
AcDbEntity
  8
0
 62
     7
100
AcDbLine
 10
1266.462006
 20
117.625839
 30
0.0
 11
1266.535185
 21
117.542677
 31
0.0
  0
LINE
  5
6DC
330
6B
100
AcDbEntity
  8
0
 62
     7
100
AcDbLine
 10
1266.535185
 20
117.542677
 30
0.0
 11
1266.628313
 21
117.462116
 31
0.0
  0
LINE
  5
6DD
330
6B
100
AcDbEntity
  8
0
 62
     7
100
AcDbLine
 10
1266.628313
 20
117.462116
 30
0.0
 11
1266.740682
 21
117.384771
 31
0.0
  0
LINE
  5
6DE
330
6B
100
AcDbEntity
  8
0
 62
     7
100
AcDbLine
 10
1266.740682
 20
117.384771
 30
0.0
 11
1266.871438
 21
117.311229
 31
0.0
  0
LINE
  5
6DF
330
6B
100
AcDbEntity
  8
0
 62
     7
100
AcDbLine
 10
1266.871438
 20
117.311229
 30
0.0
 11
1267.019583
 21
117.24205
 31
0.0
  0
LINE
  5
6E0
330
6B
100
AcDbEntity
  8
0
 62
     7
100
AcDbLine
 10
1267.019583
 20
117.24205
 30
0.0
 11
1267.183993
 21
117.177761
 31
0.0
  0
LINE
  5
6E1
330
6B
100
AcDbEntity
  8
0
 62
     7
100
AcDbLine
 10
1267.183993
 20
117.177761
 30
0.0
 11
1267.363414
 21
117.118851
 31
0.0
  0
LINE
  5
6E2
330
6B
100
AcDbEntity
  8
0
 62
     7
100
AcDbLine
 10
1267.363414
 20
117.118851
 30
0.0
 11
1267.556481
 21
117.065769
 31
0.0
  0
LINE
  5
6E3
330
6B
100
AcDbEntity
  8
0
 62
     7
100
AcDbLine
 10
1267.556481
 20
117.065769
 30
0.0
 11
1267.761726
 21
117.018917
 31
0.0
  0
LINE
  5
6E4
330
6B
100
AcDbEntity
  8
0
 62
     7
100
AcDbLine
 10
1267.761726
 20
117.018917
 30
0.0
 11
1267.977585
 21
116.978654
 31
0.0
  0
LINE
  5
6E5
330
6B
100
AcDbEntity
  8
0
 62
     7
100
AcDbLine
 10
1267.977585
 20
116.978654
 30
0.0
 11
1268.202417
 21
116.945285
 31
0.0
  0
LINE
  5
6E6
330
6B
100
AcDbEntity
  8
0
 62
     7
100
AcDbLine
 10
1268.202417
 20
116.945285
 30
0.0
 11
1268.43451
 21
116.919064
 31
0.0
  0
LINE
  5
6E7
330
6B
100
AcDbEntity
  8
0
 62
     7
100
AcDbLine
 10
1268.43451
 20
116.919064
 30
0.0
 11
1268.672098
 21
116.900191
 31
0.0
  0
LINE
  5
6E8
330
6B
100
AcDbEntity
  8
0
 62
     7
100
AcDbLine
 10
1268.672098
 20
116.900191
 30
0.0
 11
1268.913372
 21
116.888809
 31
0.0
  0
LINE
  5
6E9
330
6B
100
AcDbEntity
  8
0
 62
     7
100
AcDbLine
 10
1268.913372
 20
116.888809
 30
0.0
 11
1269.156497
 21
116.885006
 31
0.0
  0
LINE
  5
6EA
330
6B
100
AcDbEntity
  8
0
 62
     7
100
AcDbLine
 10
1269.156497
 20
116.885006
 30
0.0
 11
1269.399621
 21
116.888809
 31
0.0
  0
LINE
  5
6EB
330
6B
100
AcDbEntity
  8
0
 62
     7
100
AcDbLine
 10
1269.399621
 20
116.888809
 30
0.0
 11
1269.640896
 21
116.900191
 31
0.0
  0
LINE
  5
6EC
330
6B
100
AcDbEntity
  8
0
 62
     7
100
AcDbLine
 10
1269.640896
 20
116.900191
 30
0.0
 11
1269.878483
 21
116.919064
 31
0.0
  0
LINE
  5
6ED
330
6B
100
AcDbEntity
  8
0
 62
     7
100
AcDbLine
 10
1269.878483
 20
116.919064
 30
0.0
 11
1270.110576
 21
116.945285
 31
0.0
  0
LINE
  5
6EE
330
6B
100
AcDbEntity
  8
0
 62
     7
100
AcDbLine
 10
1270.110576
 20
116.945285
 30
0.0
 11
1270.335408
 21
116.978654
 31
0.0
  0
LINE
  5
6EF
330
6B
100
AcDbEntity
  8
0
 62
     7
100
AcDbLine
 10
1270.335408
 20
116.978654
 30
0.0
 11
1270.551268
 21
117.018917
 31
0.0
  0
LINE
  5
6F0
330
6B
100
AcDbEntity
  8
0
 62
     7
100
AcDbLine
 10
1270.551268
 20
117.018917
 30
0.0
 11
1270.756513
 21
117.065769
 31
0.0
  0
LINE
  5
6F1
330
6B
100
AcDbEntity
  8
0
 62
     7
100
AcDbLine
 10
1270.756513
 20
117.065769
 30
0.0
 11
1270.94958
 21
117.118851
 31
0.0
  0
LINE
  5
6F2
330
6B
100
AcDbEntity
  8
0
 62
     7
100
AcDbLine
 10
1270.94958
 20
117.118851
 30
0.0
 11
1271.129001
 21
117.177761
 31
0.0
  0
LINE
  5
6F3
330
6B
100
AcDbEntity
  8
0
 62
     7
100
AcDbLine
 10
1271.129001
 20
117.177761
 30
0.0
 11
1271.29341
 21
117.24205
 31
0.0
  0
LINE
  5
6F4
330
6B
100
AcDbEntity
  8
0
 62
     7
100
AcDbLine
 10
1271.29341
 20
117.24205
 30
0.0
 11
1271.441556
 21
117.311229
 31
0.0
  0
LINE
  5
6F5
330
6B
100
AcDbEntity
  8
0
 62
     7
100
AcDbLine
 10
1271.441556
 20
117.311229
 30
0.0
 11
1271.572311
 21
117.384771
 31
0.0
  0
LINE
  5
6F6
330
6B
100
AcDbEntity
  8
0
 62
     7
100
AcDbLine
 10
1271.572311
 20
117.384771
 30
0.0
 11
1271.684681
 21
117.462116
 31
0.0
  0
LINE
  5
6F7
330
6B
100
AcDbEntity
  8
0
 62
     7
100
AcDbLine
 10
1271.684681
 20
117.462116
 30
0.0
 11
1271.777809
 21
117.542677
 31
0.0
  0
LINE
  5
6F8
330
6B
100
AcDbEntity
  8
0
 62
     7
100
AcDbLine
 10
1271.777809
 20
117.542677
 30
0.0
 11
1271.850988
 21
117.625839
 31
0.0
  0
LINE
  5
6F9
330
6B
100
AcDbEntity
  8
0
 62
     7
100
AcDbLine
 10
1271.850988
 20
117.625839
 30
0.0
 11
1271.90366
 21
117.710969
 31
0.0
  0
LINE
  5
6FA
330
6B
100
AcDbEntity
  8
0
 62
     7
100
AcDbLine
 10
1271.90366
 20
117.710969
 30
0.0
 11
1271.935424
 21
117.797421
 31
0.0
  0
LINE
  5
6FB
330
6B
100
AcDbEntity
  8
0
 62
     7
100
AcDbLine
 10
1271.935424
 20
117.797421
 30
0.0
 11
1271.946039
 21
117.884536
 31
0.0
  0
LINE
  5
6FC
330
6B
100
AcDbEntity
  8
0
 62
     7
100
AcDbLine
 10
1271.946039
 20
117.884536
 30
0.0
 11
1271.935424
 21
117.971651
 31
0.0
  0
LINE
  5
6FD
330
6B
100
AcDbEntity
  8
0
 62
     7
100
AcDbLine
 10
1271.935424
 20
117.971651
 30
0.0
 11
1271.90366
 21
118.058103
 31
0.0
  0
LINE
  5
6FE
330
6B
100
AcDbEntity
  8
0
 62
     7
100
AcDbLine
 10
1271.90366
 20
118.058103
 30
0.0
 11
1271.850988
 21
118.143234
 31
0.0
  0
LINE
  5
6FF
330
6B
100
AcDbEntity
  8
0
 62
     7
100
AcDbLine
 10
1271.850988
 20
118.143234
 30
0.0
 11
1271.777809
 21
118.226396
 31
0.0
  0
LINE
  5
700
330
6B
100
AcDbEntity
  8
0
 62
     7
100
AcDbLine
 10
1271.777809
 20
118.226396
 30
0.0
 11
1271.684681
 21
118.306956
 31
0.0
  0
LINE
  5
701
330
6B
100
AcDbEntity
  8
0
 62
     7
100
AcDbLine
 10
1271.684681
 20
118.306956
 30
0.0
 11
1271.572311
 21
118.384301
 31
0.0
  0
LINE
  5
702
330
6B
100
AcDbEntity
  8
0
 62
     7
100
AcDbLine
 10
1271.572311
 20
118.384301
 30
0.0
 11
1271.441556
 21
118.457843
 31
0.0
  0
LINE
  5
703
330
6B
100
AcDbEntity
  8
0
 62
     7
100
AcDbLine
 10
1271.441556
 20
118.457843
 30
0.0
 11
1271.29341
 21
118.527022
 31
0.0
  0
LINE
  5
704
330
6B
100
AcDbEntity
  8
0
 62
     7
100
AcDbLine
 10
1271.29341
 20
118.527022
 30
0.0
 11
1271.129001
 21
118.591311
 31
0.0
  0
LINE
  5
705
330
6B
100
AcDbEntity
  8
0
 62
     7
100
AcDbLine
 10
1271.129001
 20
118.591311
 30
0.0
 11
1270.94958
 21
118.650221
 31
0.0
  0
LINE
  5
706
330
6B
100
AcDbEntity
  8
0
 62
     7
100
AcDbLine
 10
1270.94958
 20
118.650221
 30
0.0
 11
1270.756513
 21
118.703304
 31
0.0
  0
LINE
  5
707
330
6B
100
AcDbEntity
  8
0
 62
     7
100
AcDbLine
 10
1270.756513
 20
118.703304
 30
0.0
 11
1270.551268
 21
118.750155
 31
0.0
  0
LINE
  5
708
330
6B
100
AcDbEntity
  8
0
 62
     7
100
AcDbLine
 10
1270.551268
 20
118.750155
 30
0.0
 11
1270.335408
 21
118.790419
 31
0.0
  0
LINE
  5
709
330
6B
100
AcDbEntity
  8
0
 62
     7
100
AcDbLine
 10
1270.335408
 20
118.790419
 30
0.0
 11
1270.110576
 21
118.823788
 31
0.0
  0
LINE
  5
70A
330
6B
100
AcDbEntity
  8
0
 62
     7
100
AcDbLine
 10
1270.110576
 20
118.823788
 30
0.0
 11
1269.878483
 21
118.850009
 31
0.0
  0
LINE
  5
70B
330
6B
100
AcDbEntity
  8
0
 62
     7
100
AcDbLine
 10
1269.878483
 20
118.850009
 30
0.0
 11
1269.640896
 21
118.868882
 31
0.0
  0
LINE
  5
70C
330
6B
100
AcDbEntity
  8
0
 62
     7
100
AcDbLine
 10
1269.640896
 20
118.868882
 30
0.0
 11
1269.399621
 21
118.880263
 31
0.0
  0
LINE
  5
70D
330
6B
100
AcDbEntity
  8
0
 62
     7
100
AcDbLine
 10
1269.399621
 20
118.880263
 30
0.0
 11
1269.156497
 21
118.884067
 31
0.0
  0
LINE
  5
70E
330
6B
100
AcDbEntity
  8
0
 62
     7
100
AcDbLine
 10
1269.156497
 20
118.884067
 30
0.0
 11
1268.913372
 21
118.880263
 31
0.0
  0
LINE
  5
70F
330
6B
100
AcDbEntity
  8
0
 62
     7
100
AcDbLine
 10
1268.913372
 20
118.880263
 30
0.0
 11
1268.672098
 21
118.868882
 31
0.0
  0
LINE
  5
710
330
6B
100
AcDbEntity
  8
0
 62
     7
100
AcDbLine
 10
1268.672098
 20
118.868882
 30
0.0
 11
1268.43451
 21
118.850009
 31
0.0
  0
LINE
  5
711
330
6B
100
AcDbEntity
  8
0
 62
     7
100
AcDbLine
 10
1268.43451
 20
118.850009
 30
0.0
 11
1268.202417
 21
118.823788
 31
0.0
  0
LINE
  5
712
330
6B
100
AcDbEntity
  8
0
 62
     7
100
AcDbLine
 10
1268.202417
 20
118.823788
 30
0.0
 11
1267.977585
 21
118.790419
 31
0.0
  0
LINE
  5
713
330
6B
100
AcDbEntity
  8
0
 62
     7
100
AcDbLine
 10
1267.977585
 20
118.790419
 30
0.0
 11
1267.761726
 21
118.750155
 31
0.0
  0
LINE
  5
714
330
6B
100
AcDbEntity
  8
0
 62
     7
100
AcDbLine
 10
1267.761726
 20
118.750155
 30
0.0
 11
1267.556481
 21
118.703304
 31
0.0
  0
LINE
  5
715
330
6B
100
AcDbEntity
  8
0
 62
     7
100
AcDbLine
 10
1267.556481
 20
118.703304
 30
0.0
 11
1267.363414
 21
118.650221
 31
0.0
  0
LINE
  5
716
330
6B
100
AcDbEntity
  8
0
 62
     7
100
AcDbLine
 10
1267.363414
 20
118.650221
 30
0.0
 11
1267.183993
 21
118.591311
 31
0.0
  0
LINE
  5
717
330
6B
100
AcDbEntity
  8
0
 62
     7
100
AcDbLine
 10
1267.183993
 20
118.591311
 30
0.0
 11
1267.019583
 21
118.527022
 31
0.0
  0
LINE
  5
718
330
6B
100
AcDbEntity
  8
0
 62
     7
100
AcDbLine
 10
1267.019583
 20
118.527022
 30
0.0
 11
1266.871438
 21
118.457843
 31
0.0
  0
LINE
  5
719
330
6B
100
AcDbEntity
  8
0
 62
     7
100
AcDbLine
 10
1266.871438
 20
118.457843
 30
0.0
 11
1266.740682
 21
118.384301
 31
0.0
  0
LINE
  5
71A
330
6B
100
AcDbEntity
  8
0
 62
     7
100
AcDbLine
 10
1266.740682
 20
118.384301
 30
0.0
 11
1266.628313
 21
118.306956
 31
0.0
  0
LINE
  5
71B
330
6B
100
AcDbEntity
  8
0
 62
     7
100
AcDbLine
 10
1266.628313
 20
118.306956
 30
0.0
 11
1266.535185
 21
118.226396
 31
0.0
  0
LINE
  5
71C
330
6B
100
AcDbEntity
  8
0
 62
     7
100
AcDbLine
 10
1266.535185
 20
118.226396
 30
0.0
 11
1266.462006
 21
118.143234
 31
0.0
  0
LINE
  5
71D
330
6B
100
AcDbEntity
  8
0
 62
     7
100
AcDbLine
 10
1266.462006
 20
118.143234
 30
0.0
 11
1266.409334
 21
118.058103
 31
0.0
  0
LINE
  5
71E
330
6B
100
AcDbEntity
  8
0
 62
     7
100
AcDbLine
 10
1266.409334
 20
118.058103
 30
0.0
 11
1266.37757
 21
117.971651
 31
0.0
  0
LINE
  5
71F
330
6B
100
AcDbEntity
  8
0
 62
     7
100
AcDbLine
 10
1266.37757
 20
117.971651
 30
0.0
 11
1266.366955
 21
117.884536
 31
0.0
  0
LINE
  5
720
330
6B
100
AcDbEntity
  8
0
100
AcDbLine
 10
1261.886733
 20
65.418729
 30
0.0
 11
1261.886733
 21
38.59722700000001
 31
0.0
  0
LINE
  5
721
330
6B
100
AcDbEntity
  8
0
100
AcDbLine
 10
1357.886733
 20
65.418729
 30
0.0
 11
1357.886733
 21
38.59722700000001
 31
0.0
  0
LINE
  5
722
330
6B
100
AcDbEntity
  8
0
100
AcDbLine
 10
1264.386733
 20
39.84722700000001
 30
0.0
 11
1355.386733
 21
39.84722700000001
 31
0.0
  0
LINE
  5
726
330
6B
100
AcDbEntity
  8
0
100
AcDbLine
 10
1390.661728
 20
65.418729
 30
0.0
 11
1390.661728
 21
38.927433
 31
0.0
  0
LINE
  5
727
330
6B
100
AcDbEntity
  8
0
100
AcDbLine
 10
1500.661728
 20
65.418729
 30
0.0
 11
1500.661728
 21
38.927433
 31
0.0
  0
LINE
  5
728
330
6B
100
AcDbEntity
  8
0
100
AcDbLine
 10
1393.161728
 20
40.177433
 30
0.0
 11
1498.161728
 21
40.177433
 31
0.0
  0
LINE
  5
72C
330
6B
100
AcDbEntity
  8
0
100
AcDbLine
 10
1395.411728
 20
63.06872900000001
 30
0.0
 11
1376.120473
 21
63.06872900000001
 31
0.0
  0
LINE
  5
72D
330
6B
100
AcDbEntity
  8
0
100
AcDbLine
 10
1390.411728
 20
125.068729
 30
0.0
 11
1376.120473
 21
125.068729
 31
0.0
  0
LINE
  5
72E
330
6B
100
AcDbEntity
  8
0
100
AcDbLine
 10
1377.370473
 20
65.56872900000001
 30
0.0
 11
1377.370473
 21
122.568729
 31
0.0
  0
TEXT
  5
732
330
6B
100
AcDbEntity
  8
0
  6
Continuous
 62
     4
100
AcDbText
 10
1306.136733
 20
40.472227
 30
0.0
 40
3.0
  1
240
100
AcDbText
  0
LINE
  5
733
330
6B
100
AcDbEntity
  8
0
  6
ByBlock
 62
     0
370
    -2
100
AcDbLine
 10
1355.386733
 20
40.5170995
 30
0.0
 11
1357.886733
 21
39.84722700000001
 31
0.0
  0
LINE
  5
734
330
6B
100
AcDbEntity
  8
0
  6
ByBlock
 62
     0
370
    -2
100
AcDbLine
 10
1357.886733
 20
39.84722700000001
 30
0.0
 11
1355.386733
 21
39.17735450000001
 31
0.0
  0
LINE
  5
735
330
6B
100
AcDbEntity
  8
0
  6
ByBlock
 62
     0
370
    -2
100
AcDbLine
 10
1357.886733
 20
39.84722700000001
 30
0.0
 11
1355.386733
 21
39.84722700000001
 31
0.0
  0
LINE
  5
736
330
6B
100
AcDbEntity
  8
0
  6
ByBlock
 62
     0
370
    -2
100
AcDbLine
 10
1264.386733
 20
39.17735450000001
 30
0.0
 11
1261.886733
 21
39.84722700000001
 31
0.0
  0
LINE
  5
737
330
6B
100
AcDbEntity
  8
0
  6
ByBlock
 62
     0
370
    -2
100
AcDbLine
 10
1261.886733
 20
39.84722700000001
 30
0.0
 11
1264.386733
 21
40.5170995
 31
0.0
  0
LINE
  5
738
330
6B
100
AcDbEntity
  8
0
  6
ByBlock
 62
     0
370
    -2
100
AcDbLine
 10
1261.886733
 20
39.84722700000001
 30
0.0
 11
1264.386733
 21
39.84722700000001
 31
0.0
  0
TEXT
  5
739
330
6B
100
AcDbEntity
  8
0
  6
Continuous
 62
     4
100
AcDbText
 10
1441.661728
 20
40.802433
 30
0.0
 40
3.0
  1
275
100
AcDbText
  0
LINE
  5
73A
330
6B
100
AcDbEntity
  8
0
  6
ByBlock
 62
     0
370
    -2
100
AcDbLine
 10
1498.161728
 20
40.84730549999999
 30
0.0
 11
1500.661728
 21
40.177433
 31
0.0
  0
LINE
  5
73B
330
6B
100
AcDbEntity
  8
0
  6
ByBlock
 62
     0
370
    -2
100
AcDbLine
 10
1500.661728
 20
40.177433
 30
0.0
 11
1498.161728
 21
39.50756050000001
 31
0.0
  0
LINE
  5
73C
330
6B
100
AcDbEntity
  8
0
  6
ByBlock
 62
     0
370
    -2
100
AcDbLine
 10
1500.661728
 20
40.177433
 30
0.0
 11
1498.161728
 21
40.177433
 31
0.0
  0
LINE
  5
73D
330
6B
100
AcDbEntity
  8
0
  6
ByBlock
 62
     0
370
    -2
100
AcDbLine
 10
1393.161728
 20
39.5075605
 30
0.0
 11
1390.661728
 21
40.177433
 31
0.0
  0
LINE
  5
73E
330
6B
100
AcDbEntity
  8
0
  6
ByBlock
 62
     0
370
    -2
100
AcDbLine
 10
1390.661728
 20
40.177433
 30
0.0
 11
1393.161728
 21
40.84730549999999
 31
0.0
  0
LINE
  5
73F
330
6B
100
AcDbEntity
  8
0
  6
ByBlock
 62
     0
370
    -2
100
AcDbLine
 10
1390.661728
 20
40.177433
 30
0.0
 11
1393.161728
 21
40.177433
 31
0.0
  0
TEXT
  5
740
330
6B
100
AcDbEntity
  8
0
  6
Continuous
 62
     4
100
AcDbText
 10
1376.745473
 20
90.56872900000023
 30
0.0
 40
3.0
  1
155
 50
90.0
100
AcDbText
  0
LINE
  5
741
330
6B
100
AcDbEntity
  8
0
  6
ByBlock
 62
     0
370
    -2
100
AcDbLine
 10
1376.7006005
 20
122.568729
 30
0.0
 11
1377.370473
 21
125.068729
 31
0.0
  0
LINE
  5
742
330
6B
100
AcDbEntity
  8
0
  6
ByBlock
 62
     0
370
    -2
100
AcDbLine
 10
1377.370473
 20
125.068729
 30
0.0
 11
1378.0403455
 21
122.568729
 31
0.0
  0
LINE
  5
743
330
6B
100
AcDbEntity
  8
0
  6
ByBlock
 62
     0
370
    -2
100
AcDbLine
 10
1377.370473
 20
125.068729
 30
0.0
 11
1377.370473
 21
122.568729
 31
0.0
  0
LINE
  5
744
330
6B
100
AcDbEntity
  8
0
  6
ByBlock
 62
     0
370
    -2
100
AcDbLine
 10
1378.0403455
 20
65.56872900000001
 30
0.0
 11
1377.370473
 21
63.06872900000001
 31
0.0
  0
LINE
  5
745
330
6B
100
AcDbEntity
  8
0
  6
ByBlock
 62
     0
370
    -2
100
AcDbLine
 10
1377.370473
 20
63.06872900000001
 30
0.0
 11
1376.7006005
 21
65.56872900000001
 31
0.0
  0
LINE
  5
746
330
6B
100
AcDbEntity
  8
0
  6
ByBlock
 62
     0
370
    -2
100
AcDbLine
 10
1377.370473
 20
63.06872900000001
 30
0.0
 11
1377.370473
 21
65.56872900000001
 31
0.0
  0
ENDSEC
  0
SECTION
  2
OBJECTS
  0
DICTIONARY
  5
C
330
0
100
AcDbDictionary
281
     1
  3
ACAD_2007HEADERVARS_RT
350
74B
  3
ACAD_COLOR
350
62
  3
ACAD_GROUP
350
D
  3
ACAD_LAYOUT
350
61
  3
ACAD_MATERIAL
350
10
  3
ACAD_MLEADERSTYLE
350
65
  3
ACAD_MLINESTYLE
350
5E
  3
ACAD_PLOTSETTINGS
350
60
  3
ACAD_PLOTSTYLENAME
350
E
  3
ACAD_SCALELIST
350
42
  3
ACAD_TABLESTYLE
350
63
  3
ACAD_VISUALSTYLE
350
29
  3
ACDB_RECOMPOSE_DATA
350
749
  3
AcDbVariableDictionary
350
66D
  3
DWGPROPS
350
74A
  0
DICTIONARY
  5
4B3
330
2
100
AcDbDictionary
280
     1
281
     1
  3
ACAD_LAYERSTATES
360
4B4
  0
DICTIONARY
  5
66B
330
54
100
AcDbDictionary
280
     1
281
     1
  3
ADSK_XREC_LAYER_RECONCILED
360
66C
  0
DICTIONARY
  5
6BC
330
6B
100
AcDbDictionary
280
     1
281
     1
  3
ACAD_SORTENTS
360
6BD
  0
DICTIONARY
  5
74B
102
{ACAD_REACTORS
330
C
102
}
330
C
100
AcDbDictionary
281
     1
  3
DIMARCSYM
350
74D
  3
DIMFXL
350
74C
  3
DIMJOGANG
350
74E
  0
DICTIONARY
  5
62
102
{ACAD_REACTORS
330
C
102
}
330
C
100
AcDbDictionary
281
     1
  0
DICTIONARY
  5
D
102
{ACAD_REACTORS
330
C
102
}
330
C
100
AcDbDictionary
281
     1
  0
DICTIONARY
  5
61
102
{ACAD_REACTORS
330
C
102
}
330
C
100
AcDbDictionary
281
     1
  3
Model
350
6E
  3
レイアウト1
350
6A
  0
DICTIONARY
  5
10
102
{ACAD_REACTORS
330
C
102
}
330
C
100
AcDbDictionary
281
     1
  3
ByBlock
350
19
  3
ByLayer
350
11
  3
Global
350
21
  0
DICTIONARY
  5
65
102
{ACAD_REACTORS
330
C
102
}
330
C
100
AcDbDictionary
281
     1
  3
Standard
350
66
  0
DICTIONARY
  5
5E
102
{ACAD_REACTORS
330
C
102
}
330
C
100
AcDbDictionary
281
     1
  3
Standard
350
5F
  0
DICTIONARY
  5
60
102
{ACAD_REACTORS
330
C
102
}
330
C
100
AcDbDictionary
281
     1
  0
ACDBDICTIONARYWDFLT
  5
E
102
{ACAD_REACTORS
330
C
102
}
330
C
100
AcDbDictionary
281
     1
  3
Normal
350
F
100
AcDbDictionaryWithDefault
340
F
  0
DICTIONARY
  5
42
102
{ACAD_REACTORS
330
C
102
}
330
C
100
AcDbDictionary
281
     1
  3
A0
350
43
  3
A1
350
44
  3
A2
350
45
  3
A3
350
46
  3
A4
350
47
  3
A5
350
48
  3
A6
350
49
  3
A7
350
4A
  3
A8
350
4B
  3
A9
350
4C
  3
B0
350
4D
  3
B1
350
4E
  3
B2
350
4F
  3
B3
350
50
  3
B4
350
51
  3
B5
350
52
  3
B6
350
53
  0
DICTIONARY
  5
63
102
{ACAD_REACTORS
330
C
102
}
330
C
100
AcDbDictionary
281
     1
  3
Standard
350
64
  0
DICTIONARY
  5
29
102
{ACAD_REACTORS
330
C
102
}
330
C
100
AcDbDictionary
281
     1
  3
2dWireframe
350
2F
  3
3dWireframe
350
4B0
  3
Basic
350
2E
  3
Brighten
350
35
  3
ColorChange
350
39
  3
Conceptual
350
32
  3
Dim
350
34
  3
EdgeColorOff
350
41
  3
Facepattern
350
38
  3
Flat
350
2A
  3
FlatWithEdges
350
2B
  3
Gouraud
350
2C
  3
GouraudWithEdges
350
2D
  3
Hidden
350
31
  3
JitterOff
350
3F
  3
Linepattern
350
37
  3
OverhangOff
350
40
  3
Realistic
350
33
  3
Shaded
350
3E
  3
Shaded with edges
350
3D
  3
Shades of Gray
350
3A
  3
Sketchy
350
3B
  3
Thicken
350
36
  3
Wireframe
350
30
  3
X-Ray
350
3C
  0
XRECORD
  5
749
102
{ACAD_REACTORS
330
C
102
}
330
C
100
AcDbXrecord
280
     1
 90
        1
330
64
  0
DICTIONARY
  5
66D
102
{ACAD_REACTORS
330
C
102
}
330
C
100
AcDbDictionary
281
     1
  3
CANNOSCALE
350
670
  3
CMLEADERSTYLE
350
66F
  3
CTABLESTYLE
350
66E
  3
DIMASSOC
350
673
  3
INDEXCTL
350
672
  3
SORTENTS
350
671
  3
XCLIPFRAME
350
674
  0
XRECORD
  5
74A
102
{ACAD_REACTORS
330
C
102
}
330
C
100
AcDbXrecord
280
     1
  1
DWGPROPS COOKIE
  2

  3

  4

  6

  7

  8
imamura
  9

300
=
301
=
302
=
303
=
304
=
305
=
306
=
307
=
308
=
309
=
 40
0.0663096990740741
 41
2456850.49324956
 42
2456850.559559086
  1

 90
        0
  0
DICTIONARY
  5
4B4
102
{ACAD_REACTORS
330
4B3
102
}
330
4B3
100
AcDbDictionary
281
     1
  0
XRECORD
  5
66C
102
{ACAD_REACTORS
330
66B
102
}
330
66B
100
AcDbXrecord
280
     1
290
     1
  0
SORTENTSTABLE
  5
6BD
102
{ACAD_REACTORS
330
6BC
102
}
330
6BC
100
AcDbSortentsTable
330
6B
331
6F0
  5
231
331
2E0
  5
37D
331
198
  5
20A
331
701
  5
242
331
70A
  5
24B
331
C9
  5
F0
331
34B
  5
4E8
331
DA
  5
101
331
71B
  5
25C
331
4F4
  5
73E
331
313
  5
38F
331
EB
  5
112
331
35C
  5
4F9
331
36D
  5
6C9
331
37E
  5
6DA
331
335
  5
3D3
331
F5
  5
11C
331
73D
  5
D1
331
38F
  5
6EB
331
346
  5
3F8
331
106
  5
12D
331
25F
  5
2DF
331
117
  5
13E
331
1F7
  5
266
331
270
  5
311
331
128
  5
14F
331
3B1
  5
6FE
331
208
  5
277
331
281
  5
322
331
139
  5
160
331
219
  5
288
331
292
  5
33A
331
14A
  5
171
331
22A
  5
299
331
2A3
  5
34B
331
2B4
  5
359
331
23B
  5
2AA
331
6CE
  5
6F7
331
2C5
  5
366
331
6DF
  5
220
331
176
  5
19D
331
187
  5
1F9
331
24C
  5
2C8
331
15B
  5
182
331
72C
  5
BB
331
6E0
  5
221
331
6F1
  5
232
331
188
  5
1FA
331
702
  5
243
331
199
  5
20B
331
2F2
  5
37E
331
CA
  5
F1
331
70B
  5
24C
331
34C
  5
4E9
331
DB
  5
102
331
71C
  5
25D
331
4F5
  5
73F
331
314
  5
390
331
EC
  5
113
331
35D
  5
4FA
331
36E
  5
6CA
331
37F
  5
6DB
331
336
  5
3D9
331
F6
  5
11D
331
73E
  5
D2
331
390
  5
6EC
331
347
  5
3F9
331
107
  5
12E
331
260
  5
2E0
331
118
  5
13F
331
3A1
  5
6F4
331
1F8
  5
267
331
271
  5
312
331
129
  5
150
331
3B2
  5
6FF
331
209
  5
278
331
282
  5
32A
331
13A
  5
161
331
21A
  5
289
331
293
  5
33B
331
14B
  5
172
331
22B
  5
29A
331
2A4
  5
34C
331
2B5
  5
35A
331
23C
  5
2B4
331
6BE
  5
71F
331
6CF
  5
6F8
331
2C6
  5
367
331
177
  5
19E
331
24D
  5
2C9
331
15C
  5
183
331
72D
  5
BC
331
6D0
  5
6F2
331
6E1
  5
222
331
178
  5
19F
331
6F2
  5
233
331
189
  5
1FB
331
703
  5
244
331
19A
  5
20C
331
70C
  5
24D
331
CB
  5
F2
331
34D
  5
4EA
331
304
  5
382
331
DC
  5
103
331
71D
  5
25E
331
4F6
  5
740
331
315
  5
391
331
ED
  5
114
331
35E
  5
4FB
331
36F
  5
6CB
331
380
  5
6DC
331
337
  5
3DA
331
F7
  5
11E
331
73F
  5
D3
331
391
  5
6ED
331
108
  5
12F
331
261
  5
2F2
331
119
  5
140
331
3A2
  5
6F5
331
1F9
  5
268
331
272
  5
313
331
12A
  5
151
331
3B3
  5
700
331
20A
  5
279
331
283
  5
32B
331
13B
  5
162
331
21B
  5
28A
331
294
  5
33C
331
14C
  5
173
331
22C
  5
29B
331
2A5
  5
34D
331
2B6
  5
35B
331
23D
  5
2B5
331
6BF
  5
720
331
2C7
  5
368
331
24E
  5
2CA
331
15D
  5
184
331
72E
  5
BD
331
6C0
  5
71A
331
3F1
  5
726
331
2C8
  5
369
331
168
  5
18F
331
6D1
  5
6F3
331
6E2
  5
223
331
179
  5
1A0
331
6F3
  5
234
331
18A
  5
1FC
331
704
  5
245
331
19B
  5
20D
331
BB
  5
E2
331
2F4
  5
37F
331
CC
  5
F3
331
70D
  5
24E
331
34E
  5
4EB
331
305
  5
383
331
DD
  5
104
331
71E
  5
25F
331
4F7
  5
741
331
316
  5
392
331
EE
  5
115
331
35F
  5
4FC
331
370
  5
6CC
331
381
  5
6DD
331
338
  5
3DB
331
F8
  5
11F
331
740
  5
CD
331
392
  5
6EE
331
109
  5
130
331
262
  5
2F4
331
11A
  5
141
331
3A3
  5
6F6
331
1FA
  5
269
331
273
  5
314
331
12B
  5
152
331
20B
  5
27A
331
284
  5
32C
331
13C
  5
163
331
21C
  5
28B
331
295
  5
33D
331
14D
  5
174
331
22D
  5
29C
331
2A6
  5
34E
331
2B7
  5
35C
331
23E
  5
2B6
331
24F
  5
2CB
331
15E
  5
185
331
2B8
  5
35D
331
3E1
  5
71C
331
250
  5
2CC
331
6C1
  5
71B
331
3F2
  5
727
331
2C9
  5
36A
331
169
  5
190
331
6D2
  5
353
331
6E3
  5
224
331
17A
  5
1A1
331
6F4
  5
235
331
18B
  5
1FD
331
705
  5
246
331
19C
  5
20E
331
BC
  5
E3
331
70E
  5
24F
331
CD
  5
F4
331
34F
  5
4EC
331
306
  5
384
331
DE
  5
105
331
71F
  5
260
331
4F8
  5
742
331
317
  5
399
331
EF
  5
116
331
371
  5
6CD
331
360
  5
6BA
331
382
  5
6DE
331
339
  5
3E1
331
F9
  5
120
331
263
  5
2FA
331
11B
  5
142
331
10A
  5
131
331
1FB
  5
26A
331
274
  5
315
331
12C
  5
153
331
20C
  5
27B
331
285
  5
32D
331
13D
  5
164
331
21D
  5
28C
331
296
  5
33E
331
14E
  5
175
331
22E
  5
29D
331
2A7
  5
34F
331
15F
  5
186
331
23F
  5
2B7
331
741
  5
C7
331
2A8
  5
350
331
160
  5
187
331
3D1
  5
712
331
240
  5
2B8
331
2B9
  5
35E
331
3E2
  5
71D
331
251
  5
2CD
331
6C2
  5
715
331
3F3
  5
728
331
2CA
  5
36B
331
16A
  5
191
331
6D3
  5
354
331
6E4
  5
225
331
17B
  5
1A2
331
2D4
  5
371
331
18C
  5
1FE
331
6F5
  5
236
331
706
  5
247
331
19D
  5
20F
331
BD
  5
E4
331
70F
  5
250
331
CE
  5
F5
331
4E8
  5
732
331
DF
  5
106
331
350
  5
4ED
331
4F9
  5
743
331
318
  5
39A
331
372
  5
6CE
331
361
  5
6BB
331
383
  5
6DF
331
33A
  5
3E2
331
FA
  5
121
331
742
  5
C8
331
720
  5
D8
331
264
  5
300
331
11C
  5
143
331
1FC
  5
26B
331
275
  5
316
331
12D
  5
154
331
20D
  5
27C
331
286
  5
32E
331
13E
  5
165
331
21E
  5
28D
331
297
  5
33F
331
14F
  5
176
331
22F
  5
29E
331
10B
  5
132
331
298
  5
340
331
150
  5
177
331
3C1
  5
708
331
230
  5
29F
331
2A9
  5
351
331
161
  5
188
331
3D2
  5
713
331
241
  5
2B9
331
2BA
  5
35F
331
3E3
  5
71E
331
252
  5
2CE
331
6C3
  5
716
331
3F4
  5
729
331
2CB
  5
36C
331
16B
  5
192
331
6D4
  5
355
331
6E5
  5
226
331
17C
  5
1A3
331
2D5
  5
372
331
18D
  5
1FF
331
6F6
  5
237
331
707
  5
248
331
19E
  5
210
331
BE
  5
E5
331
710
  5
251
331
CF
  5
F6
331
4E9
  5
733
331
351
  5
4EE
331
4FA
  5
744
331
319
  5
39B
331
362
  5
6BE
331
373
  5
6CF
331
32A
  5
3B9
331
732
  5
E1
331
721
  5
D9
331
384
  5
6E0
331
33B
  5
3E3
331
FB
  5
122
331
265
  5
304
331
11D
  5
144
331
10C
  5
133
331
1FD
  5
26C
331
743
  5
C9
331
E0
  5
107
331
276
  5
317
331
20E
  5
27D
331
287
  5
32F
331
13F
  5
166
331
21F
  5
28E
331
12E
  5
155
331
288
  5
330
331
140
  5
167
331
220
  5
28F
331
299
  5
341
331
151
  5
178
331
3C2
  5
709
331
231
  5
2A0
331
2AA
  5
352
331
162
  5
189
331
3D3
  5
714
331
242
  5
2BA
331
2BB
  5
360
331
6C4
  5
710
331
253
  5
2CF
331
3F5
  5
72A
331
2CC
  5
36D
331
16C
  5
193
331
6D5
  5
356
331
6E6
  5
227
331
17D
  5
1A4
331
2D6
  5
373
331
18E
  5
200
331
6F7
  5
238
331
19F
  5
211
331
BF
  5
E6
331
711
  5
252
331
4EA
  5
734
331
309
  5
385
331
E1
  5
108
331
4FB
  5
745
331
31A
  5
3A1
331
722
  5
DA
331
374
  5
6D0
331
32B
  5
3BA
331
733
  5
DE
331
363
  5
6BF
331
385
  5
6E1
331
33C
  5
3E9
331
FC
  5
123
331
266
  5
305
331
11E
  5
145
331
10D
  5
134
331
1FE
  5
26D
331
744
  5
C1
331
352
  5
4EF
331
D0
  5
F7
331
277
  5
318
331
20F
  5
27E
331
12F
  5
156
331
278
  5
319
331
130
  5
157
331
3B9
  5
703
331
210
  5
27F
331
289
  5
331
331
141
  5
168
331
221
  5
290
331
29A
  5
342
331
152
  5
179
331
3C3
  5
70A
331
232
  5
2A1
331
2BC
  5
361
331
243
  5
2BB
331
163
  5
18A
331
6C5
  5
711
331
254
  5
2D4
331
3F6
  5
72B
331
2CD
  5
36E
331
16D
  5
194
331
6D6
  5
357
331
6E7
  5
228
331
17E
  5
1A5
331
2D7
  5
374
331
18F
  5
201
331
6F8
  5
239
331
1A0
  5
212
331
C0
  5
E7
331
712
  5
253
331
4EB
  5
735
331
30A
  5
386
331
E2
  5
109
331
4FC
  5
746
331
31B
  5
3A2
331
375
  5
6D1
331
32C
  5
3BB
331
734
  5
DF
331
386
  5
6E2
331
33D
  5
3EA
331
FD
  5
124
331
267
  5
306
331
11F
  5
146
331
10E
  5
135
331
1FF
  5
26E
331
745
  5
C2
331
364
  5
6C0
331
353
  5
4F0
331
D1
  5
F8
331
268
  5
309
331
120
  5
147
331
3A9
  5
6F9
331
200
  5
26F
331
279
  5
31A
331
131
  5
158
331
3BA
  5
704
331
211
  5
280
331
28A
  5
332
331
142
  5
169
331
222
  5
291
331
29B
  5
343
331
153
  5
17A
331
233
  5
2A2
331
2BD
  5
362
331
244
  5
2BC
331
164
  5
18B
331
6C6
  5
70B
331
255
  5
2D5
331
3F7
  5
72C
331
2CE
  5
36F
331
16E
  5
195
331
6D7
  5
358
331
6E8
  5
229
331
17F
  5
1A6
331
2D8
  5
375
331
190
  5
202
331
1A1
  5
213
331
C1
  5
E8
331
2FA
  5
380
331
713
  5
254
331
4EC
  5
736
331
30B
  5
387
331
354
  5
4F1
331
365
  5
6C1
331
376
  5
6D2
331
32D
  5
3C1
331
735
  5
E0
331
387
  5
6E3
331
33E
  5
3EB
331
FE
  5
125
331
10F
  5
136
331
746
  5
C3
331
31C
  5
3A3
331
E3
  5
10A
331
D2
  5
F9
331
6F9
  5
23A
331
388
  5
6E4
331
399
  5
6EF
331
258
  5
2D8
331
110
  5
137
331
269
  5
30A
331
121
  5
148
331
3AA
  5
6FA
331
201
  5
270
331
27A
  5
31B
331
132
  5
159
331
3BB
  5
705
331
212
  5
281
331
28B
  5
333
331
143
  5
16A
331
223
  5
292
331
29C
  5
344
331
154
  5
17B
331
234
  5
2A3
331
6C7
  5
70C
331
256
  5
2D6
331
245
  5
2BD
331
165
  5
18C
331
3F8
  5
72D
331
2CF
  5
370
331
16F
  5
196
331
6D8
  5
219
331
6E9
  5
22A
331
2D9
  5
376
331
191
  5
203
331
6FA
  5
23B
331
1A2
  5
214
331
714
  5
255
331
D3
  5
FA
331
4ED
  5
737
331
30C
  5
388
331
355
  5
4F2
331
366
  5
6C2
331
377
  5
6D3
331
32E
  5
3C2
331
736
  5
DB
331
33F
  5
3F1
331
FF
  5
126
331
31D
  5
3A9
331
E4
  5
10B
331
C2
  5
E9
331
180
  5
1F2
331
378
  5
6D4
331
389
  5
6E5
331
340
  5
3F2
331
100
  5
127
331
39A
  5
6F0
331
259
  5
2D9
331
111
  5
138
331
26A
  5
30B
331
122
  5
149
331
3AB
  5
6FB
331
202
  5
271
331
27B
  5
31C
331
133
  5
15A
331
213
  5
282
331
28C
  5
334
331
144
  5
16B
331
224
  5
293
331
29D
  5
345
331
155
  5
17C
331
235
  5
2A4
331
6C8
  5
706
331
257
  5
2D7
331
246
  5
2C0
331
166
  5
18D
331
3F9
  5
72E
331
170
  5
197
331
6EA
  5
22B
331
181
  5
1F3
331
2DA
  5
377
331
192
  5
204
331
6FB
  5
23C
331
1A3
  5
215
331
715
  5
256
331
D4
  5
FB
331
4EE
  5
738
331
30D
  5
389
331
356
  5
4F3
331
367
  5
6C3
331
31E
  5
3AA
331
32F
  5
3C3
331
737
  5
DC
331
726
  5
CE
331
E5
  5
10C
331
C3
  5
EA
331
6D9
  5
21A
331
368
  5
6C4
331
379
  5
6D5
331
330
  5
3C9
331
F0
  5
117
331
738
  5
DD
331
38A
  5
6E6
331
341
  5
3F3
331
101
  5
128
331
25A
  5
2DA
331
112
  5
139
331
39B
  5
6F1
331
1F2
  5
261
331
26B
  5
30C
331
123
  5
14A
331
203
  5
272
331
27C
  5
31D
331
134
  5
15B
331
214
  5
283
331
28D
  5
335
331
145
  5
16C
331
225
  5
294
331
29E
  5
346
331
156
  5
17D
331
236
  5
2A5
331
3E9
  5
721
331
2C0
  5
363
331
247
  5
2C2
331
6C9
  5
707
331
3FA
  5
72F
331
171
  5
198
331
6DA
  5
21B
331
6EB
  5
22C
331
2DB
  5
378
331
193
  5
205
331
1A4
  5
216
331
C4
  5
EB
331
716
  5
257
331
4EF
  5
739
331
30E
  5
38A
331
E6
  5
10D
331
31F
  5
3AB
331
727
  5
CF
331
357
  5
4F4
331
D5
  5
FC
331
6FC
  5
23D
331
182
  5
1F4
331
167
  5
18E
331
4F0
  5
73A
331
358
  5
4F5
331
369
  5
6C5
331
320
  5
3B1
331
728
  5
D0
331
37A
  5
6D6
331
331
  5
3CA
331
F1
  5
118
331
739
  5
D7
331
38B
  5
6E7
331
342
  5
3F4
331
102
  5
129
331
25B
  5
2DB
331
1F3
  5
262
331
26C
  5
30D
331
124
  5
14B
331
204
  5
273
331
27D
  5
31E
331
135
  5
15C
331
215
  5
284
331
28E
  5
336
331
146
  5
16D
331
113
  5
13A
331
226
  5
295
331
29F
  5
347
331
157
  5
17E
331
3EA
  5
722
331
3D9
  5
717
331
248
  5
2C4
331
237
  5
2A6
331
3FB
  5
730
331
172
  5
199
331
6DB
  5
21C
331
6EC
  5
22D
331
183
  5
1F5
331
2DC
  5
379
331
6FD
  5
23E
331
1A5
  5
217
331
717
  5
258
331
D6
  5
FD
331
30F
  5
38B
331
E7
  5
10E
331
C5
  5
EC
331
194
  5
206
331
6CA
  5
701
331
348
  5
3FA
331
718
  5
259
331
4F1
  5
73B
331
310
  5
38C
331
E8
  5
10F
331
359
  5
4F6
331
36A
  5
6C6
331
321
  5
3B2
331
37B
  5
6D7
331
332
  5
3CB
331
F2
  5
119
331
73A
  5
D4
331
38C
  5
6E8
331
343
  5
3F5
331
103
  5
12A
331
25C
  5
2DC
331
1F4
  5
263
331
26D
  5
30E
331
125
  5
14C
331
205
  5
274
331
27E
  5
31F
331
136
  5
15D
331
216
  5
285
331
28F
  5
337
331
147
  5
16E
331
114
  5
13B
331
2A0
  5
348
331
158
  5
17F
331
3C9
  5
70D
331
238
  5
2A7
331
6BA
  5
724
331
3DA
  5
718
331
3EB
  5
723
331
2C2
  5
364
331
6CB
  5
702
331
3FC
  5
731
331
173
  5
19A
331
6ED
  5
22E
331
184
  5
1F6
331
2DD
  5
37A
331
6FE
  5
23F
331
1A6
  5
218
331
D7
  5
FE
331
C6
  5
ED
331
195
  5
207
331
6DC
  5
21D
331
249
  5
2C5
331
227
  5
296
331
708
  5
249
331
349
  5
3FB
331
300
  5
381
331
D8
  5
FF
331
719
  5
25A
331
4F2
  5
73C
331
311
  5
38D
331
E9
  5
110
331
35A
  5
4F7
331
36B
  5
6C7
331
322
  5
3B3
331
37C
  5
6D8
331
333
  5
3D1
331
F3
  5
11A
331
73B
  5
D5
331
38D
  5
6E9
331
344
  5
3F6
331
104
  5
12B
331
25D
  5
2DD
331
115
  5
13C
331
26E
  5
30F
331
126
  5
14D
331
206
  5
275
331
27F
  5
320
331
137
  5
15E
331
217
  5
286
331
290
  5
338
331
148
  5
16F
331
2A1
  5
349
331
159
  5
180
331
3CA
  5
70E
331
239
  5
2A8
331
6BB
  5
725
331
3DB
  5
719
331
6CC
  5
6FC
331
6DD
  5
21E
331
174
  5
19B
331
6EE
  5
22F
331
185
  5
1F7
331
2DE
  5
37B
331
6FF
  5
240
331
C7
  5
EE
331
196
  5
208
331
24A
  5
2C6
331
228
  5
297
331
1F5
  5
264
331
700
  5
241
331
709
  5
24A
331
C8
  5
EF
331
34A
  5
3FC
331
D9
  5
100
331
71A
  5
25B
331
4F3
  5
73D
331
312
  5
38E
331
EA
  5
111
331
36C
  5
6C8
331
35B
  5
4F8
331
37D
  5
6D9
331
334
  5
3D2
331
F4
  5
11B
331
73C
  5
D6
331
38E
  5
6EA
331
345
  5
3F7
331
105
  5
12C
331
25E
  5
2DE
331
116
  5
13D
331
1F6
  5
265
331
26F
  5
310
331
207
  5
276
331
280
  5
321
331
138
  5
15F
331
218
  5
287
331
291
  5
339
331
149
  5
170
331
2A2
  5
34A
331
15A
  5
181
331
3CB
  5
70F
331
23A
  5
2A9
331
6CD
  5
6FD
331
2C4
  5
365
331
6DE
  5
21F
331
175
  5
19C
331
6EF
  5
230
331
186
  5
1F8
331
2DF
  5
37C
331
197
  5
209
331
24B
  5
2C7
331
229
  5
298
331
127
  5
14E
  0
XRECORD
  5
74D
102
{ACAD_REACTORS
330
74B
102
}
330
74B
100
AcDbXrecord
280
     1
 70
     2
  0
XRECORD
  5
74C
102
{ACAD_REACTORS
330
74B
102
}
330
74B
100
AcDbXrecord
280
     1
 40
1.25
  0
XRECORD
  5
74E
102
{ACAD_REACTORS
330
74B
102
}
330
74B
100
AcDbXrecord
280
     1
 40
1.570796326794896
  0
LAYOUT
  5
6E
102
{ACAD_XDICTIONARY
360
786
102
}
102
{ACAD_REACTORS
330
61
102
}
330
61
100
AcDbPlotSettings
  1

  2
FX DP 205
  4

  6

 40
0.0
 41
0.0
 42
0.0
 43
0.0
 44
0.0
 45
0.0
 46
0.0
 47
0.0
 48
0.0
 49
0.0
140
0.0
141
0.0
142
1.0
143
1.0
 70
  1712
 72
     0
 73
     0
 74
     0
  7

 75
     0
147
1.0
148
0.0
149
0.0
100
AcDbLayout
  1
Model
 70
     1
 71
     0
 10
0.0
 20
0.0
 11
12.0
 21
9.0
 12
0.0
 22
0.0
 32
0.0
 14
0.0
 24
0.0
 34
0.0
 15
0.0
 25
0.0
 35
0.0
146
0.0
 13
0.0
 23
0.0
 33
0.0
 16
1.0
 26
0.0
 36
0.0
 17
0.0
 27
1.0
 37
0.0
 76
     0
330
6B
331
8B
  0
LAYOUT
  5
6A
102
{ACAD_XDICTIONARY
360
784
102
}
102
{ACAD_REACTORS
330
61
102
}
330
61
100
AcDbPlotSettings
  1

  2
FX DP 205
  4

  6

 40
0.0
 41
0.0
 42
0.0
 43
0.0
 44
0.0
 45
0.0
 46
0.0
 47
0.0
 48
0.0
 49
0.0
140
0.0
141
0.0
142
1.0
143
1.0
 70
   688
 72
     0
 73
     0
 74
     5
  7

 75
    16
147
1.0
148
0.0
149
0.0
100
AcDbLayout
  1
レイアウト1
 70
     1
 71
     1
 10
0.0
 20
0.0
 11
12.0
 21
9.0
 12
0.0
 22
0.0
 32
0.0
 14
1.000000000000000E+20
 24
1.000000000000000E+20
 34
1.000000000000000E+20
 15
-1.000000000000000E+20
 25
-1.000000000000000E+20
 35
-1.000000000000000E+20
146
0.0
 13
0.0
 23
0.0
 33
0.0
 16
1.0
 26
0.0
 36
0.0
 17
0.0
 27
1.0
 37
0.0
 76
     0
330
67
  0
MATERIAL
  5
19
102
{ACAD_XDICTIONARY
360
1A
102
}
102
{ACAD_REACTORS
330
10
102
}
330
10
100
AcDbMaterial
  1
ByBlock
 72
     0
 43
0.0208333333333333
 43
0.0
 43
0.0
 43
0.0
 43
0.0
 43
0.0208333333333333
 43
0.0
 43
0.0
 43
0.0
 43
0.0
 43
1.0
 43
0.0
 43
0.0
 43
0.0
 43
0.0
 43
1.0
 77
     0
 47
0.0208333333333333
 47
0.0
 47
0.0
 47
0.0
 47
0.0
 47
0.0208333333333333
 47
0.0
 47
0.0
 47
0.0
 47
0.0
 47
1.0
 47
0.0
 47
0.0
 47
0.0
 47
0.0
 47
1.0
171
     0
 49
0.0208333333333333
 49
0.0
 49
0.0
 49
0.0
 49
0.0
 49
0.0208333333333333
 49
0.0
 49
0.0
 49
0.0
 49
0.0
 49
1.0
 49
0.0
 49
0.0
 49
0.0
 49
0.0
 49
1.0
175
     0
142
0.0208333333333333
142
0.0
142
0.0
142
0.0
142
0.0
142
0.0208333333333333
142
0.0
142
0.0
142
0.0
142
0.0
142
1.0
142
0.0
142
0.0
142
0.0
142
0.0
142
1.0
179
     0
144
0.0208333333333333
144
0.0
144
0.0
144
0.0
144
0.0
144
0.0208333333333333
144
0.0
144
0.0
144
0.0
144
0.0
144
1.0
144
0.0
144
0.0
144
0.0
144
0.0
144
1.0
147
0.0208333333333333
147
0.0
147
0.0
147
0.0
147
0.0
147
0.0208333333333333
147
0.0
147
0.0
147
0.0
147
0.0
147
1.0
147
0.0
147
0.0
147
0.0
147
0.0
147
1.0
  0
MATERIAL
  5
11
102
{ACAD_XDICTIONARY
360
12
102
}
102
{ACAD_REACTORS
330
10
102
}
330
10
100
AcDbMaterial
  1
ByLayer
 72
     0
 43
0.0208333333333333
 43
0.0
 43
0.0
 43
0.0
 43
0.0
 43
0.0208333333333333
 43
0.0
 43
0.0
 43
0.0
 43
0.0
 43
1.0
 43
0.0
 43
0.0
 43
0.0
 43
0.0
 43
1.0
 77
     0
 47
0.0208333333333333
 47
0.0
 47
0.0
 47
0.0
 47
0.0
 47
0.0208333333333333
 47
0.0
 47
0.0
 47
0.0
 47
0.0
 47
1.0
 47
0.0
 47
0.0
 47
0.0
 47
0.0
 47
1.0
171
     0
 49
0.0208333333333333
 49
0.0
 49
0.0
 49
0.0
 49
0.0
 49
0.0208333333333333
 49
0.0
 49
0.0
 49
0.0
 49
0.0
 49
1.0
 49
0.0
 49
0.0
 49
0.0
 49
0.0
 49
1.0
175
     0
142
0.0208333333333333
142
0.0
142
0.0
142
0.0
142
0.0
142
0.0208333333333333
142
0.0
142
0.0
142
0.0
142
0.0
142
1.0
142
0.0
142
0.0
142
0.0
142
0.0
142
1.0
179
     0
144
0.0208333333333333
144
0.0
144
0.0
144
0.0
144
0.0
144
0.0208333333333333
144
0.0
144
0.0
144
0.0
144
0.0
144
1.0
144
0.0
144
0.0
144
0.0
144
0.0
144
1.0
147
0.0208333333333333
147
0.0
147
0.0
147
0.0
147
0.0
147
0.0208333333333333
147
0.0
147
0.0
147
0.0
147
0.0
147
1.0
147
0.0
147
0.0
147
0.0
147
0.0
147
1.0
  0
MATERIAL
  5
21
102
{ACAD_XDICTIONARY
360
22
102
}
102
{ACAD_REACTORS
330
10
102
}
330
10
100
AcDbMaterial
  1
Global
 72
     0
 43
0.0208333333333333
 43
0.0
 43
0.0
 43
0.0
 43
0.0
 43
0.0208333333333333
 43
0.0
 43
0.0
 43
0.0
 43
0.0
 43
1.0
 43
0.0
 43
0.0
 43
0.0
 43
0.0
 43
1.0
 77
     0
 47
0.0208333333333333
 47
0.0
 47
0.0
 47
0.0
 47
0.0
 47
0.0208333333333333
 47
0.0
 47
0.0
 47
0.0
 47
0.0
 47
1.0
 47
0.0
 47
0.0
 47
0.0
 47
0.0
 47
1.0
171
     0
 49
0.0208333333333333
 49
0.0
 49
0.0
 49
0.0
 49
0.0
 49
0.0208333333333333
 49
0.0
 49
0.0
 49
0.0
 49
0.0
 49
1.0
 49
0.0
 49
0.0
 49
0.0
 49
0.0
 49
1.0
175
     0
142
0.0208333333333333
142
0.0
142
0.0
142
0.0
142
0.0
142
0.0208333333333333
142
0.0
142
0.0
142
0.0
142
0.0
142
1.0
142
0.0
142
0.0
142
0.0
142
0.0
142
1.0
179
     0
144
0.0208333333333333
144
0.0
144
0.0
144
0.0
144
0.0
144
0.0208333333333333
144
0.0
144
0.0
144
0.0
144
0.0
144
1.0
144
0.0
144
0.0
144
0.0
144
0.0
144
1.0
147
0.0208333333333333
147
0.0
147
0.0
147
0.0
147
0.0
147
0.0208333333333333
147
0.0
147
0.0
147
0.0
147
0.0
147
1.0
147
0.0
147
0.0
147
0.0
147
0.0
147
1.0
  0
MLEADERSTYLE
  5
66
102
{ACAD_REACTORS
330
65
102
}
330
65
100
AcDbMLeaderStyle
170
     2
171
     1
172
     0
 90
        2
 40
0.0
 41
0.0
173
     1
 91
-1056964608
340
5A
 92
       -2
290
     1
 42
0.09
291
     1
 43
0.36
  3
Standard
 44
0.18
300

342
55
174
     1
178
     6
175
     1
176
     0
 93
-1056964608
 45
0.18
292
     0
297
     0
 46
0.18
 94
-1056964608
 47
1.0
 49
1.0
140
1.0
293
     1
141
0.0
294
     1
177
     0
142
1.0
295
     0
296
     0
143
0.125
1001
ACAD_MLEADERVER
1070
     2
  0
MLINESTYLE
  5
5F
102
{ACAD_REACTORS
330
5E
102
}
330
5E
100
AcDbMlineStyle
  2
STANDARD
 70
     0
  3

 62
   256
 51
90.0
 52
90.0
 71
     2
 49
0.5
 62
   256
  6
BYLAYER
 49
-0.5
 62
   256
  6
BYLAYER
  0
ACDBPLACEHOLDER
  5
F
102
{ACAD_REACTORS
330
E
102
}
330
E
  0
SCALE
  5
43
102
{ACAD_REACTORS
330
42
102
}
330
42
100
AcDbScale
 70
     0
300
1:1
140
1.0
141
1.0
290
     1
  0
SCALE
  5
44
102
{ACAD_REACTORS
330
42
102
}
330
42
100
AcDbScale
 70
     0
300
1/128" = 1'-0"
140
0.0078125
141
12.0
290
     0
  0
SCALE
  5
45
102
{ACAD_REACTORS
330
42
102
}
330
42
100
AcDbScale
 70
     0
300
1/64" = 1'-0"
140
0.015625
141
12.0
290
     0
  0
SCALE
  5
46
102
{ACAD_REACTORS
330
42
102
}
330
42
100
AcDbScale
 70
     0
300
1/32" = 1'-0"
140
0.03125
141
12.0
290
     0
  0
SCALE
  5
47
102
{ACAD_REACTORS
330
42
102
}
330
42
100
AcDbScale
 70
     0
300
1/16" = 1'-0"
140
0.0625
141
12.0
290
     0
  0
SCALE
  5
48
102
{ACAD_REACTORS
330
42
102
}
330
42
100
AcDbScale
 70
     0
300
3/32" = 1'-0"
140
0.09375
141
12.0
290
     0
  0
SCALE
  5
49
102
{ACAD_REACTORS
330
42
102
}
330
42
100
AcDbScale
 70
     0
300
1/8" = 1'-0"
140
0.125
141
12.0
290
     0
  0
SCALE
  5
4A
102
{ACAD_REACTORS
330
42
102
}
330
42
100
AcDbScale
 70
     0
300
3/16" = 1'-0"
140
0.1875
141
12.0
290
     0
  0
SCALE
  5
4B
102
{ACAD_REACTORS
330
42
102
}
330
42
100
AcDbScale
 70
     0
300
1/4" = 1'-0"
140
0.25
141
12.0
290
     0
  0
SCALE
  5
4C
102
{ACAD_REACTORS
330
42
102
}
330
42
100
AcDbScale
 70
     0
300
3/8" = 1'-0"
140
0.375
141
12.0
290
     0
  0
SCALE
  5
4D
102
{ACAD_REACTORS
330
42
102
}
330
42
100
AcDbScale
 70
     0
300
1/2" = 1'-0"
140
0.5
141
12.0
290
     0
  0
SCALE
  5
4E
102
{ACAD_REACTORS
330
42
102
}
330
42
100
AcDbScale
 70
     0
300
3/4" = 1'-0"
140
0.75
141
12.0
290
     0
  0
SCALE
  5
4F
102
{ACAD_REACTORS
330
42
102
}
330
42
100
AcDbScale
 70
     0
300
1" = 1'-0"
140
1.0
141
12.0
290
     0
  0
SCALE
  5
50
102
{ACAD_REACTORS
330
42
102
}
330
42
100
AcDbScale
 70
     0
300
1-1/2" = 1'-0"
140
1.5
141
12.0
290
     0
  0
SCALE
  5
51
102
{ACAD_REACTORS
330
42
102
}
330
42
100
AcDbScale
 70
     0
300
3" = 1'-0"
140
3.0
141
12.0
290
     0
  0
SCALE
  5
52
102
{ACAD_REACTORS
330
42
102
}
330
42
100
AcDbScale
 70
     0
300
6" = 1'-0"
140
6.0
141
12.0
290
     0
  0
SCALE
  5
53
102
{ACAD_REACTORS
330
42
102
}
330
42
100
AcDbScale
 70
     0
300
1'-0" = 1'-0"
140
12.0
141
12.0
290
     0
  0
TABLESTYLE
  5
64
102
{ACAD_XDICTIONARY
360
747
102
}
102
{ACAD_REACTORS
330
63
102
}
330
63
100
AcDbTableStyle
  3
Standard
 70
     0
 71
     0
 40
0.06
 41
0.06
280
     0
281
     0
  7
STANDARD
140
0.18
170
     2
 62
     0
 63
     7
283
     0
274
    -2
284
     1
 64
     0
275
    -2
285
     1
 65
     0
276
    -2
286
     1
 66
     0
277
    -2
287
     1
 67
     0
278
    -2
288
     1
 68
     0
279
    -2
289
     1
 69
     0
  7
STANDARD
140
0.25
170
     5
 62
     0
 63
     7
283
     0
274
    -2
284
     1
 64
     0
275
    -2
285
     1
 65
     0
276
    -2
286
     1
 66
     0
277
    -2
287
     1
 67
     0
278
    -2
288
     1
 68
     0
279
    -2
289
     1
 69
     0
  7
STANDARD
140
0.18
170
     5
 62
     0
 63
     7
283
     0
274
    -2
284
     1
 64
     0
275
    -2
285
     1
 65
     0
276
    -2
286
     1
 66
     0
277
    -2
287
     1
 67
     0
278
    -2
288
     1
 68
     0
279
    -2
289
     1
 69
     0
  0
VISUALSTYLE
  5
2F
102
{ACAD_XDICTIONARY
360
75C
102
}
102
{ACAD_REACTORS
330
29
102
}
330
29
100
AcDbVisualStyle
  2
2dWireframe
 70
     4
 71
     0
 72
     2
 73
     0
 90
        0
 40
-0.6
 41
-30.0
 62
     5
 63
     7
 74
     1
 91
        4
 64
     7
 65
   257
 75
     1
175
     1
 42
1.0
 92
        0
 66
   257
 43
1.0
 76
     1
 77
     6
 78
     2
 67
     7
 79
     5
170
     0
171
     0
290
     0
174
     0
 93
        1
 44
0.0
173
     0
291
     0
 45
0.0
1001
ACAD
1000
AcDbSavedByObjectVersion
1070
     0
  0
VISUALSTYLE
  5
4B0
102
{ACAD_XDICTIONARY
360
78A
102
}
102
{ACAD_REACTORS
330
29
102
}
330
29
100
AcDbVisualStyle
  2
3dWireframe
 70
     5
 71
     0
 72
     2
 73
     1
 90
        0
 40
-0.6
 41
-30.0
 62
     5
 63
     7
 74
     1
 91
        4
 64
     7
 65
   257
 75
     1
175
     1
 42
1.0
 92
        0
 66
   257
 43
1.0
 76
     1
 77
     6
 78
     2
 67
     7
 79
     5
170
     0
171
     0
290
     0
174
     0
 93
        1
 44
0.0
173
     0
291
     0
 45
0.0
1001
ACAD
1000
AcDbSavedByObjectVersion
1070
     0
  0
VISUALSTYLE
  5
2E
102
{ACAD_XDICTIONARY
360
75A
102
}
102
{ACAD_REACTORS
330
29
102
}
330
29
100
AcDbVisualStyle
  2
Basic
 70
     7
 71
     1
 72
     0
 73
     1
 90
        0
 40
-0.6
 41
-30.0
 62
     5
 63
     7
 74
     0
 91
        4
 64
     7
 65
   257
 75
     1
175
     1
 42
1.0
 92
        8
 66
     7
 43
1.0
 76
     1
 77
     6
 78
     2
 67
     7
 79
     5
170
     0
171
     0
290
     0
174
     0
 93
        1
 44
0.0
173
     0
291
     1
 45
0.0
1001
ACAD
1000
AcDbSavedByObjectVersion
1070
     0
  0
VISUALSTYLE
  5
35
102
{ACAD_XDICTIONARY
360
768
102
}
102
{ACAD_REACTORS
330
29
102
}
330
29
100
AcDbVisualStyle
  2
Brighten
 70
    12
 71
     2
 72
     2
 73
     0
 90
        0
 40
-0.6
 41
-30.0
 62
     5
 63
     7
 74
     1
 91
        4
 64
     7
 65
   257
 75
     1
175
     1
 42
1.0
 92
        8
 66
     7
 43
1.0
 76
     1
 77
     6
 78
     2
 67
     7
 79
     5
170
     0
171
     0
290
     0
174
     0
 93
        1
 44
50.0
173
     0
291
     1
 45
0.0
1001
ACAD
1000
AcDbSavedByObjectVersion
1070
     0
  0
VISUALSTYLE
  5
39
102
{ACAD_XDICTIONARY
360
770
102
}
102
{ACAD_REACTORS
330
29
102
}
330
29
100
AcDbVisualStyle
  2
ColorChange
 70
    16
 71
     2
 72
     2
 73
     3
 90
        0
 40
-0.6
 41
-30.0
 62
     5
 63
     8
 74
     1
 91
        4
 64
     7
 65
   257
 75
     1
175
     1
 42
1.0
 92
        8
 66
     8
 43
1.0
 76
     1
 77
     6
 78
     2
 67
     7
 79
     5
170
     0
171
     0
290
     0
174
     0
 93
        1
 44
0.0
173
     0
291
     1
 45
0.0
1001
ACAD
1000
AcDbSavedByObjectVersion
1070
     0
  0
VISUALSTYLE
  5
32
102
{ACAD_XDICTIONARY
360
762
102
}
102
{ACAD_REACTORS
330
29
102
}
330
29
100
AcDbVisualStyle
  2
Conceptual
 70
     9
 71
     3
 72
     2
 73
     0
 90
        0
 40
-0.6
 41
-30.0
 62
     5
 63
     7
 74
     2
 91
        2
 64
     7
 65
   257
 75
     1
175
     1
 42
179.0
 92
        8
 66
     7
 43
1.0
 76
     1
 77
     6
 78
     2
 67
     7
 79
     3
170
     0
171
     0
290
     0
174
     0
 93
        1
 44
0.0
173
     0
291
     0
 45
0.0
1001
ACAD
1000
AcDbSavedByObjectVersion
1070
     0
  0
VISUALSTYLE
  5
34
102
{ACAD_XDICTIONARY
360
766
102
}
102
{ACAD_REACTORS
330
29
102
}
330
29
100
AcDbVisualStyle
  2
Dim
 70
    11
 71
     2
 72
     2
 73
     0
 90
        0
 40
-0.6
 41
-30.0
 62
     5
 63
     7
 74
     1
 91
        4
 64
     7
 65
   257
 75
     1
175
     1
 42
1.0
 92
        8
 66
     7
 43
1.0
 76
     1
 77
     6
 78
     2
 67
     7
 79
     5
170
     0
171
     0
290
     0
174
     0
 93
        1
 44
-50.0
173
     0
291
     1
 45
0.0
1001
ACAD
1000
AcDbSavedByObjectVersion
1070
     0
  0
VISUALSTYLE
  5
41
102
{ACAD_XDICTIONARY
360
780
102
}
102
{ACAD_REACTORS
330
29
102
}
330
29
100
AcDbVisualStyle
  2
EdgeColorOff
 70
    22
 71
     2
 72
     2
 73
     0
 90
        0
 40
-0.6
 41
-30.0
 62
     5
 63
     7
 74
     1
 91
        4
 64
     7
 65
   257
 75
     1
175
     1
 42
1.0
 92
        8
 66
     7
 43
1.0
 76
     1
 77
     6
 78
     2
 67
     7
 79
     5
170
     0
171
     0
290
     0
174
     0
 93
        1
 44
0.0
173
     0
291
     1
 45
0.0
1001
ACAD
1000
AcDbSavedByObjectVersion
1070
     0
  0
VISUALSTYLE
  5
38
102
{ACAD_XDICTIONARY
360
76E
102
}
102
{ACAD_REACTORS
330
29
102
}
330
29
100
AcDbVisualStyle
  2
Facepattern
 70
    15
 71
     2
 72
     2
 73
     0
 90
        0
 40
-0.6
 41
-30.0
 62
     5
 63
     7
 74
     1
 91
        4
 64
     7
 65
   257
 75
     1
175
     1
 42
1.0
 92
        8
 66
     7
 43
1.0
 76
     1
 77
     6
 78
     2
 67
     7
 79
     5
170
     0
171
     0
290
     0
174
     0
 93
        1
 44
0.0
173
     0
291
     1
 45
0.0
1001
ACAD
1000
AcDbSavedByObjectVersion
1070
     0
  0
VISUALSTYLE
  5
2A
102
{ACAD_XDICTIONARY
360
752
102
}
102
{ACAD_REACTORS
330
29
102
}
330
29
100
AcDbVisualStyle
  2
Flat
 70
     0
 71
     2
 72
     1
 73
     1
 90
        2
 40
-0.6
 41
30.0
 62
     5
 63
     7
 74
     0
 91
        0
 64
     7
 65
   257
 75
     1
175
     1
 42
1.0
 92
        8
 66
     7
 43
1.0
 76
     1
 77
     6
 78
     2
 67
     7
 79
     5
170
     0
171
     0
290
     0
174
     0
 93
       13
 44
0.0
173
     0
291
     1
 45
0.0
1001
ACAD
1000
AcDbSavedByObjectVersion
1070
     0
  0
VISUALSTYLE
  5
2B
102
{ACAD_XDICTIONARY
360
754
102
}
102
{ACAD_REACTORS
330
29
102
}
330
29
100
AcDbVisualStyle
  2
FlatWithEdges
 70
     1
 71
     2
 72
     1
 73
     1
 90
        2
 40
-0.6
 41
30.0
 62
     5
 63
     7
 74
     1
 91
        0
 64
     7
 65
   257
 75
     1
175
     1
 42
1.0
 92
        0
 66
   257
 43
1.0
 76
     1
 77
     6
 78
     2
 67
     7
 79
     5
170
     0
171
     0
290
     0
174
     0
 93
       13
 44
0.0
173
     0
291
     1
 45
0.0
1001
ACAD
1000
AcDbSavedByObjectVersion
1070
     0
  0
VISUALSTYLE
  5
2C
102
{ACAD_XDICTIONARY
360
756
102
}
102
{ACAD_REACTORS
330
29
102
}
330
29
100
AcDbVisualStyle
  2
Gouraud
 70
     2
 71
     2
 72
     2
 73
     1
 90
        2
 40
-0.6
 41
30.0
 62
     5
 63
     7
 74
     0
 91
        0
 64
     7
 65
   257
 75
     1
175
     1
 42
1.0
 92
        0
 66
     7
 43
1.0
 76
     1
 77
     6
 78
     2
 67
     7
 79
     5
170
     0
171
     0
290
     0
174
     0
 93
       13
 44
0.0
173
     0
291
     1
 45
0.0
1001
ACAD
1000
AcDbSavedByObjectVersion
1070
     0
  0
VISUALSTYLE
  5
2D
102
{ACAD_XDICTIONARY
360
758
102
}
102
{ACAD_REACTORS
330
29
102
}
330
29
100
AcDbVisualStyle
  2
GouraudWithEdges
 70
     3
 71
     2
 72
     2
 73
     1
 90
        2
 40
-0.6
 41
30.0
 62
     5
 63
     7
 74
     1
 91
        0
 64
     7
 65
   257
 75
     1
175
     1
 42
1.0
 92
        0
 66
   257
 43
1.0
 76
     1
 77
     6
 78
     2
 67
     7
 79
     5
170
     0
171
     0
290
     0
174
     0
 93
       13
 44
0.0
173
     0
291
     1
 45
0.0
1001
ACAD
1000
AcDbSavedByObjectVersion
1070
     0
  0
VISUALSTYLE
  5
31
102
{ACAD_XDICTIONARY
360
760
102
}
102
{ACAD_REACTORS
330
29
102
}
330
29
100
AcDbVisualStyle
  2
Hidden
 70
     6
 71
     1
 72
     2
 73
     2
 90
        0
 40
-0.6
 41
-30.0
 62
     5
 63
     7
 74
     2
 91
        2
 64
     7
 65
   257
 75
     2
175
     1
 42
40.0
 92
        0
 66
   257
 43
1.0
 76
     1
 77
     6
 78
     2
 67
     7
 79
     3
170
     0
171
     0
290
     0
174
     0
 93
        1
 44
0.0
173
     0
291
     0
 45
0.0
1001
ACAD
1000
AcDbSavedByObjectVersion
1070
     0
  0
VISUALSTYLE
  5
3F
102
{ACAD_XDICTIONARY
360
77C
102
}
102
{ACAD_REACTORS
330
29
102
}
330
29
100
AcDbVisualStyle
  2
JitterOff
 70
    20
 71
     2
 72
     2
 73
     0
 90
        0
 40
-0.6
 41
-30.0
 62
     5
 63
     7
 74
     1
 91
        4
 64
     7
 65
   257
 75
     1
175
     1
 42
1.0
 92
       10
 66
     7
 43
1.0
 76
     1
 77
     6
 78
     2
 67
     7
 79
     5
170
     0
171
     0
290
     0
174
     0
 93
        1
 44
0.0
173
     0
291
     1
 45
0.0
1001
ACAD
1000
AcDbSavedByObjectVersion
1070
     0
  0
VISUALSTYLE
  5
37
102
{ACAD_XDICTIONARY
360
76C
102
}
102
{ACAD_REACTORS
330
29
102
}
330
29
100
AcDbVisualStyle
  2
Linepattern
 70
    14
 71
     2
 72
     2
 73
     0
 90
        0
 40
-0.6
 41
-30.0
 62
     5
 63
     7
 74
     1
 91
        4
 64
     7
 65
   257
 75
     7
175
     7
 42
1.0
 92
        8
 66
     7
 43
1.0
 76
     1
 77
     6
 78
     2
 67
     7
 79
     5
170
     0
171
     0
290
     0
174
     0
 93
        1
 44
0.0
173
     0
291
     1
 45
0.0
1001
ACAD
1000
AcDbSavedByObjectVersion
1070
     0
  0
VISUALSTYLE
  5
40
102
{ACAD_XDICTIONARY
360
77E
102
}
102
{ACAD_REACTORS
330
29
102
}
330
29
100
AcDbVisualStyle
  2
OverhangOff
 70
    21
 71
     2
 72
     2
 73
     0
 90
        0
 40
-0.6
 41
-30.0
 62
     5
 63
     7
 74
     1
 91
        4
 64
     7
 65
   257
 75
     1
175
     1
 42
1.0
 92
        9
 66
     7
 43
1.0
 76
     1
 77
     6
 78
     2
 67
     7
 79
     5
170
     0
171
     0
290
     0
174
     0
 93
        1
 44
0.0
173
     0
291
     1
 45
0.0
1001
ACAD
1000
AcDbSavedByObjectVersion
1070
     0
  0
VISUALSTYLE
  5
33
102
{ACAD_XDICTIONARY
360
764
102
}
102
{ACAD_REACTORS
330
29
102
}
330
29
100
AcDbVisualStyle
  2
Realistic
 70
     8
 71
     2
 72
     3
 73
     0
 90
        2
 40
-0.6
 41
30.0
 62
     5
 63
     7
 74
     0
 91
        0
 64
     7
 65
   257
 75
     1
175
     1
 42
1.0
 92
        8
 66
   257
 43
1.0
 76
     1
 77
     6
 78
     2
 67
     7
 79
     3
170
     0
171
     0
290
     0
174
     0
 93
       13
 44
0.0
173
     0
291
     0
 45
0.0
1001
ACAD
1000
AcDbSavedByObjectVersion
1070
     0
  0
VISUALSTYLE
  5
3E
102
{ACAD_XDICTIONARY
360
77A
102
}
102
{ACAD_REACTORS
330
29
102
}
330
29
100
AcDbVisualStyle
  2
Shaded
 70
    27
 71
     2
 72
     2
 73
     1
 90
        2
 40
-0.6
 41
30.0
 62
     5
 63
     7
 74
     0
 91
        4
 64
     7
 65
   257
 75
     1
175
     1
 42
1.0
 92
        8
 66
   257
 43
1.0
 76
     1
 77
     6
 78
     2
 67
     8
 79
     3
170
     0
171
     0
290
     0
174
     0
 93
        5
 44
0.0
173
     0
291
     0
 45
0.0
1001
ACAD
1000
AcDbSavedByObjectVersion
1070
     0
  0
VISUALSTYLE
  5
3D
102
{ACAD_XDICTIONARY
360
778
102
}
102
{ACAD_REACTORS
330
29
102
}
330
29
100
AcDbVisualStyle
  2
Shaded with edges
 70
    26
 71
     2
 72
     2
 73
     1
 90
        2
 40
-0.6
 41
30.0
 62
     5
 63
     7
 74
     1
 91
       10
 64
     7
 65
   257
 75
     2
175
     1
 42
1.0
 92
        8
 66
   257
 43
1.0
 76
     1
 77
     6
 78
     2
 67
     7
 79
     3
170
     0
171
     0
290
     0
174
     0
 93
        5
 44
0.0
173
     0
291
     0
 45
0.0
1001
ACAD
1000
AcDbSavedByObjectVersion
1070
     0
  0
VISUALSTYLE
  5
3A
102
{ACAD_XDICTIONARY
360
772
102
}
102
{ACAD_REACTORS
330
29
102
}
330
29
100
AcDbVisualStyle
  2
Shades of Gray
 70
    23
 71
     2
 72
     2
 73
     3
 90
        0
 40
-0.6
 41
-30.0
 62
     5
 63
     7
 74
     2
 91
        2
 64
     7
 65
     7
 75
     1
175
     1
 42
40.0
 92
        8
 66
     7
 43
1.0
 76
     1
 77
     6
 78
     2
 67
     7
 79
     3
170
     0
171
     0
290
     0
174
     0
 93
        1
 44
0.0
173
     0
291
     0
 45
0.0
1001
ACAD
1000
AcDbSavedByObjectVersion
1070
     0
  0
VISUALSTYLE
  5
3B
102
{ACAD_XDICTIONARY
360
774
102
}
102
{ACAD_REACTORS
330
29
102
}
330
29
100
AcDbVisualStyle
  2
Sketchy
 70
    24
 71
     1
 72
     2
 73
     2
 90
        0
 40
-0.6
 41
-30.0
 62
     5
 63
     7
 74
     2
 91
        2
 64
     7
 65
     7
 75
     1
175
     1
 42
40.0
 92
       11
 66
     7
 43
1.0
 76
     1
 77
     6
 78
     2
 67
     7
 79
     6
170
     0
171
     0
290
     0
174
     0
 93
        1
 44
0.0
173
     0
291
     0
 45
0.0
1001
ACAD
1000
AcDbSavedByObjectVersion
1070
     0
  0
VISUALSTYLE
  5
36
102
{ACAD_XDICTIONARY
360
76A
102
}
102
{ACAD_REACTORS
330
29
102
}
330
29
100
AcDbVisualStyle
  2
Thicken
 70
    13
 71
     2
 72
     2
 73
     0
 90
        0
 40
-0.6
 41
-30.0
 62
     5
 63
     7
 74
     1
 91
        4
 64
     7
 65
   257
 75
     1
175
     1
 42
1.0
 92
       12
 66
     7
 43
1.0
 76
     1
 77
     6
 78
     2
 67
     7
 79
     5
170
     0
171
     0
290
     0
174
     0
 93
        1
 44
0.0
173
     0
291
     1
 45
0.0
1001
ACAD
1000
AcDbSavedByObjectVersion
1070
     0
  0
VISUALSTYLE
  5
30
102
{ACAD_XDICTIONARY
360
75E
102
}
102
{ACAD_REACTORS
330
29
102
}
330
29
100
AcDbVisualStyle
  2
Wireframe
 70
     5
 71
     0
 72
     2
 73
     0
 90
        0
 40
-0.6
 41
-30.0
 62
     5
 63
     7
 74
     1
 91
        4
 64
     7
 65
   257
 75
     1
175
     1
 42
1.0
 92
        0
 66
   257
 43
1.0
 76
     1
 77
     6
 78
     2
 67
     7
 79
     3
170
     0
171
     0
290
     0
174
     0
 93
        1
 44
0.0
173
     0
291
     0
 45
0.0
1001
ACAD
1000
AcDbSavedByObjectVersion
1070
     0
  0
VISUALSTYLE
  5
3C
102
{ACAD_XDICTIONARY
360
776
102
}
102
{ACAD_REACTORS
330
29
102
}
330
29
100
AcDbVisualStyle
  2
X-Ray
 70
    25
 71
     2
 72
     2
 73
     1
 90
        1
 40
0.5
 41
-30.0
 62
     5
 63
     7
 74
     1
 91
        0
 64
     7
 65
   257
 75
     1
175
     1
 42
1.0
 92
        8
 66
     7
 43
1.0
 76
     1
 77
     6
 78
     2
 67
     7
 79
     3
170
     0
171
     0
290
     0
174
     0
 93
       13
 44
0.0
173
     0
291
     0
 45
0.0
1001
ACAD
1000
AcDbSavedByObjectVersion
1070
     0
  0
DICTIONARYVAR
  5
670
102
{ACAD_REACTORS
330
66D
102
}
330
66D
100
DictionaryVariables
280
     0
  1
1:1
  0
DICTIONARYVAR
  5
66F
102
{ACAD_REACTORS
330
66D
102
}
330
66D
100
DictionaryVariables
280
     0
  1
STANDARD
  0
DICTIONARYVAR
  5
66E
102
{ACAD_REACTORS
330
66D
102
}
330
66D
100
DictionaryVariables
280
     0
  1
STANDARD
  0
DICTIONARYVAR
  5
673
102
{ACAD_REACTORS
330
66D
102
}
330
66D
100
DictionaryVariables
280
     0
  1
1
  0
DICTIONARYVAR
  5
672
102
{ACAD_REACTORS
330
66D
102
}
330
66D
100
DictionaryVariables
280
     0
  1
0
  0
DICTIONARYVAR
  5
671
102
{ACAD_REACTORS
330
66D
102
}
330
66D
100
DictionaryVariables
280
     0
  1
127
  0
DICTIONARYVAR
  5
674
102
{ACAD_REACTORS
330
66D
102
}
330
66D
100
DictionaryVariables
280
     0
  1
2
  0
DICTIONARY
  5
786
330
6E
100
AcDbDictionary
280
     1
281
     1
  3
ACAD_XREC_ROUNDTRIP
360
787
  0
DICTIONARY
  5
784
330
6A
100
AcDbDictionary
280
     1
281
     1
  3
ACAD_XREC_ROUNDTRIP
360
785
  0
DICTIONARY
  5
1A
330
19
100
AcDbDictionary
280
     1
281
     1
  3
ACAD_XREC_ROUNDTRIP
360
750
  3
BUMPTILE
360
1C
  3
DIFFUSETILE
360
1B
  3
OPACITYTILE
360
1F
  3
REFLECTIONTILE
360
1E
  3
REFRACTIONTILE
360
20
  3
SPECULARTILE
360
1D
  0
DICTIONARY
  5
12
330
11
100
AcDbDictionary
280
     1
281
     1
  3
ACAD_XREC_ROUNDTRIP
360
74F
  3
BUMPTILE
360
14
  3
DIFFUSETILE
360
13
  3
OPACITYTILE
360
17
  3
REFLECTIONTILE
360
16
  3
REFRACTIONTILE
360
18
  3
SPECULARTILE
360
15
  0
DICTIONARY
  5
22
330
21
100
AcDbDictionary
280
     1
281
     1
  3
ACAD_XREC_ROUNDTRIP
360
751
  3
BUMPTILE
360
24
  3
DIFFUSETILE
360
23
  3
OPACITYTILE
360
27
  3
REFLECTIONTILE
360
26
  3
REFRACTIONTILE
360
28
  3
SPECULARTILE
360
25
  0
DICTIONARY
  5
747
330
64
100
AcDbDictionary
280
     1
281
     1
  3
ACAD_ROUNDTRIP_2008_TABLESTYLE_CELLSTYLEMAP
360
748
  3
ACAD_XREC_ROUNDTRIP
360
782
  0
DICTIONARY
  5
75C
330
2F
100
AcDbDictionary
280
     1
281
     1
  3
ACAD_XREC_ROUNDTRIP
360
75D
  0
DICTIONARY
  5
78A
330
4B0
100
AcDbDictionary
280
     1
281
     1
  3
ACAD_XREC_ROUNDTRIP
360
78B
  0
DICTIONARY
  5
75A
330
2E
100
AcDbDictionary
280
     1
281
     1
  3
ACAD_XREC_ROUNDTRIP
360
75B
  0
DICTIONARY
  5
768
330
35
100
AcDbDictionary
280
     1
281
     1
  3
ACAD_XREC_ROUNDTRIP
360
769
  0
DICTIONARY
  5
770
330
39
100
AcDbDictionary
280
     1
281
     1
  3
ACAD_XREC_ROUNDTRIP
360
771
  0
DICTIONARY
  5
762
330
32
100
AcDbDictionary
280
     1
281
     1
  3
ACAD_XREC_ROUNDTRIP
360
763
  0
DICTIONARY
  5
766
330
34
100
AcDbDictionary
280
     1
281
     1
  3
ACAD_XREC_ROUNDTRIP
360
767
  0
DICTIONARY
  5
780
330
41
100
AcDbDictionary
280
     1
281
     1
  3
ACAD_XREC_ROUNDTRIP
360
781
  0
DICTIONARY
  5
76E
330
38
100
AcDbDictionary
280
     1
281
     1
  3
ACAD_XREC_ROUNDTRIP
360
76F
  0
DICTIONARY
  5
752
330
2A
100
AcDbDictionary
280
     1
281
     1
  3
ACAD_XREC_ROUNDTRIP
360
753
  0
DICTIONARY
  5
754
330
2B
100
AcDbDictionary
280
     1
281
     1
  3
ACAD_XREC_ROUNDTRIP
360
755
  0
DICTIONARY
  5
756
330
2C
100
AcDbDictionary
280
     1
281
     1
  3
ACAD_XREC_ROUNDTRIP
360
757
  0
DICTIONARY
  5
758
330
2D
100
AcDbDictionary
280
     1
281
     1
  3
ACAD_XREC_ROUNDTRIP
360
759
  0
DICTIONARY
  5
760
330
31
100
AcDbDictionary
280
     1
281
     1
  3
ACAD_XREC_ROUNDTRIP
360
761
  0
DICTIONARY
  5
77C
330
3F
100
AcDbDictionary
280
     1
281
     1
  3
ACAD_XREC_ROUNDTRIP
360
77D
  0
DICTIONARY
  5
76C
330
37
100
AcDbDictionary
280
     1
281
     1
  3
ACAD_XREC_ROUNDTRIP
360
76D
  0
DICTIONARY
  5
77E
330
40
100
AcDbDictionary
280
     1
281
     1
  3
ACAD_XREC_ROUNDTRIP
360
77F
  0
DICTIONARY
  5
764
330
33
100
AcDbDictionary
280
     1
281
     1
  3
ACAD_XREC_ROUNDTRIP
360
765
  0
DICTIONARY
  5
77A
330
3E
100
AcDbDictionary
280
     1
281
     1
  3
ACAD_XREC_ROUNDTRIP
360
77B
  0
DICTIONARY
  5
778
330
3D
100
AcDbDictionary
280
     1
281
     1
  3
ACAD_XREC_ROUNDTRIP
360
779
  0
DICTIONARY
  5
772
330
3A
100
AcDbDictionary
280
     1
281
     1
  3
ACAD_XREC_ROUNDTRIP
360
773
  0
DICTIONARY
  5
774
330
3B
100
AcDbDictionary
280
     1
281
     1
  3
ACAD_XREC_ROUNDTRIP
360
775
  0
DICTIONARY
  5
76A
330
36
100
AcDbDictionary
280
     1
281
     1
  3
ACAD_XREC_ROUNDTRIP
360
76B
  0
DICTIONARY
  5
75E
330
30
100
AcDbDictionary
280
     1
281
     1
  3
ACAD_XREC_ROUNDTRIP
360
75F
  0
DICTIONARY
  5
776
330
3C
100
AcDbDictionary
280
     1
281
     1
  3
ACAD_XREC_ROUNDTRIP
360
777
  0
XRECORD
  5
787
102
{ACAD_REACTORS
330
786
102
}
330
786
100
AcDbXrecord
280
     1
102
SHADEPLOT
 70
     0
102
SHADEPLOTRESLEVEL
 70
     2
102
SHADEPLOTCUSTOMDPI
 70
   300
  0
XRECORD
  5
785
102
{ACAD_REACTORS
330
784
102
}
330
784
100
AcDbXrecord
280
     1
102
SHADEPLOT
 70
     0
102
SHADEPLOTRESLEVEL
 70
     2
102
SHADEPLOTCUSTOMDPI
 70
   300
  0
XRECORD
  5
750
102
{ACAD_REACTORS
330
1A
102
}
330
1A
100
AcDbXrecord
280
     1
102
MATERIAL
148
0.0
149
0.0
149
0.0
 93
        0
 94
      127
282
     0
 72
     0
 77
     0
171
     0
175
     0
179
     0
273
     0
  0
XRECORD
  5
1C
102
{ACAD_REACTORS
330
1A
102
}
330
1A
100
AcDbXrecord
280
     1
270
     1
271
     1
  0
XRECORD
  5
1B
102
{ACAD_REACTORS
330
1A
102
}
330
1A
100
AcDbXrecord
280
     1
270
     1
271
     1
  0
XRECORD
  5
1F
102
{ACAD_REACTORS
330
1A
102
}
330
1A
100
AcDbXrecord
280
     1
270
     1
271
     1
  0
XRECORD
  5
1E
102
{ACAD_REACTORS
330
1A
102
}
330
1A
100
AcDbXrecord
280
     1
270
     1
271
     1
  0
XRECORD
  5
20
102
{ACAD_REACTORS
330
1A
102
}
330
1A
100
AcDbXrecord
280
     1
270
     1
271
     1
  0
XRECORD
  5
1D
102
{ACAD_REACTORS
330
1A
102
}
330
1A
100
AcDbXrecord
280
     1
270
     1
271
     1
  0
XRECORD
  5
74F
102
{ACAD_REACTORS
330
12
102
}
330
12
100
AcDbXrecord
280
     1
102
MATERIAL
148
0.0
149
0.0
149
0.0
 93
        0
 94
      127
282
     0
 72
     0
 77
     0
171
     0
175
     0
179
     0
273
     0
  0
XRECORD
  5
14
102
{ACAD_REACTORS
330
12
102
}
330
12
100
AcDbXrecord
280
     1
270
     1
271
     1
  0
XRECORD
  5
13
102
{ACAD_REACTORS
330
12
102
}
330
12
100
AcDbXrecord
280
     1
270
     1
271
     1
  0
XRECORD
  5
17
102
{ACAD_REACTORS
330
12
102
}
330
12
100
AcDbXrecord
280
     1
270
     1
271
     1
  0
XRECORD
  5
16
102
{ACAD_REACTORS
330
12
102
}
330
12
100
AcDbXrecord
280
     1
270
     1
271
     1
  0
XRECORD
  5
18
102
{ACAD_REACTORS
330
12
102
}
330
12
100
AcDbXrecord
280
     1
270
     1
271
     1
  0
XRECORD
  5
15
102
{ACAD_REACTORS
330
12
102
}
330
12
100
AcDbXrecord
280
     1
270
     1
271
     1
  0
XRECORD
  5
751
102
{ACAD_REACTORS
330
22
102
}
330
22
100
AcDbXrecord
280
     1
102
MATERIAL
148
0.0
149
0.0
149
0.0
 93
        0
 94
      127
282
     0
 72
     0
 77
     0
171
     0
175
     0
179
     0
273
     0
  0
XRECORD
  5
24
102
{ACAD_REACTORS
330
22
102
}
330
22
100
AcDbXrecord
280
     1
270
     1
271
     1
  0
XRECORD
  5
23
102
{ACAD_REACTORS
330
22
102
}
330
22
100
AcDbXrecord
280
     1
270
     1
271
     1
  0
XRECORD
  5
27
102
{ACAD_REACTORS
330
22
102
}
330
22
100
AcDbXrecord
280
     1
270
     1
271
     1
  0
XRECORD
  5
26
102
{ACAD_REACTORS
330
22
102
}
330
22
100
AcDbXrecord
280
     1
270
     1
271
     1
  0
XRECORD
  5
28
102
{ACAD_REACTORS
330
22
102
}
330
22
100
AcDbXrecord
280
     1
270
     1
271
     1
  0
XRECORD
  5
25
102
{ACAD_REACTORS
330
22
102
}
330
22
100
AcDbXrecord
280
     1
270
     1
271
     1
  0
CELLSTYLEMAP
  5
748
102
{ACAD_REACTORS
330
747
102
}
330
747
100
AcDbCellStyleMap
 90
        3
300
CELLSTYLE
  1
TABLEFORMAT_BEGIN
 90
        5
170
     1
 91
        0
 92
    32768
 62
   257
 93
        1
300
CONTENTFORMAT
  1
CONTENTFORMAT_BEGIN
 90
        0
 91
        0
 92
      512
 93
        0
300

 40
0.0
140
1.0
 94
        5
 62
     0
340
55
144
0.25
309
CONTENTFORMAT_END
171
     0
 94
        0
309
TABLEFORMAT_END
  1
CELLSTYLE_BEGIN
 90
        1
 91
        1
300
_TITLE
309
CELLSTYLE_END
300
CELLSTYLE
  1
TABLEFORMAT_BEGIN
 90
        5
170
     1
 91
        0
 92
        0
 62
   257
 93
        1
300
CONTENTFORMAT
  1
CONTENTFORMAT_BEGIN
 90
        0
 91
        0
 92
      512
 93
        0
300

 40
0.0
140
1.0
 94
        5
 62
     0
340
55
144
0.18
309
CONTENTFORMAT_END
171
     0
 94
        0
309
TABLEFORMAT_END
  1
CELLSTYLE_BEGIN
 90
        2
 91
        1
300
_HEADER
309
CELLSTYLE_END
300
CELLSTYLE
  1
TABLEFORMAT_BEGIN
 90
        5
170
     1
 91
        0
 92
        0
 62
   257
 93
        1
300
CONTENTFORMAT
  1
CONTENTFORMAT_BEGIN
 90
        0
 91
        0
 92
      512
 93
        0
300

 40
0.0
140
1.0
 94
        2
 62
     0
340
55
144
0.18
309
CONTENTFORMAT_END
171
     0
 94
        0
309
TABLEFORMAT_END
  1
CELLSTYLE_BEGIN
 90
        3
 91
        2
300
_DATA
309
CELLSTYLE_END
  0
XRECORD
  5
782
102
{ACAD_REACTORS
330
747
102
}
330
747
100
AcDbXrecord
280
     1
102
ACAD_ROUNDTRIP_PRE2007_TABLESTYLE
 90
      512
 91
        0
  1

 92
      512
 93
        0
  2

 94
      512
 95
        0
  3

  0
XRECORD
  5
75D
102
{ACAD_REACTORS
330
75C
102
}
330
75C
100
AcDbXrecord
280
     1
102
RTVSPropertyOp0
 70
     1
102
RTVSPropertyOp1
 70
     1
102
RTVSPropertyOp2
 70
     1
102
RTVSPropertyOp3
 70
     1
102
RTVSPropertyOp4
 70
     1
102
RTVSPropertyOp5
 70
     1
102
RTVSPropertyOp6
 70
     1
102
RTVSPropertyOp7
 70
     1
102
RTVSPropertyOp8
 70
     1
102
RTVSPropertyOp9
 70
     1
102
RTVSPropertyOp10
 70
     1
102
RTVSPropertyOp11
 70
     1
102
RTVSPropertyOp12
 70
     1
102
RTVSPropertyOp13
 70
     1
102
RTVSPropertyOp14
 70
     1
102
RTVSPropertyOp15
 70
     1
102
RTVSPropertyOp16
 70
     1
102
RTVSPropertyOp17
 70
     1
102
RTVSPropertyOp18
 70
     1
102
RTVSPropertyOp19
 70
     1
102
RTVSPropertyOp20
 70
     1
102
RTVSPropertyOp21
 70
     1
102
RTVSPropertyOp22
 70
     1
102
RTVSPropertyOp23
 70
     1
102
RTVSPropertyOp24
 70
     1
102
RTVSPropertyOp25
 70
     1
102
RTVSPropertyOp26
 70
     1
102
RTVSPropertyOp27
 70
     1
102
RTVSPropertyOp28
 70
     1
102
RTVSPropertyOp29
 70
     1
102
RTVSPropertyOp30
 70
     1
102
RTVSPropertyOp31
 70
     1
102
RTVSPropertyOp32
 70
     1
  0
XRECORD
  5
78B
102
{ACAD_REACTORS
330
78A
102
}
330
78A
100
AcDbXrecord
280
     1
102
RTVSPropertyOp0
 70
     1
102
RTVSPropertyOp1
 70
     1
102
RTVSPropertyOp2
 70
     1
102
RTVSPropertyOp3
 70
     1
102
RTVSPropertyOp4
 70
     1
102
RTVSPropertyOp5
 70
     1
102
RTVSPropertyOp6
 70
     1
102
RTVSPropertyOp7
 70
     1
102
RTVSPropertyOp8
 70
     1
102
RTVSPropertyOp9
 70
     1
102
RTVSPropertyOp10
 70
     1
102
RTVSPropertyOp11
 70
     1
102
RTVSPropertyOp12
 70
     1
102
RTVSPropertyOp13
 70
     1
102
RTVSPropertyOp14
 70
     1
102
RTVSPropertyOp15
 70
     1
102
RTVSPropertyOp16
 70
     1
102
RTVSPropertyOp17
 70
     1
102
RTVSPropertyOp18
 70
     1
102
RTVSPropertyOp19
 70
     1
102
RTVSPropertyOp20
 70
     1
102
RTVSPropertyOp21
 70
     1
102
RTVSPropertyOp22
 70
     1
102
RTVSPropertyOp23
 70
     1
102
RTVSPropertyOp24
 70
     1
102
RTVSPropertyOp25
 70
     1
102
RTVSPropertyOp26
 70
     1
102
RTVSPropertyOp27
 70
     1
102
RTVSPropertyOp28
 70
     1
102
RTVSPropertyOp29
 70
     1
102
RTVSPropertyOp30
 70
     1
102
RTVSPropertyOp31
 70
     1
102
RTVSPropertyOp32
 70
     1
  0
XRECORD
  5
75B
102
{ACAD_REACTORS
330
75A
102
}
330
75A
100
AcDbXrecord
280
     1
102
RTVSPropertyOp0
 70
     1
102
RTVSPropertyOp1
 70
     1
102
RTVSPropertyOp2
 70
     1
102
RTVSPropertyOp3
 70
     1
102
RTVSPropertyOp4
 70
     1
102
RTVSPropertyOp5
 70
     1
102
RTVSPropertyOp6
 70
     1
102
RTVSPropertyOp7
 70
     1
102
RTVSPropertyOp8
 70
     1
102
RTVSPropertyOp9
 70
     1
102
RTVSPropertyOp10
 70
     1
102
RTVSPropertyOp11
 70
     1
102
RTVSPropertyOp12
 70
     1
102
RTVSPropertyOp13
 70
     1
102
RTVSPropertyOp14
 70
     1
102
RTVSPropertyOp15
 70
     1
102
RTVSPropertyOp16
 70
     1
102
RTVSPropertyOp17
 70
     1
102
RTVSPropertyOp18
 70
     1
102
RTVSPropertyOp19
 70
     1
102
RTVSPropertyOp20
 70
     1
102
RTVSPropertyOp21
 70
     1
102
RTVSPropertyOp22
 70
     1
102
RTVSPropertyOp23
 70
     1
102
RTVSPropertyOp24
 70
     1
102
RTVSPropertyOp25
 70
     1
102
RTVSPropertyOp26
 70
     1
102
RTVSPropertyOp27
 70
     1
102
RTVSPropertyOp28
 70
     1
102
RTVSPropertyOp29
 70
     1
102
RTVSPropertyOp30
 70
     1
102
RTVSPropertyOp31
 70
     1
102
RTVSPropertyOp32
 70
     1
  0
XRECORD
  5
769
102
{ACAD_REACTORS
330
768
102
}
330
768
100
AcDbXrecord
280
     1
102
RTVSPropertyOp0
 70
     1
102
RTVSPropertyOp1
 70
     1
102
RTVSPropertyOp2
 70
     1
102
RTVSPropertyOp3
 70
     1
102
RTVSPropertyOp4
 70
     1
102
RTVSPropertyOp5
 70
     1
102
RTVSPropertyOp6
 70
     1
102
RTVSPropertyOp7
 70
     1
102
RTVSPropertyOp8
 70
     1
102
RTVSPropertyOp9
 70
     1
102
RTVSPropertyOp10
 70
     1
102
RTVSPropertyOp11
 70
     1
102
RTVSPropertyOp12
 70
     1
102
RTVSPropertyOp13
 70
     1
102
RTVSPropertyOp14
 70
     1
102
RTVSPropertyOp15
 70
     1
102
RTVSPropertyOp16
 70
     1
102
RTVSPropertyOp17
 70
     1
102
RTVSPropertyOp18
 70
     1
102
RTVSPropertyOp19
 70
     1
102
RTVSPropertyOp20
 70
     1
102
RTVSPropertyOp21
 70
     1
102
RTVSPropertyOp22
 70
     1
102
RTVSPropertyOp23
 70
     1
102
RTVSPropertyOp24
 70
     1
102
RTVSPropertyOp25
 70
     1
102
RTVSPropertyOp26
 70
     1
102
RTVSPropertyOp27
 70
     1
102
RTVSPropertyOp28
 70
     1
102
RTVSPropertyOp29
 70
     1
102
RTVSPropertyOp30
 70
     1
102
RTVSPropertyOp31
 70
     1
102
RTVSPropertyOp32
 70
     1
  0
XRECORD
  5
771
102
{ACAD_REACTORS
330
770
102
}
330
770
100
AcDbXrecord
280
     1
102
RTVSPropertyOp0
 70
     1
102
RTVSPropertyOp1
 70
     1
102
RTVSPropertyOp2
 70
     1
102
RTVSPropertyOp3
 70
     1
102
RTVSPropertyOp4
 70
     1
102
RTVSPropertyOp5
 70
     1
102
RTVSPropertyOp6
 70
     1
102
RTVSPropertyOp7
 70
     1
102
RTVSPropertyOp8
 70
     1
102
RTVSPropertyOp9
 70
     1
102
RTVSPropertyOp10
 70
     1
102
RTVSPropertyOp11
 70
     1
102
RTVSPropertyOp12
 70
     1
102
RTVSPropertyOp13
 70
     1
102
RTVSPropertyOp14
 70
     1
102
RTVSPropertyOp15
 70
     1
102
RTVSPropertyOp16
 70
     1
102
RTVSPropertyOp17
 70
     1
102
RTVSPropertyOp18
 70
     1
102
RTVSPropertyOp19
 70
     1
102
RTVSPropertyOp20
 70
     1
102
RTVSPropertyOp21
 70
     1
102
RTVSPropertyOp22
 70
     1
102
RTVSPropertyOp23
 70
     1
102
RTVSPropertyOp24
 70
     1
102
RTVSPropertyOp25
 70
     1
102
RTVSPropertyOp26
 70
     1
102
RTVSPropertyOp27
 70
     1
102
RTVSPropertyOp28
 70
     1
102
RTVSPropertyOp29
 70
     1
102
RTVSPropertyOp30
 70
     1
102
RTVSPropertyOp31
 70
     1
102
RTVSPropertyOp32
 70
     1
  0
XRECORD
  5
763
102
{ACAD_REACTORS
330
762
102
}
330
762
100
AcDbXrecord
280
     1
102
RTVSPropertyOp0
 70
     1
102
RTVSPropertyOp1
 70
     1
102
RTVSPropertyOp2
 70
     1
102
RTVSPropertyOp3
 70
     1
102
RTVSPropertyOp4
 70
     1
102
RTVSPropertyOp5
 70
     1
102
RTVSPropertyOp6
 70
     1
102
RTVSPropertyOp7
 70
     1
102
RTVSPropertyOp8
 70
     1
102
RTVSPropertyOp9
 70
     1
102
RTVSPropertyOp10
 70
     1
102
RTVSPropertyOp11
 70
     1
102
RTVSPropertyOp12
 70
     1
102
RTVSPropertyOp13
 70
     1
102
RTVSPropertyOp14
 70
     1
102
RTVSPropertyOp15
 70
     1
102
RTVSPropertyOp16
 70
     1
102
RTVSPropertyOp17
 70
     1
102
RTVSPropertyOp18
 70
     1
102
RTVSPropertyOp19
 70
     1
102
RTVSPropertyOp20
 70
     1
102
RTVSPropertyOp21
 70
     1
102
RTVSPropertyOp22
 70
     1
102
RTVSPropertyOp23
 70
     1
102
RTVSPropertyOp24
 70
     1
102
RTVSPropertyOp25
 70
     1
102
RTVSPropertyOp26
 70
     1
102
RTVSPropertyOp27
 70
     1
102
RTVSPropertyOp28
 70
     1
102
RTVSPropertyOp29
 70
     1
102
RTVSPropertyOp30
 70
     1
102
RTVSPropertyOp31
 70
     1
102
RTVSPropertyOp32
 70
     1
  0
XRECORD
  5
767
102
{ACAD_REACTORS
330
766
102
}
330
766
100
AcDbXrecord
280
     1
102
RTVSPropertyOp0
 70
     1
102
RTVSPropertyOp1
 70
     1
102
RTVSPropertyOp2
 70
     1
102
RTVSPropertyOp3
 70
     1
102
RTVSPropertyOp4
 70
     1
102
RTVSPropertyOp5
 70
     1
102
RTVSPropertyOp6
 70
     1
102
RTVSPropertyOp7
 70
     1
102
RTVSPropertyOp8
 70
     1
102
RTVSPropertyOp9
 70
     1
102
RTVSPropertyOp10
 70
     1
102
RTVSPropertyOp11
 70
     1
102
RTVSPropertyOp12
 70
     1
102
RTVSPropertyOp13
 70
     1
102
RTVSPropertyOp14
 70
     1
102
RTVSPropertyOp15
 70
     1
102
RTVSPropertyOp16
 70
     1
102
RTVSPropertyOp17
 70
     1
102
RTVSPropertyOp18
 70
     1
102
RTVSPropertyOp19
 70
     1
102
RTVSPropertyOp20
 70
     1
102
RTVSPropertyOp21
 70
     1
102
RTVSPropertyOp22
 70
     1
102
RTVSPropertyOp23
 70
     1
102
RTVSPropertyOp24
 70
     1
102
RTVSPropertyOp25
 70
     1
102
RTVSPropertyOp26
 70
     1
102
RTVSPropertyOp27
 70
     1
102
RTVSPropertyOp28
 70
     1
102
RTVSPropertyOp29
 70
     1
102
RTVSPropertyOp30
 70
     1
102
RTVSPropertyOp31
 70
     1
102
RTVSPropertyOp32
 70
     1
  0
XRECORD
  5
781
102
{ACAD_REACTORS
330
780
102
}
330
780
100
AcDbXrecord
280
     1
102
RTVSPropertyOp0
 70
     0
102
RTVSPropertyOp1
 70
     0
102
RTVSPropertyOp2
 70
     0
102
RTVSPropertyOp3
 70
     0
102
RTVSPropertyOp4
 70
     0
102
RTVSPropertyOp5
 70
     0
102
RTVSPropertyOp6
 70
     0
102
RTVSPropertyOp7
 70
     0
102
RTVSPropertyOp8
 70
     0
102
RTVSPropertyOp9
 70
     0
102
RTVSPropertyOp10
 70
     0
102
RTVSPropertyOp11
 70
     0
102
RTVSPropertyOp12
 70
     0
102
RTVSPropertyOp13
 70
     0
102
RTVSPropertyOp14
 70
     2
102
RTVSPropertyOp15
 70
     0
102
RTVSPropertyOp16
 70
     0
102
RTVSPropertyOp17
 70
     0
102
RTVSPropertyOp18
 70
     0
102
RTVSPropertyOp19
 70
     0
102
RTVSPropertyOp20
 70
     0
102
RTVSPropertyOp21
 70
     0
102
RTVSPropertyOp22
 70
     0
102
RTVSPropertyOp23
 70
     0
102
RTVSPropertyOp24
 70
     0
102
RTVSPropertyOp25
 70
     0
102
RTVSPropertyOp26
 70
     0
102
RTVSPropertyOp27
 70
     0
102
RTVSPropertyOp28
 70
     0
102
RTVSPropertyOp29
 70
     0
102
RTVSPropertyOp30
 70
     0
102
RTVSPropertyOp31
 70
     0
102
RTVSPropertyOp32
 70
     0
  0
XRECORD
  5
76F
102
{ACAD_REACTORS
330
76E
102
}
330
76E
100
AcDbXrecord
280
     1
102
RTVSPropertyOp0
 70
     1
102
RTVSPropertyOp1
 70
     1
102
RTVSPropertyOp2
 70
     1
102
RTVSPropertyOp3
 70
     1
102
RTVSPropertyOp4
 70
     1
102
RTVSPropertyOp5
 70
     1
102
RTVSPropertyOp6
 70
     1
102
RTVSPropertyOp7
 70
     1
102
RTVSPropertyOp8
 70
     1
102
RTVSPropertyOp9
 70
     1
102
RTVSPropertyOp10
 70
     1
102
RTVSPropertyOp11
 70
     1
102
RTVSPropertyOp12
 70
     1
102
RTVSPropertyOp13
 70
     1
102
RTVSPropertyOp14
 70
     1
102
RTVSPropertyOp15
 70
     1
102
RTVSPropertyOp16
 70
     1
102
RTVSPropertyOp17
 70
     1
102
RTVSPropertyOp18
 70
     1
102
RTVSPropertyOp19
 70
     1
102
RTVSPropertyOp20
 70
     1
102
RTVSPropertyOp21
 70
     1
102
RTVSPropertyOp22
 70
     1
102
RTVSPropertyOp23
 70
     1
102
RTVSPropertyOp24
 70
     1
102
RTVSPropertyOp25
 70
     1
102
RTVSPropertyOp26
 70
     1
102
RTVSPropertyOp27
 70
     1
102
RTVSPropertyOp28
 70
     1
102
RTVSPropertyOp29
 70
     1
102
RTVSPropertyOp30
 70
     1
102
RTVSPropertyOp31
 70
     1
102
RTVSPropertyOp32
 70
     1
  0
XRECORD
  5
753
102
{ACAD_REACTORS
330
752
102
}
330
752
100
AcDbXrecord
280
     1
102
RTVSPropertyOp0
 70
     1
102
RTVSPropertyOp1
 70
     1
102
RTVSPropertyOp2
 70
     1
102
RTVSPropertyOp3
 70
     1
102
RTVSPropertyOp4
 70
     1
102
RTVSPropertyOp5
 70
     1
102
RTVSPropertyOp6
 70
     1
102
RTVSPropertyOp7
 70
     1
102
RTVSPropertyOp8
 70
     1
102
RTVSPropertyOp9
 70
     1
102
RTVSPropertyOp10
 70
     1
102
RTVSPropertyOp11
 70
     1
102
RTVSPropertyOp12
 70
     1
102
RTVSPropertyOp13
 70
     1
102
RTVSPropertyOp14
 70
     1
102
RTVSPropertyOp15
 70
     1
102
RTVSPropertyOp16
 70
     1
102
RTVSPropertyOp17
 70
     1
102
RTVSPropertyOp18
 70
     1
102
RTVSPropertyOp19
 70
     1
102
RTVSPropertyOp20
 70
     1
102
RTVSPropertyOp21
 70
     1
102
RTVSPropertyOp22
 70
     1
102
RTVSPropertyOp23
 70
     1
102
RTVSPropertyOp24
 70
     1
102
RTVSPropertyOp25
 70
     1
102
RTVSPropertyOp26
 70
     1
102
RTVSPropertyOp27
 70
     1
102
RTVSPropertyOp28
 70
     1
102
RTVSPropertyOp29
 70
     1
102
RTVSPropertyOp30
 70
     1
102
RTVSPropertyOp31
 70
     1
102
RTVSPropertyOp32
 70
     1
  0
XRECORD
  5
755
102
{ACAD_REACTORS
330
754
102
}
330
754
100
AcDbXrecord
280
     1
102
RTVSPropertyOp0
 70
     1
102
RTVSPropertyOp1
 70
     1
102
RTVSPropertyOp2
 70
     1
102
RTVSPropertyOp3
 70
     1
102
RTVSPropertyOp4
 70
     1
102
RTVSPropertyOp5
 70
     1
102
RTVSPropertyOp6
 70
     1
102
RTVSPropertyOp7
 70
     1
102
RTVSPropertyOp8
 70
     1
102
RTVSPropertyOp9
 70
     1
102
RTVSPropertyOp10
 70
     1
102
RTVSPropertyOp11
 70
     1
102
RTVSPropertyOp12
 70
     1
102
RTVSPropertyOp13
 70
     1
102
RTVSPropertyOp14
 70
     1
102
RTVSPropertyOp15
 70
     1
102
RTVSPropertyOp16
 70
     1
102
RTVSPropertyOp17
 70
     1
102
RTVSPropertyOp18
 70
     1
102
RTVSPropertyOp19
 70
     1
102
RTVSPropertyOp20
 70
     1
102
RTVSPropertyOp21
 70
     1
102
RTVSPropertyOp22
 70
     1
102
RTVSPropertyOp23
 70
     1
102
RTVSPropertyOp24
 70
     1
102
RTVSPropertyOp25
 70
     1
102
RTVSPropertyOp26
 70
     1
102
RTVSPropertyOp27
 70
     1
102
RTVSPropertyOp28
 70
     1
102
RTVSPropertyOp29
 70
     1
102
RTVSPropertyOp30
 70
     1
102
RTVSPropertyOp31
 70
     1
102
RTVSPropertyOp32
 70
     1
  0
XRECORD
  5
757
102
{ACAD_REACTORS
330
756
102
}
330
756
100
AcDbXrecord
280
     1
102
RTVSPropertyOp0
 70
     1
102
RTVSPropertyOp1
 70
     1
102
RTVSPropertyOp2
 70
     1
102
RTVSPropertyOp3
 70
     1
102
RTVSPropertyOp4
 70
     1
102
RTVSPropertyOp5
 70
     1
102
RTVSPropertyOp6
 70
     1
102
RTVSPropertyOp7
 70
     1
102
RTVSPropertyOp8
 70
     1
102
RTVSPropertyOp9
 70
     1
102
RTVSPropertyOp10
 70
     1
102
RTVSPropertyOp11
 70
     1
102
RTVSPropertyOp12
 70
     1
102
RTVSPropertyOp13
 70
     1
102
RTVSPropertyOp14
 70
     1
102
RTVSPropertyOp15
 70
     1
102
RTVSPropertyOp16
 70
     1
102
RTVSPropertyOp17
 70
     1
102
RTVSPropertyOp18
 70
     1
102
RTVSPropertyOp19
 70
     1
102
RTVSPropertyOp20
 70
     1
102
RTVSPropertyOp21
 70
     1
102
RTVSPropertyOp22
 70
     1
102
RTVSPropertyOp23
 70
     1
102
RTVSPropertyOp24
 70
     1
102
RTVSPropertyOp25
 70
     1
102
RTVSPropertyOp26
 70
     1
102
RTVSPropertyOp27
 70
     1
102
RTVSPropertyOp28
 70
     1
102
RTVSPropertyOp29
 70
     1
102
RTVSPropertyOp30
 70
     1
102
RTVSPropertyOp31
 70
     1
102
RTVSPropertyOp32
 70
     1
  0
XRECORD
  5
759
102
{ACAD_REACTORS
330
758
102
}
330
758
100
AcDbXrecord
280
     1
102
RTVSPropertyOp0
 70
     1
102
RTVSPropertyOp1
 70
     1
102
RTVSPropertyOp2
 70
     1
102
RTVSPropertyOp3
 70
     1
102
RTVSPropertyOp4
 70
     1
102
RTVSPropertyOp5
 70
     1
102
RTVSPropertyOp6
 70
     1
102
RTVSPropertyOp7
 70
     1
102
RTVSPropertyOp8
 70
     1
102
RTVSPropertyOp9
 70
     1
102
RTVSPropertyOp10
 70
     1
102
RTVSPropertyOp11
 70
     1
102
RTVSPropertyOp12
 70
     1
102
RTVSPropertyOp13
 70
     1
102
RTVSPropertyOp14
 70
     1
102
RTVSPropertyOp15
 70
     1
102
RTVSPropertyOp16
 70
     1
102
RTVSPropertyOp17
 70
     1
102
RTVSPropertyOp18
 70
     1
102
RTVSPropertyOp19
 70
     1
102
RTVSPropertyOp20
 70
     1
102
RTVSPropertyOp21
 70
     1
102
RTVSPropertyOp22
 70
     1
102
RTVSPropertyOp23
 70
     1
102
RTVSPropertyOp24
 70
     1
102
RTVSPropertyOp25
 70
     1
102
RTVSPropertyOp26
 70
     1
102
RTVSPropertyOp27
 70
     1
102
RTVSPropertyOp28
 70
     1
102
RTVSPropertyOp29
 70
     1
102
RTVSPropertyOp30
 70
     1
102
RTVSPropertyOp31
 70
     1
102
RTVSPropertyOp32
 70
     1
  0
XRECORD
  5
761
102
{ACAD_REACTORS
330
760
102
}
330
760
100
AcDbXrecord
280
     1
102
RTVSPropertyOp0
 70
     1
102
RTVSPropertyOp1
 70
     1
102
RTVSPropertyOp2
 70
     1
102
RTVSPropertyOp3
 70
     1
102
RTVSPropertyOp4
 70
     1
102
RTVSPropertyOp5
 70
     1
102
RTVSPropertyOp6
 70
     1
102
RTVSPropertyOp7
 70
     1
102
RTVSPropertyOp8
 70
     1
102
RTVSPropertyOp9
 70
     1
102
RTVSPropertyOp10
 70
     1
102
RTVSPropertyOp11
 70
     1
102
RTVSPropertyOp12
 70
     1
102
RTVSPropertyOp13
 70
     1
102
RTVSPropertyOp14
 70
     1
102
RTVSPropertyOp15
 70
     1
102
RTVSPropertyOp16
 70
     1
102
RTVSPropertyOp17
 70
     1
102
RTVSPropertyOp18
 70
     1
102
RTVSPropertyOp19
 70
     1
102
RTVSPropertyOp20
 70
     1
102
RTVSPropertyOp21
 70
     1
102
RTVSPropertyOp22
 70
     1
102
RTVSPropertyOp23
 70
     1
102
RTVSPropertyOp24
 70
     1
102
RTVSPropertyOp25
 70
     1
102
RTVSPropertyOp26
 70
     1
102
RTVSPropertyOp27
 70
     1
102
RTVSPropertyOp28
 70
     1
102
RTVSPropertyOp29
 70
     1
102
RTVSPropertyOp30
 70
     1
102
RTVSPropertyOp31
 70
     1
102
RTVSPropertyOp32
 70
     1
  0
XRECORD
  5
77D
102
{ACAD_REACTORS
330
77C
102
}
330
77C
100
AcDbXrecord
280
     1
102
RTVSPropertyOp0
 70
     0
102
RTVSPropertyOp1
 70
     0
102
RTVSPropertyOp2
 70
     0
102
RTVSPropertyOp3
 70
     0
102
RTVSPropertyOp4
 70
     0
102
RTVSPropertyOp5
 70
     0
102
RTVSPropertyOp6
 70
     0
102
RTVSPropertyOp7
 70
     0
102
RTVSPropertyOp8
 70
     0
102
RTVSPropertyOp9
 70
     0
102
RTVSPropertyOp10
 70
     0
102
RTVSPropertyOp11
 70
     0
102
RTVSPropertyOp12
 70
     0
102
RTVSPropertyOp13
 70
     0
102
RTVSPropertyOp14
 70
     2
102
RTVSPropertyOp15
 70
     0
102
RTVSPropertyOp16
 70
     0
102
RTVSPropertyOp17
 70
     0
102
RTVSPropertyOp18
 70
     0
102
RTVSPropertyOp19
 70
     0
102
RTVSPropertyOp20
 70
     0
102
RTVSPropertyOp21
 70
     0
102
RTVSPropertyOp22
 70
     0
102
RTVSPropertyOp23
 70
     0
102
RTVSPropertyOp24
 70
     0
102
RTVSPropertyOp25
 70
     0
102
RTVSPropertyOp26
 70
     0
102
RTVSPropertyOp27
 70
     0
102
RTVSPropertyOp28
 70
     0
102
RTVSPropertyOp29
 70
     0
102
RTVSPropertyOp30
 70
     0
102
RTVSPropertyOp31
 70
     0
102
RTVSPropertyOp32
 70
     0
  0
XRECORD
  5
76D
102
{ACAD_REACTORS
330
76C
102
}
330
76C
100
AcDbXrecord
280
     1
102
RTVSPropertyOp0
 70
     1
102
RTVSPropertyOp1
 70
     1
102
RTVSPropertyOp2
 70
     1
102
RTVSPropertyOp3
 70
     1
102
RTVSPropertyOp4
 70
     1
102
RTVSPropertyOp5
 70
     1
102
RTVSPropertyOp6
 70
     1
102
RTVSPropertyOp7
 70
     1
102
RTVSPropertyOp8
 70
     1
102
RTVSPropertyOp9
 70
     1
102
RTVSPropertyOp10
 70
     1
102
RTVSPropertyOp11
 70
     1
102
RTVSPropertyOp12
 70
     1
102
RTVSPropertyOp13
 70
     1
102
RTVSPropertyOp14
 70
     1
102
RTVSPropertyOp15
 70
     1
102
RTVSPropertyOp16
 70
     1
102
RTVSPropertyOp17
 70
     1
102
RTVSPropertyOp18
 70
     1
102
RTVSPropertyOp19
 70
     1
102
RTVSPropertyOp20
 70
     1
102
RTVSPropertyOp21
 70
     1
102
RTVSPropertyOp22
 70
     1
102
RTVSPropertyOp23
 70
     1
102
RTVSPropertyOp24
 70
     1
102
RTVSPropertyOp25
 70
     1
102
RTVSPropertyOp26
 70
     1
102
RTVSPropertyOp27
 70
     1
102
RTVSPropertyOp28
 70
     1
102
RTVSPropertyOp29
 70
     1
102
RTVSPropertyOp30
 70
     1
102
RTVSPropertyOp31
 70
     1
102
RTVSPropertyOp32
 70
     1
  0
XRECORD
  5
77F
102
{ACAD_REACTORS
330
77E
102
}
330
77E
100
AcDbXrecord
280
     1
102
RTVSPropertyOp0
 70
     0
102
RTVSPropertyOp1
 70
     0
102
RTVSPropertyOp2
 70
     0
102
RTVSPropertyOp3
 70
     0
102
RTVSPropertyOp4
 70
     0
102
RTVSPropertyOp5
 70
     0
102
RTVSPropertyOp6
 70
     0
102
RTVSPropertyOp7
 70
     0
102
RTVSPropertyOp8
 70
     0
102
RTVSPropertyOp9
 70
     0
102
RTVSPropertyOp10
 70
     0
102
RTVSPropertyOp11
 70
     0
102
RTVSPropertyOp12
 70
     0
102
RTVSPropertyOp13
 70
     0
102
RTVSPropertyOp14
 70
     2
102
RTVSPropertyOp15
 70
     0
102
RTVSPropertyOp16
 70
     0
102
RTVSPropertyOp17
 70
     0
102
RTVSPropertyOp18
 70
     0
102
RTVSPropertyOp19
 70
     0
102
RTVSPropertyOp20
 70
     0
102
RTVSPropertyOp21
 70
     0
102
RTVSPropertyOp22
 70
     0
102
RTVSPropertyOp23
 70
     0
102
RTVSPropertyOp24
 70
     0
102
RTVSPropertyOp25
 70
     0
102
RTVSPropertyOp26
 70
     0
102
RTVSPropertyOp27
 70
     0
102
RTVSPropertyOp28
 70
     0
102
RTVSPropertyOp29
 70
     0
102
RTVSPropertyOp30
 70
     0
102
RTVSPropertyOp31
 70
     0
102
RTVSPropertyOp32
 70
     0
  0
XRECORD
  5
765
102
{ACAD_REACTORS
330
764
102
}
330
764
100
AcDbXrecord
280
     1
102
RTVSPropertyOp0
 70
     1
102
RTVSPropertyOp1
 70
     1
102
RTVSPropertyOp2
 70
     1
102
RTVSPropertyOp3
 70
     1
102
RTVSPropertyOp4
 70
     1
102
RTVSPropertyOp5
 70
     1
102
RTVSPropertyOp6
 70
     1
102
RTVSPropertyOp7
 70
     1
102
RTVSPropertyOp8
 70
     1
102
RTVSPropertyOp9
 70
     1
102
RTVSPropertyOp10
 70
     1
102
RTVSPropertyOp11
 70
     1
102
RTVSPropertyOp12
 70
     1
102
RTVSPropertyOp13
 70
     1
102
RTVSPropertyOp14
 70
     1
102
RTVSPropertyOp15
 70
     1
102
RTVSPropertyOp16
 70
     1
102
RTVSPropertyOp17
 70
     1
102
RTVSPropertyOp18
 70
     1
102
RTVSPropertyOp19
 70
     1
102
RTVSPropertyOp20
 70
     1
102
RTVSPropertyOp21
 70
     1
102
RTVSPropertyOp22
 70
     1
102
RTVSPropertyOp23
 70
     1
102
RTVSPropertyOp24
 70
     1
102
RTVSPropertyOp25
 70
     1
102
RTVSPropertyOp26
 70
     1
102
RTVSPropertyOp27
 70
     1
102
RTVSPropertyOp28
 70
     1
102
RTVSPropertyOp29
 70
     1
102
RTVSPropertyOp30
 70
     1
102
RTVSPropertyOp31
 70
     1
102
RTVSPropertyOp32
 70
     1
  0
XRECORD
  5
77B
102
{ACAD_REACTORS
330
77A
102
}
330
77A
100
AcDbXrecord
280
     1
102
RTVSPropertyOp0
 70
     1
102
RTVSPropertyOp1
 70
     1
102
RTVSPropertyOp2
 70
     1
102
RTVSPropertyOp3
 70
     1
102
RTVSPropertyOp4
 70
     1
102
RTVSPropertyOp5
 70
     1
102
RTVSPropertyOp6
 70
     1
102
RTVSPropertyOp7
 70
     1
102
RTVSPropertyOp8
 70
     1
102
RTVSPropertyOp9
 70
     1
102
RTVSPropertyOp10
 70
     1
102
RTVSPropertyOp11
 70
     1
102
RTVSPropertyOp12
 70
     1
102
RTVSPropertyOp13
 70
     1
102
RTVSPropertyOp14
 70
     1
102
RTVSPropertyOp15
 70
     1
102
RTVSPropertyOp16
 70
     1
102
RTVSPropertyOp17
 70
     1
102
RTVSPropertyOp18
 70
     1
102
RTVSPropertyOp19
 70
     1
102
RTVSPropertyOp20
 70
     1
102
RTVSPropertyOp21
 70
     1
102
RTVSPropertyOp22
 70
     1
102
RTVSPropertyOp23
 70
     1
102
RTVSPropertyOp24
 70
     1
102
RTVSPropertyOp25
 70
     1
102
RTVSPropertyOp26
 70
     1
102
RTVSPropertyOp27
 70
     1
102
RTVSPropertyOp28
 70
     1
102
RTVSPropertyOp29
 70
     1
102
RTVSPropertyOp30
 70
     1
102
RTVSPropertyOp31
 70
     1
102
RTVSPropertyOp32
 70
     1
  0
XRECORD
  5
779
102
{ACAD_REACTORS
330
778
102
}
330
778
100
AcDbXrecord
280
     1
102
RTVSPropertyOp0
 70
     1
102
RTVSPropertyOp1
 70
     1
102
RTVSPropertyOp2
 70
     1
102
RTVSPropertyOp3
 70
     1
102
RTVSPropertyOp4
 70
     1
102
RTVSPropertyOp5
 70
     1
102
RTVSPropertyOp6
 70
     1
102
RTVSPropertyOp7
 70
     1
102
RTVSPropertyOp8
 70
     1
102
RTVSPropertyOp9
 70
     1
102
RTVSPropertyOp10
 70
     1
102
RTVSPropertyOp11
 70
     1
102
RTVSPropertyOp12
 70
     1
102
RTVSPropertyOp13
 70
     1
102
RTVSPropertyOp14
 70
     1
102
RTVSPropertyOp15
 70
     1
102
RTVSPropertyOp16
 70
     1
102
RTVSPropertyOp17
 70
     1
102
RTVSPropertyOp18
 70
     1
102
RTVSPropertyOp19
 70
     1
102
RTVSPropertyOp20
 70
     1
102
RTVSPropertyOp21
 70
     1
102
RTVSPropertyOp22
 70
     1
102
RTVSPropertyOp23
 70
     1
102
RTVSPropertyOp24
 70
     1
102
RTVSPropertyOp25
 70
     1
102
RTVSPropertyOp26
 70
     1
102
RTVSPropertyOp27
 70
     1
102
RTVSPropertyOp28
 70
     1
102
RTVSPropertyOp29
 70
     1
102
RTVSPropertyOp30
 70
     1
102
RTVSPropertyOp31
 70
     1
102
RTVSPropertyOp32
 70
     1
  0
XRECORD
  5
773
102
{ACAD_REACTORS
330
772
102
}
330
772
100
AcDbXrecord
280
     1
102
RTVSPropertyOp0
 70
     1
102
RTVSPropertyOp1
 70
     1
102
RTVSPropertyOp2
 70
     1
102
RTVSPropertyOp3
 70
     1
102
RTVSPropertyOp4
 70
     1
102
RTVSPropertyOp5
 70
     1
102
RTVSPropertyOp6
 70
     1
102
RTVSPropertyOp7
 70
     1
102
RTVSPropertyOp8
 70
     1
102
RTVSPropertyOp9
 70
     1
102
RTVSPropertyOp10
 70
     1
102
RTVSPropertyOp11
 70
     1
102
RTVSPropertyOp12
 70
     1
102
RTVSPropertyOp13
 70
     1
102
RTVSPropertyOp14
 70
     1
102
RTVSPropertyOp15
 70
     1
102
RTVSPropertyOp16
 70
     1
102
RTVSPropertyOp17
 70
     1
102
RTVSPropertyOp18
 70
     1
102
RTVSPropertyOp19
 70
     1
102
RTVSPropertyOp20
 70
     1
102
RTVSPropertyOp21
 70
     1
102
RTVSPropertyOp22
 70
     1
102
RTVSPropertyOp23
 70
     1
102
RTVSPropertyOp24
 70
     1
102
RTVSPropertyOp25
 70
     1
102
RTVSPropertyOp26
 70
     1
102
RTVSPropertyOp27
 70
     1
102
RTVSPropertyOp28
 70
     1
102
RTVSPropertyOp29
 70
     1
102
RTVSPropertyOp30
 70
     1
102
RTVSPropertyOp31
 70
     1
102
RTVSPropertyOp32
 70
     1
  0
XRECORD
  5
775
102
{ACAD_REACTORS
330
774
102
}
330
774
100
AcDbXrecord
280
     1
102
RTVSPropertyOp0
 70
     1
102
RTVSPropertyOp1
 70
     1
102
RTVSPropertyOp2
 70
     1
102
RTVSPropertyOp3
 70
     1
102
RTVSPropertyOp4
 70
     1
102
RTVSPropertyOp5
 70
     1
102
RTVSPropertyOp6
 70
     1
102
RTVSPropertyOp7
 70
     1
102
RTVSPropertyOp8
 70
     1
102
RTVSPropertyOp9
 70
     1
102
RTVSPropertyOp10
 70
     1
102
RTVSPropertyOp11
 70
     1
102
RTVSPropertyOp12
 70
     1
102
RTVSPropertyOp13
 70
     1
102
RTVSPropertyOp14
 70
     1
102
RTVSPropertyOp15
 70
     1
102
RTVSPropertyOp16
 70
     1
102
RTVSPropertyOp17
 70
     1
102
RTVSPropertyOp18
 70
     1
102
RTVSPropertyOp19
 70
     1
102
RTVSPropertyOp20
 70
     1
102
RTVSPropertyOp21
 70
     1
102
RTVSPropertyOp22
 70
     1
102
RTVSPropertyOp23
 70
     1
102
RTVSPropertyOp24
 70
     1
102
RTVSPropertyOp25
 70
     1
102
RTVSPropertyOp26
 70
     1
102
RTVSPropertyOp27
 70
     1
102
RTVSPropertyOp28
 70
     1
102
RTVSPropertyOp29
 70
     1
102
RTVSPropertyOp30
 70
     1
102
RTVSPropertyOp31
 70
     1
102
RTVSPropertyOp32
 70
     1
  0
XRECORD
  5
76B
102
{ACAD_REACTORS
330
76A
102
}
330
76A
100
AcDbXrecord
280
     1
102
RTVSPropertyOp0
 70
     1
102
RTVSPropertyOp1
 70
     1
102
RTVSPropertyOp2
 70
     1
102
RTVSPropertyOp3
 70
     1
102
RTVSPropertyOp4
 70
     1
102
RTVSPropertyOp5
 70
     1
102
RTVSPropertyOp6
 70
     1
102
RTVSPropertyOp7
 70
     1
102
RTVSPropertyOp8
 70
     1
102
RTVSPropertyOp9
 70
     1
102
RTVSPropertyOp10
 70
     1
102
RTVSPropertyOp11
 70
     1
102
RTVSPropertyOp12
 70
     1
102
RTVSPropertyOp13
 70
     1
102
RTVSPropertyOp14
 70
     1
102
RTVSPropertyOp15
 70
     1
102
RTVSPropertyOp16
 70
     1
102
RTVSPropertyOp17
 70
     1
102
RTVSPropertyOp18
 70
     1
102
RTVSPropertyOp19
 70
     1
102
RTVSPropertyOp20
 70
     1
102
RTVSPropertyOp21
 70
     1
102
RTVSPropertyOp22
 70
     1
102
RTVSPropertyOp23
 70
     1
102
RTVSPropertyOp24
 70
     1
102
RTVSPropertyOp25
 70
     1
102
RTVSPropertyOp26
 70
     1
102
RTVSPropertyOp27
 70
     1
102
RTVSPropertyOp28
 70
     1
102
RTVSPropertyOp29
 70
     1
102
RTVSPropertyOp30
 70
     1
102
RTVSPropertyOp31
 70
     1
102
RTVSPropertyOp32
 70
     1
  0
XRECORD
  5
75F
102
{ACAD_REACTORS
330
75E
102
}
330
75E
100
AcDbXrecord
280
     1
102
RTVSPropertyOp0
 70
     1
102
RTVSPropertyOp1
 70
     1
102
RTVSPropertyOp2
 70
     1
102
RTVSPropertyOp3
 70
     1
102
RTVSPropertyOp4
 70
     1
102
RTVSPropertyOp5
 70
     1
102
RTVSPropertyOp6
 70
     1
102
RTVSPropertyOp7
 70
     1
102
RTVSPropertyOp8
 70
     1
102
RTVSPropertyOp9
 70
     1
102
RTVSPropertyOp10
 70
     1
102
RTVSPropertyOp11
 70
     1
102
RTVSPropertyOp12
 70
     1
102
RTVSPropertyOp13
 70
     1
102
RTVSPropertyOp14
 70
     1
102
RTVSPropertyOp15
 70
     1
102
RTVSPropertyOp16
 70
     1
102
RTVSPropertyOp17
 70
     1
102
RTVSPropertyOp18
 70
     1
102
RTVSPropertyOp19
 70
     1
102
RTVSPropertyOp20
 70
     1
102
RTVSPropertyOp21
 70
     1
102
RTVSPropertyOp22
 70
     1
102
RTVSPropertyOp23
 70
     1
102
RTVSPropertyOp24
 70
     1
102
RTVSPropertyOp25
 70
     1
102
RTVSPropertyOp26
 70
     1
102
RTVSPropertyOp27
 70
     1
102
RTVSPropertyOp28
 70
     1
102
RTVSPropertyOp29
 70
     1
102
RTVSPropertyOp30
 70
     1
102
RTVSPropertyOp31
 70
     1
102
RTVSPropertyOp32
 70
     1
  0
XRECORD
  5
777
102
{ACAD_REACTORS
330
776
102
}
330
776
100
AcDbXrecord
280
     1
102
RTVSPropertyOp0
 70
     1
102
RTVSPropertyOp1
 70
     1
102
RTVSPropertyOp2
 70
     1
102
RTVSPropertyOp3
 70
     1
102
RTVSPropertyOp4
 70
     1
102
RTVSPropertyOp5
 70
     1
102
RTVSPropertyOp6
 70
     1
102
RTVSPropertyOp7
 70
     1
102
RTVSPropertyOp8
 70
     1
102
RTVSPropertyOp9
 70
     1
102
RTVSPropertyOp10
 70
     1
102
RTVSPropertyOp11
 70
     1
102
RTVSPropertyOp12
 70
     1
102
RTVSPropertyOp13
 70
     1
102
RTVSPropertyOp14
 70
     1
102
RTVSPropertyOp15
 70
     1
102
RTVSPropertyOp16
 70
     1
102
RTVSPropertyOp17
 70
     1
102
RTVSPropertyOp18
 70
     1
102
RTVSPropertyOp19
 70
     1
102
RTVSPropertyOp20
 70
     1
102
RTVSPropertyOp21
 70
     1
102
RTVSPropertyOp22
 70
     1
102
RTVSPropertyOp23
 70
     1
102
RTVSPropertyOp24
 70
     1
102
RTVSPropertyOp25
 70
     1
102
RTVSPropertyOp26
 70
     1
102
RTVSPropertyOp27
 70
     1
102
RTVSPropertyOp28
 70
     1
102
RTVSPropertyOp29
 70
     1
102
RTVSPropertyOp30
 70
     1
102
RTVSPropertyOp31
 70
     1
102
RTVSPropertyOp32
 70
     1
  0
ENDSEC
  0
EOF
