  0
SECTION
  2
HEADER
  9
$ACADVER
  1
AC1015
  9
$ACADMAINTVER
 70
    20
  9
$DWGCODEPAGE
  3
ANSI_932
  9
$INSBASE
 10
0.0
 20
0.0
 30
0.0
  9
$EXTMIN
 10
-206.4030618352394
 20
-449.0195211920179
 30
0.0
  9
$EXTMAX
 10
198.5969381647606
 20
-169.8364570718606
 30
0.0
  9
$LIMMIN
 10
-138.501
 20
-90.00100000000001
  9
$LIMMAX
 10
138.510415
 20
98.47361800000001
  9
$ORTHOMODE
 70
     0
  9
$REGENMODE
 70
     1
  9
$FILLMODE
 70
     1
  9
$QTEXTMODE
 70
     0
  9
$MIRRTEXT
 70
     0
  9
$LTSCALE
 40
4.616823999999998
  9
$ATTMODE
 70
     1
  9
$TEXTSIZE
 40
3.2
  9
$TRACEWID
 40
0.05
  9
$TEXTSTYLE
  7
高3.2
  9
$CLAYER
  8
0
  9
$CELTYPE
  6
ByLayer
  9
$CECOLOR
 62
   256
  9
$CELTSCALE
 40
1.0
  9
$DISPSILH
 70
     0
  9
$DIMSCALE
 40
1.0
  9
$DIMASZ
 40
2.5
  9
$DIMEXO
 40
0.25
  9
$DIMDLI
 40
0.2
  9
$DIMRND
 40
0.0
  9
$DIMDLE
 40
0.0
  9
$DIMEXE
 40
1.25
  9
$DIMTP
 40
0.0
  9
$DIMTM
 40
0.0
  9
$DIMTXT
 40
3.0
  9
$DIMCEN
 40
0.0
  9
$DIMTSZ
 40
0.0
  9
$DIMTOL
 70
     0
  9
$DIMLIM
 70
     0
  9
$DIMTIH
 70
     0
  9
$DIMTOH
 70
     0
  9
$DIMSE1
 70
     0
  9
$DIMSE2
 70
     0
  9
$DIMTAD
 70
     3
  9
$DIMZIN
 70
     8
  9
$DIMBLK
  1
Open30
  9
$DIMASO
 70
     1
  9
$DIMSHO
 70
     1
  9
$DIMPOST
  1

  9
$DIMAPOST
  1

  9
$DIMALT
 70
     0
  9
$DIMALTD
 70
     3
  9
$DIMALTF
 40
0.03937007874016
  9
$DIMLFAC
 40
2.0
  9
$DIMTOFL
 70
     1
  9
$DIMTVP
 40
0.0
  9
$DIMTIX
 70
     0
  9
$DIMSOXD
 70
     0
  9
$DIMSAH
 70
     0
  9
$DIMBLK1
  1

  9
$DIMBLK2
  1

  9
$DIMSTYLE
  2
1／2
  9
$DIMCLRD
 70
     0
  9
$DIMCLRE
 70
     0
  9
$DIMCLRT
 70
     4
  9
$DIMTFAC
 40
1.0
  9
$DIMGAP
 40
0.625
  9
$DIMJUST
 70
     0
  9
$DIMSD1
 70
     0
  9
$DIMSD2
 70
     0
  9
$DIMTOLJ
 70
     0
  9
$DIMTZIN
 70
     8
  9
$DIMALTZ
 70
     0
  9
$DIMALTTZ
 70
     0
  9
$DIMUPT
 70
     1
  9
$DIMDEC
 70
     2
  9
$DIMTDEC
 70
     2
  9
$DIMALTU
 70
     2
  9
$DIMALTTD
 70
     3
  9
$DIMTXSTY
  7
STANDARD
  9
$DIMAUNIT
 70
     0
  9
$DIMADEC
 70
     1
  9
$DIMALTRND
 40
0.0
  9
$DIMAZIN
 70
     2
  9
$DIMDSEP
 70
    46
  9
$DIMATFIT
 70
     0
  9
$DIMFRAC
 70
     0
  9
$DIMLDRBLK
  1
Open30
  9
$DIMLUNIT
 70
     2
  9
$DIMLWD
 70
    -2
  9
$DIMLWE
 70
    -2
  9
$DIMTMOVE
 70
     0
  9
$LUNITS
 70
     2
  9
$LUPREC
 70
     4
  9
$SKETCHINC
 40
0.1
  9
$FILLETRAD
 40
0.0
  9
$AUNITS
 70
     0
  9
$AUPREC
 70
     0
  9
$MENU
  1
.
  9
$ELEVATION
 40
0.0
  9
$PELEVATION
 40
0.0
  9
$THICKNESS
 40
0.0
  9
$LIMCHECK
 70
     0
  9
$CHAMFERA
 40
0.0
  9
$CHAMFERB
 40
0.0
  9
$CHAMFERC
 40
0.0
  9
$CHAMFERD
 40
0.0
  9
$SKPOLY
 70
     0
  9
$TDCREATE
 40
2455520.569332674
  9
$TDUCREATE
 40
2455520.194332674
  9
$TDUPDATE
 40
2459486.739476875
  9
$TDUUPDATE
 40
2459486.364476875
  9
$TDINDWG
 40
0.3507810764
  9
$TDUSRTIMER
 40
0.3507621412
  9
$USRTIMER
 70
     1
  9
$ANGBASE
 50
0.0
  9
$ANGDIR
 70
     0
  9
$PDMODE
 70
     0
  9
$PDSIZE
 40
0.0
  9
$PLINEWID
 40
0.0
  9
$SPLFRAME
 70
     0
  9
$SPLINETYPE
 70
     6
  9
$SPLINESEGS
 70
     8
  9
$HANDSEED
  5
2077
  9
$SURFTAB1
 70
     6
  9
$SURFTAB2
 70
     6
  9
$SURFTYPE
 70
     6
  9
$SURFU
 70
     6
  9
$SURFV
 70
     6
  9
$UCSBASE
  2

  9
$UCSNAME
  2

  9
$UCSORG
 10
0.0
 20
0.0
 30
0.0
  9
$UCSXDIR
 10
1.0
 20
0.0
 30
0.0
  9
$UCSYDIR
 10
0.0
 20
1.0
 30
0.0
  9
$UCSORTHOREF
  2

  9
$UCSORTHOVIEW
 70
     0
  9
$UCSORGTOP
 10
0.0
 20
0.0
 30
0.0
  9
$UCSORGBOTTOM
 10
0.0
 20
0.0
 30
0.0
  9
$UCSORGLEFT
 10
0.0
 20
0.0
 30
0.0
  9
$UCSORGRIGHT
 10
0.0
 20
0.0
 30
0.0
  9
$UCSORGFRONT
 10
0.0
 20
0.0
 30
0.0
  9
$UCSORGBACK
 10
0.0
 20
0.0
 30
0.0
  9
$PUCSBASE
  2

  9
$PUCSNAME
  2

  9
$PUCSORG
 10
0.0
 20
0.0
 30
0.0
  9
$PUCSXDIR
 10
1.0
 20
0.0
 30
0.0
  9
$PUCSYDIR
 10
0.0
 20
1.0
 30
0.0
  9
$PUCSORTHOREF
  2

  9
$PUCSORTHOVIEW
 70
     0
  9
$PUCSORGTOP
 10
0.0
 20
0.0
 30
0.0
  9
$PUCSORGBOTTOM
 10
0.0
 20
0.0
 30
0.0
  9
$PUCSORGLEFT
 10
0.0
 20
0.0
 30
0.0
  9
$PUCSORGRIGHT
 10
0.0
 20
0.0
 30
0.0
  9
$PUCSORGFRONT
 10
0.0
 20
0.0
 30
0.0
  9
$PUCSORGBACK
 10
0.0
 20
0.0
 30
0.0
  9
$USERI1
 70
     0
  9
$USERI2
 70
     0
  9
$USERI3
 70
     0
  9
$USERI4
 70
     0
  9
$USERI5
 70
     0
  9
$USERR1
 40
0.0
  9
$USERR2
 40
0.0
  9
$USERR3
 40
0.0
  9
$USERR4
 40
0.0
  9
$USERR5
 40
0.0
  9
$WORLDVIEW
 70
     1
  9
$SHADEDGE
 70
     3
  9
$SHADEDIF
 70
    70
  9
$TILEMODE
 70
     1
  9
$MAXACTVP
 70
    64
  9
$PINSBASE
 10
0.0
 20
0.0
 30
0.0
  9
$PLIMCHECK
 70
     0
  9
$PEXTMIN
 10
1.000000000000000E+20
 20
1.000000000000000E+20
 30
1.000000000000000E+20
  9
$PEXTMAX
 10
-1.000000000000000E+20
 20
-1.000000000000000E+20
 30
-1.000000000000000E+20
  9
$PLIMMIN
 10
0.0
 20
0.0
  9
$PLIMMAX
 10
12.0
 20
9.0
  9
$UNITMODE
 70
     0
  9
$VISRETAIN
 70
     1
  9
$PLINEGEN
 70
     0
  9
$PSLTSCALE
 70
     1
  9
$TREEDEPTH
 70
  3020
  9
$CMLSTYLE
  2
Standard
  9
$CMLJUST
 70
     0
  9
$CMLSCALE
 40
1.0
  9
$PROXYGRAPHICS
 70
     1
  9
$MEASUREMENT
 70
     0
  9
$CELWEIGHT
370
    -1
  9
$ENDCAPS
280
     0
  9
$JOINSTYLE
280
     0
  9
$LWDISPLAY
290
     0
  9
$INSUNITS
 70
     0
  9
$HYPERLINKBASE
  1

  9
$STYLESHEET
  1
N-PLOT.CTB
  9
$XEDIT
290
     1
  9
$CEPSNTYPE
380
     0
  9
$PSTYLEMODE
290
     1
  9
$FINGERPRINTGUID
  2
{A1247B8A-74A5-49FA-B068-720DEAE70FE1}
  9
$VERSIONGUID
  2
{C9F11BC1-BBBD-4D82-86FB-5F9EA9F62554}
  9
$EXTNAMES
290
     1
  9
$PSVPSCALE
 40
0.0
  9
$OLESTARTUP
290
     0
  0
ENDSEC
  0
SECTION
  2
CLASSES
  0
CLASS
  1
ACDBDICTIONARYWDFLT
  2
AcDbDictionaryWithDefault
  3
ObjectDBX Classes
 90
        0
280
     0
281
     0
  0
CLASS
  1
MATERIAL
  2
AcDbMaterial
  3
ObjectDBX Classes
 90
     1153
280
     0
281
     0
  0
CLASS
  1
VISUALSTYLE
  2
AcDbVisualStyle
  3
ObjectDBX Classes
 90
     4095
280
     0
281
     0
  0
CLASS
  1
TABLESTYLE
  2
AcDbTableStyle
  3
ObjectDBX Classes
 90
     4095
280
     0
281
     0
  0
CLASS
  1
DICTIONARYVAR
  2
AcDbDictionaryVar
  3
ObjectDBX Classes
 90
        0
280
     0
281
     0
  0
CLASS
  1
SORTENTSTABLE
  2
AcDbSortentsTable
  3
ObjectDBX Classes
 90
        0
280
     0
281
     0
  0
CLASS
  1
ACDBPLACEHOLDER
  2
AcDbPlaceHolder
  3
ObjectDBX Classes
 90
        0
280
     0
281
     0
  0
CLASS
  1
LAYOUT
  2
AcDbLayout
  3
ObjectDBX Classes
 90
        0
280
     0
281
     0
  0
CLASS
  1
SCALE
  2
AcDbScale
  3
ObjectDBX Classes
 90
     1153
280
     0
281
     0
  0
CLASS
  1
MLEADERSTYLE
  2
AcDbMLeaderStyle
  3
ACDB_MLEADERSTYLE_CLASS
 90
     4095
280
     0
281
     0
  0
CLASS
  1
CELLSTYLEMAP
  2
AcDbCellStyleMap
  3
ObjectDBX Classes
 90
     1152
280
     0
281
     0
  0
CLASS
  1
AEC_REFEDIT_STATUS_TRACKER
  2
AecDbRefEditStatusTracker
  3
AecArchBase60|Product Desc: Autodesk Architectural Desktop 2007 |Company: Autodesk,Inc. |WEB Address: www.autodesk.com
 90
      129
280
     0
281
     0
  0
CLASS
  1
NPOCOLLECTION
  2
AcDbImpNonPersistentObjectsCollection
  3
ObjectDBX Classes
 90
     1153
280
     0
281
     0
  0
ENDSEC
  0
SECTION
  2
TABLES
  0
TABLE
  2
VPORT
  5
8
330
0
100
AcDbSymbolTable
 70
     1
  0
VPORT
  5
56
330
8
100
AcDbSymbolTableRecord
100
AcDbViewportTableRecord
  2
*Active
 70
     0
 10
0.0
 20
0.0
 11
1.0
 21
1.0
 12
-276.6142540948921
 22
-345.912531524791
 13
0.0
 23
0.0
 14
1.0
 24
1.0
 15
0.0
 25
0.0
 16
0.0
 26
0.0
 36
1.0
 17
0.0
 27
0.0
 37
0.0
 40
636.8850777969331
 41
1.802761341222879
 42
50.0
 43
0.0
 44
0.0
 50
0.0
 51
0.0
 71
     0
 72
   100
 73
     1
 74
     1
 75
     0
 76
     0
 77
     0
 78
     0
281
     0
 65
     1
110
0.0
120
0.0
130
0.0
111
1.0
121
0.0
131
0.0
112
0.0
122
1.0
132
0.0
 79
     0
146
0.0
  0
ENDTAB
  0
TABLE
  2
LTYPE
  5
5
330
0
100
AcDbSymbolTable
 70
     5
  0
LTYPE
  5
28
330
5
100
AcDbSymbolTableRecord
100
AcDbLinetypeTableRecord
  2
ByBlock
 70
     0
  3

 72
    65
 73
     0
 40
0.0
  0
LTYPE
  5
29
330
5
100
AcDbSymbolTableRecord
100
AcDbLinetypeTableRecord
  2
ByLayer
 70
     0
  3

 72
    65
 73
     0
 40
0.0
  0
LTYPE
  5
2A
330
5
100
AcDbSymbolTableRecord
100
AcDbLinetypeTableRecord
  2
CONTINUOUS
 70
     0
  3
Solid-line
 72
    65
 73
     0
 40
0.0
  0
LTYPE
  5
3D
330
5
100
AcDbSymbolTableRecord
100
AcDbLinetypeTableRecord
  2
CENTER
 70
     0
  3
CENTER
 72
    65
 73
     4
 40
2.0
 49
1.25
 74
     0
 49
-0.25
 74
     0
 49
0.25
 74
     0
 49
-0.25
 74
     0
  0
LTYPE
  5
4C
330
5
100
AcDbSymbolTableRecord
100
AcDbLinetypeTableRecord
  2
HIDDEN
 70
     0
  3
HIDDEN
 72
    65
 73
     2
 40
0.375
 49
0.25
 74
     0
 49
-0.125
 74
     0
  0
LTYPE
  5
4F
330
5
100
AcDbSymbolTableRecord
100
AcDbLinetypeTableRecord
  2
PHANTOM
 70
     0
  3
PHANTOM
 72
    65
 73
     6
 40
2.5
 49
1.25
 74
     0
 49
-0.25
 74
     0
 49
0.25
 74
     0
 49
-0.25
 74
     0
 49
0.25
 74
     0
 49
-0.25
 74
     0
  0
ENDTAB
  0
TABLE
  2
LAYER
  5
2
102
{ACAD_XDICTIONARY
360
24C
102
}
330
0
100
AcDbSymbolTable
 70
     2
  0
LAYER
  5
25
102
{ACAD_XDICTIONARY
360
1526
102
}
330
2
100
AcDbSymbolTableRecord
100
AcDbLayerTableRecord
  2
0
 70
     0
 62
     7
  6
CONTINUOUS
370
    -3
390
F
  0
LAYER
  5
327
330
2
100
AcDbSymbolTableRecord
100
AcDbLayerTableRecord
  2
Defpoints
 70
     0
 62
     7
  6
CONTINUOUS
290
     0
370
    -3
390
F
  0
ENDTAB
  0
TABLE
  2
STYLE
  5
3
330
0
100
AcDbSymbolTable
 70
     6
  0
STYLE
  5
26
330
3
100
AcDbSymbolTableRecord
100
AcDbTextStyleTableRecord
  2
STANDARD
 70
     0
 40
0.0
 41
1.0
 50
0.0
 71
     0
 42
0.2
  3
TXT
  4
BIGFONT
  0
STYLE
  5
247
330
3
100
AcDbSymbolTableRecord
100
AcDbTextStyleTableRecord
  2
高3.2
 70
     0
 40
3.2
 41
1.0
 50
0.0
 71
     0
 42
3.2
  3
txt.shx
  4
bigfont.shx
  0
STYLE
  5
328
330
3
100
AcDbSymbolTableRecord
100
AcDbTextStyleTableRecord
  2
高6.3
 70
     0
 40
6.299999999999998
 41
1.0
 50
0.0
 71
     0
 42
6.299999999999998
  3
txt.shx
  4
bigfont.shx
  0
STYLE
  5
329
330
3
100
AcDbSymbolTableRecord
100
AcDbTextStyleTableRecord
  2
高2.5
 70
     0
 40
2.5
 41
1.0
 50
0.0
 71
     0
 42
0.2
  3
txt.shx
  4
bigfont.shx
  0
STYLE
  5
32A
330
3
100
AcDbSymbolTableRecord
100
AcDbTextStyleTableRecord
  2
高4.5
 70
     0
 40
4.5
 41
1.0
 50
0.0
 71
     0
 42
6.299999999999998
  3
txt.shx
  4
bigfont.shx
  0
STYLE
  5
32B
330
3
100
AcDbSymbolTableRecord
100
AcDbTextStyleTableRecord
  2
高2
 70
     0
 40
2.0
 41
1.0
 50
0.0
 71
     0
 42
6.299999999999998
  3
txt.shx
  4
bigfont.shx
  0
ENDTAB
  0
TABLE
  2
VIEW
  5
6
330
0
100
AcDbSymbolTable
 70
     0
  0
ENDTAB
  0
TABLE
  2
UCS
  5
7
330
0
100
AcDbSymbolTable
 70
     0
  0
ENDTAB
  0
TABLE
  2
APPID
  5
9
330
0
100
AcDbSymbolTable
 70
    11
  0
APPID
  5
27
330
9
100
AcDbSymbolTableRecord
100
AcDbRegAppTableRecord
  2
ACAD
 70
     0
  0
APPID
  5
23B
330
9
100
AcDbSymbolTableRecord
100
AcDbRegAppTableRecord
  2
ACAD_EXEMPT_FROM_CAD_STANDARDS
 70
     0
  0
APPID
  5
24B
330
9
100
AcDbSymbolTableRecord
100
AcDbRegAppTableRecord
  2
ACAD_DSTYLE_DIMJOGGED_JOGANGLE_SYMBOL
 70
     0
  0
APPID
  5
10C2
330
9
100
AcDbSymbolTableRecord
100
AcDbRegAppTableRecord
  2
ACAD_DSTYLE_DIMARC_LENGTH_SYMBOL
 70
     0
  0
APPID
  5
10C3
330
9
100
AcDbSymbolTableRecord
100
AcDbRegAppTableRecord
  2
ACAD_DSTYLE_DIMEXT_LENGTH
 70
     0
  0
APPID
  5
128C
330
9
100
AcDbSymbolTableRecord
100
AcDbRegAppTableRecord
  2
ACAD_DSTYLE_DIMRADIAL_EXTENSION
 70
     0
  0
APPID
  5
1571
330
9
100
AcDbSymbolTableRecord
100
AcDbRegAppTableRecord
  2
ACAD_PSEXT
 70
     0
  0
APPID
  5
15CB
330
9
100
AcDbSymbolTableRecord
100
AcDbRegAppTableRecord
  2
ACAD_MLEADERVER
 70
     0
  0
APPID
  5
1706
330
9
100
AcDbSymbolTableRecord
100
AcDbRegAppTableRecord
  2
ACAD_DSTYLE_DIMJAG
 70
     0
  0
APPID
  5
1707
330
9
100
AcDbSymbolTableRecord
100
AcDbRegAppTableRecord
  2
ACAD_DSTYLE_DIMBREAK
 70
     0
  0
APPID
  5
1708
330
9
100
AcDbSymbolTableRecord
100
AcDbRegAppTableRecord
  2
ACAD_DSTYLE_DIMTALN
 70
     0
  0
ENDTAB
  0
TABLE
  2
DIMSTYLE
  5
A
330
0
100
AcDbSymbolTable
 70
     8
100
AcDbDimStyleTable
 71
     3
340
32D
340
248
340
217
  0
DIMSTYLE
105
217
330
A
100
AcDbSymbolTableRecord
100
AcDbDimStyleTableRecord
  2
Standard
 70
     0
340
26
  0
DIMSTYLE
105
248
330
A
100
AcDbSymbolTableRecord
100
AcDbDimStyleTableRecord
  2
1：1
 70
     0
 41
2.5
 42
0.25
 43
0.2
 44
1.25
 73
     0
 74
     0
 77
     3
 78
     8
 79
     2
140
2.5
141
0.0
143
0.03937007874016
147
0.625
171
     3
172
     1
178
     4
179
     1
271
     2
272
     2
274
     3
283
     0
284
     8
288
     1
289
     0
340
26
341
241
342
241
1001
ACAD_DSTYLE_DIMARC_LENGTH_SYMBOL
1070
   379
1070
     2
1001
ACAD_DSTYLE_DIMEXT_LENGTH
1070
   378
1040
1.25
1001
ACAD_DSTYLE_DIMJOGGED_JOGANGLE_SYMBOL
1070
   384
1040
1.570796326794896
  0
DIMSTYLE
105
32D
102
{ACAD_REACTORS
330
9B7
330
A91
330
A93
330
A97
102
}
330
A
100
AcDbSymbolTableRecord
100
AcDbDimStyleTableRecord
  2
1／2
 70
     0
 41
2.5
 42
0.25
 43
0.2
 44
1.25
 73
     0
 74
     0
 77
     3
 78
     8
 79
     2
140
3.0
141
0.0
143
0.03937007874016
144
2.0
147
0.625
171
     3
172
     1
178
     4
179
     1
271
     2
272
     2
274
     3
283
     0
284
     8
288
     1
289
     0
340
26
341
241
342
241
1001
ACAD_DSTYLE_DIMARC_LENGTH_SYMBOL
1070
   379
1070
     2
1001
ACAD_DSTYLE_DIMEXT_LENGTH
1070
   378
1040
1.25
1001
ACAD_DSTYLE_DIMJOGGED_JOGANGLE_SYMBOL
1070
   384
1040
1.570796326794896
  0
DIMSTYLE
105
1B1A
330
A
100
AcDbSymbolTableRecord
100
AcDbDimStyleTableRecord
  2
2：1
 70
     0
 41
2.5
 42
0.25
 43
0.2
 44
1.25
 73
     0
 74
     0
 77
     3
 78
     8
 79
     2
140
3.0
141
0.0
143
0.03937007874016
144
0.5
147
0.625
171
     3
172
     1
178
     4
179
     1
271
     2
272
     2
274
     3
283
     0
284
     8
288
     1
289
     0
340
26
341
241
342
241
1001
ACAD_DSTYLE_DIMARC_LENGTH_SYMBOL
1070
   379
1070
     2
1001
ACAD_DSTYLE_DIMEXT_LENGTH
1070
   378
1040
1.25
1001
ACAD_DSTYLE_DIMJOGGED_JOGANGLE_SYMBOL
1070
   384
1040
1.570796326794896
  0
DIMSTYLE
105
1B1B
330
A
100
AcDbSymbolTableRecord
100
AcDbDimStyleTableRecord
  2
5：1
 70
     0
 41
2.5
 42
0.25
 43
0.2
 44
1.25
 73
     0
 74
     0
 77
     3
 78
     8
 79
     2
140
3.0
141
0.0
143
0.03937007874016
144
0.2
147
0.625
171
     3
172
     1
178
     4
179
     1
271
     2
272
     2
274
     3
283
     0
284
     8
288
     1
289
     0
340
26
341
241
342
241
1001
ACAD_DSTYLE_DIMARC_LENGTH_SYMBOL
1070
   379
1070
     2
1001
ACAD_DSTYLE_DIMEXT_LENGTH
1070
   378
1040
1.25
1001
ACAD_DSTYLE_DIMJOGGED_JOGANGLE_SYMBOL
1070
   384
1040
1.570796326794896
  0
DIMSTYLE
105
1B1C
330
A
100
AcDbSymbolTableRecord
100
AcDbDimStyleTableRecord
  2
10：1
 70
     0
 41
2.5
 42
0.25
 43
0.2
 44
1.25
 73
     0
 74
     0
 77
     3
 78
     8
 79
     2
140
3.0
141
0.0
143
0.03937007874016
144
0.1
147
0.625
171
     3
172
     1
178
     4
179
     1
271
     2
272
     2
274
     3
283
     0
284
     8
288
     1
289
     0
340
26
341
241
342
241
1001
ACAD_DSTYLE_DIMARC_LENGTH_SYMBOL
1070
   379
1070
     2
1001
ACAD_DSTYLE_DIMEXT_LENGTH
1070
   378
1040
1.25
1001
ACAD_DSTYLE_DIMJOGGED_JOGANGLE_SYMBOL
1070
   384
1040
1.570796326794896
  0
DIMSTYLE
105
1B1D
330
A
100
AcDbSymbolTableRecord
100
AcDbDimStyleTableRecord
  2
1／5
 70
     0
 41
2.5
 42
0.25
 43
0.2
 44
1.25
 73
     0
 74
     0
 77
     3
 78
     8
 79
     2
140
3.0
141
0.0
143
0.03937007874016
144
5.0
147
0.625
171
     3
172
     1
178
     4
179
     1
271
     2
272
     2
274
     3
283
     0
284
     8
288
     1
289
     0
340
26
341
241
342
241
1001
ACAD_DSTYLE_DIMARC_LENGTH_SYMBOL
1070
   379
1070
     2
1001
ACAD_DSTYLE_DIMEXT_LENGTH
1070
   378
1040
1.25
1001
ACAD_DSTYLE_DIMJOGGED_JOGANGLE_SYMBOL
1070
   384
1040
1.570796326794896
  0
ENDTAB
  0
TABLE
  2
BLOCK_RECORD
  5
1
330
0
100
AcDbSymbolTable
 70
    20
  0
BLOCK_RECORD
  5
36
102
{ACAD_XDICTIONARY
360
220
102
}
330
1
100
AcDbSymbolTableRecord
100
AcDbBlockTableRecord
  2
*Model_Space
340
39
  0
BLOCK_RECORD
  5
32
330
1
100
AcDbSymbolTableRecord
100
AcDbBlockTableRecord
  2
*Paper_Space
340
35
  0
BLOCK_RECORD
  5
241
330
1
100
AcDbSymbolTableRecord
100
AcDbBlockTableRecord
  2
_Open30
340
0
102
{BLKREFS
331
1E28
331
1E29
331
1E3A
331
1E3B
331
1E41
331
1E42
331
1E4C
331
1E4D
331
1E55
331
1E56
331
1E5E
331
1E5F
331
1E67
331
1E68
331
1E6F
331
1E70
331
1E7A
331
1E7B
331
1E83
331
1E84
331
1E8C
331
1E8D
331
1E95
331
1E96
331
1E9E
331
1E9F
331
1EA7
331
1EA8
331
1EB0
331
1EB1
331
1EB8
331
1ECF
331
1ED0
102
}
  0
BLOCK_RECORD
  5
49D
330
1
100
AcDbSymbolTableRecord
100
AcDbBlockTableRecord
  2
*D1
340
0
  0
BLOCK_RECORD
  5
4B5
330
1
100
AcDbSymbolTableRecord
100
AcDbBlockTableRecord
  2
*D2
340
0
  0
BLOCK_RECORD
  5
4DB
330
1
100
AcDbSymbolTableRecord
100
AcDbBlockTableRecord
  2
*D3
340
0
  0
BLOCK_RECORD
  5
740
330
1
100
AcDbSymbolTableRecord
100
AcDbBlockTableRecord
  2
*D4
340
0
  0
BLOCK_RECORD
  5
75B
330
1
100
AcDbSymbolTableRecord
100
AcDbBlockTableRecord
  2
*D5
340
0
  0
BLOCK_RECORD
  5
78A
330
1
100
AcDbSymbolTableRecord
100
AcDbBlockTableRecord
  2
*D6
340
0
  0
BLOCK_RECORD
  5
7A2
330
1
100
AcDbSymbolTableRecord
100
AcDbBlockTableRecord
  2
*D7
340
0
  0
BLOCK_RECORD
  5
7AE
330
1
100
AcDbSymbolTableRecord
100
AcDbBlockTableRecord
  2
*D8
340
0
  0
BLOCK_RECORD
  5
7BA
330
1
100
AcDbSymbolTableRecord
100
AcDbBlockTableRecord
  2
*D9
340
0
  0
BLOCK_RECORD
  5
7C6
330
1
100
AcDbSymbolTableRecord
100
AcDbBlockTableRecord
  2
*D10
340
0
  0
BLOCK_RECORD
  5
B64
330
1
100
AcDbSymbolTableRecord
100
AcDbBlockTableRecord
  2
*D11
340
0
  0
BLOCK_RECORD
  5
B70
330
1
100
AcDbSymbolTableRecord
100
AcDbBlockTableRecord
  2
*D12
340
0
  0
BLOCK_RECORD
  5
B7C
330
1
100
AcDbSymbolTableRecord
100
AcDbBlockTableRecord
  2
*D13
340
0
  0
BLOCK_RECORD
  5
B88
330
1
100
AcDbSymbolTableRecord
100
AcDbBlockTableRecord
  2
*D14
340
0
  0
BLOCK_RECORD
  5
1291
330
1
100
AcDbSymbolTableRecord
100
AcDbBlockTableRecord
  2
*D15
340
0
  0
BLOCK_RECORD
  5
19C7
330
1
100
AcDbSymbolTableRecord
100
AcDbBlockTableRecord
  2
*D16
340
0
  0
BLOCK_RECORD
  5
19F8
330
1
100
AcDbSymbolTableRecord
100
AcDbBlockTableRecord
  2
*D17
340
0
  0
BLOCK_RECORD
  5
1A0C
102
{ACAD_XDICTIONARY
360
1A0D
102
}
330
1
100
AcDbSymbolTableRecord
100
AcDbBlockTableRecord
  2
A$C769D123E
340
0
1001
ACAD
1000
DesignCenter Data
1002
{
1070
     1
1070
     1
1002
}
  0
ENDTAB
  0
ENDSEC
  0
SECTION
  2
BLOCKS
  0
BLOCK
  5
37
330
36
100
AcDbEntity
  8
0
100
AcDbBlockBegin
  2
*Model_Space
 70
     0
 10
0.0
 20
0.0
 30
0.0
  3
*Model_Space
  1

  0
ENDBLK
  5
38
330
36
100
AcDbEntity
  8
0
100
AcDbBlockEnd
  0
BLOCK
  5
33
330
32
100
AcDbEntity
 67
     1
  8
0
100
AcDbBlockBegin
  2
*Paper_Space
 70
     0
 10
0.0
 20
0.0
 30
0.0
  3
*Paper_Space
  1

  0
ENDBLK
  5
34
330
32
100
AcDbEntity
 67
     1
  8
0
100
AcDbBlockEnd
  0
BLOCK
  5
242
330
241
100
AcDbEntity
  8
0
100
AcDbBlockBegin
  2
_Open30
 70
     0
 10
0.0
 20
0.0
 30
0.0
  3
_Open30
  1

  0
LINE
  5
243
330
241
100
AcDbEntity
  8
0
  6
ByBlock
 62
     0
370
    -2
100
AcDbLine
 10
-1.0
 20
0.267949
 30
0.0
 11
0.0
 21
0.0
 31
0.0
  0
LINE
  5
244
330
241
100
AcDbEntity
  8
0
  6
ByBlock
 62
     0
370
    -2
100
AcDbLine
 10
0.0
 20
0.0
 30
0.0
 11
-1.0
 21
-0.267949
 31
0.0
  0
LINE
  5
245
330
241
100
AcDbEntity
  8
0
  6
ByBlock
 62
     0
370
    -2
100
AcDbLine
 10
0.0
 20
0.0
 30
0.0
 11
-1.0
 21
0.0
 31
0.0
  0
ENDBLK
  5
246
330
241
100
AcDbEntity
  8
0
100
AcDbBlockEnd
  0
BLOCK
  5
4A7
330
49D
100
AcDbEntity
  8
0
100
AcDbBlockBegin
  2
*D1
 70
     1
 10
0.0
 20
0.0
 30
0.0
  3
*D1
  1

  0
LINE
  5
1E25
330
49D
100
AcDbEntity
  8
0
 62
     0
370
    -2
100
AcDbLine
 10
54.47583428587893
 20
-352.4475117046419
 30
0.0
 11
64.08802837054025
 21
-352.4475117046419
 31
0.0
  0
LINE
  5
1E26
330
49D
100
AcDbEntity
  8
0
 62
     0
370
    -2
100
AcDbLine
 10
57.05684191924932
 20
-306.9475117046419
 30
0.0
 11
64.08802837054027
 21
-306.9475117046419
 31
0.0
  0
LINE
  5
1E27
330
49D
100
AcDbEntity
  8
0
 62
     0
370
    -2
100
AcDbLine
 10
62.83802837054025
 20
-349.9475117046419
 30
0.0
 11
62.83802837054026
 21
-309.4475117046419
 31
0.0
  0
INSERT
  5
1E28
330
49D
100
AcDbEntity
  8
0
 62
     0
370
    -2
100
AcDbBlockReference
  2
_Open30
 10
62.83802837054025
 20
-352.4475117046419
 30
0.0
 41
2.5
 42
2.5
 43
2.5
 50
270.0
  0
INSERT
  5
1E29
330
49D
100
AcDbEntity
  8
0
 62
     0
370
    -2
100
AcDbBlockReference
  2
_Open30
 10
62.83802837054026
 20
-306.9475117046419
 30
0.0
 41
2.5
 42
2.5
 43
2.5
 50
90.0
  0
MTEXT
  5
1E2A
330
49D
100
AcDbEntity
  8
0
 62
     4
100
AcDbMText
 10
60.71302837054031
 20
-330.4475117046418
 30
0.0
 40
3.0
 41
0.0
 71
     5
 72
     1
  1
91
 11
0.0000000000000001
 21
1.0
 31
0.0
 73
     1
 44
1.0
1001
ACAD
1000
MTEXTBEGIN
1070
    73
1070
     1
1070
    44
1040
1.0
1070
    74
1070
     0
1000
MTEXTEND
  0
POINT
  5
1E2B
330
49D
100
AcDbEntity
  8
Defpoints
 62
     0
100
AcDbPoint
 10
54.22583428587892
 20
-352.4475117046419
 30
0.0
  0
POINT
  5
1E2C
330
49D
100
AcDbEntity
  8
Defpoints
 62
     0
100
AcDbPoint
 10
56.80684191924932
 20
-306.9475117046419
 30
0.0
  0
POINT
  5
1E2D
330
49D
100
AcDbEntity
  8
Defpoints
 62
     0
100
AcDbPoint
 10
62.83802837054026
 20
-306.9475117046419
 30
0.0
  0
ENDBLK
  5
4A8
330
49D
100
AcDbEntity
  8
0
100
AcDbBlockEnd
  0
BLOCK
  5
4BF
330
4B5
100
AcDbEntity
  8
0
100
AcDbBlockBegin
  2
*D2
 70
     1
 10
0.0
 20
0.0
 30
0.0
  3
*D2
  1

  0
LINE
  5
1ECC
330
4B5
100
AcDbEntity
  8
0
 62
     0
370
    -2
100
AcDbLine
 10
6.128170209316621
 20
-267.0647149559341
 30
0.0
 11
1.248903606887211
 21
-260.1411238425582
 31
0.0
  0
LINE
  5
1ECD
330
4B5
100
AcDbEntity
  8
0
 62
     0
370
    -2
100
AcDbLine
 10
18.41545393856691
 20
-258.4610727878211
 30
0.0
 11
13.51001486080413
 21
-251.5003434050292
 31
0.0
  0
LINE
  5
1ECE
330
4B5
100
AcDbEntity
  8
0
 62
     0
370
    -2
100
AcDbLine
 10
4.012499862923547
 20
-259.7227511216238
 30
0.0
 11
12.1865552839298
 21
-253.9622440424188
 31
0.0
  0
INSERT
  5
1ECF
330
4B5
100
AcDbEntity
  8
0
 62
     0
370
    -2
100
AcDbBlockReference
  2
_Open30
 10
1.968971946468215
 20
-261.1628878007858
 30
0.0
 41
2.5
 42
2.5
 43
2.5
 50
215.1735250000019
  0
INSERT
  5
1ED0
330
4B5
100
AcDbEntity
  8
0
 62
     0
370
    -2
100
AcDbBlockReference
  2
_Open30
 10
14.23008320038514
 20
-252.5221073632569
 30
0.0
 41
2.5
 42
2.5
 43
2.5
 50
35.17352500000193
  0
MTEXT
  5
1ED1
330
4B5
100
AcDbEntity
  8
0
 62
     4
100
AcDbMText
 10
5.981436995294274
 20
-255.7355099796361
 30
0.0
 40
3.0
 41
0.0
 71
     5
 72
     1
  1
30
 11
0.8174111665821346
 21
0.5760546716647941
 31
0.0
 73
     1
 44
1.0
1001
ACAD
1000
MTEXTBEGIN
1070
    73
1070
     1
1070
    44
1040
1.0
1070
    74
1070
     0
1000
MTEXTEND
  0
POINT
  5
1ED2
330
4B5
100
AcDbEntity
  8
Defpoints
 62
     0
100
AcDbPoint
 10
6.272183877232819
 20
-267.2690677475797
 30
0.0
  0
POINT
  5
1ED3
330
4B5
100
AcDbEntity
  8
Defpoints
 62
     0
100
AcDbPoint
 10
18.55946760648311
 20
-258.6654255794666
 30
0.0
  0
POINT
  5
1ED4
330
4B5
100
AcDbEntity
  8
Defpoints
 62
     0
100
AcDbPoint
 10
14.23008320038514
 20
-252.5221073632569
 30
0.0
  0
ENDBLK
  5
4C0
330
4B5
100
AcDbEntity
  8
0
100
AcDbBlockEnd
  0
BLOCK
  5
4E5
330
4DB
100
AcDbEntity
  8
0
100
AcDbBlockBegin
  2
*D3
 70
     1
 10
0.0
 20
0.0
 30
0.0
  3
*D3
  1

  0
LINE
  5
1E37
330
4DB
100
AcDbEntity
  8
0
 62
     0
370
    -2
100
AcDbLine
 10
18.76432547231616
 20
-258.5221312897136
 30
0.0
 11
26.14202668416981
 21
-253.3618005327701
 31
0.0
  0
LINE
  5
1E38
330
4DB
100
AcDbEntity
  8
0
 62
     0
370
    -2
100
AcDbLine
 10
51.17139412615007
 20
-304.8042217920418
 30
0.0
 11
58.5255427415816
 21
-299.6603648911455
 31
0.0
  0
LINE
  5
1E39
330
4DB
100
AcDbEntity
  8
0
 62
     0
370
    -2
100
AcDbLine
 10
26.55062115642972
 20
-256.1268594032535
 30
0.0
 11
56.06833896183897
 21
-298.3282051466634
 31
0.0
  0
INSERT
  5
1E3A
330
4DB
100
AcDbEntity
  8
0
 62
     0
370
    -2
100
AcDbBlockReference
  2
_Open30
 10
25.11772203042845
 20
-254.0782500957708
 30
0.0
 41
2.5
 42
2.5
 43
2.5
 50
124.970853000004
  0
INSERT
  5
1E3B
330
4DB
100
AcDbEntity
  8
0
 62
     0
370
    -2
100
AcDbBlockReference
  2
_Open30
 10
57.50123808784024
 20
-300.3768144541461
 30
0.0
 41
2.5
 42
2.5
 43
2.5
 50
304.970853000004
  0
MTEXT
  5
1E3C
330
4DB
100
AcDbEntity
  8
0
 62
     4
100
AcDbMText
 10
43.05079797049467
 20
-276.0095680178574
 30
0.0
 40
3.0
 41
0.0
 71
     5
 72
     1
  1
113
 11
0.5731596504005081
 21
-0.8194437229930848
 31
0.0
 73
     1
 44
1.0
1001
ACAD
1000
MTEXTBEGIN
1070
    73
1070
     1
1070
    44
1040
1.0
1070
    74
1070
     0
1000
MTEXTEND
  0
POINT
  5
1E3D
330
4DB
100
AcDbEntity
  8
Defpoints
 62
     0
100
AcDbPoint
 10
18.55946454156789
 20
-258.6654212023137
 30
0.0
  0
POINT
  5
1E3E
330
4DB
100
AcDbEntity
  8
Defpoints
 62
     0
100
AcDbPoint
 10
50.9665331954018
 20
-304.9475117046419
 30
0.0
  0
POINT
  5
1E3F
330
4DB
100
AcDbEntity
  8
Defpoints
 62
     0
100
AcDbPoint
 10
57.50123808784024
 20
-300.3768144541461
 30
0.0
  0
ENDBLK
  5
4E6
330
4DB
100
AcDbEntity
  8
0
100
AcDbBlockEnd
  0
BLOCK
  5
74A
330
740
100
AcDbEntity
  8
0
100
AcDbBlockBegin
  2
*D4
 70
     1
 10
0.0
 20
0.0
 30
0.0
  3
*D4
  1

  0
ARC
  5
1E40
330
740
100
AcDbEntity
  8
0
 62
     0
370
    -2
100
AcDbCircle
 10
71.31669998421054
 20
-352.4475117046419
 30
0.0
 40
73.52183392531554
100
AcDbArc
 50
126.9483511607598
 51
178.0516488392402
  0
INSERT
  5
1E41
330
740
100
AcDbEntity
  8
0
 62
     0
370
    -2
100
AcDbBlockReference
  2
_Open30
 10
29.14630848733464
 20
-292.221951144844
 30
0.0
 41
2.5
 42
2.5
 43
2.5
 50
35.97417558037992
  0
INSERT
  5
1E42
330
740
100
AcDbEntity
  8
0
 62
     0
370
    -2
100
AcDbBlockReference
  2
_Open30
 10
-2.205133941104946
 20
-352.4475117046419
 30
0.0
 41
2.5
 42
2.5
 43
2.5
 50
269.0258244196201
  0
MTEXT
  5
1E43
330
740
100
AcDbEntity
  8
0
 62
     4
100
AcDbMText
 10
4.217138796821842
 20
-317.5176910440065
 30
0.0
 40
3.0
 41
0.0
 71
     5
 72
     1
  1
55\U+00B0
 11
0.4617486132350337
 21
0.8870108331782217
 31
0.0
 73
     1
 44
1.0
1001
ACAD
1000
MTEXTBEGIN
1070
    73
1070
     1
1070
    44
1040
1.0
1070
    74
1070
     0
1000
MTEXTEND
  0
POINT
  5
1E44
330
740
100
AcDbEntity
  8
Defpoints
 62
     0
100
AcDbPoint
 10
12.34313181883036
 20
-308.5433168983943
 30
0.0
  0
POINT
  5
1E45
330
740
100
AcDbEntity
  8
Defpoints
 62
     0
100
AcDbPoint
 10
38.05684191924935
 20
-304.9475117046419
 30
0.0
  0
POINT
  5
1E46
330
740
100
AcDbEntity
  8
Defpoints
 62
     0
100
AcDbPoint
 10
51.05684191924931
 20
-352.4475117046419
 30
0.0
  0
POINT
  5
1E47
330
740
100
AcDbEntity
  8
Defpoints
 62
     0
100
AcDbPoint
 10
-5.112150447380258
 20
-352.4475117046419
 30
0.0
  0
POINT
  5
1E48
330
740
100
AcDbEntity
  8
Defpoints
 62
     0
100
AcDbPoint
 10
7.162768608726068
 20
-260.8262024860733
 30
0.0
  0
ENDBLK
  5
74B
330
740
100
AcDbEntity
  8
0
100
AcDbBlockEnd
  0
BLOCK
  5
765
330
75B
100
AcDbEntity
  8
0
100
AcDbBlockBegin
  2
*D5
 70
     1
 10
0.0
 20
0.0
 30
0.0
  3
*D5
  1

  0
LINE
  5
1E49
330
75B
100
AcDbEntity
  8
0
 62
     0
370
    -2
100
AcDbLine
 10
-6.001578042349393
 20
-300.2787401410913
 30
0.0
 11
-8.99449753644356
 21
-302.3744049321108
 31
0.0
  0
LINE
  5
1E4A
330
75B
100
AcDbEntity
  8
0
 62
     0
370
    -2
100
AcDbLine
 10
-17.47310676937029
 20
-283.8956992553113
 30
0.0
 11
-20.46602626346443
 21
-285.9913640463308
 31
0.0
  0
LINE
  5
1E4B
330
75B
100
AcDbEntity
  8
0
 62
     0
370
    -2
100
AcDbLine
 10
-9.404498571959919
 20
-299.6095542759495
 30
0.0
 11
-18.00814511722558
 21
-287.3222736116144
 31
0.0
  0
INSERT
  5
1E4C
330
75B
100
AcDbEntity
  8
0
 62
     0
370
    -2
100
AcDbBlockReference
  2
_Open30
 10
-7.970557481082323
 20
-301.657434386672
 30
0.0
 41
2.5
 42
2.5
 43
2.5
 50
304.9999999999995
  0
INSERT
  5
1E4D
330
75B
100
AcDbEntity
  8
0
 62
     0
370
    -2
100
AcDbBlockReference
  2
_Open30
 10
-19.44208620810319
 20
-285.274393500892
 30
0.0
 41
2.5
 42
2.5
 43
2.5
 50
124.9999999999995
  0
MTEXT
  5
1E4E
330
75B
100
AcDbEntity
  8
0
 62
     4
100
AcDbMText
 10
-12.17656700847928
 20
-291.9458058230867
 30
0.0
 40
3.0
 41
0.0
 71
     5
 72
     1
  1
40
 11
0.5735764363510398
 21
-0.8191520442889961
 31
0.0
 73
     1
 44
1.0
1001
ACAD
1000
MTEXTBEGIN
1070
    73
1070
     1
1070
    44
1040
1.0
1070
    74
1070
     0
1000
MTEXTEND
  0
POINT
  5
1E4F
330
75B
100
AcDbEntity
  8
Defpoints
 62
     0
100
AcDbPoint
 10
-5.79679003127714
 20
-300.1353460320036
 30
0.0
  0
POINT
  5
1E50
330
75B
100
AcDbEntity
  8
Defpoints
 62
     0
100
AcDbPoint
 10
-17.26831875829804
 20
-283.7523051462235
 30
0.0
  0
POINT
  5
1E51
330
75B
100
AcDbEntity
  8
Defpoints
 62
     0
100
AcDbPoint
 10
-19.44208620810319
 20
-285.274393500892
 30
0.0
  0
ENDBLK
  5
766
330
75B
100
AcDbEntity
  8
0
100
AcDbBlockEnd
  0
BLOCK
  5
794
330
78A
100
AcDbEntity
  8
0
100
AcDbBlockBegin
  2
*D6
 70
     1
 10
0.0
 20
0.0
 30
0.0
  3
*D6
  1

  0
LINE
  5
1E6D
330
78A
100
AcDbEntity
  8
0
 62
     0
370
    -2
100
AcDbLine
 10
-125.5188108058815
 20
-352.4475117046417
 30
0.0
 11
-137.1117942996066
 21
-352.4475117046416
 31
0.0
  0
ARC
  5
1E6E
330
78A
100
AcDbEntity
  8
0
 62
     0
370
    -2
100
AcDbCircle
 10
-62.33996037429079
 20
-352.447511704642
 30
0.0
 40
73.52183392531582
100
AcDbArc
 50
126.9483511607597
 51
178.05164883924
  0
INSERT
  5
1E6F
330
78A
100
AcDbEntity
  8
0
 62
     0
370
    -2
100
AcDbBlockReference
  2
_Open30
 10
-104.5103518711668
 20
-292.2219511448438
 30
0.0
 41
2.5
 42
2.5
 43
2.5
 50
35.97417558037983
  0
INSERT
  5
1E70
330
78A
100
AcDbEntity
  8
0
 62
     0
370
    -2
100
AcDbBlockReference
  2
_Open30
 10
-135.8617942996066
 20
-352.4475117046417
 30
0.0
 41
2.5
 42
2.5
 43
2.5
 50
269.0258244196199
  0
MTEXT
  5
1E71
330
78A
100
AcDbEntity
  8
0
 62
     4
100
AcDbMText
 10
-129.4395215616796
 20
-317.5176910440064
 30
0.0
 40
3.0
 41
0.0
 71
     5
 72
     1
  1
55\U+00B0
 11
0.4617486132350363
 21
0.8870108331782205
 31
0.0
 73
     1
 44
1.0
1001
ACAD
1000
MTEXTBEGIN
1070
    73
1070
     1
1070
    44
1040
1.0
1070
    74
1070
     0
1000
MTEXTEND
  0
POINT
  5
1E72
330
78A
100
AcDbEntity
  8
Defpoints
 62
     0
100
AcDbPoint
 10
-121.3135285396711
 20
-308.5433168983942
 30
0.0
  0
POINT
  5
1E73
330
78A
100
AcDbEntity
  8
Defpoints
 62
     0
100
AcDbPoint
 10
-95.59981843925198
 20
-304.9475117046419
 30
0.0
  0
POINT
  5
1E74
330
78A
100
AcDbEntity
  8
Defpoints
 62
     0
100
AcDbPoint
 10
-82.59981843925197
 20
-352.4475117046419
 30
0.0
  0
POINT
  5
1E75
330
78A
100
AcDbEntity
  8
Defpoints
 62
     0
100
AcDbPoint
 10
-125.2688108058816
 20
-352.4475117046418
 30
0.0
  0
POINT
  5
1E76
330
78A
100
AcDbEntity
  8
Defpoints
 62
     0
100
AcDbPoint
 10
-126.4938917497752
 20
-260.8262024860733
 30
0.0
  0
ENDBLK
  5
795
330
78A
100
AcDbEntity
  8
0
100
AcDbBlockEnd
  0
BLOCK
  5
7AC
330
7A2
100
AcDbEntity
  8
0
100
AcDbBlockBegin
  2
*D7
 70
     1
 10
0.0
 20
0.0
 30
0.0
  3
*D7
  1

  0
LINE
  5
1E77
330
7A2
100
AcDbEntity
  8
0
 62
     0
370
    -2
100
AcDbLine
 10
-136.8851179984257
 20
-298.33698033095
 30
0.0
 11
-141.9628257266696
 21
-301.8924295590919
 31
0.0
  0
LINE
  5
1E78
330
7A2
100
AcDbEntity
  8
0
 62
     0
370
    -2
100
AcDbLine
 10
-148.3566467254464
 20
-281.9539394451699
 30
0.0
 11
-153.4343544536903
 21
-285.5093886733119
 31
0.0
  0
LINE
  5
1E79
330
7A2
100
AcDbEntity
  8
0
 62
     0
370
    -2
100
AcDbLine
 10
-142.372826762186
 20
-299.1275789029306
 30
0.0
 11
-150.9764733074515
 21
-286.8402982385955
 31
0.0
  0
INSERT
  5
1E7A
330
7A2
100
AcDbEntity
  8
0
 62
     0
370
    -2
100
AcDbBlockReference
  2
_Open30
 10
-140.9388856713084
 20
-301.1754590136531
 30
0.0
 41
2.5
 42
2.5
 43
2.5
 50
304.9999999999991
  0
INSERT
  5
1E7B
330
7A2
100
AcDbEntity
  8
0
 62
     0
370
    -2
100
AcDbBlockReference
  2
_Open30
 10
-152.4104143983291
 20
-284.7924181278731
 30
0.0
 41
2.5
 42
2.5
 43
2.5
 50
124.9999999999991
  0
MTEXT
  5
1E7C
330
7A2
100
AcDbEntity
  8
0
 62
     4
100
AcDbMText
 10
-145.956104007739
 20
-290.3053042063945
 30
0.0
 40
3.0
 41
0.0
 71
     5
 72
     1
  1
40
 11
0.573576436351034
 21
-0.8191520442890002
 31
0.0
 73
     1
 44
1.0
1001
ACAD
1000
MTEXTBEGIN
1070
    73
1070
     1
1070
    44
1040
1.0
1070
    74
1070
     0
1000
MTEXTEND
  0
POINT
  5
1E7D
330
7A2
100
AcDbEntity
  8
Defpoints
 62
     0
100
AcDbPoint
 10
-136.6803299873535
 20
-298.1935862218622
 30
0.0
  0
POINT
  5
1E7E
330
7A2
100
AcDbEntity
  8
Defpoints
 62
     0
100
AcDbPoint
 10
-148.1518587143742
 20
-281.8105453360821
 30
0.0
  0
POINT
  5
1E7F
330
7A2
100
AcDbEntity
  8
Defpoints
 62
     0
100
AcDbPoint
 10
-152.4104143983291
 20
-284.7924181278731
 30
0.0
  0
ENDBLK
  5
7AD
330
7A2
100
AcDbEntity
  8
0
100
AcDbBlockEnd
  0
BLOCK
  5
7B8
330
7AE
100
AcDbEntity
  8
0
100
AcDbBlockBegin
  2
*D8
 70
     1
 10
0.0
 20
0.0
 30
0.0
  3
*D8
  1

  0
LINE
  5
1E52
330
7AE
100
AcDbEntity
  8
0
 62
     0
370
    -2
100
AcDbLine
 10
-95.84981843925197
 20
-352.4475117046418
 30
0.0
 11
-119.2180846043553
 21
-352.4475117046418
 31
0.0
  0
LINE
  5
1E53
330
7AE
100
AcDbEntity
  8
0
 62
     0
370
    -2
100
AcDbLine
 10
-114.5998184392519
 20
-306.9475117046419
 30
0.0
 11
-119.2180846043552
 21
-306.9475117046419
 31
0.0
  0
LINE
  5
1E54
330
7AE
100
AcDbEntity
  8
0
 62
     0
370
    -2
100
AcDbLine
 10
-117.9680846043552
 20
-349.9475117046418
 30
0.0
 11
-117.9680846043552
 21
-309.4475117046419
 31
0.0
  0
INSERT
  5
1E55
330
7AE
100
AcDbEntity
  8
0
 62
     0
370
    -2
100
AcDbBlockReference
  2
_Open30
 10
-117.9680846043552
 20
-352.4475117046418
 30
0.0
 41
2.5
 42
2.5
 43
2.5
 50
270.0
  0
INSERT
  5
1E56
330
7AE
100
AcDbEntity
  8
0
 62
     0
370
    -2
100
AcDbBlockReference
  2
_Open30
 10
-117.9680846043552
 20
-306.9475117046419
 30
0.0
 41
2.5
 42
2.5
 43
2.5
 50
90.0
  0
MTEXT
  5
1E57
330
7AE
100
AcDbEntity
  8
0
 62
     4
100
AcDbMText
 10
-120.0930846043552
 20
-330.4475117046418
 30
0.0
 40
3.0
 41
0.0
 71
     5
 72
     1
  1
91
 11
0.0000000000000001
 21
1.0
 31
0.0
 73
     1
 44
1.0
1001
ACAD
1000
MTEXTBEGIN
1070
    73
1070
     1
1070
    44
1040
1.0
1070
    74
1070
     0
1000
MTEXTEND
  0
POINT
  5
1E58
330
7AE
100
AcDbEntity
  8
Defpoints
 62
     0
100
AcDbPoint
 10
-95.59981843925198
 20
-352.4475117046418
 30
0.0
  0
POINT
  5
1E59
330
7AE
100
AcDbEntity
  8
Defpoints
 62
     0
100
AcDbPoint
 10
-114.3498184392519
 20
-306.9475117046419
 30
0.0
  0
POINT
  5
1E5A
330
7AE
100
AcDbEntity
  8
Defpoints
 62
     0
100
AcDbPoint
 10
-117.9680846043552
 20
-306.9475117046419
 30
0.0
  0
ENDBLK
  5
7B9
330
7AE
100
AcDbEntity
  8
0
100
AcDbBlockEnd
  0
BLOCK
  5
7C4
330
7BA
100
AcDbEntity
  8
0
100
AcDbBlockBegin
  2
*D9
 70
     1
 10
0.0
 20
0.0
 30
0.0
  3
*D9
  1

  0
LINE
  5
1E5B
330
7BA
100
AcDbEntity
  8
0
 62
     0
370
    -2
100
AcDbLine
 10
-127.5284901491847
 20
-267.0647149559339
 30
0.0
 11
-131.831704721824
 21
-260.9585312603676
 31
0.0
  0
LINE
  5
1E5C
330
7BA
100
AcDbEntity
  8
0
 62
     0
370
    -2
100
AcDbLine
 10
-115.2412094848499
 20
-258.4610684106681
 30
0.0
 11
-119.5705934546788
 21
-252.3177508135163
 31
0.0
  0
LINE
  5
1E5D
330
7BA
100
AcDbEntity
  8
0
 62
     0
370
    -2
100
AcDbLine
 10
-129.0681084657876
 20
-260.5401585394333
 30
0.0
 11
-120.8940530315531
 21
-254.779651450906
 31
0.0
  0
INSERT
  5
1E5E
330
7BA
100
AcDbEntity
  8
0
 62
     0
370
    -2
100
AcDbBlockReference
  2
_Open30
 10
-131.111636382243
 20
-261.9802952185953
 30
0.0
 41
2.5
 42
2.5
 43
2.5
 50
215.1735250000019
  0
INSERT
  5
1E5F
330
7BA
100
AcDbEntity
  8
0
 62
     0
370
    -2
100
AcDbBlockReference
  2
_Open30
 10
-118.8505251150978
 20
-253.339514771744
 30
0.0
 41
2.5
 42
2.5
 43
2.5
 50
35.17352500000183
  0
MTEXT
  5
1E60
330
7BA
100
AcDbEntity
  8
0
 62
     4
100
AcDbMText
 10
-126.2051969259581
 20
-255.9229062661826
 30
0.0
 40
3.0
 41
0.0
 71
     5
 72
     1
  1
30
 11
0.8174111665821357
 21
0.5760546716647928
 31
0.0
 73
     1
 44
1.0
1001
ACAD
1000
MTEXTBEGIN
1070
    73
1070
     1
1070
    44
1040
1.0
1070
    74
1070
     0
1000
MTEXTEND
  0
POINT
  5
1E61
330
7BA
100
AcDbEntity
  8
Defpoints
 62
     0
100
AcDbPoint
 10
-127.3844764812685
 20
-267.2690677475794
 30
0.0
  0
POINT
  5
1E62
330
7BA
100
AcDbEntity
  8
Defpoints
 62
     0
100
AcDbPoint
 10
-115.0971958169337
 20
-258.6654212023136
 30
0.0
  0
POINT
  5
1E63
330
7BA
100
AcDbEntity
  8
Defpoints
 62
     0
100
AcDbPoint
 10
-118.8505251150978
 20
-253.339514771744
 30
0.0
  0
ENDBLK
  5
7C5
330
7BA
100
AcDbEntity
  8
0
100
AcDbBlockEnd
  0
BLOCK
  5
7D0
330
7C6
100
AcDbEntity
  8
0
100
AcDbBlockBegin
  2
*D10
 70
     1
 10
0.0
 20
0.0
 30
0.0
  3
*D10
  1

  0
LINE
  5
1E64
330
7C6
100
AcDbEntity
  8
0
 62
     0
370
    -2
100
AcDbLine
 10
-114.8923348861852
 20
-258.5221312897135
 30
0.0
 11
-107.5146336743318
 21
-253.3618005327702
 31
0.0
  0
LINE
  5
1E65
330
7C6
100
AcDbEntity
  8
0
 62
     0
370
    -2
100
AcDbLine
 10
-82.48526623235148
 20
-304.8042217920418
 30
0.0
 11
-75.13111761691998
 21
-299.6603648911455
 31
0.0
  0
LINE
  5
1E66
330
7C6
100
AcDbEntity
  8
0
 62
     0
370
    -2
100
AcDbLine
 10
-107.1060392020719
 20
-256.1268594032536
 30
0.0
 11
-77.5883213966626
 21
-298.3282051466634
 31
0.0
  0
INSERT
  5
1E67
330
7C6
100
AcDbEntity
  8
0
 62
     0
370
    -2
100
AcDbBlockReference
  2
_Open30
 10
-108.5389383280732
 20
-254.0782500957708
 30
0.0
 41
2.5
 42
2.5
 43
2.5
 50
124.9708530000041
  0
INSERT
  5
1E68
330
7C6
100
AcDbEntity
  8
0
 62
     0
370
    -2
100
AcDbBlockReference
  2
_Open30
 10
-76.15542227066133
 20
-300.3768144541461
 30
0.0
 41
2.5
 42
2.5
 43
2.5
 50
304.9708530000041
  0
MTEXT
  5
1E69
330
7C6
100
AcDbEntity
  8
0
 62
     4
100
AcDbMText
 10
-90.60586238800699
 20
-276.0095680178574
 30
0.0
 40
3.0
 41
0.0
 71
     5
 72
     1
  1
113
 11
0.5731596504005092
 21
-0.8194437229930839
 31
0.0
 73
     1
 44
1.0
1001
ACAD
1000
MTEXTBEGIN
1070
    73
1070
     1
1070
    44
1040
1.0
1070
    74
1070
     0
1000
MTEXTEND
  0
POINT
  5
1E6A
330
7C6
100
AcDbEntity
  8
Defpoints
 62
     0
100
AcDbPoint
 10
-115.0971958169335
 20
-258.6654212023136
 30
0.0
  0
POINT
  5
1E6B
330
7C6
100
AcDbEntity
  8
Defpoints
 62
     0
100
AcDbPoint
 10
-82.69012716309978
 20
-304.9475117046419
 30
0.0
  0
POINT
  5
1E6C
330
7C6
100
AcDbEntity
  8
Defpoints
 62
     0
100
AcDbPoint
 10
-76.15542227066133
 20
-300.3768144541461
 30
0.0
  0
ENDBLK
  5
7D1
330
7C6
100
AcDbEntity
  8
0
100
AcDbBlockEnd
  0
BLOCK
  5
B6E
330
B64
100
AcDbEntity
  8
0
100
AcDbBlockBegin
  2
*D11
 70
     1
 10
0.0
 20
0.0
 30
0.0
  3
*D11
  1

  0
LINE
  5
1E80
330
B64
100
AcDbEntity
  8
0
 62
     0
370
    -2
100
AcDbLine
 10
167.1743878883371
 20
-278.4083334789055
 30
0.0
 11
185.3847447312763
 21
-278.4083334789055
 31
0.0
  0
LINE
  5
1E81
330
B64
100
AcDbEntity
  8
0
 62
     0
370
    -2
100
AcDbLine
 10
167.1743878883369
 20
-248.4083334789055
 30
0.0
 11
185.3847447312763
 21
-248.4083334789055
 31
0.0
  0
LINE
  5
1E82
330
B64
100
AcDbEntity
  8
0
 62
     0
370
    -2
100
AcDbLine
 10
184.1347447312763
 20
-275.9083334789055
 30
0.0
 11
184.1347447312763
 21
-250.9083334789055
 31
0.0
  0
INSERT
  5
1E83
330
B64
100
AcDbEntity
  8
0
 62
     0
370
    -2
100
AcDbBlockReference
  2
_Open30
 10
184.1347447312763
 20
-278.4083334789055
 30
0.0
 41
2.5
 42
2.5
 43
2.5
 50
270.0
  0
INSERT
  5
1E84
330
B64
100
AcDbEntity
  8
0
 62
     0
370
    -2
100
AcDbBlockReference
  2
_Open30
 10
184.1347447312763
 20
-248.4083334789055
 30
0.0
 41
2.5
 42
2.5
 43
2.5
 50
90.0
  0
MTEXT
  5
1E85
330
B64
100
AcDbEntity
  8
0
 62
     4
100
AcDbMText
 10
182.0097447312764
 20
-263.5240649138122
 30
0.0
 40
3.0
 41
0.0
 71
     5
 72
     1
  1
60
 11
0.0000000000000001
 21
1.0
 31
0.0
 73
     1
 44
1.0
1001
ACAD
1000
MTEXTBEGIN
1070
    73
1070
     1
1070
    44
1040
1.0
1070
    74
1070
     0
1000
MTEXTEND
  0
POINT
  5
1E86
330
B64
100
AcDbEntity
  8
Defpoints
 62
     0
100
AcDbPoint
 10
166.9243878883371
 20
-278.4083334789055
 30
0.0
  0
POINT
  5
1E87
330
B64
100
AcDbEntity
  8
Defpoints
 62
     0
100
AcDbPoint
 10
166.9243878883369
 20
-248.4083334789055
 30
0.0
  0
POINT
  5
1E88
330
B64
100
AcDbEntity
  8
Defpoints
 62
     0
100
AcDbPoint
 10
184.1347447312763
 20
-248.4083334789055
 30
0.0
  0
ENDBLK
  5
B6F
330
B64
100
AcDbEntity
  8
0
100
AcDbBlockEnd
  0
BLOCK
  5
B7A
330
B70
100
AcDbEntity
  8
0
100
AcDbBlockBegin
  2
*D12
 70
     1
 10
0.0
 20
0.0
 30
0.0
  3
*D12
  1

  0
LINE
  5
1E89
330
B70
100
AcDbEntity
  8
0
 62
     0
370
    -2
100
AcDbLine
 10
169.0743878883371
 20
-273.9083334789054
 30
0.0
 11
180.3696364133685
 21
-273.9083334789054
 31
0.0
  0
LINE
  5
1E8A
330
B70
100
AcDbEntity
  8
0
 62
     0
370
    -2
100
AcDbLine
 10
169.0743878883371
 20
-252.9083334789056
 30
0.0
 11
180.3696364133685
 21
-252.9083334789056
 31
0.0
  0
LINE
  5
1E8B
330
B70
100
AcDbEntity
  8
0
 62
     0
370
    -2
100
AcDbLine
 10
179.1196364133685
 20
-271.4083334789054
 30
0.0
 11
179.1196364133685
 21
-255.4083334789056
 31
0.0
  0
INSERT
  5
1E8C
330
B70
100
AcDbEntity
  8
0
 62
     0
370
    -2
100
AcDbBlockReference
  2
_Open30
 10
179.1196364133685
 20
-273.9083334789054
 30
0.0
 41
2.5
 42
2.5
 43
2.5
 50
270.0
  0
INSERT
  5
1E8D
330
B70
100
AcDbEntity
  8
0
 62
     0
370
    -2
100
AcDbBlockReference
  2
_Open30
 10
179.1196364133685
 20
-252.9083334789056
 30
0.0
 41
2.5
 42
2.5
 43
2.5
 50
90.0
  0
MTEXT
  5
1E8E
330
B70
100
AcDbEntity
  8
0
 62
     4
100
AcDbMText
 10
176.9946364133686
 20
-263.7953602456013
 30
0.0
 40
3.0
 41
0.0
 71
     5
 72
     1
  1
42
 11
0.0000000000000001
 21
1.0
 31
0.0
 73
     1
 44
1.0
1001
ACAD
1000
MTEXTBEGIN
1070
    73
1070
     1
1070
    44
1040
1.0
1070
    74
1070
     0
1000
MTEXTEND
  0
POINT
  5
1E8F
330
B70
100
AcDbEntity
  8
Defpoints
 62
     0
100
AcDbPoint
 10
168.8243878883371
 20
-273.9083334789054
 30
0.0
  0
POINT
  5
1E90
330
B70
100
AcDbEntity
  8
Defpoints
 62
     0
100
AcDbPoint
 10
168.8243878883371
 20
-252.9083334789056
 30
0.0
  0
POINT
  5
1E91
330
B70
100
AcDbEntity
  8
Defpoints
 62
     0
100
AcDbPoint
 10
179.1196364133685
 20
-252.9083334789056
 30
0.0
  0
ENDBLK
  5
B7B
330
B70
100
AcDbEntity
  8
0
100
AcDbBlockEnd
  0
BLOCK
  5
B86
330
B7C
100
AcDbEntity
  8
0
100
AcDbBlockBegin
  2
*D13
 70
     1
 10
0.0
 20
0.0
 30
0.0
  3
*D13
  1

  0
LINE
  5
1E92
330
B7C
100
AcDbEntity
  8
0
 62
     0
370
    -2
100
AcDbLine
 10
133.9243878883371
 20
-274.6583334789054
 30
0.0
 11
133.9243878883371
 21
-290.7260213572696
 31
0.0
  0
LINE
  5
1E93
330
B7C
100
AcDbEntity
  8
0
 62
     0
370
    -2
100
AcDbLine
 10
171.4243878883371
 20
-274.6583334789053
 30
0.0
 11
171.4243878883371
 21
-290.7260213572696
 31
0.0
  0
LINE
  5
1E94
330
B7C
100
AcDbEntity
  8
0
 62
     0
370
    -2
100
AcDbLine
 10
136.4243878883371
 20
-289.4760213572697
 30
0.0
 11
168.9243878883371
 21
-289.4760213572697
 31
0.0
  0
INSERT
  5
1E95
330
B7C
100
AcDbEntity
  8
0
 62
     0
370
    -2
100
AcDbBlockReference
  2
_Open30
 10
133.9243878883371
 20
-289.4760213572697
 30
0.0
 41
2.5
 42
2.5
 43
2.5
 50
180.0
  0
INSERT
  5
1E96
330
B7C
100
AcDbEntity
  8
0
 62
     0
370
    -2
100
AcDbBlockReference
  2
_Open30
 10
171.4243878883371
 20
-289.4760213572697
 30
0.0
 41
2.5
 42
2.5
 43
2.5
  0
MTEXT
  5
1E97
330
B7C
100
AcDbEntity
  8
0
 62
     4
100
AcDbMText
 10
152.1424990570425
 20
-287.3510213572696
 30
0.0
 40
3.0
 41
0.0
 71
     5
 72
     1
  1
75
 73
     1
 44
1.0
1001
ACAD
1000
MTEXTBEGIN
1070
    73
1070
     1
1070
    44
1040
1.0
1070
    74
1070
     0
1000
MTEXTEND
  0
POINT
  5
1E98
330
B7C
100
AcDbEntity
  8
Defpoints
 62
     0
100
AcDbPoint
 10
133.9243878883371
 20
-274.4083334789054
 30
0.0
  0
POINT
  5
1E99
330
B7C
100
AcDbEntity
  8
Defpoints
 62
     0
100
AcDbPoint
 10
171.4243878883371
 20
-274.4083334789053
 30
0.0
  0
POINT
  5
1E9A
330
B7C
100
AcDbEntity
  8
Defpoints
 62
     0
100
AcDbPoint
 10
171.4243878883371
 20
-289.4760213572697
 30
0.0
  0
ENDBLK
  5
B87
330
B7C
100
AcDbEntity
  8
0
100
AcDbBlockEnd
  0
BLOCK
  5
B92
330
B88
100
AcDbEntity
  8
0
100
AcDbBlockBegin
  2
*D14
 70
     1
 10
0.0
 20
0.0
 30
0.0
  3
*D14
  1

  0
LINE
  5
1E9B
330
B88
100
AcDbEntity
  8
0
 62
     0
370
    -2
100
AcDbLine
 10
138.9243878883371
 20
-276.8624694789054
 30
0.0
 11
138.9243878883371
 21
-285.1788083827852
 31
0.0
  0
LINE
  5
1E9C
330
B88
100
AcDbEntity
  8
0
 62
     0
370
    -2
100
AcDbLine
 10
166.4243878883371
 20
-276.8624694789054
 30
0.0
 11
166.4243878883371
 21
-285.1788083827852
 31
0.0
  0
LINE
  5
1E9D
330
B88
100
AcDbEntity
  8
0
 62
     0
370
    -2
100
AcDbLine
 10
141.4243878883371
 20
-283.9288083827852
 30
0.0
 11
163.9243878883371
 21
-283.9288083827852
 31
0.0
  0
INSERT
  5
1E9E
330
B88
100
AcDbEntity
  8
0
 62
     0
370
    -2
100
AcDbBlockReference
  2
_Open30
 10
138.9243878883371
 20
-283.9288083827852
 30
0.0
 41
2.5
 42
2.5
 43
2.5
 50
180.0
  0
INSERT
  5
1E9F
330
B88
100
AcDbEntity
  8
0
 62
     0
370
    -2
100
AcDbBlockReference
  2
_Open30
 10
166.4243878883371
 20
-283.9288083827852
 30
0.0
 41
2.5
 42
2.5
 43
2.5
  0
MTEXT
  5
1EA0
330
B88
100
AcDbEntity
  8
0
 62
     4
100
AcDbMText
 10
152.5331871677142
 20
-281.8038083827852
 30
0.0
 40
3.0
 41
0.0
 71
     5
 72
     1
  1
55
 73
     1
 44
1.0
1001
ACAD
1000
MTEXTBEGIN
1070
    73
1070
     1
1070
    44
1040
1.0
1070
    74
1070
     0
1000
MTEXTEND
  0
POINT
  5
1EA1
330
B88
100
AcDbEntity
  8
Defpoints
 62
     0
100
AcDbPoint
 10
138.9243878883371
 20
-276.6124694789054
 30
0.0
  0
POINT
  5
1EA2
330
B88
100
AcDbEntity
  8
Defpoints
 62
     0
100
AcDbPoint
 10
166.4243878883371
 20
-276.6124694789054
 30
0.0
  0
POINT
  5
1EA3
330
B88
100
AcDbEntity
  8
Defpoints
 62
     0
100
AcDbPoint
 10
166.4243878883371
 20
-283.9288083827852
 30
0.0
  0
ENDBLK
  5
B93
330
B88
100
AcDbEntity
  8
0
100
AcDbBlockEnd
  0
BLOCK
  5
1292
330
1291
100
AcDbEntity
  8
0
100
AcDbBlockBegin
  2
*D15
 70
     1
 10
0.0
 20
0.0
 30
0.0
  3
*D15
  1

  0
LINE
  5
1EA4
330
1291
100
AcDbEntity
  8
0
 62
     0
370
    -2
100
AcDbLine
 10
24.55684191924933
 20
-317.6117577927433
 30
0.0
 11
24.55684191924933
 21
-314.6778697309966
 31
0.0
  0
LINE
  5
1EA5
330
1291
100
AcDbEntity
  8
0
 62
     0
370
    -2
100
AcDbLine
 10
38.05684191924934
 20
-315.2708187046419
 30
0.0
 11
38.05684191924934
 21
-317.1778697309966
 31
0.0
  0
LINE
  5
1EA6
330
1291
100
AcDbEntity
  8
0
 62
     0
370
    -2
100
AcDbLine
 10
27.05684191924933
 20
-315.9278697309966
 30
0.0
 11
35.55684191924934
 21
-315.9278697309966
 31
0.0
  0
INSERT
  5
1EA7
330
1291
100
AcDbEntity
  8
0
 62
     0
370
    -2
100
AcDbBlockReference
  2
_Open30
 10
24.55684191924933
 20
-315.9278697309966
 30
0.0
 41
2.5
 42
2.5
 43
2.5
 50
180.0
  0
INSERT
  5
1EA8
330
1291
100
AcDbEntity
  8
0
 62
     0
370
    -2
100
AcDbBlockReference
  2
_Open30
 10
38.05684191924934
 20
-315.9278697309966
 30
0.0
 41
2.5
 42
2.5
 43
2.5
  0
MTEXT
  5
1EA9
330
1291
100
AcDbEntity
  8
0
 62
     4
100
AcDbMText
 10
31.30684191924933
 20
-313.8028697309966
 30
0.0
 40
3.0
 41
0.0
 71
     5
 72
     1
  1
27
 73
     1
 44
1.0
1001
ACAD
1000
MTEXTBEGIN
1070
    73
1070
     1
1070
    44
1040
1.0
1070
    74
1070
     0
1000
MTEXTEND
  0
POINT
  5
1EAA
330
1291
100
AcDbEntity
  8
Defpoints
 62
     0
100
AcDbPoint
 10
24.55684191924933
 20
-317.8617577927433
 30
0.0
  0
POINT
  5
1EAB
330
1291
100
AcDbEntity
  8
Defpoints
 62
     0
100
AcDbPoint
 10
38.05684191924934
 20
-315.0208187046419
 30
0.0
  0
POINT
  5
1EAC
330
1291
100
AcDbEntity
  8
Defpoints
 62
     0
100
AcDbPoint
 10
38.05684191924934
 20
-315.9278697309966
 30
0.0
  0
ENDBLK
  5
1293
330
1291
100
AcDbEntity
  8
0
100
AcDbBlockEnd
  0
BLOCK
  5
19D1
330
19C7
100
AcDbEntity
  8
0
100
AcDbBlockBegin
  2
*D16
 70
     1
 10
0.0
 20
0.0
 30
0.0
  3
*D16
  1

  0
LINE
  5
1EAD
330
19C7
100
AcDbEntity
  8
0
 62
     0
370
    -2
100
AcDbLine
 10
-125.1705558921546
 20
-281.5889335159828
 30
0.0
 11
-129.3030073804897
 21
-284.482507199401
 31
0.0
  0
LINE
  5
1EAE
330
19C7
100
AcDbEntity
  8
0
 62
     0
370
    -2
100
AcDbLine
 10
-132.6270495647181
 20
-270.9399569402261
 30
0.0
 11
-136.7595010530533
 21
-273.8335306236442
 31
0.0
  0
LINE
  5
1EAF
330
19C7
100
AcDbEntity
  8
0
 62
     0
370
    -2
100
AcDbLine
 10
-129.7130084160061
 20
-281.7176565432397
 30
0.0
 11
-134.3016199068144
 21
-275.1644401889279
 31
0.0
  0
INSERT
  5
1EB0
330
19C7
100
AcDbEntity
  8
0
 62
     0
370
    -2
100
AcDbBlockReference
  2
_Open30
 10
-128.2790673251285
 20
-283.7655366539621
 30
0.0
 41
2.5
 42
2.5
 43
2.5
 50
305.0
  0
INSERT
  5
1EB1
330
19C7
100
AcDbEntity
  8
0
 62
     0
370
    -2
100
AcDbBlockReference
  2
_Open30
 10
-135.735560997692
 20
-273.1165600782054
 30
0.0
 41
2.5
 42
2.5
 43
2.5
 50
125.0
  0
MTEXT
  5
1EB2
330
19C7
100
AcDbEntity
  8
0
 62
     4
100
AcDbMText
 10
-130.7791540008832
 20
-276.4902184106059
 30
0.0
 40
3.0
 41
0.0
 71
     5
 72
     1
  1
26
 11
0.5735764363510463
 21
-0.8191520442889917
 31
0.0
 73
     1
 44
1.0
1001
ACAD
1000
MTEXTBEGIN
1070
    73
1070
     1
1070
    44
1040
1.0
1070
    74
1070
     0
1000
MTEXTEND
  0
POINT
  5
1EB3
330
19C7
100
AcDbEntity
  8
Defpoints
 62
     0
100
AcDbPoint
 10
-124.9657678810824
 20
-281.445539406895
 30
0.0
  0
POINT
  5
1EB4
330
19C7
100
AcDbEntity
  8
Defpoints
 62
     0
100
AcDbPoint
 10
-132.4222615536459
 20
-270.7965628311383
 30
0.0
  0
POINT
  5
1EB5
330
19C7
100
AcDbEntity
  8
Defpoints
 62
     0
100
AcDbPoint
 10
-135.735560997692
 20
-273.1165600782054
 30
0.0
  0
ENDBLK
  5
19D2
330
19C7
100
AcDbEntity
  8
0
100
AcDbBlockEnd
  0
BLOCK
  5
19FF
330
19F8
100
AcDbEntity
  8
0
100
AcDbBlockBegin
  2
*D17
 70
     1
 10
0.0
 20
0.0
 30
0.0
  3
*D17
  1

  0
LINE
  5
1EB6
330
19F8
100
AcDbEntity
  8
0
 62
     0
370
    -2
100
AcDbLine
 10
-129.4846468753377
 20
-267.2918038369068
 30
0.0
 11
-143.7435042635579
 21
-266.3821190649437
 31
0.0
  0
LINE
  5
1EB7
330
19F8
100
AcDbEntity
  8
0
 62
     0
370
    -2
100
AcDbLine
 10
-125.9917480006285
 20
-267.5146433555175
 30
0.0
 11
-126.9897191076882
 21
-267.4509749216288
 31
0.0
  0
INSERT
  5
1EB8
330
19F8
100
AcDbEntity
  8
0
 62
     0
370
    -2
100
AcDbBlockReference
  2
_Open30
 10
-126.9897191076882
 20
-267.4509749216288
 30
0.0
 41
2.5
 42
2.5
 43
2.5
 50
356.3495983578405
  0
MTEXT
  5
1EB9
330
19F8
100
AcDbEntity
  8
0
 62
     4
100
AcDbMText
 10
-140.4895491319824
 20
-264.4603943183439
 30
0.0
 40
3.0
 41
0.0
 71
     5
 72
     1
  1
R2
 11
0.9979711070597936
 21
-0.0636684338887801
 31
0.0
 73
     1
 44
1.0
1001
ACAD
1000
MTEXTBEGIN
1070
    73
1070
     1
1070
    44
1040
1.0
1070
    74
1070
     0
1000
MTEXTEND
  0
POINT
  5
1EBA
330
19F8
100
AcDbEntity
  8
Defpoints
 62
     0
100
AcDbPoint
 10
-126.9897191076882
 20
-267.4509749216288
 30
0.0
  0
POINT
  5
1EBB
330
19F8
100
AcDbEntity
  8
Defpoints
 62
     0
100
AcDbPoint
 10
-125.9917480006285
 20
-267.5146433555175
 30
0.0
  0
ENDBLK
  5
1A00
330
19F8
100
AcDbEntity
  8
0
100
AcDbBlockEnd
  0
BLOCK
  5
1A0F
330
1A0C
100
AcDbEntity
  8
0
100
AcDbBlockBegin
  2
A$C769D123E
 70
     0
 10
0.0
 20
0.0
 30
0.0
  3
A$C769D123E
  1

  0
LINE
  5
1A10
330
1A0C
100
AcDbEntity
  8
0
 62
     3
100
AcDbLine
 10
19.99999818659637
 20
283.9999999941307
 30
0.0
 11
19.99999818659637
 21
9.999999994130716
 31
0.0
  0
LINE
  5
1A11
330
1A0C
100
AcDbEntity
  8
0
 62
     3
100
AcDbLine
 10
409.9999981865964
 20
9.999999994130716
 30
0.0
 11
409.9999981865964
 21
283.9999999941307
 31
0.0
  0
LINE
  5
1A12
330
1A0C
100
AcDbEntity
  8
0
 62
     3
100
AcDbLine
 10
19.99999818659637
 20
9.999999994130716
 30
0.0
 11
409.9999981865964
 21
9.999999994130716
 31
0.0
  0
LINE
  5
1A13
330
1A0C
100
AcDbEntity
  8
0
 62
     3
100
AcDbLine
 10
238.6567233665965
 20
283.9999999941307
 30
0.0
 11
409.9999981865962
 21
283.9999999941307
 31
0.0
  0
LINE
  5
1A14
330
1A0C
100
AcDbEntity
  8
0
 62
     3
100
AcDbLine
 10
190.1026886965965
 20
283.9999999941307
 30
0.0
 11
19.99999818659637
 21
283.9999999941307
 31
0.0
  0
LINE
  5
1A15
330
1A0C
100
AcDbEntity
  8
0
 62
     3
100
AcDbLine
 10
7.598074396596302
 20
150.4446389441306
 30
0.0
 11
4.99999818659637
 21
148.9446389441306
 31
0.0
  0
LINE
  5
1A16
330
1A0C
100
AcDbEntity
  8
0
 62
     3
100
AcDbLine
 10
7.598074396596302
 20
150.4446389441306
 30
0.0
 11
4.99999818659637
 21
151.9446389441307
 31
0.0
  0
LINE
  5
1A17
330
1A0C
100
AcDbEntity
  8
0
 62
     3
100
AcDbLine
 10
4.99999818659637
 20
148.9446389441306
 30
0.0
 11
4.99999818659637
 21
151.9446389441307
 31
0.0
  0
LINE
  5
1A18
330
1A0C
100
AcDbEntity
  8
0
 62
   254
370
     0
100
AcDbLine
 10
-0.0000018134035145
 20
-0.0000000058692819
 30
0.0
 11
-0.0000018134035145
 21
291.9999999941307
 31
0.0
  0
LINE
  5
1A19
330
1A0C
100
AcDbEntity
  8
0
 62
   254
370
     0
100
AcDbLine
 10
-0.0000018134035145
 20
291.9999999941307
 30
0.0
 11
419.9999981865963
 21
291.9999999941307
 31
0.0
  0
LINE
  5
1A1A
330
1A0C
100
AcDbEntity
  8
0
 62
     3
100
AcDbLine
 10
357.9999981865965
 20
9.999999994130716
 30
0.0
 11
357.9999981865965
 21
49.99999999413072
 31
0.0
  0
LINE
  5
1A1B
330
1A0C
100
AcDbEntity
  8
0
 62
     3
100
AcDbLine
 10
370.9999981865966
 20
19.99999999413072
 30
0.0
 11
370.9999981865966
 21
47.9999999941307
 31
0.0
  0
LINE
  5
1A1C
330
1A0C
100
AcDbEntity
  8
0
 62
     3
100
AcDbLine
 10
330.9999981865965
 20
19.99999999413072
 30
0.0
 11
330.9999981865965
 21
33.99999999413072
 31
0.0
  0
LINE
  5
1A1D
330
1A0C
100
AcDbEntity
  8
0
 62
     3
100
AcDbLine
 10
340.9999981865965
 20
33.99999999413072
 30
0.0
 11
340.9999981865965
 21
9.999999994130716
 31
0.0
  0
LINE
  5
1A1E
330
1A0C
100
AcDbEntity
  8
0
 62
     3
100
AcDbLine
 10
311.9999981865965
 20
49.99999999413072
 30
0.0
 11
311.9999981865965
 21
26.99999999413072
 31
0.0
  0
LINE
  5
1A1F
330
1A0C
100
AcDbEntity
  8
0
 62
     3
100
AcDbLine
 10
370.9999981865966
 20
47.9999999941307
 30
0.0
 11
370.9999981865966
 21
49.99999999413072
 31
0.0
  0
LINE
  5
1A20
330
1A0C
100
AcDbEntity
  8
0
 62
     3
100
AcDbLine
 10
383.9999981865966
 20
26.99999999413072
 30
0.0
 11
383.9999981865966
 21
49.99999999413072
 31
0.0
  0
LINE
  5
1A21
330
1A0C
100
AcDbEntity
  8
0
 62
     3
100
AcDbLine
 10
409.9999981865964
 20
49.99999999413072
 30
0.0
 11
298.7545635465965
 21
49.99999999413073
 31
0.0
  0
LINE
  5
1A22
330
1A0C
100
AcDbEntity
  8
0
 62
     3
100
AcDbLine
 10
409.9999981865964
 20
40.9999999941307
 30
0.0
 11
298.7545635465965
 21
40.9999999941307
 31
0.0
  0
LINE
  5
1A23
330
1A0C
100
AcDbEntity
  8
0
 62
     3
100
AcDbLine
 10
409.9999981865964
 20
26.99999999413072
 30
0.0
 11
298.7545635465965
 21
26.99999999413072
 31
0.0
  0
LINE
  5
1A24
330
1A0C
100
AcDbEntity
  8
0
 62
     3
100
AcDbLine
 10
409.9999981865964
 20
19.99999999413072
 30
0.0
 11
298.6965556865964
 21
19.99999999413072
 31
0.0
  0
LINE
  5
1A25
330
1A0C
100
AcDbEntity
  8
0
 62
     3
100
AcDbLine
 10
396.9999981865965
 20
26.99999999413072
 30
0.0
 11
396.9999981865965
 21
49.99999999413072
 31
0.0
  0
LINE
  5
1A26
330
1A0C
100
AcDbEntity
  8
0
 62
     3
100
AcDbLine
 10
298.7545635465965
 20
49.99999999413073
 30
0.0
 11
298.7545635465965
 21
9.999999994130716
 31
0.0
  0
LINE
  5
1A27
330
1A0C
100
AcDbEntity
  8
0
 62
     3
100
AcDbLine
 10
357.9999981865965
 20
33.99999999413072
 30
0.0
 11
298.7545635465965
 21
33.99999999413071
 31
0.0
  0
LINE
  5
1A28
330
1A0C
100
AcDbEntity
  8
0
 62
     3
100
AcDbLine
 10
341.2783231165963
 20
14.8328612541307
 30
0.0
 11
357.9999981865965
 21
14.8328612541307
 31
0.0
  0
TEXT
  5
1A29
330
1A0C
100
AcDbEntity
  8
0
 62
     3
100
AcDbText
 10
342.1643235999122
 20
29.07309684749606
 30
0.0
 40
2.5
  1
******
  7
高2.5
100
AcDbText
  0
TEXT
  5
1A2A
330
1A0C
100
AcDbEntity
  8
0
 62
     3
100
AcDbText
 10
313.1963668818487
 20
29.29781439911463
 30
0.0
 40
2.5
  1
*****
  7
高2.5
100
AcDbText
  0
TEXT
  5
1A2B
330
1A0C
100
AcDbEntity
  8
0
 62
     3
100
AcDbText
 10
313.461274636546
 20
42.3122495178886
 30
0.0
 40
4.5
  1
**********
  7
高4.5
100
AcDbText
1001
ACAD
1000
ACAD_MTEXT_DEFINED_HEIGHT_BEGIN
1070
    46
1040
0.0
1000
ACAD_MTEXT_DEFINED_HEIGHT_END
  0
TEXT
  5
1A2C
330
1A0C
100
AcDbEntity
  8
0
 62
     3
100
AcDbText
 10
400.0655872800704
 20
46.5136920928343
 30
0.0
 40
2.0
  1
DEF
  7
高2
100
AcDbText
  0
TEXT
  5
1A2D
330
1A0C
100
AcDbEntity
  8
0
 62
     3
100
AcDbText
 10
386.1264889263623
 20
46.51369209283421
 30
0.0
 40
2.0
  1
DESN
  7
高2
100
AcDbText
  0
TEXT
  5
1A2E
330
1A0C
100
AcDbEntity
  8
0
 62
     3
100
AcDbText
 10
359.8721219863622
 20
46.5136920928343
 30
0.0
 40
2.0
  1
APPD
  7
高2
100
AcDbText
  0
TEXT
  5
1A2F
330
1A0C
100
AcDbEntity
  8
0
 62
     3
100
AcDbText
 10
372.9848580865964
 20
46.51369209283433
 30
0.0
 40
2.0
  1
CHCK
  7
高2
100
AcDbText
  0
TEXT
  5
1A30
330
1A0C
100
AcDbEntity
  8
0
 62
     3
100
AcDbText
 10
331.9271638257492
 20
24.16839881736144
 30
0.0
 40
2.0
  1
SCALE
 41
0.8
  7
高2
100
AcDbText
  0
TEXT
  5
1A31
330
1A0C
100
AcDbEntity
  8
0
 62
     3
100
AcDbText
 10
300.4391422496427
 20
24.16839881736145
 30
0.0
 40
2.0
  1
3AD　ANGLE
 41
1.5
  7
高2
100
AcDbText
  0
TEXT
  5
1A32
330
1A0C
100
AcDbEntity
  8
0
 62
     3
100
AcDbText
 10
331.196569516598
 20
30.91993688631854
 30
0.0
 40
2.0
  1
REMARKS
 41
0.7
  7
高2
100
AcDbText
  0
TEXT
  5
1A33
330
1A0C
100
AcDbEntity
  8
0
 62
     3
100
AcDbText
 10
300.2222338965964
 20
30.99999999413072
 30
0.0
 40
2.0
  1
MATERIAL
 41
0.7
  7
高2
100
AcDbText
  0
TEXT
  5
1A34
330
1A0C
100
AcDbEntity
  8
0
 62
     3
100
AcDbText
 10
300.7987210993507
 20
37.99999999413071
 30
0.0
 40
2.0
  1
MODEL
  7
高2
100
AcDbText
  0
TEXT
  5
1A35
330
1A0C
100
AcDbEntity
  8
0
 62
     3
100
AcDbText
 10
300.4356419806818
 20
46.70702134472971
 30
0.0
 40
2.0
  1
CONPONENTS
 41
0.5
  7
高2
100
AcDbText
  0
TEXT
  5
1A36
330
1A0C
100
AcDbEntity
  8
0
 62
     3
100
AcDbText
 10
313.1427574518486
 20
35.08748112194266
 30
0.0
 40
4.5
  1
********
  7
高4.5
100
AcDbText
  0
TEXT
  5
1A37
330
1A0C
100
AcDbEntity
  8
0
 62
     3
100
AcDbText
 10
361.0953416256493
 20
11.14419095096582
 30
0.0
 40
6.299999999999998
  1
*-********
 41
0.6
  7
高6.3
100
AcDbText
1001
ACAD
1000
ACAD_MTEXT_DEFINED_HEIGHT_BEGIN
1070
    46
1040
0.0
1000
ACAD_MTEXT_DEFINED_HEIGHT_END
  0
TEXT
  5
1A38
330
1A0C
100
AcDbEntity
  8
0
 62
     3
100
AcDbText
 10
374.563507936926
 20
21.10088915236372
 30
0.0
 40
3.2
  1
******
  7
高3.2
100
AcDbText
1001
ACAD
1000
ACAD_MTEXT_DEFINED_HEIGHT_BEGIN
1070
    46
1040
0.0
1000
ACAD_MTEXT_DEFINED_HEIGHT_END
  0
TEXT
  5
1A39
330
1A0C
100
AcDbEntity
  8
0
 62
     3
100
AcDbText
 10
344.7875960812428
 20
21.10091699669859
 30
0.0
 40
3.2
  1
1/1
  7
高3.2
100
AcDbText
  0
TEXT
  5
1A3A
330
1A0C
100
AcDbEntity
  8
0
 62
     3
100
AcDbText
 10
341.8649250565963
 20
10.81687816726668
 30
0.0
 40
3.2
  1
ZK-A3X
 41
0.8
  7
高3.2
100
AcDbText
  0
TEXT
  5
1A3B
330
1A0C
100
AcDbEntity
  8
0
 62
     3
100
AcDbText
 10
299.5852645865964
 20
16.52462041631854
 30
0.0
 40
2.0
  1
NICHIDO IND.CO.LTD
 41
1.3
  7
高2
100
AcDbText
  0
TEXT
  5
1A3C
330
1A0C
100
AcDbEntity
  8
0
 62
     3
100
AcDbText
 10
300.7667878515535
 20
42.14052820201565
 30
0.0
 40
3.2
  1
品 名
  7
高3.2
100
AcDbText
1001
ACAD
1000
ACAD_MTEXT_DEFINED_HEIGHT_BEGIN
1070
    46
1040
0.0
1000
ACAD_MTEXT_DEFINED_HEIGHT_END
  0
TEXT
  5
1A3D
330
1A0C
100
AcDbEntity
  8
0
 62
     3
100
AcDbText
 10
300.7667878515535
 20
34.49999999413071
 30
0.0
 40
3.2
  1
型 式
  7
高3.2
100
AcDbText
1001
ACAD
1000
ACAD_MTEXT_DEFINED_HEIGHT_BEGIN
1070
    46
1040
3.064735913775954
1000
ACAD_MTEXT_DEFINED_HEIGHT_END
  0
TEXT
  5
1A3E
330
1A0C
100
AcDbEntity
  8
0
 62
     3
100
AcDbText
 10
300.7667878515535
 20
27.49999999413072
 30
0.0
 40
3.2
  1
材 質
  7
高3.2
100
AcDbText
1001
ACAD
1000
ACAD_MTEXT_DEFINED_HEIGHT_BEGIN
1070
    46
1040
0.0
1000
ACAD_MTEXT_DEFINED_HEIGHT_END
  0
TEXT
  5
1A3F
330
1A0C
100
AcDbEntity
  8
0
 62
     3
100
AcDbText
 10
300.4617529015536
 20
20.46743998637696
 30
0.0
 40
3.2
  1
第 三 角 法
  7
高3.2
100
AcDbText
1001
ACAD
1000
ACAD_MTEXT_DEFINED_HEIGHT_BEGIN
1070
    46
1040
0.0
1000
ACAD_MTEXT_DEFINED_HEIGHT_END
  0
TEXT
  5
1A40
330
1A0C
100
AcDbEntity
  8
0
 62
     3
100
AcDbText
 10
298.8682855090824
 20
11.14052820201564
 30
0.0
 40
3.2
  1
日動工業株式会社
 41
1.199999999999999
  7
高3.2
100
AcDbText
1001
ACAD
1000
ACAD_MTEXT_DEFINED_HEIGHT_BEGIN
1070
    46
1040
0.0
1000
ACAD_MTEXT_DEFINED_HEIGHT_END
  0
TEXT
  5
1A41
330
1A0C
100
AcDbEntity
  8
0
 62
     3
100
AcDbText
 10
332.503909708561
 20
27.38457852729828
 30
0.0
 40
3.2
  1
備考
  7
高3.2
100
AcDbText
1001
ACAD
1000
ACAD_MTEXT_DEFINED_HEIGHT_BEGIN
1070
    46
1040
0.0
1000
ACAD_MTEXT_DEFINED_HEIGHT_END
  0
TEXT
  5
1A42
330
1A0C
100
AcDbEntity
  8
0
 62
     3
100
AcDbText
 10
342.1529671555963
 20
16.14623001970101
 30
0.0
 40
2.5
  1
出図コード
  7
高2.5
100
AcDbText
1001
ACAD
1000
ACAD_MTEXT_DEFINED_HEIGHT_BEGIN
1070
    46
1040
0.0
1000
ACAD_MTEXT_DEFINED_HEIGHT_END
  0
TEXT
  5
1A43
330
1A0C
100
AcDbEntity
  8
0
 62
     3
100
AcDbText
 10
332.3451435904735
 20
20.45323490454364
 30
0.0
 40
3.2
  1
尺度
  7
高3.2
100
AcDbText
1001
ACAD
1000
ACAD_MTEXT_DEFINED_HEIGHT_BEGIN
1070
    46
1040
0.0
1000
ACAD_MTEXT_DEFINED_HEIGHT_END
  0
TEXT
  5
1A44
330
1A0C
100
AcDbEntity
  8
0
 62
     3
100
AcDbText
 10
359.4914050722524
 20
21.58471335266113
 30
0.0
 40
3.2
  1
作成日
  7
高3.2
100
AcDbText
1001
ACAD
1000
ACAD_MTEXT_DEFINED_HEIGHT_BEGIN
1070
    46
1040
0.0
1000
ACAD_MTEXT_DEFINED_HEIGHT_END
  0
TEXT
  5
1A45
330
1A0C
100
AcDbEntity
  8
0
 62
     3
100
AcDbText
 10
359.3858790791162
 20
42.14052820201565
 30
0.0
 40
3.2
  1
承 認
  7
高3.2
100
AcDbText
1001
ACAD
1000
ACAD_MTEXT_DEFINED_HEIGHT_BEGIN
1070
    46
1040
0.0
1000
ACAD_MTEXT_DEFINED_HEIGHT_END
  0
TEXT
  5
1A46
330
1A0C
100
AcDbEntity
  8
0
 62
     3
100
AcDbText
 10
372.3858790791162
 20
42.14052820201565
 30
0.0
 40
3.2
  1
検 図
  7
高3.2
100
AcDbText
1001
ACAD
1000
ACAD_MTEXT_DEFINED_HEIGHT_BEGIN
1070
    46
1040
0.0
1000
ACAD_MTEXT_DEFINED_HEIGHT_END
  0
TEXT
  5
1A47
330
1A0C
100
AcDbEntity
  8
0
 62
     3
100
AcDbText
 10
385.3858790791162
 20
42.14052820201565
 30
0.0
 40
3.2
  1
設 計
  7
高3.2
100
AcDbText
1001
ACAD
1000
ACAD_MTEXT_DEFINED_HEIGHT_BEGIN
1070
    46
1040
0.0
1000
ACAD_MTEXT_DEFINED_HEIGHT_END
  0
TEXT
  5
1A48
330
1A0C
100
AcDbEntity
  8
0
 62
     3
100
AcDbText
 10
398.6865155991162
 20
42.14052820201565
 30
0.0
 40
3.2
  1
製 図
  7
高3.2
100
AcDbText
1001
ACAD
1000
ACAD_MTEXT_DEFINED_HEIGHT_BEGIN
1070
    46
1040
0.0
1000
ACAD_MTEXT_DEFINED_HEIGHT_END
  0
LINE
  5
1A49
330
1A0C
100
AcDbEntity
  8
0
 62
     3
100
AcDbLine
 10
198.9789907271299
 20
286.3329566777442
 30
0.0
 11
198.9789907271299
 21
281.5981987292973
 31
0.0
  0
LINE
  5
1A4A
330
1A0C
100
AcDbEntity
  8
0
 62
     3
100
AcDbLine
 10
199.9441995486006
 20
284.4845004919676
 30
0.0
 11
199.9441995486006
 21
281.5981987292973
 31
0.0
  0
LINE
  5
1A4B
330
1A0C
100
AcDbEntity
  8
0
 62
     3
100
AcDbLine
 10
202.6530537345975
 20
286.3329566777442
 30
0.0
 11
202.6530537345975
 21
284.2481715114516
 31
0.0
  0
LINE
  5
1A4C
330
1A0C
100
AcDbEntity
  8
0
 62
     3
100
AcDbLine
 10
203.6182615442728
 20
286.3329566777442
 30
0.0
 11
203.6182615442728
 21
280.9636161488519
 31
0.0
  0
LINE
  5
1A4D
330
1A0C
100
AcDbEntity
  8
0
 62
     3
100
AcDbLine
 10
205.1557182373362
 20
286.3004355000498
 30
0.0
 11
205.1557182373362
 21
281.5657352239116
 31
0.0
  0
LINE
  5
1A4E
330
1A0C
100
AcDbEntity
  8
0
 62
     3
100
AcDbLine
 10
206.6850300305421
 20
286.3004142523569
 30
0.0
 11
206.6850300305421
 21
281.5657139762189
 31
0.0
  0
LINE
  5
1A4F
330
1A0C
100
AcDbEntity
  8
0
 62
     3
100
AcDbLine
 10
212.3469265326846
 20
286.3003434267143
 30
0.0
 11
212.3468435655034
 21
281.5656441623712
 31
0.0
  0
LINE
  5
1A50
330
1A0C
100
AcDbEntity
  8
0
 62
     3
100
AcDbLine
 10
217.0254013665763
 20
286.3003434267143
 30
0.0
 11
217.0254843337575
 21
281.5656441623712
 31
0.0
  0
LINE
  5
1A51
330
1A0C
100
AcDbEntity
  8
0
 62
     3
100
AcDbLine
 10
215.4632021921434
 20
284.2375354573091
 30
0.0
 11
213.9091257071175
 21
284.2375354573091
 31
0.0
  0
LINE
  5
1A52
330
1A0C
100
AcDbEntity
  8
0
 62
     3
100
AcDbLine
 10
215.4631920741945
 20
283.6285927712666
 30
0.0
 11
213.9091368368613
 21
283.6285927712666
 31
0.0
  0
LINE
  5
1A53
330
1A0C
100
AcDbEntity
  8
0
 62
     3
100
AcDbLine
 10
215.4632386167596
 20
286.3003434267143
 30
0.0
 11
215.4632021921434
 21
284.2375354573091
 31
0.0
  0
LINE
  5
1A54
330
1A0C
100
AcDbEntity
  8
0
 62
     3
100
AcDbLine
 10
215.4631920741945
 20
283.6285927712666
 30
0.0
 11
215.4631556495781
 21
281.5656441623712
 31
0.0
  0
LINE
  5
1A55
330
1A0C
100
AcDbEntity
  8
0
 62
     3
100
AcDbLine
 10
213.9090892825013
 20
286.3003434267143
 30
0.0
 11
213.9091257071175
 21
284.2375354573091
 31
0.0
  0
LINE
  5
1A56
330
1A0C
100
AcDbEntity
  8
0
 62
     3
100
AcDbLine
 10
213.9091368368613
 20
283.6285927712666
 30
0.0
 11
213.9091722496825
 21
281.5656441623712
 31
0.0
  0
LINE
  5
1A57
330
1A0C
100
AcDbEntity
  8
0
 62
     3
100
AcDbLine
 10
218.566574246064
 20
286.3003434267143
 30
0.0
 11
218.5664912788827
 21
281.5656441623712
 31
0.0
  0
LINE
  5
1A58
330
1A0C
100
AcDbEntity
  8
0
 62
     3
100
AcDbLine
 10
220.0958536618334
 20
286.3003434267143
 30
0.0
 11
220.0959356172195
 21
281.5656441623712
 31
0.0
  0
LINE
  5
1A59
330
1A0C
100
AcDbEntity
  8
0
 62
     3
100
AcDbLine
 10
221.6547809851429
 20
286.3003434267143
 30
0.0
 11
221.6546990297565
 21
281.5656441623712
 31
0.0
  0
ARC
  5
1A5A
330
1A0C
100
AcDbEntity
  8
0
 62
     3
100
AcDbCircle
 10
210.0510690009655
 20
283.9466363309928
 30
0.0
 40
3.015561595733376
100
AcDbArc
 50
97.70152400000624
 51
266.0248408089489
  0
ARC
  5
1A5B
330
1A0C
100
AcDbEntity
  8
0
 62
     3
100
AcDbCircle
 10
228.2489679580369
 20
283.9163452154633
 30
0.0
 40
3.048311372854728
100
AcDbArc
 50
0.3142499999975672
 51
69.00558200000452
  0
ARC
  5
1A5C
330
1A0C
100
AcDbEntity
  8
0
 62
     3
100
AcDbCircle
 10
228.9148372601874
 20
283.9163452154633
 30
0.0
 40
3.048311372854728
100
AcDbArc
 50
110.9944179999954
 51
148.1166110000009
  0
ARC
  5
1A5D
330
1A0C
100
AcDbEntity
  8
0
 62
     3
100
AcDbCircle
 10
228.2489679580369
 20
283.9497830131125
 30
0.0
 40
3.048311372854728
100
AcDbArc
 50
290.9944179999955
 51
359.6857499999992
  0
ARC
  5
1A5E
330
1A0C
100
AcDbEntity
  8
0
 62
     3
100
AcDbCircle
 10
228.9148372601874
 20
283.9497830131125
 30
0.0
 40
3.048311372854728
100
AcDbArc
 50
211.8833889999971
 51
249.0055820000045
  0
ARC
  5
1A5F
330
1A0C
100
AcDbEntity
  8
0
 62
     3
100
AcDbCircle
 10
228.5819031150095
 20
285.1801812526487
 30
0.0
 40
1.754843910410663
100
AcDbArc
 50
64.36517200000682
 51
115.6348279999931
  0
ARC
  5
1A60
330
1A0C
100
AcDbEntity
  8
0
 62
     3
100
AcDbCircle
 10
228.5819031150095
 20
282.6859469759272
 30
0.0
 40
1.754843910410663
100
AcDbArc
 50
244.3651720000068
 51
295.6348279999931
  0
ARC
  5
1A61
330
1A0C
100
AcDbEntity
  8
0
 62
     3
100
AcDbCircle
 10
228.5819031150095
 20
285.2135158472186
 30
0.0
 40
0.8612620730595795
100
AcDbArc
 50
19.48660600000012
 51
160.5133939999998
  0
ARC
  5
1A62
330
1A0C
100
AcDbEntity
  8
0
 62
     3
100
AcDbCircle
 10
228.5819031150095
 20
282.6526133931521
 30
0.0
 40
0.8612620730595795
100
AcDbArc
 50
199.4866060000001
 51
340.5133939999999
  0
LINE
  5
1A63
330
1A0C
100
AcDbEntity
  8
0
 62
     3
100
AcDbLine
 10
220.6021646478169
 20
280.9311030655166
 30
0.0
 11
218.0602632600805
 21
280.9311030655166
 31
0.0
  0
LINE
  5
1A64
330
1A0C
100
AcDbEntity
  8
0
 62
     3
100
AcDbLine
 10
220.6021646478169
 20
281.2368978362588
 30
0.0
 11
220.6021646478169
 21
280.9311030655166
 31
0.0
  0
LINE
  5
1A65
330
1A0C
100
AcDbEntity
  8
0
 62
     3
100
AcDbLine
 10
217.5317133643546
 20
286.9348824999793
 30
0.0
 11
214.9569276307762
 21
286.9348824999793
 31
0.0
  0
LINE
  5
1A66
330
1A0C
100
AcDbEntity
  8
0
 62
     3
100
AcDbLine
 10
217.5317133643546
 20
286.9348824999793
 30
0.0
 11
217.5317133643546
 21
286.629230392317
 31
0.0
  0
LINE
  5
1A67
330
1A0C
100
AcDbEntity
  8
0
 62
     3
100
AcDbLine
 10
217.5317133643546
 20
281.2368978362588
 30
0.0
 11
217.5317133643546
 21
280.9309604024365
 31
0.0
  0
LINE
  5
1A68
330
1A0C
100
AcDbEntity
  8
0
 62
     3
100
AcDbLine
 10
217.5317133643546
 20
280.9309604024365
 30
0.0
 11
214.9569276307762
 21
280.9309604024365
 31
0.0
  0
LINE
  5
1A69
330
1A0C
100
AcDbEntity
  8
0
 62
     3
100
AcDbLine
 10
220.6021646478169
 20
286.9350251630593
 30
0.0
 11
220.6021646478169
 21
286.629230392317
 31
0.0
  0
LINE
  5
1A6A
330
1A0C
100
AcDbEntity
  8
0
 62
     3
100
AcDbLine
 10
220.6021646478169
 20
286.9350251630593
 30
0.0
 11
218.0602632600805
 21
286.9350251630593
 31
0.0
  0
LINE
  5
1A6B
330
1A0C
100
AcDbEntity
  8
0
 62
     3
100
AcDbLine
 10
218.0602632600805
 20
286.9350251630593
 30
0.0
 11
218.0602632600805
 21
286.629230392317
 31
0.0
  0
LINE
  5
1A6C
330
1A0C
100
AcDbEntity
  8
0
 62
     3
100
AcDbLine
 10
221.1484699991597
 20
281.2368978362588
 30
0.0
 11
221.1484699991597
 21
280.9311030655166
 31
0.0
  0
LINE
  5
1A6D
330
1A0C
100
AcDbEntity
  8
0
 62
     3
100
AcDbLine
 10
223.8930918614358
 20
280.9311030655166
 30
0.0
 11
221.1484699991597
 21
280.9311030655166
 31
0.0
  0
LINE
  5
1A6E
330
1A0C
100
AcDbEntity
  8
0
 62
     3
100
AcDbLine
 10
223.1840604009124
 20
285.9698173533837
 30
0.0
 11
223.1840604009124
 21
281.896310875192
 31
0.0
  0
LINE
  5
1A6F
330
1A0C
100
AcDbEntity
  8
0
 62
     3
100
AcDbLine
 10
223.1840604009124
 20
281.896310875192
 30
0.0
 11
223.4587606909795
 21
281.896310875192
 31
0.0
  0
ARC
  5
1A70
330
1A0C
100
AcDbEntity
  8
0
 62
     3
100
AcDbCircle
 10
222.0541212527883
 20
283.9330641142879
 30
0.0
 40
2.474141041926215
100
AcDbArc
 50
304.591955000008
 51
55.408044999992
  0
LINE
  5
1A71
330
1A0C
100
AcDbEntity
  8
0
 62
     3
100
AcDbLine
 10
223.8930918614358
 20
286.9350251630593
 30
0.0
 11
221.1484699991597
 21
286.9350251630593
 31
0.0
  0
LINE
  5
1A72
330
1A0C
100
AcDbEntity
  8
0
 62
     3
100
AcDbLine
 10
221.1484699991597
 20
286.9350251630593
 30
0.0
 11
221.1484699991597
 21
286.629230392317
 31
0.0
  0
LINE
  5
1A73
330
1A0C
100
AcDbEntity
  8
0
 62
     3
100
AcDbLine
 10
218.0602632600805
 20
281.2368978362588
 30
0.0
 11
218.0602632600805
 21
280.9311030655166
 31
0.0
  0
LINE
  5
1A74
330
1A0C
100
AcDbEntity
  8
0
 62
     3
100
AcDbLine
 10
223.1840604009124
 20
285.9698173533837
 30
0.0
 11
223.4587606909795
 21
285.9698173533837
 31
0.0
  0
LINE
  5
1A75
330
1A0C
100
AcDbEntity
  8
0
 62
     3
100
AcDbLine
 10
207.1912529901553
 20
281.2368882650634
 30
0.0
 11
207.1912469193862
 21
280.9310651640641
 31
0.0
  0
LINE
  5
1A76
330
1A0C
100
AcDbEntity
  8
0
 62
     3
100
AcDbLine
 10
198.4726797411465
 20
280.9636161488519
 30
0.0
 11
200.4505105345838
 21
280.9636161488519
 31
0.0
  0
ARC
  5
1A77
330
1A0C
100
AcDbEntity
  8
0
 62
     3
100
AcDbCircle
 10
190.5288527955408
 20
284.0037551881305
 30
0.0
 40
21.26730034229026
100
AcDbArc
 50
353.8660059999985
 51
357.6940340000007
  0
LINE
  5
1A78
330
1A0C
100
AcDbEntity
  8
0
 62
     3
100
AcDbLine
 10
210.3550900952591
 20
283.1533162850495
 30
0.0
 11
211.7789323887391
 21
283.1480478690377
 31
0.0
  0
LINE
  5
1A79
330
1A0C
100
AcDbEntity
  8
0
 62
     3
100
AcDbLine
 10
210.3608401256404
 20
284.7074544895639
 30
0.0
 11
210.3339152517226
 21
284.8798461271531
 31
0.0
  0
LINE
  5
1A7A
330
1A0C
100
AcDbEntity
  8
0
 62
     3
100
AcDbLine
 10
210.3339152517226
 20
284.8798461271531
 30
0.0
 11
210.3015792987126
 21
285.0449204640707
 31
0.0
  0
LINE
  5
1A7B
330
1A0C
100
AcDbEntity
  8
0
 62
     3
100
AcDbLine
 10
210.3015792987126
 20
285.0449204640707
 30
0.0
 11
210.2640831917445
 21
285.2014006151606
 31
0.0
  0
LINE
  5
1A7C
330
1A0C
100
AcDbEntity
  8
0
 62
     3
100
AcDbLine
 10
210.2640831917445
 20
285.2014006151606
 30
0.0
 11
210.2217142805682
 21
285.34807647373
 31
0.0
  0
LINE
  5
1A7D
330
1A0C
100
AcDbEntity
  8
0
 62
     3
100
AcDbLine
 10
210.2217142805682
 20
285.34807647373
 30
0.0
 11
210.174802410319
 21
285.4838158412927
 31
0.0
  0
LINE
  5
1A7E
330
1A0C
100
AcDbEntity
  8
0
 62
     3
100
AcDbLine
 10
210.174802410319
 20
285.4838158412927
 30
0.0
 11
210.1237087917736
 21
285.607568474749
 31
0.0
  0
LINE
  5
1A7F
330
1A0C
100
AcDbEntity
  8
0
 62
     3
100
AcDbLine
 10
210.1237087917736
 20
285.607568474749
 30
0.0
 11
210.068828024941
 21
285.7183772161294
 31
0.0
  0
LINE
  5
1A80
330
1A0C
100
AcDbEntity
  8
0
 62
     3
100
AcDbLine
 10
210.068828024941
 20
285.7183772161294
 30
0.0
 11
210.0105860754711
 21
285.8153870987485
 31
0.0
  0
LINE
  5
1A81
330
1A0C
100
AcDbEntity
  8
0
 62
     3
100
AcDbLine
 10
210.0105860754711
 20
285.8153870987485
 30
0.0
 11
209.9494321802972
 21
285.8978483825904
 31
0.0
  0
LINE
  5
1A82
330
1A0C
100
AcDbEntity
  8
0
 62
     3
100
AcDbLine
 10
209.9494321802972
 20
285.8978483825904
 30
0.0
 11
209.8858388476344
 21
285.9651216132818
 31
0.0
  0
LINE
  5
1A83
330
1A0C
100
AcDbEntity
  8
0
 62
     3
100
AcDbLine
 10
209.8858388476344
 20
285.9651216132818
 30
0.0
 11
209.8202978098011
 21
286.0166887518374
 31
0.0
  0
LINE
  5
1A84
330
1A0C
100
AcDbEntity
  8
0
 62
     3
100
AcDbLine
 10
209.8202978098011
 20
286.0166887518374
 30
0.0
 11
209.753314964244
 21
286.052150139274
 31
0.0
  0
LINE
  5
1A85
330
1A0C
100
AcDbEntity
  8
0
 62
     3
100
AcDbLine
 10
209.753314964244
 20
286.052150139274
 30
0.0
 11
209.685409361744
 21
286.0712325909704
 31
0.0
  0
LINE
  5
1A86
330
1A0C
100
AcDbEntity
  8
0
 62
     3
100
AcDbLine
 10
209.685409361744
 20
286.0712325909704
 30
0.0
 11
209.6171051120557
 21
286.0737883848722
 31
0.0
  0
LINE
  5
1A87
330
1A0C
100
AcDbEntity
  8
0
 62
     3
100
AcDbLine
 10
209.6171051120557
 20
286.0737883848722
 30
0.0
 11
209.548930372114
 21
286.0597962732862
 31
0.0
  0
LINE
  5
1A88
330
1A0C
100
AcDbEntity
  8
0
 62
     3
100
AcDbLine
 10
209.548930372114
 20
286.0597962732862
 30
0.0
 11
209.4814112752633
 21
286.0293665418562
 31
0.0
  0
LINE
  5
1A89
330
1A0C
100
AcDbEntity
  8
0
 62
     3
100
AcDbLine
 10
209.4814112752633
 20
286.0293665418562
 30
0.0
 11
209.4150709194639
 21
285.9827339269975
 31
0.0
  0
LINE
  5
1A8A
330
1A0C
100
AcDbEntity
  8
0
 62
     3
100
AcDbLine
 10
209.4150709194639
 20
285.9827339269975
 30
0.0
 11
209.3504222847266
 21
285.9202576158974
 31
0.0
  0
LINE
  5
1A8B
330
1A0C
100
AcDbEntity
  8
0
 62
     3
100
AcDbLine
 10
209.3504222847266
 20
285.9202576158974
 30
0.0
 11
209.2879631741398
 21
285.842421246515
 31
0.0
  0
LINE
  5
1A8C
330
1A0C
100
AcDbEntity
  8
0
 62
     3
100
AcDbLine
 10
209.2879631741398
 20
285.842421246515
 30
0.0
 11
209.2281782374571
 21
285.7498268368122
 31
0.0
  0
LINE
  5
1A8D
330
1A0C
100
AcDbEntity
  8
0
 62
     3
100
AcDbLine
 10
209.2281782374571
 20
285.7498268368122
 30
0.0
 11
209.1715288531502
 21
285.6431897257789
 31
0.0
  0
LINE
  5
1A8E
330
1A0C
100
AcDbEntity
  8
0
 62
     3
100
AcDbLine
 10
209.1715288531502
 20
285.6431897257789
 30
0.0
 11
209.1184531284079
 21
285.5233335144585
 31
0.0
  0
LINE
  5
1A8F
330
1A0C
100
AcDbEntity
  8
0
 62
     3
100
AcDbLine
 10
209.1184531284079
 20
285.5233335144585
 30
0.0
 11
209.0693608401625
 21
285.3911860187687
 31
0.0
  0
LINE
  5
1A90
330
1A0C
100
AcDbEntity
  8
0
 62
     3
100
AcDbLine
 10
209.0693608401625
 20
285.3911860187687
 30
0.0
 11
209.024631411499
 21
285.2477681397571
 31
0.0
  0
LINE
  5
1A91
330
1A0C
100
AcDbEntity
  8
0
 62
     3
100
AcDbLine
 10
209.024631411499
 20
285.2477681397571
 30
0.0
 11
208.984611888066
 21
285.0941888046277
 31
0.0
  0
LINE
  5
1A92
330
1A0C
100
AcDbEntity
  8
0
 62
     3
100
AcDbLine
 10
208.984611888066
 20
285.0941888046277
 30
0.0
 11
208.9496098555112
 21
284.9316338369956
 31
0.0
  0
LINE
  5
1A93
330
1A0C
100
AcDbEntity
  8
0
 62
     3
100
AcDbLine
 10
208.9496098555112
 20
284.9316338369956
 30
0.0
 11
208.9198964748659
 21
284.7613598861189
 31
0.0
  0
LINE
  5
1A94
330
1A0C
100
AcDbEntity
  8
0
 62
     3
100
AcDbLine
 10
208.9198964748659
 20
284.7613598861189
 30
0.0
 11
208.8957024353663
 21
284.5846843089494
 31
0.0
  0
LINE
  5
1A95
330
1A0C
100
AcDbEntity
  8
0
 62
     3
100
AcDbLine
 10
208.8957024353663
 20
284.5846843089494
 30
0.0
 11
208.8772128954777
 21
284.4029720167987
 31
0.0
  0
LINE
  5
1A96
330
1A0C
100
AcDbEntity
  8
0
 62
     3
100
AcDbLine
 10
208.8772128954777
 20
284.4029720167987
 30
0.0
 11
208.8645725418698
 21
284.2176273809794
 31
0.0
  0
LINE
  5
1A97
330
1A0C
100
AcDbEntity
  8
0
 62
     3
100
AcDbLine
 10
208.8645725418698
 20
284.2176273809794
 30
0.0
 11
208.8578785068528
 21
284.0300841148561
 31
0.0
  0
LINE
  5
1A98
330
1A0C
100
AcDbEntity
  8
0
 62
     3
100
AcDbLine
 10
208.8578785068528
 20
284.0300841148561
 30
0.0
 11
208.8571813801709
 21
283.8417900969215
 31
0.0
  0
LINE
  5
1A99
330
1A0C
100
AcDbEntity
  8
0
 62
     3
100
AcDbLine
 10
208.8571813801709
 20
283.8417900969215
 30
0.0
 11
208.8624882443887
 21
283.6542013000278
 31
0.0
  0
LINE
  5
1A9A
330
1A0C
100
AcDbEntity
  8
0
 62
     3
100
AcDbLine
 10
208.8624882443887
 20
283.6542013000278
 30
0.0
 11
208.8737566041207
 21
283.4687686380529
 31
0.0
  0
LINE
  5
1A9B
330
1A0C
100
AcDbEntity
  8
0
 62
     3
100
AcDbLine
 10
208.8737566041207
 20
283.4687686380529
 30
0.0
 11
208.8909004568006
 21
283.286923800771
 31
0.0
  0
LINE
  5
1A9C
330
1A0C
100
AcDbEntity
  8
0
 62
     3
100
AcDbLine
 10
208.8909004568006
 20
283.286923800771
 30
0.0
 11
208.9137872572974
 21
283.1100741948798
 31
0.0
  0
LINE
  5
1A9D
330
1A0C
100
AcDbEntity
  8
0
 62
     3
100
AcDbLine
 10
208.9137872572974
 20
283.1100741948798
 30
0.0
 11
208.9422389297101
 21
282.9395857434857
 31
0.0
  0
LINE
  5
1A9E
330
1A0C
100
AcDbEntity
  8
0
 62
     3
100
AcDbLine
 10
208.9422389297101
 20
282.9395857434857
 30
0.0
 11
208.9760369263413
 21
282.7767768153353
 31
0.0
  0
LINE
  5
1A9F
330
1A0C
100
AcDbEntity
  8
0
 62
     3
100
AcDbLine
 10
208.9760369263413
 20
282.7767768153353
 30
0.0
 11
209.0149191923138
 21
282.6229040596865
 31
0.0
  0
LINE
  5
1AA0
330
1A0C
100
AcDbEntity
  8
0
 62
     3
100
AcDbLine
 10
209.0149191923138
 20
282.6229040596865
 30
0.0
 11
209.0585862363389
 21
282.4791593709244
 31
0.0
  0
LINE
  5
1AA1
330
1A0C
100
AcDbEntity
  8
0
 62
     3
100
AcDbLine
 10
209.0585862363389
 20
282.4791593709244
 30
0.0
 11
209.106699107127
 21
282.3466516762524
 31
0.0
  0
LINE
  5
1AA2
330
1A0C
100
AcDbEntity
  8
0
 62
     3
100
AcDbLine
 10
209.106699107127
 20
282.3466516762524
 30
0.0
 11
209.1588864759526
 21
282.2264069356927
 31
0.0
  0
LINE
  5
1AA3
330
1A0C
100
AcDbEntity
  8
0
 62
     3
100
AcDbLine
 10
209.1588864759526
 20
282.2264069356927
 30
0.0
 11
209.2147456484474
 21
282.1193539769581
 31
0.0
  0
LINE
  5
1AA4
330
1A0C
100
AcDbEntity
  8
0
 62
     3
100
AcDbLine
 10
209.2147456484474
 20
282.1193539769581
 30
0.0
 11
209.2738435763974
 21
282.0263194364764
 31
0.0
  0
LINE
  5
1AA5
330
1A0C
100
AcDbEntity
  8
0
 62
     3
100
AcDbLine
 10
209.2738435763974
 20
282.0263194364764
 30
0.0
 11
209.3357239403051
 21
281.9480227004174
 31
0.0
  0
LINE
  5
1AA6
330
1A0C
100
AcDbEntity
  8
0
 62
     3
100
AcDbLine
 10
209.3357239403051
 20
281.9480227004174
 30
0.0
 11
209.3999091729809
 21
281.8850698339223
 31
0.0
  0
LINE
  5
1AA7
330
1A0C
100
AcDbEntity
  8
0
 62
     3
100
AcDbLine
 10
209.3999091729809
 20
281.8850698339223
 30
0.0
 11
209.4659024831317
 21
281.837947510335
 31
0.0
  0
LINE
  5
1AA8
330
1A0C
100
AcDbEntity
  8
0
 62
     3
100
AcDbLine
 10
209.4659024831317
 20
281.837947510335
 30
0.0
 11
209.5331939261312
 21
281.8070189640224
 31
0.0
  0
LINE
  5
1AA9
330
1A0C
100
AcDbEntity
  8
0
 62
     3
100
AcDbLine
 10
209.5331939261312
 20
281.8070189640224
 30
0.0
 11
209.6012634394042
 21
281.7925229785795
 31
0.0
  0
LINE
  5
1AAA
330
1A0C
100
AcDbEntity
  8
0
 62
     3
100
AcDbLine
 10
209.6012634394042
 20
281.7925229785795
 30
0.0
 11
209.6695848896054
 21
281.7945728750343
 31
0.0
  0
LINE
  5
1AAB
330
1A0C
100
AcDbEntity
  8
0
 62
     3
100
AcDbLine
 10
209.6695848896054
 20
281.7945728750343
 30
0.0
 11
209.737630119801
 21
281.8131514528736
 31
0.0
  0
LINE
  5
1AAC
330
1A0C
100
AcDbEntity
  8
0
 62
     3
100
AcDbLine
 10
209.737630119801
 20
281.8131514528736
 30
0.0
 11
209.8048729966456
 21
281.8481170608123
 31
0.0
  0
LINE
  5
1AAD
330
1A0C
100
AcDbEntity
  8
0
 62
     3
100
AcDbLine
 10
209.8048729966456
 20
281.8481170608123
 30
0.0
 11
209.870794469359
 21
281.8991975260238
 31
0.0
  0
LINE
  5
1AAE
330
1A0C
100
AcDbEntity
  8
0
 62
     3
100
AcDbLine
 10
209.870794469359
 20
281.8991975260238
 30
0.0
 11
209.9348835815197
 21
281.965999260295
 31
0.0
  0
LINE
  5
1AAF
330
1A0C
100
AcDbEntity
  8
0
 62
     3
100
AcDbLine
 10
209.9348835815197
 20
281.965999260295
 30
0.0
 11
209.9966465772197
 21
282.0480042246396
 31
0.0
  0
LINE
  5
1AB0
330
1A0C
100
AcDbEntity
  8
0
 62
     3
100
AcDbLine
 10
209.9966465772197
 20
282.0480042246396
 30
0.0
 11
210.0556048774745
 21
282.1445810590443
 31
0.0
  0
LINE
  5
1AB1
330
1A0C
100
AcDbEntity
  8
0
 62
     3
100
AcDbLine
 10
210.0556048774745
 20
282.1445810590443
 30
0.0
 11
210.1113031745811
 21
282.2549810352876
 31
0.0
  0
LINE
  5
1AB2
330
1A0C
100
AcDbEntity
  8
0
 62
     3
100
AcDbLine
 10
210.1113031745811
 20
282.2549810352876
 30
0.0
 11
210.1633114557105
 21
282.3783522220688
 31
0.0
  0
LINE
  5
1AB3
330
1A0C
100
AcDbEntity
  8
0
 62
     3
100
AcDbLine
 10
210.1633114557105
 20
282.3783522220688
 30
0.0
 11
210.2112270264945
 21
282.5137404968034
 31
0.0
  0
LINE
  5
1AB4
330
1A0C
100
AcDbEntity
  8
0
 62
     3
100
AcDbLine
 10
210.2112270264945
 20
282.5137404968034
 30
0.0
 11
210.2546795700021
 21
282.6600996635711
 31
0.0
  0
LINE
  5
1AB5
330
1A0C
100
AcDbEntity
  8
0
 62
     3
100
AcDbLine
 10
210.2546795700021
 20
282.6600996635711
 30
0.0
 11
210.2933331703284
 21
282.8162975238857
 31
0.0
  0
LINE
  5
1AB6
330
1A0C
100
AcDbEntity
  8
0
 62
     3
100
AcDbLine
 10
210.2933331703284
 20
282.8162975238857
 30
0.0
 11
210.326890359775
 21
282.9811280182338
 31
0.0
  0
LINE
  5
1AB7
330
1A0C
100
AcDbEntity
  8
0
 62
     3
100
AcDbLine
 10
210.326890359775
 20
282.9811280182338
 30
0.0
 11
210.3550900952591
 21
283.1533162850495
 31
0.0
  0
LINE
  5
1AB8
330
1A0C
100
AcDbEntity
  8
0
 62
     3
100
AcDbLine
 10
210.3608401256404
 20
284.7074544895639
 30
0.0
 11
211.7846824191204
 21
284.7021860735519
 31
0.0
  0
ARC
  5
1AB9
330
1A0C
100
AcDbEntity
  8
0
 62
     3
100
AcDbCircle
 10
190.5288527955408
 20
284.0037551881305
 30
0.0
 40
21.26730034229026
100
AcDbArc
 50
1.881965999998799
 51
5.709994000000508
  0
LINE
  5
1ABA
330
1A0C
100
AcDbEntity
  8
0
 62
     3
100
AcDbLine
 10
207.1913521462863
 20
286.9349988766058
 30
0.0
 11
207.1913470873119
 21
286.6292324361205
 31
0.0
  0
LINE
  5
1ABB
330
1A0C
100
AcDbEntity
  8
0
 62
     3
100
AcDbLine
 10
204.6493516026169
 20
281.2368957924554
 30
0.0
 11
204.6493465436422
 21
280.93112935197
 31
0.0
  0
LINE
  5
1ABC
330
1A0C
100
AcDbEntity
  8
0
 62
     3
100
AcDbLine
 10
204.6494507585164
 20
286.9350524616931
 30
0.0
 11
204.6494456995417
 21
286.629228348899
 31
0.0
  0
LINE
  5
1ABD
330
1A0C
100
AcDbEntity
  8
0
 62
     3
100
AcDbLine
 10
200.4505105345838
 20
281.2694109195942
 30
0.0
 11
200.4505105345838
 21
280.9636161488519
 31
0.0
  0
LINE
  5
1ABE
330
1A0C
100
AcDbEntity
  8
0
 62
     3
100
AcDbLine
 10
199.9441995486006
 20
284.4845004919676
 30
0.0
 11
202.1447522630479
 21
280.9636161488519
 31
0.0
  0
LINE
  5
1ABF
330
1A0C
100
AcDbEntity
  8
0
 62
     3
100
AcDbLine
 10
202.1447522630479
 20
280.9636161488519
 30
0.0
 11
203.6182615442728
 21
280.9636161488519
 31
0.0
  0
LINE
  5
1AC0
330
1A0C
100
AcDbEntity
  8
0
 62
     3
100
AcDbLine
 10
204.1245725302563
 20
286.9675382463947
 30
0.0
 11
204.1245725302563
 21
286.6617434756524
 31
0.0
  0
LINE
  5
1AC1
330
1A0C
100
AcDbEntity
  8
0
 62
     3
100
AcDbLine
 10
202.1467427486141
 20
286.9675382463947
 30
0.0
 11
204.1245725302563
 21
286.9675382463947
 31
0.0
  0
LINE
  5
1AC2
330
1A0C
100
AcDbEntity
  8
0
 62
     3
100
AcDbLine
 10
202.1467427486141
 20
286.9675382463947
 30
0.0
 11
202.1467427486141
 21
286.6617434756524
 31
0.0
  0
LINE
  5
1AC3
330
1A0C
100
AcDbEntity
  8
0
 62
     3
100
AcDbLine
 10
202.6530537345975
 20
284.2481715114516
 30
0.0
 11
200.8684691250794
 21
286.9675382463947
 31
0.0
  0
LINE
  5
1AC4
330
1A0C
100
AcDbEntity
  8
0
 62
     3
100
AcDbLine
 10
198.4726797411465
 20
286.9675382463947
 30
0.0
 11
200.8684691250794
 21
286.9675382463947
 31
0.0
  0
LINE
  5
1AC5
330
1A0C
100
AcDbEntity
  8
0
 62
     3
100
AcDbLine
 10
211.8406155467012
 20
286.9348824999793
 30
0.0
 11
214.4154002684847
 21
286.9348824999791
 31
0.0
  0
LINE
  5
1AC6
330
1A0C
100
AcDbEntity
  8
0
 62
     3
100
AcDbLine
 10
211.8406155467012
 20
286.629230392317
 30
0.0
 11
211.8406155467012
 21
286.9348824999793
 31
0.0
  0
LINE
  5
1AC7
330
1A0C
100
AcDbEntity
  8
0
 62
     3
100
AcDbLine
 10
211.8406155467012
 20
280.9309604024365
 30
0.0
 11
211.8406155467012
 21
281.2368978362588
 31
0.0
  0
LINE
  5
1AC8
330
1A0C
100
AcDbEntity
  8
0
 62
     3
100
AcDbLine
 10
211.8406155467012
 20
280.9309604024364
 30
0.0
 11
214.4154002684847
 21
280.9309604024365
 31
0.0
  0
LINE
  5
1AC9
330
1A0C
100
AcDbEntity
  8
0
 62
     3
100
AcDbLine
 10
214.9569276307762
 20
281.2368978362588
 30
0.0
 11
214.9569276307762
 21
280.9309604024365
 31
0.0
  0
LINE
  5
1ACA
330
1A0C
100
AcDbEntity
  8
0
 62
     3
100
AcDbLine
 10
214.4154002684847
 20
281.2368978362588
 30
0.0
 11
214.4154002684847
 21
280.9309604024365
 31
0.0
  0
LINE
  5
1ACB
330
1A0C
100
AcDbEntity
  8
0
 62
     3
100
AcDbLine
 10
214.4154002684847
 20
286.629230392317
 30
0.0
 11
214.4154002684847
 21
286.9348824999793
 31
0.0
  0
LINE
  5
1ACC
330
1A0C
100
AcDbEntity
  8
0
 62
     3
100
AcDbLine
 10
214.9569276307762
 20
286.629230392317
 30
0.0
 11
214.9569276307762
 21
286.9348824999793
 31
0.0
  0
LINE
  5
1ACD
330
1A0C
100
AcDbEntity
  8
0
 62
     3
100
AcDbLine
 10
198.4726797411465
 20
281.2694109195941
 30
0.0
 11
198.4726797411465
 21
280.9636161488519
 31
0.0
  0
LINE
  5
1ACE
330
1A0C
100
AcDbEntity
  8
0
 62
     3
100
AcDbLine
 10
198.4726797411465
 20
286.9675382463947
 30
0.0
 11
198.4726797411465
 21
286.6617434756524
 31
0.0
  0
ARC
  5
1ACF
330
1A0C
100
AcDbEntity
  8
0
 62
     3
100
AcDbCircle
 10
224.150748389565
 20
284.5629034002713
 30
0.0
 40
2.37212176278799
100
AcDbArc
 50
17.30874900000206
 51
23.76507100000091
  0
ARC
  5
1AD0
330
1A0C
100
AcDbEntity
  8
0
 62
     3
100
AcDbCircle
 10
222.12965470004
 20
283.9330641142879
 30
0.0
 40
4.489082006702322
100
AcDbArc
 50
342.691250999998
 51
17.3085660000007
  0
ARC
  5
1AD1
330
1A0C
100
AcDbEntity
  8
0
 62
     3
100
AcDbCircle
 10
224.150748389565
 20
283.3032248283045
 30
0.0
 40
2.37212176278799
100
AcDbArc
 50
336.2349289999991
 51
342.691250999998
  0
ARC
  5
1AD2
330
1A0C
100
AcDbEntity
  8
0
 62
     3
100
AcDbCircle
 10
223.8930918614358
 20
284.5629034002713
 30
0.0
 40
2.37212176278799
100
AcDbArc
 50
17.30874900000206
 51
90.0
  0
ARC
  5
1AD3
330
1A0C
100
AcDbEntity
  8
0
 62
     3
100
AcDbCircle
 10
221.8719930928312
 20
283.9330776767834
 30
0.0
 40
4.489082006702322
100
AcDbArc
 50
342.691250999998
 51
17.3085660000007
  0
ARC
  5
1AD4
330
1A0C
100
AcDbEntity
  8
0
 62
     3
100
AcDbCircle
 10
223.8930918614358
 20
283.3032248283045
 30
0.0
 40
2.37212176278799
100
AcDbArc
 50
270.0
 51
342.691250999998
  0
ARC
  5
1AD5
330
1A0C
100
AcDbEntity
  8
0
 62
     3
100
AcDbCircle
 10
209.6338472821628
 20
283.9330641142879
 30
0.0
 40
3.001961048771398
100
AcDbArc
 50
46.75287999999464
 51
89.74999799999961
  0
ARC
  5
1AD6
330
1A0C
100
AcDbEntity
  8
0
 62
     3
100
AcDbCircle
 10
209.6338472821628
 20
283.9330641142879
 30
0.0
 40
3.001961048771398
100
AcDbArc
 50
273.9763330000016
 51
312.8231199999997
  0
ARC
  5
1AD7
330
1A0C
100
AcDbEntity
  8
0
 62
     3
100
AcDbCircle
 10
225.7520837904888
 20
283.8867218845638
 30
0.0
 40
3.983420308030568
100
AcDbArc
 50
0.6665839999989652
 51
23.90392800000231
  0
ARC
  5
1AD8
330
1A0C
100
AcDbEntity
  8
0
 62
     3
100
AcDbCircle
 10
231.4117214277355
 20
283.8867218845638
 30
0.0
 40
3.983420308030568
100
AcDbArc
 50
156.0960719999977
 51
179.333416000001
  0
ARC
  5
1AD9
330
1A0C
100
AcDbEntity
  8
0
 62
     3
100
AcDbCircle
 10
225.7520837904888
 20
283.979406344012
 30
0.0
 40
3.983420308030568
100
AcDbArc
 50
336.096071999998
 51
359.3334159999978
  0
ARC
  5
1ADA
330
1A0C
100
AcDbEntity
  8
0
 62
     3
100
AcDbCircle
 10
231.4117214277355
 20
283.979406344012
 30
0.0
 40
3.983420308030568
100
AcDbArc
 50
180.666583999999
 51
203.9039280000023
  0
LINE
  5
1ADB
330
1A0C
100
AcDbEntity
  8
0
  6
Continuous
 62
     3
100
AcDbLine
 10
198.4726797411465
 20
286.6617434756524
 30
0.0
 11
198.9789907271299
 21
286.3329566777442
 31
0.0
  0
LINE
  5
1ADC
330
1A0C
100
AcDbEntity
  8
0
  6
Continuous
 62
     3
100
AcDbLine
 10
202.1467427486141
 20
286.6617434756524
 30
0.0
 11
202.6530537345975
 21
286.3329566777442
 31
0.0
  0
LINE
  5
1ADD
330
1A0C
100
AcDbEntity
  8
0
  6
Continuous
 62
     3
100
AcDbLine
 10
204.1245725302563
 20
286.6617434756524
 30
0.0
 11
203.6182615442728
 21
286.3329566777442
 31
0.0
  0
LINE
  5
1ADE
330
1A0C
100
AcDbEntity
  8
0
  6
Continuous
 62
     3
100
AcDbLine
 10
204.6494456995417
 20
286.629228348899
 30
0.0
 11
205.1557182373362
 21
286.3004355000498
 31
0.0
  0
LINE
  5
1ADF
330
1A0C
100
AcDbEntity
  8
0
  6
Continuous
 62
     3
100
AcDbLine
 10
207.1913470873119
 20
286.6292324361205
 30
0.0
 11
206.6850300305421
 21
286.3004142523569
 31
0.0
  0
LINE
  5
1AE0
330
1A0C
100
AcDbEntity
  8
0
  6
Continuous
 62
     3
100
AcDbLine
 10
211.8406155467012
 20
286.629230392317
 30
0.0
 11
212.3469265326846
 21
286.3003434267143
 31
0.0
  0
LINE
  5
1AE1
330
1A0C
100
AcDbEntity
  8
0
  6
Continuous
 62
     3
100
AcDbLine
 10
214.4154002684847
 20
286.629230392317
 30
0.0
 11
213.9090892825013
 21
286.3003434267143
 31
0.0
  0
LINE
  5
1AE2
330
1A0C
100
AcDbEntity
  8
0
  6
Continuous
 62
     3
100
AcDbLine
 10
214.9569276307762
 20
286.629230392317
 30
0.0
 11
215.4632386167596
 21
286.3003434267143
 31
0.0
  0
LINE
  5
1AE3
330
1A0C
100
AcDbEntity
  8
0
  6
Continuous
 62
     3
100
AcDbLine
 10
217.5317133643546
 20
286.629230392317
 30
0.0
 11
217.0254013665763
 21
286.3003434267143
 31
0.0
  0
LINE
  5
1AE4
330
1A0C
100
AcDbEntity
  8
0
  6
Continuous
 62
     3
100
AcDbLine
 10
218.0602632600805
 20
286.629230392317
 30
0.0
 11
218.566574246064
 21
286.3003434267143
 31
0.0
  0
LINE
  5
1AE5
330
1A0C
100
AcDbEntity
  8
0
  6
Continuous
 62
     3
100
AcDbLine
 10
220.6021646478169
 20
286.629230392317
 30
0.0
 11
220.0958536618334
 21
286.3003434267143
 31
0.0
  0
LINE
  5
1AE6
330
1A0C
100
AcDbEntity
  8
0
  6
Continuous
 62
     3
100
AcDbLine
 10
221.1484699991597
 20
286.629230392317
 30
0.0
 11
221.6547809851429
 21
286.3003434267143
 31
0.0
  0
LINE
  5
1AE7
330
1A0C
100
AcDbEntity
  8
0
  6
Continuous
 62
     3
100
AcDbLine
 10
221.6546990297565
 20
281.5656441623712
 30
0.0
 11
221.1484699991597
 21
281.2368978362588
 31
0.0
  0
LINE
  5
1AE8
330
1A0C
100
AcDbEntity
  8
0
  6
Continuous
 62
     3
100
AcDbLine
 10
220.0959356172195
 20
281.5656441623712
 30
0.0
 11
220.6021646478169
 21
281.2368978362588
 31
0.0
  0
LINE
  5
1AE9
330
1A0C
100
AcDbEntity
  8
0
  6
Continuous
 62
     3
100
AcDbLine
 10
218.5664912788827
 20
281.5656441623712
 30
0.0
 11
218.0602632600805
 21
281.2368978362588
 31
0.0
  0
LINE
  5
1AEA
330
1A0C
100
AcDbEntity
  8
0
  6
Continuous
 62
     3
100
AcDbLine
 10
217.5317133643546
 20
281.2368978362588
 30
0.0
 11
217.0254843337575
 21
281.5656441623712
 31
0.0
  0
LINE
  5
1AEB
330
1A0C
100
AcDbEntity
  8
0
  6
Continuous
 62
     3
100
AcDbLine
 10
214.9569276307762
 20
281.2368978362588
 30
0.0
 11
215.4631556495781
 21
281.5656441623712
 31
0.0
  0
LINE
  5
1AEC
330
1A0C
100
AcDbEntity
  8
0
  6
Continuous
 62
     3
100
AcDbLine
 10
214.4154002684847
 20
281.2368978362588
 30
0.0
 11
213.9091722496825
 21
281.5656441623712
 31
0.0
  0
LINE
  5
1AED
330
1A0C
100
AcDbEntity
  8
0
  6
Continuous
 62
     3
100
AcDbLine
 10
212.3468435655034
 20
281.5656441623712
 30
0.0
 11
211.8406155467012
 21
281.2368978362588
 31
0.0
  0
LINE
  5
1AEE
330
1A0C
100
AcDbEntity
  8
0
  6
Continuous
 62
     3
100
AcDbLine
 10
207.1912529903941
 20
281.2369002883685
 30
0.0
 11
206.6850300305421
 21
281.5657139762189
 31
0.0
  0
LINE
  5
1AEF
330
1A0C
100
AcDbEntity
  8
0
  6
Continuous
 62
     3
100
AcDbLine
 10
204.6493516026169
 20
281.2368957924554
 30
0.0
 11
205.1556190814365
 21
281.5657352239116
 31
0.0
  0
LINE
  5
1AF0
330
1A0C
100
AcDbEntity
  8
0
  6
Continuous
 62
     3
100
AcDbLine
 10
200.4505105345838
 20
281.2694109195942
 30
0.0
 11
199.9441995486006
 21
281.5981987292973
 31
0.0
  0
LINE
  5
1AF1
330
1A0C
100
AcDbEntity
  8
0
  6
Continuous
 62
     3
100
AcDbLine
 10
198.4726797411465
 20
281.2694109195942
 30
0.0
 11
198.9789907271299
 21
281.5981987292973
 31
0.0
  0
LINE
  5
1AF2
330
1A0C
100
AcDbEntity
  8
0
  6
Continuous
 62
     3
100
AcDbLine
 10
207.1912469196246
 20
280.9310771873693
 30
0.0
 11
204.6493465436422
 21
280.93112935197
 31
0.0
  0
LINE
  5
1AF3
330
1A0C
100
AcDbEntity
  8
0
  6
Continuous
 62
     3
100
AcDbLine
 10
204.6494507585164
 20
286.9350524616931
 30
0.0
 11
207.1913521462863
 21
286.9349988766058
 31
0.0
  0
ARC
  5
1AF4
330
1A0C
100
AcDbEntity
  8
0
  6
Continuous
 62
     3
100
AcDbCircle
 10
233.4996944478569
 20
283.9148263707226
 30
0.0
 40
1.5
100
AcDbArc
 50
293.7485430905253
 51
66.2514569094748
  0
ARC
  5
1AF5
330
1A0C
100
AcDbEntity
  8
0
  6
Continuous
 62
     3
100
AcDbCircle
 10
233.4996944478569
 20
283.9148263707226
 30
0.0
 40
2.25
100
AcDbArc
 50
293.7485430905253
 51
66.2514569094748
  0
ARC
  5
1AF6
330
1A0C
100
AcDbEntity
  8
0
  6
Continuous
 62
     3
100
AcDbCircle
 10
222.0220771115314
 20
257.8281573560539
 30
0.0
 40
30.0
100
AcDbArc
 50
66.2514569094748
 51
81.41597019517911
  0
ARC
  5
1AF7
330
1A0C
100
AcDbEntity
  8
0
  6
Continuous
 62
     3
100
AcDbCircle
 10
222.0220771115314
 20
257.8281573560539
 30
0.0
 40
30.75
100
AcDbArc
 50
66.2514569094748
 51
81.41597019517911
  0
ARC
  5
1AF8
330
1A0C
100
AcDbEntity
  8
0
  6
Continuous
 62
     3
100
AcDbCircle
 10
194.4244079510804
 20
283.9148263707226
 30
0.0
 40
1.5
100
AcDbArc
 50
113.7485430905252
 51
246.2514569094748
  0
ARC
  5
1AF9
330
1A0C
100
AcDbEntity
  8
0
  6
Continuous
 62
     3
100
AcDbCircle
 10
194.4244079510804
 20
283.9148263707226
 30
0.0
 40
2.25
100
AcDbArc
 50
113.7485430905252
 51
246.2514569094748
  0
ARC
  5
1AFA
330
1A0C
100
AcDbEntity
  8
0
  6
Continuous
 62
     3
100
AcDbCircle
 10
205.9020252874061
 20
257.8281573560539
 30
0.0
 40
30.0
100
AcDbArc
 50
98.5840298048209
 51
113.7485430905252
  0
ARC
  5
1AFB
330
1A0C
100
AcDbEntity
  8
0
  6
Continuous
 62
     3
100
AcDbCircle
 10
205.9020252874061
 20
257.8281573560539
 30
0.0
 40
30.75
100
AcDbArc
 50
98.5840298048209
 51
113.7485430905252
  0
ARC
  5
1AFC
330
1A0C
100
AcDbEntity
  8
0
  6
Continuous
 62
     3
100
AcDbCircle
 10
222.0220771115314
 20
310.0014953853913
 30
0.0
 40
30.0
100
AcDbArc
 50
278.5840298048209
 51
293.7485430905253
  0
ARC
  5
1AFD
330
1A0C
100
AcDbEntity
  8
0
  6
Continuous
 62
     3
100
AcDbCircle
 10
222.0220771115314
 20
310.0014953853913
 30
0.0
 40
30.75
100
AcDbArc
 50
278.5840298048209
 51
293.7485430905253
  0
ARC
  5
1AFE
330
1A0C
100
AcDbEntity
  8
0
  6
Continuous
 62
     3
100
AcDbCircle
 10
205.9020252874061
 20
310.0014953853913
 30
0.0
 40
30.0
100
AcDbArc
 50
246.2514569094748
 51
261.4159701951791
  0
ARC
  5
1AFF
330
1A0C
100
AcDbEntity
  8
0
  6
Continuous
 62
     3
100
AcDbCircle
 10
205.9020252874061
 20
310.0014953853913
 30
0.0
 40
30.75
100
AcDbArc
 50
246.2514569094748
 51
261.4159701951791
  0
ARC
  5
1B00
330
1A0C
100
AcDbEntity
  8
0
  6
Continuous
 62
     3
100
AcDbCircle
 10
213.9620511994688
 20
204.4330641142894
 30
0.0
 40
84.74999999999857
100
AcDbArc
 50
81.41597019517911
 51
98.5840298048209
  0
ARC
  5
1B01
330
1A0C
100
AcDbEntity
  8
0
  6
Continuous
 62
     3
100
AcDbCircle
 10
213.9620511994688
 20
204.4330641142906
 30
0.0
 40
83.99999999999733
100
AcDbArc
 50
81.41597019517911
 51
98.5840298048209
  0
ARC
  5
1B02
330
1A0C
100
AcDbEntity
  8
0
  6
Continuous
 62
     3
100
AcDbCircle
 10
213.9620511994688
 20
363.3965886271558
 30
0.0
 40
84.74999999999857
100
AcDbArc
 50
261.4159701951791
 51
278.5840298048209
  0
ARC
  5
1B03
330
1A0C
100
AcDbEntity
  8
0
  6
Continuous
 62
     3
100
AcDbCircle
 10
213.9620511994688
 20
363.3965886271545
 30
0.0
 40
83.99999999999733
100
AcDbArc
 50
261.4159701951791
 51
278.5840298048209
  0
TEXT
  5
1B04
330
1A0C
100
AcDbEntity
  8
0
 62
     3
100
AcDbText
 10
397.4999981865963
 20
274.4999999941307
 30
0.0
 40
3.2
  1
担　当
  7
高3.2
100
AcDbText
  0
TEXT
  5
1B05
330
1A0C
100
AcDbEntity
  8
0
 62
     3
100
AcDbText
 10
353.4999981865963
 20
274.4999999941307
 30
0.0
 40
3.2
  1
変更・追記内容
  7
高3.2
100
AcDbText
  0
TEXT
  5
1B06
330
1A0C
100
AcDbEntity
  8
0
 62
     3
100
AcDbText
 10
328.6135131869355
 20
269.8294614842224
 30
0.0
 40
2.0
  1
1
  7
高2
100
AcDbText
  0
TEXT
  5
1B07
330
1A0C
100
AcDbEntity
  8
0
 62
     3
100
AcDbText
 10
328.3050017101782
 20
264.6596447719495
 30
0.0
 40
2.0
  1
2
  7
高2
100
AcDbText
  0
TEXT
  5
1B08
330
1A0C
100
AcDbEntity
  8
0
 62
     3
100
AcDbText
 10
335.4999981865963
 20
274.4999999941307
 30
0.0
 40
3.2
  1
日　付
  7
高3.2
100
AcDbText
  0
TEXT
  5
1B09
330
1A0C
100
AcDbEntity
  8
0
 62
     3
100
AcDbText
 10
335.4999981865963
 20
279.4999999941307
 30
0.0
 40
3.2
  1
図　　　　面　　　　略　　　　歴
  7
高3.2
100
AcDbText
  0
TEXT
  5
1B0A
330
1A0C
100
AcDbEntity
  8
0
 62
     3
100
AcDbText
 10
325.4999981865962
 20
274.4999999941307
 30
0.0
 40
3.2
  1
記号
  7
高3.2
100
AcDbText
  0
LINE
  5
1B0B
330
1A0C
100
AcDbEntity
  8
0
100
AcDbLine
 10
328.9999981865963
 20
267.7908959941309
 30
0.0
 11
327.0999981865964
 21
264.4999999941307
 31
0.0
  0
LINE
  5
1B0C
330
1A0C
100
AcDbEntity
  8
0
100
AcDbLine
 10
328.9999981865963
 20
267.7908959941309
 30
0.0
 11
330.8999981865961
 21
264.4999999941307
 31
0.0
  0
LINE
  5
1B0D
330
1A0C
100
AcDbEntity
  8
0
100
AcDbLine
 10
327.0999981865964
 20
264.4999999941307
 30
0.0
 11
330.8999981865961
 21
264.4999999941307
 31
0.0
  0
LINE
  5
1B0E
330
1A0C
100
AcDbEntity
  8
0
100
AcDbLine
 10
328.9999981865963
 20
272.7908969941308
 30
0.0
 11
327.0999981865964
 21
269.4999999941307
 31
0.0
  0
LINE
  5
1B0F
330
1A0C
100
AcDbEntity
  8
0
100
AcDbLine
 10
328.9999981865963
 20
272.7908969941308
 30
0.0
 11
330.8999981865961
 21
269.4999999941307
 31
0.0
  0
LINE
  5
1B10
330
1A0C
100
AcDbEntity
  8
0
100
AcDbLine
 10
327.0999981865964
 20
269.4999999941307
 30
0.0
 11
330.8999981865961
 21
269.4999999941307
 31
0.0
  0
LINE
  5
1B11
330
1A0C
100
AcDbEntity
  8
0
 62
     3
100
AcDbLine
 10
323.9999981865963
 20
278.9999999941307
 30
0.0
 11
409.9999981865962
 21
278.9999999941307
 31
0.0
  0
LINE
  5
1B12
330
1A0C
100
AcDbEntity
  8
0
 62
     3
100
AcDbLine
 10
323.9999981865963
 20
273.9999999941307
 30
0.0
 11
409.9999981865962
 21
273.9999999941307
 31
0.0
  0
LINE
  5
1B13
330
1A0C
100
AcDbEntity
  8
0
 62
     7
100
AcDbLine
 10
323.9999981865963
 20
268.9999999941307
 30
0.0
 11
409.9999981865962
 21
268.9999999941307
 31
0.0
  0
LINE
  5
1B14
330
1A0C
100
AcDbEntity
  8
0
 62
     3
100
AcDbLine
 10
323.9999981865963
 20
263.9999999941307
 30
0.0
 11
409.9999981865962
 21
263.9999999941307
 31
0.0
  0
LINE
  5
1B15
330
1A0C
100
AcDbEntity
  8
0
 62
     7
100
AcDbLine
 10
395.9999981865962
 20
263.9999999941307
 30
0.0
 11
395.9999981865962
 21
278.9999999941307
 31
0.0
  0
LINE
  5
1B16
330
1A0C
100
AcDbEntity
  8
0
 62
     7
100
AcDbLine
 10
351.9999981865963
 20
263.9999999941307
 30
0.0
 11
351.9999981865963
 21
278.9999999941307
 31
0.0
  0
LINE
  5
1B17
330
1A0C
100
AcDbEntity
  8
0
 62
     7
100
AcDbLine
 10
333.9999981865962
 20
263.9999999941307
 30
0.0
 11
333.9999981865962
 21
278.9999999941307
 31
0.0
  0
LINE
  5
1B18
330
1A0C
100
AcDbEntity
  8
0
 62
     3
100
AcDbLine
 10
323.9999981865963
 20
263.9999999941307
 30
0.0
 11
323.9999981865963
 21
283.9999999941307
 31
0.0
  0
ENDBLK
  5
1B19
330
1A0C
100
AcDbEntity
  8
0
100
AcDbBlockEnd
  0
ENDSEC
  0
SECTION
  2
ENTITIES
  0
TEXT
  5
214
330
36
100
AcDbEntity
  8
0
 62
     3
100
AcDbText
 10
152.6577796447606
 20
-408.7411721920179
 30
0.0
 40
4.5
  1
コード
  7
高4.5
100
AcDbText
  0
TEXT
  5
216
330
36
100
AcDbEntity
  8
0
 62
     3
100
AcDbText
 10
175.4773956447605
 20
-408.5059821920179
 30
0.0
 40
4.5
  1
8820
  7
高4.5
100
AcDbText
  0
LINE
  5
21F
330
36
100
AcDbEntity
  8
0
  6
Continuous
 62
     3
100
AcDbLine
 10
-76.84981843925196
 20
-304.9475117046419
 30
0.0
 11
-114.3498184392519
 21
-304.9475117046419
 31
0.0
  0
LINE
  5
226
330
36
100
AcDbEntity
  8
0
  6
Continuous
 62
     3
100
AcDbLine
 10
-76.84981843925196
 20
-306.9475117046419
 30
0.0
 11
-114.3498184392519
 21
-306.9475117046419
 31
0.0
  0
LINE
  5
227
330
36
100
AcDbEntity
  8
0
  6
Continuous
 62
     3
100
AcDbLine
 10
-76.84981843925196
 20
-307.9475117046419
 30
0.0
 11
-114.3498184392519
 21
-307.9475117046419
 31
0.0
  0
LINE
  5
438
330
36
100
AcDbEntity
  8
0
 62
     3
100
AcDbLine
 10
56.80684191924932
 20
-306.9475117046419
 30
0.0
 11
19.30684191924934
 21
-306.9475117046419
 31
0.0
  0
LINE
  5
43B
330
36
100
AcDbEntity
  8
0
 62
     3
100
AcDbLine
 10
49.15492191924933
 20
-310.4475117046419
 30
0.0
 11
26.95876191924936
 21
-310.4475117046419
 31
0.0
  0
LINE
  5
43C
330
36
100
AcDbEntity
  8
0
 62
     3
100
AcDbLine
 10
56.80684191924932
 20
-304.9475117046419
 30
0.0
 11
19.30684191924934
 21
-304.9475117046419
 31
0.0
  0
ARC
  5
43D
330
36
100
AcDbEntity
  8
0
 62
     3
100
AcDbCircle
 10
49.15492191924933
 20
-312.4475117046419
 30
0.0
 40
2.0
100
AcDbArc
 50
0.0
 51
90.0
  0
ARC
  5
43E
330
36
100
AcDbEntity
  8
0
 62
     3
100
AcDbCircle
 10
26.95876191924936
 20
-312.4475117046419
 30
0.0
 40
2.0
100
AcDbArc
 50
90.0
 51
139.4370830000045
  0
LINE
  5
43F
330
36
100
AcDbEntity
  8
0
 62
     3
100
AcDbLine
 10
49.06934491924928
 20
-313.7762957046419
 30
0.0
 11
51.19755691924932
 21
-313.7762957046419
 31
0.0
  0
ARC
  5
441
330
36
100
AcDbEntity
  8
0
 62
     3
100
AcDbCircle
 10
49.06934491924928
 20
-317.7762957046418
 30
0.0
 40
4.0
100
AcDbArc
 50
90.0
 51
141.9709029538159
  0
LINE
  5
442
330
36
100
AcDbEntity
  8
0
 62
     3
100
AcDbLine
 10
51.15393991924928
 20
-312.3848487046418
 30
0.0
 11
51.19755691924932
 21
-313.7762957046419
 31
0.0
  0
LINE
  5
443
330
36
100
AcDbEntity
  8
0
 62
     3
100
AcDbLine
 10
19.30684191924932
 20
-307.9475117046419
 30
0.0
 11
56.80684191924932
 21
-307.9475117046419
 31
0.0
  0
LINE
  5
444
330
36
100
AcDbEntity
  8
0
 62
     3
100
AcDbLine
 10
26.6523199192493
 20
-309.6766627046419
 30
0.0
 11
49.46136391924937
 21
-309.6766627046419
 31
0.0
  0
ARC
  5
445
330
36
100
AcDbEntity
  8
0
 62
     3
100
AcDbCircle
 10
49.15492191924933
 20
-307.7002787046419
 30
0.0
 40
2.0
100
AcDbArc
 50
278.8136150169539
 51
352.8991325783831
  0
ARC
  5
446
330
36
100
AcDbEntity
  8
0
 62
     3
100
AcDbCircle
 10
26.95876191924936
 20
-307.7002787046419
 30
0.0
 40
2.0
100
AcDbArc
 50
187.1008460000014
 51
261.186384983039
  0
LINE
  5
448
330
36
100
AcDbEntity
  8
0
 62
     3
100
AcDbLine
 10
20.70932191924931
 20
-311.1469467046419
 30
0.0
 11
25.43937691924929
 21
-311.1469467046419
 31
0.0
  0
LINE
  5
451
330
36
100
AcDbEntity
  8
0
  6
HIDDEN
 62
    15
100
AcDbLine
 10
-16.7484266443996
 20
-283.5782117489308
 30
0.0
 11
-16.92876064439949
 21
-283.7244337489309
 31
0.0
  0
LINE
  5
454
330
36
100
AcDbEntity
  8
0
  6
CENTER
100
AcDbLine
 10
52.05684191924934
 20
-302.2316167046418
 30
0.0
 11
52.05684191924934
 21
-310.3785397046419
 31
0.0
  0
LINE
  5
455
330
36
100
AcDbEntity
  8
0
  6
CENTER
100
AcDbLine
 10
24.05684191924934
 20
-302.2316167046418
 30
0.0
 11
24.05684191924934
 21
-310.3785397046419
 31
0.0
  0
LINE
  5
485
330
36
100
AcDbEntity
  8
0
  6
CENTER
100
AcDbLine
 10
38.05684191924934
 20
-315.0208187046419
 30
0.0
 11
38.05684191924934
 21
-300.5904457046419
 31
0.0
  0
ARC
  5
491
330
36
100
AcDbEntity
  8
0
 62
     3
100
AcDbCircle
 10
24.55684191924933
 20
-333.6975117046418
 30
0.0
 40
18.75
100
AcDbArc
 50
102.8285978400291
 51
136.1134596373711
  0
ARC
  5
492
330
36
100
AcDbEntity
  8
0
 62
     3
100
AcDbCircle
 10
24.55684191924933
 20
-333.6975117046418
 30
0.0
 40
18.75
100
AcDbArc
 50
139.2416817710046
 51
340.7583182289952
  0
ARC
  5
493
330
36
100
AcDbEntity
  8
0
 62
     3
100
AcDbCircle
 10
24.55684191924933
 20
-333.6975117046418
 30
0.0
 40
18.75
100
AcDbArc
 50
343.8865403626289
 51
34.91327933357401
  0
LINE
  5
628
330
36
100
AcDbEntity
  8
0
 62
     3
100
AcDbLine
 10
56.80684191924932
 20
-304.9475117046419
 30
0.0
 11
56.80684191924932
 21
-307.9475117046419
 31
0.0
  0
LINE
  5
629
330
36
100
AcDbEntity
  8
0
 62
     3
100
AcDbLine
 10
19.30684191924932
 20
-304.9475117046419
 30
0.0
 11
19.30684191924932
 21
-307.9475117046419
 31
0.0
  0
LINE
  5
62A
330
36
100
AcDbEntity
  8
0
  6
Continuous
100
AcDbLine
 10
-81.59981843925196
 20
-310.8274638393015
 30
0.0
 11
-81.59981843925196
 21
-302.1037259448307
 31
0.0
  0
LINE
  5
62B
330
36
100
AcDbEntity
  8
0
  6
Continuous
100
AcDbLine
 10
-109.5998184392519
 20
-310.8274638393015
 30
0.0
 11
-109.5998184392519
 21
-302.1037259448307
 31
0.0
  0
LINE
  5
62E
330
36
100
AcDbEntity
  8
0
  6
CENTER
100
AcDbLine
 10
38.05684191924934
 20
-304.9475117046419
 30
0.0
 11
7.162768608726081
 21
-260.8262024860733
 31
0.0
  0
LINE
  5
632
330
36
100
AcDbEntity
  8
0
 62
     3
100
AcDbLine
 10
18.55946454156767
 20
-258.6654212023138
 30
0.0
 11
6.272183877232816
 21
-267.2690677475797
 31
0.0
  0
LINE
  5
634
330
36
100
AcDbEntity
  8
0
  6
Continuous
 62
     3
100
AcDbLine
 10
7.995378263842803
 20
-287.4260293515999
 30
0.0
 11
5.373581438963603
 21
-289.2618312520347
 31
0.0
  0
LINE
  5
635
330
36
100
AcDbEntity
  8
0
  6
Continuous
 62
     3
100
AcDbLine
 10
10.86326044559805
 20
-291.5217895730448
 30
0.0
 11
8.241463620718855
 21
-293.3575914734795
 31
0.0
  0
LINE
  5
636
330
36
100
AcDbEntity
  8
0
  6
Continuous
 62
     3
100
AcDbLine
 10
4.513216784436986
 20
-288.0331031856012
 30
0.0
 11
0.8270325851365445
 21
-290.6141971491808
 31
0.0
  0
LINE
  5
637
330
36
100
AcDbEntity
  8
0
  6
Continuous
 62
     3
100
AcDbLine
 10
9.101828275245363
 20
-294.5863195399131
 30
0.0
 11
5.415644075944918
 21
-297.1674135034928
 31
0.0
  0
LINE
  5
638
330
36
100
AcDbEntity
  8
0
  6
Continuous
 62
     3
100
AcDbLine
 10
11.86837898489423
 20
-306.3828740017438
 30
0.0
 11
6.339102685943566
 21
-310.2545149471135
 31
0.0
  0
LINE
  5
639
330
36
100
AcDbEntity
  8
0
  6
Continuous
 62
     3
100
AcDbLine
 10
-5.625702323812766
 20
-281.3987366509297
 30
0.0
 11
-11.15497862276342
 21
-285.2703775962993
 31
0.0
  0
LINE
  5
63C
330
36
100
AcDbEntity
  8
0
  6
Continuous
 62
     3
100
AcDbLine
 10
9.101828275245363
 20
-294.5863195399131
 30
0.0
 11
4.513216784436986
 21
-288.0331031856012
 31
0.0
  0
LINE
  5
63D
330
36
100
AcDbEntity
  8
0
  6
Continuous
 62
     3
100
AcDbLine
 10
6.339102685943566
 20
-310.2545149471135
 30
0.0
 11
-11.15497862276342
 21
-285.2703775962993
 31
0.0
  0
LINE
  5
63E
330
36
100
AcDbEntity
  8
0
  6
Continuous
 62
     3
100
AcDbLine
 10
11.86837898489423
 20
-306.3828740017438
 30
0.0
 11
-5.625702323812766
 21
-281.3987366509297
 31
0.0
  0
LINE
  5
63F
330
36
100
AcDbEntity
  8
0
  6
Continuous
 62
     3
100
AcDbLine
 10
8.282676230956461
 20
-295.1598959762642
 30
0.0
 11
8.283526257700051
 21
-301.2631737249378
 31
0.0
  0
LINE
  5
640
330
36
100
AcDbEntity
  8
0
  6
Continuous
 62
     3
100
AcDbLine
 10
3.694064740147995
 20
-288.6066796219521
 30
0.0
 11
-2.040849596618683
 21
-286.5184369277359
 31
0.0
  0
LINE
  5
680
330
36
100
AcDbEntity
  8
0
 62
     3
100
AcDbLine
 10
11.54042935551208
 20
-292.4888870019664
 30
0.0
 11
7.318209353928777
 21
-286.4589319226786
 31
0.0
  0
LINE
  5
683
330
36
100
AcDbEntity
  8
0
 62
     3
100
AcDbLine
 10
9.891114197487381
 20
-283.1596336640597
 30
0.0
 11
6.962645639154311
 21
-285.2101694240148
 31
0.0
  0
LINE
  5
684
330
36
100
AcDbEntity
  8
0
 62
     3
100
AcDbLine
 10
8.37005230634875
 20
-287.220154450444
 30
0.0
 11
11.29852086468193
 21
-285.169618690489
 31
0.0
  0
LINE
  5
685
330
36
100
AcDbEntity
  8
0
 62
     3
100
AcDbLine
 10
11.18486564073773
 20
-291.2401245033026
 30
0.0
 11
14.1133341990708
 21
-289.1895887433475
 31
0.0
  0
LINE
  5
686
330
36
100
AcDbEntity
  8
0
 62
     3
100
AcDbLine
 10
12.59227230793217
 20
-293.2501095297318
 30
0.0
 11
15.52074086626523
 21
-291.1995737697769
 31
0.0
  0
ARC
  5
687
330
36
100
AcDbEntity
  8
0
 62
     3
100
AcDbCircle
 10
8.942860908435163
 20
-285.321338657249
 30
0.0
 40
1.983333333333328
100
AcDbArc
 50
176.7867892982618
 51
253.2132107017357
  0
ARC
  5
688
330
36
100
AcDbEntity
  8
0
 62
     3
100
AcDbCircle
 10
15.40571614451212
 20
-285.2891913787779
 30
0.0
 40
7.295833333333324
100
AcDbArc
 50
195.3471403683363
 51
234.6528596316662
  0
ARC
  5
689
330
36
100
AcDbEntity
  8
0
 62
     3
100
AcDbCircle
 10
13.16508091001858
 20
-291.3512937365368
 30
0.0
 40
1.983333333333261
100
AcDbArc
 50
176.7867892982618
 51
253.2132107017421
  0
LINE
  5
6DE
330
36
100
AcDbEntity
  8
0
100
AcDbLine
 10
54.22583428587892
 20
-352.4475117046419
 30
0.0
 11
-5.112150447380264
 21
-352.4475117046419
 31
0.0
  0
LINE
  5
6FB
330
36
100
AcDbEntity
  8
0
 62
     3
100
AcDbLine
 10
50.96653319540179
 20
-304.9475117046419
 30
0.0
 11
18.55946454156767
 21
-258.6654212023138
 31
0.0
  0
LINE
  5
6FD
330
36
100
AcDbEntity
  8
0
 62
     3
100
AcDbLine
 10
25.1471506430971
 20
-304.9475117046419
 30
0.0
 11
8.690892477418993
 21
-281.4455394068953
 31
0.0
  0
LINE
  5
737
330
36
100
AcDbEntity
  8
0
  6
CENTER
100
AcDbLine
 10
14.40439191354019
 20
-285.9903261534967
 30
0.0
 11
-5.796790031277144
 21
-300.1353460320035
 31
0.0
  0
LINE
  5
739
330
36
100
AcDbEntity
  8
0
  6
CENTER
100
AcDbLine
 10
24.55684191924933
 20
-317.8617577927433
 30
0.0
 11
24.55684191924933
 21
-349.5332656165402
 31
0.0
  0
LINE
  5
73A
330
36
100
AcDbEntity
  8
0
  6
CENTER
100
AcDbLine
 10
40.39259583114777
 20
-333.6975117046418
 30
0.0
 11
8.721088007350891
 21
-333.6975117046418
 31
0.0
  0
LINE
  5
73B
330
36
100
AcDbEntity
  8
0
  6
CENTER
100
AcDbLine
 10
-82.09981843925188
 20
-317.8617577927433
 30
0.0
 11
-82.09981843925188
 21
-349.5332656165402
 31
0.0
  0
LINE
  5
73C
330
36
100
AcDbEntity
  8
0
  6
CENTER
100
AcDbLine
 10
-66.26406452735352
 20
-333.6975117046418
 30
0.0
 11
-97.93557235115045
 21
-333.6975117046418
 31
0.0
  0
LINE
  5
73E
330
36
100
AcDbEntity
  8
0
100
AcDbLine
 10
6.272183877232816
 20
-267.2690677475797
 30
0.0
 11
-18.53156815768577
 21
-284.6368418983137
 31
0.0
  0
LINE
  5
74C
330
36
100
AcDbEntity
  8
0
 62
     3
100
AcDbLine
 10
13.72867754979645
 20
-277.9180443233364
 30
0.0
 11
8.690892477418993
 21
-281.4455394068953
 31
0.0
  0
LINE
  5
76A
330
36
100
AcDbEntity
  8
0
  6
CENTER
100
AcDbLine
 10
-95.59981843925198
 20
-315.0208187046419
 30
0.0
 11
-95.59981843925198
 21
-300.5904457046419
 31
0.0
  0
LINE
  5
76B
330
36
100
AcDbEntity
  8
0
  6
CENTER
100
AcDbLine
 10
-95.59981843925198
 20
-304.9475117046419
 30
0.0
 11
-126.4938917497752
 21
-260.8262024860733
 31
0.0
  0
LINE
  5
76C
330
36
100
AcDbEntity
  8
0
 62
     3
100
AcDbLine
 10
-107.9359332790535
 20
-305.7666637489307
 30
0.0
 11
-124.9657678810824
 21
-281.4455394068951
 31
0.0
  0
LINE
  5
76D
330
36
100
AcDbEntity
  8
0
 62
     3
100
AcDbLine
 10
-82.69012716309976
 20
-304.9475117046419
 30
0.0
 11
-115.0971958169337
 21
-258.6654212023137
 31
0.0
  0
LINE
  5
76F
330
36
100
AcDbEntity
  8
0
 62
     3
100
AcDbLine
 10
-115.0971958169337
 20
-258.6654212023137
 30
0.0
 11
-126.5653244369796
 21
-266.6954913112284
 31
0.0
  0
LINE
  5
770
330
36
100
AcDbEntity
  8
0
 62
     3
100
AcDbLine
 10
-119.927982808705
 20
-277.9180443233363
 30
0.0
 11
-124.9657678810824
 21
-281.4455394068951
 31
0.0
  0
LINE
  5
771
330
36
100
AcDbEntity
  8
0
  6
CENTER
100
AcDbLine
 10
-119.2522684449614
 20
-285.9903261534965
 30
0.0
 11
-139.4534503897787
 21
-300.1353460320034
 31
0.0
  0
LINE
  5
772
330
36
100
AcDbEntity
  8
0
  6
Continuous
 62
     3
100
AcDbLine
 10
-125.6612820946586
 20
-287.4260293515998
 30
0.0
 11
-128.2830789195378
 21
-289.2618312520345
 31
0.0
  0
LINE
  5
773
330
36
100
AcDbEntity
  8
0
  6
Continuous
 62
     3
100
AcDbLine
 10
-122.7933999129033
 20
-291.5217895730447
 30
0.0
 11
-125.4151967377827
 21
-293.3575914734794
 31
0.0
  0
LINE
  5
774
330
36
100
AcDbEntity
  8
0
  6
Continuous
 62
     3
100
AcDbLine
 10
-129.1434435740644
 20
-288.0331031856012
 30
0.0
 11
-132.8296277733649
 21
-290.6141971491806
 31
0.0
  0
LINE
  5
775
330
36
100
AcDbEntity
  8
0
  6
Continuous
 62
     3
100
AcDbLine
 10
-124.554832083256
 20
-294.5863195399129
 30
0.0
 11
-128.2410162825565
 21
-297.1674135034927
 31
0.0
  0
LINE
  5
776
330
36
100
AcDbEntity
  8
0
  6
Continuous
 62
     3
100
AcDbLine
 10
-121.7882813736073
 20
-306.3828740017437
 30
0.0
 11
-127.3175576725579
 21
-310.2545149471134
 31
0.0
  0
LINE
  5
777
330
36
100
AcDbEntity
  8
0
  6
Continuous
 62
     3
100
AcDbLine
 10
-139.2823626823143
 20
-281.3987366509296
 30
0.0
 11
-144.8116389812649
 21
-285.2703775962991
 31
0.0
  0
LINE
  5
778
330
36
100
AcDbEntity
  8
0
 62
     3
100
AcDbLine
 10
-122.1162310029892
 20
-292.4888870019663
 30
0.0
 11
-126.3384510045727
 21
-286.4589319226785
 31
0.0
  0
LINE
  5
779
330
36
100
AcDbEntity
  8
0
 62
     3
100
AcDbLine
 10
-123.765546161014
 20
-283.1596336640595
 30
0.0
 11
-126.6940147193471
 21
-285.2101694240147
 31
0.0
  0
LINE
  5
77A
330
36
100
AcDbEntity
  8
0
 62
     3
100
AcDbLine
 10
-125.2866080521528
 20
-287.2201544504439
 30
0.0
 11
-122.3581394938196
 21
-285.1696186904889
 31
0.0
  0
LINE
  5
77B
330
36
100
AcDbEntity
  8
0
 62
     3
100
AcDbLine
 10
-122.4717947177637
 20
-291.2401245033024
 30
0.0
 11
-119.5433261594306
 21
-289.1895887433474
 31
0.0
  0
LINE
  5
77C
330
36
100
AcDbEntity
  8
0
 62
     3
100
AcDbLine
 10
-121.0643880505693
 20
-293.2501095297317
 30
0.0
 11
-118.1359194922359
 21
-291.1995737697767
 31
0.0
  0
ARC
  5
77D
330
36
100
AcDbEntity
  8
0
 62
     3
100
AcDbCircle
 10
-124.7137994500662
 20
-285.3213386572489
 30
0.0
 40
1.983333333333328
100
AcDbArc
 50
176.7867892982618
 51
253.2132107017358
  0
ARC
  5
77E
330
36
100
AcDbEntity
  8
0
 62
     3
100
AcDbCircle
 10
-118.2509442139893
 20
-285.2891913787778
 30
0.0
 40
7.295833333333324
100
AcDbArc
 50
195.3471403683361
 51
234.6528596316662
  0
ARC
  5
77F
330
36
100
AcDbEntity
  8
0
 62
     3
100
AcDbCircle
 10
-120.491579448483
 20
-291.3512937365366
 30
0.0
 40
1.983333333333261
100
AcDbArc
 50
176.7867892982618
 51
253.213210701742
  0
LINE
  5
780
330
36
100
AcDbEntity
  8
0
  6
Continuous
 62
     3
100
AcDbLine
 10
-124.554832083256
 20
-294.5863195399129
 30
0.0
 11
-129.1434435740644
 21
-288.0331031856012
 31
0.0
  0
LINE
  5
781
330
36
100
AcDbEntity
  8
0
  6
Continuous
 62
     3
100
AcDbLine
 10
-127.3175576725579
 20
-310.2545149471134
 30
0.0
 11
-144.8116389812649
 21
-285.2703775962991
 31
0.0
  0
LINE
  5
782
330
36
100
AcDbEntity
  8
0
  6
Continuous
 62
     3
100
AcDbLine
 10
-121.7882813736073
 20
-306.3828740017437
 30
0.0
 11
-139.2823626823143
 21
-281.3987366509296
 31
0.0
  0
LINE
  5
783
330
36
100
AcDbEntity
  8
0
  6
Continuous
 62
     3
100
AcDbLine
 10
-125.3739841275452
 20
-295.1598959762641
 30
0.0
 11
-125.3731341008013
 21
-301.2631737249377
 31
0.0
  0
LINE
  5
784
330
36
100
AcDbEntity
  8
0
  6
Continuous
 62
     3
100
AcDbLine
 10
-129.9625956183534
 20
-288.606679621952
 30
0.0
 11
-135.6975099551201
 21
-286.5184369277358
 31
0.0
  0
LINE
  5
785
330
36
100
AcDbEntity
  8
0
100
AcDbLine
 10
-65.93082607262231
 20
-352.4475117046418
 30
0.0
 11
-125.2688108058816
 21
-352.4475117046418
 31
0.0
  0
LINE
  5
786
330
36
100
AcDbEntity
  8
0
100
AcDbLine
 10
-127.3844764812686
 20
-267.2690677475794
 30
0.0
 11
-152.1882285161872
 21
-284.6368418983137
 31
0.0
  0
CIRCLE
  5
B45
330
36
100
AcDbEntity
  8
0
 62
     3
100
AcDbCircle
 10
138.9243878883371
 20
-252.9083334789056
 30
0.0
 40
2.149999999999999
  0
CIRCLE
  5
B46
330
36
100
AcDbEntity
  8
0
 62
     3
100
AcDbCircle
 10
138.9243878883371
 20
-273.9083334789054
 30
0.0
 40
2.149999999999999
  0
CIRCLE
  5
B47
330
36
100
AcDbEntity
  8
0
 62
     3
100
AcDbCircle
 10
166.4243878883371
 20
-273.9083334789054
 30
0.0
 40
2.149999999999999
  0
CIRCLE
  5
B48
330
36
100
AcDbEntity
  8
0
 62
     3
100
AcDbCircle
 10
166.4243878883371
 20
-252.9083334789056
 30
0.0
 40
2.149999999999999
  0
LINE
  5
B4D
330
36
100
AcDbEntity
  8
0
  6
CENTER
100
AcDbLine
 10
172.1675918883371
 20
-263.4083334789054
 30
0.0
 11
133.4934628883371
 21
-263.4083334789054
 31
0.0
  0
LINE
  5
B4E
330
36
100
AcDbEntity
  8
0
  6
CENTER
100
AcDbLine
 10
152.6743878883371
 20
-279.5143194789055
 30
0.0
 11
152.6743878883371
 21
-247.1993694789055
 31
0.0
  0
LINE
  5
B50
330
36
100
AcDbEntity
  8
0
  6
CENTER
100
AcDbLine
 10
136.5481788883371
 20
-252.9083334789056
 30
0.0
 11
169.1655728883371
 21
-252.9083334789056
 31
0.0
  0
LINE
  5
B51
330
36
100
AcDbEntity
  8
0
  6
CENTER
100
AcDbLine
 10
166.4243878883371
 20
-276.6124694789054
 30
0.0
 11
166.4243878883371
 21
-250.5899194789054
 31
0.0
  0
LINE
  5
B53
330
36
100
AcDbEntity
  8
0
  6
CENTER
100
AcDbLine
 10
136.5481788883371
 20
-273.9083334789054
 30
0.0
 11
168.9155728883371
 21
-273.9083334789054
 31
0.0
  0
LINE
  5
B55
330
36
100
AcDbEntity
  8
0
  6
CENTER
100
AcDbLine
 10
138.9243878883371
 20
-250.5899194789054
 30
0.0
 11
138.9243878883371
 21
-276.6124694789054
 31
0.0
  0
ARC
  5
B60
330
36
100
AcDbEntity
  8
0
  6
PHANTOM
 62
     7
100
AcDbCircle
 10
154.2743878883372
 20
-263.4083334789054
 30
0.0
 40
9.5
100
AcDbArc
 50
270.0
 51
90.0
  0
LINE
  5
B61
330
36
100
AcDbEntity
  8
0
  6
PHANTOM
 62
     7
100
AcDbLine
 10
152.6743878883371
 20
-272.9083334789054
 30
0.0
 11
154.2743878883372
 21
-272.9083334789054
 31
0.0
  0
ARC
  5
B62
330
36
100
AcDbEntity
  8
0
  6
PHANTOM
 62
     7
100
AcDbCircle
 10
152.6743878883371
 20
-263.4083334789054
 30
0.0
 40
9.5
100
AcDbArc
 50
90.0
 51
270.0
  0
LINE
  5
B63
330
36
100
AcDbEntity
  8
0
  6
PHANTOM
 62
     7
100
AcDbLine
 10
152.6743878883371
 20
-253.9083334789054
 30
0.0
 11
154.2743878883372
 21
-253.9083334789054
 31
0.0
  0
LINE
  5
BE9
330
36
100
AcDbEntity
  8
0
 62
     3
100
AcDbLine
 10
167.4243878883369
 20
-248.4083334789054
 30
0.0
 11
137.9243878883369
 21
-248.4083334789053
 31
0.0
  0
LINE
  5
BEA
330
36
100
AcDbEntity
  8
0
 62
     3
100
AcDbLine
 10
171.4243878883369
 20
-252.4083334789054
 30
0.0
 11
171.4243878883371
 21
-274.4083334789053
 31
0.0
  0
LINE
  5
BEB
330
36
100
AcDbEntity
  8
0
 62
     3
100
AcDbLine
 10
167.4243878883371
 20
-278.4083334789053
 30
0.0
 11
137.9243878883371
 21
-278.4083334789055
 31
0.0
  0
LINE
  5
BEC
330
36
100
AcDbEntity
  8
0
 62
     3
100
AcDbLine
 10
133.9243878883371
 20
-274.4083334789054
 30
0.0
 11
133.9243878883369
 21
-252.4083334789053
 31
0.0
  0
ARC
  5
BED
330
36
100
AcDbEntity
  8
0
 62
     3
100
AcDbCircle
 10
167.4243878883369
 20
-252.4083334789054
 30
0.0
 40
4.0
100
AcDbArc
 50
0.0
 51
90.0
  0
ARC
  5
BEE
330
36
100
AcDbEntity
  8
0
 62
     3
100
AcDbCircle
 10
137.9243878883369
 20
-252.4083334789053
 30
0.0
 40
4.0
100
AcDbArc
 50
90.0
 51
180.0
  0
ARC
  5
BEF
330
36
100
AcDbEntity
  8
0
 62
     3
100
AcDbCircle
 10
167.4243878883371
 20
-274.4083334789053
 30
0.0
 40
4.0
100
AcDbArc
 50
270.0
 51
0.0
  0
ARC
  5
BF0
330
36
100
AcDbEntity
  8
0
 62
     3
100
AcDbCircle
 10
137.9243878883371
 20
-274.4083334789054
 30
0.0
 40
4.0
100
AcDbArc
 50
180.0
 51
270.0
  0
CIRCLE
  5
CDD
330
36
100
AcDbEntity
  8
0
100
AcDbCircle
 10
-97.79711417731233
 20
-242.8344812220059
 30
0.0
 40
5.0
  0
TEXT
  5
CDE
330
36
100
AcDbEntity
  8
0
 62
     4
100
AcDbText
 10
-98.78108041732412
 20
-245.6934790061695
 30
0.0
 40
6.299999999999998
  1
1
  7
高6.3
100
AcDbText
  0
CIRCLE
  5
CDF
330
36
100
AcDbEntity
  8
0
100
AcDbCircle
 10
22.13877848714105
 20
-240.9853463404401
 30
0.0
 40
5.0
  0
TEXT
  5
CE0
330
36
100
AcDbEntity
  8
0
 62
     4
100
AcDbText
 10
20.1058628877538
 20
-243.7842382453478
 30
0.0
 40
6.299999999999998
  1
2
  7
高6.3
100
AcDbText
  0
TEXT
  5
CE3
330
36
100
AcDbEntity
  8
0
 62
     7
100
AcDbText
 10
124.0969381647604
 20
-189.5195211920179
 30
0.0
 40
2.5
  1
07.6.26
  7
高2.5
100
AcDbText
  0
TEXT
  5
CE4
330
36
100
AcDbEntity
  8
0
 62
     7
100
AcDbText
 10
142.0969381647604
 20
-189.5195211920179
 30
0.0
 40
2.5
  1
パイプ角度変更65\U+00B0→55\U+00B0
  7
高2.5
100
AcDbText
  0
TEXT
  5
CE5
330
36
100
AcDbEntity
  8
0
 62
     7
100
AcDbText
 10
186.0969381647603
 20
-189.5195211920179
 30
0.0
 40
2.5
  1
牧田
  7
高2.5
100
AcDbText
  0
TEXT
  5
DB5
330
36
100
AcDbEntity
  8
0
 62
     3
100
AcDbText
 10
134.3240272434314
 20
-437.6181024358687
 30
0.0
 40
3.2
  1
1/2
  7
高3.2
100
AcDbText
  0
TEXT
  5
DB6
330
36
100
AcDbEntity
  8
0
 62
     3
100
AcDbText
 10
163.4916041680281
 20
-438.2382002984258
 30
0.0
 40
3.2
  1
2006.7.4
  7
高3.2
100
AcDbText
  0
TEXT
  5
DB7
330
36
100
AcDbEntity
  8
0
 62
     3
100
AcDbText
 10
103.7321031607298
 20
-424.0168827674137
 30
0.0
 40
4.5
  1
CA-75
  7
高4.5
100
AcDbText
  0
TEXT
  5
DB8
330
36
100
AcDbEntity
  8
0
 62
     3
100
AcDbText
 10
103.7321031607298
 20
-416.4666881099598
 30
0.0
 40
4.5
  1
三脚用キャスター
  7
高4.5
100
AcDbText
  0
TEXT
  5
DB9
330
36
100
AcDbEntity
  8
0
 62
     3
100
AcDbText
 10
149.8818342393047
 20
-447.5431606850957
 30
0.0
 40
6.299999999999998
  1
CA-75
  7
高6.3
100
AcDbText
  0
LINE
  5
DBB
330
36
100
AcDbEntity
  8
0
 62
     7
100
AcDbLine
 10
-191.4030618352394
 20
-444.0195211920178
 30
0.0
 11
-106.8721479082194
 21
-444.0195211920178
 31
0.0
  0
LINE
  5
DBC
330
36
100
AcDbEntity
  8
0
 62
     7
100
AcDbLine
 10
-191.4030618352394
 20
-439.0195211920179
 30
0.0
 11
-106.8721479082194
 21
-439.0195211920178
 31
0.0
  0
LINE
  5
DBD
330
36
100
AcDbEntity
  8
0
 62
     3
100
AcDbLine
 10
-191.4030618352394
 20
-434.0195211920177
 30
0.0
 11
-106.8721479082194
 21
-434.0195211920177
 31
0.0
  0
LINE
  5
DC1
330
36
100
AcDbEntity
  8
0
 62
     7
100
AcDbLine
 10
-114.2191217395527
 20
-434.0195211920177
 30
0.0
 11
-114.2191217395527
 21
-449.0195211920179
 31
0.0
  0
LINE
  5
DC2
330
36
100
AcDbEntity
  8
0
 62
     3
100
AcDbLine
 10
-106.8721479082194
 20
-434.0195211920177
 30
0.0
 11
-106.8721479082194
 21
-449.0195211920179
 31
0.0
  0
TEXT
  5
DC3
330
36
100
AcDbEntity
  8
0
 62
     3
100
AcDbText
 10
-189.9030618352394
 20
-448.5195211920178
 30
0.0
 40
3.2
  1
No.
 41
0.8
  7
高3.2
100
AcDbText
  0
TEXT
  5
DC5
330
36
100
AcDbEntity
  8
0
 62
     3
100
AcDbText
 10
-182.0428547130432
 20
-448.5195211920178
 30
0.0
 40
3.2
  1
部品名
 41
0.8
  7
高3.2
100
AcDbText
  0
TEXT
  5
DC6
330
36
100
AcDbEntity
  8
0
 62
     3
100
AcDbText
 10
-145.2355144347256
 20
-448.5195211920178
 30
0.0
 40
3.2
  1
備考
 41
0.8
  7
高3.2
100
AcDbText
  0
TEXT
  5
DC7
330
36
100
AcDbEntity
  8
0
 62
     3
100
AcDbText
 10
-113.5531327477254
 20
-448.5195211920178
 30
0.0
 40
3.2
  1
個数
 41
0.8
  7
高3.2
100
AcDbText
  0
LINE
  5
DCD
330
36
100
AcDbEntity
  8
0
 62
     7
100
AcDbLine
 10
-183.5428547130431
 20
-434.0195211920177
 30
0.0
 11
-183.5428547130431
 21
-449.0195211920179
 31
0.0
  0
LINE
  5
DCE
330
36
100
AcDbEntity
  8
0
 62
     7
100
AcDbLine
 10
-146.7355144347257
 20
-434.0195211920177
 30
0.0
 11
-146.7355144347257
 21
-449.0195211920179
 31
0.0
  0
TEXT
  5
DD0
330
36
100
AcDbEntity
  8
0
 62
     3
100
AcDbText
 10
-182.0428547130432
 20
-443.5195211920179
 30
0.0
 40
3.2
  1
CA-75固定キャスター
 41
0.8
  7
高3.2
100
AcDbText
  0
TEXT
  5
DD1
330
36
100
AcDbEntity
  8
0
 62
     3
100
AcDbText
 10
-145.2355144347256
 20
-443.5195211920179
 30
0.0
 40
3.2
  1
%%C75　ナイロン車輪
 41
0.8
  7
高3.2
100
AcDbText
  0
TEXT
  5
DD2
330
36
100
AcDbEntity
  8
0
 62
     3
100
AcDbText
 10
-110.7185720095178
 20
-443.5195211920179
 30
0.0
 40
3.2
  1
1
 41
0.8
  7
高3.2
100
AcDbText
  0
TEXT
  5
DD4
330
36
100
AcDbEntity
  8
0
 62
     3
100
AcDbText
 10
-182.0428547130432
 20
-438.5195211920179
 30
0.0
 40
3.2
  1
CA-75自在キャスター
 41
0.8
  7
高3.2
100
AcDbText
  0
TEXT
  5
DD5
330
36
100
AcDbEntity
  8
0
 62
     3
100
AcDbText
 10
-145.2355144347256
 20
-438.5195211920179
 30
0.0
 40
3.2
  1
%%C75　ナイロン車輪
 41
0.8
  7
高3.2
100
AcDbText
  0
TEXT
  5
DD6
330
36
100
AcDbEntity
  8
0
 62
     3
100
AcDbText
 10
-110.7185720095178
 20
-438.5195211920179
 30
0.0
 40
3.2
  1
2
 41
0.8
  7
高3.2
100
AcDbText
  0
TEXT
  5
DD7
330
36
100
AcDbEntity
  8
0
 62
     7
100
AcDbText
 10
124.0969381647604
 20
-194.5195211920179
 30
0.0
 40
2.5
  1
10.11.19
  7
高2.5
100
AcDbText
  0
TEXT
  5
DD8
330
36
100
AcDbEntity
  8
0
 62
     7
100
AcDbText
 10
142.0969381647604
 20
-194.5195211920179
 30
0.0
 40
2.5
  1
1個固定キャスターに変更
  7
高2.5
100
AcDbText
  0
TEXT
  5
DD9
330
36
100
AcDbEntity
  8
0
 62
     7
100
AcDbText
 10
186.0969381647603
 20
-194.5195211920179
 30
0.0
 40
2.5
  1
今村
  7
高2.5
100
AcDbText
  0
TEXT
  5
DDA
330
36
100
AcDbEntity
  8
0
 62
     3
100
AcDbText
 10
-187.5902541253394
 20
-443.5195211920179
 30
0.0
 40
3.2
  1
1
 41
0.8
  7
高3.2
100
AcDbText
  0
TEXT
  5
DDB
330
36
100
AcDbEntity
  8
0
 62
     3
100
AcDbText
 10
-187.5902541253394
 20
-438.5195211920179
 30
0.0
 40
3.2
  1
2
 41
0.8
  7
高3.2
100
AcDbText
  0
LINE
  5
1253
330
36
100
AcDbEntity
  8
0
 62
     3
100
AcDbLine
 10
198.2963016447606
 20
-403.0195211920179
 30
0.0
 11
146.5969381647606
 21
-403.0195211920179
 31
0.0
  0
LINE
  5
12B5
330
36
100
AcDbEntity
  8
0
 62
     3
100
AcDbLine
 10
-76.84981843925196
 20
-304.9475117046419
 30
0.0
 11
-76.84981843925196
 21
-307.9475117046419
 31
0.0
  0
LINE
  5
12B6
330
36
100
AcDbEntity
  8
0
 62
     3
100
AcDbLine
 10
-114.3498184392519
 20
-304.9475117046419
 30
0.0
 11
-114.3498184392519
 21
-307.9475117046419
 31
0.0
  0
LINE
  5
12B9
330
36
100
AcDbEntity
  8
0
 62
     3
100
AcDbLine
 10
20.70932191924931
 20
-311.1469467046419
 30
0.0
 11
19.63612930123988
 21
-325.6603845273227
 31
0.0
  0
LINE
  5
12BB
330
36
100
AcDbEntity
  8
0
 62
     3
100
AcDbLine
 10
45.91855293949417
 20
-315.3120493897798
 30
0.0
 11
32.24650312364158
 21
-332.7931691328816
 31
0.0
  0
CIRCLE
  5
1331
330
36
100
AcDbEntity
  8
0
 62
     3
100
AcDbCircle
 10
24.55684191924933
 20
-333.6975117046418
 30
0.0
 40
3.0
  0
ARC
  5
1332
330
36
100
AcDbEntity
  8
0
 62
     7
100
AcDbCircle
 10
24.55684191924933
 20
-333.6975117046418
 30
0.0
 40
7.0
100
AcDbArc
 50
22.34153799379214
 51
97.65846200620771
  0
LINE
  5
1335
330
36
100
AcDbEntity
  8
0
 62
     7
100
AcDbLine
 10
19.9576293696492
 20
-327.0007032167425
 30
0.0
 11
10.28537194923722
 21
-321.4164227913963
 31
0.0
  0
LINE
  5
1337
330
36
100
AcDbEntity
  8
0
 62
     7
100
AcDbLine
 10
42.76132459115365
 20
-340.1664227913963
 30
0.0
 11
43.26132459115363
 21
-339.3003973876119
 31
0.0
  0
LINE
  5
1338
330
36
100
AcDbEntity
  8
0
 62
     7
100
AcDbLine
 10
10.28537194923723
 20
-321.4164227913963
 30
0.0
 11
10.78537194923722
 21
-320.5503973876119
 31
0.0
  0
ARC
  5
1339
330
36
100
AcDbEntity
  8
0
 62
     7
100
AcDbCircle
 10
24.55684191924933
 20
-333.6975117046418
 30
0.0
 40
6.0
100
AcDbArc
 50
22.34153799379186
 51
97.65846200620771
  0
LINE
  5
133A
330
36
100
AcDbEntity
  8
0
 62
     7
100
AcDbLine
 10
20.45762936964921
 20
-326.134677812958
 30
0.0
 11
10.78537194923722
 21
-320.5503973876119
 31
0.0
  0
LINE
  5
133B
330
36
100
AcDbEntity
  8
0
 62
     7
100
AcDbLine
 10
33.15605446884945
 20
-333.4661169622656
 30
0.0
 11
43.26132459115366
 21
-339.3003973876119
 31
0.0
  0
LINE
  5
133C
330
36
100
AcDbEntity
  8
0
 62
     7
100
AcDbLine
 10
32.65605446884946
 20
-334.33214236605
 30
0.0
 11
42.76132459115368
 21
-340.1664227913963
 31
0.0
  0
ARC
  5
133D
330
36
100
AcDbEntity
  8
0
 62
     7
100
AcDbCircle
 10
35.65605446884948
 20
-329.1359899433434
 30
0.0
 40
5.0
100
AcDbArc
 50
202.3415379937921
 51
239.9999999999998
  0
ARC
  5
133E
330
36
100
AcDbEntity
  8
0
 62
     7
100
AcDbCircle
 10
22.95762936964922
 20
-321.8045507940358
 30
0.0
 40
5.0
100
AcDbArc
 50
239.9999999999999
 51
277.6584620062076
  0
ARC
  5
133F
330
36
100
AcDbEntity
  8
0
 62
     7
100
AcDbCircle
 10
35.65605446884948
 20
-329.1359899433434
 30
0.0
 40
6.0
100
AcDbArc
 50
202.3415379937921
 51
239.9999999999998
  0
ARC
  5
1340
330
36
100
AcDbEntity
  8
0
 62
     7
100
AcDbCircle
 10
22.95762936964922
 20
-321.8045507940358
 30
0.0
 40
6.0
100
AcDbArc
 50
239.9999999999999
 51
277.6584620062076
  0
ARC
  5
1343
330
36
100
AcDbEntity
  8
0
 62
     7
100
AcDbCircle
 10
29.83664984879821
 20
-322.552616116458
 30
0.0
 40
17.81974755089916
100
AcDbArc
 50
179.5620937573619
 51
300.4379062426382
  0
LINE
  5
1346
330
36
100
AcDbEntity
  8
0
 62
     7
100
AcDbLine
 10
20.79370219843494
 20
-329.2154608970729
 30
0.0
 11
23.6203502461456
 21
-330.847426908323
 31
0.0
  0
LINE
  5
1347
330
36
100
AcDbEntity
  8
0
 62
     7
100
AcDbLine
 10
18.79370219843493
 20
-332.6795625122107
 30
0.0
 11
21.62035024614562
 21
-334.3115285234607
 31
0.0
  0
ARC
  5
1348
330
36
100
AcDbEntity
  8
0
 62
     7
100
AcDbCircle
 10
19.79370219843494
 20
-330.9475117046418
 30
0.0
 40
2.000000000000002
100
AcDbArc
 50
60.00000000000106
 51
240.0000000000018
  0
ARC
  5
1349
330
36
100
AcDbEntity
  8
0
 62
     7
100
AcDbCircle
 10
29.31998164006371
 20
-336.4475117046417
 30
0.0
 40
1.999999999999945
100
AcDbArc
 50
240.0000000000002
 51
60.0000000000001
  0
LINE
  5
138C
330
36
100
AcDbEntity
  8
0
 62
     7
100
AcDbLine
 10
27.49333359235305
 20
-333.0834948858229
 30
0.0
 11
30.31998164006367
 21
-334.7154608970728
 31
0.0
  0
LINE
  5
138D
330
36
100
AcDbEntity
  8
0
 62
     7
100
AcDbLine
 10
25.49333359235307
 20
-336.5475965009605
 30
0.0
 11
28.31998164006366
 21
-338.1795625122106
 31
0.0
  0
LINE
  5
1394
330
36
100
AcDbEntity
  8
0
 62
     3
100
AcDbLine
 10
-106.6978984392519
 20
-310.4475117046419
 30
0.0
 11
-84.50173843925197
 21
-310.4475117046419
 31
0.0
  0
ARC
  5
1395
330
36
100
AcDbEntity
  8
0
 62
     3
100
AcDbCircle
 10
-106.6978984392519
 20
-312.4475117046419
 30
0.0
 40
2.0
100
AcDbArc
 50
90.0
 51
180.0
  0
ARC
  5
1396
330
36
100
AcDbEntity
  8
0
 62
     3
100
AcDbCircle
 10
-84.50173843925197
 20
-312.4475117046419
 30
0.0
 40
2.0
100
AcDbArc
 50
40.56291699999593
 51
90.0
  0
LINE
  5
1397
330
36
100
AcDbEntity
  8
0
 62
     3
100
AcDbLine
 10
-106.6123214392519
 20
-313.7762957046419
 30
0.0
 11
-108.740533439252
 21
-313.7762957046419
 31
0.0
  0
ARC
  5
1398
330
36
100
AcDbEntity
  8
0
 62
     3
100
AcDbCircle
 10
-106.6123214392519
 20
-317.7762957046418
 30
0.0
 40
4.0
100
AcDbArc
 50
38.0290970461836
 51
90.0
  0
LINE
  5
1399
330
36
100
AcDbEntity
  8
0
 62
     3
100
AcDbLine
 10
-108.6969164392519
 20
-312.3848487046418
 30
0.0
 11
-108.740533439252
 21
-313.7762957046419
 31
0.0
  0
LINE
  5
139A
330
36
100
AcDbEntity
  8
0
 62
     3
100
AcDbLine
 10
-78.25229843925196
 20
-311.1469467046419
 30
0.0
 11
-82.98235343925194
 21
-311.1469467046419
 31
0.0
  0
ARC
  5
139B
330
36
100
AcDbEntity
  8
0
 62
     3
100
AcDbCircle
 10
-82.09981843925197
 20
-333.6975117046418
 30
0.0
 40
18.75
100
AcDbArc
 50
145.0867206664258
 51
77.17140215997154
  0
LINE
  5
139D
330
36
100
AcDbEntity
  8
0
 62
     3
100
AcDbLine
 10
-78.25229843925196
 20
-311.1469467046419
 30
0.0
 11
-76.61479358011934
 21
-333.291922879972
 31
0.0
  0
LINE
  5
139E
330
36
100
AcDbEntity
  8
0
 62
     3
100
AcDbLine
 10
-103.4615294594968
 20
-315.3120493897798
 30
0.0
 11
-86.43215741141522
 21
-337.085850387577
 31
0.0
  0
LINE
  5
139F
330
36
100
AcDbEntity
  8
0
 62
     3
100
AcDbLine
 10
-107.004340439252
 20
-309.676662704642
 30
0.0
 11
-84.19529643925192
 21
-309.676662704642
 31
0.0
  0
ARC
  5
13A0
330
36
100
AcDbEntity
  8
0
 62
     3
100
AcDbCircle
 10
-84.50173843925197
 20
-307.700278704642
 30
0.0
 40
2.0
100
AcDbArc
 50
278.8136150169542
 51
352.8991325783831
  0
ARC
  5
13A1
330
36
100
AcDbEntity
  8
0
 62
     3
100
AcDbCircle
 10
-106.6978984392519
 20
-307.700278704642
 30
0.0
 40
2.0
100
AcDbArc
 50
187.1008460000015
 51
261.1863849830391
  0
CIRCLE
  5
13A3
330
36
100
AcDbEntity
  8
0
 62
     3
100
AcDbCircle
 10
-82.09981843925199
 20
-333.6975117046418
 30
0.0
 40
3.0
  0
ARC
  5
13A4
330
36
100
AcDbEntity
  8
0
 62
     3
100
AcDbCircle
 10
-82.09981843925199
 20
-333.6975117046417
 30
0.0
 40
5.5
100
AcDbArc
 50
218.0290970461836
 51
4.229025780212819
  0
TEXT
  5
1499
330
36
100
AcDbEntity
  8
0
 62
     7
100
AcDbText
 10
124.0969381647604
 20
-199.5195211920179
 30
0.0
 40
2.5
  1
12.03.19
  7
高2.5
100
AcDbText
  0
TEXT
  5
149A
330
36
100
AcDbEntity
  8
0
 62
     7
100
AcDbText
 10
142.0969381647604
 20
-199.5195211920179
 30
0.0
 40
2.5
  1
寸法形状見直し修正
  7
高2.5
100
AcDbText
  0
TEXT
  5
149B
330
36
100
AcDbEntity
  8
0
 62
     7
100
AcDbText
 10
186.0969381647603
 20
-199.5195211920179
 30
0.0
 40
2.5
  1
今村
  7
高2.5
100
AcDbText
  0
LINE
  5
18BD
330
36
100
AcDbEntity
  8
0
 62
     3
100
AcDbLine
 10
146.5969381647606
 20
-409.0195211920179
 30
0.0
 11
146.5969381647606
 21
-403.0195211920179
 31
0.0
  0
LINE
  5
18BE
330
36
100
AcDbEntity
  8
0
 62
     3
100
AcDbLine
 10
172.5969381647605
 20
-409.0195211920177
 30
0.0
 11
172.5969381647605
 21
-403.0195211920179
 31
0.0
  0
LINE
  5
199F
330
36
100
AcDbEntity
  8
0
 62
     3
100
AcDbLine
 10
13.72867754979645
 20
-277.9180443233364
 30
0.0
 11
6.272183877232816
 21
-267.2690677475797
 31
0.0
  0
LINE
  5
19A0
330
36
100
AcDbEntity
  8
0
 62
     3
100
AcDbLine
 10
-119.927982808705
 20
-277.9180443233363
 30
0.0
 11
-126.8109000449175
 21
-268.0882197918684
 31
0.0
  0
ARC
  5
19A1
330
36
100
AcDbEntity
  8
0
 62
     3
100
AcDbCircle
 10
-125.9917480006285
 20
-267.5146433555174
 30
0.0
 40
1.0
100
AcDbArc
 50
125.0000000000002
 51
214.9999999999998
  0
ARC
  5
19A2
330
36
100
AcDbEntity
  8
0
 62
     3
100
AcDbCircle
 10
7.664912357872853
 20
-267.5146433555175
 30
0.0
 40
1.0
100
AcDbArc
 50
125.0000000000001
 51
214.9999999999999
  0
LINE
  5
19A9
330
36
100
AcDbEntity
  8
0
100
AcDbLine
 10
-127.1904163392113
 20
-267.5462143526466
 30
0.0
 11
-127.3844764812686
 21
-267.2690677475794
 31
0.0
  0
LINE
  5
19AA
330
36
100
AcDbEntity
  8
0
100
AcDbLine
 10
-126.9535089162217
 20
-266.9673010098096
 30
0.0
 11
-127.3844764812686
 21
-267.2690677475794
 31
0.0
  0
LINE
  5
1B26
330
36
100
AcDbEntity
  8
0
 62
     3
100
AcDbLine
 10
-191.4030618352394
 20
-175.0195211920179
 30
0.0
 11
-191.4030618352394
 21
-449.0195211920179
 31
0.0
  0
LINE
  5
1B27
330
36
100
AcDbEntity
  8
0
 62
     3
100
AcDbLine
 10
198.5969381647606
 20
-449.0195211920179
 30
0.0
 11
198.5969381647606
 21
-175.0195211920179
 31
0.0
  0
LINE
  5
1B28
330
36
100
AcDbEntity
  8
0
 62
     3
100
AcDbLine
 10
-191.4030618352394
 20
-449.0195211920179
 30
0.0
 11
198.5969381647606
 21
-449.0195211920179
 31
0.0
  0
LINE
  5
1B29
330
36
100
AcDbEntity
  8
0
 62
     3
100
AcDbLine
 10
27.25366334476064
 20
-175.0195211920179
 30
0.0
 11
198.5969381647604
 21
-175.0195211920179
 31
0.0
  0
LINE
  5
1B2A
330
36
100
AcDbEntity
  8
0
 62
     3
100
AcDbLine
 10
-21.30037132523932
 20
-175.0195211920179
 30
0.0
 11
-191.4030618352394
 21
-175.0195211920179
 31
0.0
  0
LINE
  5
1B2B
330
36
100
AcDbEntity
  8
0
 62
     3
100
AcDbLine
 10
-203.8049856252395
 20
-308.5748822420179
 30
0.0
 11
-206.4030618352394
 21
-310.0748822420178
 31
0.0
  0
LINE
  5
1B2C
330
36
100
AcDbEntity
  8
0
 62
     3
100
AcDbLine
 10
-203.8049856252395
 20
-308.5748822420179
 30
0.0
 11
-206.4030618352394
 21
-307.0748822420179
 31
0.0
  0
LINE
  5
1B2D
330
36
100
AcDbEntity
  8
0
 62
     3
100
AcDbLine
 10
-206.4030618352394
 20
-310.0748822420178
 30
0.0
 11
-206.4030618352394
 21
-307.0748822420179
 31
0.0
  0
LINE
  5
1B30
330
36
100
AcDbEntity
  8
0
 62
     3
100
AcDbLine
 10
146.5969381647606
 20
-449.0195211920179
 30
0.0
 11
146.5969381647606
 21
-409.0195211920179
 31
0.0
  0
LINE
  5
1B31
330
36
100
AcDbEntity
  8
0
 62
     3
100
AcDbLine
 10
159.5969381647607
 20
-439.0195211920179
 30
0.0
 11
159.5969381647607
 21
-411.0195211920179
 31
0.0
  0
LINE
  5
1B32
330
36
100
AcDbEntity
  8
0
 62
     3
100
AcDbLine
 10
119.5969381647606
 20
-439.0195211920179
 30
0.0
 11
119.5969381647606
 21
-425.0195211920178
 31
0.0
  0
LINE
  5
1B33
330
36
100
AcDbEntity
  8
0
 62
     3
100
AcDbLine
 10
129.5969381647607
 20
-425.0195211920178
 30
0.0
 11
129.5969381647607
 21
-449.0195211920179
 31
0.0
  0
LINE
  5
1B34
330
36
100
AcDbEntity
  8
0
 62
     3
100
AcDbLine
 10
100.5969381647606
 20
-409.0195211920179
 30
0.0
 11
100.5969381647606
 21
-432.0195211920179
 31
0.0
  0
LINE
  5
1B35
330
36
100
AcDbEntity
  8
0
 62
     3
100
AcDbLine
 10
159.5969381647607
 20
-411.0195211920179
 30
0.0
 11
159.5969381647607
 21
-409.0195211920179
 31
0.0
  0
LINE
  5
1B36
330
36
100
AcDbEntity
  8
0
 62
     3
100
AcDbLine
 10
172.5969381647606
 20
-432.0195211920179
 30
0.0
 11
172.5969381647606
 21
-409.0195211920179
 31
0.0
  0
LINE
  5
1B37
330
36
100
AcDbEntity
  8
0
 62
     3
100
AcDbLine
 10
198.5969381647606
 20
-409.0195211920179
 30
0.0
 11
87.35150352476068
 21
-409.0195211920177
 31
0.0
  0
LINE
  5
1B38
330
36
100
AcDbEntity
  8
0
 62
     3
100
AcDbLine
 10
198.5969381647606
 20
-418.0195211920179
 30
0.0
 11
87.35150352476068
 21
-418.0195211920179
 31
0.0
  0
LINE
  5
1B39
330
36
100
AcDbEntity
  8
0
 62
     3
100
AcDbLine
 10
198.5969381647606
 20
-432.0195211920179
 30
0.0
 11
87.35150352476068
 21
-432.0195211920179
 31
0.0
  0
LINE
  5
1B3A
330
36
100
AcDbEntity
  8
0
 62
     3
100
AcDbLine
 10
198.5969381647606
 20
-439.0195211920179
 30
0.0
 11
87.29349566476058
 21
-439.0195211920179
 31
0.0
  0
LINE
  5
1B3B
330
36
100
AcDbEntity
  8
0
 62
     3
100
AcDbLine
 10
185.5969381647607
 20
-432.0195211920179
 30
0.0
 11
185.5969381647607
 21
-409.0195211920179
 31
0.0
  0
LINE
  5
1B3C
330
36
100
AcDbEntity
  8
0
 62
     3
100
AcDbLine
 10
87.35150352476068
 20
-409.0195211920177
 30
0.0
 11
87.35150352476068
 21
-449.0195211920179
 31
0.0
  0
LINE
  5
1B3D
330
36
100
AcDbEntity
  8
0
 62
     3
100
AcDbLine
 10
146.5969381647606
 20
-425.0195211920178
 30
0.0
 11
87.35150352476068
 21
-425.0195211920178
 31
0.0
  0
LINE
  5
1B3E
330
36
100
AcDbEntity
  8
0
 62
     3
100
AcDbLine
 10
129.8752630947605
 20
-444.1866599320179
 30
0.0
 11
146.5969381647606
 21
-444.1866599320179
 31
0.0
  0
TEXT
  5
1B42
330
36
100
AcDbEntity
  8
0
 62
     3
100
AcDbText
 10
188.6625272582346
 20
-412.5058290933142
 30
0.0
 40
2.0
  1
DEF
  7
高2
100
AcDbText
  0
TEXT
  5
1B43
330
36
100
AcDbEntity
  8
0
 62
     3
100
AcDbText
 10
174.7234289045264
 20
-412.5058290933144
 30
0.0
 40
2.0
  1
DESN
  7
高2
100
AcDbText
  0
TEXT
  5
1B44
330
36
100
AcDbEntity
  8
0
 62
     3
100
AcDbText
 10
148.4690619645263
 20
-412.5058290933142
 30
0.0
 40
2.0
  1
APPD
  7
高2
100
AcDbText
  0
TEXT
  5
1B45
330
36
100
AcDbEntity
  8
0
 62
     3
100
AcDbText
 10
161.5817980647606
 20
-412.5058290933142
 30
0.0
 40
2.0
  1
CHCK
  7
高2
100
AcDbText
  0
TEXT
  5
1B46
330
36
100
AcDbEntity
  8
0
 62
     3
100
AcDbText
 10
120.5241038039133
 20
-434.8511223687872
 30
0.0
 40
2.0
  1
SCALE
 41
0.8
  7
高2
100
AcDbText
  0
TEXT
  5
1B47
330
36
100
AcDbEntity
  8
0
 62
     3
100
AcDbText
 10
89.03608222780681
 20
-434.8511223687872
 30
0.0
 40
2.0
  1
3AD　ANGLE
 41
1.5
  7
高2
100
AcDbText
  0
TEXT
  5
1B48
330
36
100
AcDbEntity
  8
0
 62
     3
100
AcDbText
 10
119.7935094947621
 20
-428.0995842998301
 30
0.0
 40
2.0
  1
REMARKS
 41
0.7
  7
高2
100
AcDbText
  0
TEXT
  5
1B49
330
36
100
AcDbEntity
  8
0
 62
     3
100
AcDbText
 10
88.81917387476063
 20
-428.0195211920179
 30
0.0
 40
2.0
  1
MATERIAL
 41
0.7
  7
高2
100
AcDbText
  0
TEXT
  5
1B4A
330
36
100
AcDbEntity
  8
0
 62
     3
100
AcDbText
 10
89.39566107751479
 20
-421.0195211920177
 30
0.0
 40
2.0
  1
MODEL
  7
高2
100
AcDbText
  0
TEXT
  5
1B4B
330
36
100
AcDbEntity
  8
0
 62
     3
100
AcDbText
 10
89.03258195884598
 20
-412.3124998414188
 30
0.0
 40
2.0
  1
CONPONENTS
 41
0.5
  7
高2
100
AcDbText
  0
TEXT
  5
1B50
330
36
100
AcDbEntity
  8
0
 62
     3
100
AcDbText
 10
130.4618650347605
 20
-448.2026430188819
 30
0.0
 40
3.2
  1
ZK-A3X
 41
0.8
  7
高3.2
100
AcDbText
  0
TEXT
  5
1B51
330
36
100
AcDbEntity
  8
0
 62
     3
100
AcDbText
 10
88.18220456476057
 20
-442.49490076983
 30
0.0
 40
2.0
  1
NICHIDO IND.CO.LTD
 41
1.3
  7
高2
100
AcDbText
  0
TEXT
  5
1B52
330
36
100
AcDbEntity
  8
0
 62
     3
100
AcDbText
 10
89.36372782971773
 20
-416.8789929841328
 30
0.0
 40
3.2
  1
品 名
  7
高3.2
100
AcDbText
1001
ACAD
1000
ACAD_MTEXT_DEFINED_HEIGHT_BEGIN
1070
    46
1040
0.0
1000
ACAD_MTEXT_DEFINED_HEIGHT_END
  0
TEXT
  5
1B53
330
36
100
AcDbEntity
  8
0
 62
     3
100
AcDbText
 10
89.36372782971773
 20
-424.5195211920179
 30
0.0
 40
3.2
  1
型 式
  7
高3.2
100
AcDbText
1001
ACAD
1000
ACAD_MTEXT_DEFINED_HEIGHT_BEGIN
1070
    46
1040
3.064735913775954
1000
ACAD_MTEXT_DEFINED_HEIGHT_END
  0
TEXT
  5
1B54
330
36
100
AcDbEntity
  8
0
 62
     3
100
AcDbText
 10
89.36372782971773
 20
-431.5195211920179
 30
0.0
 40
3.2
  1
材 質
  7
高3.2
100
AcDbText
1001
ACAD
1000
ACAD_MTEXT_DEFINED_HEIGHT_BEGIN
1070
    46
1040
0.0
1000
ACAD_MTEXT_DEFINED_HEIGHT_END
  0
TEXT
  5
1B55
330
36
100
AcDbEntity
  8
0
 62
     3
100
AcDbText
 10
89.05869287971778
 20
-438.5520811997716
 30
0.0
 40
3.2
  1
第 三 角 法
  7
高3.2
100
AcDbText
1001
ACAD
1000
ACAD_MTEXT_DEFINED_HEIGHT_BEGIN
1070
    46
1040
0.0
1000
ACAD_MTEXT_DEFINED_HEIGHT_END
  0
TEXT
  5
1B56
330
36
100
AcDbEntity
  8
0
 62
     3
100
AcDbText
 10
87.46522548724659
 20
-447.878992984133
 30
0.0
 40
3.2
  1
日動工業株式会社
 41
1.199999999999999
  7
高3.2
100
AcDbText
1001
ACAD
1000
ACAD_MTEXT_DEFINED_HEIGHT_BEGIN
1070
    46
1040
0.0
1000
ACAD_MTEXT_DEFINED_HEIGHT_END
  0
TEXT
  5
1B57
330
36
100
AcDbEntity
  8
0
 62
     3
100
AcDbText
 10
121.1008496867251
 20
-431.6349426588501
 30
0.0
 40
3.2
  1
備考
  7
高3.2
100
AcDbText
1001
ACAD
1000
ACAD_MTEXT_DEFINED_HEIGHT_BEGIN
1070
    46
1040
0.0
1000
ACAD_MTEXT_DEFINED_HEIGHT_END
  0
TEXT
  5
1B58
330
36
100
AcDbEntity
  8
0
 62
     3
100
AcDbText
 10
130.7499071337605
 20
-442.8732911664475
 30
0.0
 40
2.5
  1
出図コード
  7
高2.5
100
AcDbText
1001
ACAD
1000
ACAD_MTEXT_DEFINED_HEIGHT_BEGIN
1070
    46
1040
0.0
1000
ACAD_MTEXT_DEFINED_HEIGHT_END
  0
TEXT
  5
1B59
330
36
100
AcDbEntity
  8
0
 62
     3
100
AcDbText
 10
120.9420835686377
 20
-438.5662862816048
 30
0.0
 40
3.2
  1
尺度
  7
高3.2
100
AcDbText
1001
ACAD
1000
ACAD_MTEXT_DEFINED_HEIGHT_BEGIN
1070
    46
1040
0.0
1000
ACAD_MTEXT_DEFINED_HEIGHT_END
  0
TEXT
  5
1B5A
330
36
100
AcDbEntity
  8
0
 62
     3
100
AcDbText
 10
148.0883450504165
 20
-437.4348078334874
 30
0.0
 40
3.2
  1
作成日
  7
高3.2
100
AcDbText
1001
ACAD
1000
ACAD_MTEXT_DEFINED_HEIGHT_BEGIN
1070
    46
1040
0.0
1000
ACAD_MTEXT_DEFINED_HEIGHT_END
  0
TEXT
  5
1B5B
330
36
100
AcDbEntity
  8
0
 62
     3
100
AcDbText
 10
147.9828190572804
 20
-416.8789929841328
 30
0.0
 40
3.2
  1
承 認
  7
高3.2
100
AcDbText
1001
ACAD
1000
ACAD_MTEXT_DEFINED_HEIGHT_BEGIN
1070
    46
1040
0.0
1000
ACAD_MTEXT_DEFINED_HEIGHT_END
  0
TEXT
  5
1B5C
330
36
100
AcDbEntity
  8
0
 62
     3
100
AcDbText
 10
160.9828190572804
 20
-416.8789929841328
 30
0.0
 40
3.2
  1
検 図
  7
高3.2
100
AcDbText
1001
ACAD
1000
ACAD_MTEXT_DEFINED_HEIGHT_BEGIN
1070
    46
1040
0.0
1000
ACAD_MTEXT_DEFINED_HEIGHT_END
  0
TEXT
  5
1B5D
330
36
100
AcDbEntity
  8
0
 62
     3
100
AcDbText
 10
173.9828190572804
 20
-416.8789929841328
 30
0.0
 40
3.2
  1
設 計
  7
高3.2
100
AcDbText
1001
ACAD
1000
ACAD_MTEXT_DEFINED_HEIGHT_BEGIN
1070
    46
1040
0.0
1000
ACAD_MTEXT_DEFINED_HEIGHT_END
  0
TEXT
  5
1B5E
330
36
100
AcDbEntity
  8
0
 62
     3
100
AcDbText
 10
187.2834555772803
 20
-416.8789929841328
 30
0.0
 40
3.2
  1
製 図
  7
高3.2
100
AcDbText
1001
ACAD
1000
ACAD_MTEXT_DEFINED_HEIGHT_BEGIN
1070
    46
1040
0.0
1000
ACAD_MTEXT_DEFINED_HEIGHT_END
  0
LINE
  5
1B5F
330
36
100
AcDbEntity
  8
0
 62
     3
100
AcDbLine
 10
-12.42406929470587
 20
-172.6865645084044
 30
0.0
 11
-12.42406929470587
 21
-177.4213224568513
 31
0.0
  0
LINE
  5
1B60
330
36
100
AcDbEntity
  8
0
 62
     3
100
AcDbLine
 10
-11.45886047323517
 20
-174.535020694181
 30
0.0
 11
-11.45886047323517
 21
-177.4213224568513
 31
0.0
  0
LINE
  5
1B61
330
36
100
AcDbEntity
  8
0
 62
     3
100
AcDbLine
 10
-8.750006287238306
 20
-172.6865645084044
 30
0.0
 11
-8.750006287238306
 21
-174.771349674697
 31
0.0
  0
LINE
  5
1B62
330
36
100
AcDbEntity
  8
0
 62
     3
100
AcDbLine
 10
-7.784798477562956
 20
-172.6865645084044
 30
0.0
 11
-7.784798477562956
 21
-178.0559050372966
 31
0.0
  0
LINE
  5
1B63
330
36
100
AcDbEntity
  8
0
 62
     3
100
AcDbLine
 10
-6.247341784499552
 20
-172.7190856860989
 30
0.0
 11
-6.247341784499552
 21
-177.453785962237
 31
0.0
  0
LINE
  5
1B64
330
36
100
AcDbEntity
  8
0
 62
     3
100
AcDbLine
 10
-4.718029991293747
 20
-172.7191069337917
 30
0.0
 11
-4.718029991293747
 21
-177.4538072099297
 31
0.0
  0
LINE
  5
1B65
330
36
100
AcDbEntity
  8
0
 62
     3
100
AcDbLine
 10
0.9438665108488065
 20
-172.7191777594343
 30
0.0
 11
0.9437835436675639
 21
-177.4538770237773
 31
0.0
  0
LINE
  5
1B66
330
36
100
AcDbEntity
  8
0
 62
     3
100
AcDbLine
 10
5.622341344740448
 20
-172.7191777594343
 30
0.0
 11
5.62242431192169
 21
-177.4538770237773
 31
0.0
  0
LINE
  5
1B67
330
36
100
AcDbEntity
  8
0
 62
     3
100
AcDbLine
 10
4.060142170307584
 20
-174.7819857288394
 30
0.0
 11
2.506065685281668
 21
-174.7819857288394
 31
0.0
  0
LINE
  5
1B68
330
36
100
AcDbEntity
  8
0
 62
     3
100
AcDbLine
 10
4.060132052358653
 20
-175.390928414882
 30
0.0
 11
2.506076815025493
 21
-175.390928414882
 31
0.0
  0
LINE
  5
1B69
330
36
100
AcDbEntity
  8
0
 62
     3
100
AcDbLine
 10
4.060178594923741
 20
-172.7191777594343
 30
0.0
 11
4.060142170307584
 21
-174.7819857288394
 31
0.0
  0
LINE
  5
1B6A
330
36
100
AcDbEntity
  8
0
 62
     3
100
AcDbLine
 10
4.060132052358653
 20
-175.390928414882
 30
0.0
 11
4.060095627742271
 21
-177.4538770237773
 31
0.0
  0
LINE
  5
1B6B
330
36
100
AcDbEntity
  8
0
 62
     3
100
AcDbLine
 10
2.506029260665513
 20
-172.7191777594343
 30
0.0
 11
2.506065685281668
 21
-174.7819857288394
 31
0.0
  0
LINE
  5
1B6C
330
36
100
AcDbEntity
  8
0
 62
     3
100
AcDbLine
 10
2.506076815025493
 20
-175.390928414882
 30
0.0
 11
2.506112227846756
 21
-177.4538770237773
 31
0.0
  0
LINE
  5
1B6D
330
36
100
AcDbEntity
  8
0
 62
     3
100
AcDbLine
 10
7.16351422422815
 20
-172.7191777594343
 30
0.0
 11
7.163431257046909
 21
-177.4538770237773
 31
0.0
  0
LINE
  5
1B6E
330
36
100
AcDbEntity
  8
0
 62
     3
100
AcDbLine
 10
8.692793639997603
 20
-172.7191777594343
 30
0.0
 11
8.692875595383725
 21
-177.4538770237773
 31
0.0
  0
LINE
  5
1B6F
330
36
100
AcDbEntity
  8
0
 62
     3
100
AcDbLine
 10
10.25172096330709
 20
-172.7191777594343
 30
0.0
 11
10.25163900792074
 21
-177.4538770237773
 31
0.0
  0
ARC
  5
1B70
330
36
100
AcDbEntity
  8
0
 62
     3
100
AcDbCircle
 10
-1.351991020870285
 20
-175.0728848551558
 30
0.0
 40
3.015561595733376
100
AcDbArc
 50
97.70152400000622
 51
266.0248408089489
  0
ARC
  5
1B71
330
36
100
AcDbEntity
  8
0
 62
     3
100
AcDbCircle
 10
16.84590793620111
 20
-175.1031759706853
 30
0.0
 40
3.048311372854728
100
AcDbArc
 50
0.3142499999975761
 51
69.0055820000051
  0
ARC
  5
1B72
330
36
100
AcDbEntity
  8
0
 62
     3
100
AcDbCircle
 10
17.51177723835155
 20
-175.1031759706853
 30
0.0
 40
3.048311372854728
100
AcDbArc
 50
110.9944179999948
 51
148.1166109999993
  0
ARC
  5
1B73
330
36
100
AcDbEntity
  8
0
 62
     3
100
AcDbCircle
 10
16.84590793620111
 20
-175.0697381730361
 30
0.0
 40
3.048311372854728
100
AcDbArc
 50
290.9944179999949
 51
359.6857499999992
  0
ARC
  5
1B74
330
36
100
AcDbEntity
  8
0
 62
     3
100
AcDbCircle
 10
17.51177723835155
 20
-175.0697381730361
 30
0.0
 40
3.048311372854728
100
AcDbArc
 50
211.8833889999971
 51
249.0055820000051
  0
ARC
  5
1B75
330
36
100
AcDbEntity
  8
0
 62
     3
100
AcDbCircle
 10
17.17884309317367
 20
-173.8393399334999
 30
0.0
 40
1.754843910410663
100
AcDbArc
 50
64.36517200000719
 51
115.6348279999928
  0
ARC
  5
1B76
330
36
100
AcDbEntity
  8
0
 62
     3
100
AcDbCircle
 10
17.17884309317367
 20
-176.3335742102214
 30
0.0
 40
1.754843910410663
100
AcDbArc
 50
244.3651720000072
 51
295.6348279999928
  0
ARC
  5
1B77
330
36
100
AcDbEntity
  8
0
 62
     3
100
AcDbCircle
 10
17.17884309317367
 20
-173.80600533893
 30
0.0
 40
0.8612620730595795
100
AcDbArc
 50
19.48660599999913
 51
160.5133940000008
  0
ARC
  5
1B78
330
36
100
AcDbEntity
  8
0
 62
     3
100
AcDbCircle
 10
17.17884309317367
 20
-176.3669077929965
 30
0.0
 40
0.8612620730595795
100
AcDbArc
 50
199.4866059999991
 51
340.5133940000009
  0
LINE
  5
1B79
330
36
100
AcDbEntity
  8
0
 62
     3
100
AcDbLine
 10
9.19910462598102
 20
-178.088418120632
 30
0.0
 11
6.657203238244732
 21
-178.088418120632
 31
0.0
  0
LINE
  5
1B7A
330
36
100
AcDbEntity
  8
0
 62
     3
100
AcDbLine
 10
9.19910462598102
 20
-177.7826233498897
 30
0.0
 11
9.19910462598102
 21
-178.088418120632
 31
0.0
  0
LINE
  5
1B7B
330
36
100
AcDbEntity
  8
0
 62
     3
100
AcDbLine
 10
6.128653342518759
 20
-172.0846386861692
 30
0.0
 11
3.553867608940321
 21
-172.0846386861692
 31
0.0
  0
LINE
  5
1B7C
330
36
100
AcDbEntity
  8
0
 62
     3
100
AcDbLine
 10
6.128653342518759
 20
-172.0846386861692
 30
0.0
 11
6.128653342518759
 21
-172.3902907938316
 31
0.0
  0
LINE
  5
1B7D
330
36
100
AcDbEntity
  8
0
 62
     3
100
AcDbLine
 10
6.128653342518759
 20
-177.7826233498897
 30
0.0
 11
6.128653342518759
 21
-178.088560783712
 31
0.0
  0
LINE
  5
1B7E
330
36
100
AcDbEntity
  8
0
 62
     3
100
AcDbLine
 10
6.128653342518759
 20
-178.088560783712
 30
0.0
 11
3.553867608940321
 21
-178.088560783712
 31
0.0
  0
LINE
  5
1B7F
330
36
100
AcDbEntity
  8
0
 62
     3
100
AcDbLine
 10
9.19910462598102
 20
-172.0844960230893
 30
0.0
 11
9.19910462598102
 21
-172.3902907938316
 31
0.0
  0
LINE
  5
1B80
330
36
100
AcDbEntity
  8
0
 62
     3
100
AcDbLine
 10
9.19910462598102
 20
-172.0844960230893
 30
0.0
 11
6.657203238244732
 21
-172.0844960230893
 31
0.0
  0
LINE
  5
1B81
330
36
100
AcDbEntity
  8
0
 62
     3
100
AcDbLine
 10
6.657203238244732
 20
-172.0844960230893
 30
0.0
 11
6.657203238244732
 21
-172.3902907938316
 31
0.0
  0
LINE
  5
1B82
330
36
100
AcDbEntity
  8
0
 62
     3
100
AcDbLine
 10
9.745409977323902
 20
-177.7826233498897
 30
0.0
 11
9.745409977323902
 21
-178.088418120632
 31
0.0
  0
LINE
  5
1B83
330
36
100
AcDbEntity
  8
0
 62
     3
100
AcDbLine
 10
12.49003183959996
 20
-178.088418120632
 30
0.0
 11
9.745409977323902
 21
-178.088418120632
 31
0.0
  0
LINE
  5
1B84
330
36
100
AcDbEntity
  8
0
 62
     3
100
AcDbLine
 10
11.78100037907654
 20
-173.0497038327648
 30
0.0
 11
11.78100037907654
 21
-177.1232103109566
 31
0.0
  0
LINE
  5
1B85
330
36
100
AcDbEntity
  8
0
 62
     3
100
AcDbLine
 10
11.78100037907654
 20
-177.1232103109566
 30
0.0
 11
12.05570066914367
 21
-177.1232103109566
 31
0.0
  0
ARC
  5
1B86
330
36
100
AcDbEntity
  8
0
 62
     3
100
AcDbCircle
 10
10.65106123095245
 20
-175.0864570718607
 30
0.0
 40
2.474141041926215
100
AcDbArc
 50
304.5919550000082
 51
55.40804499999177
  0
LINE
  5
1B87
330
36
100
AcDbEntity
  8
0
 62
     3
100
AcDbLine
 10
12.49003183959996
 20
-172.0844960230893
 30
0.0
 11
9.745409977323902
 21
-172.0844960230893
 31
0.0
  0
LINE
  5
1B88
330
36
100
AcDbEntity
  8
0
 62
     3
100
AcDbLine
 10
9.745409977323902
 20
-172.0844960230893
 30
0.0
 11
9.745409977323902
 21
-172.3902907938316
 31
0.0
  0
LINE
  5
1B89
330
36
100
AcDbEntity
  8
0
 62
     3
100
AcDbLine
 10
6.657203238244732
 20
-177.7826233498897
 30
0.0
 11
6.657203238244732
 21
-178.088418120632
 31
0.0
  0
LINE
  5
1B8A
330
36
100
AcDbEntity
  8
0
 62
     3
100
AcDbLine
 10
11.78100037907654
 20
-173.0497038327648
 30
0.0
 11
12.05570066914367
 21
-173.0497038327648
 31
0.0
  0
LINE
  5
1B8B
330
36
100
AcDbEntity
  8
0
 62
     3
100
AcDbLine
 10
-4.21180703168045
 20
-177.7826329210851
 30
0.0
 11
-4.211813102449582
 21
-178.0884560220845
 31
0.0
  0
LINE
  5
1B8C
330
36
100
AcDbEntity
  8
0
 62
     3
100
AcDbLine
 10
-12.93038028068929
 20
-178.0559050372966
 30
0.0
 11
-10.95254948725198
 21
-178.0559050372966
 31
0.0
  0
ARC
  5
1B8D
330
36
100
AcDbEntity
  8
0
 62
     3
100
AcDbCircle
 10
-20.87420722629497
 20
-175.0157659980181
 30
0.0
 40
21.26730034229026
100
AcDbArc
 50
353.8660059999982
 51
357.6940340000005
  0
LINE
  5
1B8E
330
36
100
AcDbEntity
  8
0
 62
     3
100
AcDbLine
 10
-1.047969926576682
 20
-175.866204901099
 30
0.0
 11
0.3758723669033088
 21
-175.8714733171109
 31
0.0
  0
LINE
  5
1B8F
330
36
100
AcDbEntity
  8
0
 62
     3
100
AcDbLine
 10
-1.042219896195432
 20
-174.3120666965847
 30
0.0
 11
-1.069144770113211
 21
-174.1396750589955
 31
0.0
  0
LINE
  5
1B90
330
36
100
AcDbEntity
  8
0
 62
     3
100
AcDbLine
 10
-1.069144770113211
 20
-174.1396750589955
 30
0.0
 11
-1.101480723123245
 21
-173.9746007220779
 31
0.0
  0
LINE
  5
1B91
330
36
100
AcDbEntity
  8
0
 62
     3
100
AcDbLine
 10
-1.101480723123245
 20
-173.9746007220779
 30
0.0
 11
-1.138976830091336
 21
-173.8181205709879
 31
0.0
  0
LINE
  5
1B92
330
36
100
AcDbEntity
  8
0
 62
     3
100
AcDbLine
 10
-1.138976830091336
 20
-173.8181205709879
 30
0.0
 11
-1.18134574126759
 21
-173.6714447124185
 31
0.0
  0
LINE
  5
1B93
330
36
100
AcDbEntity
  8
0
 62
     3
100
AcDbLine
 10
-1.18134574126759
 20
-173.6714447124185
 30
0.0
 11
-1.228257611516823
 21
-173.5357053448559
 31
0.0
  0
LINE
  5
1B94
330
36
100
AcDbEntity
  8
0
 62
     3
100
AcDbLine
 10
-1.228257611516823
 20
-173.5357053448559
 30
0.0
 11
-1.279351230062161
 21
-173.4119527113995
 31
0.0
  0
LINE
  5
1B95
330
36
100
AcDbEntity
  8
0
 62
     3
100
AcDbLine
 10
-1.279351230062161
 20
-173.4119527113995
 30
0.0
 11
-1.334231996894799
 21
-173.3011439700193
 31
0.0
  0
LINE
  5
1B96
330
36
100
AcDbEntity
  8
0
 62
     3
100
AcDbLine
 10
-1.334231996894799
 20
-173.3011439700193
 30
0.0
 11
-1.392473946364702
 21
-173.2041340874
 31
0.0
  0
LINE
  5
1B97
330
36
100
AcDbEntity
  8
0
 62
     3
100
AcDbLine
 10
-1.392473946364702
 20
-173.2041340874
 30
0.0
 11
-1.453627841538605
 21
-173.1216728035582
 31
0.0
  0
LINE
  5
1B98
330
36
100
AcDbEntity
  8
0
 62
     3
100
AcDbLine
 10
-1.453627841538605
 20
-173.1216728035582
 30
0.0
 11
-1.51722117420138
 21
-173.0543995728666
 31
0.0
  0
LINE
  5
1B99
330
36
100
AcDbEntity
  8
0
 62
     3
100
AcDbLine
 10
-1.51722117420138
 20
-173.0543995728666
 30
0.0
 11
-1.582762212034707
 21
-173.0028324343112
 31
0.0
  0
LINE
  5
1B9A
330
36
100
AcDbEntity
  8
0
 62
     3
100
AcDbLine
 10
-1.582762212034707
 20
-173.0028324343112
 30
0.0
 11
-1.649745057591758
 21
-172.9673710468746
 31
0.0
  0
LINE
  5
1B9B
330
36
100
AcDbEntity
  8
0
 62
     3
100
AcDbLine
 10
-1.649745057591758
 20
-172.9673710468746
 30
0.0
 11
-1.717650660091861
 21
-172.9482885951782
 31
0.0
  0
LINE
  5
1B9C
330
36
100
AcDbEntity
  8
0
 62
     3
100
AcDbLine
 10
-1.717650660091861
 20
-172.9482885951782
 30
0.0
 11
-1.785954909780116
 21
-172.9457328012765
 31
0.0
  0
LINE
  5
1B9D
330
36
100
AcDbEntity
  8
0
 62
     3
100
AcDbLine
 10
-1.785954909780116
 20
-172.9457328012765
 30
0.0
 11
-1.854129649721811
 21
-172.9597249128624
 31
0.0
  0
LINE
  5
1B9E
330
36
100
AcDbEntity
  8
0
 62
     3
100
AcDbLine
 10
-1.854129649721811
 20
-172.9597249128624
 30
0.0
 11
-1.921648746572485
 21
-172.9901546442922
 31
0.0
  0
LINE
  5
1B9F
330
36
100
AcDbEntity
  8
0
 62
     3
100
AcDbLine
 10
-1.921648746572485
 20
-172.9901546442922
 30
0.0
 11
-1.987989102371898
 21
-173.0367872591511
 31
0.0
  0
LINE
  5
1BA0
330
36
100
AcDbEntity
  8
0
 62
     3
100
AcDbLine
 10
-1.987989102371898
 20
-173.0367872591511
 30
0.0
 11
-2.052637737109193
 21
-173.0992635702512
 31
0.0
  0
LINE
  5
1BA1
330
36
100
AcDbEntity
  8
0
 62
     3
100
AcDbLine
 10
-2.052637737109193
 20
-173.0992635702512
 30
0.0
 11
-2.115096847696007
 21
-173.1770999396336
 31
0.0
  0
LINE
  5
1BA2
330
36
100
AcDbEntity
  8
0
 62
     3
100
AcDbLine
 10
-2.115096847696007
 20
-173.1770999396336
 30
0.0
 11
-2.174881784378726
 21
-173.2696943493363
 31
0.0
  0
LINE
  5
1BA3
330
36
100
AcDbEntity
  8
0
 62
     3
100
AcDbLine
 10
-2.174881784378726
 20
-173.2696943493363
 30
0.0
 11
-2.231531168685591
 21
-173.3763314603697
 31
0.0
  0
LINE
  5
1BA4
330
36
100
AcDbEntity
  8
0
 62
     3
100
AcDbLine
 10
-2.231531168685591
 20
-173.3763314603697
 30
0.0
 11
-2.284606893427849
 21
-173.4961876716901
 31
0.0
  0
LINE
  5
1BA5
330
36
100
AcDbEntity
  8
0
 62
     3
100
AcDbLine
 10
-2.284606893427849
 20
-173.4961876716901
 30
0.0
 11
-2.333699181673295
 21
-173.6283351673799
 31
0.0
  0
LINE
  5
1BA6
330
36
100
AcDbEntity
  8
0
 62
     3
100
AcDbLine
 10
-2.333699181673295
 20
-173.6283351673799
 30
0.0
 11
-2.378428610336754
 21
-173.7717530463914
 31
0.0
  0
LINE
  5
1BA7
330
36
100
AcDbEntity
  8
0
 62
     3
100
AcDbLine
 10
-2.378428610336754
 20
-173.7717530463914
 30
0.0
 11
-2.418448133769857
 21
-173.9253323815209
 31
0.0
  0
LINE
  5
1BA8
330
36
100
AcDbEntity
  8
0
 62
     3
100
AcDbLine
 10
-2.418448133769857
 20
-173.9253323815209
 30
0.0
 11
-2.453450166324614
 21
-174.087887349153
 31
0.0
  0
LINE
  5
1BA9
330
36
100
AcDbEntity
  8
0
 62
     3
100
AcDbLine
 10
-2.453450166324614
 20
-174.087887349153
 30
0.0
 11
-2.483163546969875
 21
-174.2581613000298
 31
0.0
  0
LINE
  5
1BAA
330
36
100
AcDbEntity
  8
0
 62
     3
100
AcDbLine
 10
-2.483163546969875
 20
-174.2581613000298
 30
0.0
 11
-2.507357586469538
 21
-174.4348368771991
 31
0.0
  0
LINE
  5
1BAB
330
36
100
AcDbEntity
  8
0
 62
     3
100
AcDbLine
 10
-2.507357586469538
 20
-174.4348368771991
 30
0.0
 11
-2.525847126358144
 21
-174.6165491693498
 31
0.0
  0
LINE
  5
1BAC
330
36
100
AcDbEntity
  8
0
 62
     3
100
AcDbLine
 10
-2.525847126358144
 20
-174.6165491693498
 30
0.0
 11
-2.538487479965964
 21
-174.8018938051692
 31
0.0
  0
LINE
  5
1BAD
330
36
100
AcDbEntity
  8
0
 62
     3
100
AcDbLine
 10
-2.538487479965964
 20
-174.8018938051692
 30
0.0
 11
-2.545181514983028
 21
-174.9894370712925
 31
0.0
  0
LINE
  5
1BAE
330
36
100
AcDbEntity
  8
0
 62
     3
100
AcDbLine
 10
-2.545181514983028
 20
-174.9894370712925
 30
0.0
 11
-2.545878641664899
 21
-175.1777310892271
 31
0.0
  0
LINE
  5
1BAF
330
36
100
AcDbEntity
  8
0
 62
     3
100
AcDbLine
 10
-2.545878641664899
 20
-175.1777310892271
 30
0.0
 11
-2.540571777447098
 21
-175.3653198861208
 31
0.0
  0
LINE
  5
1BB0
330
36
100
AcDbEntity
  8
0
 62
     3
100
AcDbLine
 10
-2.540571777447098
 20
-175.3653198861208
 30
0.0
 11
-2.529303417715141
 21
-175.5507525480958
 31
0.0
  0
LINE
  5
1BB1
330
36
100
AcDbEntity
  8
0
 62
     3
100
AcDbLine
 10
-2.529303417715141
 20
-175.5507525480958
 30
0.0
 11
-2.512159565035175
 21
-175.7325973853776
 31
0.0
  0
LINE
  5
1BB2
330
36
100
AcDbEntity
  8
0
 62
     3
100
AcDbLine
 10
-2.512159565035175
 20
-175.7325973853776
 30
0.0
 11
-2.489272764538441
 21
-175.9094469912688
 31
0.0
  0
LINE
  5
1BB3
330
36
100
AcDbEntity
  8
0
 62
     3
100
AcDbLine
 10
-2.489272764538441
 20
-175.9094469912688
 30
0.0
 11
-2.460821092125684
 21
-176.0799354426629
 31
0.0
  0
LINE
  5
1BB4
330
36
100
AcDbEntity
  8
0
 62
     3
100
AcDbLine
 10
-2.460821092125684
 20
-176.0799354426629
 30
0.0
 11
-2.427023095494519
 21
-176.2427443708133
 31
0.0
  0
LINE
  5
1BB5
330
36
100
AcDbEntity
  8
0
 62
     3
100
AcDbLine
 10
-2.427023095494519
 20
-176.2427443708133
 30
0.0
 11
-2.388140829522058
 21
-176.3966171264621
 31
0.0
  0
LINE
  5
1BB6
330
36
100
AcDbEntity
  8
0
 62
     3
100
AcDbLine
 10
-2.388140829522058
 20
-176.3966171264621
 30
0.0
 11
-2.344473785496915
 21
-176.5403618152242
 31
0.0
  0
LINE
  5
1BB7
330
36
100
AcDbEntity
  8
0
 62
     3
100
AcDbLine
 10
-2.344473785496915
 20
-176.5403618152242
 30
0.0
 11
-2.29636091470877
 21
-176.6728695098963
 31
0.0
  0
LINE
  5
1BB8
330
36
100
AcDbEntity
  8
0
 62
     3
100
AcDbLine
 10
-2.29636091470877
 20
-176.6728695098963
 30
0.0
 11
-2.244173545883199
 21
-176.7931142504558
 31
0.0
  0
LINE
  5
1BB9
330
36
100
AcDbEntity
  8
0
 62
     3
100
AcDbLine
 10
-2.244173545883199
 20
-176.7931142504558
 30
0.0
 11
-2.188314373388379
 21
-176.9001672091905
 31
0.0
  0
LINE
  5
1BBA
330
36
100
AcDbEntity
  8
0
 62
     3
100
AcDbLine
 10
-2.188314373388379
 20
-176.9001672091905
 30
0.0
 11
-2.129216445438373
 21
-176.9932017496721
 31
0.0
  0
LINE
  5
1BBB
330
36
100
AcDbEntity
  8
0
 62
     3
100
AcDbLine
 10
-2.129216445438373
 20
-176.9932017496721
 30
0.0
 11
-2.067336081530696
 21
-177.0714984857312
 31
0.0
  0
LINE
  5
1BBC
330
36
100
AcDbEntity
  8
0
 62
     3
100
AcDbLine
 10
-2.067336081530696
 20
-177.0714984857312
 30
0.0
 11
-2.003150848854943
 21
-177.1344513522263
 31
0.0
  0
LINE
  5
1BBD
330
36
100
AcDbEntity
  8
0
 62
     3
100
AcDbLine
 10
-2.003150848854943
 20
-177.1344513522263
 30
0.0
 11
-1.937157538704127
 21
-177.1815736758135
 31
0.0
  0
LINE
  5
1BBE
330
36
100
AcDbEntity
  8
0
 62
     3
100
AcDbLine
 10
-1.937157538704127
 20
-177.1815736758135
 30
0.0
 11
-1.86986609570465
 21
-177.2125022221261
 31
0.0
  0
LINE
  5
1BBF
330
36
100
AcDbEntity
  8
0
 62
     3
100
AcDbLine
 10
-1.86986609570465
 20
-177.2125022221261
 30
0.0
 11
-1.801796582431619
 21
-177.2269982075691
 31
0.0
  0
LINE
  5
1BC0
330
36
100
AcDbEntity
  8
0
 62
     3
100
AcDbLine
 10
-1.801796582431619
 20
-177.2269982075691
 30
0.0
 11
-1.73347513223041
 21
-177.2249483111143
 31
0.0
  0
LINE
  5
1BC1
330
36
100
AcDbEntity
  8
0
 62
     3
100
AcDbLine
 10
-1.73347513223041
 20
-177.2249483111143
 30
0.0
 11
-1.665429902034815
 21
-177.206369733275
 31
0.0
  0
LINE
  5
1BC2
330
36
100
AcDbEntity
  8
0
 62
     3
100
AcDbLine
 10
-1.665429902034815
 20
-177.206369733275
 30
0.0
 11
-1.598187025190213
 21
-177.1714041253363
 31
0.0
  0
LINE
  5
1BC3
330
36
100
AcDbEntity
  8
0
 62
     3
100
AcDbLine
 10
-1.598187025190213
 20
-177.1714041253363
 30
0.0
 11
-1.532265552476814
 21
-177.1203236601247
 31
0.0
  0
LINE
  5
1BC4
330
36
100
AcDbEntity
  8
0
 62
     3
100
AcDbLine
 10
-1.532265552476814
 20
-177.1203236601247
 30
0.0
 11
-1.468176440316141
 21
-177.0535219258535
 31
0.0
  0
LINE
  5
1BC5
330
36
100
AcDbEntity
  8
0
 62
     3
100
AcDbLine
 10
-1.468176440316141
 20
-177.0535219258535
 30
0.0
 11
-1.406413444616077
 21
-176.971516961509
 31
0.0
  0
LINE
  5
1BC6
330
36
100
AcDbEntity
  8
0
 62
     3
100
AcDbLine
 10
-1.406413444616077
 20
-176.971516961509
 30
0.0
 11
-1.347455144361332
 21
-176.8749401271043
 31
0.0
  0
LINE
  5
1BC7
330
36
100
AcDbEntity
  8
0
 62
     3
100
AcDbLine
 10
-1.347455144361332
 20
-176.8749401271043
 30
0.0
 11
-1.29175684725476
 21
-176.764540150861
 31
0.0
  0
LINE
  5
1BC8
330
36
100
AcDbEntity
  8
0
 62
     3
100
AcDbLine
 10
-1.29175684725476
 20
-176.764540150861
 30
0.0
 11
-1.239748566125284
 21
-176.6411689640797
 31
0.0
  0
LINE
  5
1BC9
330
36
100
AcDbEntity
  8
0
 62
     3
100
AcDbLine
 10
-1.239748566125284
 20
-176.6411689640797
 30
0.0
 11
-1.191832995341314
 21
-176.5057806893451
 31
0.0
  0
LINE
  5
1BCA
330
36
100
AcDbEntity
  8
0
 62
     3
100
AcDbLine
 10
-1.191832995341314
 20
-176.5057806893451
 30
0.0
 11
-1.148380451833759
 21
-176.3594215225775
 31
0.0
  0
LINE
  5
1BCB
330
36
100
AcDbEntity
  8
0
 62
     3
100
AcDbLine
 10
-1.148380451833759
 20
-176.3594215225775
 30
0.0
 11
-1.109726851507389
 21
-176.2032236622629
 31
0.0
  0
LINE
  5
1BCC
330
36
100
AcDbEntity
  8
0
 62
     3
100
AcDbLine
 10
-1.109726851507389
 20
-176.2032236622629
 30
0.0
 11
-1.076169662060805
 21
-176.0383931679147
 31
0.0
  0
LINE
  5
1BCD
330
36
100
AcDbEntity
  8
0
 62
     3
100
AcDbLine
 10
-1.076169662060805
 20
-176.0383931679147
 30
0.0
 11
-1.047969926576682
 21
-175.866204901099
 31
0.0
  0
LINE
  5
1BCE
330
36
100
AcDbEntity
  8
0
 62
     3
100
AcDbLine
 10
-1.042219896195432
 20
-174.3120666965847
 30
0.0
 11
0.3816223972845591
 21
-174.3173351125967
 31
0.0
  0
ARC
  5
1BCF
330
36
100
AcDbEntity
  8
0
 62
     3
100
AcDbCircle
 10
-20.87420722629497
 20
-175.0157659980181
 30
0.0
 40
21.26730034229026
100
AcDbArc
 50
1.881965999998854
 51
5.709993999999697
  0
LINE
  5
1BD0
330
36
100
AcDbEntity
  8
0
 62
     3
100
AcDbLine
 10
-4.21170787554945
 20
-172.0845223095428
 30
0.0
 11
-4.211712934523916
 21
-172.3902887500281
 31
0.0
  0
LINE
  5
1BD1
330
36
100
AcDbEntity
  8
0
 62
     3
100
AcDbLine
 10
-6.753708419218924
 20
-177.7826253936933
 30
0.0
 11
-6.753713478193616
 21
-178.0883918341786
 31
0.0
  0
LINE
  5
1BD2
330
36
100
AcDbEntity
  8
0
 62
     3
100
AcDbLine
 10
-6.753609263319389
 20
-172.0844687244554
 30
0.0
 11
-6.753614322294081
 21
-172.3902928372496
 31
0.0
  0
LINE
  5
1BD3
330
36
100
AcDbEntity
  8
0
 62
     3
100
AcDbLine
 10
-10.95254948725198
 20
-177.7501102665544
 30
0.0
 11
-10.95254948725198
 21
-178.0559050372966
 31
0.0
  0
LINE
  5
1BD4
330
36
100
AcDbEntity
  8
0
 62
     3
100
AcDbLine
 10
-11.45886047323517
 20
-174.535020694181
 30
0.0
 11
-9.258307758787962
 21
-178.0559050372966
 31
0.0
  0
LINE
  5
1BD5
330
36
100
AcDbEntity
  8
0
 62
     3
100
AcDbLine
 10
-9.258307758787962
 20
-178.0559050372966
 30
0.0
 11
-7.784798477562956
 21
-178.0559050372966
 31
0.0
  0
LINE
  5
1BD6
330
36
100
AcDbEntity
  8
0
 62
     3
100
AcDbLine
 10
-7.278487491579539
 20
-172.0519829397539
 30
0.0
 11
-7.278487491579539
 21
-172.3577777104962
 31
0.0
  0
LINE
  5
1BD7
330
36
100
AcDbEntity
  8
0
 62
     3
100
AcDbLine
 10
-9.256317273221723
 20
-172.0519829397539
 30
0.0
 11
-7.278487491579539
 21
-172.0519829397539
 31
0.0
  0
LINE
  5
1BD8
330
36
100
AcDbEntity
  8
0
 62
     3
100
AcDbLine
 10
-9.256317273221723
 20
-172.0519829397539
 30
0.0
 11
-9.256317273221723
 21
-172.3577777104962
 31
0.0
  0
LINE
  5
1BD9
330
36
100
AcDbEntity
  8
0
 62
     3
100
AcDbLine
 10
-8.750006287238306
 20
-174.771349674697
 30
0.0
 11
-10.53459089675641
 21
-172.0519829397539
 31
0.0
  0
LINE
  5
1BDA
330
36
100
AcDbEntity
  8
0
 62
     3
100
AcDbLine
 10
-12.93038028068929
 20
-172.0519829397539
 30
0.0
 11
-10.53459089675641
 21
-172.0519829397539
 31
0.0
  0
LINE
  5
1BDB
330
36
100
AcDbEntity
  8
0
 62
     3
100
AcDbLine
 10
0.4375555248653882
 20
-172.0846386861692
 30
0.0
 11
3.012340246648931
 21
-172.0846386861694
 31
0.0
  0
LINE
  5
1BDC
330
36
100
AcDbEntity
  8
0
 62
     3
100
AcDbLine
 10
0.4375555248653882
 20
-172.3902907938316
 30
0.0
 11
0.4375555248653882
 21
-172.0846386861692
 31
0.0
  0
LINE
  5
1BDD
330
36
100
AcDbEntity
  8
0
 62
     3
100
AcDbLine
 10
0.4375555248653882
 20
-178.088560783712
 30
0.0
 11
0.4375555248653882
 21
-177.7826233498897
 31
0.0
  0
LINE
  5
1BDE
330
36
100
AcDbEntity
  8
0
 62
     3
100
AcDbLine
 10
0.4375555248653882
 20
-178.0885607837122
 30
0.0
 11
3.012340246648931
 21
-178.088560783712
 31
0.0
  0
LINE
  5
1BDF
330
36
100
AcDbEntity
  8
0
 62
     3
100
AcDbLine
 10
3.553867608940321
 20
-177.7826233498897
 30
0.0
 11
3.553867608940321
 21
-178.088560783712
 31
0.0
  0
LINE
  5
1BE0
330
36
100
AcDbEntity
  8
0
 62
     3
100
AcDbLine
 10
3.012340246648931
 20
-177.7826233498897
 30
0.0
 11
3.012340246648931
 21
-178.088560783712
 31
0.0
  0
LINE
  5
1BE1
330
36
100
AcDbEntity
  8
0
 62
     3
100
AcDbLine
 10
3.012340246648931
 20
-172.3902907938316
 30
0.0
 11
3.012340246648931
 21
-172.0846386861692
 31
0.0
  0
LINE
  5
1BE2
330
36
100
AcDbEntity
  8
0
 62
     3
100
AcDbLine
 10
3.553867608940321
 20
-172.3902907938316
 30
0.0
 11
3.553867608940321
 21
-172.0846386861692
 31
0.0
  0
LINE
  5
1BE3
330
36
100
AcDbEntity
  8
0
 62
     3
100
AcDbLine
 10
-12.93038028068929
 20
-177.7501102665545
 30
0.0
 11
-12.93038028068929
 21
-178.0559050372966
 31
0.0
  0
LINE
  5
1BE4
330
36
100
AcDbEntity
  8
0
 62
     3
100
AcDbLine
 10
-12.93038028068929
 20
-172.0519829397539
 30
0.0
 11
-12.93038028068929
 21
-172.3577777104962
 31
0.0
  0
ARC
  5
1BE5
330
36
100
AcDbEntity
  8
0
 62
     3
100
AcDbCircle
 10
12.74768836772921
 20
-174.4566177858773
 30
0.0
 40
2.37212176278799
100
AcDbArc
 50
17.30874900000187
 51
23.76507099999971
  0
ARC
  5
1BE6
330
36
100
AcDbEntity
  8
0
 62
     3
100
AcDbCircle
 10
10.72659467820415
 20
-175.0864570718607
 30
0.0
 40
4.489082006702322
100
AcDbArc
 50
342.6912509999981
 51
17.30856600000206
  0
ARC
  5
1BE7
330
36
100
AcDbEntity
  8
0
 62
     3
100
AcDbCircle
 10
12.74768836772921
 20
-175.716296357844
 30
0.0
 40
2.37212176278799
100
AcDbArc
 50
336.2349290000003
 51
342.6912509999981
  0
ARC
  5
1BE8
330
36
100
AcDbEntity
  8
0
 62
     3
100
AcDbCircle
 10
12.49003183959996
 20
-174.4566177858773
 30
0.0
 40
2.37212176278799
100
AcDbArc
 50
17.30874900000187
 51
90.0
  0
ARC
  5
1BE9
330
36
100
AcDbEntity
  8
0
 62
     3
100
AcDbCircle
 10
10.46893307099537
 20
-175.0864435093651
 30
0.0
 40
4.489082006702322
100
AcDbArc
 50
342.6912509999981
 51
17.30856600000206
  0
ARC
  5
1BEA
330
36
100
AcDbEntity
  8
0
 62
     3
100
AcDbCircle
 10
12.49003183959996
 20
-175.716296357844
 30
0.0
 40
2.37212176278799
100
AcDbArc
 50
270.0
 51
342.6912509999981
  0
ARC
  5
1BEB
330
36
100
AcDbEntity
  8
0
 62
     3
100
AcDbCircle
 10
-1.76921273967298
 20
-175.0864570718607
 30
0.0
 40
3.001961048771398
100
AcDbArc
 50
46.75287999999497
 51
89.74999799999961
  0
ARC
  5
1BEC
330
36
100
AcDbEntity
  8
0
 62
     3
100
AcDbCircle
 10
-1.76921273967298
 20
-175.0864570718607
 30
0.0
 40
3.001961048771398
100
AcDbArc
 50
273.9763330000017
 51
312.8231199999991
  0
ARC
  5
1BED
330
36
100
AcDbEntity
  8
0
 62
     3
100
AcDbCircle
 10
14.34902376865295
 20
-175.1327993015848
 30
0.0
 40
3.983420308030568
100
AcDbArc
 50
0.6665839999989839
 51
23.90392800000231
  0
ARC
  5
1BEE
330
36
100
AcDbEntity
  8
0
 62
     3
100
AcDbCircle
 10
20.00866140589971
 20
-175.1327993015848
 30
0.0
 40
3.983420308030568
100
AcDbArc
 50
156.0960719999977
 51
179.333416000001
  0
ARC
  5
1BEF
330
36
100
AcDbEntity
  8
0
 62
     3
100
AcDbCircle
 10
14.34902376865295
 20
-175.0401148421365
 30
0.0
 40
3.983420308030568
100
AcDbArc
 50
336.0960719999976
 51
359.3334159999978
  0
ARC
  5
1BF0
330
36
100
AcDbEntity
  8
0
 62
     3
100
AcDbCircle
 10
20.00866140589971
 20
-175.0401148421365
 30
0.0
 40
3.983420308030568
100
AcDbArc
 50
180.666583999999
 51
203.9039280000023
  0
LINE
  5
1BF1
330
36
100
AcDbEntity
  8
0
  6
Continuous
 62
     3
100
AcDbLine
 10
-12.93038028068929
 20
-172.3577777104962
 30
0.0
 11
-12.42406929470587
 21
-172.6865645084044
 31
0.0
  0
LINE
  5
1BF2
330
36
100
AcDbEntity
  8
0
  6
Continuous
 62
     3
100
AcDbLine
 10
-9.256317273221723
 20
-172.3577777104962
 30
0.0
 11
-8.750006287238306
 21
-172.6865645084044
 31
0.0
  0
LINE
  5
1BF3
330
36
100
AcDbEntity
  8
0
  6
Continuous
 62
     3
100
AcDbLine
 10
-7.278487491579539
 20
-172.3577777104962
 30
0.0
 11
-7.784798477562956
 21
-172.6865645084044
 31
0.0
  0
LINE
  5
1BF4
330
36
100
AcDbEntity
  8
0
  6
Continuous
 62
     3
100
AcDbLine
 10
-6.753614322294081
 20
-172.3902928372496
 30
0.0
 11
-6.247341784499552
 21
-172.7190856860989
 31
0.0
  0
LINE
  5
1BF5
330
36
100
AcDbEntity
  8
0
  6
Continuous
 62
     3
100
AcDbLine
 10
-4.211712934523916
 20
-172.3902887500281
 30
0.0
 11
-4.718029991293747
 21
-172.7191069337917
 31
0.0
  0
LINE
  5
1BF6
330
36
100
AcDbEntity
  8
0
  6
Continuous
 62
     3
100
AcDbLine
 10
0.4375555248653882
 20
-172.3902907938316
 30
0.0
 11
0.9438665108488065
 21
-172.7191777594343
 31
0.0
  0
LINE
  5
1BF7
330
36
100
AcDbEntity
  8
0
  6
Continuous
 62
     3
100
AcDbLine
 10
3.012340246648931
 20
-172.3902907938316
 30
0.0
 11
2.506029260665513
 21
-172.7191777594343
 31
0.0
  0
LINE
  5
1BF8
330
36
100
AcDbEntity
  8
0
  6
Continuous
 62
     3
100
AcDbLine
 10
3.553867608940321
 20
-172.3902907938316
 30
0.0
 11
4.060178594923741
 21
-172.7191777594343
 31
0.0
  0
LINE
  5
1BF9
330
36
100
AcDbEntity
  8
0
  6
Continuous
 62
     3
100
AcDbLine
 10
6.128653342518759
 20
-172.3902907938316
 30
0.0
 11
5.622341344740448
 21
-172.7191777594343
 31
0.0
  0
LINE
  5
1BFA
330
36
100
AcDbEntity
  8
0
  6
Continuous
 62
     3
100
AcDbLine
 10
6.657203238244732
 20
-172.3902907938316
 30
0.0
 11
7.16351422422815
 21
-172.7191777594343
 31
0.0
  0
LINE
  5
1BFB
330
36
100
AcDbEntity
  8
0
  6
Continuous
 62
     3
100
AcDbLine
 10
9.19910462598102
 20
-172.3902907938316
 30
0.0
 11
8.692793639997603
 21
-172.7191777594343
 31
0.0
  0
LINE
  5
1BFC
330
36
100
AcDbEntity
  8
0
  6
Continuous
 62
     3
100
AcDbLine
 10
9.745409977323902
 20
-172.3902907938316
 30
0.0
 11
10.25172096330709
 21
-172.7191777594343
 31
0.0
  0
LINE
  5
1BFD
330
36
100
AcDbEntity
  8
0
  6
Continuous
 62
     3
100
AcDbLine
 10
10.25163900792074
 20
-177.4538770237773
 30
0.0
 11
9.745409977323902
 21
-177.7826233498897
 31
0.0
  0
LINE
  5
1BFE
330
36
100
AcDbEntity
  8
0
  6
Continuous
 62
     3
100
AcDbLine
 10
8.692875595383725
 20
-177.4538770237773
 30
0.0
 11
9.19910462598102
 21
-177.7826233498897
 31
0.0
  0
LINE
  5
1BFF
330
36
100
AcDbEntity
  8
0
  6
Continuous
 62
     3
100
AcDbLine
 10
7.163431257046909
 20
-177.4538770237773
 30
0.0
 11
6.657203238244732
 21
-177.7826233498897
 31
0.0
  0
LINE
  5
1C00
330
36
100
AcDbEntity
  8
0
  6
Continuous
 62
     3
100
AcDbLine
 10
6.128653342518759
 20
-177.7826233498897
 30
0.0
 11
5.62242431192169
 21
-177.4538770237773
 31
0.0
  0
LINE
  5
1C01
330
36
100
AcDbEntity
  8
0
  6
Continuous
 62
     3
100
AcDbLine
 10
3.553867608940321
 20
-177.7826233498897
 30
0.0
 11
4.060095627742271
 21
-177.4538770237773
 31
0.0
  0
LINE
  5
1C02
330
36
100
AcDbEntity
  8
0
  6
Continuous
 62
     3
100
AcDbLine
 10
3.012340246648931
 20
-177.7826233498897
 30
0.0
 11
2.506112227846756
 21
-177.4538770237773
 31
0.0
  0
LINE
  5
1C03
330
36
100
AcDbEntity
  8
0
  6
Continuous
 62
     3
100
AcDbLine
 10
0.9437835436675639
 20
-177.4538770237773
 30
0.0
 11
0.4375555248653882
 21
-177.7826233498897
 31
0.0
  0
LINE
  5
1C04
330
36
100
AcDbEntity
  8
0
  6
Continuous
 62
     3
100
AcDbLine
 10
-4.211807031441708
 20
-177.78262089778
 30
0.0
 11
-4.718029991293747
 21
-177.4538072099297
 31
0.0
  0
LINE
  5
1C05
330
36
100
AcDbEntity
  8
0
  6
Continuous
 62
     3
100
AcDbLine
 10
-6.753708419218924
 20
-177.7826253936933
 30
0.0
 11
-6.247440940399313
 21
-177.453785962237
 31
0.0
  0
LINE
  5
1C06
330
36
100
AcDbEntity
  8
0
  6
Continuous
 62
     3
100
AcDbLine
 10
-10.95254948725198
 20
-177.7501102665544
 30
0.0
 11
-11.45886047323517
 21
-177.4213224568513
 31
0.0
  0
LINE
  5
1C07
330
36
100
AcDbEntity
  8
0
  6
Continuous
 62
     3
100
AcDbLine
 10
-12.93038028068929
 20
-177.7501102665544
 30
0.0
 11
-12.42406929470587
 21
-177.4213224568513
 31
0.0
  0
LINE
  5
1C08
330
36
100
AcDbEntity
  8
0
  6
Continuous
 62
     3
100
AcDbLine
 10
-4.211813102211067
 20
-178.0884439987793
 30
0.0
 11
-6.753713478193616
 21
-178.0883918341786
 31
0.0
  0
LINE
  5
1C09
330
36
100
AcDbEntity
  8
0
  6
Continuous
 62
     3
100
AcDbLine
 10
-6.753609263319389
 20
-172.0844687244554
 30
0.0
 11
-4.21170787554945
 21
-172.0845223095428
 31
0.0
  0
ARC
  5
1C0A
330
36
100
AcDbEntity
  8
0
  6
Continuous
 62
     3
100
AcDbCircle
 10
22.09663442602107
 20
-175.104694815426
 30
0.0
 40
1.5
100
AcDbArc
 50
293.7485430905257
 51
66.25145690947431
  0
ARC
  5
1C0B
330
36
100
AcDbEntity
  8
0
  6
Continuous
 62
     3
100
AcDbCircle
 10
22.09663442602107
 20
-175.104694815426
 30
0.0
 40
2.25
100
AcDbArc
 50
293.7485430905257
 51
66.25145690947431
  0
ARC
  5
1C0C
330
36
100
AcDbEntity
  8
0
  6
Continuous
 62
     3
100
AcDbCircle
 10
10.6190170896956
 20
-201.1913638300947
 30
0.0
 40
30.0
100
AcDbArc
 50
66.25145690947431
 51
81.41597019517886
  0
ARC
  5
1C0D
330
36
100
AcDbEntity
  8
0
  6
Continuous
 62
     3
100
AcDbCircle
 10
10.6190170896956
 20
-201.1913638300947
 30
0.0
 40
30.75
100
AcDbArc
 50
66.25145690947431
 51
81.41597019517886
  0
ARC
  5
1C0E
330
36
100
AcDbEntity
  8
0
  6
Continuous
 62
     3
100
AcDbCircle
 10
-16.9786520707554
 20
-175.104694815426
 30
0.0
 40
1.5
100
AcDbArc
 50
113.7485430905257
 51
246.2514569094743
  0
ARC
  5
1C0F
330
36
100
AcDbEntity
  8
0
  6
Continuous
 62
     3
100
AcDbCircle
 10
-16.9786520707554
 20
-175.104694815426
 30
0.0
 40
2.25
100
AcDbArc
 50
113.7485430905257
 51
246.2514569094743
  0
ARC
  5
1C10
330
36
100
AcDbEntity
  8
0
  6
Continuous
 62
     3
100
AcDbCircle
 10
-5.501034734429707
 20
-201.1913638300947
 30
0.0
 40
30.0
100
AcDbArc
 50
98.58402980482113
 51
113.7485430905257
  0
ARC
  5
1C11
330
36
100
AcDbEntity
  8
0
  6
Continuous
 62
     3
100
AcDbCircle
 10
-5.501034734429707
 20
-201.1913638300947
 30
0.0
 40
30.75
100
AcDbArc
 50
98.58402980482113
 51
113.7485430905257
  0
ARC
  5
1C12
330
36
100
AcDbEntity
  8
0
  6
Continuous
 62
     3
100
AcDbCircle
 10
10.6190170896956
 20
-149.0180258007573
 30
0.0
 40
30.0
100
AcDbArc
 50
278.5840298048211
 51
293.7485430905257
  0
ARC
  5
1C13
330
36
100
AcDbEntity
  8
0
  6
Continuous
 62
     3
100
AcDbCircle
 10
10.6190170896956
 20
-149.0180258007573
 30
0.0
 40
30.75
100
AcDbArc
 50
278.5840298048211
 51
293.7485430905257
  0
ARC
  5
1C14
330
36
100
AcDbEntity
  8
0
  6
Continuous
 62
     3
100
AcDbCircle
 10
-5.501034734429707
 20
-149.0180258007573
 30
0.0
 40
30.0
100
AcDbArc
 50
246.2514569094743
 51
261.4159701951789
  0
ARC
  5
1C15
330
36
100
AcDbEntity
  8
0
  6
Continuous
 62
     3
100
AcDbCircle
 10
-5.501034734429707
 20
-149.0180258007573
 30
0.0
 40
30.75
100
AcDbArc
 50
246.2514569094743
 51
261.4159701951789
  0
ARC
  5
1C16
330
36
100
AcDbEntity
  8
0
  6
Continuous
 62
     3
100
AcDbCircle
 10
2.558991177632946
 20
-254.5864570718592
 30
0.0
 40
84.74999999999857
100
AcDbArc
 50
81.41597019517886
 51
98.58402980482113
  0
ARC
  5
1C17
330
36
100
AcDbEntity
  8
0
  6
Continuous
 62
     3
100
AcDbCircle
 10
2.558991177632946
 20
-254.586457071858
 30
0.0
 40
83.99999999999733
100
AcDbArc
 50
81.41597019517886
 51
98.58402980482113
  0
ARC
  5
1C18
330
36
100
AcDbEntity
  8
0
  6
Continuous
 62
     3
100
AcDbCircle
 10
2.558991177632946
 20
-95.6229325589928
 30
0.0
 40
84.74999999999857
100
AcDbArc
 50
261.4159701951789
 51
278.5840298048211
  0
ARC
  5
1C19
330
36
100
AcDbEntity
  8
0
  6
Continuous
 62
     3
100
AcDbCircle
 10
2.558991177632946
 20
-95.62293255899408
 30
0.0
 40
83.99999999999733
100
AcDbArc
 50
261.4159701951789
 51
278.5840298048211
  0
TEXT
  5
1C1A
330
36
100
AcDbEntity
  8
0
 62
     3
100
AcDbText
 10
186.0969381647604
 20
-184.5195211920179
 30
0.0
 40
3.2
  1
担　当
  7
高3.2
100
AcDbText
  0
TEXT
  5
1C1B
330
36
100
AcDbEntity
  8
0
 62
     3
100
AcDbText
 10
142.0969381647604
 20
-184.5195211920179
 30
0.0
 40
3.2
  1
変更・追記内容
  7
高3.2
100
AcDbText
  0
TEXT
  5
1C1C
330
36
100
AcDbEntity
  8
0
 62
     3
100
AcDbText
 10
117.2104531650997
 20
-189.1900597019262
 30
0.0
 40
2.0
  1
1
  7
高2
100
AcDbText
  0
TEXT
  5
1C1D
330
36
100
AcDbEntity
  8
0
 62
     3
100
AcDbText
 10
116.9019416883424
 20
-194.3598764141991
 30
0.0
 40
2.0
  1
2
  7
高2
100
AcDbText
  0
TEXT
  5
1C1E
330
36
100
AcDbEntity
  8
0
 62
     3
100
AcDbText
 10
124.0969381647604
 20
-184.5195211920179
 30
0.0
 40
3.2
  1
日　付
  7
高3.2
100
AcDbText
  0
TEXT
  5
1C1F
330
36
100
AcDbEntity
  8
0
 62
     3
100
AcDbText
 10
124.0969381647604
 20
-179.5195211920179
 30
0.0
 40
3.2
  1
図　　　　面　　　　略　　　　歴
  7
高3.2
100
AcDbText
  0
TEXT
  5
1C20
330
36
100
AcDbEntity
  8
0
 62
     3
100
AcDbText
 10
114.0969381647604
 20
-184.5195211920179
 30
0.0
 40
3.2
  1
記号
  7
高3.2
100
AcDbText
  0
LINE
  5
1C21
330
36
100
AcDbEntity
  8
0
100
AcDbLine
 10
117.5969381647604
 20
-191.2286251920178
 30
0.0
 11
115.6969381647606
 21
-194.5195211920179
 31
0.0
  0
LINE
  5
1C22
330
36
100
AcDbEntity
  8
0
100
AcDbLine
 10
117.5969381647604
 20
-191.2286251920178
 30
0.0
 11
119.4969381647603
 21
-194.5195211920179
 31
0.0
  0
LINE
  5
1C23
330
36
100
AcDbEntity
  8
0
100
AcDbLine
 10
115.6969381647606
 20
-194.5195211920179
 30
0.0
 11
119.4969381647603
 21
-194.5195211920179
 31
0.0
  0
LINE
  5
1C24
330
36
100
AcDbEntity
  8
0
100
AcDbLine
 10
117.5969381647604
 20
-186.2286241920178
 30
0.0
 11
115.6969381647606
 21
-189.5195211920179
 31
0.0
  0
LINE
  5
1C25
330
36
100
AcDbEntity
  8
0
100
AcDbLine
 10
117.5969381647604
 20
-186.2286241920178
 30
0.0
 11
119.4969381647603
 21
-189.5195211920179
 31
0.0
  0
LINE
  5
1C26
330
36
100
AcDbEntity
  8
0
100
AcDbLine
 10
115.6969381647606
 20
-189.5195211920179
 30
0.0
 11
119.4969381647603
 21
-189.5195211920179
 31
0.0
  0
LINE
  5
1C27
330
36
100
AcDbEntity
  8
0
 62
     3
100
AcDbLine
 10
112.5969381647604
 20
-180.0195211920179
 30
0.0
 11
198.5969381647604
 21
-180.0195211920179
 31
0.0
  0
LINE
  5
1C28
330
36
100
AcDbEntity
  8
0
 62
     3
100
AcDbLine
 10
112.5969381647604
 20
-185.0195211920179
 30
0.0
 11
198.5969381647604
 21
-185.0195211920179
 31
0.0
  0
LINE
  5
1C29
330
36
100
AcDbEntity
  8
0
 62
     7
100
AcDbLine
 10
112.5969381647604
 20
-190.0195211920179
 30
0.0
 11
198.5969381647604
 21
-190.0195211920179
 31
0.0
  0
LINE
  5
1C2A
330
36
100
AcDbEntity
  8
0
 62
     7
100
AcDbLine
 10
112.5969381647604
 20
-195.0195211920179
 30
0.0
 11
198.5969381647604
 21
-195.0195211920179
 31
0.0
  0
LINE
  5
1C2B
330
36
100
AcDbEntity
  8
0
 62
     7
100
AcDbLine
 10
184.5969381647604
 20
-205.0195211920179
 30
0.0
 11
184.5969381647604
 21
-180.0195211920179
 31
0.0
  0
LINE
  5
1C2C
330
36
100
AcDbEntity
  8
0
 62
     7
100
AcDbLine
 10
140.5969381647604
 20
-205.0195211920179
 30
0.0
 11
140.5969381647604
 21
-180.0195211920179
 31
0.0
  0
LINE
  5
1C2D
330
36
100
AcDbEntity
  8
0
 62
     7
100
AcDbLine
 10
122.5969381647604
 20
-205.0195211920179
 30
0.0
 11
122.5969381647604
 21
-180.0195211920179
 31
0.0
  0
LINE
  5
1C2E
330
36
100
AcDbEntity
  8
0
 62
     3
100
AcDbLine
 10
112.5969381647604
 20
-205.0195211920179
 30
0.0
 11
112.5969381647604
 21
-175.0195211920179
 31
0.0
  0
TEXT
  5
1C91
330
36
100
AcDbEntity
  8
0
 62
     3
100
AcDbText
 10
116.9019416883424
 20
-199.359876414199
 30
0.0
 40
2.0
  1
3
  7
高2
100
AcDbText
  0
LINE
  5
1C92
330
36
100
AcDbEntity
  8
0
100
AcDbLine
 10
117.5969381647604
 20
-196.2286251920178
 30
0.0
 11
115.6969381647606
 21
-199.5195211920179
 31
0.0
  0
LINE
  5
1C93
330
36
100
AcDbEntity
  8
0
100
AcDbLine
 10
117.5969381647604
 20
-196.2286251920178
 30
0.0
 11
119.4969381647603
 21
-199.5195211920179
 31
0.0
  0
LINE
  5
1C94
330
36
100
AcDbEntity
  8
0
100
AcDbLine
 10
115.6969381647606
 20
-199.5195211920179
 30
0.0
 11
119.4969381647603
 21
-199.5195211920179
 31
0.0
  0
LINE
  5
1C95
330
36
100
AcDbEntity
  8
0
 62
     7
100
AcDbLine
 10
112.5969381647604
 20
-200.0195211920179
 30
0.0
 11
198.5969381647604
 21
-200.0195211920179
 31
0.0
  0
TEXT
  5
1C96
330
36
100
AcDbEntity
  8
0
 62
     3
100
AcDbText
 10
116.9019416883424
 20
-204.3598764141991
 30
0.0
 40
2.0
  1
4
  7
高2
100
AcDbText
  0
LINE
  5
1C97
330
36
100
AcDbEntity
  8
0
100
AcDbLine
 10
117.5969381647604
 20
-201.2286251920178
 30
0.0
 11
115.6969381647606
 21
-204.5195211920179
 31
0.0
  0
LINE
  5
1C98
330
36
100
AcDbEntity
  8
0
100
AcDbLine
 10
117.5969381647604
 20
-201.2286251920178
 30
0.0
 11
119.4969381647603
 21
-204.5195211920179
 31
0.0
  0
LINE
  5
1C99
330
36
100
AcDbEntity
  8
0
100
AcDbLine
 10
115.6969381647606
 20
-204.5195211920179
 30
0.0
 11
119.4969381647603
 21
-204.5195211920179
 31
0.0
  0
LINE
  5
1C9A
330
36
100
AcDbEntity
  8
0
 62
     3
100
AcDbLine
 10
112.5969381647604
 20
-205.0195211920179
 30
0.0
 11
198.5969381647604
 21
-205.0195211920179
 31
0.0
  0
TEXT
  5
1D38
330
36
100
AcDbEntity
  8
0
 62
     3
100
AcDbText
 10
-132.3966838662453
 20
-258.9367919130558
 30
0.0
 40
2.0
  1
4
 50
37.94471889780071
  7
高2
100
AcDbText
  0
LINE
  5
1D39
330
36
100
AcDbEntity
  8
0
100
AcDbLine
 10
-133.7740157402282
 20
-256.0401194725551
 30
0.0
 11
-133.2487892313349
 21
-259.8036462224497
 31
0.0
  0
LINE
  5
1D3A
330
36
100
AcDbEntity
  8
0
100
AcDbLine
 10
-133.7740157402282
 20
-256.0401194725551
 30
0.0
 11
-130.2520925118902
 21
-257.467022852784
 31
0.0
  0
LINE
  5
1D3B
330
36
100
AcDbEntity
  8
0
100
AcDbLine
 10
-133.2487892313349
 20
-259.8036462224497
 30
0.0
 11
-130.2520925118902
 21
-257.467022852784
 31
0.0
  0
TEXT
  5
1D3C
330
36
100
AcDbEntity
  8
0
 62
     3
100
AcDbText
 10
-178.8299649606468
 20
-266.7396814848
 30
0.0
 40
2.0
  1
4
  7
高2
100
AcDbText
  0
LINE
  5
1D3D
330
36
100
AcDbEntity
  8
0
100
AcDbLine
 10
-178.1349684842288
 20
-263.6084302626187
 30
0.0
 11
-180.0349684842286
 21
-266.8993262626188
 31
0.0
  0
LINE
  5
1D3E
330
36
100
AcDbEntity
  8
0
100
AcDbLine
 10
-178.1349684842288
 20
-263.6084302626187
 30
0.0
 11
-176.2349684842289
 21
-266.8993262626188
 31
0.0
  0
LINE
  5
1D3F
330
36
100
AcDbEntity
  8
0
100
AcDbLine
 10
-180.0349684842286
 20
-266.8993262626188
 30
0.0
 11
-176.2349684842289
 21
-266.8993262626188
 31
0.0
  0
TEXT
  5
1F16
330
36
100
AcDbEntity
  8
0
 62
     4
100
AcDbText
 10
-180.0223833386305
 20
-271.2568832576652
 30
0.0
 40
3.2
  1
M10x25ノブボルト
 41
0.8
  7
高3.2
100
AcDbText
1001
ACAD
1000
MTEXTBEGIN
1070
    73
1070
     1
1070
    44
1040
1.0
1070
    74
1070
     0
1000
MTEXTEND
  0
LINE
  5
1F1B
330
36
100
AcDbEntity
  8
0
100
AcDbLine
 10
-129.4846468753377
 20
-267.2918038369068
 30
0.0
 11
-143.7435042635579
 21
-266.3821190649437
 31
0.0
  0
LINE
  5
1F1C
330
36
100
AcDbEntity
  8
0
100
AcDbLine
 10
-125.9917480006285
 20
-267.5146433555175
 30
0.0
 11
-126.9897191076882
 21
-267.4509749216288
 31
0.0
  0
LINE
  5
1F1F
330
36
100
AcDbEntity
  8
0
100
AcDbLine
 10
-125.1705558921546
 20
-281.5889335159828
 30
0.0
 11
-129.3030073804897
 21
-284.482507199401
 31
0.0
  0
LINE
  5
1F20
330
36
100
AcDbEntity
  8
0
100
AcDbLine
 10
-132.6270495647181
 20
-270.9399569402261
 30
0.0
 11
-136.7595010530533
 21
-273.8335306236442
 31
0.0
  0
LINE
  5
1F21
330
36
100
AcDbEntity
  8
0
100
AcDbLine
 10
-129.7130084160061
 20
-281.7176565432397
 30
0.0
 11
-134.3016199068144
 21
-275.1644401889279
 31
0.0
  0
LINE
  5
1F25
330
36
100
AcDbEntity
  8
0
100
AcDbLine
 10
24.55684191924933
 20
-317.6117577927433
 30
0.0
 11
24.55684191924933
 21
-314.6778697309966
 31
0.0
  0
LINE
  5
1F26
330
36
100
AcDbEntity
  8
0
100
AcDbLine
 10
38.05684191924934
 20
-315.2708187046419
 30
0.0
 11
38.05684191924934
 21
-317.1778697309966
 31
0.0
  0
LINE
  5
1F27
330
36
100
AcDbEntity
  8
0
100
AcDbLine
 10
27.05684191924933
 20
-315.9278697309966
 30
0.0
 11
35.55684191924934
 21
-315.9278697309966
 31
0.0
  0
TEXT
  5
1F31
330
36
100
AcDbEntity
  8
0
 62
     4
100
AcDbText
 10
146.3966102401226
 20
-245.7812695384806
 30
0.0
 40
2.5
  1
4-\U+22059(キャスター\U+22058.5)
100
AcDbText
1001
ACAD
1000
MTEXTBEGIN
1070
    73
1070
     1
1070
    44
1040
1.0
1070
    74
1070
     0
1000
MTEXTEND
  0
LINE
  5
1F32
330
36
100
AcDbEntity
  8
0
100
AcDbLine
 10
138.9243878883371
 20
-276.8624694789054
 30
0.0
 11
138.9243878883371
 21
-285.1788083827852
 31
0.0
  0
LINE
  5
1F33
330
36
100
AcDbEntity
  8
0
100
AcDbLine
 10
166.4243878883371
 20
-276.8624694789054
 30
0.0
 11
166.4243878883371
 21
-285.1788083827852
 31
0.0
  0
LINE
  5
1F34
330
36
100
AcDbEntity
  8
0
100
AcDbLine
 10
141.4243878883371
 20
-283.9288083827852
 30
0.0
 11
163.9243878883371
 21
-283.9288083827852
 31
0.0
  0
LINE
  5
1F38
330
36
100
AcDbEntity
  8
0
100
AcDbLine
 10
169.0743878883371
 20
-273.9083334789054
 30
0.0
 11
180.3696364133685
 21
-273.9083334789054
 31
0.0
  0
LINE
  5
1F39
330
36
100
AcDbEntity
  8
0
100
AcDbLine
 10
169.0743878883371
 20
-252.9083334789056
 30
0.0
 11
180.3696364133685
 21
-252.9083334789056
 31
0.0
  0
LINE
  5
1F3A
330
36
100
AcDbEntity
  8
0
100
AcDbLine
 10
179.1196364133685
 20
-271.4083334789054
 30
0.0
 11
179.1196364133685
 21
-255.4083334789056
 31
0.0
  0
LINE
  5
1F3E
330
36
100
AcDbEntity
  8
0
100
AcDbLine
 10
133.9243878883371
 20
-274.6583334789054
 30
0.0
 11
133.9243878883371
 21
-290.7260213572696
 31
0.0
  0
LINE
  5
1F3F
330
36
100
AcDbEntity
  8
0
100
AcDbLine
 10
171.4243878883371
 20
-274.6583334789053
 30
0.0
 11
171.4243878883371
 21
-290.7260213572696
 31
0.0
  0
LINE
  5
1F40
330
36
100
AcDbEntity
  8
0
100
AcDbLine
 10
136.4243878883371
 20
-289.4760213572697
 30
0.0
 11
168.9243878883371
 21
-289.4760213572697
 31
0.0
  0
LINE
  5
1F44
330
36
100
AcDbEntity
  8
0
100
AcDbLine
 10
167.1743878883371
 20
-278.4083334789055
 30
0.0
 11
185.3847447312763
 21
-278.4083334789055
 31
0.0
  0
LINE
  5
1F45
330
36
100
AcDbEntity
  8
0
100
AcDbLine
 10
167.1743878883369
 20
-248.4083334789055
 30
0.0
 11
185.3847447312763
 21
-248.4083334789055
 31
0.0
  0
LINE
  5
1F46
330
36
100
AcDbEntity
  8
0
100
AcDbLine
 10
184.1347447312763
 20
-275.9083334789055
 30
0.0
 11
184.1347447312763
 21
-250.9083334789055
 31
0.0
  0
TEXT
  5
1F4C
330
36
100
AcDbEntity
  8
0
 62
     4
100
AcDbText
 10
77.95301734834693
 20
-308.9673632539464
 30
0.0
 40
3.2
  1
自在キャスター
 41
0.8
  7
高3.2
100
AcDbText
1001
ACAD
1000
MTEXTBEGIN
1070
    73
1070
     1
1070
    44
1040
1.0
1070
    74
1070
     0
1000
MTEXTEND
  0
TEXT
  5
1F4D
330
36
100
AcDbEntity
  8
0
 62
     4
100
AcDbText
 10
78.12368401501361
 20
-314.3006965872797
 30
0.0
 40
3.2
  1
ナイロン車輪　\U+220575　幅25
 41
0.8
  7
高3.2
100
AcDbText
1001
ACAD
1000
MTEXTBEGIN
1070
    73
1070
     1
1070
    44
1040
1.0
1070
    74
1070
     0
1000
MTEXTEND
  0
TEXT
  5
1F4E
330
36
100
AcDbEntity
  8
0
 62
     4
100
AcDbText
 10
78.12368401501361
 20
-319.634029920613
 30
0.0
 40
3.2
  1
※許容荷重(1個40kgf)
 41
0.8
  7
高3.2
100
AcDbText
1001
ACAD
1000
MTEXTBEGIN
1070
    73
1070
     1
1070
    44
1040
1.0
1070
    74
1070
     0
1000
MTEXTEND
  0
TEXT
  5
1F4F
330
36
100
AcDbEntity
  8
0
 62
     4
100
AcDbText
 10
65.48701488730353
 20
-293.2418625383914
 30
0.0
 40
3.2
  1
取付けボルト4-M8x15
 41
0.8
  7
高3.2
100
AcDbText
1001
ACAD
1000
MTEXTBEGIN
1070
    73
1070
     1
1070
    44
1040
1.0
1070
    74
1070
     0
1000
MTEXTEND
  0
TEXT
  5
1F50
330
36
100
AcDbEntity
  8
0
 62
     4
100
AcDbText
 10
65.48701488730353
 20
-298.5751958717247
 30
0.0
 40
3.2
  1
M8ナット、ワッシャー、Sワッシャー
 41
0.8
  7
高3.2
100
AcDbText
1001
ACAD
1000
MTEXTBEGIN
1070
    73
1070
     1
1070
    44
1040
1.0
1070
    74
1070
     0
1000
MTEXTEND
  0
TEXT
  5
1F51
330
36
100
AcDbEntity
  8
0
 62
     4
100
AcDbText
 10
39.84081264220208
 20
-250.511234464228
 30
0.0
 40
3.2
  1
\U+220542.3x2.3t(内径\U+220537.7)
 41
0.8
  7
高3.2
100
AcDbText
1001
ACAD
1000
MTEXTBEGIN
1070
    73
1070
     1
1070
    44
1040
1.0
1070
    74
1070
     0
1000
MTEXTEND
  0
TEXT
  5
1F52
330
36
100
AcDbEntity
  8
0
 62
     4
100
AcDbText
 10
39.84081264220208
 20
-255.8445677975613
 30
0.0
 40
3.2
  1
焼き付け塗装(黒)
 41
0.8
  7
高3.2
100
AcDbText
1001
ACAD
1000
MTEXTBEGIN
1070
    73
1070
     1
1070
    44
1040
1.0
1070
    74
1070
     0
1000
MTEXTEND
  0
TEXT
  5
1F53
330
36
100
AcDbEntity
  8
0
 62
     4
100
AcDbText
 10
-66.51924983528306
 20
-296.0132481981767
 30
0.0
 40
3.2
  1
固定キャスター
 41
0.8
  7
高3.2
100
AcDbText
1001
ACAD
1000
MTEXTBEGIN
1070
    73
1070
     1
1070
    44
1040
1.0
1070
    74
1070
     0
1000
MTEXTEND
  0
TEXT
  5
1F54
330
36
100
AcDbEntity
  8
0
 62
     4
100
AcDbText
 10
-66.51924983528306
 20
-301.34658153151
 30
0.0
 40
3.2
  1
ナイロン車輪　\U+220575　幅25
 41
0.8
  7
高3.2
100
AcDbText
1001
ACAD
1000
MTEXTBEGIN
1070
    73
1070
     1
1070
    44
1040
1.0
1070
    74
1070
     0
1000
MTEXTEND
  0
TEXT
  5
1F55
330
36
100
AcDbEntity
  8
0
 62
     4
100
AcDbText
 10
-66.51924983528306
 20
-306.6799148648433
 30
0.0
 40
3.2
  1
※許容荷重(1個40kgf)
 41
0.8
  7
高3.2
100
AcDbText
1001
ACAD
1000
MTEXTBEGIN
1070
    73
1070
     1
1070
    44
1040
1.0
1070
    74
1070
     0
1000
MTEXTEND
  0
TEXT
  5
1F56
330
36
100
AcDbEntity
  8
0
 62
     4
100
AcDbText
 10
-46.36572298012906
 20
-271.2568832576654
 30
0.0
 40
3.2
  1
M10x25ノブボルト
 41
0.8
  7
高3.2
100
AcDbText
1001
ACAD
1000
MTEXTBEGIN
1070
    73
1070
     1
1070
    44
1040
1.0
1070
    74
1070
     0
1000
MTEXTEND
  0
LINE
  5
1F57
330
36
100
AcDbEntity
  8
0
100
AcDbLine
 10
-136.8851179984257
 20
-298.33698033095
 30
0.0
 11
-141.9628257266696
 21
-301.8924295590919
 31
0.0
  0
LINE
  5
1F58
330
36
100
AcDbEntity
  8
0
100
AcDbLine
 10
-148.3566467254464
 20
-281.9539394451699
 30
0.0
 11
-153.4343544536903
 21
-285.5093886733119
 31
0.0
  0
LINE
  5
1F59
330
36
100
AcDbEntity
  8
0
100
AcDbLine
 10
-142.372826762186
 20
-299.1275789029306
 30
0.0
 11
-150.9764733074515
 21
-286.8402982385955
 31
0.0
  0
LINE
  5
1F65
330
36
100
AcDbEntity
  8
0
100
AcDbLine
 10
-125.5188108058815
 20
-352.4475117046417
 30
0.0
 11
-137.1117942996066
 21
-352.4475117046416
 31
0.0
  0
ARC
  5
1F66
330
36
100
AcDbEntity
  8
0
100
AcDbCircle
 10
-62.33996037429079
 20
-352.447511704642
 30
0.0
 40
73.52183392531582
100
AcDbArc
 50
126.9483511607597
 51
178.05164883924
  0
LINE
  5
1F6A
330
36
100
AcDbEntity
  8
0
100
AcDbLine
 10
-114.8923348861852
 20
-258.5221312897135
 30
0.0
 11
-107.5146336743318
 21
-253.3618005327702
 31
0.0
  0
LINE
  5
1F6B
330
36
100
AcDbEntity
  8
0
100
AcDbLine
 10
-82.48526623235148
 20
-304.8042217920418
 30
0.0
 11
-75.13111761691998
 21
-299.6603648911455
 31
0.0
  0
LINE
  5
1F6C
330
36
100
AcDbEntity
  8
0
100
AcDbLine
 10
-107.1060392020719
 20
-256.1268594032536
 30
0.0
 11
-77.5883213966626
 21
-298.3282051466634
 31
0.0
  0
LINE
  5
1F70
330
36
100
AcDbEntity
  8
0
100
AcDbLine
 10
-127.5284901491847
 20
-267.0647149559339
 30
0.0
 11
-131.831704721824
 21
-260.9585312603676
 31
0.0
  0
LINE
  5
1F71
330
36
100
AcDbEntity
  8
0
100
AcDbLine
 10
-115.2412094848499
 20
-258.4610684106681
 30
0.0
 11
-119.5705934546788
 21
-252.3177508135163
 31
0.0
  0
LINE
  5
1F72
330
36
100
AcDbEntity
  8
0
100
AcDbLine
 10
-129.0681084657876
 20
-260.5401585394333
 30
0.0
 11
-120.8940530315531
 21
-254.779651450906
 31
0.0
  0
LINE
  5
1F76
330
36
100
AcDbEntity
  8
0
100
AcDbLine
 10
-95.84981843925197
 20
-352.4475117046418
 30
0.0
 11
-119.2180846043553
 21
-352.4475117046418
 31
0.0
  0
LINE
  5
1F77
330
36
100
AcDbEntity
  8
0
100
AcDbLine
 10
-114.5998184392519
 20
-306.9475117046419
 30
0.0
 11
-119.2180846043552
 21
-306.9475117046419
 31
0.0
  0
LINE
  5
1F78
330
36
100
AcDbEntity
  8
0
100
AcDbLine
 10
-117.9680846043552
 20
-349.9475117046418
 30
0.0
 11
-117.9680846043552
 21
-309.4475117046419
 31
0.0
  0
LINE
  5
1F7C
330
36
100
AcDbEntity
  8
0
100
AcDbLine
 10
-6.001578042349393
 20
-300.2787401410913
 30
0.0
 11
-8.99449753644356
 21
-302.3744049321108
 31
0.0
  0
LINE
  5
1F7D
330
36
100
AcDbEntity
  8
0
100
AcDbLine
 10
-17.47310676937029
 20
-283.8956992553113
 30
0.0
 11
-20.46602626346443
 21
-285.9913640463308
 31
0.0
  0
LINE
  5
1F7E
330
36
100
AcDbEntity
  8
0
100
AcDbLine
 10
-9.404498571959919
 20
-299.6095542759495
 30
0.0
 11
-18.00814511722558
 21
-287.3222736116144
 31
0.0
  0
ARC
  5
1F82
330
36
100
AcDbEntity
  8
0
100
AcDbCircle
 10
71.31669998421054
 20
-352.4475117046419
 30
0.0
 40
73.52183392531554
100
AcDbArc
 50
126.9483511607598
 51
178.0516488392402
  0
LINE
  5
1F86
330
36
100
AcDbEntity
  8
0
100
AcDbLine
 10
18.76432547231616
 20
-258.5221312897136
 30
0.0
 11
26.14202668416981
 21
-253.3618005327701
 31
0.0
  0
LINE
  5
1F87
330
36
100
AcDbEntity
  8
0
100
AcDbLine
 10
51.17139412615007
 20
-304.8042217920418
 30
0.0
 11
58.5255427415816
 21
-299.6603648911455
 31
0.0
  0
LINE
  5
1F88
330
36
100
AcDbEntity
  8
0
100
AcDbLine
 10
26.55062115642972
 20
-256.1268594032535
 30
0.0
 11
56.06833896183897
 21
-298.3282051466634
 31
0.0
  0
LINE
  5
1F8C
330
36
100
AcDbEntity
  8
0
100
AcDbLine
 10
6.128170209316621
 20
-267.0647149559341
 30
0.0
 11
1.248903606887211
 21
-260.1411238425582
 31
0.0
  0
LINE
  5
1F8D
330
36
100
AcDbEntity
  8
0
100
AcDbLine
 10
18.41545393856691
 20
-258.4610727878211
 30
0.0
 11
13.51001486080413
 21
-251.5003434050292
 31
0.0
  0
LINE
  5
1F8E
330
36
100
AcDbEntity
  8
0
100
AcDbLine
 10
4.012499862923547
 20
-259.7227511216238
 30
0.0
 11
12.1865552839298
 21
-253.9622440424188
 31
0.0
  0
LINE
  5
1F92
330
36
100
AcDbEntity
  8
0
100
AcDbLine
 10
54.47583428587893
 20
-352.4475117046419
 30
0.0
 11
64.08802837054025
 21
-352.4475117046419
 31
0.0
  0
LINE
  5
1F93
330
36
100
AcDbEntity
  8
0
100
AcDbLine
 10
57.05684191924932
 20
-306.9475117046419
 30
0.0
 11
64.08802837054027
 21
-306.9475117046419
 31
0.0
  0
LINE
  5
1F94
330
36
100
AcDbEntity
  8
0
100
AcDbLine
 10
62.83802837054025
 20
-349.9475117046419
 30
0.0
 11
62.83802837054026
 21
-309.4475117046419
 31
0.0
  0
LINE
  5
1F98
330
36
100
AcDbEntity
  8
0
100
AcDbLine
 10
-143.4187788510169
 20
-281.2445272037412
 30
0.0
 11
-149.3619028494615
 21
-272.1896314406052
 31
0.0
  0
LINE
  5
1F99
330
36
100
AcDbEntity
  8
0
100
AcDbLine
 10
-149.3619028494615
 20
-272.1896314406052
 30
0.0
 11
-152.4869028494615
 21
-272.1896314406052
 31
0.0
  0
LINE
  5
1F9A
330
36
100
AcDbEntity
  8
0
  6
ByBlock
 62
     0
370
    -2
100
AcDbLine
 10
-142.8587574240169
 20
-280.8769606552673
 30
0.0
 11
-142.0470008317896
 21
-283.3345571236143
 31
0.0
  0
LINE
  5
1F9B
330
36
100
AcDbEntity
  8
0
  6
ByBlock
 62
     0
370
    -2
100
AcDbLine
 10
-142.0470008317896
 20
-283.3345571236143
 30
0.0
 11
-143.978800278017
 21
-281.6120937522152
 31
0.0
  0
LINE
  5
1F9C
330
36
100
AcDbEntity
  8
0
  6
ByBlock
 62
     0
370
    -2
100
AcDbLine
 10
-142.0470008317896
 20
-283.3345571236143
 30
0.0
 11
-143.4187788510169
 21
-281.2445272037412
 31
0.0
  0
TEXT
  5
1F9D
330
36
100
AcDbEntity
  8
0
 62
     4
100
AcDbText
 10
-143.079979550465
 20
-265.7981798942116
 30
0.0
 40
3.0
  1
R2
 50
356.3495983578405
100
AcDbText
  0
LINE
  5
1F9E
330
36
100
AcDbEntity
  8
0
  6
ByBlock
 62
     0
370
    -2
100
AcDbLine
 10
-129.4419971423576
 20
-266.6232904364929
 30
0.0
 11
-126.9897191076882
 21
-267.4509749216288
 31
0.0
  0
LINE
  5
1F9F
330
36
100
AcDbEntity
  8
0
  6
ByBlock
 62
     0
370
    -2
100
AcDbLine
 10
-126.9897191076882
 20
-267.4509749216288
 30
0.0
 11
-129.5272966083179
 21
-267.9603172373207
 31
0.0
  0
LINE
  5
1FA0
330
36
100
AcDbEntity
  8
0
  6
ByBlock
 62
     0
370
    -2
100
AcDbLine
 10
-126.9897191076882
 20
-267.4509749216288
 30
0.0
 11
-129.4846468753377
 21
-267.2918038369068
 31
0.0
  0
TEXT
  5
1FA1
330
36
100
AcDbEntity
  8
0
 62
     4
100
AcDbText
 10
-133.4418231581943
 20
-275.3027029544099
 30
0.0
 40
3.0
  1
26
 50
305.0
100
AcDbText
  0
LINE
  5
1FA2
330
36
100
AcDbEntity
  8
0
  6
ByBlock
 62
     0
370
    -2
100
AcDbLine
 10
-134.8503473346024
 20
-275.5486632702874
 30
0.0
 11
-135.735560997692
 21
-273.1165600782054
 31
0.0
  0
LINE
  5
1FA3
330
36
100
AcDbEntity
  8
0
  6
ByBlock
 62
     0
370
    -2
100
AcDbLine
 10
-135.735560997692
 20
-273.1165600782054
 30
0.0
 11
-133.7528924790264
 21
-274.7802171075683
 31
0.0
  0
LINE
  5
1FA4
330
36
100
AcDbEntity
  8
0
  6
ByBlock
 62
     0
370
    -2
100
AcDbLine
 10
-135.735560997692
 20
-273.1165600782054
 30
0.0
 11
-134.3016199068144
 21
-275.1644401889279
 31
0.0
  0
LINE
  5
1FA5
330
36
100
AcDbEntity
  8
0
  6
ByBlock
 62
     0
370
    -2
100
AcDbLine
 10
-129.1642809882182
 20
-281.3334334618801
 30
0.0
 11
-128.2790673251285
 21
-283.7655366539621
 31
0.0
  0
LINE
  5
1FA6
330
36
100
AcDbEntity
  8
0
  6
ByBlock
 62
     0
370
    -2
100
AcDbLine
 10
-128.2790673251285
 20
-283.7655366539621
 30
0.0
 11
-130.2617358437941
 21
-282.1018796245992
 31
0.0
  0
LINE
  5
1FA7
330
36
100
AcDbEntity
  8
0
  6
ByBlock
 62
     0
370
    -2
100
AcDbLine
 10
-128.2790673251285
 20
-283.7655366539621
 30
0.0
 11
-129.7130084160061
 21
-281.7176565432397
 31
0.0
  0
TEXT
  5
1FA8
330
36
100
AcDbEntity
  8
0
 62
     4
100
AcDbText
 10
28.80684191924933
 20
-315.3028697309967
 30
0.0
 40
3.0
  1
27
100
AcDbText
  0
LINE
  5
1FA9
330
36
100
AcDbEntity
  8
0
  6
ByBlock
 62
     0
370
    -2
100
AcDbLine
 10
35.55684191924934
 20
-315.2579972309967
 30
0.0
 11
38.05684191924934
 21
-315.9278697309966
 31
0.0
  0
LINE
  5
1FAA
330
36
100
AcDbEntity
  8
0
  6
ByBlock
 62
     0
370
    -2
100
AcDbLine
 10
38.05684191924934
 20
-315.9278697309966
 30
0.0
 11
35.55684191924934
 21
-316.5977422309966
 31
0.0
  0
LINE
  5
1FAB
330
36
100
AcDbEntity
  8
0
  6
ByBlock
 62
     0
370
    -2
100
AcDbLine
 10
38.05684191924934
 20
-315.9278697309966
 30
0.0
 11
35.55684191924934
 21
-315.9278697309966
 31
0.0
  0
LINE
  5
1FAC
330
36
100
AcDbEntity
  8
0
  6
ByBlock
 62
     0
370
    -2
100
AcDbLine
 10
27.05684191924933
 20
-316.5977422309966
 30
0.0
 11
24.55684191924933
 21
-315.9278697309966
 31
0.0
  0
LINE
  5
1FAD
330
36
100
AcDbEntity
  8
0
  6
ByBlock
 62
     0
370
    -2
100
AcDbLine
 10
24.55684191924933
 20
-315.9278697309966
 30
0.0
 11
27.05684191924933
 21
-315.2579972309967
 31
0.0
  0
LINE
  5
1FAE
330
36
100
AcDbEntity
  8
0
  6
ByBlock
 62
     0
370
    -2
100
AcDbLine
 10
24.55684191924933
 20
-315.9278697309966
 30
0.0
 11
27.05684191924933
 21
-315.9278697309966
 31
0.0
  0
LINE
  5
1FAF
330
36
100
AcDbEntity
  8
0
100
AcDbLine
 10
19.91515335386207
 20
-257.6513194853746
 30
0.0
 11
21.47752296462909
 21
-245.9414275679774
 31
0.0
1001
ACAD
1000
DSTYLE
1002
{
1070
   147
1040
0.625
1070
    77
1070
     0
1002
}
  0
LINE
  5
1FB0
330
36
100
AcDbEntity
  8
0
  6
ByBlock
 62
     0
370
    -2
100
AcDbLine
 10
20.57914185828076
 20
-257.7399108633754
 30
0.0
 11
19.58452559260608
 21
-260.1293600991433
 31
0.0
  0
LINE
  5
1FB1
330
36
100
AcDbEntity
  8
0
  6
ByBlock
 62
     0
370
    -2
100
AcDbLine
 10
19.58452559260608
 20
-260.1293600991433
 30
0.0
 11
19.25116484944338
 21
-257.5627281073739
 31
0.0
  0
LINE
  5
1FB2
330
36
100
AcDbEntity
  8
0
  6
ByBlock
 62
     0
370
    -2
100
AcDbLine
 10
19.58452559260608
 20
-260.1293600991433
 30
0.0
 11
19.91515335386207
 21
-257.6513194853746
 31
0.0
  0
LINE
  5
1FB3
330
36
100
AcDbEntity
  8
0
100
AcDbLine
 10
-109.1083969157974
 20
-263.3033012750845
 30
0.0
 11
-100.2154737186982
 21
-247.2107281447226
 31
0.0
1001
ACAD
1000
DSTYLE
1002
{
1070
   147
1040
0.625
1070
    77
1070
     0
1002
}
  0
LINE
  5
1FB4
330
36
100
AcDbEntity
  8
0
  6
ByBlock
 62
     0
370
    -2
100
AcDbLine
 10
-108.5220914224499
 20
-263.627299785462
 30
0.0
 11
-110.3175766864904
 21
-265.4914247364429
 31
0.0
  0
LINE
  5
1FB5
330
36
100
AcDbEntity
  8
0
  6
ByBlock
 62
     0
370
    -2
100
AcDbLine
 10
-110.3175766864904
 20
-265.4914247364429
 30
0.0
 11
-109.6947024091449
 21
-262.9793027647072
 31
0.0
  0
LINE
  5
1FB6
330
36
100
AcDbEntity
  8
0
  6
ByBlock
 62
     0
370
    -2
100
AcDbLine
 10
-110.3175766864904
 20
-265.4914247364429
 30
0.0
 11
-109.1083969157974
 21
-263.3033012750845
 31
0.0
  0
LINE
  5
1FB7
330
36
100
AcDbEntity
  8
0
100
AcDbLine
 10
140.9115121864103
 20
-248.8318429692918
 30
0.0
 11
143.2716102401226
 21
-244.5312695384806
 31
0.0
1001
ACAD
1000
DSTYLE
1002
{
1070
   147
1040
0.625
1070
    77
1070
     0
1002
}
  0
LINE
  5
1FB8
330
36
100
AcDbEntity
  8
0
100
AcDbLine
 10
143.2716102401226
 20
-244.5312695384806
 30
0.0
 11
145.7716102401226
 21
-244.5312695384806
 31
0.0
1001
ACAD
1000
DSTYLE
1002
{
1070
   147
1040
0.625
1070
    77
1070
     0
1002
}
  0
LINE
  5
1FB9
330
36
100
AcDbEntity
  8
0
  6
ByBlock
 62
     0
370
    -2
100
AcDbLine
 10
141.4987657109052
 20
-249.1541199685092
 30
0.0
 11
139.7087571874462
 21
-251.0235045336002
 31
0.0
  0
LINE
  5
1FBA
330
36
100
AcDbEntity
  8
0
  6
ByBlock
 62
     0
370
    -2
100
AcDbLine
 10
139.7087571874462
 20
-251.0235045336002
 30
0.0
 11
140.3242586619154
 21
-248.5095659700743
 31
0.0
  0
LINE
  5
1FBB
330
36
100
AcDbEntity
  8
0
  6
ByBlock
 62
     0
370
    -2
100
AcDbLine
 10
139.7087571874462
 20
-251.0235045336002
 30
0.0
 11
140.9115121864103
 21
-248.8318429692918
 31
0.0
  0
TEXT
  5
1FBC
330
36
100
AcDbEntity
  8
0
 62
     4
100
AcDbText
 10
150.0331871677142
 20
-283.3038083827852
 30
0.0
 40
3.0
  1
55
100
AcDbText
  0
LINE
  5
1FBD
330
36
100
AcDbEntity
  8
0
  6
ByBlock
 62
     0
370
    -2
100
AcDbLine
 10
163.9243878883371
 20
-283.2589358827852
 30
0.0
 11
166.4243878883371
 21
-283.9288083827852
 31
0.0
  0
LINE
  5
1FBE
330
36
100
AcDbEntity
  8
0
  6
ByBlock
 62
     0
370
    -2
100
AcDbLine
 10
166.4243878883371
 20
-283.9288083827852
 30
0.0
 11
163.9243878883371
 21
-284.5986808827852
 31
0.0
  0
LINE
  5
1FBF
330
36
100
AcDbEntity
  8
0
  6
ByBlock
 62
     0
370
    -2
100
AcDbLine
 10
166.4243878883371
 20
-283.9288083827852
 30
0.0
 11
163.9243878883371
 21
-283.9288083827852
 31
0.0
  0
LINE
  5
1FC0
330
36
100
AcDbEntity
  8
0
  6
ByBlock
 62
     0
370
    -2
100
AcDbLine
 10
141.4243878883371
 20
-284.5986808827852
 30
0.0
 11
138.9243878883371
 21
-283.9288083827852
 31
0.0
  0
LINE
  5
1FC1
330
36
100
AcDbEntity
  8
0
  6
ByBlock
 62
     0
370
    -2
100
AcDbLine
 10
138.9243878883371
 20
-283.9288083827852
 30
0.0
 11
141.4243878883371
 21
-283.2589358827852
 31
0.0
  0
LINE
  5
1FC2
330
36
100
AcDbEntity
  8
0
  6
ByBlock
 62
     0
370
    -2
100
AcDbLine
 10
138.9243878883371
 20
-283.9288083827852
 30
0.0
 11
141.4243878883371
 21
-283.9288083827852
 31
0.0
  0
TEXT
  5
1FC3
330
36
100
AcDbEntity
  8
0
 62
     4
100
AcDbText
 10
178.4946364133686
 20
-266.2953602456013
 30
0.0
 40
3.0
  1
42
 50
90.0
100
AcDbText
  0
LINE
  5
1FC4
330
36
100
AcDbEntity
  8
0
  6
ByBlock
 62
     0
370
    -2
100
AcDbLine
 10
178.4497639133685
 20
-255.4083334789056
 30
0.0
 11
179.1196364133685
 21
-252.9083334789056
 31
0.0
  0
LINE
  5
1FC5
330
36
100
AcDbEntity
  8
0
  6
ByBlock
 62
     0
370
    -2
100
AcDbLine
 10
179.1196364133685
 20
-252.9083334789056
 30
0.0
 11
179.7895089133685
 21
-255.4083334789056
 31
0.0
  0
LINE
  5
1FC6
330
36
100
AcDbEntity
  8
0
  6
ByBlock
 62
     0
370
    -2
100
AcDbLine
 10
179.1196364133685
 20
-252.9083334789056
 30
0.0
 11
179.1196364133685
 21
-255.4083334789056
 31
0.0
  0
LINE
  5
1FC7
330
36
100
AcDbEntity
  8
0
  6
ByBlock
 62
     0
370
    -2
100
AcDbLine
 10
179.7895089133685
 20
-271.4083334789054
 30
0.0
 11
179.1196364133685
 21
-273.9083334789054
 31
0.0
  0
LINE
  5
1FC8
330
36
100
AcDbEntity
  8
0
  6
ByBlock
 62
     0
370
    -2
100
AcDbLine
 10
179.1196364133685
 20
-273.9083334789054
 30
0.0
 11
178.4497639133685
 21
-271.4083334789054
 31
0.0
  0
LINE
  5
1FC9
330
36
100
AcDbEntity
  8
0
  6
ByBlock
 62
     0
370
    -2
100
AcDbLine
 10
179.1196364133685
 20
-273.9083334789054
 30
0.0
 11
179.1196364133685
 21
-271.4083334789054
 31
0.0
  0
TEXT
  5
1FCA
330
36
100
AcDbEntity
  8
0
 62
     4
100
AcDbText
 10
149.6424990570425
 20
-288.8510213572697
 30
0.0
 40
3.0
  1
75
100
AcDbText
  0
LINE
  5
1FCB
330
36
100
AcDbEntity
  8
0
  6
ByBlock
 62
     0
370
    -2
100
AcDbLine
 10
168.9243878883371
 20
-288.8061488572697
 30
0.0
 11
171.4243878883371
 21
-289.4760213572697
 31
0.0
  0
LINE
  5
1FCC
330
36
100
AcDbEntity
  8
0
  6
ByBlock
 62
     0
370
    -2
100
AcDbLine
 10
171.4243878883371
 20
-289.4760213572697
 30
0.0
 11
168.9243878883371
 21
-290.1458938572696
 31
0.0
  0
LINE
  5
1FCD
330
36
100
AcDbEntity
  8
0
  6
ByBlock
 62
     0
370
    -2
100
AcDbLine
 10
171.4243878883371
 20
-289.4760213572697
 30
0.0
 11
168.9243878883371
 21
-289.4760213572697
 31
0.0
  0
LINE
  5
1FCE
330
36
100
AcDbEntity
  8
0
  6
ByBlock
 62
     0
370
    -2
100
AcDbLine
 10
136.4243878883371
 20
-290.1458938572696
 30
0.0
 11
133.9243878883371
 21
-289.4760213572697
 31
0.0
  0
LINE
  5
1FCF
330
36
100
AcDbEntity
  8
0
  6
ByBlock
 62
     0
370
    -2
100
AcDbLine
 10
133.9243878883371
 20
-289.4760213572697
 30
0.0
 11
136.4243878883371
 21
-288.8061488572697
 31
0.0
  0
LINE
  5
1FD0
330
36
100
AcDbEntity
  8
0
  6
ByBlock
 62
     0
370
    -2
100
AcDbLine
 10
133.9243878883371
 20
-289.4760213572697
 30
0.0
 11
136.4243878883371
 21
-289.4760213572697
 31
0.0
  0
TEXT
  5
1FD1
330
36
100
AcDbEntity
  8
0
 62
     4
100
AcDbText
 10
183.5097447312764
 20
-265.7740649138122
 30
0.0
 40
3.0
  1
60
 50
90.0
100
AcDbText
  0
LINE
  5
1FD2
330
36
100
AcDbEntity
  8
0
  6
ByBlock
 62
     0
370
    -2
100
AcDbLine
 10
183.4648722312763
 20
-250.9083334789055
 30
0.0
 11
184.1347447312763
 21
-248.4083334789055
 31
0.0
  0
LINE
  5
1FD3
330
36
100
AcDbEntity
  8
0
  6
ByBlock
 62
     0
370
    -2
100
AcDbLine
 10
184.1347447312763
 20
-248.4083334789055
 30
0.0
 11
184.8046172312763
 21
-250.9083334789055
 31
0.0
  0
LINE
  5
1FD4
330
36
100
AcDbEntity
  8
0
  6
ByBlock
 62
     0
370
    -2
100
AcDbLine
 10
184.1347447312763
 20
-248.4083334789055
 30
0.0
 11
184.1347447312763
 21
-250.9083334789055
 31
0.0
  0
LINE
  5
1FD5
330
36
100
AcDbEntity
  8
0
  6
ByBlock
 62
     0
370
    -2
100
AcDbLine
 10
184.8046172312763
 20
-275.9083334789055
 30
0.0
 11
184.1347447312763
 21
-278.4083334789055
 31
0.0
  0
LINE
  5
1FD6
330
36
100
AcDbEntity
  8
0
  6
ByBlock
 62
     0
370
    -2
100
AcDbLine
 10
184.1347447312763
 20
-278.4083334789055
 30
0.0
 11
183.4648722312763
 21
-275.9083334789055
 31
0.0
  0
LINE
  5
1FD7
330
36
100
AcDbEntity
  8
0
  6
ByBlock
 62
     0
370
    -2
100
AcDbLine
 10
184.1347447312763
 20
-278.4083334789055
 30
0.0
 11
184.1347447312763
 21
-275.9083334789055
 31
0.0
  0
LINE
  5
1FD8
330
36
100
AcDbEntity
  8
0
100
AcDbLine
 10
-70.76423231752901
 20
-315.9164848054776
 30
0.0
 11
-68.99178390277642
 21
-308.2109296637108
 31
0.0
  0
LINE
  5
1FD9
330
36
100
AcDbEntity
  8
0
100
AcDbLine
 10
-68.99178390277642
 20
-308.2109296637108
 30
0.0
 11
-26.44278390277641
 21
-308.2109296637108
 31
0.0
  0
LINE
  5
1FDA
330
36
100
AcDbEntity
  8
0
  6
ByBlock
 62
     0
370
    -2
100
AcDbLine
 10
-70.11140775814759
 20
-316.0666489187827
 30
0.0
 11
-71.32465282033037
 21
-318.3528609792323
 31
0.0
  0
LINE
  5
1FDB
330
36
100
AcDbEntity
  8
0
  6
ByBlock
 62
     0
370
    -2
100
AcDbLine
 10
-71.32465282033037
 20
-318.3528609792323
 30
0.0
 11
-71.41705687691042
 21
-315.7663206921724
 31
0.0
  0
LINE
  5
1FDC
330
36
100
AcDbEntity
  8
0
  6
ByBlock
 62
     0
370
    -2
100
AcDbLine
 10
-71.32465282033037
 20
-318.3528609792323
 30
0.0
 11
-70.76423231752901
 21
-315.9164848054776
 31
0.0
  0
TEXT
  5
1FDD
330
36
100
AcDbEntity
  8
0
 62
     4
100
AcDbText
 10
-148.4753790559623
 20
-289.3225767612709
 30
0.0
 40
3.0
  1
40
 50
304.9999999999991
100
AcDbText
  0
LINE
  5
1FDE
330
36
100
AcDbEntity
  8
0
  6
ByBlock
 62
     0
370
    -2
100
AcDbLine
 10
-151.5252007352395
 20
-287.2245213199552
 30
0.0
 11
-152.4104143983291
 21
-284.7924181278731
 31
0.0
  0
LINE
  5
1FDF
330
36
100
AcDbEntity
  8
0
  6
ByBlock
 62
     0
370
    -2
100
AcDbLine
 10
-152.4104143983291
 20
-284.7924181278731
 30
0.0
 11
-150.4277458796635
 21
-286.456075157236
 31
0.0
  0
LINE
  5
1FE0
330
36
100
AcDbEntity
  8
0
  6
ByBlock
 62
     0
370
    -2
100
AcDbLine
 10
-152.4104143983291
 20
-284.7924181278731
 30
0.0
 11
-150.9764733074515
 21
-286.8402982385955
 31
0.0
  0
LINE
  5
1FE1
330
36
100
AcDbEntity
  8
0
  6
ByBlock
 62
     0
370
    -2
100
AcDbLine
 10
-141.824099334398
 20
-298.743355821571
 30
0.0
 11
-140.9388856713084
 21
-301.1754590136531
 31
0.0
  0
LINE
  5
1FE2
330
36
100
AcDbEntity
  8
0
  6
ByBlock
 62
     0
370
    -2
100
AcDbLine
 10
-140.9388856713084
 20
-301.1754590136531
 30
0.0
 11
-142.921554189974
 21
-299.5118019842902
 31
0.0
  0
LINE
  5
1FE3
330
36
100
AcDbEntity
  8
0
  6
ByBlock
 62
     0
370
    -2
100
AcDbLine
 10
-140.9388856713084
 20
-301.1754590136531
 30
0.0
 11
-142.372826762186
 21
-299.1275789029306
 31
0.0
  0
LINE
  5
1FE4
330
36
100
AcDbEntity
  8
0
100
AcDbLine
 10
45.29222888729432
 20
-329.0507338528519
 30
0.0
 11
78.15114994752025
 21
-321.1650447194805
 31
0.0
  0
LINE
  5
1FE5
330
36
100
AcDbEntity
  8
0
100
AcDbLine
 10
78.15114994752025
 20
-321.1650447194805
 30
0.0
 11
78.77614994752025
 21
-321.1650447194805
 31
0.0
  0
LINE
  5
1FE6
330
36
100
AcDbEntity
  8
0
  6
ByBlock
 62
     0
370
    -2
100
AcDbLine
 10
45.44855053966191
 20
-329.7021113987171
 30
0.0
 11
42.86125304537979
 21
-329.6341346207876
 31
0.0
  0
LINE
  5
1FE7
330
36
100
AcDbEntity
  8
0
  6
ByBlock
 62
     0
370
    -2
100
AcDbLine
 10
42.86125304537979
 20
-329.6341346207876
 30
0.0
 11
45.13590723492671
 21
-328.3993563069868
 31
0.0
  0
LINE
  5
1FE8
330
36
100
AcDbEntity
  8
0
  6
ByBlock
 62
     0
370
    -2
100
AcDbLine
 10
42.86125304537979
 20
-329.6341346207876
 30
0.0
 11
45.29222888729432
 21
-329.0507338528519
 31
0.0
  0
LINE
  5
1FE9
330
36
100
AcDbEntity
  8
0
100
AcDbLine
 10
24.62420459955545
 20
-263.0512397143734
 30
0.0
 11
36.71581264220208
 21
-257.7195677975613
 31
0.0
  0
LINE
  5
1FEA
330
36
100
AcDbEntity
  8
0
100
AcDbLine
 10
36.71581264220208
 20
-257.7195677975613
 30
0.0
 11
39.84081264220208
 21
-257.7195677975613
 31
0.0
  0
LINE
  5
1FEB
330
36
100
AcDbEntity
  8
0
  6
ByBlock
 62
     0
370
    -2
100
AcDbLine
 10
24.89447066909278
 20
-263.6641715359597
 30
0.0
 11
22.33671025702648
 21
-264.0598871418216
 31
0.0
  0
LINE
  5
1FEC
330
36
100
AcDbEntity
  8
0
  6
ByBlock
 62
     0
370
    -2
100
AcDbLine
 10
22.33671025702648
 20
-264.0598871418216
 30
0.0
 11
24.35393853001812
 21
-262.4383078927871
 31
0.0
  0
LINE
  5
1FED
330
36
100
AcDbEntity
  8
0
  6
ByBlock
 62
     0
370
    -2
100
AcDbLine
 10
22.33671025702648
 20
-264.0598871418216
 30
0.0
 11
24.62420459955545
 21
-263.0512397143734
 31
0.0
  0
LINE
  5
1FEE
330
36
100
AcDbEntity
  8
0
100
AcDbLine
 10
54.34814854485264
 20
-303.9475547318344
 30
0.0
 11
62.36201488730353
 21
-300.4501958717248
 31
0.0
  0
LINE
  5
1FEF
330
36
100
AcDbEntity
  8
0
100
AcDbLine
 10
62.36201488730353
 20
-300.4501958717248
 30
0.0
 11
65.48701488730353
 21
-300.4501958717248
 31
0.0
  0
LINE
  5
1FF0
330
36
100
AcDbEntity
  8
0
  6
ByBlock
 62
     0
370
    -2
100
AcDbLine
 10
54.61608601575945
 20
-304.5615080508582
 30
0.0
 11
52.05684191924934
 21
-304.9475117046419
 31
0.0
  0
LINE
  5
1FF1
330
36
100
AcDbEntity
  8
0
  6
ByBlock
 62
     0
370
    -2
100
AcDbLine
 10
52.05684191924934
 20
-304.9475117046419
 30
0.0
 11
54.08021107394583
 21
-303.3336014128106
 31
0.0
  0
LINE
  5
1FF2
330
36
100
AcDbEntity
  8
0
  6
ByBlock
 62
     0
370
    -2
100
AcDbLine
 10
52.05684191924934
 20
-304.9475117046419
 30
0.0
 11
54.34814854485264
 21
-303.9475547318344
 31
0.0
  0
LINE
  5
1FF3
330
36
100
AcDbEntity
  8
0
100
AcDbLine
 10
-9.762118492515458
 20
-281.2445272037414
 30
0.0
 11
-15.70524249096002
 21
-272.1896314406054
 31
0.0
  0
LINE
  5
1FF4
330
36
100
AcDbEntity
  8
0
100
AcDbLine
 10
-15.70524249096002
 20
-272.1896314406054
 30
0.0
 11
-18.83024249096002
 21
-272.1896314406054
 31
0.0
  0
LINE
  5
1FF5
330
36
100
AcDbEntity
  8
0
  6
ByBlock
 62
     0
370
    -2
100
AcDbLine
 10
-9.202097065515387
 20
-280.8769606552674
 30
0.0
 11
-8.390340473288105
 21
-283.3345571236145
 31
0.0
  0
LINE
  5
1FF6
330
36
100
AcDbEntity
  8
0
  6
ByBlock
 62
     0
370
    -2
100
AcDbLine
 10
-8.390340473288105
 20
-283.3345571236145
 30
0.0
 11
-10.32213991951553
 21
-281.6120937522153
 31
0.0
  0
LINE
  5
1FF7
330
36
100
AcDbEntity
  8
0
  6
ByBlock
 62
     0
370
    -2
100
AcDbLine
 10
-8.390340473288105
 20
-283.3345571236145
 30
0.0
 11
-9.762118492515458
 21
-281.2445272037414
 31
0.0
  0
TEXT
  5
1FF8
330
36
100
AcDbEntity
  8
0
 62
     4
100
AcDbText
 10
-129.7251254582349
 20
-321.3148518799827
 30
0.0
 40
3.0
  1
55\U+00B0
 50
62.49999999999985
100
AcDbText
  0
LINE
  5
1FF9
330
36
100
AcDbEntity
  8
0
  6
ByBlock
 62
     0
370
    -2
100
AcDbLine
 10
-135.1495142426922
 20
-349.9592620614631
 30
0.0
 11
-135.8617942996066
 21
-352.4475117046417
 31
0.0
  0
LINE
  5
1FFA
330
36
100
AcDbEntity
  8
0
  6
ByBlock
 62
     0
370
    -2
100
AcDbLine
 10
-135.8617942996066
 20
-352.4475117046417
 30
0.0
 11
-136.4890655956358
 21
-349.9364840489927
 31
0.0
  0
LINE
  5
1FFB
330
36
100
AcDbEntity
  8
0
  6
ByBlock
 62
     0
370
    -2
100
AcDbLine
 10
-135.8617942996066
 20
-352.4475117046417
 30
0.0
 11
-135.819289919164
 21
-349.9478730552279
 31
0.0
  0
LINE
  5
1FFC
330
36
100
AcDbEntity
  8
0
  6
ByBlock
 62
     0
370
    -2
100
AcDbLine
 10
-106.9270533431596
 20
-293.1483868746838
 30
0.0
 11
-104.5103518711668
 21
-292.2219511448438
 31
0.0
  0
LINE
  5
1FFD
330
36
100
AcDbEntity
  8
0
  6
ByBlock
 62
     0
370
    -2
100
AcDbLine
 10
-104.5103518711668
 20
-292.2219511448438
 30
0.0
 11
-106.140059596349
 21
-294.2326181726576
 31
0.0
  0
LINE
  5
1FFE
330
36
100
AcDbEntity
  8
0
  6
ByBlock
 62
     0
370
    -2
100
AcDbLine
 10
-104.5103518711668
 20
-292.2219511448438
 30
0.0
 11
-106.5335564697543
 21
-293.6905025236707
 31
0.0
  0
LINE
  5
1FFF
330
36
100
AcDbEntity
  8
0
  6
ByBlock
 62
     0
370
    -2
100
AcDbLine
 10
-77.03939858133193
 20
-297.9442612587505
 30
0.0
 11
-76.15542227066133
 21
-300.3768144541461
 31
0.0
  0
LINE
  5
2000
330
36
100
AcDbEntity
  8
0
  6
ByBlock
 62
     0
370
    -2
100
AcDbLine
 10
-76.15542227066133
 20
-300.3768144541461
 30
0.0
 11
-78.13724421199329
 21
-298.7121490345763
 31
0.0
  0
LINE
  5
2001
330
36
100
AcDbEntity
  8
0
  6
ByBlock
 62
     0
370
    -2
100
AcDbLine
 10
-76.15542227066133
 20
-300.3768144541461
 30
0.0
 11
-77.5883213966626
 21
-298.3282051466634
 31
0.0
  0
TEXT
  5
2002
330
36
100
AcDbEntity
  8
0
 62
     4
100
AcDbText
 10
-93.55450692369814
 20
-274.4109763244789
 30
0.0
 40
3.0
  1
113
 50
304.9708530000041
100
AcDbText
  0
LINE
  5
2003
330
36
100
AcDbEntity
  8
0
  6
ByBlock
 62
     0
370
    -2
100
AcDbLine
 10
-107.6549620174026
 20
-256.5108032911664
 30
0.0
 11
-108.5389383280732
 21
-254.0782500957708
 31
0.0
  0
LINE
  5
2004
330
36
100
AcDbEntity
  8
0
  6
ByBlock
 62
     0
370
    -2
100
AcDbLine
 10
-108.5389383280732
 20
-254.0782500957708
 30
0.0
 11
-106.5571163867412
 21
-255.7429155153406
 31
0.0
  0
LINE
  5
2005
330
36
100
AcDbEntity
  8
0
  6
ByBlock
 62
     0
370
    -2
100
AcDbLine
 10
-108.5389383280732
 20
-254.0782500957708
 30
0.0
 11
-107.1060392020719
 21
-256.1268594032536
 31
0.0
  0
TEXT
  5
2006
330
36
100
AcDbEntity
  8
0
 62
     4
100
AcDbText
 10
-127.1802900432707
 20
-258.4451460273016
 30
0.0
 40
3.0
  1
30
 50
35.17352500000183
100
AcDbText
  0
LINE
  5
2007
330
36
100
AcDbEntity
  8
0
  6
ByBlock
 62
     0
370
    -2
100
AcDbLine
 10
-121.2799362145979
 20
-254.2320901892197
 30
0.0
 11
-118.8505251150978
 21
-253.339514771744
 31
0.0
  0
LINE
  5
2008
330
36
100
AcDbEntity
  8
0
  6
ByBlock
 62
     0
370
    -2
100
AcDbLine
 10
-118.8505251150978
 20
-253.339514771744
 30
0.0
 11
-120.5081698485083
 21
-255.3272127125923
 31
0.0
  0
LINE
  5
2009
330
36
100
AcDbEntity
  8
0
  6
ByBlock
 62
     0
370
    -2
100
AcDbLine
 10
-118.8505251150978
 20
-253.339514771744
 30
0.0
 11
-120.8940530315531
 21
-254.779651450906
 31
0.0
  0
LINE
  5
200A
330
36
100
AcDbEntity
  8
0
  6
ByBlock
 62
     0
370
    -2
100
AcDbLine
 10
-128.6822252827429
 20
-261.0877198011196
 30
0.0
 11
-131.111636382243
 21
-261.9802952185953
 31
0.0
  0
LINE
  5
200B
330
36
100
AcDbEntity
  8
0
  6
ByBlock
 62
     0
370
    -2
100
AcDbLine
 10
-131.111636382243
 20
-261.9802952185953
 30
0.0
 11
-129.4539916488324
 21
-259.992597277747
 31
0.0
  0
LINE
  5
200C
330
36
100
AcDbEntity
  8
0
  6
ByBlock
 62
     0
370
    -2
100
AcDbLine
 10
-131.111636382243
 20
-261.9802952185953
 30
0.0
 11
-129.0681084657877
 21
-260.5401585394333
 31
0.0
  0
TEXT
  5
200D
330
36
100
AcDbEntity
  8
0
 62
     4
100
AcDbText
 10
-118.5930846043552
 20
-332.4475117046418
 30
0.0
 40
3.0
  1
91
 50
90.0
100
AcDbText
  0
LINE
  5
200E
330
36
100
AcDbEntity
  8
0
  6
ByBlock
 62
     0
370
    -2
100
AcDbLine
 10
-118.6379571043552
 20
-309.4475117046419
 30
0.0
 11
-117.9680846043552
 21
-306.9475117046419
 31
0.0
  0
LINE
  5
200F
330
36
100
AcDbEntity
  8
0
  6
ByBlock
 62
     0
370
    -2
100
AcDbLine
 10
-117.9680846043552
 20
-306.9475117046419
 30
0.0
 11
-117.2982121043552
 21
-309.4475117046419
 31
0.0
  0
LINE
  5
2010
330
36
100
AcDbEntity
  8
0
  6
ByBlock
 62
     0
370
    -2
100
AcDbLine
 10
-117.9680846043552
 20
-306.9475117046419
 30
0.0
 11
-117.9680846043552
 21
-309.4475117046419
 31
0.0
  0
LINE
  5
2011
330
36
100
AcDbEntity
  8
0
  6
ByBlock
 62
     0
370
    -2
100
AcDbLine
 10
-117.2982121043552
 20
-349.9475117046418
 30
0.0
 11
-117.9680846043552
 21
-352.4475117046418
 31
0.0
  0
LINE
  5
2012
330
36
100
AcDbEntity
  8
0
  6
ByBlock
 62
     0
370
    -2
100
AcDbLine
 10
-117.9680846043552
 20
-352.4475117046418
 30
0.0
 11
-118.6379571043552
 21
-349.9475117046418
 31
0.0
  0
LINE
  5
2013
330
36
100
AcDbEntity
  8
0
  6
ByBlock
 62
     0
370
    -2
100
AcDbLine
 10
-117.9680846043552
 20
-352.4475117046418
 30
0.0
 11
-117.9680846043552
 21
-349.9475117046418
 31
0.0
  0
TEXT
  5
2014
330
36
100
AcDbEntity
  8
0
 62
     4
100
AcDbText
 10
-14.69584205670261
 20
-290.9630783779631
 30
0.0
 40
3.0
  1
40
 50
304.9999999999995
100
AcDbText
  0
LINE
  5
2015
330
36
100
AcDbEntity
  8
0
  6
ByBlock
 62
     0
370
    -2
100
AcDbLine
 10
-8.85577114417194
 20
-299.22533119459
 30
0.0
 11
-7.970557481082323
 21
-301.657434386672
 31
0.0
  0
LINE
  5
2016
330
36
100
AcDbEntity
  8
0
  6
ByBlock
 62
     0
370
    -2
100
AcDbLine
 10
-7.970557481082323
 20
-301.657434386672
 30
0.0
 11
-9.953225999747903
 21
-299.993777357309
 31
0.0
  0
LINE
  5
2017
330
36
100
AcDbEntity
  8
0
  6
ByBlock
 62
     0
370
    -2
100
AcDbLine
 10
-7.970557481082323
 20
-301.657434386672
 30
0.0
 11
-9.404498571959923
 21
-299.6095542759495
 31
0.0
  0
LINE
  5
2018
330
36
100
AcDbEntity
  8
0
  6
ByBlock
 62
     0
370
    -2
100
AcDbLine
 10
-18.55687254501357
 20
-287.706496692974
 30
0.0
 11
-19.44208620810319
 21
-285.274393500892
 31
0.0
  0
LINE
  5
2019
330
36
100
AcDbEntity
  8
0
  6
ByBlock
 62
     0
370
    -2
100
AcDbLine
 10
-19.44208620810319
 20
-285.274393500892
 30
0.0
 11
-17.45941768943761
 21
-286.9380505302549
 31
0.0
  0
LINE
  5
201A
330
36
100
AcDbEntity
  8
0
  6
ByBlock
 62
     0
370
    -2
100
AcDbLine
 10
-19.44208620810319
 20
-285.274393500892
 30
0.0
 11
-18.00814511722559
 21
-287.3222736116144
 31
0.0
  0
LINE
  5
201B
330
36
100
AcDbEntity
  8
0
  6
ByBlock
 62
     0
370
    -2
100
AcDbLine
 10
-1.492853884190561
 20
-349.9592620614633
 30
0.0
 11
-2.205133941104946
 21
-352.4475117046419
 31
0.0
  0
LINE
  5
201C
330
36
100
AcDbEntity
  8
0
  6
ByBlock
 62
     0
370
    -2
100
AcDbLine
 10
-2.205133941104946
 20
-352.4475117046419
 30
0.0
 11
-2.832405237134111
 21
-349.9364840489929
 31
0.0
  0
LINE
  5
201D
330
36
100
AcDbEntity
  8
0
  6
ByBlock
 62
     0
370
    -2
100
AcDbLine
 10
-2.205133941104946
 20
-352.4475117046419
 30
0.0
 11
-2.162629560662336
 21
-349.9478730552281
 31
0.0
  0
TEXT
  5
201E
330
36
100
AcDbEntity
  8
0
 62
     4
100
AcDbText
 10
3.931534900266557
 20
-321.3148518799828
 30
0.0
 40
3.0
  1
55\U+00B0
 50
62.50000000000002
100
AcDbText
  0
LINE
  5
201F
330
36
100
AcDbEntity
  8
0
  6
ByBlock
 62
     0
370
    -2
100
AcDbLine
 10
26.72960701534185
 20
-293.1483868746839
 30
0.0
 11
29.14630848733464
 21
-292.221951144844
 31
0.0
  0
LINE
  5
2020
330
36
100
AcDbEntity
  8
0
  6
ByBlock
 62
     0
370
    -2
100
AcDbLine
 10
29.14630848733464
 20
-292.221951144844
 30
0.0
 11
27.51660076215243
 21
-294.2326181726578
 31
0.0
  0
LINE
  5
2021
330
36
100
AcDbEntity
  8
0
  6
ByBlock
 62
     0
370
    -2
100
AcDbLine
 10
29.14630848733464
 20
-292.221951144844
 30
0.0
 11
27.12310388874714
 21
-293.6905025236709
 31
0.0
  0
TEXT
  5
2022
330
36
100
AcDbEntity
  8
0
 62
     4
100
AcDbText
 10
40.10215343480352
 20
-274.4109763244789
 30
0.0
 40
3.0
  1
113
 50
304.970853000004
100
AcDbText
  0
LINE
  5
2023
330
36
100
AcDbEntity
  8
0
  6
ByBlock
 62
     0
370
    -2
100
AcDbLine
 10
56.61726177716967
 20
-297.9442612587505
 30
0.0
 11
57.50123808784024
 21
-300.3768144541461
 31
0.0
  0
LINE
  5
2024
330
36
100
AcDbEntity
  8
0
  6
ByBlock
 62
     0
370
    -2
100
AcDbLine
 10
57.50123808784024
 20
-300.3768144541461
 30
0.0
 11
55.51941614650829
 21
-298.7121490345763
 31
0.0
  0
LINE
  5
2025
330
36
100
AcDbEntity
  8
0
  6
ByBlock
 62
     0
370
    -2
100
AcDbLine
 10
57.50123808784024
 20
-300.3768144541461
 30
0.0
 11
56.06833896183898
 21
-298.3282051466634
 31
0.0
  0
LINE
  5
2026
330
36
100
AcDbEntity
  8
0
  6
ByBlock
 62
     0
370
    -2
100
AcDbLine
 10
26.00169834109904
 20
-256.5108032911664
 30
0.0
 11
25.11772203042845
 21
-254.0782500957708
 31
0.0
  0
LINE
  5
2027
330
36
100
AcDbEntity
  8
0
  6
ByBlock
 62
     0
370
    -2
100
AcDbLine
 10
25.11772203042845
 20
-254.0782500957708
 30
0.0
 11
27.09954397176041
 21
-255.7429155153406
 31
0.0
  0
LINE
  5
2028
330
36
100
AcDbEntity
  8
0
  6
ByBlock
 62
     0
370
    -2
100
AcDbLine
 10
25.11772203042845
 20
-254.0782500957708
 30
0.0
 11
26.55062115642973
 21
-256.1268594032535
 31
0.0
  0
TEXT
  5
2029
330
36
100
AcDbEntity
  8
0
 62
     4
100
AcDbText
 10
5.006343877981661
 20
-258.2577497407551
 30
0.0
 40
3.0
  1
30
 50
35.17352500000193
100
AcDbText
  0
LINE
  5
202A
330
36
100
AcDbEntity
  8
0
  6
ByBlock
 62
     0
370
    -2
100
AcDbLine
 10
11.80067210088503
 20
-253.4146827807326
 30
0.0
 11
14.23008320038514
 21
-252.5221073632569
 31
0.0
  0
LINE
  5
202B
330
36
100
AcDbEntity
  8
0
  6
ByBlock
 62
     0
370
    -2
100
AcDbLine
 10
14.23008320038514
 20
-252.5221073632569
 30
0.0
 11
12.57243846697458
 21
-254.5098053041051
 31
0.0
  0
LINE
  5
202C
330
36
100
AcDbEntity
  8
0
  6
ByBlock
 62
     0
370
    -2
100
AcDbLine
 10
14.23008320038514
 20
-252.5221073632569
 30
0.0
 11
12.1865552839298
 21
-253.9622440424188
 31
0.0
  0
LINE
  5
202D
330
36
100
AcDbEntity
  8
0
  6
ByBlock
 62
     0
370
    -2
100
AcDbLine
 10
4.398383045968326
 20
-260.2703123833101
 30
0.0
 11
1.968971946468215
 21
-261.1628878007858
 31
0.0
  0
LINE
  5
202E
330
36
100
AcDbEntity
  8
0
  6
ByBlock
 62
     0
370
    -2
100
AcDbLine
 10
1.968971946468215
 20
-261.1628878007858
 30
0.0
 11
3.626616679878778
 21
-259.1751898599376
 31
0.0
  0
LINE
  5
202F
330
36
100
AcDbEntity
  8
0
  6
ByBlock
 62
     0
370
    -2
100
AcDbLine
 10
1.968971946468215
 20
-261.1628878007858
 30
0.0
 11
4.012499862923553
 21
-259.7227511216238
 31
0.0
  0
TEXT
  5
2030
330
36
100
AcDbEntity
  8
0
 62
     4
100
AcDbText
 10
62.21302837054031
 20
-332.4475117046418
 30
0.0
 40
3.0
  1
91
 50
90.0
100
AcDbText
  0
LINE
  5
2031
330
36
100
AcDbEntity
  8
0
  6
ByBlock
 62
     0
370
    -2
100
AcDbLine
 10
62.16815587054027
 20
-309.4475117046419
 30
0.0
 11
62.83802837054026
 21
-306.9475117046419
 31
0.0
  0
LINE
  5
2032
330
36
100
AcDbEntity
  8
0
  6
ByBlock
 62
     0
370
    -2
100
AcDbLine
 10
62.83802837054026
 20
-306.9475117046419
 30
0.0
 11
63.50790087054026
 21
-309.4475117046419
 31
0.0
  0
LINE
  5
2033
330
36
100
AcDbEntity
  8
0
  6
ByBlock
 62
     0
370
    -2
100
AcDbLine
 10
62.83802837054026
 20
-306.9475117046419
 30
0.0
 11
62.83802837054026
 21
-309.4475117046419
 31
0.0
  0
LINE
  5
2034
330
36
100
AcDbEntity
  8
0
  6
ByBlock
 62
     0
370
    -2
100
AcDbLine
 10
63.50790087054026
 20
-349.9475117046419
 30
0.0
 11
62.83802837054025
 21
-352.4475117046419
 31
0.0
  0
LINE
  5
2035
330
36
100
AcDbEntity
  8
0
  6
ByBlock
 62
     0
370
    -2
100
AcDbLine
 10
62.83802837054025
 20
-352.4475117046419
 30
0.0
 11
62.16815587054026
 21
-349.9475117046419
 31
0.0
  0
LINE
  5
2036
330
36
100
AcDbEntity
  8
0
  6
ByBlock
 62
     0
370
    -2
100
AcDbLine
 10
62.83802837054025
 20
-352.4475117046419
 30
0.0
 11
62.83802837054025
 21
-349.9475117046419
 31
0.0
  0
ENDSEC
  0
SECTION
  2
OBJECTS
  0
DICTIONARY
  5
C
330
0
100
AcDbDictionary
281
     1
  3
ACAD_2007HEADERVARS_RT
350
203A
  3
ACAD_COLOR
350
2F
  3
ACAD_GROUP
350
D
  3
ACAD_LAYOUT
350
2E
  3
ACAD_MATERIAL
350
10
  3
ACAD_MLEADERSTYLE
350
10E4
  3
ACAD_MLINESTYLE
350
2B
  3
ACAD_PLOTSETTINGS
350
2D
  3
ACAD_PLOTSTYLENAME
350
E
  3
ACAD_SCALELIST
350
10D2
  3
ACAD_TABLESTYLE
350
30
  3
ACAD_VISUALSTYLE
350
14
  3
ACDB_RECOMPOSE_DATA
350
2038
  3
AcDbVariableDictionary
350
219
  3
DWGPROPS
350
2039
  0
DICTIONARY
  5
24C
330
2
100
AcDbDictionary
280
     1
281
     1
  3
ACAD_LAYERSTATES
360
24D
  0
DICTIONARY
  5
1526
330
25
100
AcDbDictionary
280
     1
281
     1
  3
ADSK_XREC_LAYER_RECONCILED
360
1527
  0
DICTIONARY
  5
220
330
36
100
AcDbDictionary
280
     1
281
     1
  3
ACAD_SORTENTS
360
221
  0
DICTIONARY
  5
1A0D
330
1A0C
100
AcDbDictionary
280
     1
281
     1
  3
ACAD_SORTENTS
360
1A0E
  0
DICTIONARY
  5
203A
102
{ACAD_REACTORS
330
C
102
}
330
C
100
AcDbDictionary
281
     1
  3
DIMARCSYM
350
203C
  3
DIMFXL
350
203B
  3
DIMJOGANG
350
203D
  0
DICTIONARY
  5
2F
102
{ACAD_REACTORS
330
C
102
}
330
C
100
AcDbDictionary
281
     1
  0
DICTIONARY
  5
D
102
{ACAD_REACTORS
330
C
102
}
330
C
100
AcDbDictionary
281
     1
  0
DICTIONARY
  5
2E
102
{ACAD_REACTORS
330
C
102
}
330
C
100
AcDbDictionary
281
     1
  3
Model
350
39
  3
レイアウト1
350
35
  0
DICTIONARY
  5
10
102
{ACAD_REACTORS
330
C
102
}
330
C
100
AcDbDictionary
281
     1
  3
ByBlock
350
12
  3
ByLayer
350
11
  3
Global
350
13
  0
DICTIONARY
  5
10E4
102
{ACAD_REACTORS
330
C
102
}
330
C
100
AcDbDictionary
281
     1
  3
Standard
350
10E5
  0
DICTIONARY
  5
2B
102
{ACAD_REACTORS
330
C
102
}
330
C
100
AcDbDictionary
281
     1
  3
Standard
350
2C
  0
DICTIONARY
  5
2D
102
{ACAD_REACTORS
330
C
102
}
330
C
100
AcDbDictionary
281
     1
  0
ACDBDICTIONARYWDFLT
  5
E
102
{ACAD_REACTORS
330
C
102
}
330
C
100
AcDbDictionary
281
     1
  3
Normal
350
F
100
AcDbDictionaryWithDefault
340
F
  0
DICTIONARY
  5
10D2
102
{ACAD_REACTORS
330
C
102
}
330
C
100
AcDbDictionary
281
     1
  3
A0
350
10D3
  3
A1
350
10D4
  3
A2
350
10D5
  3
A3
350
10D6
  3
A4
350
10D7
  3
A5
350
10D8
  3
A6
350
10D9
  3
A7
350
10DA
  3
A8
350
10DB
  3
A9
350
10DC
  3
B0
350
10DD
  3
B1
350
10DE
  3
B2
350
10DF
  3
B3
350
10E0
  3
B4
350
10E1
  3
B5
350
10E2
  3
B6
350
10E3
  0
DICTIONARY
  5
30
102
{ACAD_REACTORS
330
C
102
}
330
C
100
AcDbDictionary
281
     1
  3
Standard
350
31
  0
DICTIONARY
  5
14
102
{ACAD_REACTORS
330
C
102
}
330
C
100
AcDbDictionary
281
     1
  3
2dWireframe
350
1A
  3
3D Hidden
350
1C
  3
3dWireframe
350
1B
  3
Basic
350
19
  3
Brighten
350
20
  3
ColorChange
350
24
  3
Conceptual
350
1D
  3
Dim
350
1F
  3
EdgeColorOff
350
10D1
  3
Facepattern
350
23
  3
Flat
350
15
  3
FlatWithEdges
350
16
  3
Gouraud
350
17
  3
GouraudWithEdges
350
18
  3
Hidden
350
10C9
  3
JitterOff
350
10CF
  3
Linepattern
350
22
  3
OverhangOff
350
10D0
  3
Realistic
350
1E
  3
Shaded
350
10CE
  3
Shaded with edges
350
10CD
  3
Shades of Gray
350
10CA
  3
Sketchy
350
10CB
  3
Thicken
350
21
  3
Wireframe
350
10C8
  3
X-Ray
350
10CC
  0
XRECORD
  5
2038
102
{ACAD_REACTORS
330
C
102
}
330
C
100
AcDbXrecord
280
     1
 90
        1
330
31
  0
DICTIONARY
  5
219
102
{ACAD_REACTORS
330
C
102
}
330
C
100
AcDbDictionary
281
     1
  3
CANNOSCALE
350
152D
  3
CMLEADERSTYLE
350
152C
  3
CTABLESTYLE
350
21A
  3
DIMASSOC
350
10B0
  3
INDEXCTL
350
10AF
  3
SORTENTS
350
10AE
  3
XCLIPFRAME
350
1ED5
  0
XRECORD
  5
2039
102
{ACAD_REACTORS
330
C
102
}
330
C
100
AcDbXrecord
280
     1
  1
DWGPROPS COOKIE
  2

  3

  4

  6

  7

  8
imamura
  9

300
=
301
=
302
=
303
=
304
=
305
=
306
=
307
=
308
=
309
=
 40
0.3507809259259259
 41
2455520.569332674
 42
2459486.739476875
  1

 90
        0
  0
DICTIONARY
  5
24D
102
{ACAD_REACTORS
330
24C
102
}
330
24C
100
AcDbDictionary
281
     1
  0
XRECORD
  5
1527
102
{ACAD_REACTORS
330
1526
102
}
330
1526
100
AcDbXrecord
280
     1
290
     1
  0
SORTENTSTABLE
  5
221
102
{ACAD_REACTORS
330
220
102
}
330
220
100
AcDbSortentsTable
330
36
331
63E
  5
121C
331
43F
  5
73D
331
1BAC
  5
1F9C
331
43B
  5
73A
331
636
  5
782
331
1BA8
  5
1F98
331
1FAE
  5
1C07
331
1FE5
  5
1B6E
331
2024
  5
6DE
331
21F
  5
22A
331
1BA4
  5
1F94
331
632
  5
77D
331
1FAA
  5
1C09
331
1FE1
  5
1B72
331
2020
  5
1257
331
1F6B
  5
136F
331
1BA0
  5
1F90
331
1FA6
  5
1D39
331
1FDD
  5
1B7B
331
201C
  5
125C
331
1FA2
  5
1D3B
331
1FD9
  5
1B8D
331
2018
  5
1260
331
73E
  5
125D
331
73A
  5
1254
331
1347
  5
1C17
331
1343
  5
1C21
331
776
  5
1B3B
331
133F
  5
1C15
331
1F31
  5
1BBE
331
772
  5
1B35
331
133B
  5
1C1E
331
B46
  5
1BD6
331
1C25
  5
2015
331
1BE6
  5
1FD6
331
1B47
  5
1F39
331
1C21
  5
2011
331
1BE2
  5
1FD2
331
1B43
  5
1F35
331
1C1D
  5
200D
331
1BDE
  5
1FCE
331
1C19
  5
2009
331
1BDA
  5
1FCA
331
1B3B
  5
1F30
331
62E
  5
779
331
1B9C
  5
1F8A
331
62A
  5
21E
331
1BD7
  5
1FC7
331
6FD
  5
77A
331
1B98
  5
1F86
331
1F9E
  5
1F17
331
2014
  5
1268
331
1BD3
  5
1FC3
331
492
  5
775
331
1B94
  5
1F82
331
1F9A
  5
2029
331
2010
  5
1337
331
1B90
  5
1F7E
331
1FD5
  5
1B92
331
200C
  5
1347
331
1FD1
  5
1B98
331
2008
  5
1349
331
1F92
  5
448
331
1337
  5
1C1F
331
1F25
  5
1C02
331
BED
  5
1BCF
331
1F21
  5
1C9A
331
BE9
  5
1BCE
331
12BB
  5
1C0F
331
B55
  5
1BDE
331
DBC
  5
1B82
331
DB8
  5
1BED
331
1F58
  5
1B70
331
B51
  5
1BDC
331
1C15
  5
2005
331
1B37
  5
1F2C
331
1C11
  5
2001
331
B61
  5
1BE0
331
1B33
  5
1F28
331
1C0D
  5
1FFD
331
1B6E
  5
1F5C
331
1C09
  5
1FF9
331
1B6A
  5
1F58
331
1B2B
  5
1F22
331
1BCF
  5
1FBF
331
1BCB
  5
1FBB
331
1B8C
  5
1F7A
331
1BC7
  5
1FB7
331
1B88
  5
1F76
331
1FCD
  5
1BA1
331
2004
  5
1396
331
1F8E
  5
640
331
1BC3
  5
1FB3
331
689
  5
B44
331
1B84
  5
1F72
331
1FC9
  5
1BAD
331
2000
  5
13A1
331
1B80
  5
1F6E
331
1FC5
  5
1BAF
331
1FFC
  5
1B49
331
1F86
  5
68E
331
1FC1
  5
1BB6
331
1FF8
  5
1B53
331
1F82
  5
1256
331
785
  5
1B43
331
781
  5
1B5C
331
76D
  5
1729
331
139E
  5
1C2E
331
216
  5
216
331
1C9A
  5
2028
331
139A
  5
1C2A
331
B4D
  5
1BD9
331
1F54
  5
1B80
331
1396
  5
1C26
331
1F50
  5
1B84
331
1253
  5
1BBD
331
CE4
  5
1BE8
331
1F4C
  5
1B86
331
CE0
  5
1BE6
331
1C05
  5
1FF5
331
1B66
  5
1F54
331
1B27
  5
1F1E
331
1C01
  5
1FF1
331
1B62
  5
1F50
331
1D3C
  5
2033
331
1BFD
  5
1FED
331
1B5E
  5
1F4C
331
1D38
  5
202F
331
1BF9
  5
1FE9
331
1B5A
  5
1F48
331
1BBF
  5
1FAF
331
685
  5
9B7
331
1BBB
  5
1FAB
331
1B7C
  5
1F6A
331
1BB7
  5
1FA7
331
446
  5
768
331
1B78
  5
1F66
331
1FBD
  5
1BB8
331
1FF4
  5
1B5B
331
2033
  5
46C
331
1F7E
  5
1261
331
1BB3
  5
1FA3
331
442
  5
73F
331
1B74
  5
1F62
331
1FB9
  5
1BBF
331
1FF0
  5
1B5F
331
202F
  5
685
331
1B70
  5
1F5E
331
1FB5
  5
1BC5
331
1FEC
  5
1B66
331
202B
  5
687
331
1F76
  5
1266
331
1FB1
  5
1BC9
331
1FE8
  5
1B6C
331
1F72
  5
1341
331
DDB
  5
1C01
331
1F44
  5
1B8F
331
DD7
  5
1BFD
331
1F40
  5
1B9B
331
77D
  5
1B54
331
1F38
  5
1BA3
331
779
  5
1B3D
331
1C94
  5
2022
331
1BF5
  5
1FE5
331
1B56
  5
1F44
331
1BF1
  5
1FE1
331
1B52
  5
1F40
331
1C2C
  5
201C
331
1BED
  5
1FDD
331
199F
  5
77C
331
1C28
  5
2018
331
1BE9
  5
1FD9
331
1B4A
  5
1F3C
331
63D
  5
1208
331
1BAF
  5
1F9F
331
43E
  5
73C
331
1BAB
  5
1F9B
331
639
  5
787
331
2027
  5
692
331
1BA7
  5
1F97
331
635
  5
781
331
1FAD
  5
1C06
331
1FE4
  5
1B6D
331
2023
  5
693
331
1BA3
  5
1F93
331
1FA9
  5
1C08
331
1FE0
  5
1B7A
331
201F
  5
1253
331
1F6A
  5
1394
331
1FA5
  5
1D38
331
1FDC
  5
1B8B
331
201B
  5
1259
331
1F66
  5
1B47
331
1FA1
  5
1D3E
331
1FD8
  5
1B8C
331
739
  5
1251
331
1346
  5
1C19
331
1F34
  5
1BB4
331
775
  5
1B38
331
133E
  5
1C12
331
DC7
  5
1BF6
331
771
  5
1B36
331
133A
  5
1C1D
331
DC3
  5
1BF3
331
B45
  5
1BD5
331
BF0
  5
1BD3
331
227
  5
22C
331
1C24
  5
2014
331
1BE5
  5
1FD5
331
1B46
  5
1F38
331
1C20
  5
2010
331
1BE1
  5
1FD1
331
1B42
  5
1F34
331
1C1C
  5
200C
331
1BDD
  5
1FCD
331
1B3E
  5
1F33
331
1C18
  5
2008
331
1BD9
  5
1FC9
331
1B3A
  5
1F2F
331
149B
  5
1C97
331
1B9F
  5
1F8F
331
1B9B
  5
1F89
331
629
  5
736
331
2017
  5
1267
331
1BD6
  5
1FC6
331
1B97
  5
1F85
331
1F9D
  5
1F1C
331
2013
  5
12AC
331
1BD2
  5
1FC2
331
491
  5
774
331
1B93
  5
1F81
331
1F99
  5
202D
331
200F
  5
12BB
331
1FD4
  5
1B97
331
200B
  5
1346
331
1FD0
  5
1B9E
331
1332
  5
1C11
331
BEC
  5
1BD2
331
1F20
  5
1C99
331
13A1
  5
1C93
331
1F1C
  5
1F16
331
DBB
  5
1BCC
331
B50
  5
1BDB
331
1C14
  5
2004
331
1B36
  5
1F2B
331
1C10
  5
2000
331
B60
  5
1BDF
331
1B32
  5
1F27
331
1C0C
  5
1FFC
331
1B6D
  5
1F5B
331
1C08
  5
1FF8
331
1B69
  5
1F57
331
1B2A
  5
1F21
331
1BCE
  5
1FBE
331
485
  5
773
331
1B8F
  5
1F7D
331
1BCA
  5
1FBA
331
1B8B
  5
1F79
331
2007
  5
1348
331
1BC6
  5
1FB6
331
455
  5
772
331
1B87
  5
1F75
331
1FCC
  5
1BA0
331
2003
  5
1395
331
1F8D
  5
63F
331
688
  5
A93
331
1BC2
  5
1FB2
331
451
  5
771
331
1B83
  5
1F71
331
1FC8
  5
1BAC
331
1FFF
  5
139D
331
1FC4
  5
1BAE
331
1FFB
  5
1B52
331
1FC0
  5
1BB5
331
784
  5
1B5D
331
780
  5
1B55
331
139D
  5
1C2C
331
76C
  5
172E
331
12B6
  5
1C0D
331
DB7
  5
1BEC
331
1F57
  5
1B6F
331
1C99
  5
2027
331
1399
  5
1C29
331
1F53
  5
1B7F
331
1395
  5
1C25
331
B48
  5
1BD8
331
1F4F
  5
1B83
331
CE3
  5
1BE7
331
1C04
  5
1FF4
331
1B65
  5
1F53
331
1B26
  5
1F1D
331
1D3F
  5
2036
331
1C00
  5
1FF0
331
1B61
  5
1F4F
331
1D3B
  5
2032
331
1BFC
  5
1FEC
331
1B5D
  5
1F4B
331
1BF8
  5
1FE8
331
1B59
  5
1F47
331
19AA
  5
1B2C
331
1BBE
  5
1FAE
331
684
  5
9B7
331
1B7F
  5
1F6D
331
1BBA
  5
1FAA
331
680
  5
786
331
1B7B
  5
1F69
331
1FF7
  5
1B59
331
2036
  5
455
331
1BB6
  5
1FA6
331
445
  5
767
331
1B77
  5
1F65
331
1FBC
  5
1BBB
331
1FF3
  5
1B5A
331
2032
  5
46B
331
1F7D
  5
125F
331
640
  5
777
331
1BB2
  5
1FA2
331
441
  5
73E
331
1B73
  5
1F61
331
1FB8
  5
1BC3
331
1FEF
  5
1B64
331
202E
  5
683
331
1FB4
  5
1BC4
331
1FEB
  5
1B65
331
202A
  5
686
331
1FB0
  5
1BC8
331
1F71
  5
136D
331
138D
  5
1C18
331
CDF
  5
1BE5
331
DDA
  5
1C00
331
DD6
  5
1BFC
331
1F3F
  5
1B9A
331
1349
  5
1C23
331
DD2
  5
1BF9
331
77C
  5
1B48
331
778
  5
1B3E
331
1C97
  5
2025
331
1C93
  5
2021
331
1BF4
  5
1FE4
331
1B55
  5
1F43
331
1BF0
  5
1FE0
331
1B51
  5
1F3F
331
19A2
  5
77E
331
1C2B
  5
201B
331
1BEC
  5
1FDC
331
1BE8
  5
1FD8
331
1B49
  5
1F3B
331
63C
  5
DD8
331
1BAE
  5
1F9E
331
43D
  5
73B
331
1BAA
  5
1F9A
331
638
  5
786
331
1FE7
  5
1B6B
331
2026
  5
691
331
1BA6
  5
1F96
331
634
  5
780
331
1FAC
  5
1C05
331
1FE3
  5
1B74
331
2022
  5
6FC
331
1BA2
  5
1F92
331
1FA8
  5
1C0B
331
1FDF
  5
1B79
331
201E
  5
125B
331
1FA4
  5
1D3D
331
1FDB
  5
1B8A
331
201A
  5
1263
331
1F65
  5
1B46
331
1FA0
  5
1F1B
331
73C
  5
1236
331
DCE
  5
1BF0
331
1F33
  5
1BB3
331
774
  5
1B37
331
133D
  5
1C14
331
DC6
  5
1BF5
331
770
  5
1B2B
331
1339
  5
1C16
331
DC2
  5
1BF2
331
1C27
  5
2017
331
226
  5
22B
331
1C23
  5
2013
331
1BE4
  5
1FD4
331
1B45
  5
1F37
331
18BE
  5
1BBC
331
1C1F
  5
200F
331
1BE0
  5
1FD0
331
1C1B
  5
200B
331
1BDC
  5
1FCC
331
1B3D
  5
1F32
331
1BD8
  5
1FC8
331
1B39
  5
1F2E
331
149A
  5
1C96
331
1B9E
  5
1F8C
331
1B9A
  5
1F88
331
628
  5
6FE
331
2016
  5
1265
331
1BD5
  5
1FC5
331
6FB
  5
77B
331
1B96
  5
1F84
331
1F9C
  5
202B
331
2012
  5
128D
331
1BD1
  5
1FC1
331
1B92
  5
1F80
331
1F98
  5
202C
331
1FD7
  5
1B94
331
200E
  5
12B5
331
1FD3
  5
1B96
331
200A
  5
1345
331
1F94
  5
44A
331
1335
  5
1C1B
331
1F27
  5
1C04
331
BEF
  5
1BD1
331
1331
  5
1C10
331
BEB
  5
1BCD
331
1F1F
  5
1C98
331
13A4
  5
1C2D
331
13A0
  5
1C92
331
1F1B
  5
1D3F
331
12B9
  5
1C0E
331
B53
  5
1BDD
331
1C17
  5
2007
331
1C13
  5
2003
331
B63
  5
1BE2
331
1B35
  5
1F2A
331
1C0F
  5
1FFF
331
1B31
  5
1F26
331
1C0B
  5
1FFB
331
1B6C
  5
1F5A
331
1B2D
  5
1F24
331
1B68
  5
1F56
331
1B29
  5
1F20
331
1BCD
  5
1FBD
331
1B8E
  5
1F7C
331
1BC9
  5
1FB9
331
1B8A
  5
1F78
331
1FCF
  5
1B9D
331
2006
  5
136E
331
1BC5
  5
1FB5
331
454
  5
76B
331
1B86
  5
1F74
331
1FCB
  5
1B9F
331
2002
  5
139A
331
1F8C
  5
631
331
1BC1
  5
1FB1
331
1B82
  5
1F70
331
1FC7
  5
1BA9
331
1FFE
  5
1B4B
331
1F88
  5
690
331
1FC3
  5
1BB1
331
1FFA
  5
1B51
331
783
  5
1B62
331
76F
  5
1B2A
331
76B
  5
1728
331
12B5
  5
1C0C
331
DB6
  5
1BEB
331
1F56
  5
1B7C
331
214
  5
214
331
1C98
  5
2026
331
1398
  5
1C28
331
1F52
  5
1B7E
331
1394
  5
1C24
331
1F4E
  5
1B88
331
1C07
  5
1FF7
331
1C03
  5
1FF3
331
1B64
  5
1F52
331
1D3E
  5
2035
331
1BFF
  5
1FEF
331
1B60
  5
1F4E
331
1D3A
  5
2031
331
1BFB
  5
1FEB
331
1B5C
  5
1F4A
331
1B58
  5
1F46
331
19A9
  5
172A
331
687
  5
DD6
331
1BBD
  5
1FAD
331
683
  5
787
331
1B7E
  5
1F6C
331
1BB9
  5
1FA9
331
448
  5
769
331
1B7A
  5
1F68
331
1FBF
  5
1BBA
331
1FF6
  5
1B58
331
2035
  5
450
331
1BB5
  5
1FA5
331
444
  5
75A
331
1B76
  5
1F64
331
1FBB
  5
1BC1
331
1FF2
  5
1B61
331
2031
  5
466
331
1F7C
  5
125E
331
1BB1
  5
1FA1
331
1B72
  5
1F60
331
1FB7
  5
1BC2
331
1FEE
  5
1B63
331
202D
  5
640
331
1F78
  5
12B6
331
1FB3
  5
1BC7
331
1FEA
  5
1B69
331
2029
  5
68B
331
1F70
  5
133A
331
138C
  5
1C1A
331
CDE
  5
1BE4
331
1F46
  5
1B91
331
DD9
  5
1BFF
331
DD5
  5
1BFB
331
1F3E
  5
1B99
331
77F
  5
1B3A
331
1348
  5
1C22
331
DD1
  5
1BF8
331
1F3A
  5
1BA8
331
77B
  5
1B44
331
1C96
  5
2024
331
1BF7
  5
1FE7
331
1C92
  5
2020
331
1BF3
  5
1FE3
331
1B54
  5
1F42
331
1C2E
  5
201E
331
1BEF
  5
1FDF
331
1B50
  5
1F3E
331
19A1
  5
1B26
331
1C2A
  5
201A
331
1BEB
  5
1FDB
331
1B48
  5
1F3A
331
63F
  5
1235
331
1BAD
  5
1F9D
331
43C
  5
739
331
637
  5
785
331
1BA9
  5
1F99
331
438
  5
6FD
331
1FAF
  5
1BCB
331
1FE6
  5
1B6A
331
2025
  5
6FB
331
1BA5
  5
1F95
331
1FAB
  5
1C0A
331
1FE2
  5
1B73
331
2021
  5
1258
331
1F6C
  5
139B
331
1BA1
  5
1F91
331
1FA7
  5
1D3A
331
1FDE
  5
1B78
331
201D
  5
125A
331
1FA3
  5
1D3C
331
1FDA
  5
1B89
331
2019
  5
1262
331
73B
  5
1255
331
DCD
  5
1BEF
331
777
  5
1B3C
331
1340
  5
1C13
331
1F32
  5
1BB2
331
773
  5
1B39
331
133C
  5
1C1C
331
DC5
  5
1BF4
331
737
  5
77F
331
1338
  5
1C20
331
DC1
  5
1BF1
331
B47
  5
1BD7
331
1C26
  5
2016
331
1BE7
  5
1FD7
331
1C22
  5
2012
331
1BE3
  5
1FD3
331
1B44
  5
1F36
331
18BD
  5
1B8E
331
1C1E
  5
200E
331
1BDF
  5
1FCF
331
1C1A
  5
200A
331
1BDB
  5
1FCB
331
1B3C
  5
1F31
331
1B38
  5
1F2D
331
1499
  5
1C95
331
1B9D
  5
1F8B
331
62B
  5
21D
331
1B99
  5
1F87
331
1F9F
  5
1F1A
331
2015
  5
1264
331
1BD4
  5
1FC4
331
493
  5
778
331
1B95
  5
1F83
331
1F9B
  5
202A
331
2011
  5
126C
331
1BD0
  5
1FC0
331
1B91
  5
1F7F
331
1FD6
  5
1B93
331
200D
  5
1339
331
1FD2
  5
1B95
331
2009
  5
136C
331
1F93
  5
449
331
1F26
  5
1C03
331
BEE
  5
1BD4
331
BEA
  5
1BD0
331
13A3
  5
1C94
331
DBD
  5
1B85
331
DB9
  5
1BEE
331
1F59
  5
1B71
331
1C16
  5
2006
331
1C12
  5
2002
331
B62
  5
1BE1
331
1B34
  5
1F29
331
1C0E
  5
1FFE
331
1B6F
  5
1F5D
331
1B30
  5
1F25
331
1C0A
  5
1FFA
331
1B6B
  5
1F59
331
1B2C
  5
1F23
331
1B28
  5
1F1F
331
6DE
  5
1252
331
1BCC
  5
1FBC
331
1B8D
  5
1F7B
331
1BC8
  5
1FB8
331
1B89
  5
1F77
331
1FCE
  5
1B9C
331
2005
  5
1399
331
1BC4
  5
1FB4
331
1B85
  5
1F73
331
1FCA
  5
1BA2
331
2001
  5
13A3
331
1BC0
  5
1FB0
331
1B81
  5
1F6F
331
1FC6
  5
1BB0
331
1FFD
  5
1B4A
331
1F87
  5
68F
331
1FC2
  5
1BB7
331
1FF9
  5
1B50
331
786
  5
1B45
331
782
  5
1B5E
331
74C
  5
77F
331
139F
  5
1C91
331
139B
  5
1C2B
331
76A
  5
13A4
331
1F16
  5
202E
331
DB5
  5
1BEA
331
1F55
  5
1B81
331
B4E
  5
1BDA
331
1397
  5
1C27
331
1F51
  5
1B7D
331
CE5
  5
1BE9
331
1F4D
  5
1B87
331
1C06
  5
1FF6
331
1B67
  5
1F55
331
1C02
  5
1FF2
331
1B63
  5
1F51
331
1D3D
  5
2034
331
1BFE
  5
1FEE
331
1B5F
  5
1F4D
331
1D39
  5
2030
331
1BFA
  5
1FEA
331
1B5B
  5
1F49
331
686
  5
CE1
331
1BBC
  5
1FAC
331
1B7D
  5
1F6B
331
1BB8
  5
1FA8
331
1B79
  5
1F67
331
1FBE
  5
1BB9
331
1FF5
  5
1B57
331
2034
  5
44F
331
1BB4
  5
1FA4
331
443
  5
74D
331
1B75
  5
1F63
331
1FBA
  5
1BC0
331
1FF1
  5
1B60
331
2030
  5
630
331
1BB0
  5
1FA0
331
1B71
  5
1F5F
331
1FB6
  5
1BC6
331
1FED
  5
1B67
331
202C
  5
68A
331
1F77
  5
126D
331
1FB2
  5
1BCA
331
1FE9
  5
1B68
331
2028
  5
6CA
331
CDD
  5
1BE3
331
1F45
  5
1B90
331
DD8
  5
1BFE
331
DD4
  5
1BFA
331
77E
  5
1B56
331
DD0
  5
1BF7
331
1F39
  5
1BA4
331
77A
  5
1B42
331
1C95
  5
2023
331
1BF6
  5
1FE6
331
1B57
  5
1F45
331
1C91
  5
201F
331
1BF2
  5
1FE2
331
1B53
  5
1F41
331
1C2D
  5
201D
331
1BEE
  5
1FDE
331
19A0
  5
172F
331
1C29
  5
2019
331
1BEA
  5
1FDA
331
1B4B
  5
1F3D
  0
SORTENTSTABLE
  5
1A0E
102
{ACAD_REACTORS
330
1A0D
102
}
330
1A0D
100
AcDbSortentsTable
330
1A0C
  0
XRECORD
  5
203C
102
{ACAD_REACTORS
330
203A
102
}
330
203A
100
AcDbXrecord
280
     1
 70
     2
  0
XRECORD
  5
203B
102
{ACAD_REACTORS
330
203A
102
}
330
203A
100
AcDbXrecord
280
     1
 40
1.25
  0
XRECORD
  5
203D
102
{ACAD_REACTORS
330
203A
102
}
330
203A
100
AcDbXrecord
280
     1
 40
1.570796326794896
  0
LAYOUT
  5
39
102
{ACAD_XDICTIONARY
360
2061
102
}
102
{ACAD_REACTORS
330
2E
102
}
330
2E
100
AcDbPlotSettings
  1

  2
none_device
  4
Letter_(8.50_x_11.00_Inches)
  6

 40
6.349999904632567
 41
6.349999904632567
 42
6.350006103515625
 43
6.350006103515625
 44
215.8999938964844
 45
279.3999938964844
 46
0.0
 47
0.0
 48
0.0
 49
0.0
140
0.0
141
0.0
142
1.0
143
64.40952671602389
 70
 11952
 72
     0
 73
     1
 74
     0
  7

 75
     0
147
0.015525653594831
148
9342.029768590188
149
12549.69147134665
100
AcDbLayout
  1
Model
 70
     1
 71
     0
 10
0.0
 20
0.0
 11
12.0
 21
9.0
 12
0.0
 22
0.0
 32
0.0
 14
0.0
 24
0.0
 34
0.0
 15
0.0
 25
0.0
 35
0.0
146
0.0
 13
0.0
 23
0.0
 33
0.0
 16
1.0
 26
0.0
 36
0.0
 17
0.0
 27
1.0
 37
0.0
 76
     0
330
36
331
56
1001
ACAD_PSEXT
1000
なし
1000
なし
1000
適切ではありません
1000
新しいプロッタ環境設定名を選択しない限り、レイアウトは印刷されません。
1070
     0
  0
LAYOUT
  5
35
102
{ACAD_XDICTIONARY
360
205F
102
}
102
{ACAD_REACTORS
330
2E
102
}
330
2E
100
AcDbPlotSettings
  1

  2
DocuPrint 305
  4

  6

 40
0.0
 41
0.0
 42
0.0
 43
0.0
 44
0.0
 45
0.0
 46
0.0
 47
0.0
 48
0.0
 49
0.0
140
0.0
141
0.0
142
1.0
143
1.0
 70
   688
 72
     0
 73
     0
 74
     5
  7

 75
    16
147
1.0
148
0.0
149
0.0
100
AcDbLayout
  1
レイアウト1
 70
     1
 71
     1
 10
0.0
 20
0.0
 11
12.0
 21
9.0
 12
0.0
 22
0.0
 32
0.0
 14
1.000000000000000E+20
 24
1.000000000000000E+20
 34
1.000000000000000E+20
 15
-1.000000000000000E+20
 25
-1.000000000000000E+20
 35
-1.000000000000000E+20
146
0.0
 13
0.0
 23
0.0
 33
0.0
 16
1.0
 26
0.0
 36
0.0
 17
0.0
 27
1.0
 37
0.0
 76
     0
330
32
  0
MATERIAL
  5
12
102
{ACAD_XDICTIONARY
360
10B8
102
}
102
{ACAD_REACTORS
330
10
102
}
330
10
100
AcDbMaterial
  1
ByBlock
 73
     1
 78
     1
172
     1
176
     1
270
     1
274
     1
  0
MATERIAL
  5
11
102
{ACAD_XDICTIONARY
360
10B6
102
}
102
{ACAD_REACTORS
330
10
102
}
330
10
100
AcDbMaterial
  1
ByLayer
 73
     1
 78
     1
172
     1
176
     1
270
     1
274
     1
  0
MATERIAL
  5
13
102
{ACAD_XDICTIONARY
360
10BA
102
}
102
{ACAD_REACTORS
330
10
102
}
330
10
100
AcDbMaterial
  1
Global
 73
     1
 78
     1
172
     1
176
     1
270
     1
274
     1
  0
MLEADERSTYLE
  5
10E5
102
{ACAD_REACTORS
330
10E4
102
}
330
10E4
100
AcDbMLeaderStyle
170
     2
171
     1
172
     0
 90
        2
 40
0.0
 41
0.0
173
     1
 91
-1056964608
340
28
 92
       -2
290
     1
 42
0.09
291
     1
 43
0.36
  3
Standard
 44
0.18
300

342
26
174
     1
178
     6
175
     1
176
     0
 93
-1056964608
 45
0.18
292
     0
297
     0
 46
0.18
 94
-1056964608
 47
1.0
 49
1.0
140
1.0
293
     1
141
0.0
294
     1
177
     0
142
1.0
295
     0
296
     0
143
0.125
1001
ACAD_MLEADERVER
1070
     2
  0
MLINESTYLE
  5
2C
102
{ACAD_REACTORS
330
2B
102
}
330
2B
100
AcDbMlineStyle
  2
STANDARD
 70
     0
  3

 62
   256
 51
90.0
 52
90.0
 71
     2
 49
0.5
 62
   256
  6
BYLAYER
 49
-0.5
 62
   256
  6
BYLAYER
  0
ACDBPLACEHOLDER
  5
F
102
{ACAD_REACTORS
330
E
102
}
330
E
  0
SCALE
  5
10D3
102
{ACAD_REACTORS
330
10D2
102
}
330
10D2
100
AcDbScale
 70
     0
300
1:1
140
1.0
141
1.0
290
     1
  0
SCALE
  5
10D4
102
{ACAD_REACTORS
330
10D2
102
}
330
10D2
100
AcDbScale
 70
     0
300
1/128" = 1'-0"
140
0.0078125
141
12.0
290
     0
  0
SCALE
  5
10D5
102
{ACAD_REACTORS
330
10D2
102
}
330
10D2
100
AcDbScale
 70
     0
300
1/64" = 1'-0"
140
0.015625
141
12.0
290
     0
  0
SCALE
  5
10D6
102
{ACAD_REACTORS
330
10D2
102
}
330
10D2
100
AcDbScale
 70
     0
300
1/32" = 1'-0"
140
0.03125
141
12.0
290
     0
  0
SCALE
  5
10D7
102
{ACAD_REACTORS
330
10D2
102
}
330
10D2
100
AcDbScale
 70
     0
300
1/16" = 1'-0"
140
0.0625
141
12.0
290
     0
  0
SCALE
  5
10D8
102
{ACAD_REACTORS
330
10D2
102
}
330
10D2
100
AcDbScale
 70
     0
300
3/32" = 1'-0"
140
0.09375
141
12.0
290
     0
  0
SCALE
  5
10D9
102
{ACAD_REACTORS
330
10D2
102
}
330
10D2
100
AcDbScale
 70
     0
300
1/8" = 1'-0"
140
0.125
141
12.0
290
     0
  0
SCALE
  5
10DA
102
{ACAD_REACTORS
330
10D2
102
}
330
10D2
100
AcDbScale
 70
     0
300
3/16" = 1'-0"
140
0.1875
141
12.0
290
     0
  0
SCALE
  5
10DB
102
{ACAD_REACTORS
330
10D2
102
}
330
10D2
100
AcDbScale
 70
     0
300
1/4" = 1'-0"
140
0.25
141
12.0
290
     0
  0
SCALE
  5
10DC
102
{ACAD_REACTORS
330
10D2
102
}
330
10D2
100
AcDbScale
 70
     0
300
3/8" = 1'-0"
140
0.375
141
12.0
290
     0
  0
SCALE
  5
10DD
102
{ACAD_REACTORS
330
10D2
102
}
330
10D2
100
AcDbScale
 70
     0
300
1/2" = 1'-0"
140
0.5
141
12.0
290
     0
  0
SCALE
  5
10DE
102
{ACAD_REACTORS
330
10D2
102
}
330
10D2
100
AcDbScale
 70
     0
300
3/4" = 1'-0"
140
0.75
141
12.0
290
     0
  0
SCALE
  5
10DF
102
{ACAD_REACTORS
330
10D2
102
}
330
10D2
100
AcDbScale
 70
     0
300
1" = 1'-0"
140
1.0
141
12.0
290
     0
  0
SCALE
  5
10E0
102
{ACAD_REACTORS
330
10D2
102
}
330
10D2
100
AcDbScale
 70
     0
300
1-1/2" = 1'-0"
140
1.5
141
12.0
290
     0
  0
SCALE
  5
10E1
102
{ACAD_REACTORS
330
10D2
102
}
330
10D2
100
AcDbScale
 70
     0
300
3" = 1'-0"
140
3.0
141
12.0
290
     0
  0
SCALE
  5
10E2
102
{ACAD_REACTORS
330
10D2
102
}
330
10D2
100
AcDbScale
 70
     0
300
6" = 1'-0"
140
6.0
141
12.0
290
     0
  0
SCALE
  5
10E3
102
{ACAD_REACTORS
330
10D2
102
}
330
10D2
100
AcDbScale
 70
     0
300
1'-0" = 1'-0"
140
12.0
141
12.0
290
     0
  0
TABLESTYLE
  5
31
102
{ACAD_XDICTIONARY
360
158A
102
}
102
{ACAD_REACTORS
330
30
102
}
330
30
100
AcDbTableStyle
  3
Standard
 70
     0
 71
     0
 40
0.06
 41
0.06
280
     0
281
     0
  7
STANDARD
140
0.18
170
     2
 62
     0
 63
     7
283
     0
274
    -2
284
     1
 64
     0
275
    -2
285
     1
 65
     0
276
    -2
286
     1
 66
     0
277
    -2
287
     1
 67
     0
278
    -2
288
     1
 68
     0
279
    -2
289
     1
 69
     0
  7
STANDARD
140
0.25
170
     5
 62
     0
 63
     7
283
     0
274
    -2
284
     1
 64
     0
275
    -2
285
     1
 65
     0
276
    -2
286
     1
 66
     0
277
    -2
287
     1
 67
     0
278
    -2
288
     1
 68
     0
279
    -2
289
     1
 69
     0
  7
STANDARD
140
0.18
170
     5
 62
     0
 63
     7
283
     0
274
    -2
284
     1
 64
     0
275
    -2
285
     1
 65
     0
276
    -2
286
     1
 66
     0
277
    -2
287
     1
 67
     0
278
    -2
288
     1
 68
     0
279
    -2
289
     1
 69
     0
  0
VISUALSTYLE
  5
1A
102
{ACAD_XDICTIONARY
360
2048
102
}
102
{ACAD_REACTORS
330
14
102
}
330
14
100
AcDbVisualStyle
  2

 70
     4
 71
     0
 72
     2
 73
     0
 90
        0
 40
-0.6
 41
-30.0
 62
     5
 63
     7
 74
     1
 91
        4
 64
     7
 65
   257
 75
     1
175
     1
 42
1.0
 92
        0
 66
   257
 43
1.0
 76
     1
 77
     6
 78
     2
 67
     7
 79
     5
170
     0
171
     0
290
     0
174
     0
 93
        1
 44
0.0
173
     0
291
     0
 45
0.0
1001
ACAD
1000
AcDbSavedByObjectVersion
1070
     0
  0
VISUALSTYLE
  5
1C
102
{ACAD_XDICTIONARY
360
204C
102
}
102
{ACAD_REACTORS
330
14
102
}
330
14
100
AcDbVisualStyle
  2

 70
     6
 71
     1
 72
     2
 73
     2
 90
        0
 40
-0.6
 41
-30.0
 62
     5
 63
     7
 74
     2
 91
        2
 64
     7
 65
   257
 75
     2
175
     1
 42
40.0
 92
        0
 66
   257
 43
1.0
 76
     1
 77
     6
 78
     2
 67
     7
 79
     3
170
     0
171
     0
290
     0
174
     0
 93
        1
 44
0.0
173
     0
291
     0
 45
0.0
1001
ACAD
1000
AcDbSavedByObjectVersion
1070
     0
  0
VISUALSTYLE
  5
1B
102
{ACAD_XDICTIONARY
360
204A
102
}
102
{ACAD_REACTORS
330
14
102
}
330
14
100
AcDbVisualStyle
  2

 70
     5
 71
     0
 72
     2
 73
     0
 90
        0
 40
-0.6
 41
-30.0
 62
     5
 63
     7
 74
     1
 91
        4
 64
     7
 65
   257
 75
     1
175
     1
 42
1.0
 92
        0
 66
   257
 43
1.0
 76
     1
 77
     6
 78
     2
 67
     7
 79
     5
170
     0
171
     0
290
     0
174
     0
 93
        1
 44
0.0
173
     0
291
     0
 45
0.0
1001
ACAD
1000
AcDbSavedByObjectVersion
1070
     0
  0
VISUALSTYLE
  5
19
102
{ACAD_XDICTIONARY
360
2046
102
}
102
{ACAD_REACTORS
330
14
102
}
330
14
100
AcDbVisualStyle
  2

 70
     7
 71
     1
 72
     0
 73
     1
 90
        0
 40
-0.6
 41
-30.0
 62
     5
 63
     7
 74
     0
 91
        4
 64
     7
 65
   257
 75
     1
175
     1
 42
1.0
 92
        8
 66
     7
 43
1.0
 76
     1
 77
     6
 78
     2
 67
     7
 79
     5
170
     0
171
     0
290
     0
174
     0
 93
        1
 44
0.0
173
     0
291
     1
 45
0.0
1001
ACAD
1000
AcDbSavedByObjectVersion
1070
     0
  0
VISUALSTYLE
  5
20
102
{ACAD_XDICTIONARY
360
2054
102
}
102
{ACAD_REACTORS
330
14
102
}
330
14
100
AcDbVisualStyle
  2

 70
    12
 71
     2
 72
     2
 73
     0
 90
        0
 40
-0.6
 41
-30.0
 62
     5
 63
     7
 74
     1
 91
        4
 64
     7
 65
   257
 75
     1
175
     1
 42
1.0
 92
        8
 66
     7
 43
1.0
 76
     1
 77
     6
 78
     2
 67
     7
 79
     5
170
     0
171
     0
290
     0
174
     0
 93
        1
 44
50.0
173
     0
291
     1
 45
0.0
1001
ACAD
1000
AcDbSavedByObjectVersion
1070
     0
  0
VISUALSTYLE
  5
24
102
{ACAD_XDICTIONARY
360
205C
102
}
102
{ACAD_REACTORS
330
14
102
}
330
14
100
AcDbVisualStyle
  2

 70
    16
 71
     2
 72
     2
 73
     3
 90
        0
 40
-0.6
 41
-30.0
 62
     5
 63
     8
 74
     1
 91
        4
 64
     7
 65
   257
 75
     1
175
     1
 42
1.0
 92
        8
 66
     8
 43
1.0
 76
     1
 77
     6
 78
     2
 67
     7
 79
     5
170
     0
171
     0
290
     0
174
     0
 93
        1
 44
0.0
173
     0
291
     1
 45
0.0
1001
ACAD
1000
AcDbSavedByObjectVersion
1070
     0
  0
VISUALSTYLE
  5
1D
102
{ACAD_XDICTIONARY
360
204E
102
}
102
{ACAD_REACTORS
330
14
102
}
330
14
100
AcDbVisualStyle
  2

 70
     9
 71
     3
 72
     2
 73
     0
 90
        0
 40
-0.6
 41
-30.0
 62
     5
 63
     7
 74
     2
 91
        2
 64
     7
 65
   257
 75
     1
175
     1
 42
40.0
 92
        8
 66
     7
 43
1.0
 76
     1
 77
     6
 78
     2
 67
     7
 79
     3
170
     0
171
     0
290
     0
174
     0
 93
        1
 44
0.0
173
     0
291
     0
 45
0.0
1001
ACAD
1000
AcDbSavedByObjectVersion
1070
     0
  0
VISUALSTYLE
  5
1F
102
{ACAD_XDICTIONARY
360
2052
102
}
102
{ACAD_REACTORS
330
14
102
}
330
14
100
AcDbVisualStyle
  2

 70
    11
 71
     2
 72
     2
 73
     0
 90
        0
 40
-0.6
 41
-30.0
 62
     5
 63
     7
 74
     1
 91
        4
 64
     7
 65
   257
 75
     1
175
     1
 42
1.0
 92
        8
 66
     7
 43
1.0
 76
     1
 77
     6
 78
     2
 67
     7
 79
     5
170
     0
171
     0
290
     0
174
     0
 93
        1
 44
-50.0
173
     0
291
     1
 45
0.0
1001
ACAD
1000
AcDbSavedByObjectVersion
1070
     0
  0
VISUALSTYLE
  5
10D1
102
{ACAD_XDICTIONARY
360
2075
102
}
102
{ACAD_REACTORS
330
14
102
}
330
14
100
AcDbVisualStyle
  2

 70
    22
 71
     2
 72
     2
 73
     0
 90
        0
 40
-0.6
 41
-30.0
 62
     5
 63
     7
 74
     1
 91
        4
 64
     7
 65
   257
 75
     1
175
     1
 42
1.0
 92
        8
 66
     7
 43
1.0
 76
     1
 77
     6
 78
     2
 67
     7
 79
     5
170
     0
171
     0
290
     0
174
     0
 93
        1
 44
0.0
173
     0
291
     1
 45
0.0
1001
ACAD
1000
AcDbSavedByObjectVersion
1070
     0
  0
VISUALSTYLE
  5
23
102
{ACAD_XDICTIONARY
360
205A
102
}
102
{ACAD_REACTORS
330
14
102
}
330
14
100
AcDbVisualStyle
  2

 70
    15
 71
     2
 72
     2
 73
     0
 90
        0
 40
-0.6
 41
-30.0
 62
     5
 63
     7
 74
     1
 91
        4
 64
     7
 65
   257
 75
     1
175
     1
 42
1.0
 92
        8
 66
     7
 43
1.0
 76
     1
 77
     6
 78
     2
 67
     7
 79
     5
170
     0
171
     0
290
     0
174
     0
 93
        1
 44
0.0
173
     0
291
     1
 45
0.0
1001
ACAD
1000
AcDbSavedByObjectVersion
1070
     0
  0
VISUALSTYLE
  5
15
102
{ACAD_XDICTIONARY
360
203E
102
}
102
{ACAD_REACTORS
330
14
102
}
330
14
100
AcDbVisualStyle
  2

 70
     0
 71
     2
 72
     1
 73
     1
 90
        2
 40
-0.6
 41
30.0
 62
     5
 63
     7
 74
     0
 91
        4
 64
     7
 65
   257
 75
     1
175
     1
 42
1.0
 92
        8
 66
     7
 43
1.0
 76
     1
 77
     6
 78
     2
 67
     7
 79
     5
170
     0
171
     0
290
     0
174
     0
 93
       13
 44
0.0
173
     0
291
     1
 45
0.0
1001
ACAD
1000
AcDbSavedByObjectVersion
1070
     0
  0
VISUALSTYLE
  5
16
102
{ACAD_XDICTIONARY
360
2040
102
}
102
{ACAD_REACTORS
330
14
102
}
330
14
100
AcDbVisualStyle
  2

 70
     1
 71
     2
 72
     1
 73
     1
 90
        2
 40
-0.6
 41
30.0
 62
     5
 63
     7
 74
     1
 91
        4
 64
     7
 65
   257
 75
     1
175
     1
 42
1.0
 92
        0
 66
   257
 43
1.0
 76
     1
 77
     6
 78
     2
 67
     7
 79
     5
170
     0
171
     0
290
     0
174
     0
 93
       13
 44
0.0
173
     0
291
     1
 45
0.0
1001
ACAD
1000
AcDbSavedByObjectVersion
1070
     0
  0
VISUALSTYLE
  5
17
102
{ACAD_XDICTIONARY
360
2042
102
}
102
{ACAD_REACTORS
330
14
102
}
330
14
100
AcDbVisualStyle
  2

 70
     2
 71
     2
 72
     2
 73
     1
 90
        2
 40
-0.6
 41
30.0
 62
     5
 63
     7
 74
     0
 91
        4
 64
     7
 65
   257
 75
     1
175
     1
 42
1.0
 92
        0
 66
     7
 43
1.0
 76
     1
 77
     6
 78
     2
 67
     7
 79
     5
170
     0
171
     0
290
     0
174
     0
 93
       13
 44
0.0
173
     0
291
     1
 45
0.0
1001
ACAD
1000
AcDbSavedByObjectVersion
1070
     0
  0
VISUALSTYLE
  5
18
102
{ACAD_XDICTIONARY
360
2044
102
}
102
{ACAD_REACTORS
330
14
102
}
330
14
100
AcDbVisualStyle
  2

 70
     3
 71
     2
 72
     2
 73
     1
 90
        2
 40
-0.6
 41
30.0
 62
     5
 63
     7
 74
     1
 91
        4
 64
     7
 65
   257
 75
     1
175
     1
 42
1.0
 92
        0
 66
   257
 43
1.0
 76
     1
 77
     6
 78
     2
 67
     7
 79
     5
170
     0
171
     0
290
     0
174
     0
 93
       13
 44
0.0
173
     0
291
     1
 45
0.0
1001
ACAD
1000
AcDbSavedByObjectVersion
1070
     0
  0
VISUALSTYLE
  5
10C9
102
{ACAD_XDICTIONARY
360
2065
102
}
102
{ACAD_REACTORS
330
14
102
}
330
14
100
AcDbVisualStyle
  2

 70
     6
 71
     1
 72
     2
 73
     2
 90
        0
 40
-0.6
 41
-30.0
 62
     5
 63
     7
 74
     2
 91
        2
 64
     7
 65
   257
 75
     2
175
     1
 42
40.0
 92
        0
 66
   257
 43
1.0
 76
     1
 77
     6
 78
     2
 67
     7
 79
     3
170
     0
171
     0
290
     0
174
     0
 93
        1
 44
0.0
173
     0
291
     0
 45
0.0
1001
ACAD
1000
AcDbSavedByObjectVersion
1070
     0
  0
VISUALSTYLE
  5
10CF
102
{ACAD_XDICTIONARY
360
2071
102
}
102
{ACAD_REACTORS
330
14
102
}
330
14
100
AcDbVisualStyle
  2

 70
    20
 71
     2
 72
     2
 73
     0
 90
        0
 40
-0.6
 41
-30.0
 62
     5
 63
     7
 74
     1
 91
        4
 64
     7
 65
   257
 75
     1
175
     1
 42
1.0
 92
       10
 66
     7
 43
1.0
 76
     1
 77
     6
 78
     2
 67
     7
 79
     5
170
     0
171
     0
290
     0
174
     0
 93
        1
 44
0.0
173
     0
291
     1
 45
0.0
1001
ACAD
1000
AcDbSavedByObjectVersion
1070
     0
  0
VISUALSTYLE
  5
22
102
{ACAD_XDICTIONARY
360
2058
102
}
102
{ACAD_REACTORS
330
14
102
}
330
14
100
AcDbVisualStyle
  2

 70
    14
 71
     2
 72
     2
 73
     0
 90
        0
 40
-0.6
 41
-30.0
 62
     5
 63
     7
 74
     1
 91
        4
 64
     7
 65
   257
 75
     7
175
     7
 42
1.0
 92
        8
 66
     7
 43
1.0
 76
     1
 77
     6
 78
     2
 67
     7
 79
     5
170
     0
171
     0
290
     0
174
     0
 93
        1
 44
0.0
173
     0
291
     1
 45
0.0
1001
ACAD
1000
AcDbSavedByObjectVersion
1070
     0
  0
VISUALSTYLE
  5
10D0
102
{ACAD_XDICTIONARY
360
2073
102
}
102
{ACAD_REACTORS
330
14
102
}
330
14
100
AcDbVisualStyle
  2

 70
    21
 71
     2
 72
     2
 73
     0
 90
        0
 40
-0.6
 41
-30.0
 62
     5
 63
     7
 74
     1
 91
        4
 64
     7
 65
   257
 75
     1
175
     1
 42
1.0
 92
        9
 66
     7
 43
1.0
 76
     1
 77
     6
 78
     2
 67
     7
 79
     5
170
     0
171
     0
290
     0
174
     0
 93
        1
 44
0.0
173
     0
291
     1
 45
0.0
1001
ACAD
1000
AcDbSavedByObjectVersion
1070
     0
  0
VISUALSTYLE
  5
1E
102
{ACAD_XDICTIONARY
360
2050
102
}
102
{ACAD_REACTORS
330
14
102
}
330
14
100
AcDbVisualStyle
  2

 70
     8
 71
     2
 72
     2
 73
     0
 90
        0
 40
-0.6
 41
-30.0
 62
     5
 63
     7
 74
     1
 91
        0
 64
     7
 65
   257
 75
     1
175
     1
 42
1.0
 92
        8
 66
     8
 43
1.0
 76
     1
 77
     6
 78
     2
 67
     7
 79
     5
170
     0
171
     0
290
     0
174
     0
 93
       13
 44
0.0
173
     0
291
     0
 45
0.0
1001
ACAD
1000
AcDbSavedByObjectVersion
1070
     0
  0
VISUALSTYLE
  5
10CE
102
{ACAD_XDICTIONARY
360
206F
102
}
102
{ACAD_REACTORS
330
14
102
}
330
14
100
AcDbVisualStyle
  2

 70
    27
 71
     2
 72
     2
 73
     1
 90
        2
 40
-0.6
 41
30.0
 62
     5
 63
     7
 74
     0
 91
        4
 64
     7
 65
   257
 75
     1
175
     1
 42
1.0
 92
        8
 66
   257
 43
1.0
 76
     1
 77
     6
 78
     2
 67
     8
 79
     3
170
     0
171
     0
290
     0
174
     0
 93
        5
 44
0.0
173
     0
291
     0
 45
0.0
1001
ACAD
1000
AcDbSavedByObjectVersion
1070
     0
  0
VISUALSTYLE
  5
10CD
102
{ACAD_XDICTIONARY
360
206D
102
}
102
{ACAD_REACTORS
330
14
102
}
330
14
100
AcDbVisualStyle
  2

 70
    26
 71
     2
 72
     2
 73
     1
 90
        2
 40
-0.6
 41
30.0
 62
     5
 63
     7
 74
     1
 91
       10
 64
     7
 65
   257
 75
     2
175
     1
 42
1.0
 92
        8
 66
   257
 43
1.0
 76
     1
 77
     6
 78
     2
 67
     7
 79
     3
170
     0
171
     0
290
     0
174
     0
 93
        5
 44
0.0
173
     0
291
     0
 45
0.0
1001
ACAD
1000
AcDbSavedByObjectVersion
1070
     0
  0
VISUALSTYLE
  5
10CA
102
{ACAD_XDICTIONARY
360
2067
102
}
102
{ACAD_REACTORS
330
14
102
}
330
14
100
AcDbVisualStyle
  2

 70
    23
 71
     2
 72
     2
 73
     3
 90
        0
 40
-0.6
 41
-30.0
 62
     5
 63
     7
 74
     2
 91
        2
 64
     7
 65
     7
 75
     1
175
     1
 42
40.0
 92
        8
 66
     7
 43
1.0
 76
     1
 77
     6
 78
     2
 67
     7
 79
     3
170
     0
171
     0
290
     0
174
     0
 93
        1
 44
0.0
173
     0
291
     0
 45
0.0
1001
ACAD
1000
AcDbSavedByObjectVersion
1070
     0
  0
VISUALSTYLE
  5
10CB
102
{ACAD_XDICTIONARY
360
2069
102
}
102
{ACAD_REACTORS
330
14
102
}
330
14
100
AcDbVisualStyle
  2

 70
    24
 71
     1
 72
     2
 73
     2
 90
        0
 40
-0.6
 41
-30.0
 62
     5
 63
     7
 74
     2
 91
        2
 64
     7
 65
     7
 75
     1
175
     1
 42
40.0
 92
       11
 66
     7
 43
1.0
 76
     1
 77
     6
 78
     2
 67
     7
 79
     6
170
     0
171
     0
290
     0
174
     0
 93
        1
 44
0.0
173
     0
291
     0
 45
0.0
1001
ACAD
1000
AcDbSavedByObjectVersion
1070
     0
  0
VISUALSTYLE
  5
21
102
{ACAD_XDICTIONARY
360
2056
102
}
102
{ACAD_REACTORS
330
14
102
}
330
14
100
AcDbVisualStyle
  2

 70
    13
 71
     2
 72
     2
 73
     0
 90
        0
 40
-0.6
 41
-30.0
 62
     5
 63
     7
 74
     1
 91
        4
 64
     7
 65
   257
 75
     1
175
     1
 42
1.0
 92
       12
 66
     7
 43
1.0
 76
     1
 77
     6
 78
     2
 67
     7
 79
     5
170
     0
171
     0
290
     0
174
     0
 93
        1
 44
0.0
173
     0
291
     1
 45
0.0
1001
ACAD
1000
AcDbSavedByObjectVersion
1070
     0
  0
VISUALSTYLE
  5
10C8
102
{ACAD_XDICTIONARY
360
2063
102
}
102
{ACAD_REACTORS
330
14
102
}
330
14
100
AcDbVisualStyle
  2

 70
     5
 71
     0
 72
     2
 73
     0
 90
        0
 40
-0.6
 41
-30.0
 62
     5
 63
     7
 74
     1
 91
        4
 64
     7
 65
   257
 75
     1
175
     1
 42
1.0
 92
        0
 66
   257
 43
1.0
 76
     1
 77
     6
 78
     2
 67
     7
 79
     3
170
     0
171
     0
290
     0
174
     0
 93
        1
 44
0.0
173
     0
291
     0
 45
0.0
1001
ACAD
1000
AcDbSavedByObjectVersion
1070
     0
  0
VISUALSTYLE
  5
10CC
102
{ACAD_XDICTIONARY
360
206B
102
}
102
{ACAD_REACTORS
330
14
102
}
330
14
100
AcDbVisualStyle
  2

 70
    25
 71
     2
 72
     2
 73
     1
 90
        1
 40
0.5
 41
-30.0
 62
     5
 63
     7
 74
     1
 91
        0
 64
     7
 65
   257
 75
     1
175
     1
 42
1.0
 92
        8
 66
     7
 43
1.0
 76
     1
 77
     6
 78
     2
 67
     7
 79
     3
170
     0
171
     0
290
     0
174
     0
 93
       13
 44
0.0
173
     0
291
     0
 45
0.0
1001
ACAD
1000
AcDbSavedByObjectVersion
1070
     0
  0
DICTIONARYVAR
  5
152D
102
{ACAD_REACTORS
330
219
102
}
330
219
100
DictionaryVariables
280
     0
  1
1:1
  0
DICTIONARYVAR
  5
152C
102
{ACAD_REACTORS
330
219
102
}
330
219
100
DictionaryVariables
280
     0
  1
STANDARD
  0
DICTIONARYVAR
  5
21A
102
{ACAD_REACTORS
330
219
102
}
330
219
100
DictionaryVariables
280
     0
  1
STANDARD
  0
DICTIONARYVAR
  5
10B0
102
{ACAD_REACTORS
330
219
102
}
330
219
100
DictionaryVariables
280
     0
  1
1
  0
DICTIONARYVAR
  5
10AF
102
{ACAD_REACTORS
330
219
102
}
330
219
100
DictionaryVariables
280
     0
  1
0
  0
DICTIONARYVAR
  5
10AE
102
{ACAD_REACTORS
330
219
102
}
330
219
100
DictionaryVariables
280
     0
  1
127
  0
DICTIONARYVAR
  5
1ED5
102
{ACAD_REACTORS
330
219
102
}
330
219
100
DictionaryVariables
280
     0
  1
2
  0
DICTIONARY
  5
2061
330
39
100
AcDbDictionary
280
     1
281
     1
  3
ACAD_XREC_ROUNDTRIP
360
2062
  0
DICTIONARY
  5
205F
330
35
100
AcDbDictionary
280
     1
281
     1
  3
ACAD_XREC_ROUNDTRIP
360
2060
  0
DICTIONARY
  5
10B8
330
12
100
AcDbDictionary
280
     1
281
     1
  3
ACAD_XREC_ROUNDTRIP
360
10B9
  0
DICTIONARY
  5
10B6
330
11
100
AcDbDictionary
280
     1
281
     1
  3
ACAD_XREC_ROUNDTRIP
360
10B7
  0
DICTIONARY
  5
10BA
330
13
100
AcDbDictionary
280
     1
281
     1
  3
ACAD_XREC_ROUNDTRIP
360
10BB
  0
DICTIONARY
  5
158A
330
31
100
AcDbDictionary
280
     1
281
     1
  3
ACAD_ROUNDTRIP_2008_TABLESTYLE_CELLSTYLEMAP
360
2037
  3
ACAD_XREC_ROUNDTRIP
360
205E
  0
DICTIONARY
  5
2048
330
1A
100
AcDbDictionary
280
     1
281
     1
  3
ACAD_XREC_ROUNDTRIP
360
2049
  0
DICTIONARY
  5
204C
330
1C
100
AcDbDictionary
280
     1
281
     1
  3
ACAD_XREC_ROUNDTRIP
360
204D
  0
DICTIONARY
  5
204A
330
1B
100
AcDbDictionary
280
     1
281
     1
  3
ACAD_XREC_ROUNDTRIP
360
204B
  0
DICTIONARY
  5
2046
330
19
100
AcDbDictionary
280
     1
281
     1
  3
ACAD_XREC_ROUNDTRIP
360
2047
  0
DICTIONARY
  5
2054
330
20
100
AcDbDictionary
280
     1
281
     1
  3
ACAD_XREC_ROUNDTRIP
360
2055
  0
DICTIONARY
  5
205C
330
24
100
AcDbDictionary
280
     1
281
     1
  3
ACAD_XREC_ROUNDTRIP
360
205D
  0
DICTIONARY
  5
204E
330
1D
100
AcDbDictionary
280
     1
281
     1
  3
ACAD_XREC_ROUNDTRIP
360
204F
  0
DICTIONARY
  5
2052
330
1F
100
AcDbDictionary
280
     1
281
     1
  3
ACAD_XREC_ROUNDTRIP
360
2053
  0
DICTIONARY
  5
2075
330
10D1
100
AcDbDictionary
280
     1
281
     1
  3
ACAD_XREC_ROUNDTRIP
360
2076
  0
DICTIONARY
  5
205A
330
23
100
AcDbDictionary
280
     1
281
     1
  3
ACAD_XREC_ROUNDTRIP
360
205B
  0
DICTIONARY
  5
203E
330
15
100
AcDbDictionary
280
     1
281
     1
  3
ACAD_XREC_ROUNDTRIP
360
203F
  0
DICTIONARY
  5
2040
330
16
100
AcDbDictionary
280
     1
281
     1
  3
ACAD_XREC_ROUNDTRIP
360
2041
  0
DICTIONARY
  5
2042
330
17
100
AcDbDictionary
280
     1
281
     1
  3
ACAD_XREC_ROUNDTRIP
360
2043
  0
DICTIONARY
  5
2044
330
18
100
AcDbDictionary
280
     1
281
     1
  3
ACAD_XREC_ROUNDTRIP
360
2045
  0
DICTIONARY
  5
2065
330
10C9
100
AcDbDictionary
280
     1
281
     1
  3
ACAD_XREC_ROUNDTRIP
360
2066
  0
DICTIONARY
  5
2071
330
10CF
100
AcDbDictionary
280
     1
281
     1
  3
ACAD_XREC_ROUNDTRIP
360
2072
  0
DICTIONARY
  5
2058
330
22
100
AcDbDictionary
280
     1
281
     1
  3
ACAD_XREC_ROUNDTRIP
360
2059
  0
DICTIONARY
  5
2073
330
10D0
100
AcDbDictionary
280
     1
281
     1
  3
ACAD_XREC_ROUNDTRIP
360
2074
  0
DICTIONARY
  5
2050
330
1E
100
AcDbDictionary
280
     1
281
     1
  3
ACAD_XREC_ROUNDTRIP
360
2051
  0
DICTIONARY
  5
206F
330
10CE
100
AcDbDictionary
280
     1
281
     1
  3
ACAD_XREC_ROUNDTRIP
360
2070
  0
DICTIONARY
  5
206D
330
10CD
100
AcDbDictionary
280
     1
281
     1
  3
ACAD_XREC_ROUNDTRIP
360
206E
  0
DICTIONARY
  5
2067
330
10CA
100
AcDbDictionary
280
     1
281
     1
  3
ACAD_XREC_ROUNDTRIP
360
2068
  0
DICTIONARY
  5
2069
330
10CB
100
AcDbDictionary
280
     1
281
     1
  3
ACAD_XREC_ROUNDTRIP
360
206A
  0
DICTIONARY
  5
2056
330
21
100
AcDbDictionary
280
     1
281
     1
  3
ACAD_XREC_ROUNDTRIP
360
2057
  0
DICTIONARY
  5
2063
330
10C8
100
AcDbDictionary
280
     1
281
     1
  3
ACAD_XREC_ROUNDTRIP
360
2064
  0
DICTIONARY
  5
206B
330
10CC
100
AcDbDictionary
280
     1
281
     1
  3
ACAD_XREC_ROUNDTRIP
360
206C
  0
XRECORD
  5
2062
102
{ACAD_REACTORS
330
2061
102
}
330
2061
100
AcDbXrecord
280
     1
102
SHADEPLOT
 70
     0
102
SHADEPLOTRESLEVEL
 70
     2
102
SHADEPLOTCUSTOMDPI
 70
   300
  0
XRECORD
  5
2060
102
{ACAD_REACTORS
330
205F
102
}
330
205F
100
AcDbXrecord
280
     1
102
SHADEPLOT
 70
     0
102
SHADEPLOTRESLEVEL
 70
     2
102
SHADEPLOTCUSTOMDPI
 70
   300
  0
XRECORD
  5
10B9
102
{ACAD_REACTORS
330
10B8
102
}
330
10B8
100
AcDbXrecord
280
     1
102
MATERIAL
148
0.0
149
0.0
149
0.0
 93
        0
 94
      127
282
     0
 72
     1
 77
     1
171
     1
175
     1
179
     1
273
     0
  0
XRECORD
  5
10B7
102
{ACAD_REACTORS
330
10B6
102
}
330
10B6
100
AcDbXrecord
280
     1
102
MATERIAL
148
0.0
149
0.0
149
0.0
 93
        0
 94
      127
282
     0
 72
     1
 77
     1
171
     1
175
     1
179
     1
273
     0
  0
XRECORD
  5
10BB
102
{ACAD_REACTORS
330
10BA
102
}
330
10BA
100
AcDbXrecord
280
     1
102
MATERIAL
148
0.0
149
0.0
149
0.0
 93
        0
 94
      127
282
     0
 72
     1
 77
     1
171
     1
175
     1
179
     1
273
     0
  0
CELLSTYLEMAP
  5
2037
102
{ACAD_REACTORS
330
158A
102
}
330
158A
100
AcDbCellStyleMap
 90
        3
300
CELLSTYLE
  1
TABLEFORMAT_BEGIN
 90
        5
170
     1
 91
        0
 92
    32768
 62
   257
 93
        1
300
CONTENTFORMAT
  1
CONTENTFORMAT_BEGIN
 90
        0
 91
        0
 92
      512
 93
        0
300

 40
0.0
140
1.0
 94
        5
 62
     0
340
26
144
0.25
309
CONTENTFORMAT_END
171
     1
301
MARGIN
  1
CELLMARGIN_BEGIN
 40
0.06
 40
0.06
 40
0.06
 40
0.06
 40
0.18
 40
0.18
309
CELLMARGIN_END
 94
        6
 95
        1
302
GRIDFORMAT
  1
GRIDFORMAT_BEGIN
 90
        0
 91
        1
 62
     0
 92
       -2
340
0
 93
        0
 40
0.045
309
GRIDFORMAT_END
 95
        2
302
GRIDFORMAT
  1
GRIDFORMAT_BEGIN
 90
        0
 91
        1
 62
     0
 92
       -2
340
0
 93
        0
 40
0.045
309
GRIDFORMAT_END
 95
        4
302
GRIDFORMAT
  1
GRIDFORMAT_BEGIN
 90
        0
 91
        1
 62
     0
 92
       -2
340
0
 93
        0
 40
0.045
309
GRIDFORMAT_END
 95
        8
302
GRIDFORMAT
  1
GRIDFORMAT_BEGIN
 90
        0
 91
        1
 62
     0
 92
       -2
340
0
 93
        0
 40
0.045
309
GRIDFORMAT_END
 95
       16
302
GRIDFORMAT
  1
GRIDFORMAT_BEGIN
 90
        0
 91
        1
 62
     0
 92
       -2
340
0
 93
        0
 40
0.045
309
GRIDFORMAT_END
 95
       32
302
GRIDFORMAT
  1
GRIDFORMAT_BEGIN
 90
        0
 91
        1
 62
     0
 92
       -2
340
0
 93
        0
 40
0.045
309
GRIDFORMAT_END
309
TABLEFORMAT_END
  1
CELLSTYLE_BEGIN
 90
        1
 91
        1
300
_TITLE
309
CELLSTYLE_END
300
CELLSTYLE
  1
TABLEFORMAT_BEGIN
 90
        5
170
     1
 91
        0
 92
        0
 62
   257
 93
        1
300
CONTENTFORMAT
  1
CONTENTFORMAT_BEGIN
 90
        0
 91
        0
 92
      512
 93
        0
300

 40
0.0
140
1.0
 94
        5
 62
     0
340
26
144
0.18
309
CONTENTFORMAT_END
171
     1
301
MARGIN
  1
CELLMARGIN_BEGIN
 40
0.06
 40
0.06
 40
0.06
 40
0.06
 40
0.18
 40
0.18
309
CELLMARGIN_END
 94
        6
 95
        1
302
GRIDFORMAT
  1
GRIDFORMAT_BEGIN
 90
        0
 91
        1
 62
     0
 92
       -2
340
0
 93
        0
 40
0.045
309
GRIDFORMAT_END
 95
        2
302
GRIDFORMAT
  1
GRIDFORMAT_BEGIN
 90
        0
 91
        1
 62
     0
 92
       -2
340
0
 93
        0
 40
0.045
309
GRIDFORMAT_END
 95
        4
302
GRIDFORMAT
  1
GRIDFORMAT_BEGIN
 90
        0
 91
        1
 62
     0
 92
       -2
340
0
 93
        0
 40
0.045
309
GRIDFORMAT_END
 95
        8
302
GRIDFORMAT
  1
GRIDFORMAT_BEGIN
 90
        0
 91
        1
 62
     0
 92
       -2
340
0
 93
        0
 40
0.045
309
GRIDFORMAT_END
 95
       16
302
GRIDFORMAT
  1
GRIDFORMAT_BEGIN
 90
        0
 91
        1
 62
     0
 92
       -2
340
0
 93
        0
 40
0.045
309
GRIDFORMAT_END
 95
       32
302
GRIDFORMAT
  1
GRIDFORMAT_BEGIN
 90
        0
 91
        1
 62
     0
 92
       -2
340
0
 93
        0
 40
0.045
309
GRIDFORMAT_END
309
TABLEFORMAT_END
  1
CELLSTYLE_BEGIN
 90
        2
 91
        1
300
_HEADER
309
CELLSTYLE_END
300
CELLSTYLE
  1
TABLEFORMAT_BEGIN
 90
        5
170
     1
 91
        0
 92
        0
 62
   257
 93
        1
300
CONTENTFORMAT
  1
CONTENTFORMAT_BEGIN
 90
        0
 91
        0
 92
      512
 93
        0
300

 40
0.0
140
1.0
 94
        2
 62
     0
340
26
144
0.18
309
CONTENTFORMAT_END
171
     1
301
MARGIN
  1
CELLMARGIN_BEGIN
 40
0.06
 40
0.06
 40
0.06
 40
0.06
 40
0.18
 40
0.18
309
CELLMARGIN_END
 94
        6
 95
        1
302
GRIDFORMAT
  1
GRIDFORMAT_BEGIN
 90
        0
 91
        1
 62
     0
 92
       -2
340
0
 93
        0
 40
0.045
309
GRIDFORMAT_END
 95
        2
302
GRIDFORMAT
  1
GRIDFORMAT_BEGIN
 90
        0
 91
        1
 62
     0
 92
       -2
340
0
 93
        0
 40
0.045
309
GRIDFORMAT_END
 95
        4
302
GRIDFORMAT
  1
GRIDFORMAT_BEGIN
 90
        0
 91
        1
 62
     0
 92
       -2
340
0
 93
        0
 40
0.045
309
GRIDFORMAT_END
 95
        8
302
GRIDFORMAT
  1
GRIDFORMAT_BEGIN
 90
        0
 91
        1
 62
     0
 92
       -2
340
0
 93
        0
 40
0.045
309
GRIDFORMAT_END
 95
       16
302
GRIDFORMAT
  1
GRIDFORMAT_BEGIN
 90
        0
 91
        1
 62
     0
 92
       -2
340
0
 93
        0
 40
0.045
309
GRIDFORMAT_END
 95
       32
302
GRIDFORMAT
  1
GRIDFORMAT_BEGIN
 90
        0
 91
        1
 62
     0
 92
       -2
340
0
 93
        0
 40
0.045
309
GRIDFORMAT_END
309
TABLEFORMAT_END
  1
CELLSTYLE_BEGIN
 90
        3
 91
        2
300
_DATA
309
CELLSTYLE_END
  0
XRECORD
  5
205E
102
{ACAD_REACTORS
330
158A
102
}
330
158A
100
AcDbXrecord
280
     1
102
ACAD_ROUNDTRIP_PRE2007_TABLESTYLE
 90
      512
 91
        0
  1

 92
      512
 93
        0
  2

 94
      512
 95
        0
  3

  0
XRECORD
  5
2049
102
{ACAD_REACTORS
330
2048
102
}
330
2048
100
AcDbXrecord
280
     1
102
RTVSPropertyOp0
 70
     1
102
RTVSPropertyOp1
 70
     1
102
RTVSPropertyOp2
 70
     1
102
RTVSPropertyOp3
 70
     1
102
RTVSPropertyOp4
 70
     1
102
RTVSPropertyOp5
 70
     1
102
RTVSPropertyOp6
 70
     1
102
RTVSPropertyOp7
 70
     1
102
RTVSPropertyOp8
 70
     1
102
RTVSPropertyOp9
 70
     1
102
RTVSPropertyOp10
 70
     1
102
RTVSPropertyOp11
 70
     1
102
RTVSPropertyOp12
 70
     1
102
RTVSPropertyOp13
 70
     1
102
RTVSPropertyOp14
 70
     1
102
RTVSPropertyOp15
 70
     1
102
RTVSPropertyOp16
 70
     1
102
RTVSPropertyOp17
 70
     1
102
RTVSPropertyOp18
 70
     1
102
RTVSPropertyOp19
 70
     1
102
RTVSPropertyOp20
 70
     1
102
RTVSPropertyOp21
 70
     1
102
RTVSPropertyOp22
 70
     1
102
RTVSPropertyOp23
 70
     1
102
RTVSPropertyOp24
 70
     1
102
RTVSPropertyOp25
 70
     1
102
RTVSPropertyOp26
 70
     1
102
RTVSPropertyOp27
 70
     1
102
RTVSPropertyOp28
 70
     1
102
RTVSPropertyOp29
 70
     1
102
RTVSPropertyOp30
 70
     1
102
RTVSPropertyOp31
 70
     1
102
RTVSPropertyOp32
 70
     1
  0
XRECORD
  5
204D
102
{ACAD_REACTORS
330
204C
102
}
330
204C
100
AcDbXrecord
280
     1
102
RTVSPropertyOp0
 70
     1
102
RTVSPropertyOp1
 70
     1
102
RTVSPropertyOp2
 70
     1
102
RTVSPropertyOp3
 70
     1
102
RTVSPropertyOp4
 70
     1
102
RTVSPropertyOp5
 70
     1
102
RTVSPropertyOp6
 70
     1
102
RTVSPropertyOp7
 70
     1
102
RTVSPropertyOp8
 70
     1
102
RTVSPropertyOp9
 70
     1
102
RTVSPropertyOp10
 70
     1
102
RTVSPropertyOp11
 70
     1
102
RTVSPropertyOp12
 70
     1
102
RTVSPropertyOp13
 70
     1
102
RTVSPropertyOp14
 70
     1
102
RTVSPropertyOp15
 70
     1
102
RTVSPropertyOp16
 70
     1
102
RTVSPropertyOp17
 70
     1
102
RTVSPropertyOp18
 70
     1
102
RTVSPropertyOp19
 70
     1
102
RTVSPropertyOp20
 70
     1
102
RTVSPropertyOp21
 70
     1
102
RTVSPropertyOp22
 70
     1
102
RTVSPropertyOp23
 70
     1
102
RTVSPropertyOp24
 70
     1
102
RTVSPropertyOp25
 70
     1
102
RTVSPropertyOp26
 70
     1
102
RTVSPropertyOp27
 70
     1
102
RTVSPropertyOp28
 70
     1
102
RTVSPropertyOp29
 70
     1
102
RTVSPropertyOp30
 70
     1
102
RTVSPropertyOp31
 70
     1
102
RTVSPropertyOp32
 70
     1
  0
XRECORD
  5
204B
102
{ACAD_REACTORS
330
204A
102
}
330
204A
100
AcDbXrecord
280
     1
102
RTVSPropertyOp0
 70
     1
102
RTVSPropertyOp1
 70
     1
102
RTVSPropertyOp2
 70
     1
102
RTVSPropertyOp3
 70
     1
102
RTVSPropertyOp4
 70
     1
102
RTVSPropertyOp5
 70
     1
102
RTVSPropertyOp6
 70
     1
102
RTVSPropertyOp7
 70
     1
102
RTVSPropertyOp8
 70
     1
102
RTVSPropertyOp9
 70
     1
102
RTVSPropertyOp10
 70
     1
102
RTVSPropertyOp11
 70
     1
102
RTVSPropertyOp12
 70
     1
102
RTVSPropertyOp13
 70
     1
102
RTVSPropertyOp14
 70
     1
102
RTVSPropertyOp15
 70
     1
102
RTVSPropertyOp16
 70
     1
102
RTVSPropertyOp17
 70
     1
102
RTVSPropertyOp18
 70
     1
102
RTVSPropertyOp19
 70
     1
102
RTVSPropertyOp20
 70
     1
102
RTVSPropertyOp21
 70
     1
102
RTVSPropertyOp22
 70
     1
102
RTVSPropertyOp23
 70
     1
102
RTVSPropertyOp24
 70
     1
102
RTVSPropertyOp25
 70
     1
102
RTVSPropertyOp26
 70
     1
102
RTVSPropertyOp27
 70
     1
102
RTVSPropertyOp28
 70
     1
102
RTVSPropertyOp29
 70
     1
102
RTVSPropertyOp30
 70
     1
102
RTVSPropertyOp31
 70
     1
102
RTVSPropertyOp32
 70
     1
  0
XRECORD
  5
2047
102
{ACAD_REACTORS
330
2046
102
}
330
2046
100
AcDbXrecord
280
     1
102
RTVSPropertyOp0
 70
     1
102
RTVSPropertyOp1
 70
     1
102
RTVSPropertyOp2
 70
     1
102
RTVSPropertyOp3
 70
     1
102
RTVSPropertyOp4
 70
     1
102
RTVSPropertyOp5
 70
     1
102
RTVSPropertyOp6
 70
     1
102
RTVSPropertyOp7
 70
     1
102
RTVSPropertyOp8
 70
     1
102
RTVSPropertyOp9
 70
     1
102
RTVSPropertyOp10
 70
     1
102
RTVSPropertyOp11
 70
     1
102
RTVSPropertyOp12
 70
     1
102
RTVSPropertyOp13
 70
     1
102
RTVSPropertyOp14
 70
     1
102
RTVSPropertyOp15
 70
     1
102
RTVSPropertyOp16
 70
     1
102
RTVSPropertyOp17
 70
     1
102
RTVSPropertyOp18
 70
     1
102
RTVSPropertyOp19
 70
     1
102
RTVSPropertyOp20
 70
     1
102
RTVSPropertyOp21
 70
     1
102
RTVSPropertyOp22
 70
     1
102
RTVSPropertyOp23
 70
     1
102
RTVSPropertyOp24
 70
     1
102
RTVSPropertyOp25
 70
     1
102
RTVSPropertyOp26
 70
     1
102
RTVSPropertyOp27
 70
     1
102
RTVSPropertyOp28
 70
     1
102
RTVSPropertyOp29
 70
     1
102
RTVSPropertyOp30
 70
     1
102
RTVSPropertyOp31
 70
     1
102
RTVSPropertyOp32
 70
     1
  0
XRECORD
  5
2055
102
{ACAD_REACTORS
330
2054
102
}
330
2054
100
AcDbXrecord
280
     1
102
RTVSPropertyOp0
 70
     1
102
RTVSPropertyOp1
 70
     1
102
RTVSPropertyOp2
 70
     1
102
RTVSPropertyOp3
 70
     1
102
RTVSPropertyOp4
 70
     1
102
RTVSPropertyOp5
 70
     1
102
RTVSPropertyOp6
 70
     1
102
RTVSPropertyOp7
 70
     1
102
RTVSPropertyOp8
 70
     1
102
RTVSPropertyOp9
 70
     1
102
RTVSPropertyOp10
 70
     1
102
RTVSPropertyOp11
 70
     1
102
RTVSPropertyOp12
 70
     1
102
RTVSPropertyOp13
 70
     1
102
RTVSPropertyOp14
 70
     1
102
RTVSPropertyOp15
 70
     1
102
RTVSPropertyOp16
 70
     1
102
RTVSPropertyOp17
 70
     1
102
RTVSPropertyOp18
 70
     1
102
RTVSPropertyOp19
 70
     1
102
RTVSPropertyOp20
 70
     1
102
RTVSPropertyOp21
 70
     1
102
RTVSPropertyOp22
 70
     1
102
RTVSPropertyOp23
 70
     1
102
RTVSPropertyOp24
 70
     1
102
RTVSPropertyOp25
 70
     1
102
RTVSPropertyOp26
 70
     1
102
RTVSPropertyOp27
 70
     1
102
RTVSPropertyOp28
 70
     1
102
RTVSPropertyOp29
 70
     1
102
RTVSPropertyOp30
 70
     1
102
RTVSPropertyOp31
 70
     1
102
RTVSPropertyOp32
 70
     1
  0
XRECORD
  5
205D
102
{ACAD_REACTORS
330
205C
102
}
330
205C
100
AcDbXrecord
280
     1
102
RTVSPropertyOp0
 70
     1
102
RTVSPropertyOp1
 70
     1
102
RTVSPropertyOp2
 70
     1
102
RTVSPropertyOp3
 70
     1
102
RTVSPropertyOp4
 70
     1
102
RTVSPropertyOp5
 70
     1
102
RTVSPropertyOp6
 70
     1
102
RTVSPropertyOp7
 70
     1
102
RTVSPropertyOp8
 70
     1
102
RTVSPropertyOp9
 70
     1
102
RTVSPropertyOp10
 70
     1
102
RTVSPropertyOp11
 70
     1
102
RTVSPropertyOp12
 70
     1
102
RTVSPropertyOp13
 70
     1
102
RTVSPropertyOp14
 70
     1
102
RTVSPropertyOp15
 70
     1
102
RTVSPropertyOp16
 70
     1
102
RTVSPropertyOp17
 70
     1
102
RTVSPropertyOp18
 70
     1
102
RTVSPropertyOp19
 70
     1
102
RTVSPropertyOp20
 70
     1
102
RTVSPropertyOp21
 70
     1
102
RTVSPropertyOp22
 70
     1
102
RTVSPropertyOp23
 70
     1
102
RTVSPropertyOp24
 70
     1
102
RTVSPropertyOp25
 70
     1
102
RTVSPropertyOp26
 70
     1
102
RTVSPropertyOp27
 70
     1
102
RTVSPropertyOp28
 70
     1
102
RTVSPropertyOp29
 70
     1
102
RTVSPropertyOp30
 70
     1
102
RTVSPropertyOp31
 70
     1
102
RTVSPropertyOp32
 70
     1
  0
XRECORD
  5
204F
102
{ACAD_REACTORS
330
204E
102
}
330
204E
100
AcDbXrecord
280
     1
102
RTVSPropertyOp0
 70
     1
102
RTVSPropertyOp1
 70
     1
102
RTVSPropertyOp2
 70
     1
102
RTVSPropertyOp3
 70
     1
102
RTVSPropertyOp4
 70
     1
102
RTVSPropertyOp5
 70
     1
102
RTVSPropertyOp6
 70
     1
102
RTVSPropertyOp7
 70
     1
102
RTVSPropertyOp8
 70
     1
102
RTVSPropertyOp9
 70
     1
102
RTVSPropertyOp10
 70
     1
102
RTVSPropertyOp11
 70
     1
102
RTVSPropertyOp12
 70
     1
102
RTVSPropertyOp13
 70
     1
102
RTVSPropertyOp14
 70
     1
102
RTVSPropertyOp15
 70
     1
102
RTVSPropertyOp16
 70
     1
102
RTVSPropertyOp17
 70
     1
102
RTVSPropertyOp18
 70
     1
102
RTVSPropertyOp19
 70
     1
102
RTVSPropertyOp20
 70
     1
102
RTVSPropertyOp21
 70
     1
102
RTVSPropertyOp22
 70
     1
102
RTVSPropertyOp23
 70
     1
102
RTVSPropertyOp24
 70
     1
102
RTVSPropertyOp25
 70
     1
102
RTVSPropertyOp26
 70
     1
102
RTVSPropertyOp27
 70
     1
102
RTVSPropertyOp28
 70
     1
102
RTVSPropertyOp29
 70
     1
102
RTVSPropertyOp30
 70
     1
102
RTVSPropertyOp31
 70
     1
102
RTVSPropertyOp32
 70
     1
  0
XRECORD
  5
2053
102
{ACAD_REACTORS
330
2052
102
}
330
2052
100
AcDbXrecord
280
     1
102
RTVSPropertyOp0
 70
     1
102
RTVSPropertyOp1
 70
     1
102
RTVSPropertyOp2
 70
     1
102
RTVSPropertyOp3
 70
     1
102
RTVSPropertyOp4
 70
     1
102
RTVSPropertyOp5
 70
     1
102
RTVSPropertyOp6
 70
     1
102
RTVSPropertyOp7
 70
     1
102
RTVSPropertyOp8
 70
     1
102
RTVSPropertyOp9
 70
     1
102
RTVSPropertyOp10
 70
     1
102
RTVSPropertyOp11
 70
     1
102
RTVSPropertyOp12
 70
     1
102
RTVSPropertyOp13
 70
     1
102
RTVSPropertyOp14
 70
     1
102
RTVSPropertyOp15
 70
     1
102
RTVSPropertyOp16
 70
     1
102
RTVSPropertyOp17
 70
     1
102
RTVSPropertyOp18
 70
     1
102
RTVSPropertyOp19
 70
     1
102
RTVSPropertyOp20
 70
     1
102
RTVSPropertyOp21
 70
     1
102
RTVSPropertyOp22
 70
     1
102
RTVSPropertyOp23
 70
     1
102
RTVSPropertyOp24
 70
     1
102
RTVSPropertyOp25
 70
     1
102
RTVSPropertyOp26
 70
     1
102
RTVSPropertyOp27
 70
     1
102
RTVSPropertyOp28
 70
     1
102
RTVSPropertyOp29
 70
     1
102
RTVSPropertyOp30
 70
     1
102
RTVSPropertyOp31
 70
     1
102
RTVSPropertyOp32
 70
     1
  0
XRECORD
  5
2076
102
{ACAD_REACTORS
330
2075
102
}
330
2075
100
AcDbXrecord
280
     1
102
RTVSPropertyOp0
 70
     0
102
RTVSPropertyOp1
 70
     0
102
RTVSPropertyOp2
 70
     0
102
RTVSPropertyOp3
 70
     0
102
RTVSPropertyOp4
 70
     0
102
RTVSPropertyOp5
 70
     0
102
RTVSPropertyOp6
 70
     0
102
RTVSPropertyOp7
 70
     0
102
RTVSPropertyOp8
 70
     0
102
RTVSPropertyOp9
 70
     0
102
RTVSPropertyOp10
 70
     0
102
RTVSPropertyOp11
 70
     0
102
RTVSPropertyOp12
 70
     0
102
RTVSPropertyOp13
 70
     0
102
RTVSPropertyOp14
 70
     2
102
RTVSPropertyOp15
 70
     0
102
RTVSPropertyOp16
 70
     0
102
RTVSPropertyOp17
 70
     0
102
RTVSPropertyOp18
 70
     0
102
RTVSPropertyOp19
 70
     0
102
RTVSPropertyOp20
 70
     0
102
RTVSPropertyOp21
 70
     0
102
RTVSPropertyOp22
 70
     0
102
RTVSPropertyOp23
 70
     0
102
RTVSPropertyOp24
 70
     0
102
RTVSPropertyOp25
 70
     0
102
RTVSPropertyOp26
 70
     0
102
RTVSPropertyOp27
 70
     0
102
RTVSPropertyOp28
 70
     0
102
RTVSPropertyOp29
 70
     0
102
RTVSPropertyOp30
 70
     0
102
RTVSPropertyOp31
 70
     0
102
RTVSPropertyOp32
 70
     0
  0
XRECORD
  5
205B
102
{ACAD_REACTORS
330
205A
102
}
330
205A
100
AcDbXrecord
280
     1
102
RTVSPropertyOp0
 70
     1
102
RTVSPropertyOp1
 70
     1
102
RTVSPropertyOp2
 70
     1
102
RTVSPropertyOp3
 70
     1
102
RTVSPropertyOp4
 70
     1
102
RTVSPropertyOp5
 70
     1
102
RTVSPropertyOp6
 70
     1
102
RTVSPropertyOp7
 70
     1
102
RTVSPropertyOp8
 70
     1
102
RTVSPropertyOp9
 70
     1
102
RTVSPropertyOp10
 70
     1
102
RTVSPropertyOp11
 70
     1
102
RTVSPropertyOp12
 70
     1
102
RTVSPropertyOp13
 70
     1
102
RTVSPropertyOp14
 70
     1
102
RTVSPropertyOp15
 70
     1
102
RTVSPropertyOp16
 70
     1
102
RTVSPropertyOp17
 70
     1
102
RTVSPropertyOp18
 70
     1
102
RTVSPropertyOp19
 70
     1
102
RTVSPropertyOp20
 70
     1
102
RTVSPropertyOp21
 70
     1
102
RTVSPropertyOp22
 70
     1
102
RTVSPropertyOp23
 70
     1
102
RTVSPropertyOp24
 70
     1
102
RTVSPropertyOp25
 70
     1
102
RTVSPropertyOp26
 70
     1
102
RTVSPropertyOp27
 70
     1
102
RTVSPropertyOp28
 70
     1
102
RTVSPropertyOp29
 70
     1
102
RTVSPropertyOp30
 70
     1
102
RTVSPropertyOp31
 70
     1
102
RTVSPropertyOp32
 70
     1
  0
XRECORD
  5
203F
102
{ACAD_REACTORS
330
203E
102
}
330
203E
100
AcDbXrecord
280
     1
102
RTVSPropertyOp0
 70
     1
102
RTVSPropertyOp1
 70
     1
102
RTVSPropertyOp2
 70
     1
102
RTVSPropertyOp3
 70
     1
102
RTVSPropertyOp4
 70
     1
102
RTVSPropertyOp5
 70
     1
102
RTVSPropertyOp6
 70
     1
102
RTVSPropertyOp7
 70
     1
102
RTVSPropertyOp8
 70
     1
102
RTVSPropertyOp9
 70
     1
102
RTVSPropertyOp10
 70
     1
102
RTVSPropertyOp11
 70
     1
102
RTVSPropertyOp12
 70
     1
102
RTVSPropertyOp13
 70
     1
102
RTVSPropertyOp14
 70
     1
102
RTVSPropertyOp15
 70
     1
102
RTVSPropertyOp16
 70
     1
102
RTVSPropertyOp17
 70
     1
102
RTVSPropertyOp18
 70
     1
102
RTVSPropertyOp19
 70
     1
102
RTVSPropertyOp20
 70
     1
102
RTVSPropertyOp21
 70
     1
102
RTVSPropertyOp22
 70
     1
102
RTVSPropertyOp23
 70
     1
102
RTVSPropertyOp24
 70
     1
102
RTVSPropertyOp25
 70
     1
102
RTVSPropertyOp26
 70
     1
102
RTVSPropertyOp27
 70
     1
102
RTVSPropertyOp28
 70
     1
102
RTVSPropertyOp29
 70
     1
102
RTVSPropertyOp30
 70
     1
102
RTVSPropertyOp31
 70
     1
102
RTVSPropertyOp32
 70
     1
  0
XRECORD
  5
2041
102
{ACAD_REACTORS
330
2040
102
}
330
2040
100
AcDbXrecord
280
     1
102
RTVSPropertyOp0
 70
     1
102
RTVSPropertyOp1
 70
     1
102
RTVSPropertyOp2
 70
     1
102
RTVSPropertyOp3
 70
     1
102
RTVSPropertyOp4
 70
     1
102
RTVSPropertyOp5
 70
     1
102
RTVSPropertyOp6
 70
     1
102
RTVSPropertyOp7
 70
     1
102
RTVSPropertyOp8
 70
     1
102
RTVSPropertyOp9
 70
     1
102
RTVSPropertyOp10
 70
     1
102
RTVSPropertyOp11
 70
     1
102
RTVSPropertyOp12
 70
     1
102
RTVSPropertyOp13
 70
     1
102
RTVSPropertyOp14
 70
     1
102
RTVSPropertyOp15
 70
     1
102
RTVSPropertyOp16
 70
     1
102
RTVSPropertyOp17
 70
     1
102
RTVSPropertyOp18
 70
     1
102
RTVSPropertyOp19
 70
     1
102
RTVSPropertyOp20
 70
     1
102
RTVSPropertyOp21
 70
     1
102
RTVSPropertyOp22
 70
     1
102
RTVSPropertyOp23
 70
     1
102
RTVSPropertyOp24
 70
     1
102
RTVSPropertyOp25
 70
     1
102
RTVSPropertyOp26
 70
     1
102
RTVSPropertyOp27
 70
     1
102
RTVSPropertyOp28
 70
     1
102
RTVSPropertyOp29
 70
     1
102
RTVSPropertyOp30
 70
     1
102
RTVSPropertyOp31
 70
     1
102
RTVSPropertyOp32
 70
     1
  0
XRECORD
  5
2043
102
{ACAD_REACTORS
330
2042
102
}
330
2042
100
AcDbXrecord
280
     1
102
RTVSPropertyOp0
 70
     1
102
RTVSPropertyOp1
 70
     1
102
RTVSPropertyOp2
 70
     1
102
RTVSPropertyOp3
 70
     1
102
RTVSPropertyOp4
 70
     1
102
RTVSPropertyOp5
 70
     1
102
RTVSPropertyOp6
 70
     1
102
RTVSPropertyOp7
 70
     1
102
RTVSPropertyOp8
 70
     1
102
RTVSPropertyOp9
 70
     1
102
RTVSPropertyOp10
 70
     1
102
RTVSPropertyOp11
 70
     1
102
RTVSPropertyOp12
 70
     1
102
RTVSPropertyOp13
 70
     1
102
RTVSPropertyOp14
 70
     1
102
RTVSPropertyOp15
 70
     1
102
RTVSPropertyOp16
 70
     1
102
RTVSPropertyOp17
 70
     1
102
RTVSPropertyOp18
 70
     1
102
RTVSPropertyOp19
 70
     1
102
RTVSPropertyOp20
 70
     1
102
RTVSPropertyOp21
 70
     1
102
RTVSPropertyOp22
 70
     1
102
RTVSPropertyOp23
 70
     1
102
RTVSPropertyOp24
 70
     1
102
RTVSPropertyOp25
 70
     1
102
RTVSPropertyOp26
 70
     1
102
RTVSPropertyOp27
 70
     1
102
RTVSPropertyOp28
 70
     1
102
RTVSPropertyOp29
 70
     1
102
RTVSPropertyOp30
 70
     1
102
RTVSPropertyOp31
 70
     1
102
RTVSPropertyOp32
 70
     1
  0
XRECORD
  5
2045
102
{ACAD_REACTORS
330
2044
102
}
330
2044
100
AcDbXrecord
280
     1
102
RTVSPropertyOp0
 70
     1
102
RTVSPropertyOp1
 70
     1
102
RTVSPropertyOp2
 70
     1
102
RTVSPropertyOp3
 70
     1
102
RTVSPropertyOp4
 70
     1
102
RTVSPropertyOp5
 70
     1
102
RTVSPropertyOp6
 70
     1
102
RTVSPropertyOp7
 70
     1
102
RTVSPropertyOp8
 70
     1
102
RTVSPropertyOp9
 70
     1
102
RTVSPropertyOp10
 70
     1
102
RTVSPropertyOp11
 70
     1
102
RTVSPropertyOp12
 70
     1
102
RTVSPropertyOp13
 70
     1
102
RTVSPropertyOp14
 70
     1
102
RTVSPropertyOp15
 70
     1
102
RTVSPropertyOp16
 70
     1
102
RTVSPropertyOp17
 70
     1
102
RTVSPropertyOp18
 70
     1
102
RTVSPropertyOp19
 70
     1
102
RTVSPropertyOp20
 70
     1
102
RTVSPropertyOp21
 70
     1
102
RTVSPropertyOp22
 70
     1
102
RTVSPropertyOp23
 70
     1
102
RTVSPropertyOp24
 70
     1
102
RTVSPropertyOp25
 70
     1
102
RTVSPropertyOp26
 70
     1
102
RTVSPropertyOp27
 70
     1
102
RTVSPropertyOp28
 70
     1
102
RTVSPropertyOp29
 70
     1
102
RTVSPropertyOp30
 70
     1
102
RTVSPropertyOp31
 70
     1
102
RTVSPropertyOp32
 70
     1
  0
XRECORD
  5
2066
102
{ACAD_REACTORS
330
2065
102
}
330
2065
100
AcDbXrecord
280
     1
102
RTVSPropertyOp0
 70
     1
102
RTVSPropertyOp1
 70
     1
102
RTVSPropertyOp2
 70
     1
102
RTVSPropertyOp3
 70
     1
102
RTVSPropertyOp4
 70
     1
102
RTVSPropertyOp5
 70
     1
102
RTVSPropertyOp6
 70
     1
102
RTVSPropertyOp7
 70
     1
102
RTVSPropertyOp8
 70
     1
102
RTVSPropertyOp9
 70
     1
102
RTVSPropertyOp10
 70
     1
102
RTVSPropertyOp11
 70
     1
102
RTVSPropertyOp12
 70
     1
102
RTVSPropertyOp13
 70
     1
102
RTVSPropertyOp14
 70
     1
102
RTVSPropertyOp15
 70
     1
102
RTVSPropertyOp16
 70
     1
102
RTVSPropertyOp17
 70
     1
102
RTVSPropertyOp18
 70
     1
102
RTVSPropertyOp19
 70
     1
102
RTVSPropertyOp20
 70
     1
102
RTVSPropertyOp21
 70
     1
102
RTVSPropertyOp22
 70
     1
102
RTVSPropertyOp23
 70
     1
102
RTVSPropertyOp24
 70
     1
102
RTVSPropertyOp25
 70
     1
102
RTVSPropertyOp26
 70
     1
102
RTVSPropertyOp27
 70
     1
102
RTVSPropertyOp28
 70
     1
102
RTVSPropertyOp29
 70
     1
102
RTVSPropertyOp30
 70
     1
102
RTVSPropertyOp31
 70
     1
102
RTVSPropertyOp32
 70
     1
  0
XRECORD
  5
2072
102
{ACAD_REACTORS
330
2071
102
}
330
2071
100
AcDbXrecord
280
     1
102
RTVSPropertyOp0
 70
     0
102
RTVSPropertyOp1
 70
     0
102
RTVSPropertyOp2
 70
     0
102
RTVSPropertyOp3
 70
     0
102
RTVSPropertyOp4
 70
     0
102
RTVSPropertyOp5
 70
     0
102
RTVSPropertyOp6
 70
     0
102
RTVSPropertyOp7
 70
     0
102
RTVSPropertyOp8
 70
     0
102
RTVSPropertyOp9
 70
     0
102
RTVSPropertyOp10
 70
     0
102
RTVSPropertyOp11
 70
     0
102
RTVSPropertyOp12
 70
     0
102
RTVSPropertyOp13
 70
     0
102
RTVSPropertyOp14
 70
     2
102
RTVSPropertyOp15
 70
     0
102
RTVSPropertyOp16
 70
     0
102
RTVSPropertyOp17
 70
     0
102
RTVSPropertyOp18
 70
     0
102
RTVSPropertyOp19
 70
     0
102
RTVSPropertyOp20
 70
     0
102
RTVSPropertyOp21
 70
     0
102
RTVSPropertyOp22
 70
     0
102
RTVSPropertyOp23
 70
     0
102
RTVSPropertyOp24
 70
     0
102
RTVSPropertyOp25
 70
     0
102
RTVSPropertyOp26
 70
     0
102
RTVSPropertyOp27
 70
     0
102
RTVSPropertyOp28
 70
     0
102
RTVSPropertyOp29
 70
     0
102
RTVSPropertyOp30
 70
     0
102
RTVSPropertyOp31
 70
     0
102
RTVSPropertyOp32
 70
     0
  0
XRECORD
  5
2059
102
{ACAD_REACTORS
330
2058
102
}
330
2058
100
AcDbXrecord
280
     1
102
RTVSPropertyOp0
 70
     1
102
RTVSPropertyOp1
 70
     1
102
RTVSPropertyOp2
 70
     1
102
RTVSPropertyOp3
 70
     1
102
RTVSPropertyOp4
 70
     1
102
RTVSPropertyOp5
 70
     1
102
RTVSPropertyOp6
 70
     1
102
RTVSPropertyOp7
 70
     1
102
RTVSPropertyOp8
 70
     1
102
RTVSPropertyOp9
 70
     1
102
RTVSPropertyOp10
 70
     1
102
RTVSPropertyOp11
 70
     1
102
RTVSPropertyOp12
 70
     1
102
RTVSPropertyOp13
 70
     1
102
RTVSPropertyOp14
 70
     1
102
RTVSPropertyOp15
 70
     1
102
RTVSPropertyOp16
 70
     1
102
RTVSPropertyOp17
 70
     1
102
RTVSPropertyOp18
 70
     1
102
RTVSPropertyOp19
 70
     1
102
RTVSPropertyOp20
 70
     1
102
RTVSPropertyOp21
 70
     1
102
RTVSPropertyOp22
 70
     1
102
RTVSPropertyOp23
 70
     1
102
RTVSPropertyOp24
 70
     1
102
RTVSPropertyOp25
 70
     1
102
RTVSPropertyOp26
 70
     1
102
RTVSPropertyOp27
 70
     1
102
RTVSPropertyOp28
 70
     1
102
RTVSPropertyOp29
 70
     1
102
RTVSPropertyOp30
 70
     1
102
RTVSPropertyOp31
 70
     1
102
RTVSPropertyOp32
 70
     1
  0
XRECORD
  5
2074
102
{ACAD_REACTORS
330
2073
102
}
330
2073
100
AcDbXrecord
280
     1
102
RTVSPropertyOp0
 70
     0
102
RTVSPropertyOp1
 70
     0
102
RTVSPropertyOp2
 70
     0
102
RTVSPropertyOp3
 70
     0
102
RTVSPropertyOp4
 70
     0
102
RTVSPropertyOp5
 70
     0
102
RTVSPropertyOp6
 70
     0
102
RTVSPropertyOp7
 70
     0
102
RTVSPropertyOp8
 70
     0
102
RTVSPropertyOp9
 70
     0
102
RTVSPropertyOp10
 70
     0
102
RTVSPropertyOp11
 70
     0
102
RTVSPropertyOp12
 70
     0
102
RTVSPropertyOp13
 70
     0
102
RTVSPropertyOp14
 70
     2
102
RTVSPropertyOp15
 70
     0
102
RTVSPropertyOp16
 70
     0
102
RTVSPropertyOp17
 70
     0
102
RTVSPropertyOp18
 70
     0
102
RTVSPropertyOp19
 70
     0
102
RTVSPropertyOp20
 70
     0
102
RTVSPropertyOp21
 70
     0
102
RTVSPropertyOp22
 70
     0
102
RTVSPropertyOp23
 70
     0
102
RTVSPropertyOp24
 70
     0
102
RTVSPropertyOp25
 70
     0
102
RTVSPropertyOp26
 70
     0
102
RTVSPropertyOp27
 70
     0
102
RTVSPropertyOp28
 70
     0
102
RTVSPropertyOp29
 70
     0
102
RTVSPropertyOp30
 70
     0
102
RTVSPropertyOp31
 70
     0
102
RTVSPropertyOp32
 70
     0
  0
XRECORD
  5
2051
102
{ACAD_REACTORS
330
2050
102
}
330
2050
100
AcDbXrecord
280
     1
102
RTVSPropertyOp0
 70
     1
102
RTVSPropertyOp1
 70
     1
102
RTVSPropertyOp2
 70
     1
102
RTVSPropertyOp3
 70
     1
102
RTVSPropertyOp4
 70
     1
102
RTVSPropertyOp5
 70
     1
102
RTVSPropertyOp6
 70
     1
102
RTVSPropertyOp7
 70
     1
102
RTVSPropertyOp8
 70
     1
102
RTVSPropertyOp9
 70
     1
102
RTVSPropertyOp10
 70
     1
102
RTVSPropertyOp11
 70
     1
102
RTVSPropertyOp12
 70
     1
102
RTVSPropertyOp13
 70
     1
102
RTVSPropertyOp14
 70
     1
102
RTVSPropertyOp15
 70
     1
102
RTVSPropertyOp16
 70
     1
102
RTVSPropertyOp17
 70
     1
102
RTVSPropertyOp18
 70
     1
102
RTVSPropertyOp19
 70
     1
102
RTVSPropertyOp20
 70
     1
102
RTVSPropertyOp21
 70
     1
102
RTVSPropertyOp22
 70
     1
102
RTVSPropertyOp23
 70
     1
102
RTVSPropertyOp24
 70
     1
102
RTVSPropertyOp25
 70
     1
102
RTVSPropertyOp26
 70
     1
102
RTVSPropertyOp27
 70
     1
102
RTVSPropertyOp28
 70
     1
102
RTVSPropertyOp29
 70
     1
102
RTVSPropertyOp30
 70
     1
102
RTVSPropertyOp31
 70
     1
102
RTVSPropertyOp32
 70
     1
  0
XRECORD
  5
2070
102
{ACAD_REACTORS
330
206F
102
}
330
206F
100
AcDbXrecord
280
     1
102
RTVSPropertyOp0
 70
     1
102
RTVSPropertyOp1
 70
     1
102
RTVSPropertyOp2
 70
     1
102
RTVSPropertyOp3
 70
     1
102
RTVSPropertyOp4
 70
     1
102
RTVSPropertyOp5
 70
     1
102
RTVSPropertyOp6
 70
     1
102
RTVSPropertyOp7
 70
     1
102
RTVSPropertyOp8
 70
     1
102
RTVSPropertyOp9
 70
     1
102
RTVSPropertyOp10
 70
     1
102
RTVSPropertyOp11
 70
     1
102
RTVSPropertyOp12
 70
     1
102
RTVSPropertyOp13
 70
     1
102
RTVSPropertyOp14
 70
     1
102
RTVSPropertyOp15
 70
     1
102
RTVSPropertyOp16
 70
     1
102
RTVSPropertyOp17
 70
     1
102
RTVSPropertyOp18
 70
     1
102
RTVSPropertyOp19
 70
     1
102
RTVSPropertyOp20
 70
     1
102
RTVSPropertyOp21
 70
     1
102
RTVSPropertyOp22
 70
     1
102
RTVSPropertyOp23
 70
     1
102
RTVSPropertyOp24
 70
     1
102
RTVSPropertyOp25
 70
     1
102
RTVSPropertyOp26
 70
     1
102
RTVSPropertyOp27
 70
     1
102
RTVSPropertyOp28
 70
     1
102
RTVSPropertyOp29
 70
     1
102
RTVSPropertyOp30
 70
     1
102
RTVSPropertyOp31
 70
     1
102
RTVSPropertyOp32
 70
     1
  0
XRECORD
  5
206E
102
{ACAD_REACTORS
330
206D
102
}
330
206D
100
AcDbXrecord
280
     1
102
RTVSPropertyOp0
 70
     1
102
RTVSPropertyOp1
 70
     1
102
RTVSPropertyOp2
 70
     1
102
RTVSPropertyOp3
 70
     1
102
RTVSPropertyOp4
 70
     1
102
RTVSPropertyOp5
 70
     1
102
RTVSPropertyOp6
 70
     1
102
RTVSPropertyOp7
 70
     1
102
RTVSPropertyOp8
 70
     1
102
RTVSPropertyOp9
 70
     1
102
RTVSPropertyOp10
 70
     1
102
RTVSPropertyOp11
 70
     1
102
RTVSPropertyOp12
 70
     1
102
RTVSPropertyOp13
 70
     1
102
RTVSPropertyOp14
 70
     1
102
RTVSPropertyOp15
 70
     1
102
RTVSPropertyOp16
 70
     1
102
RTVSPropertyOp17
 70
     1
102
RTVSPropertyOp18
 70
     1
102
RTVSPropertyOp19
 70
     1
102
RTVSPropertyOp20
 70
     1
102
RTVSPropertyOp21
 70
     1
102
RTVSPropertyOp22
 70
     1
102
RTVSPropertyOp23
 70
     1
102
RTVSPropertyOp24
 70
     1
102
RTVSPropertyOp25
 70
     1
102
RTVSPropertyOp26
 70
     1
102
RTVSPropertyOp27
 70
     1
102
RTVSPropertyOp28
 70
     1
102
RTVSPropertyOp29
 70
     1
102
RTVSPropertyOp30
 70
     1
102
RTVSPropertyOp31
 70
     1
102
RTVSPropertyOp32
 70
     1
  0
XRECORD
  5
2068
102
{ACAD_REACTORS
330
2067
102
}
330
2067
100
AcDbXrecord
280
     1
102
RTVSPropertyOp0
 70
     1
102
RTVSPropertyOp1
 70
     1
102
RTVSPropertyOp2
 70
     1
102
RTVSPropertyOp3
 70
     1
102
RTVSPropertyOp4
 70
     1
102
RTVSPropertyOp5
 70
     1
102
RTVSPropertyOp6
 70
     1
102
RTVSPropertyOp7
 70
     1
102
RTVSPropertyOp8
 70
     1
102
RTVSPropertyOp9
 70
     1
102
RTVSPropertyOp10
 70
     1
102
RTVSPropertyOp11
 70
     1
102
RTVSPropertyOp12
 70
     1
102
RTVSPropertyOp13
 70
     1
102
RTVSPropertyOp14
 70
     1
102
RTVSPropertyOp15
 70
     1
102
RTVSPropertyOp16
 70
     1
102
RTVSPropertyOp17
 70
     1
102
RTVSPropertyOp18
 70
     1
102
RTVSPropertyOp19
 70
     1
102
RTVSPropertyOp20
 70
     1
102
RTVSPropertyOp21
 70
     1
102
RTVSPropertyOp22
 70
     1
102
RTVSPropertyOp23
 70
     1
102
RTVSPropertyOp24
 70
     1
102
RTVSPropertyOp25
 70
     1
102
RTVSPropertyOp26
 70
     1
102
RTVSPropertyOp27
 70
     1
102
RTVSPropertyOp28
 70
     1
102
RTVSPropertyOp29
 70
     1
102
RTVSPropertyOp30
 70
     1
102
RTVSPropertyOp31
 70
     1
102
RTVSPropertyOp32
 70
     1
  0
XRECORD
  5
206A
102
{ACAD_REACTORS
330
2069
102
}
330
2069
100
AcDbXrecord
280
     1
102
RTVSPropertyOp0
 70
     1
102
RTVSPropertyOp1
 70
     1
102
RTVSPropertyOp2
 70
     1
102
RTVSPropertyOp3
 70
     1
102
RTVSPropertyOp4
 70
     1
102
RTVSPropertyOp5
 70
     1
102
RTVSPropertyOp6
 70
     1
102
RTVSPropertyOp7
 70
     1
102
RTVSPropertyOp8
 70
     1
102
RTVSPropertyOp9
 70
     1
102
RTVSPropertyOp10
 70
     1
102
RTVSPropertyOp11
 70
     1
102
RTVSPropertyOp12
 70
     1
102
RTVSPropertyOp13
 70
     1
102
RTVSPropertyOp14
 70
     1
102
RTVSPropertyOp15
 70
     1
102
RTVSPropertyOp16
 70
     1
102
RTVSPropertyOp17
 70
     1
102
RTVSPropertyOp18
 70
     1
102
RTVSPropertyOp19
 70
     1
102
RTVSPropertyOp20
 70
     1
102
RTVSPropertyOp21
 70
     1
102
RTVSPropertyOp22
 70
     1
102
RTVSPropertyOp23
 70
     1
102
RTVSPropertyOp24
 70
     1
102
RTVSPropertyOp25
 70
     1
102
RTVSPropertyOp26
 70
     1
102
RTVSPropertyOp27
 70
     1
102
RTVSPropertyOp28
 70
     1
102
RTVSPropertyOp29
 70
     1
102
RTVSPropertyOp30
 70
     1
102
RTVSPropertyOp31
 70
     1
102
RTVSPropertyOp32
 70
     1
  0
XRECORD
  5
2057
102
{ACAD_REACTORS
330
2056
102
}
330
2056
100
AcDbXrecord
280
     1
102
RTVSPropertyOp0
 70
     1
102
RTVSPropertyOp1
 70
     1
102
RTVSPropertyOp2
 70
     1
102
RTVSPropertyOp3
 70
     1
102
RTVSPropertyOp4
 70
     1
102
RTVSPropertyOp5
 70
     1
102
RTVSPropertyOp6
 70
     1
102
RTVSPropertyOp7
 70
     1
102
RTVSPropertyOp8
 70
     1
102
RTVSPropertyOp9
 70
     1
102
RTVSPropertyOp10
 70
     1
102
RTVSPropertyOp11
 70
     1
102
RTVSPropertyOp12
 70
     1
102
RTVSPropertyOp13
 70
     1
102
RTVSPropertyOp14
 70
     1
102
RTVSPropertyOp15
 70
     1
102
RTVSPropertyOp16
 70
     1
102
RTVSPropertyOp17
 70
     1
102
RTVSPropertyOp18
 70
     1
102
RTVSPropertyOp19
 70
     1
102
RTVSPropertyOp20
 70
     1
102
RTVSPropertyOp21
 70
     1
102
RTVSPropertyOp22
 70
     1
102
RTVSPropertyOp23
 70
     1
102
RTVSPropertyOp24
 70
     1
102
RTVSPropertyOp25
 70
     1
102
RTVSPropertyOp26
 70
     1
102
RTVSPropertyOp27
 70
     1
102
RTVSPropertyOp28
 70
     1
102
RTVSPropertyOp29
 70
     1
102
RTVSPropertyOp30
 70
     1
102
RTVSPropertyOp31
 70
     1
102
RTVSPropertyOp32
 70
     1
  0
XRECORD
  5
2064
102
{ACAD_REACTORS
330
2063
102
}
330
2063
100
AcDbXrecord
280
     1
102
RTVSPropertyOp0
 70
     1
102
RTVSPropertyOp1
 70
     1
102
RTVSPropertyOp2
 70
     1
102
RTVSPropertyOp3
 70
     1
102
RTVSPropertyOp4
 70
     1
102
RTVSPropertyOp5
 70
     1
102
RTVSPropertyOp6
 70
     1
102
RTVSPropertyOp7
 70
     1
102
RTVSPropertyOp8
 70
     1
102
RTVSPropertyOp9
 70
     1
102
RTVSPropertyOp10
 70
     1
102
RTVSPropertyOp11
 70
     1
102
RTVSPropertyOp12
 70
     1
102
RTVSPropertyOp13
 70
     1
102
RTVSPropertyOp14
 70
     1
102
RTVSPropertyOp15
 70
     1
102
RTVSPropertyOp16
 70
     1
102
RTVSPropertyOp17
 70
     1
102
RTVSPropertyOp18
 70
     1
102
RTVSPropertyOp19
 70
     1
102
RTVSPropertyOp20
 70
     1
102
RTVSPropertyOp21
 70
     1
102
RTVSPropertyOp22
 70
     1
102
RTVSPropertyOp23
 70
     1
102
RTVSPropertyOp24
 70
     1
102
RTVSPropertyOp25
 70
     1
102
RTVSPropertyOp26
 70
     1
102
RTVSPropertyOp27
 70
     1
102
RTVSPropertyOp28
 70
     1
102
RTVSPropertyOp29
 70
     1
102
RTVSPropertyOp30
 70
     1
102
RTVSPropertyOp31
 70
     1
102
RTVSPropertyOp32
 70
     1
  0
XRECORD
  5
206C
102
{ACAD_REACTORS
330
206B
102
}
330
206B
100
AcDbXrecord
280
     1
102
RTVSPropertyOp0
 70
     1
102
RTVSPropertyOp1
 70
     1
102
RTVSPropertyOp2
 70
     1
102
RTVSPropertyOp3
 70
     1
102
RTVSPropertyOp4
 70
     1
102
RTVSPropertyOp5
 70
     1
102
RTVSPropertyOp6
 70
     1
102
RTVSPropertyOp7
 70
     1
102
RTVSPropertyOp8
 70
     1
102
RTVSPropertyOp9
 70
     1
102
RTVSPropertyOp10
 70
     1
102
RTVSPropertyOp11
 70
     1
102
RTVSPropertyOp12
 70
     1
102
RTVSPropertyOp13
 70
     1
102
RTVSPropertyOp14
 70
     1
102
RTVSPropertyOp15
 70
     1
102
RTVSPropertyOp16
 70
     1
102
RTVSPropertyOp17
 70
     1
102
RTVSPropertyOp18
 70
     1
102
RTVSPropertyOp19
 70
     1
102
RTVSPropertyOp20
 70
     1
102
RTVSPropertyOp21
 70
     1
102
RTVSPropertyOp22
 70
     1
102
RTVSPropertyOp23
 70
     1
102
RTVSPropertyOp24
 70
     1
102
RTVSPropertyOp25
 70
     1
102
RTVSPropertyOp26
 70
     1
102
RTVSPropertyOp27
 70
     1
102
RTVSPropertyOp28
 70
     1
102
RTVSPropertyOp29
 70
     1
102
RTVSPropertyOp30
 70
     1
102
RTVSPropertyOp31
 70
     1
102
RTVSPropertyOp32
 70
     1
  0
ENDSEC
  0
EOF
